  0
SECTION
  2
HEADER
  9
$ACADVER
  1
AC1015
  9
$ACADMAINTVER
 70
    20
  9
$DWGCODEPAGE
  3
ANSI_1254
  9
$INSBASE
 10
0.0
 20
0.0
 30
0.0
  9
$EXTMIN
 10
1930.852515855058
 20
956.8881030798577
 30
0.0
  9
$EXTMAX
 10
1992.986329953216
 20
1007.186021110168
 30
0.0
  9
$LIMMIN
 10
0.0
 20
0.0
  9
$LIMMAX
 10
420.0
 20
297.0
  9
$ORTHOMODE
 70
     0
  9
$REGENMODE
 70
     1
  9
$FILLMODE
 70
     1
  9
$QTEXTMODE
 70
     0
  9
$MIRRTEXT
 70
     0
  9
$LTSCALE
 40
1.0
  9
$ATTMODE
 70
     1
  9
$TEXTSIZE
 40
2.5
  9
$TRACEWID
 40
1.0
  9
$TEXTSTYLE
  7
Standard
  9
$CLAYER
  8
0
  9
$CELTYPE
  6
ByLayer
  9
$CECOLOR
 62
   256
  9
$CELTSCALE
 40
1.0
  9
$DISPSILH
 70
     0
  9
$DIMSCALE
 40
1.0
  9
$DIMASZ
 40
2.5
  9
$DIMEXO
 40
0.625
  9
$DIMDLI
 40
3.75
  9
$DIMRND
 40
0.0
  9
$DIMDLE
 40
0.0
  9
$DIMEXE
 40
1.25
  9
$DIMTP
 40
0.0
  9
$DIMTM
 40
0.0
  9
$DIMTXT
 40
2.5
  9
$DIMCEN
 40
2.5
  9
$DIMTSZ
 40
0.0
  9
$DIMTOL
 70
     0
  9
$DIMLIM
 70
     0
  9
$DIMTIH
 70
     0
  9
$DIMTOH
 70
     0
  9
$DIMSE1
 70
     0
  9
$DIMSE2
 70
     0
  9
$DIMTAD
 70
     1
  9
$DIMZIN
 70
     8
  9
$DIMBLK
  1

  9
$DIMASO
 70
     1
  9
$DIMSHO
 70
     1
  9
$DIMPOST
  1

  9
$DIMAPOST
  1

  9
$DIMALT
 70
     0
  9
$DIMALTD
 70
     3
  9
$DIMALTF
 40
0.03937007874016
  9
$DIMLFAC
 40
1.0
  9
$DIMTOFL
 70
     1
  9
$DIMTVP
 40
0.0
  9
$DIMTIX
 70
     0
  9
$DIMSOXD
 70
     0
  9
$DIMSAH
 70
     0
  9
$DIMBLK1
  1

  9
$DIMBLK2
  1

  9
$DIMSTYLE
  2
ISO-25
  9
$DIMCLRD
 70
     0
  9
$DIMCLRE
 70
     0
  9
$DIMCLRT
 70
     0
  9
$DIMTFAC
 40
1.0
  9
$DIMGAP
 40
0.625
  9
$DIMJUST
 70
     0
  9
$DIMSD1
 70
     0
  9
$DIMSD2
 70
     0
  9
$DIMTOLJ
 70
     0
  9
$DIMTZIN
 70
     8
  9
$DIMALTZ
 70
     0
  9
$DIMALTTZ
 70
     0
  9
$DIMUPT
 70
     0
  9
$DIMDEC
 70
     2
  9
$DIMTDEC
 70
     2
  9
$DIMALTU
 70
     2
  9
$DIMALTTD
 70
     3
  9
$DIMTXSTY
  7
Standard
  9
$DIMAUNIT
 70
     0
  9
$DIMADEC
 70
     0
  9
$DIMALTRND
 40
0.0
  9
$DIMAZIN
 70
     0
  9
$DIMDSEP
 70
    44
  9
$DIMATFIT
 70
     3
  9
$DIMFRAC
 70
     0
  9
$DIMLDRBLK
  1

  9
$DIMLUNIT
 70
     2
  9
$DIMLWD
 70
    -2
  9
$DIMLWE
 70
    -2
  9
$DIMTMOVE
 70
     0
  9
$LUNITS
 70
     2
  9
$LUPREC
 70
     4
  9
$SKETCHINC
 40
1.0
  9
$FILLETRAD
 40
0.0
  9
$AUNITS
 70
     0
  9
$AUPREC
 70
     0
  9
$MENU
  1
.
  9
$ELEVATION
 40
0.0
  9
$PELEVATION
 40
0.0
  9
$THICKNESS
 40
0.0
  9
$LIMCHECK
 70
     0
  9
$CHAMFERA
 40
0.0
  9
$CHAMFERB
 40
0.0
  9
$CHAMFERC
 40
0.0
  9
$CHAMFERD
 40
0.0
  9
$SKPOLY
 70
     0
  9
$TDCREATE
 40
2459059.827153334
  9
$TDUCREATE
 40
2459059.702153334
  9
$TDUPDATE
 40
2459067.606793206
  9
$TDUUPDATE
 40
2459067.481793206
  9
$TDINDWG
 40
0.0003222917
  9
$TDUSRTIMER
 40
0.0003222685
  9
$USRTIMER
 70
     1
  9
$ANGBASE
 50
0.0
  9
$ANGDIR
 70
     0
  9
$PDMODE
 70
     0
  9
$PDSIZE
 40
0.0
  9
$PLINEWID
 40
0.0
  9
$SPLFRAME
 70
     0
  9
$SPLINETYPE
 70
     6
  9
$SPLINESEGS
 70
     8
  9
$HANDSEED
  5
4AC
  9
$SURFTAB1
 70
     6
  9
$SURFTAB2
 70
     6
  9
$SURFTYPE
 70
     6
  9
$SURFU
 70
     6
  9
$SURFV
 70
     6
  9
$UCSBASE
  2

  9
$UCSNAME
  2

  9
$UCSORG
 10
0.0
 20
0.0
 30
0.0
  9
$UCSXDIR
 10
1.0
 20
0.0
 30
0.0
  9
$UCSYDIR
 10
0.0
 20
1.0
 30
0.0
  9
$UCSORTHOREF
  2

  9
$UCSORTHOVIEW
 70
     0
  9
$UCSORGTOP
 10
0.0
 20
0.0
 30
0.0
  9
$UCSORGBOTTOM
 10
0.0
 20
0.0
 30
0.0
  9
$UCSORGLEFT
 10
0.0
 20
0.0
 30
0.0
  9
$UCSORGRIGHT
 10
0.0
 20
0.0
 30
0.0
  9
$UCSORGFRONT
 10
0.0
 20
0.0
 30
0.0
  9
$UCSORGBACK
 10
0.0
 20
0.0
 30
0.0
  9
$PUCSBASE
  2

  9
$PUCSNAME
  2

  9
$PUCSORG
 10
0.0
 20
0.0
 30
0.0
  9
$PUCSXDIR
 10
1.0
 20
0.0
 30
0.0
  9
$PUCSYDIR
 10
0.0
 20
1.0
 30
0.0
  9
$PUCSORTHOREF
  2

  9
$PUCSORTHOVIEW
 70
     0
  9
$PUCSORGTOP
 10
0.0
 20
0.0
 30
0.0
  9
$PUCSORGBOTTOM
 10
0.0
 20
0.0
 30
0.0
  9
$PUCSORGLEFT
 10
0.0
 20
0.0
 30
0.0
  9
$PUCSORGRIGHT
 10
0.0
 20
0.0
 30
0.0
  9
$PUCSORGFRONT
 10
0.0
 20
0.0
 30
0.0
  9
$PUCSORGBACK
 10
0.0
 20
0.0
 30
0.0
  9
$USERI1
 70
     0
  9
$USERI2
 70
     0
  9
$USERI3
 70
     0
  9
$USERI4
 70
     0
  9
$USERI5
 70
     0
  9
$USERR1
 40
0.0
  9
$USERR2
 40
0.0
  9
$USERR3
 40
0.0
  9
$USERR4
 40
0.0
  9
$USERR5
 40
0.0
  9
$WORLDVIEW
 70
     1
  9
$SHADEDGE
 70
     3
  9
$SHADEDIF
 70
    70
  9
$TILEMODE
 70
     1
  9
$MAXACTVP
 70
    64
  9
$PINSBASE
 10
0.0
 20
0.0
 30
0.0
  9
$PLIMCHECK
 70
     0
  9
$PEXTMIN
 10
0.0
 20
0.0
 30
0.0
  9
$PEXTMAX
 10
0.0
 20
0.0
 30
0.0
  9
$PLIMMIN
 10
0.0
 20
0.0
  9
$PLIMMAX
 10
12.0
 20
9.0
  9
$UNITMODE
 70
     0
  9
$VISRETAIN
 70
     1
  9
$PLINEGEN
 70
     0
  9
$PSLTSCALE
 70
     1
  9
$TREEDEPTH
 70
  3020
  9
$CMLSTYLE
  2
Standard
  9
$CMLJUST
 70
     0
  9
$CMLSCALE
 40
20.0
  9
$PROXYGRAPHICS
 70
     1
  9
$MEASUREMENT
 70
     1
  9
$CELWEIGHT
370
    -1
  9
$ENDCAPS
280
     0
  9
$JOINSTYLE
280
     0
  9
$LWDISPLAY
290
     0
  9
$INSUNITS
 70
     4
  9
$HYPERLINKBASE
  1

  9
$STYLESHEET
  1

  9
$XEDIT
290
     1
  9
$CEPSNTYPE
380
     0
  9
$PSTYLEMODE
290
     1
  9
$FINGERPRINTGUID
  2
{F03F8497-8793-40AD-946B-FE3D544A6F86}
  9
$VERSIONGUID
  2
{A048F3DC-70C8-46DB-AE6E-5AA149946BC8}
  9
$EXTNAMES
290
     1
  9
$PSVPSCALE
 40
0.0
  9
$OLESTARTUP
290
     0
  0
ENDSEC
  0
SECTION
  2
CLASSES
  0
CLASS
  1
ACDBDICTIONARYWDFLT
  2
AcDbDictionaryWithDefault
  3
ObjectDBX Classes
 90
        0
280
     0
281
     0
  0
CLASS
  1
ACDBPLACEHOLDER
  2
AcDbPlaceHolder
  3
ObjectDBX Classes
 90
        0
280
     0
281
     0
  0
CLASS
  1
LAYOUT
  2
AcDbLayout
  3
ObjectDBX Classes
 90
        0
280
     0
281
     0
  0
CLASS
  1
DICTIONARYVAR
  2
AcDbDictionaryVar
  3
ObjectDBX Classes
 90
        0
280
     0
281
     0
  0
CLASS
  1
TABLESTYLE
  2
AcDbTableStyle
  3
ObjectDBX Classes
 90
     4095
280
     0
281
     0
  0
CLASS
  1
MATERIAL
  2
AcDbMaterial
  3
ObjectDBX Classes
 90
     1153
280
     0
281
     0
  0
CLASS
  1
VISUALSTYLE
  2
AcDbVisualStyle
  3
ObjectDBX Classes
 90
     4095
280
     0
281
     0
  0
CLASS
  1
SCALE
  2
AcDbScale
  3
ObjectDBX Classes
 90
     1153
280
     0
281
     0
  0
CLASS
  1
MLEADERSTYLE
  2
AcDbMLeaderStyle
  3
ACDB_MLEADERSTYLE_CLASS
 90
     4095
280
     0
281
     0
  0
CLASS
  1
CELLSTYLEMAP
  2
AcDbCellStyleMap
  3
ObjectDBX Classes
 90
     1152
280
     0
281
     0
  0
ENDSEC
  0
SECTION
  2
TABLES
  0
TABLE
  2
VPORT
  5
8
330
0
100
AcDbSymbolTable
 70
     1
  0
VPORT
  5
EA
330
8
100
AcDbSymbolTableRecord
100
AcDbViewportTableRecord
  2
*Active
 70
     0
 10
0.0
 20
0.0
 11
1.0
 21
1.0
 12
1966.24892686009
 22
979.3228176410067
 13
0.0
 23
0.0
 14
10.0
 24
10.0
 15
10.0
 25
10.0
 16
0.0
 26
0.0
 36
1.0
 17
0.0
 27
0.0
 37
0.0
 40
90.29857999044692
 41
1.903110047846889
 42
50.0
 43
0.0
 44
0.0
 50
0.0
 51
0.0
 71
     0
 72
  1000
 73
     1
 74
     3
 75
     0
 76
     0
 77
     0
 78
     0
281
     0
 65
     1
110
0.0
120
0.0
130
0.0
111
1.0
121
0.0
131
0.0
112
0.0
122
1.0
132
0.0
 79
     0
146
0.0
  0
ENDTAB
  0
TABLE
  2
LTYPE
  5
5
330
0
100
AcDbSymbolTable
 70
     1
  0
LTYPE
  5
14
330
5
100
AcDbSymbolTableRecord
100
AcDbLinetypeTableRecord
  2
ByBlock
 70
     0
  3

 72
    65
 73
     0
 40
0.0
  0
LTYPE
  5
15
330
5
100
AcDbSymbolTableRecord
100
AcDbLinetypeTableRecord
  2
ByLayer
 70
     0
  3

 72
    65
 73
     0
 40
0.0
  0
LTYPE
  5
16
330
5
100
AcDbSymbolTableRecord
100
AcDbLinetypeTableRecord
  2
Continuous
 70
     0
  3
Solid line
 72
    65
 73
     0
 40
0.0
  0
ENDTAB
  0
TABLE
  2
LAYER
  5
2
330
0
100
AcDbSymbolTable
 70
     1
  0
LAYER
  5
10
102
{ACAD_XDICTIONARY
360
13C
102
}
330
2
100
AcDbSymbolTableRecord
100
AcDbLayerTableRecord
  2
0
 70
     0
 62
     7
  6
Continuous
370
    -3
390
F
  0
ENDTAB
  0
TABLE
  2
STYLE
  5
3
330
0
100
AcDbSymbolTable
 70
     2
  0
STYLE
  5
11
330
3
100
AcDbSymbolTableRecord
100
AcDbTextStyleTableRecord
  2
Standard
 70
     0
 40
0.0
 41
1.0
 50
0.0
 71
     0
 42
2.5
  3
txt
  4

  0
STYLE
  5
132
330
3
100
AcDbSymbolTableRecord
100
AcDbTextStyleTableRecord
  2
Annotative
 70
     0
 40
0.0
 41
1.0
 50
0.0
 71
     0
 42
2.5
  3
txt.shx
  4

1001
AcadAnnotative
1000
AnnotativeData
1002
{
1070
     1
1070
     1
1002
}
  0
ENDTAB
  0
TABLE
  2
VIEW
  5
6
330
0
100
AcDbSymbolTable
 70
     0
  0
ENDTAB
  0
TABLE
  2
UCS
  5
7
330
0
100
AcDbSymbolTable
 70
     0
  0
ENDTAB
  0
TABLE
  2
APPID
  5
9
330
0
100
AcDbSymbolTable
 70
     7
  0
APPID
  5
12
330
9
100
AcDbSymbolTableRecord
100
AcDbRegAppTableRecord
  2
ACAD
 70
     0
  0
APPID
  5
9E
330
9
100
AcDbSymbolTableRecord
100
AcDbRegAppTableRecord
  2
ACAD_PSEXT
 70
     0
  0
APPID
  5
133
330
9
100
AcDbSymbolTableRecord
100
AcDbRegAppTableRecord
  2
AcadAnnoPO
 70
     0
  0
APPID
  5
134
330
9
100
AcDbSymbolTableRecord
100
AcDbRegAppTableRecord
  2
AcadAnnotative
 70
     0
  0
APPID
  5
135
330
9
100
AcDbSymbolTableRecord
100
AcDbRegAppTableRecord
  2
ACAD_DSTYLE_DIMJAG
 70
     0
  0
APPID
  5
136
330
9
100
AcDbSymbolTableRecord
100
AcDbRegAppTableRecord
  2
ACAD_DSTYLE_DIMTALN
 70
     0
  0
APPID
  5
165
330
9
100
AcDbSymbolTableRecord
100
AcDbRegAppTableRecord
  2
ACAD_MLEADERVER
 70
     0
  0
ENDTAB
  0
TABLE
  2
DIMSTYLE
  5
A
330
0
100
AcDbSymbolTable
 70
     2
100
AcDbDimStyleTable
 71
     2
340
27
340
137
  0
DIMSTYLE
105
27
330
A
100
AcDbSymbolTableRecord
100
AcDbDimStyleTableRecord
  2
ISO-25
 70
     0
 41
2.5
 42
0.625
 43
3.75
 44
1.25
 73
     0
 74
     0
 77
     1
 78
     8
140
2.5
141
2.5
143
0.03937007874016
147
0.625
171
     3
172
     1
271
     2
272
     2
274
     3
278
    44
283
     0
284
     8
340
11
  0
DIMSTYLE
105
137
330
A
100
AcDbSymbolTableRecord
100
AcDbDimStyleTableRecord
  2
Annotative
 70
     0
 40
0.0
 41
2.5
 42
0.625
 43
3.75
 44
1.25
 73
     0
 74
     0
 77
     1
 78
     8
140
2.5
141
2.5
143
0.03937007874016
147
0.625
171
     3
172
     1
271
     2
272
     2
274
     3
278
    44
283
     0
284
     8
340
11
1001
AcadAnnotative
1000
AnnotativeData
1002
{
1070
     1
1070
     1
1002
}
1001
ACAD_DSTYLE_DIMJAG
1070
   388
1040
1.5
1001
ACAD_DSTYLE_DIMTALN
1070
   392
1070
     0
  0
ENDTAB
  0
TABLE
  2
BLOCK_RECORD
  5
1
330
0
100
AcDbSymbolTable
 70
     5
  0
BLOCK_RECORD
  5
1F
330
1
100
AcDbSymbolTableRecord
100
AcDbBlockTableRecord
  2
*Model_Space
340
22
  0
BLOCK_RECORD
  5
D2
330
1
100
AcDbSymbolTableRecord
100
AcDbBlockTableRecord
  2
*Paper_Space
340
D3
  0
BLOCK_RECORD
  5
D6
330
1
100
AcDbSymbolTableRecord
100
AcDbBlockTableRecord
  2
*Paper_Space0
340
D7
  0
BLOCK_RECORD
  5
1AD
330
1
100
AcDbSymbolTableRecord
100
AcDbBlockTableRecord
  2
SW_CENTERMARKSYMBOL_0
340
0
102
{BLKREFS
331
41A
102
}
  0
BLOCK_RECORD
  5
398
330
1
100
AcDbSymbolTableRecord
100
AcDbBlockTableRecord
  2
1
340
0
310
2800000020000000200000000100080000000000000400000000000000000000000000000000000000000000000080000080000000808000800000008000800080800000C0C0C000C0DCC000F0CAA6000020400000206000002080000020A0000020C0000020E00000400000004020000040400000406000004080000040A0
310
000040C0000040E00000600000006020000060400000606000006080000060A0000060C0000060E00000800000008020000080400000806000008080000080A0000080C0000080E00000A0000000A0200000A0400000A0600000A0800000A0A00000A0C00000A0E00000C0000000C0200000C0400000C0600000C0800000C0
310
A00000C0C00000C0E00000E0000000E0200000E0400000E0600000E0800000E0A00000E0C00000E0E00040000000400020004000400040006000400080004000A0004000C0004000E00040200000402020004020400040206000402080004020A0004020C0004020E000404000004040200040404000404060004040800040
310
40A0004040C0004040E00040600000406020004060400040606000406080004060A0004060C0004060E00040800000408020004080400040806000408080004080A0004080C0004080E00040A0000040A0200040A0400040A0600040A0800040A0A00040A0C00040A0E00040C0000040C0200040C0400040C0600040C08000
310
40C0A00040C0C00040C0E00040E0000040E0200040E0400040E0600040E0800040E0A00040E0C00040E0E00080000000800020008000400080006000800080008000A0008000C0008000E00080200000802020008020400080206000802080008020A0008020C0008020E00080400000804020008040400080406000804080
310
008040A0008040C0008040E00080600000806020008060400080606000806080008060A0008060C0008060E00080800000808020008080400080806000808080008080A0008080C0008080E00080A0000080A0200080A0400080A0600080A0800080A0A00080A0C00080A0E00080C0000080C0200080C0400080C0600080C0
310
800080C0A00080C0C00080C0E00080E0000080E0200080E0400080E0600080E0800080E0A00080E0C00080E0E000C0000000C0002000C0004000C0006000C0008000C000A000C000C000C000E000C0200000C0202000C0204000C0206000C0208000C020A000C020C000C020E000C0400000C0402000C0404000C0406000C0
310
408000C040A000C040C000C040E000C0600000C0602000C0604000C0606000C0608000C060A000C060C000C060E000C0800000C0802000C0804000C0806000C0808000C080A000C080C000C080E000C0A00000C0A02000C0A04000C0A06000C0A08000C0A0A000C0A0C000C0A0E000C0C00000C0C02000C0C04000C0C06000
310
C0C08000C0C0A000F0FBFF00A4A0A000808080000000FF0000FF000000FFFF00FF000000FF00FF00FFFF0000FFFFFF0000000000000000000000000000000000000000000000000000000000000000000000000000000000000000000000000000000000000000000000000000000000000000000000000000000000000000
310
000000000000000000000000000000000000000000000000000000000000000000000000000000000000000000000000000000000000000000000000000000000000000000000000000000000000000000000000FFFFFFFFFFFFFFFFFFFFFFFFFFFFFFFFFFFFFFFFFFFFFFFFFFFF0000000000FFA4A4A4A4A4A4A4A4A4A4A4
310
A4A4A4A4A4A4A4A4A4A4A4A4A4A4A4FF00000000FF0000000000000000000000000000000000000000000000000000FF00000000FF0000000000000000000000000000000000000000000000000000FF00000000FF0000000000000000000000000000000000000000000000000000FF00000000FF00000000000000000000
310
00000000000000000000000000000000FF00000000FF0000000000000000000000000000000000000000000000000000FF00000000FF0000000000000000000000000000000000000000000000000000FF00000000FF0000000000000000000000000000000000000000000000000000FF00000000FF000000000000000000
310
0000000000000000000000000000000000FF00000000FF0000000000000000000000000000000000000000000000000000FF00000000FF0000000000000000000000000000000000000000000000000000FF00000000FF0000000000000000000000000000000000000000000000000000FF00000000FFFFFFFFFFFFFFFFFF
310
FFFFFFFFFFFFFFFFFFFFFFFFFFFFFFFFFFFFFF00000000FF0000000000000000000000000000000000000000000000000000FF00000000FFFFFFFFFFFFFFFFFFFFFFFFFFFFFFFFFFFFFFFFFFFFFFFFFFFFFFFF00000000FF000000000000000000FFFF00000000FFFF000000000000000000FF00000000FF00000000000000
310
0000FFFF00000000FFFF000000000000000000FF00000000FF000000000000000000FFFFFFFFFFFFFFFF000000000000000000FF000000FFFF00000000000000000000FFFFFFFFFFFF00000000000000000000FFFF0000FFA4A4A4A4A4A4A4A4A4A4A4A4A4A4A4A4A4A4A4A4A4A4A4A4A4A4A4A4FF000000FFFFFFFFFFFFFF
310
FFFFFFFFFFFFFFFFFFFFFFFFFFFFFFFFFFFFFFFFFF00000000000000000000000000000000000000000000000000000000000000000000000000000000000000000000000000000000000000000000000000000000000000000000000000000000000000000000000000000000000000000000000000000000000000000000
310
0000000000000000000000000000000000000000000000000000000000000000000000000000000000000000000000000000000000000000
102
{BLKREFS
331
3EC
102
}
1001
ACAD
1000
DesignCenter Data
1002
{
1070
     1
1070
     4
1002
}
  0
BLOCK_RECORD
  5
3ED
330
1
100
AcDbSymbolTableRecord
100
AcDbBlockTableRecord
  2
2
340
0
310
2800000020000000200000000100080000000000000400000000000000000000000000000000000000000000000080000080000000808000800000008000800080800000C0C0C000C0DCC000F0CAA6000020400000206000002080000020A0000020C0000020E00000400000004020000040400000406000004080000040A0
310
000040C0000040E00000600000006020000060400000606000006080000060A0000060C0000060E00000800000008020000080400000806000008080000080A0000080C0000080E00000A0000000A0200000A0400000A0600000A0800000A0A00000A0C00000A0E00000C0000000C0200000C0400000C0600000C0800000C0
310
A00000C0C00000C0E00000E0000000E0200000E0400000E0600000E0800000E0A00000E0C00000E0E00040000000400020004000400040006000400080004000A0004000C0004000E00040200000402020004020400040206000402080004020A0004020C0004020E000404000004040200040404000404060004040800040
310
40A0004040C0004040E00040600000406020004060400040606000406080004060A0004060C0004060E00040800000408020004080400040806000408080004080A0004080C0004080E00040A0000040A0200040A0400040A0600040A0800040A0A00040A0C00040A0E00040C0000040C0200040C0400040C0600040C08000
310
40C0A00040C0C00040C0E00040E0000040E0200040E0400040E0600040E0800040E0A00040E0C00040E0E00080000000800020008000400080006000800080008000A0008000C0008000E00080200000802020008020400080206000802080008020A0008020C0008020E00080400000804020008040400080406000804080
310
008040A0008040C0008040E00080600000806020008060400080606000806080008060A0008060C0008060E00080800000808020008080400080806000808080008080A0008080C0008080E00080A0000080A0200080A0400080A0600080A0800080A0A00080A0C00080A0E00080C0000080C0200080C0400080C0600080C0
310
800080C0A00080C0C00080C0E00080E0000080E0200080E0400080E0600080E0800080E0A00080E0C00080E0E000C0000000C0002000C0004000C0006000C0008000C000A000C000C000C000E000C0200000C0202000C0204000C0206000C0208000C020A000C020C000C020E000C0400000C0402000C0404000C0406000C0
310
408000C040A000C040C000C040E000C0600000C0602000C0604000C0606000C0608000C060A000C060C000C060E000C0800000C0802000C0804000C0806000C0808000C080A000C080C000C080E000C0A00000C0A02000C0A04000C0A06000C0A08000C0A0A000C0A0C000C0A0E000C0C00000C0C02000C0C04000C0C06000
310
C0C08000C0C0A000F0FBFF00A4A0A000808080000000FF0000FF000000FFFF00FF000000FF00FF00FFFF0000FFFFFF00000000000000000000000000000000000000000000000000000000000000000000000000000000000000000000000000000000000000000000000000000000000000000000000000000000000000FF
310
FFFFFFFF000000000000000000000000000000000000000000FFFFFFFFFFFFFFFF000000FFFF000000000000000000000000000000000000FF00FFFFFF000000000000000000FFFF00000000000000000000000000000000FFFF00000000000000000000000000FFFFFF00000000000000000000000000FFFF000000000000
310
00000000000000000000FFFFFF00000000000000000000FFFF00000000000000000000000000000000000000FF000000000000000000FF00FF000000000000000000FF000000000000000000FFFF0000000000000000FFFF00000000000000000000FF00000000000000000000FF00000000000000FFFF0000000000000000
310
0000000000000000000000000000FFFF0000000000FFFF000000000000000000000000FFFF000000000000000000FFFF0000000000FFFF00000000000000000000FFFFFFFFFF000000000000000000FF0000000000FFFF0000000000000000FFFFFFFFFF00FF000000000000000000FFFF00000000FFFF0000000000000000
310
FF00FFFFFFFF00FF0000000000000000FFFF00000000FFFF0000000000000000FFFFFFFFFFFFFFFF000000000000000000FFFF000000FFFF00000000FFFF0000FFFFFFFFFFFFFFFFFF00FFFF0000000000FFFF000000FFFF0000000000000000FFFF00FFFF00FFFF000000000000000000FFFF000000FFFF00000000000000
310
00FFFFFFFFFFFFFFFF0000000000000000FFFF00000000FFFF00000000000000000000FFFFFFFFFF000000000000000000FFFF00000000FFFF000000000000000000000000FFFF00000000000000000000FF000000000000FFFF00000000000000000000000000000000000000000000FFFF00000000000000FFFF00000000
310
000000000000FF00000000000000000000FF0000000000000000FF00FF000000000000000000FF000000000000000000FFFF000000000000000000FFFF00000000000000000000000000000000000000FF0000000000000000000000FFFF00000000000000000000000000000000FFFFFF000000000000000000000000FFFF
310
0000000000000000000000000000FFFFFF00000000000000000000000000FF00FFFFFF000000000000000000FFFFFF00000000000000000000000000000000FFFFFFFFFFFFFFFF000000FFFFFF0000000000000000000000000000000000000000000000FFFFFFFFFFFFFF0000000000000000000000000000000000000000
310
0000000000000000000000000000000000000000000000000000000000000000000000000000000000000000000000000000000000000000
102
{BLKREFS
331
41B
102
}
1001
ACAD
1000
DesignCenter Data
1002
{
1070
     1
1070
     4
1002
}
  0
BLOCK_RECORD
  5
41C
330
1
100
AcDbSymbolTableRecord
100
AcDbBlockTableRecord
  2
3
340
0
310
2800000020000000200000000100080000000000000400000000000000000000000000000000000000000000000080000080000000808000800000008000800080800000C0C0C000C0DCC000F0CAA6000020400000206000002080000020A0000020C0000020E00000400000004020000040400000406000004080000040A0
310
000040C0000040E00000600000006020000060400000606000006080000060A0000060C0000060E00000800000008020000080400000806000008080000080A0000080C0000080E00000A0000000A0200000A0400000A0600000A0800000A0A00000A0C00000A0E00000C0000000C0200000C0400000C0600000C0800000C0
310
A00000C0C00000C0E00000E0000000E0200000E0400000E0600000E0800000E0A00000E0C00000E0E00040000000400020004000400040006000400080004000A0004000C0004000E00040200000402020004020400040206000402080004020A0004020C0004020E000404000004040200040404000404060004040800040
310
40A0004040C0004040E00040600000406020004060400040606000406080004060A0004060C0004060E00040800000408020004080400040806000408080004080A0004080C0004080E00040A0000040A0200040A0400040A0600040A0800040A0A00040A0C00040A0E00040C0000040C0200040C0400040C0600040C08000
310
40C0A00040C0C00040C0E00040E0000040E0200040E0400040E0600040E0800040E0A00040E0C00040E0E00080000000800020008000400080006000800080008000A0008000C0008000E00080200000802020008020400080206000802080008020A0008020C0008020E00080400000804020008040400080406000804080
310
008040A0008040C0008040E00080600000806020008060400080606000806080008060A0008060C0008060E00080800000808020008080400080806000808080008080A0008080C0008080E00080A0000080A0200080A0400080A0600080A0800080A0A00080A0C00080A0E00080C0000080C0200080C0400080C0600080C0
310
800080C0A00080C0C00080C0E00080E0000080E0200080E0400080E0600080E0800080E0A00080E0C00080E0E000C0000000C0002000C0004000C0006000C0008000C000A000C000C000C000E000C0200000C0202000C0204000C0206000C0208000C020A000C020C000C020E000C0400000C0402000C0404000C0406000C0
310
408000C040A000C040C000C040E000C0600000C0602000C0604000C0606000C0608000C060A000C060C000C060E000C0800000C0802000C0804000C0806000C0808000C080A000C080C000C080E000C0A00000C0A02000C0A04000C0A06000C0A08000C0A0A000C0A0C000C0A0E000C0C00000C0C02000C0C04000C0C06000
310
C0C08000C0C0A000F0FBFF00A4A0A000808080000000FF0000FF000000FFFF00FF000000FF00FF00FFFF0000FFFFFF0000000000000000000000000000000000000000000000000000000000000000000000000000000000000000000000FFFFFFFF000000000000000000000000000000000000000000000000FFFFFFFFA4
310
A4A4A4FFFFFFFF0000000000000000000000000000000000FFFFFF000000000000000000000000FFFFFF00000000000000000000000000FFFF00000000000000000000000000000000FFFF0000000000000000000000FFFF000000000000000000000000000000000000FFFF000000000000000000FFFF0000000000000000
310
000000000000000000000000FFFF0000000000000000FF00000000000000000000000000000000000000000000FF0000000000000000FF00000000000000000000000000000000000000000000FF0000000000000000FF00000000000000000000000000000000000000000000FF0000000000000000FF000000000000A4FF
310
FFFFFFFFFFFFFFA4000000000000FF0000000000000000FF000000A4FFFFFFFFA4A4A4A4A4A4FFFFFFFFA4000000FF0000000000000000FF00A4FFFFFFFFFFFFFFFFFFFFFFFFFFFFFFFFFFFFA400FF00000000000000FF00FFFFA4A4FFFFFFFFFFFFFFFFFFFFFFFFFFFFA4A4FFFF00FF000000000000FFA4FFA4A4A4FF0000
310
00000000000000000000FFA4A4A4FFA4FF000000000000FFFFFFFF00FFFF0000A4A4A4A4A4A4A4000000FFFF00FFFFFFFF000000000000FFFFFFFFFFFFA4A4FFFFFFFFFFFFFFFFFFFFA4A4FFFFFFFFFFFF000000000000FFFFFFFFA4FFFFFFFF0000000000000000FFFFFFFFA4FFFFFFFF000000000000FFFFA4A4FFFF0000
310
000000000000000000000000FFFFA4A4FFFF000000000000FFA4FFFF000000000000000000000000000000000000FFFFA4FF000000000000FFA4FF000000000000000000FFFF000000000000000000FFA4FF000000000000FFFF00000000000000FFFFFFFFFFFFFFFF00000000000000FFFF000000000000FFFF0000000000
310
0000FFFFFFFFFFFFFFFF00000000000000FFFF000000000000FFFF00000000000000FF00FFFFFFFF00FF00000000000000FFFF000000000000FFFF00000000000000FFFFFFFFFFFFFFFF00000000000000FFFF00000000000000FFFF00000000000000FFFFFFFFFFFF00000000000000FFFF000000000000000000FFFF0000
310
00000000000000000000000000000000FFFF0000000000000000000000FFFF00000000000000000000000000000000FFFF00000000000000000000000000FFFFFF000000000000000000000000FFFFFF00000000000000000000000000000000FFFFFFFFFFFFFFFFFFFFFFFFFFFF0000000000000000000000000000000000
310
000000000000FFFFFFFF00000000000000000000000000000000000000000000000000000000000000000000000000000000000000000000
102
{BLKREFS
331
491
102
}
1001
ACAD
1000
DesignCenter Data
1002
{
1070
     1
1070
     4
1002
}
  0
ENDTAB
  0
ENDSEC
  0
SECTION
  2
BLOCKS
  0
BLOCK
  5
20
330
1F
100
AcDbEntity
  8
0
100
AcDbBlockBegin
  2
*Model_Space
 70
     0
 10
0.0
 20
0.0
 30
0.0
  3
*Model_Space
  1

  0
ENDBLK
  5
21
330
1F
100
AcDbEntity
  8
0
100
AcDbBlockEnd
  0
BLOCK
  5
D4
330
D2
100
AcDbEntity
 67
     1
  8
0
100
AcDbBlockBegin
  2
*Paper_Space
 70
     0
 10
0.0
 20
0.0
 30
0.0
  3
*Paper_Space
  1

  0
ENDBLK
  5
D5
330
D2
100
AcDbEntity
 67
     1
  8
0
100
AcDbBlockEnd
  0
BLOCK
  5
D8
330
D6
100
AcDbEntity
 67
     1
  8
0
100
AcDbBlockBegin
  2
*Paper_Space0
 70
     0
 10
0.0
 20
0.0
 30
0.0
  3
*Paper_Space0
  1

  0
ENDBLK
  5
D9
330
D6
100
AcDbEntity
 67
     1
  8
0
100
AcDbBlockEnd
  0
BLOCK
  5
1AE
330
1AD
100
AcDbEntity
  8
0
100
AcDbBlockBegin
  2
SW_CENTERMARKSYMBOL_0
 70
     0
 10
0.0
 20
0.0
 30
0.0
  3
SW_CENTERMARKSYMBOL_0
  1

  0
LINE
  5
1AF
330
1AD
100
AcDbEntity
  8
0
  6
Continuous
 62
     0
370
     0
100
AcDbLine
 10
0.0
 20
0.0
 30
0.0
 11
0.0
 21
2.500000000000002
 31
0.0
  0
LINE
  5
1B0
330
1AD
100
AcDbEntity
  8
0
  6
Continuous
 62
     0
370
     0
100
AcDbLine
 10
0.0
 20
0.0
 30
0.0
 11
-2.500000000000002
 21
0.0
 31
0.0
  0
LINE
  5
1B1
330
1AD
100
AcDbEntity
  8
0
  6
Continuous
 62
     0
370
     0
100
AcDbLine
 10
0.0
 20
0.0
 30
0.0
 11
0.0
 21
-2.500000000000002
 31
0.0
  0
LINE
  5
1B2
330
1AD
100
AcDbEntity
  8
0
  6
Continuous
 62
     0
370
     0
100
AcDbLine
 10
0.0
 20
0.0
 30
0.0
 11
2.500000000000002
 21
0.0
 31
0.0
  0
LINE
  5
1B3
330
1AD
100
AcDbEntity
  8
0
  6
Continuous
 62
     0
370
     0
100
AcDbLine
 10
0.0
 20
5.000000000000004
 30
0.0
 11
0.0
 21
6.000000000000005
 31
0.0
  0
LINE
  5
1B4
330
1AD
100
AcDbEntity
  8
0
  6
Continuous
 62
     0
370
     0
100
AcDbLine
 10
-5.000000000000004
 20
0.0
 30
0.0
 11
-6.000000000000005
 21
0.0
 31
0.0
  0
LINE
  5
1B5
330
1AD
100
AcDbEntity
  8
0
  6
Continuous
 62
     0
370
     0
100
AcDbLine
 10
0.0
 20
-5.000000000000004
 30
0.0
 11
0.0
 21
-6.000000000000005
 31
0.0
  0
LINE
  5
1B6
330
1AD
100
AcDbEntity
  8
0
  6
Continuous
 62
     0
370
     0
100
AcDbLine
 10
5.000000000000004
 20
0.0
 30
0.0
 11
6.000000000000005
 21
0.0
 31
0.0
  0
ENDBLK
  5
1B7
330
1AD
100
AcDbEntity
  8
0
100
AcDbBlockEnd
  0
BLOCK
  5
399
330
398
100
AcDbEntity
  8
0
100
AcDbBlockBegin
  2
1
 70
     0
 10
0.0
 20
0.0
 30
0.0
  3
1
  1

  0
ARC
  5
39B
330
398
100
AcDbEntity
  8
0
  6
Continuous
 62
     7
370
    15
100
AcDbCircle
 10
1953.352896766178
 20
1006.686021110168
 30
0.0
 40
0.5000000000000199
100
AcDbArc
 50
358.4185216817886
 51
90.0
  0
ARC
  5
39C
330
398
100
AcDbEntity
  8
0
  6
Continuous
 62
     7
370
    15
100
AcDbCircle
 10
1931.352515855058
 20
1006.686021110168
 30
0.0
 40
0.5000000000000199
100
AcDbArc
 50
90.0
 51
181.5814783182113
  0
LINE
  5
39D
330
398
100
AcDbEntity
  8
0
  6
Continuous
 62
     7
370
    15
100
AcDbLine
 10
1930.852706310618
 20
1006.67222186068
 30
0.0
 11
1930.888369440626
 21
1005.380501410373
 31
0.0
  0
LINE
  5
39E
330
398
100
AcDbEntity
  8
0
  6
Continuous
 62
     7
370
    15
100
AcDbLine
 10
1953.81704318061
 20
1005.380501410373
 30
0.0
 11
1953.852706310618
 21
1006.67222186068
 31
0.0
  0
ARC
  5
39F
330
398
100
AcDbEntity
  8
0
  6
Continuous
 62
     7
370
    15
100
AcDbCircle
 10
1931.161629036232
 20
1001.981021110168
 30
0.0
 40
0.2000000000000175
100
AcDbArc
 50
90.0
 51
182.4999999999984
  0
ARC
  5
3A0
330
398
100
AcDbEntity
  8
0
  6
Continuous
 62
     7
370
    15
100
AcDbCircle
 10
1953.543783585003
 20
1001.981021110168
 30
0.0
 40
0.200000000000017
100
AcDbArc
 50
357.499999999995
 51
90.0
  0
LINE
  5
3A1
330
398
100
AcDbEntity
  8
0
  6
Continuous
 62
     7
370
    15
100
AcDbLine
 10
1930.961819391916
 20
1001.972297232695
 30
0.0
 11
1931.009628124401
 21
1000.877297232695
 31
0.0
  0
LINE
  5
3A2
330
398
100
AcDbEntity
  8
0
  6
Continuous
 62
     7
370
    15
100
AcDbLine
 10
1953.695784496835
 20
1000.877297232695
 30
0.0
 11
1953.74359322932
 21
1001.972297232695
 31
0.0
  0
ARC
  5
3A3
330
398
100
AcDbEntity
  8
0
  6
Continuous
 62
     7
370
    15
100
AcDbCircle
 10
1953.495974852519
 20
1000.886021110168
 30
0.0
 40
0.200000000000017
100
AcDbArc
 50
270.0
 51
357.499999999995
  0
ARC
  5
3A4
330
398
100
AcDbEntity
  8
0
  6
Continuous
 62
     7
370
    15
100
AcDbCircle
 10
1931.209437768717
 20
1000.886021110168
 30
0.0
 40
0.2000000000000175
100
AcDbArc
 50
182.4999999999984
 51
270.0
  0
ARC
  5
3A5
330
398
100
AcDbEntity
  8
0
  6
Continuous
 62
     7
370
    15
100
AcDbCircle
 10
1931.223715479709
 20
1000.481021110168
 30
0.0
 40
0.200000000000026
100
AcDbArc
 50
90.0
 51
181.5814783182243
  0
ARC
  5
3A6
330
398
100
AcDbEntity
  8
0
  6
Continuous
 62
     7
370
    15
100
AcDbCircle
 10
1953.481697141527
 20
1000.481021110168
 30
0.0
 40
0.200000000000017
100
AcDbArc
 50
358.4185216817756
 51
90.0
  0
LINE
  5
3A7
330
398
100
AcDbEntity
  8
0
  6
Continuous
 62
     7
370
    15
100
AcDbLine
 10
1931.023791661933
 20
1000.475501410373
 30
0.0
 11
1931.29445055953
 21
990.6722218606804
 31
0.0
  0
LINE
  5
3A8
330
398
100
AcDbEntity
  8
0
  6
Continuous
 62
     7
370
    15
100
AcDbLine
 10
1953.410962061706
 20
990.6722218606804
 30
0.0
 11
1953.681620959303
 21
1000.475501410373
 31
0.0
  0
ARC
  5
3A9
330
398
100
AcDbEntity
  8
0
  6
Continuous
 62
     7
370
    15
100
AcDbCircle
 10
1952.911152517265
 20
990.6860211101683
 30
0.0
 40
0.5
100
AcDbArc
 50
270.0
 51
358.4185216817886
  0
ARC
  5
3AA
330
398
100
AcDbEntity
  8
0
  6
Continuous
 62
     7
370
    15
100
AcDbCircle
 10
1931.79426010397
 20
990.6860211101683
 30
0.0
 40
0.5000000000000199
100
AcDbArc
 50
181.5814783182113
 51
270.0
  0
SPLINE
  5
3AB
330
398
100
AcDbEntity
  8
0
  6
Continuous
 62
     7
370
    15
100
AcDbSpline
210
0.0
220
0.0
230
1.0
 70
     8
 71
     3
 72
    14
 73
    10
 74
     0
 42
0.0000000001
 43
0.0000000001
 40
0.0
 40
0.0
 40
0.0
 40
0.0
 40
0.0333958060162891
 40
0.1447388564713871
 40
0.2946043793524762
 40
0.4709605353229077
 40
0.6623919432472463
 40
0.8631709468351518
 40
1.0
 40
1.0
 40
1.0
 40
1.0
 10
1931.128871466924
 20
1005.264017838024
 30
0.0
 10
1931.128688304891
 20
1005.264370163156
 30
0.0
 10
1931.127894472782
 20
1005.265897155402
 30
0.0
 10
1931.132723561845
 20
1005.254499975396
 30
0.0
 10
1931.140305715021
 20
1005.228083483255
 30
0.0
 10
1931.150805025898
 20
1005.179696118143
 30
0.0
 10
1931.160286387581
 20
1005.114371168605
 30
0.0
 10
1931.1670423589
 20
1005.04519572628
 30
0.0
 10
1931.168338128277
 20
1004.999029355379
 30
0.0
 10
1931.168863290202
 20
1004.980318602801
 30
0.0
  0
SPLINE
  5
3AC
330
398
100
AcDbEntity
  8
0
  6
Continuous
 62
     7
370
    15
100
AcDbSpline
210
0.0
220
0.0
230
1.0
 70
     8
 71
     3
 72
    13
 73
     9
 74
     0
 42
0.0000000001
 43
0.0000000001
 40
0.0
 40
0.0
 40
0.0
 40
0.0
 40
0.1639337059571437
 40
0.3674257811012767
 40
0.5709148814760288
 40
0.7661269755990207
 40
0.9161635350480491
 40
1.0
 40
1.0
 40
1.0
 40
1.0
 10
1953.536408779725
 20
1004.980294371795
 30
0.0
 10
1953.537182908803
 20
1005.002721947212
 30
0.0
 10
1953.53891796981
 20
1005.052989031506
 30
0.0
 10
1953.546521596105
 20
1005.126602987851
 30
0.0
 10
1953.557268137576
 20
1005.194120301547
 30
0.0
 10
1953.567977488969
 20
1005.239850667832
 30
0.0
 10
1953.576199024487
 20
1005.263213771802
 30
0.0
 10
1953.576299082367
 20
1005.263339849537
 30
0.0
 10
1953.576334950116
 20
1005.263385044624
 30
0.0
  0
LINE
  5
3AD
330
398
100
AcDbEntity
  8
0
  6
Continuous
 62
     7
370
    15
100
AcDbLine
 10
1931.169750175096
 20
1004.980377100148
 30
0.0
 11
1931.243363371722
 21
1002.380376821148
 31
0.0
  0
ARC
  5
3AE
330
398
100
AcDbEntity
  8
0
  6
Continuous
 62
     7
370
    15
100
AcDbCircle
 10
1931.442831627589
 20
1002.386021110168
 30
0.0
 40
0.200000000000017
100
AcDbArc
 50
181.6208444102369
 51
270.0
  0
ARC
  5
3AF
330
398
100
AcDbEntity
  8
0
  6
Continuous
 62
     7
370
    15
100
AcDbCircle
 10
1953.262580993647
 20
1002.386021110168
 30
0.0
 40
0.200000000000017
100
AcDbArc
 50
269.999999999987
 51
358.3791555897631
  0
LINE
  5
3B0
330
398
100
AcDbEntity
  8
0
  6
Continuous
 62
     7
370
    15
100
AcDbLine
 10
1953.462122704501
 20
1002.380374833123
 30
0.0
 11
1953.535636596702
 21
1004.980377896689
 31
0.0
  0
ARC
  5
3B1
330
398
100
AcDbEntity
  8
0
  6
Continuous
 62
     7
370
    15
100
AcDbCircle
 10
1931.088293258402
 20
1005.386021110168
 30
0.0
 40
0.200000000000017
100
AcDbArc
 50
181.5814783182113
 51
270.0
  0
ARC
  5
3B2
330
398
100
AcDbEntity
  8
0
  6
Continuous
 62
     7
370
    15
100
AcDbCircle
 10
1953.617119362834
 20
1005.386021110168
 30
0.0
 40
0.2000000000000236
100
AcDbArc
 50
270.0
 51
358.4185216818017
  0
LINE
  5
3B3
330
398
100
AcDbEntity
  8
0
  6
Continuous
 62
     7
370
    15
100
AcDbLine
 10
1953.352896766178
 20
1007.186021110168
 30
0.0
 11
1931.352515855058
 21
1007.186021110168
 31
0.0
  0
SPLINE
  5
3B4
330
398
100
AcDbEntity
  8
0
  6
Continuous
 62
     7
370
    15
100
AcDbSpline
210
0.0
220
0.0
230
1.0
 70
     8
 71
     3
 72
    10
 73
     6
 74
     0
 42
0.0000000001
 43
0.0000000001
 40
0.0
 40
0.0
 40
0.0
 40
0.0
 40
0.5
 40
0.5
 40
1.0
 40
1.0
 40
1.0
 40
1.0
 10
1953.625595110182
 20
1005.380501410373
 30
0.0
 10
1953.605970841327
 20
1005.380501410373
 30
0.0
 10
1953.583786629844
 20
1005.338610921853
 30
0.0
 10
1953.547744958836
 20
1005.192779630786
 30
0.0
 10
1953.534323429525
 20
1005.088402288537
 30
0.0
 10
1953.531268607709
 20
1004.980501410373
 30
0.0
  0
LWPOLYLINE
  5
3B5
330
398
100
AcDbEntity
  8
0
  6
Continuous
 62
     7
370
    15
100
AcDbPolyline
 90
        5
 70
   128
 43
0.0
 10
1953.457646684418
 20
1002.380501410373
 10
1953.468970212256
 20
1002.780341098061
 10
1953.491615499136
 20
1003.580020523557
 10
1953.514258439963
 20
1004.379700015528
 10
1953.531268607709
 20
1004.980501410373
  0
LINE
  5
3B6
330
398
100
AcDbEntity
  8
0
  6
Continuous
 62
     7
370
    15
100
AcDbLine
 10
1944.846511666433
 20
1002.380501410373
 30
0.0
 11
1953.457646684418
 21
1002.380501410373
 31
0.0
  0
LWPOLYLINE
  5
3B7
330
398
100
AcDbEntity
  8
0
  6
Continuous
 62
     7
370
    15
100
AcDbPolyline
 90
        4
 70
   128
 43
0.0
 10
1944.846232239088
 20
1004.980501410373
 10
1944.846274978508
 20
1004.580661631319
 10
1944.846446778823
 20
1002.981302680472
 10
1944.846511666433
 20
1002.380501410373
  0
SPLINE
  5
3B8
330
398
100
AcDbEntity
  8
0
  6
Continuous
 62
     7
370
    15
100
AcDbSpline
210
0.0
220
0.0
230
1.0
 70
     8
 71
     3
 72
    10
 73
     6
 74
     0
 42
0.0000000001
 43
0.0000000001
 40
0.0
 40
0.0
 40
0.0
 40
0.0
 40
0.5
 40
0.5
 40
1.0
 40
1.0
 40
1.0
 40
1.0
 10
1944.846232239088
 20
1004.980501410373
 30
0.0
 10
1944.846220713182
 20
1005.088435514511
 30
0.0
 10
1944.800024255071
 20
1005.192870089969
 30
0.0
 10
1944.648697195612
 20
1005.33888914334
 30
0.0
 10
1944.545155692635
 20
1005.380501410373
 30
0.0
 10
1944.439090259302
 20
1005.380501410373
 30
0.0
  0
LINE
  5
3B9
330
398
100
AcDbEntity
  8
0
  6
Continuous
 62
     7
370
    15
100
AcDbLine
 10
1940.266322361935
 20
1005.380501410373
 30
0.0
 11
1944.439090259302
 21
1005.380501410373
 31
0.0
  0
SPLINE
  5
3BA
330
398
100
AcDbEntity
  8
0
  6
Continuous
 62
     7
370
    15
100
AcDbSpline
210
0.0
220
0.0
230
1.0
 70
     8
 71
     3
 72
    10
 73
     6
 74
     0
 42
0.0000000001
 43
0.0000000001
 40
0.0
 40
0.0
 40
0.0
 40
0.0
 40
0.5
 40
0.5
 40
1.0
 40
1.0
 40
1.0
 40
1.0
 10
1940.266322361935
 20
1005.380501410373
 30
0.0
 10
1940.160290966938
 20
1005.380501410373
 30
0.0
 10
1940.056327912064
 20
1005.338610921853
 30
0.0
 10
1939.905394048112
 20
1005.192779630786
 30
0.0
 10
1939.859191904506
 20
1005.088402288537
 30
0.0
 10
1939.859180382148
 20
1004.980501410373
 30
0.0
  0
LWPOLYLINE
  5
3BB
330
398
100
AcDbEntity
  8
0
  6
Continuous
 62
     7
370
    15
100
AcDbPolyline
 90
        5
 70
   128
 43
0.0
 10
1939.858900954803
 20
1002.380501410373
 10
1939.85894415961
 20
1002.780341098061
 10
1939.859030314059
 20
1003.580020523557
 10
1939.859116129957
 20
1004.379700015528
 10
1939.859180382148
 20
1004.980501410373
  0
LINE
  5
3BC
330
398
100
AcDbEntity
  8
0
  6
Continuous
 62
     7
370
    15
100
AcDbLine
 10
1931.247765936818
 20
1002.380501410373
 30
0.0
 11
1939.858900954803
 21
1002.380501410373
 31
0.0
  0
LWPOLYLINE
  5
3BD
330
398
100
AcDbEntity
  8
0
  6
Continuous
 62
     7
370
    15
100
AcDbPolyline
 90
        4
 70
   128
 43
0.0
 10
1931.174144013527
 20
1004.980501410373
 10
1931.185464316521
 20
1004.580661631319
 10
1931.230751366014
 20
1002.981302680472
 10
1931.247765936818
 20
1002.380501410373
  0
SPLINE
  5
3BE
330
398
100
AcDbEntity
  8
0
  6
Continuous
 62
     7
370
    15
100
AcDbSpline
210
0.0
220
0.0
230
1.0
 70
     8
 71
     3
 72
    10
 73
     6
 74
     0
 42
0.0000000001
 43
0.0000000001
 40
0.0
 40
0.0
 40
0.0
 40
0.0
 40
0.5
 40
0.5
 40
1.0
 40
1.0
 40
1.0
 40
1.0
 10
1931.174144013527
 20
1004.980501410373
 30
0.0
 10
1931.171088251038
 20
1005.088435514511
 30
0.0
 10
1931.157664952461
 20
1005.192870089969
 30
0.0
 10
1931.121537533597
 20
1005.33888914334
 30
0.0
 10
1931.099448079718
 20
1005.380501410373
 30
0.0
 10
1931.079817511054
 20
1005.380501410373
 30
0.0
  0
LINE
  5
3BF
330
398
100
AcDbEntity
  8
0
  6
Continuous
 62
     7
370
    15
100
AcDbLine
 10
1944.402706310618
 20
1005.186021110168
 30
0.0
 11
1940.302706310618
 21
1005.186021110168
 31
0.0
  0
ARC
  5
3C0
330
398
100
AcDbEntity
  8
0
  6
Continuous
 62
     7
370
    15
100
AcDbCircle
 10
1940.558524447657
 20
1005.334523880807
 30
0.0
 40
0.2957972145334027
100
AcDbArc
 50
171.0579175392003
 51
210.1352224187747
  0
ARC
  5
3C1
330
398
100
AcDbEntity
  8
0
  6
Continuous
 62
     7
370
    15
100
AcDbCircle
 10
1944.146888173578
 20
1005.334523880807
 30
0.0
 40
0.2957972145338452
100
AcDbArc
 50
329.8647775812544
 51
8.94208246076548
  0
LINE
  5
3C2
330
398
100
AcDbEntity
  8
0
  6
Continuous
 62
     7
370
    15
100
AcDbLine
 10
1942.352706310618
 20
1002.181021110168
 30
0.0
 11
1953.543783585003
 21
1002.181021110168
 31
0.0
  0
LINE
  5
3C3
330
398
100
AcDbEntity
  8
0
  6
Continuous
 62
     7
370
    15
100
AcDbLine
 10
1931.161629036232
 20
1002.181021110168
 30
0.0
 11
1942.352706310618
 21
1002.181021110168
 31
0.0
  0
LINE
  5
3C4
330
398
100
AcDbEntity
  8
0
  6
Continuous
 62
     7
370
    15
100
AcDbLine
 10
1953.495974852519
 20
1000.686021110168
 30
0.0
 11
1931.209437768717
 21
1000.686021110168
 31
0.0
  0
LINE
  5
3C5
330
398
100
AcDbEntity
  8
0
  6
Continuous
 62
     7
370
    15
100
AcDbLine
 10
1942.352706310618
 20
1000.681021110168
 30
0.0
 11
1953.481697141527
 21
1000.681021110168
 31
0.0
  0
LINE
  5
3C6
330
398
100
AcDbEntity
  8
0
  6
Continuous
 62
     7
370
    15
100
AcDbLine
 10
1931.223715479709
 20
1000.681021110168
 30
0.0
 11
1942.352706310618
 21
1000.681021110168
 31
0.0
  0
SPLINE
  5
3C7
330
398
100
AcDbEntity
  8
0
  6
Continuous
 62
     7
370
    15
100
AcDbSpline
210
0.0
220
0.0
230
1.0
 70
     8
 71
     3
 72
    10
 73
     6
 74
     0
 42
0.0000000001
 43
0.0000000001
 40
0.0
 40
0.0
 40
0.0
 40
0.0
 40
0.5
 40
0.5
 40
1.0
 40
1.0
 40
1.0
 40
1.0
 10
1944.402706310618
 20
1005.186021110168
 30
0.0
 10
1944.45455914867
 20
1005.186021110168
 30
0.0
 10
1944.50457668838
 20
1005.165753922499
 30
0.0
 10
1944.579000215397
 20
1005.09373330461
 30
0.0
 10
1944.602706310618
 20
1005.041331774764
 30
0.0
 10
1944.602706310618
 20
1004.986021110168
 30
0.0
  0
ARC
  5
3C8
330
398
100
AcDbEntity
  8
0
  6
Continuous
 62
     7
370
    15
100
AcDbCircle
 10
1944.776326784211
 20
1007.271184260275
 30
0.0
 40
2.291749264526632
100
AcDbArc
 50
265.6551701041591
 51
271.7479699739623
  0
SPLINE
  5
3C9
330
398
100
AcDbEntity
  8
0
  6
Continuous
 62
     7
370
    15
100
AcDbSpline
210
0.0
220
0.0
230
1.0
 70
     8
 71
     3
 72
    10
 73
     6
 74
     0
 42
0.0000000001
 43
0.0000000001
 40
0.0
 40
0.0
 40
0.0
 40
0.0
 40
0.5
 40
0.5
 40
1.0
 40
1.0
 40
1.0
 40
1.0
 10
1940.102706310618
 20
1004.986021110168
 30
0.0
 10
1940.102706310618
 20
1005.041325355608
 30
0.0
 10
1940.126428500744
 20
1005.093698695562
 30
0.0
 10
1940.20061949898
 20
1005.165594525627
 30
0.0
 10
1940.25086790796
 20
1005.186021110168
 30
0.0
 10
1940.302706310618
 20
1005.186021110168
 30
0.0
  0
ARC
  5
3CA
330
398
100
AcDbEntity
  8
0
  6
Continuous
 62
     7
370
    15
100
AcDbCircle
 10
1939.929085837025
 20
1007.271184260275
 30
0.0
 40
2.291749264526179
100
AcDbArc
 50
268.2520300260377
 51
274.3448298958409
  0
LINE
  5
3CB
330
398
100
AcDbEntity
  8
0
  6
Continuous
 62
     7
370
    15
100
AcDbLine
 10
1940.102706310618
 20
1004.986021110168
 30
0.0
 11
1940.102706310618
 21
1002.386021110168
 31
0.0
  0
ARC
  5
3CC
330
398
100
AcDbEntity
  8
0
  6
Continuous
 62
     7
370
    15
100
AcDbCircle
 10
1939.928947278918
 20
1004.673758435227
 30
0.0
 40
2.294326539436979
100
AcDbArc
 50
268.2504746351842
 51
274.3434100210929
  0
LINE
  5
3CD
330
398
100
AcDbEntity
  8
0
  6
Continuous
 62
     7
370
    15
100
AcDbLine
 10
1944.602706310618
 20
1002.386021110168
 30
0.0
 11
1944.602706310618
 21
1004.986021110168
 31
0.0
  0
ARC
  5
3CE
330
398
100
AcDbEntity
  8
0
  6
Continuous
 62
     7
370
    15
100
AcDbCircle
 10
1944.776465342317
 20
1004.673758435228
 30
0.0
 40
2.294326539437519
100
AcDbArc
 50
265.656589978907
 51
271.7495253648158
  0
ARC
  5
3CF
330
398
100
AcDbEntity
  8
0
  6
Continuous
 62
     7
370
    15
100
AcDbCircle
 10
1944.593500333208
 20
1002.335316902243
 30
0.0
 40
0.2570143469060066
100
AcDbArc
 50
324.4871834669186
 51
10.12553037030916
  0
ARC
  5
3D0
330
398
100
AcDbEntity
  8
0
  6
Continuous
 62
     7
370
    15
100
AcDbCircle
 10
1944.802706310618
 20
1002.386021110168
 30
0.0
 40
0.200000000000017
100
AcDbArc
 50
180.0
 51
270.0
  0
ARC
  5
3D1
330
398
100
AcDbEntity
  8
0
  6
Continuous
 62
     7
370
    15
100
AcDbCircle
 10
1940.111912288028
 20
1002.335316902243
 30
0.0
 40
0.2570143469058584
100
AcDbArc
 50
169.8744696296844
 51
215.5128165331102
  0
ARC
  5
3D2
330
398
100
AcDbEntity
  8
0
  6
Continuous
 62
     7
370
    15
100
AcDbCircle
 10
1939.902706310618
 20
1002.386021110168
 30
0.0
 40
0.200000000000017
100
AcDbArc
 50
270.0
 51
0.0
  0
ARC
  5
3D3
330
398
100
AcDbEntity
  8
0
  6
Continuous
 62
     7
370
    15
100
AcDbCircle
 10
1953.260211731828
 20
1002.383464075316
 30
0.0
 40
0.1974571798849993
100
AcDbArc
 50
270.6875007557011
 51
359.1402968119646
  0
LINE
  5
3D4
330
398
100
AcDbEntity
  8
0
  6
Continuous
 62
     7
370
    15
100
AcDbLine
 10
1953.262580993647
 20
1002.186021110168
 30
0.0
 11
1944.802706310618
 21
1002.186021110168
 31
0.0
  0
LINE
  5
3D5
330
398
100
AcDbEntity
  8
0
  6
Continuous
 62
     7
370
    15
100
AcDbLine
 10
1939.902706310618
 20
1002.186021110168
 30
0.0
 11
1931.442831627589
 21
1002.186021110168
 31
0.0
  0
ARC
  5
3D6
330
398
100
AcDbEntity
  8
0
  6
Continuous
 62
     7
370
    15
100
AcDbCircle
 10
1931.445200889409
 20
1002.383464075316
 30
0.0
 40
0.1974571798850569
100
AcDbArc
 50
180.859703188055
 51
269.3124992442859
  0
LINE
  5
3D7
330
398
100
AcDbEntity
  8
0
  6
Continuous
 62
     7
370
    15
100
AcDbLine
 10
1952.911152517265
 20
990.1860211101682
 30
0.0
 11
1931.79426010397
 21
990.1860211101682
 31
0.0
  0
LINE
  5
3D8
330
398
100
AcDbEntity
  8
0
  6
Continuous
 62
     7
370
    15
100
AcDbLine
 10
1939.902706310618
 20
1002.186021110168
 30
0.0
 11
1944.802706310618
 21
1002.186021110168
 31
0.0
  0
LINE
  5
3D9
330
398
100
AcDbEntity
  8
0
  6
Continuous
 62
     7
370
    15
100
AcDbLine
 10
1931.143938948169
 20
1005.186021110168
 30
0.0
 11
1931.088293258402
 21
1005.186021110168
 31
0.0
  0
LINE
  5
3DA
330
398
100
AcDbEntity
  8
0
  6
Continuous
 62
     7
370
    15
100
AcDbLine
 10
1953.617119362834
 20
1005.186021110168
 30
0.0
 11
1953.558095422075
 21
1005.186021110168
 31
0.0
  0
LINE
  5
3DB
330
398
100
AcDbEntity
  8
0
  6
Continuous
 62
     7
370
    15
100
AcDbLine
 10
1935.280045716769
 20
1000.681021110168
 30
0.0
 11
1935.280045716769
 21
1000.686021110168
 31
0.0
  0
LINE
  5
3DC
330
398
100
AcDbEntity
  8
0
  6
Continuous
 62
     7
370
    15
100
AcDbLine
 10
1937.917645938131
 20
1000.681021110168
 30
0.0
 11
1937.917645938131
 21
1000.686021110168
 31
0.0
  0
LINE
  5
3DD
330
398
100
AcDbEntity
  8
0
  6
Continuous
 62
     7
370
    15
100
AcDbLine
 10
1937.917645938131
 20
1002.181021110168
 30
0.0
 11
1937.917645938131
 21
1002.186021110168
 31
0.0
  0
LINE
  5
3DE
330
398
100
AcDbEntity
  8
0
  6
Continuous
 62
     7
370
    15
100
AcDbLine
 10
1935.280045716769
 20
1002.181021110168
 30
0.0
 11
1935.280045716769
 21
1002.186021110168
 31
0.0
  0
LINE
  5
3DF
330
398
100
AcDbEntity
  8
0
  6
Continuous
 62
     8
370
    15
100
AcDbLine
 10
1953.852706310618
 20
1006.67222186068
 30
0.0
 11
1930.852706310618
 21
1006.67222186068
 31
0.0
  0
LINE
  5
3E0
330
398
100
AcDbEntity
  8
0
  6
Continuous
 62
     8
370
    15
100
AcDbLine
 10
1953.625595110182
 20
1005.380501410373
 30
0.0
 11
1953.81704318061
 21
1005.380501410373
 31
0.0
  0
LINE
  5
3E1
330
398
100
AcDbEntity
  8
0
  6
Continuous
 62
     8
370
    15
100
AcDbLine
 10
1930.888369440626
 20
1005.380501410373
 30
0.0
 11
1931.079817511054
 21
1005.380501410373
 31
0.0
  0
LINE
  5
3E2
330
398
100
AcDbEntity
  8
0
  6
Continuous
 62
     8
370
    15
100
AcDbLine
 10
1953.74359322932
 20
1001.972297232695
 30
0.0
 11
1930.961819391916
 21
1001.972297232695
 31
0.0
  0
LINE
  5
3E3
330
398
100
AcDbEntity
  8
0
  6
Continuous
 62
     8
370
    15
100
AcDbLine
 10
1931.009628124401
 20
1000.877297232695
 30
0.0
 11
1953.695784496835
 21
1000.877297232695
 31
0.0
  0
LINE
  5
3E4
330
398
100
AcDbEntity
  8
0
  6
Continuous
 62
     8
370
    15
100
AcDbLine
 10
1953.681620959303
 20
1000.475501410373
 30
0.0
 11
1931.023791661933
 21
1000.475501410373
 31
0.0
  0
LINE
  5
3E5
330
398
100
AcDbEntity
  8
0
  6
Continuous
 62
     8
370
    15
100
AcDbLine
 10
1953.410962061706
 20
990.6722218606804
 30
0.0
 11
1931.29445055953
 21
990.6722218606804
 31
0.0
  0
ARC
  5
3E6
330
398
100
AcDbEntity
  8
0
  6
Continuous
 62
     8
370
    15
100
AcDbCircle
 10
1931.281650470008
 20
1005.385751835222
 30
0.0
 40
0.201901238928919
100
AcDbArc
 50
181.4901399437917
 51
218.24341424394
  0
LINE
  5
3E7
330
398
100
AcDbEntity
  8
0
  6
Continuous
 62
     8
370
    15
100
AcDbLine
 10
1931.174144013527
 20
1004.980501410373
 30
0.0
 11
1931.169354139118
 21
1004.980365916556
 31
0.0
  0
ARC
  5
3E8
330
398
100
AcDbEntity
  8
0
  6
Continuous
 62
     8
370
    15
100
AcDbCircle
 10
1953.423789121527
 20
1005.385745753946
 30
0.0
 40
0.2018741196802146
100
AcDbArc
 50
321.159325775069
 51
358.5113863964933
  0
LINE
  5
3E9
330
398
100
AcDbEntity
  8
0
  6
Continuous
 62
     8
370
    15
100
AcDbLine
 10
1953.531268607709
 20
1004.980501410373
 30
0.0
 11
1953.536058482118
 21
1004.980365916556
 31
0.0
  0
LINE
  5
3EA
330
398
100
AcDbEntity
  8
0
  6
Continuous
 62
     8
370
    15
100
AcDbLine
 10
1931.242911649661
 20
1002.380364050452
 30
0.0
 11
1931.247765936818
 21
1002.380501410373
 31
0.0
  0
LINE
  5
3EB
330
398
100
AcDbEntity
  8
0
  6
Continuous
 62
     8
370
    15
100
AcDbLine
 10
1953.457646684418
 20
1002.380501410373
 30
0.0
 11
1953.462500971827
 21
1002.380364050445
 31
0.0
  0
ENDBLK
  5
39A
330
398
100
AcDbEntity
  8
0
100
AcDbBlockEnd
  0
BLOCK
  5
3EE
330
3ED
100
AcDbEntity
  8
0
100
AcDbBlockBegin
  2
2
 70
     0
 10
0.0
 20
0.0
 30
0.0
  3
2
  1

  0
CIRCLE
  5
3F0
330
3ED
100
AcDbEntity
  8
0
  6
Continuous
 62
     7
370
    15
100
AcDbCircle
 10
1942.352706310618
 20
968.3882935354175
 30
0.0
 40
11.50019045555973
  0
CIRCLE
  5
3F1
330
3ED
100
AcDbEntity
  8
0
  6
Continuous
 62
     7
370
    15
100
AcDbCircle
 10
1942.352706310618
 20
968.3882935354175
 30
0.0
 40
11.00019045555976
  0
CIRCLE
  5
3F2
330
3ED
100
AcDbEntity
  8
0
  6
Continuous
 62
     7
370
    15
100
AcDbCircle
 10
1942.352706310618
 20
968.3882935354175
 30
0.0
 40
3.699999999999988
  0
CIRCLE
  5
3F3
330
3ED
100
AcDbEntity
  8
0
  6
Continuous
 62
     7
370
    15
100
AcDbCircle
 10
1942.352706310618
 20
968.3882935354175
 30
0.0
 40
3.5
  0
CIRCLE
  5
3F4
330
3ED
100
AcDbEntity
  8
0
  6
Continuous
 62
     7
370
    15
100
AcDbCircle
 10
1942.352706310618
 20
968.3882935354175
 30
0.0
 40
3.199999999999988
  0
CIRCLE
  5
3F5
330
3ED
100
AcDbEntity
  8
0
  6
Continuous
 62
     7
370
    15
100
AcDbCircle
 10
1942.352706310618
 20
968.3882935354175
 30
0.0
 40
3.399999999999977
  0
LINE
  5
3F6
330
3ED
100
AcDbEntity
  8
0
  6
Continuous
 62
     7
370
    15
100
AcDbLine
 10
1941.852706310618
 20
970.3247852085212
 30
0.0
 11
1941.852706310618
 21
968.8882935354174
 31
0.0
  0
LINE
  5
3F7
330
3ED
100
AcDbEntity
  8
0
  6
Continuous
 62
     7
370
    15
100
AcDbLine
 10
1941.852706310618
 20
968.8882935354174
 30
0.0
 11
1940.416214637514
 21
968.8882935354174
 31
0.0
  0
ARC
  5
3F8
330
3ED
100
AcDbEntity
  8
0
  6
Continuous
 62
     7
370
    15
100
AcDbCircle
 10
1942.352706310618
 20
968.3882935354175
 30
0.0
 40
1.99999999999998
100
AcDbArc
 50
165.5224878140705
 51
194.4775121859294
  0
LINE
  5
3F9
330
3ED
100
AcDbEntity
  8
0
  6
Continuous
 62
     7
370
    15
100
AcDbLine
 10
1940.416214637514
 20
967.8882935354174
 30
0.0
 11
1941.852706310618
 21
967.8882935354174
 31
0.0
  0
LINE
  5
3FA
330
3ED
100
AcDbEntity
  8
0
  6
Continuous
 62
     7
370
    15
100
AcDbLine
 10
1941.852706310618
 20
967.8882935354174
 30
0.0
 11
1941.852706310618
 21
966.4518018623137
 31
0.0
  0
ARC
  5
3FB
330
3ED
100
AcDbEntity
  8
0
  6
Continuous
 62
     7
370
    15
100
AcDbCircle
 10
1942.352706310618
 20
968.3882935354175
 30
0.0
 40
1.99999999999998
100
AcDbArc
 50
255.5224878140705
 51
284.4775121859295
  0
LINE
  5
3FC
330
3ED
100
AcDbEntity
  8
0
  6
Continuous
 62
     7
370
    15
100
AcDbLine
 10
1942.852706310618
 20
966.4518018623137
 30
0.0
 11
1942.852706310618
 21
967.8882935354174
 31
0.0
  0
LINE
  5
3FD
330
3ED
100
AcDbEntity
  8
0
  6
Continuous
 62
     7
370
    15
100
AcDbLine
 10
1942.852706310618
 20
967.8882935354174
 30
0.0
 11
1944.289197983722
 21
967.8882935354174
 31
0.0
  0
ARC
  5
3FE
330
3ED
100
AcDbEntity
  8
0
  6
Continuous
 62
     7
370
    15
100
AcDbCircle
 10
1942.352706310618
 20
968.3882935354175
 30
0.0
 40
2.000000000000007
100
AcDbArc
 50
345.5224878140705
 51
14.47751218592945
  0
LINE
  5
3FF
330
3ED
100
AcDbEntity
  8
0
  6
Continuous
 62
     7
370
    15
100
AcDbLine
 10
1944.289197983722
 20
968.8882935354174
 30
0.0
 11
1942.852706310618
 21
968.8882935354174
 31
0.0
  0
LINE
  5
400
330
3ED
100
AcDbEntity
  8
0
  6
Continuous
 62
     7
370
    15
100
AcDbLine
 10
1942.852706310618
 20
968.8882935354174
 30
0.0
 11
1942.852706310618
 21
970.3247852085212
 31
0.0
  0
ARC
  5
401
330
3ED
100
AcDbEntity
  8
0
  6
Continuous
 62
     7
370
    15
100
AcDbCircle
 10
1942.352706310618
 20
968.3882935354175
 30
0.0
 40
2.000000000000035
100
AcDbArc
 50
75.52248781407055
 51
104.4775121859294
  0
LINE
  5
402
330
3ED
100
AcDbEntity
  8
0
  6
Continuous
 62
     7
370
    15
100
AcDbLine
 10
1942.67637932991
 20
968.711966554709
 30
0.0
 11
1942.852706310618
 21
968.8882935354174
 31
0.0
  0
LINE
  5
403
330
3ED
100
AcDbEntity
  8
0
  6
Continuous
 62
     7
370
    15
100
AcDbLine
 10
1942.67637932991
 20
968.711966554709
 30
0.0
 11
1942.67637932991
 21
970.1830133068231
 31
0.0
  0
SPLINE
  5
404
330
3ED
100
AcDbEntity
  8
0
  6
Continuous
 62
     7
370
    15
100
AcDbSpline
210
0.0
220
0.0
230
1.0
 70
     8
 71
     3
 72
     8
 73
     4
 74
     0
 42
0.0000000001
 43
0.0000000001
 40
0.0
 40
0.0
 40
0.0
 40
0.0
 40
0.0010252758049602
 40
0.0010252758049602
 40
0.0010252758049602
 40
0.0010252758049602
 10
1942.67637932991
 20
970.1830133068231
 30
0.0
 10
1942.735109778357
 20
970.232099339125
 30
0.0
 10
1942.793890223852
 20
970.2792264636146
 30
0.0
 10
1942.852706310618
 20
970.3247852085212
 30
0.0
  0
SPLINE
  5
405
330
3ED
100
AcDbEntity
  8
0
  6
Continuous
 62
     7
370
    15
100
AcDbSpline
210
0.0
220
0.0
230
1.0
 70
     8
 71
     3
 72
     8
 73
     4
 74
     0
 42
0.0000000001
 43
0.0000000001
 40
0.0
 40
0.0
 40
0.0
 40
0.0
 40
0.0010252758049602
 40
0.0010252758049602
 40
0.0010252758049602
 40
0.0010252758049602
 10
1942.029033291326
 20
970.1830133068231
 30
0.0
 10
1941.970302842878
 20
970.232099339125
 30
0.0
 10
1941.911522397384
 20
970.2792264636146
 30
0.0
 10
1941.852706310618
 20
970.3247852085212
 30
0.0
  0
LINE
  5
406
330
3ED
100
AcDbEntity
  8
0
  6
Continuous
 62
     7
370
    15
100
AcDbLine
 10
1942.029033291326
 20
970.1830133068231
 30
0.0
 11
1942.029033291326
 21
968.711966554709
 31
0.0
  0
LINE
  5
407
330
3ED
100
AcDbEntity
  8
0
  6
Continuous
 62
     7
370
    15
100
AcDbLine
 10
1942.029033291326
 20
968.711966554709
 30
0.0
 11
1941.852706310618
 21
968.8882935354174
 31
0.0
  0
ARC
  5
408
330
3ED
100
AcDbEntity
  8
0
  6
Continuous
 62
     7
370
    15
100
AcDbCircle
 10
1942.352706310618
 20
968.3882935354175
 30
0.0
 40
1.823673019291551
100
AcDbArc
 50
79.77674834065702
 51
100.223251659343
  0
SPLINE
  5
409
330
3ED
100
AcDbEntity
  8
0
  6
Continuous
 62
     7
370
    15
100
AcDbSpline
210
0.0
220
0.0
230
1.0
 70
     8
 71
     3
 72
     8
 73
     4
 74
     0
 42
0.0000000001
 43
0.0000000001
 40
0.0
 40
0.0
 40
0.0
 40
0.0
 40
0.0010252758049602
 40
0.0010252758049602
 40
0.0010252758049602
 40
0.0010252758049602
 10
1944.147426082023
 20
968.711966554709
 30
0.0
 10
1944.196512114326
 20
968.770697003157
 30
0.0
 10
1944.243639238815
 20
968.8294774486516
 30
0.0
 10
1944.289197983722
 20
968.8882935354174
 30
0.0
  0
LINE
  5
40A
330
3ED
100
AcDbEntity
  8
0
  6
Continuous
 62
     7
370
    15
100
AcDbLine
 10
1944.147426082023
 20
968.711966554709
 30
0.0
 11
1942.67637932991
 21
968.711966554709
 31
0.0
  0
SPLINE
  5
40B
330
3ED
100
AcDbEntity
  8
0
  6
Continuous
 62
     7
370
    15
100
AcDbSpline
210
0.0
220
0.0
230
1.0
 70
     8
 71
     3
 72
     8
 73
     4
 74
     0
 42
0.0000000001
 43
0.0000000001
 40
0.0
 40
0.0
 40
0.0
 40
0.0
 40
0.0010252758049602
 40
0.0010252758049602
 40
0.0010252758049602
 40
0.0010252758049602
 10
1940.557986539212
 20
968.711966554709
 30
0.0
 10
1940.50890050691
 20
968.770697003157
 30
0.0
 10
1940.461773382421
 20
968.8294774486516
 30
0.0
 10
1940.416214637514
 20
968.8882935354174
 30
0.0
  0
ARC
  5
40C
330
3ED
100
AcDbEntity
  8
0
  6
Continuous
 62
     7
370
    15
100
AcDbCircle
 10
1942.352706310618
 20
968.3882935354175
 30
0.0
 40
1.823673019291528
100
AcDbArc
 50
169.776748340657
 51
190.223251659343
  0
SPLINE
  5
40D
330
3ED
100
AcDbEntity
  8
0
  6
Continuous
 62
     7
370
    15
100
AcDbSpline
210
0.0
220
0.0
230
1.0
 70
     8
 71
     3
 72
     8
 73
     4
 74
     0
 42
0.0000000001
 43
0.0000000001
 40
0.0
 40
0.0
 40
0.0
 40
0.0
 40
0.0010252758049602
 40
0.0010252758049602
 40
0.0010252758049602
 40
0.0010252758049602
 10
1940.557986539212
 20
968.0646205161258
 30
0.0
 10
1940.50890050691
 20
968.005890067678
 30
0.0
 10
1940.461773382421
 20
967.9471096221831
 30
0.0
 10
1940.416214637514
 20
967.8882935354174
 30
0.0
  0
LINE
  5
40E
330
3ED
100
AcDbEntity
  8
0
  6
Continuous
 62
     7
370
    15
100
AcDbLine
 10
1942.029033291326
 20
968.711966554709
 30
0.0
 11
1940.557986539212
 21
968.711966554709
 31
0.0
  0
SPLINE
  5
40F
330
3ED
100
AcDbEntity
  8
0
  6
Continuous
 62
     7
370
    15
100
AcDbSpline
210
0.0
220
0.0
230
1.0
 70
     8
 71
     3
 72
     8
 73
     4
 74
     0
 42
0.0000000001
 43
0.0000000001
 40
0.0
 40
0.0
 40
0.0
 40
0.0
 40
0.0010252758049602
 40
0.0010252758049602
 40
0.0010252758049602
 40
0.0010252758049602
 10
1944.147426082023
 20
968.0646205161258
 30
0.0
 10
1944.196512114326
 20
968.005890067678
 30
0.0
 10
1944.243639238815
 20
967.9471096221831
 30
0.0
 10
1944.289197983722
 20
967.8882935354174
 30
0.0
  0
ARC
  5
410
330
3ED
100
AcDbEntity
  8
0
  6
Continuous
 62
     7
370
    15
100
AcDbCircle
 10
1942.352706310618
 20
968.3882935354175
 30
0.0
 40
1.823673019291528
100
AcDbArc
 50
349.776748340657
 51
10.22325165934298
  0
SPLINE
  5
411
330
3ED
100
AcDbEntity
  8
0
  6
Continuous
 62
     7
370
    15
100
AcDbSpline
210
0.0
220
0.0
230
1.0
 70
     8
 71
     3
 72
     8
 73
     4
 74
     0
 42
0.0000000001
 43
0.0000000001
 40
0.0
 40
0.0
 40
0.0
 40
0.0
 40
0.0010252758049602
 40
0.0010252758049602
 40
0.0010252758049602
 40
0.0010252758049602
 10
1942.67637932991
 20
966.5935737640117
 30
0.0
 10
1942.735109778357
 20
966.5444877317098
 30
0.0
 10
1942.793890223852
 20
966.4973606072203
 30
0.0
 10
1942.852706310618
 20
966.4518018623137
 30
0.0
  0
LINE
  5
412
330
3ED
100
AcDbEntity
  8
0
  6
Continuous
 62
     7
370
    15
100
AcDbLine
 10
1942.67637932991
 20
966.5935737640117
 30
0.0
 11
1942.67637932991
 21
968.0646205161258
 31
0.0
  0
LINE
  5
413
330
3ED
100
AcDbEntity
  8
0
  6
Continuous
 62
     7
370
    15
100
AcDbLine
 10
1942.67637932991
 20
968.0646205161258
 30
0.0
 11
1942.852706310618
 21
967.8882935354174
 31
0.0
  0
LINE
  5
414
330
3ED
100
AcDbEntity
  8
0
  6
Continuous
 62
     7
370
    15
100
AcDbLine
 10
1940.557986539212
 20
968.0646205161258
 30
0.0
 11
1942.029033291326
 21
968.0646205161258
 31
0.0
  0
LINE
  5
415
330
3ED
100
AcDbEntity
  8
0
  6
Continuous
 62
     7
370
    15
100
AcDbLine
 10
1942.029033291326
 20
968.0646205161258
 30
0.0
 11
1941.852706310618
 21
967.8882935354174
 31
0.0
  0
LINE
  5
416
330
3ED
100
AcDbEntity
  8
0
  6
Continuous
 62
     7
370
    15
100
AcDbLine
 10
1942.67637932991
 20
968.0646205161258
 30
0.0
 11
1944.147426082023
 21
968.0646205161258
 31
0.0
  0
LINE
  5
417
330
3ED
100
AcDbEntity
  8
0
  6
Continuous
 62
     7
370
    15
100
AcDbLine
 10
1942.029033291326
 20
968.0646205161258
 30
0.0
 11
1942.029033291326
 21
966.5935737640117
 31
0.0
  0
SPLINE
  5
418
330
3ED
100
AcDbEntity
  8
0
  6
Continuous
 62
     7
370
    15
100
AcDbSpline
210
0.0
220
0.0
230
1.0
 70
     8
 71
     3
 72
     8
 73
     4
 74
     0
 42
0.0000000001
 43
0.0000000001
 40
0.0
 40
0.0
 40
0.0
 40
0.0
 40
0.0010252758049602
 40
0.0010252758049602
 40
0.0010252758049602
 40
0.0010252758049602
 10
1942.029033291326
 20
966.5935737640117
 30
0.0
 10
1941.970302842878
 20
966.5444877317098
 30
0.0
 10
1941.911522397384
 20
966.4973606072203
 30
0.0
 10
1941.852706310618
 20
966.4518018623137
 30
0.0
  0
ARC
  5
419
330
3ED
100
AcDbEntity
  8
0
  6
Continuous
 62
     7
370
    15
100
AcDbCircle
 10
1942.352706310618
 20
968.3882935354175
 30
0.0
 40
1.823673019291523
100
AcDbArc
 50
259.776748340657
 51
280.223251659343
  0
INSERT
  5
41A
330
3ED
100
AcDbEntity
  8
0
  6
Continuous
 62
     7
370
     0
100
AcDbBlockReference
  2
SW_CENTERMARKSYMBOL_0
 10
1942.352706310618
 20
968.3882935354175
 30
0.0
  0
ENDBLK
  5
3EF
330
3ED
100
AcDbEntity
  8
0
100
AcDbBlockEnd
  0
BLOCK
  5
41D
330
41C
100
AcDbEntity
  8
0
100
AcDbBlockBegin
  2
3
 70
     0
 10
0.0
 20
0.0
 30
0.0
  3
3
  1

  0
SPLINE
  5
41F
330
41C
100
AcDbEntity
  8
0
  6
Continuous
 62
     7
370
    15
100
AcDbSpline
210
0.0
220
0.0
230
1.0
 70
     8
 71
     3
 72
    26
 73
    22
 74
     0
 42
0.0000000001
 43
0.0000000001
 40
0.0
 40
0.0
 40
0.0
 40
0.0
 40
0.0459360897823273
 40
0.0991827024238302
 40
0.1524394624999521
 40
0.2057732067173943
 40
0.2592459497439523
 40
0.3129089727045722
 40
0.3667997051574958
 40
0.4209400819691062
 40
0.4753364999681849
 40
0.5299812781601467
 40
0.584855301383949
 40
0.6399313612088734
 40
0.6951776514697286
 40
0.750560942220747
 40
0.8060491121342
 40
0.8616129057299787
 40
0.9172269420305422
 40
0.9728701038111095
 40
1.0
 40
1.0
 40
1.0
 40
1.0
 10
1992.984016426309
 20
995.3024651282081
 30
0.0
 10
1992.985742350043
 20
995.3907200376054
 30
0.0
 10
1992.989468870541
 20
995.5812752297795
 30
0.0
 10
1992.967684598323
 20
995.873909434978
 30
0.0
 10
1992.92456050219
 20
996.1794383398277
 30
0.0
 10
1992.858412702192
 20
996.4832756874809
 30
0.0
 10
1992.770094924638
 20
996.7849352550924
 30
0.0
 10
1992.659496287371
 20
997.0839325377299
 30
0.0
 10
1992.526781743689
 20
997.3797517684879
 30
0.0
 10
1992.372081326577
 20
997.6718437204988
 30
0.0
 10
1992.195597163014
 20
997.9596244611915
 30
0.0
 10
1991.997594665626
 20
998.2424821485242
 30
0.0
 10
1991.778418230055
 20
998.5197881610154
 30
0.0
 10
1991.538492823116
 20
998.7909113526335
 30
0.0
 10
1991.278319008415
 20
999.0552305823536
 30
0.0
 10
1990.998472606081
 20
999.312151725198
 30
0.0
 10
1990.699565286698
 20
999.5610970292945
 30
0.0
 10
1990.382342142185
 20
999.8015820676467
 30
0.0
 10
1990.047266038655
 20
1000.032948340359
 30
0.0
 10
1989.756052899483
 20
1000.217356569358
 30
0.0
 10
1989.574926475007
 20
1000.323321786299
 30
0.0
 10
1989.5155600433
 20
1000.358053200188
 30
0.0
  0
SPLINE
  5
420
330
41C
100
AcDbEntity
  8
0
  6
Continuous
 62
     7
370
    15
100
AcDbSpline
210
0.0
220
0.0
230
1.0
 70
     8
 71
     3
 72
    61
 73
    57
 74
     0
 42
0.0000000001
 43
0.0000000001
 40
0.0
 40
0.0
 40
0.0
 40
0.0
 40
0.0100459924154508
 40
0.0290428664051432
 40
0.0480336614172974
 40
0.06701792418002
 40
0.0859943531366456
 40
0.1049622268168251
 40
0.1239212742179662
 40
0.1428715683622553
 40
0.1618134409210422
 40
0.1807474150995143
 40
0.1996741537922918
 40
0.2185944201846365
 40
0.2375090482986301
 40
0.2564189213580803
 40
0.2753249562094679
 40
0.294228092358777
 40
0.3131292844539848
 40
0.3320294972579242
 40
0.3509297023187923
 40
0.3698306693517877
 40
0.388733258422752
 40
0.4076384496571898
 40
0.426547221869615
 40
0.4454605488232004
 40
0.4643793935928703
 40
0.4833047001640896
 40
0.5022373812345429
 40
0.5211783009456035
 40
0.5401282509713927
 40
0.5590879180372454
 40
0.5780578405399909
 40
0.5970383515325332
 40
0.6160295049821954
 40
0.6350309820390557
 40
0.6540419742631256
 40
0.6730610416819225
 40
0.6920859456546257
 40
0.7111130849882687
 40
0.7301366694554706
 40
0.749150425316568
 40
0.7681465264512572
 40
0.7871155791212008
 40
0.8060467801613039
 40
0.8249283138536812
 40
0.843748036205071
 40
0.8624944528961957
 40
0.8811579304699145
 40
0.8997320031809511
 40
0.9182145759306925
 40
0.9366088043236214
 40
0.9549234702979413
 40
0.9731727569436202
 40
0.991375430662587
 40
1.0
 40
1.0
 40
1.0
 40
1.0
 10
1989.5155600433
 20
1000.358053200188
 30
0.0
 10
1989.4503047059
 20
1000.395185850192
 30
0.0
 10
1989.261652159892
 20
1000.502535980345
 30
0.0
 10
1988.937811351874
 20
1000.672263511944
 30
0.0
 10
1988.539923085959
 20
1000.863510330883
 30
0.0
 10
1988.12813618796
 20
1001.043679569747
 30
0.0
 10
1987.703548022114
 20
1001.212646568322
 30
0.0
 10
1987.26693347382
 20
1001.370086005905
 30
0.0
 10
1986.819175999415
 20
1001.515751548419
 30
0.0
 10
1986.361148964078
 20
1001.649401506673
 30
0.0
 10
1985.893746958371
 20
1001.770818315778
 30
0.0
 10
1985.417876713439
 20
1001.879803227174
 30
0.0
 10
1984.934458575721
 20
1001.97617787383
 30
0.0
 10
1984.444424901317
 20
1002.0597841473
 30
0.0
 10
1983.948719041838
 20
1002.130484611496
 30
0.0
 10
1983.448293965157
 20
1002.188162804314
 30
0.0
 10
1982.944110796793
 20
1002.232723560184
 30
0.0
 10
1982.437137235508
 20
1002.264093287268
 30
0.0
 10
1981.928345884731
 20
1002.282220194414
 30
0.0
 10
1981.418712516778
 20
1002.287074452808
 30
0.0
 10
1980.909216144754
 20
1002.278648315469
 30
0.0
 10
1980.400836407623
 20
1002.25695635965
 30
0.0
 10
1979.894550612507
 20
1002.222035492258
 30
0.0
 10
1979.391330045285
 20
1002.173944541637
 30
0.0
 10
1978.892138992034
 20
1002.112763875472
 30
0.0
 10
1978.397934076282
 20
1002.038595124586
 30
0.0
 10
1977.909662600046
 20
1001.951560787142
 30
0.0
 10
1977.428260976585
 20
1001.851803767436
 30
0.0
 10
1976.954653279778
 20
1001.739486862547
 30
0.0
 10
1976.489749936743
 20
1001.614792215998
 30
0.0
 10
1976.03444659192
 20
1001.477920765355
 30
0.0
 10
1975.589623171703
 20
1001.329091720802
 30
0.0
 10
1975.156143177603
 20
1001.168542124725
 30
0.0
 10
1974.73485323177
 20
1000.996526558303
 30
0.0
 10
1974.326582889103
 20
1000.813317080248
 30
0.0
 10
1973.932144712491
 20
1000.619203504049
 30
0.0
 10
1973.552334577942
 20
1000.414494141233
 30
0.0
 10
1973.187932130416
 20
1000.199517154775
 30
0.0
 10
1972.839703534899
 20
999.9746241502789
 30
0.0
 10
1972.50840691129
 20
999.740197635632
 30
0.0
 10
1972.194784683112
 20
999.4966523465889
 30
0.0
 10
1971.899559454745
 20
999.2444387173707
 30
0.0
 10
1971.623426100322
 20
998.9840434210204
 30
0.0
 10
1971.367051248525
 20
998.7159980708636
 30
0.0
 10
1971.131064651106
 20
998.4408827781455
 30
0.0
 10
1970.916048123133
 20
998.1593272204012
 30
0.0
 10
1970.722522369919
 20
997.8720079504395
 30
0.0
 10
1970.550934798984
 20
997.5796410202512
 30
0.0
 10
1970.401644612989
 20
997.2829696034001
 30
0.0
 10
1970.274929461838
 20
996.9827478346584
 30
0.0
 10
1970.170934787913
 20
996.679721464768
 30
0.0
 10
1970.089866673807
 20
996.3746131582929
 30
0.0
 10
1970.03131637578
 20
996.0680965243517
 30
0.0
 10
1969.996835505144
 20
995.7608309393167
 30
0.0
 10
1969.98332426816
 20
995.5070796057288
 30
0.0
 10
1969.989767489903
 20
995.3561462871299
 30
0.0
 10
1969.991838892192
 20
995.3076234154787
 30
0.0
  0
LINE
  5
421
330
41C
100
AcDbEntity
  8
0
  6
Continuous
 62
     7
370
    15
100
AcDbLine
 10
1969.989462082146
 20
995.29385353232
 30
0.0
 11
1970.107929683999
 21
991.7908238119951
 31
0.0
  0
LINE
  5
422
330
41C
100
AcDbEntity
  8
0
  6
Continuous
 62
     7
370
    15
100
AcDbLine
 10
1992.866612505343
 20
991.7908238119951
 30
0.0
 11
1992.985080107197
 21
995.29385353232
 31
0.0
  0
LINE
  5
423
330
41C
100
AcDbEntity
  8
0
  6
Continuous
 62
     7
370
    15
100
AcDbLine
 10
1970.101812254089
 20
991.3827765554694
 30
0.0
 11
1970.149598204367
 21
990.4895163026512
 31
0.0
  0
LINE
  5
424
330
41C
100
AcDbEntity
  8
0
  6
Continuous
 62
     7
370
    15
100
AcDbLine
 10
1992.824943984976
 20
990.4895163026512
 30
0.0
 11
1992.872729935254
 21
991.3827765554694
 31
0.0
  0
SPLINE
  5
425
330
41C
100
AcDbEntity
  8
0
  6
Continuous
 62
     7
370
    15
100
AcDbSpline
210
0.0
220
0.0
230
1.0
 70
     8
 71
     3
 72
    33
 73
    29
 74
     0
 42
0.0000000001
 43
0.0000000001
 40
0.0
 40
0.0
 40
0.0
 40
0.0
 40
0.0209721652119762
 40
0.0607682184133825
 40
0.1005586019076085
 40
0.1403417378166964
 40
0.1801180787159415
 40
0.2198881898347724
 40
0.2596527170275346
 40
0.2994123630237382
 40
0.3391678699696119
 40
0.3789200068476641
 40
0.418669560624246
 40
0.4584173301925186
 40
0.4981641223509856
 40
0.5379107491886233
 40
0.5776579029528937
 40
0.6174062531371322
 40
0.6571566190004347
 40
0.6969098193882657
 40
0.7366666701605462
 40
0.776427980264539
 40
0.8161945457959458
 40
0.855967141283185
 40
0.8957465072541348
 40
0.9355333329221632
 40
0.9753282325574645
 40
0.9999999999999998
 40
0.9999999999999998
 40
0.9999999999999998
 40
0.9999999999999998
 10
1975.436569355009
 20
986.2821832779891
 30
0.0
 10
1975.512457489356
 20
986.2548781810938
 30
0.0
 10
1975.732348314951
 20
986.1757598795181
 30
0.0
 10
1976.105152323562
 20
986.0535084377819
 30
0.0
 10
1976.557758888597
 20
985.9194812358039
 30
0.0
 10
1977.020247908861
 20
985.7975352734721
 30
0.0
 10
1977.491486673611
 20
985.6877071695231
 30
0.0
 10
1977.970601900989
 20
985.5902517448626
 30
0.0
 10
1978.456633822149
 20
985.5053360569202
 30
0.0
 10
1978.948628974829
 20
985.4331214542508
 30
0.0
 10
1979.445617482935
 20
985.3737411520203
 30
0.0
 10
1979.946621368383
 20
985.3273058402271
 30
0.0
 10
1980.450654622674
 20
985.2939018381873
 30
0.0
 10
1980.956725545023
 20
985.2735913107604
 30
0.0
 10
1981.463838518912
 20
985.2664120032592
 30
0.0
 10
1981.970995446031
 20
985.2723771757107
 30
0.0
 10
1982.477197578085
 20
985.291475485495
 30
0.0
 10
1982.981448110007
 20
985.3236709855885
 30
0.0
 10
1983.482754698649
 20
985.368903260532
 30
0.0
 10
1983.980131349281
 20
985.4270878107259
 30
0.0
 10
1984.472600199347
 20
985.4981157897841
 30
0.0
 10
1984.959191463312
 20
985.5818560486893
 30
0.0
 10
1985.438952420566
 20
985.6781489463186
 30
0.0
 10
1985.9109224229
 20
985.7868311662205
 30
0.0
 10
1986.374234467424
 20
985.9076450379211
 30
0.0
 10
1986.827743962025
 20
986.0405792168322
 30
0.0
 10
1987.215187262975
 20
986.1663451256429
 30
0.0
 10
1987.448632129695
 20
986.2501215532008
 30
0.0
 10
1987.537972834333
 20
986.2821832779891
 30
0.0
  0
SPLINE
  5
426
330
41C
100
AcDbEntity
  8
0
  6
Continuous
 62
     7
370
    15
100
AcDbSpline
210
0.0
220
0.0
230
1.0
 70
     8
 71
     3
 72
    73
 73
    69
 74
     0
 42
0.0000000001
 43
0.0000000001
 40
0.0
 40
0.0
 40
0.0
 40
0.0
 40
0.0041775029672026
 40
0.019398587148392
 40
0.0346429693825571
 40
0.0499159860801952
 40
0.065220605125729
 40
0.0805575000138229
 40
0.0959253780763867
 40
0.1113214651188678
 40
0.1267420417304752
 40
0.1421829438516108
 40
0.1576399712361154
 40
0.1731091803543139
 40
0.1885870644398872
 40
0.2040706392371852
 40
0.2195574592181285
 40
0.2350455718185457
 40
0.2505331091738954
 40
0.2660190967163667
 40
0.2815028619447595
 40
0.2969839750620808
 40
0.3124621975097503
 40
0.3279374388767152
 40
0.3434097217606632
 40
0.358879153709619
 40
0.3743459052093495
 40
0.389810192684092
 40
0.4052722655653522
 40
0.4207323966064199
 40
0.4361908747500677
 40
0.4516479999783189
 40
0.467104079679226
 40
0.4825594261536752
 40
0.4980143549554568
 40
0.513469183811453
 40
0.5289241953723732
 40
0.5443796398861628
 40
0.559835838060457
 40
0.575293110528368
 40
0.590751776880661
 40
0.6062121541904641
 40
0.6216745547743107
 40
0.6371392828940234
 40
0.6526066300364475
 40
0.6680768683220779
 40
0.6835502414885108
 40
0.6990269527716277
 40
0.714507148871097
 40
0.7299908990491679
 40
0.7454781682956782
 40
0.7609687834395334
 40
0.7764623911662492
 40
0.791958407220572
 40
0.8074559567904236
 40
0.8229534665419768
 40
0.8384489625120698
 40
0.8539401116413934
 40
0.8694240192133591
 40
0.8848972215600234
 40
0.9003557413465433
 40
0.9157952324794106
 40
0.9312112386101267
 40
0.9465995765021117
 40
0.9619568310397966
 40
0.9772809141824446
 40
0.992571603529184
 40
1.0
 40
1.0
 40
1.0
 40
1.0
 10
1970.228701472423
 20
989.897073829873
 30
0.0
 10
1970.233622874417
 20
989.8700077281359
 30
0.0
 10
1970.256475819399
 20
989.7443240033281
 30
0.0
 10
1970.319728921842
 20
989.5218485207625
 30
0.0
 10
1970.418944383492
 20
989.2303752710196
 30
0.0
 10
1970.542019442566
 20
988.9419368055405
 30
0.0
 10
1970.686563899711
 20
988.6569119665201
 30
0.0
 10
1970.852927483273
 20
988.3759227476938
 30
0.0
 10
1971.040654412345
 20
988.0995396080678
 30
0.0
 10
1971.249430860153
 20
987.8283520878943
 30
0.0
 10
1971.478829391913
 20
987.5629399602519
 30
0.0
 10
1971.728380506188
 20
987.3038716067899
 30
0.0
 10
1971.997558816661
 20
987.05169678302
 30
0.0
 10
1972.285793377364
 20
986.8069431367612
 30
0.0
 10
1972.592471614289
 20
986.5701139327855
 30
0.0
 10
1972.916944324601
 20
986.3416872738152
 30
0.0
 10
1973.258529261098
 20
986.1221162774324
 30
0.0
 10
1973.616511237137
 20
985.9118313464215
 30
0.0
 10
1973.990147702033
 20
985.7112383491701
 30
0.0
 10
1974.378670727742
 20
985.5207195095916
 30
0.0
 10
1974.781291814064
 20
985.3406329201542
 30
0.0
 10
1975.197198912644
 20
985.1713152841163
 30
0.0
 10
1975.625557457074
 20
985.0130820700284
 30
0.0
 10
1976.065511419774
 20
984.8662274875325
 30
0.0
 10
1976.51618443939
 20
984.7310243224965
 30
0.0
 10
1976.976681042955
 20
984.6077236698157
 30
0.0
 10
1977.446087972617
 20
984.4965545991701
 30
0.0
 10
1977.923475617313
 20
984.3977237841206
 30
0.0
 10
1978.407899543877
 20
984.3114151196225
 30
0.0
 10
1978.898402118648
 20
984.2377893480437
 30
0.0
 10
1979.394014208934
 20
984.1769837094034
 30
0.0
 10
1979.89375695298
 20
984.1291116278956
 30
0.0
 10
1980.396643587024
 20
984.0942624438126
 30
0.0
 10
1980.901681318284
 20
984.0725011976459
 30
0.0
 10
1981.407873233086
 20
984.0638684712928
 30
0.0
 10
1981.914219830865
 20
984.0683802863081
 30
0.0
 10
1982.41972061197
 20
984.0860279990225
 30
0.0
 10
1982.923376817491
 20
984.1167782678162
 30
0.0
 10
1983.424193800944
 20
984.1605731996978
 30
0.0
 10
1983.921183321036
 20
984.2173306237819
 30
0.0
 10
1984.413364691749
 20
984.2869442900123
 30
0.0
 10
1984.899766660595
 20
984.3692841566932
 30
0.0
 10
1985.379429242685
 20
984.4641967372581
 30
0.0
 10
1985.851405498861
 20
984.5715055017448
 30
0.0
 10
1986.314763245721
 20
984.6910113264565
 30
0.0
 10
1986.768586684647
 20
984.8224929826827
 30
0.0
 10
1987.211977936544
 20
984.9657076519521
 30
0.0
 10
1987.644058468982
 20
985.1203914508985
 30
0.0
 10
1988.063970403311
 20
985.2862599433009
 30
0.0
 10
1988.470877691631
 20
985.4630086100661
 30
0.0
 10
1988.863967158176
 20
985.6503132399456
 30
0.0
 10
1989.242449407633
 20
985.8478301949521
 30
0.0
 10
1989.605559616256
 20
986.0551964957798
 30
0.0
 10
1989.952558240123
 20
986.2720296655075
 30
0.0
 10
1990.282729286044
 20
986.4979256127224
 30
0.0
 10
1990.595381970146
 20
986.7324576025598
 30
0.0
 10
1990.889853341252
 20
986.9751755033369
 30
0.0
 10
1991.165511864219
 20
987.2256059909393
 30
0.0
 10
1991.421759353909
 20
987.4832507600689
 30
0.0
 10
1991.658032289309
 20
987.7475842548269
 30
0.0
 10
1991.873809672455
 20
988.0180523513219
 30
0.0
 10
1992.068605518624
 20
988.2940735890143
 30
0.0
 10
1992.242023306826
 20
988.575036775769
 30
0.0
 10
1992.39358265682
 20
988.8603208461677
 30
0.0
 10
1992.523393261115
 20
989.149242920919
 30
0.0
 10
1992.629670613924
 20
989.4412852092399
 30
0.0
 10
1992.702913376906
 20
989.685105373506
 30
0.0
 10
1992.732157909718
 20
989.8321121860963
 30
0.0
 10
1992.741719913492
 20
989.8801785958367
 30
0.0
  0
LINE
  5
427
330
41C
100
AcDbEntity
  8
0
  6
Continuous
 62
     7
370
    15
100
AcDbLine
 10
1970.160514838169
 20
990.235906222537
 30
0.0
 11
1970.431122169657
 21
982.2341782402846
 31
0.0
  0
LINE
  5
428
330
41C
100
AcDbEntity
  8
0
  6
Continuous
 62
     7
370
    15
100
AcDbLine
 10
1992.543420019686
 20
982.2341782402846
 30
0.0
 11
1992.814027351174
 21
990.235906222537
 31
0.0
  0
SPLINE
  5
429
330
41C
100
AcDbEntity
  8
0
  6
Continuous
 62
     7
370
    15
100
AcDbSpline
210
0.0
220
0.0
230
1.0
 70
     8
 71
     3
 72
    14
 73
    10
 74
     0
 42
0.0000000001
 43
0.0000000001
 40
0.0
 40
0.0
 40
0.0
 40
0.0
 40
0.1290678287662841
 40
0.2858781353786387
 40
0.4499811416292628
 40
0.6127869324602361
 40
0.7700529279174661
 40
0.921539118727534
 40
1.0
 40
1.0
 40
1.0
 40
1.0
 10
1975.031258629416
 20
988.8281605329646
 30
0.0
 10
1975.044160192437
 20
988.8226859761411
 30
0.0
 10
1975.072736444285
 20
988.8105601341584
 30
0.0
 10
1975.12332551019
 20
988.7749271430411
 30
0.0
 10
1975.173306530098
 20
988.7271164902047
 30
0.0
 10
1975.214771112471
 20
988.6714427845657
 30
0.0
 10
1975.241744866795
 20
988.6174659249913
 30
0.0
 10
1975.25260722883
 20
988.5767451116592
 30
0.0
 10
1975.252423702934
 20
988.5641821897316
 30
0.0
 10
1975.252361081552
 20
988.5598955601308
 30
0.0
  0
SPLINE
  5
42A
330
41C
100
AcDbEntity
  8
0
  6
Continuous
 62
     7
370
    15
100
AcDbSpline
210
0.0
220
0.0
230
1.0
 70
     8
 71
     3
 72
    14
 73
    10
 74
     0
 42
0.0000000001
 43
0.0000000001
 40
0.0
 40
0.0
 40
0.0
 40
0.0
 40
0.1124868053773738
 40
0.256319861719751
 40
0.4084677933696685
 40
0.5677147765049262
 40
0.7289492855094162
 40
0.893514264785842
 40
1.0
 40
1.0
 40
1.0
 40
1.0
 10
1987.721842280008
 20
988.5589975988224
 30
0.0
 10
1987.722178064773
 20
988.5662169233345
 30
0.0
 10
1987.722943206108
 20
988.5826673528264
 30
0.0
 10
1987.736595992573
 20
988.6265758736954
 30
0.0
 10
1987.764847246704
 20
988.6792675385796
 30
0.0
 10
1987.806564039081
 20
988.7328574878933
 30
0.0
 10
1987.857187587118
 20
988.7797746789134
 30
0.0
 10
1987.905971693464
 20
988.8128948016094
 30
0.0
 10
1987.93269482939
 20
988.8237600519355
 30
0.0
 10
1987.943193354663
 20
988.8280286043036
 30
0.0
  0
SPLINE
  5
42B
330
41C
100
AcDbEntity
  8
0
  6
Continuous
 62
     7
370
    15
100
AcDbSpline
210
0.0
220
0.0
230
1.0
 70
     8
 71
     3
 72
    16
 73
    12
 74
     0
 42
0.0000000001
 43
0.0000000001
 40
0.0
 40
0.0
 40
0.0
 40
0.0
 40
0.0644794195385106
 40
0.1865911858426093
 40
0.3087260253636719
 40
0.4308836805560734
 40
0.5530491115278143
 40
0.675208931584126
 40
0.7973559389277085
 40
0.9194851923661865
 40
1.0
 40
1.0
 40
1.0
 40
1.0
 10
1972.076978585236
 20
990.5354515295135
 30
0.0
 10
1972.128911206009
 20
990.4925111852824
 30
0.0
 10
1972.279194340742
 20
990.368249989882
 30
0.0
 10
1972.541851068368
 20
990.1688284959302
 30
0.0
 10
1972.870225481587
 20
989.9403053858803
 30
0.0
 10
1973.215852767104
 20
989.720806787262
 30
0.0
 10
1973.577729467538
 20
989.5106284859432
 30
0.0
 10
1973.95513437325
 20
989.3101487070694
 30
0.0
 10
1974.34752535678
 20
989.119952645939
 30
0.0
 10
1974.707146204829
 20
988.9600613779011
 30
0.0
 10
1974.938855090893
 20
988.8663412067799
 30
0.0
 10
1975.030917973416
 20
988.8291041838476
 30
0.0
  0
SPLINE
  5
42C
330
41C
100
AcDbEntity
  8
0
  6
Continuous
 62
     7
370
    15
100
AcDbSpline
210
0.0
220
0.0
230
1.0
 70
     8
 71
     3
 72
    16
 73
    12
 74
     0
 42
0.0000000001
 43
0.0000000001
 40
0.0
 40
0.0
 40
0.0
 40
0.0
 40
0.0643393782103595
 40
0.1864673859985212
 40
0.3086278606040854
 40
0.4308141576015269
 40
0.5530234427119878
 40
0.6752510818451728
 40
0.7974901810315212
 40
0.9197282282853683
 40
1.0
 40
1.0
 40
1.0
 40
1.0
 10
1987.943624215926
 20
988.8291041838476
 30
0.0
 10
1988.017273369066
 20
988.8587884895576
 30
0.0
 10
1988.230722200075
 20
988.9448190830275
 30
0.0
 10
1988.574029978929
 20
989.0955154015104
 30
0.0
 10
1988.9683489623
 20
989.2843851089324
 30
0.0
 10
1989.347850857802
 20
989.4835917021556
 30
0.0
 10
1989.711958999617
 20
989.6925898734457
 30
0.0
 10
1990.059980210807
 20
989.9110078905714
 30
0.0
 10
1990.390852509186
 20
990.1385819702113
 30
0.0
 10
1990.669287436758
 20
990.3473498665636
 30
0.0
 10
1990.83276400966
 20
990.4820560672737
 30
0.0
 10
1990.897563604107
 20
990.5354515295137
 30
0.0
  0
LINE
  5
42D
330
41C
100
AcDbEntity
  8
0
  6
Continuous
 62
     7
370
    15
100
AcDbLine
 10
1975.253565117122
 20
988.5582081796711
 30
0.0
 11
1975.305617513245
 21
986.4652508210937
 31
0.0
  0
LINE
  5
42E
330
41C
100
AcDbEntity
  8
0
  6
Continuous
 62
     7
370
    15
100
AcDbLine
 10
1987.668976617818
 20
986.4652192609941
 30
0.0
 11
1987.720958793024
 21
988.5582193461507
 31
0.0
  0
ARC
  5
42F
330
41C
100
AcDbEntity
  8
0
  6
Continuous
 62
     7
370
    15
100
AcDbCircle
 10
1975.505236338313
 20
986.4700258860523
 30
0.0
 40
0.2000000000000242
100
AcDbArc
 50
181.4238436224159
 51
249.9198140234935
  0
ARC
  5
430
330
41C
100
AcDbEntity
  8
0
  6
Continuous
 62
     7
370
    15
100
AcDbCircle
 10
1987.46930585103
 20
986.4700258860525
 30
0.0
 40
0.2000000000000412
100
AcDbArc
 50
290.0801859764943
 51
358.576156377571
  0
SPLINE
  5
431
330
41C
100
AcDbEntity
  8
0
  6
Continuous
 62
     7
370
    15
100
AcDbSpline
210
0.0
220
0.0
230
1.0
 70
     8
 71
     3
 72
     9
 73
     5
 74
     0
 42
0.0000000001
 43
0.0000000001
 40
0.0
 40
0.0
 40
0.0
 40
0.0
 40
0.600746996457228
 40
1.0
 40
1.0
 40
1.0
 40
1.0
 10
1990.896696237538
 20
990.5342729779659
 30
0.0
 10
1990.903163111135
 20
990.5392919340162
 30
0.0
 10
1990.913927831783
 20
990.5476464594318
 30
0.0
 10
1990.913134064369
 20
990.547013233489
 30
0.0
 10
1990.912817150345
 20
990.5467604161293
 30
0.0
  0
SPLINE
  5
432
330
41C
100
AcDbEntity
  8
0
  6
Continuous
 62
     7
370
    15
100
AcDbSpline
210
0.0
220
0.0
230
1.0
 70
     8
 71
     3
 72
     9
 73
     5
 74
     0
 42
0.0000000001
 43
0.0000000001
 40
0.0
 40
0.0
 40
0.0
 40
0.0
 40
0.3408156038861642
 40
1.0
 40
1.0
 40
1.0
 40
1.0
 10
1972.061942210896
 20
990.5467103475048
 30
0.0
 10
1972.061475561268
 20
990.5469789828963
 30
0.0
 10
1972.060106346883
 20
990.5477671961948
 30
0.0
 10
1972.070378771642
 20
990.5402063575444
 30
0.0
 10
1972.077150193753
 20
990.5352223706847
 30
0.0
  0
SPLINE
  5
433
330
41C
100
AcDbEntity
  8
0
  6
Continuous
 62
     7
370
    15
100
AcDbSpline
210
0.0
220
0.0
230
1.0
 70
     8
 71
     3
 72
    38
 73
    34
 74
     0
 42
0.0000000001
 43
0.0000000001
 40
0.0
 40
0.0
 40
0.0
 40
0.0
 40
0.0120611551556541
 40
0.0477414296523247
 40
0.0832750737942452
 40
0.1183393696040313
 40
0.1528525043908545
 40
0.1868917859473759
 40
0.2205900840603689
 40
0.254073119756746
 40
0.2874379292606652
 40
0.3207516964879108
 40
0.3540548378372227
 40
0.3873682729189873
 40
0.4207087708907096
 40
0.4540839003182698
 40
0.4874953343549877
 40
0.5209410995553245
 40
0.554417045748907
 40
0.5879177748129525
 40
0.6214372056549075
 40
0.6549689012452219
 40
0.6885062448556333
 40
0.7220421137418292
 40
0.755567912620921
 40
0.7890768575649992
 40
0.8225622037391008
 40
0.8560173682327247
 40
0.8894361721731911
 40
0.9228132739563966
 40
0.9561448985990203
 40
0.9894300117184291
 40
1.0
 40
1.0
 40
1.0
 40
1.0
 10
1984.984771712923
 20
995.6836237399471
 30
0.0
 10
1984.985518181916
 20
995.6664140190857
 30
0.0
 10
1984.988472915231
 20
995.5982931245911
 30
0.0
 10
1984.970664330436
 20
995.4794537429249
 30
0.0
 10
1984.93103707021
 20
995.3277615898153
 30
0.0
 10
1984.867706696684
 20
995.1781050383253
 30
0.0
 10
1984.783376519679
 20
995.0317476297904
 30
0.0
 10
1984.678330638369
 20
994.8895618684245
 30
0.0
 10
1984.553401944418
 20
994.7522373536493
 30
0.0
 10
1984.409218562493
 20
994.6204568821624
 30
0.0
 10
1984.246511713316
 20
994.4949660116277
 30
0.0
 10
1984.066129566104
 20
994.3765704105302
 30
0.0
 10
1983.869086598306
 20
994.2661034898319
 30
0.0
 10
1983.656549578401
 20
994.1643804531729
 30
0.0
 10
1983.429820993868
 20
994.0721699381024
 30
0.0
 10
1983.19031624549
 20
993.9901755750096
 30
0.0
 10
1982.939565171852
 20
993.9190305657284
 30
0.0
 10
1982.67919383422
 20
993.8592870036773
 30
0.0
 10
1982.410907007207
 20
993.811409041835
 30
0.0
 10
1982.13647178018
 20
993.7757686453101
 30
0.0
 10
1981.857702277356
 20
993.7526430103746
 30
0.0
 10
1981.576445319878
 20
993.7422130310547
 30
0.0
 10
1981.294567977047
 20
993.7445624110136
 30
0.0
 10
1981.013948343438
 20
993.7596766664485
 30
0.0
 10
1980.736457370907
 20
993.7874421958818
 30
0.0
 10
1980.46394396391
 20
993.8276463340137
 30
0.0
 10
1980.198219959628
 20
993.8799796243003
 30
0.0
 10
1979.941045326883
 20
993.9440330570674
 30
0.0
 10
1979.69413854286
 20
994.0193096661316
 30
0.0
 10
1979.459070539668
 20
994.1051857789513
 30
0.0
 10
1979.237587154204
 20
994.2010636611851
 30
0.0
 10
1979.077385038557
 20
994.2820344763891
 30
0.0
 10
1978.991635333518
 20
994.3307757591592
 30
0.0
 10
1978.970967877545
 20
994.3425234184108
 30
0.0
  0
SPLINE
  5
434
330
41C
100
AcDbEntity
  8
0
  6
Continuous
 62
     7
370
    15
100
AcDbSpline
210
0.0
220
0.0
230
1.0
 70
     8
 71
     3
 72
    18
 73
    14
 74
     0
 42
0.0000000001
 43
0.0000000001
 40
0.0
 40
0.0
 40
0.0
 40
0.0
 40
0.0521617380120365
 40
0.151629271777246
 40
0.2510496042336867
 40
0.3504929589882373
 40
0.450104766483315
 40
0.5501082068637789
 40
0.6508144777435641
 40
0.7526094702665028
 40
0.8558796815869438
 40
0.9608316291360489
 40
1.0
 40
1.0
 40
1.0
 40
1.0
 10
1978.970967877545
 20
994.3425234184108
 30
0.0
 10
1978.937638932493
 20
994.3622475015924
 30
0.0
 10
1978.840754820501
 20
994.4195835583128
 30
0.0
 10
1978.693106087848
 20
994.5204102615226
 30
0.0
 10
1978.534909087856
 20
994.6464018074745
 30
0.0
 10
1978.395888045415
 20
994.7780529512099
 30
0.0
 10
1978.276407510454
 20
994.9142441849067
 30
0.0
 10
1978.176926106848
 20
995.0541414521934
 30
0.0
 10
1978.097809536808
 20
995.1970380920601
 30
0.0
 10
1978.038794096844
 20
995.3424805649358
 30
0.0
 10
1978.001945250267
 20
995.4902428618312
 30
0.0
 10
1977.985445213693
 20
995.6081287149235
 30
0.0
 10
1977.989024163644
 20
995.6767989428541
 30
0.0
 10
1977.989996834538
 20
995.6954618280359
 30
0.0
  0
SPLINE
  5
435
330
41C
100
AcDbEntity
  8
0
  6
Continuous
 62
     7
370
    15
100
AcDbSpline
210
0.0
220
0.0
230
1.0
 70
     8
 71
     3
 72
    47
 73
    43
 74
     0
 42
0.0000000001
 43
0.0000000001
 40
0.0
 40
0.0
 40
0.0
 40
0.0
 40
0.0045842837008424
 40
0.0294697206735713
 40
0.0543400266917706
 40
0.0793078490695796
 40
0.1044799221458913
 40
0.129917894991814
 40
0.1556318516449635
 40
0.1815882680427093
 40
0.2077281480426651
 40
0.2339868808884922
 40
0.2603084220069759
 40
0.2866497688999751
 40
0.3129799691773901
 40
0.3392874143459405
 40
0.3655677594487317
 40
0.3918212673829646
 40
0.418050959119589
 40
0.4442614270308945
 40
0.47045811983426
 40
0.4966469371544504
 40
0.5228340151072485
 40
0.5490248833441619
 40
0.5752245284898142
 40
0.6014393282524779
 40
0.6276756097187965
 40
0.6539394722555133
 40
0.6802364426595446
 40
0.7065708477174692
 40
0.7329447408183825
 40
0.7593561682382033
 40
0.7857965497257556
 40
0.8122418154429114
 40
0.8386495331375948
 40
0.8649632827624284
 40
0.8911120392803534
 40
0.9170227006680624
 40
0.9426419526213486
 40
0.9679599047580364
 40
0.9930232374207953
 40
1.0
 40
1.0
 40
1.0
 40
1.0
 10
1984.885419901294
 20
995.4973905427198
 30
0.0
 10
1984.886113875371
 20
995.5077708263861
 30
0.0
 10
1984.890575035178
 20
995.5744996939952
 30
0.0
 10
1984.876760823879
 20
995.6977877536115
 30
0.0
 10
1984.842965302025
 20
995.865213104185
 30
0.0
 10
1984.78506016348
 20
996.0297918972548
 30
0.0
 10
1984.705938261106
 20
996.190677018013
 30
0.0
 10
1984.605174130536
 20
996.3470708993096
 30
0.0
 10
1984.48335780871
 20
996.4980205225728
 30
0.0
 10
1984.341076701803
 20
996.642466644441
 30
0.0
 10
1984.179272027944
 20
996.779312879199
 30
0.0
 10
1983.999128323764
 20
996.9075147913216
 30
0.0
 10
1983.802030094567
 20
997.0261371178862
 30
0.0
 10
1983.589491854424
 20
997.1343733591085
 30
0.0
 10
1983.363091345544
 20
997.2315520587091
 30
0.0
 10
1983.124437058648
 20
997.3171169479313
 30
0.0
 10
1982.875149988573
 20
997.3906071488574
 30
0.0
 10
1982.616886923419
 20
997.4516351680415
 30
0.0
 10
1982.351339940342
 20
997.4998821527718
 30
0.0
 10
1982.080233579023
 20
997.535096652798
 30
0.0
 10
1981.805319404286
 20
997.557095185042
 30
0.0
 10
1981.528368346085
 20
997.5657633687374
 30
0.0
 10
1981.251164023801
 20
997.5610568819229
 30
0.0
 10
1980.975494569905
 20
997.543002512755
 30
0.0
 10
1980.703136651599
 20
997.5116981334933
 30
0.0
 10
1980.435841808585
 20
997.4673102247059
 30
0.0
 10
1980.175324529952
 20
997.4100696617835
 30
0.0
 10
1979.92325843993
 20
997.3402682420056
 30
0.0
 10
1979.681269789035
 20
997.2582544344099
 30
0.0
 10
1979.45093386912
 20
997.1644294832451
 30
0.0
 10
1979.233775170011
 20
997.0592453460023
 30
0.0
 10
1979.0312719483
 20
996.9432069265604
 30
0.0
 10
1978.844876297456
 20
996.8168906040851
 30
0.0
 10
1978.676025991597
 20
996.6809770613995
 30
0.0
 10
1978.526119785831
 20
996.5362877578153
 30
0.0
 10
1978.396495883259
 20
996.3838225841419
 30
0.0
 10
1978.288289724176
 20
996.2247844587988
 30
0.0
 10
1978.202615590767
 20
996.0605838042637
 30
0.0
 10
1978.13947607323
 20
995.8927556124313
 30
0.0
 10
1978.101377008437
 20
995.7228956281864
 30
0.0
 10
1978.085044090856
 20
995.5929364540214
 30
0.0
 10
1978.088794125025
 20
995.5203407246109
 30
0.0
 10
1978.089610698692
 20
995.5045329323889
 30
0.0
  0
LINE
  5
436
330
41C
100
AcDbEntity
  8
0
  6
Continuous
 62
     7
370
    15
100
AcDbLine
 10
1984.887271094671
 20
995.2335457758467
 30
0.0
 11
1984.887271094671
 21
995.5163604904296
 31
0.0
  0
LINE
  5
437
330
41C
100
AcDbEntity
  8
0
  6
Continuous
 62
     7
370
    15
100
AcDbLine
 10
1978.087271094671
 20
995.5163604904296
 30
0.0
 11
1978.087271094671
 21
995.2319350344044
 31
0.0
  0
SPLINE
  5
438
330
41C
100
AcDbEntity
  8
0
  6
Continuous
 62
     7
370
    15
100
AcDbSpline
210
0.0
220
0.0
230
1.0
 70
     8
 71
     3
 72
    76
 73
    72
 74
     0
 42
0.0000000001
 43
0.0000000001
 40
0.0
 40
0.0
 40
0.0
 40
0.0
 40
0.0076411812796036
 40
0.0217870758819409
 40
0.0359461832736053
 40
0.0501370692919598
 40
0.0643757108142604
 40
0.0786744298423326
 40
0.0930412263370695
 40
0.1074795727020921
 40
0.1219886720536953
 40
0.1365641128005077
 40
0.151198790987199
 40
0.1658839388912532
 40
0.1806101040297391
 40
0.1953679623062361
 40
0.2101489055863543
 40
0.2249453979541183
 40
0.2397511329180286
 40
0.2545610420495858
 40
0.269370316094659
 40
0.2841761736439213
 40
0.2989768122080305
 40
0.3137710757171062
 40
0.328558318788494
 40
0.3433382914007383
 40
0.358111044205758
 40
0.3728768527940809
 40
0.3876361583951108
 40
0.4023895222935644
 40
0.4171375913843623
 40
0.431881072586965
 40
0.4466207141875603
 40
0.4613572925142425
 40
0.4760916026478663
 40
0.4908244521184072
 40
0.5055566567316517
 40
0.5202890378165366
 40
0.5350221853038482
 40
0.5497568868065899
 40
0.5644939701655204
 40
0.5792342613726726
 40
0.593978580862832
 40
0.6087277378791545
 40
0.6234825220801158
 40
0.6382436913727388
 40
0.6530119547136417
 40
0.6677879483198681
 40
0.6825722033812185
 40
0.6973651029844512
 40
0.712166825591739
 40
0.7269772721482875
 40
0.7417959738810151
 40
0.7566219783446123
 40
0.7714537126590998
 40
0.786288825704358
 40
0.8011228456599265
 40
0.8159507858760997
 40
0.8307665195542931
 40
0.845562568504725
 40
0.8603301892043305
 40
0.8750596547355279
 40
0.8897407824831885
 40
0.9043637245610602
 40
0.9189199811148911
 40
0.9334035264373728
 40
0.9478118769045767
 40
0.9621469048499854
 40
0.9764152297245091
 40
0.9906280914201991
 40
1.0
 40
1.0
 40
1.0
 40
1.0
 10
1970.433838584228
 20
982.2369395287763
 30
0.0
 10
1970.435183677587
 20
982.1826746113801
 30
0.0
 10
1970.439018902798
 20
982.0279506453108
 30
0.0
 10
1970.470122589509
 20
981.7734542425169
 30
0.0
 10
1970.525184680355
 20
981.4743137820162
 30
0.0
 10
1970.603716899532
 20
981.1772048316036
 30
0.0
 10
1970.704217220282
 20
980.8825862361922
 30
0.0
 10
1970.826962009623
 20
980.5909745438002
 30
0.0
 10
1970.971719211202
 20
980.3029116299002
 30
0.0
 10
1971.13833829728
 20
980.0189793418587
 30
0.0
 10
1971.326567610499
 20
979.7397921749951
 30
0.0
 10
1971.536085949974
 20
979.4659877059713
 30
0.0
 10
1971.766484897415
 20
979.1982121033575
 30
0.0
 10
1972.017273518948
 20
978.9371048703387
 30
0.0
 10
1972.287884743855
 20
978.6832850239072
 30
0.0
 10
1972.577686392674
 20
978.437340564378
 30
0.0
 10
1972.885993088745
 20
978.1998219211857
 30
0.0
 10
1973.212077530694
 20
977.9712391691619
 30
0.0
 10
1973.555179856279
 20
977.7520622089145
 30
0.0
 10
1973.914507477944
 20
977.5427270839555
 30
0.0
 10
1974.289246754545
 20
977.3436333964937
 30
0.0
 10
1974.678567517757
 20
977.1551471707727
 30
0.0
 10
1975.081633335698
 20
976.9776011962322
 30
0.0
 10
1975.497593710527
 20
976.811302710438
 30
0.0
 10
1975.925582732468
 20
976.6565359944257
 30
0.0
 10
1976.364719175703
 20
976.5135635821895
 30
0.0
 10
1976.81410667769
 20
976.3826269833357
 30
0.0
 10
1977.27283409422
 20
976.2639470228302
 30
0.0
 10
1977.739976073287
 20
976.1577238978166
 30
0.0
 10
1978.214593858775
 20
976.064137039204
 30
0.0
 10
1978.695736315189
 20
975.9833448508031
 30
0.0
 10
1979.182441153635
 20
975.9154843840859
 30
0.0
 10
1979.673736333813
 20
975.8606709936151
 30
0.0
 10
1980.168641614861
 20
975.8189980072916
 30
0.0
 10
1980.666170227936
 20
975.790536436814
 30
0.0
 10
1981.165330644519
 20
975.7753347468829
 30
0.0
 10
1981.665128415302
 20
975.7734186963295
 30
0.0
 10
1982.164565402421
 20
975.7847911998547
 30
0.0
 10
1982.662643934119
 20
975.8094320579436
 30
0.0
 10
1983.158369261255
 20
975.8472980292307
 30
0.0
 10
1983.650754118646
 20
975.8983234057794
 30
0.0
 10
1984.138818374463
 20
975.9624203147371
 30
0.0
 10
1984.621590386051
 20
976.0394790687341
 30
0.0
 10
1985.098108717467
 20
976.1293686171189
 30
0.0
 10
1985.567423745318
 20
976.2319370643846
 30
0.0
 10
1986.028599123784
 20
976.3470122384271
 30
0.0
 10
1986.480713077489
 20
976.4744022836039
 30
0.0
 10
1986.922859489232
 20
976.6138962434315
 30
0.0
 10
1987.354148749328
 20
976.7652645845721
 30
0.0
 10
1987.773708335819
 20
976.9282595970109
 30
0.0
 10
1988.180683102204
 20
977.1026155848227
 30
0.0
 10
1988.574235264542
 20
977.2880487381275
 30
0.0
 10
1988.953544106808
 20
977.4842565513791
 30
0.0
 10
1989.31780546782
 20
977.6909166304921
 30
0.0
 10
1989.666231138134
 20
977.9076847171456
 30
0.0
 10
1989.998039668444
 20
978.1341858155585
 30
0.0
 10
1990.312463172677
 20
978.3700120799844
 30
0.0
 10
1990.608750654514
 20
978.6147180121407
 30
0.0
 10
1990.886178373657
 20
978.8678213043969
 30
0.0
 10
1991.144050293561
 20
979.1287941337122
 30
0.0
 10
1991.381705421012
 20
979.3970577959514
 30
0.0
 10
1991.598529450364
 20
979.6719805568992
 30
0.0
 10
1991.793967802796
 20
979.9528793451239
 30
0.0
 10
1991.967542831475
 20
980.2390264007041
 30
0.0
 10
1992.118857036027
 20
980.5296617108753
 30
0.0
 10
1992.247638217744
 20
980.82400922308
 30
0.0
 10
1992.353606646983
 20
981.121299742375
 30
0.0
 10
1992.436968411865
 20
981.420779403175
 30
0.0
 10
1992.496551200123
 20
981.7217676223469
 30
0.0
 10
1992.532132982126
 20
981.9895512864951
 30
0.0
 10
1992.538124860025
 20
982.1570159291336
 30
0.0
 10
1992.540505859765
 20
982.2235615559437
 30
0.0
  0
ARC
  5
439
330
41C
100
AcDbEntity
  8
0
  6
Continuous
 62
     7
370
    15
100
AcDbCircle
 10
1972.040413110499
 20
988.470225760018
 30
0.0
 40
0.1999999999999915
100
AcDbArc
 50
227.645961410567
 51
299.9973117336524
  0
ARC
  5
43A
330
41C
100
AcDbEntity
  8
0
  6
Continuous
 62
     7
370
    15
100
AcDbCircle
 10
1990.934129078844
 20
988.4702257600181
 30
0.0
 40
0.2000000000000162
100
AcDbArc
 50
240.0026882663589
 51
312.354038589447
  0
LINE
  5
43B
330
41C
100
AcDbEntity
  8
0
  6
Continuous
 62
     7
370
    15
100
AcDbLine
 10
1972.140404983763
 20
988.2970159875418
 30
0.0
 11
1973.926761540789
 21
989.3282576773165
 31
0.0
  0
LINE
  5
43C
330
41C
100
AcDbEntity
  8
0
  6
Continuous
 62
     7
370
    15
100
AcDbLine
 10
1989.047024469666
 20
989.3286942100969
 30
0.0
 11
1990.83413720558
 21
988.2970159875419
 31
0.0
  0
SPLINE
  5
43D
330
41C
100
AcDbEntity
  8
0
  6
Continuous
 62
     7
370
    15
100
AcDbSpline
210
0.0
220
0.0
230
1.0
 70
     8
 71
     3
 72
    18
 73
    14
 74
     0
 42
0.0000000001
 43
0.0000000001
 40
0.0
 40
0.0
 40
0.0
 40
0.0
 40
0.029537573957469
 40
0.1260520685313024
 40
0.222705912407956
 40
0.3195353788006665
 40
0.4165619599705903
 40
0.5137924857053788
 40
0.6112209308234902
 40
0.7088313273771388
 40
0.8066011202560222
 40
0.904504389030143
 40
1.0
 40
1.0
 40
1.0
 40
1.0
 10
1970.178175214025
 20
991.1829867445275
 30
0.0
 10
1970.183232299209
 20
991.1527310503151
 30
0.0
 10
1970.204813490986
 20
991.0236143921283
 30
0.0
 10
1970.265657414813
 20
990.7973629282208
 30
0.0
 10
1970.360955618263
 20
990.504946528028
 30
0.0
 10
1970.48005588507
 20
990.2154440050281
 30
0.0
 10
1970.620690916874
 20
989.9292533000201
 30
0.0
 10
1970.78318175925
 20
989.6469836455176
 30
0.0
 10
1970.967124615084
 20
989.3692176312779
 30
0.0
 10
1971.172094128941
 20
989.0964952615492
 30
0.0
 10
1971.398129711016
 20
988.8295772839788
 30
0.0
 10
1971.64097721029
 20
988.5705961680256
 30
0.0
 10
1971.818175160511
 20
988.4044603425282
 30
0.0
 10
1971.905671150877
 20
988.3224265573227
 30
0.0
  0
SPLINE
  5
43E
330
41C
100
AcDbEntity
  8
0
  6
Continuous
 62
     7
370
    15
100
AcDbSpline
210
0.0
220
0.0
230
1.0
 70
     8
 71
     3
 72
    18
 73
    14
 74
     0
 42
0.0000000001
 43
0.0000000001
 40
0.0
 40
0.0
 40
0.0
 40
0.0
 40
0.0519073092363086
 40
0.1501470415489845
 40
0.2483413927837447
 40
0.3464414704298512
 40
0.4444197664078116
 40
0.5422482086219858
 40
0.6399005985938559
 40
0.7373557543617724
 40
0.8346010326502716
 40
0.9316356910226298
 40
1.0
 40
1.0
 40
1.0
 40
1.0
 10
1991.068871038465
 20
988.3224265573229
 30
0.0
 10
1991.116801643067
 20
988.3668206466806
 30
0.0
 10
1991.255445671941
 20
988.4952349543647
 30
0.0
 10
1991.470038337158
 20
988.71327071666
 30
0.0
 10
1991.705680643231
 20
988.9783093197104
 30
0.0
 10
1991.920561609613
 20
989.2495739911955
 30
0.0
 10
1992.114506791179
 20
989.526328619635
 30
0.0
 10
1992.287027152555
 20
989.8079983452989
 30
0.0
 10
1992.437705731518
 20
990.0939493033833
 30
0.0
 10
1992.566515210319
 20
990.3835153818521
 30
0.0
 10
1992.672177940649
 20
990.6761294909577
 30
0.0
 10
1992.749972946053
 20
990.9420025650069
 30
0.0
 10
1992.782539427291
 20
991.1109956879661
 30
0.0
 10
1992.796000121885
 20
991.1808455682775
 30
0.0
  0
LINE
  5
43F
330
41C
100
AcDbEntity
  8
0
  6
Continuous
 62
     7
370
    15
100
AcDbLine
 10
1992.985338835309
 20
995.3017443296751
 30
0.0
 11
1992.985080107197
 21
995.29385353232
 31
0.0
  0
LINE
  5
440
330
41C
100
AcDbEntity
  8
0
  6
Continuous
 62
     7
370
    15
100
AcDbLine
 10
1969.989462082146
 20
995.29385353232
 30
0.0
 11
1969.989056455849
 21
995.306461236577
 31
0.0
  0
LWPOLYLINE
  5
441
330
41C
100
AcDbEntity
  8
0
  6
Continuous
 62
     7
370
    15
100
AcDbPolyline
 90
      132
 70
   128
 43
0.0
 10
1989.265580360141
 20
1000.333299174941
 10
1989.629565121177
 20
1000.112847359686
 10
1989.974822345027
 20
999.8825747053505
 10
1990.300557929016
 20
999.6430108464162
 10
1990.606022670859
 20
999.3947067874364
 10
1990.890513991863
 20
999.1382336357036
 10
1991.153377552872
 20
998.8741812876856
 10
1991.394008759273
 20
998.6031570722447
 10
1991.611854151579
 20
998.3257843537613
 10
1991.806412678408
 20
998.0427010983765
 10
1991.977236848912
 20
997.7545584066492
 10
1992.123933762027
 20
997.4620190160042
 10
1992.24616601015
 20
997.1657557764142
 10
1992.343652455193
 20
996.8664501028245
 10
1992.416168875211
 20
996.5647904078755
 10
1992.463548480111
 20
996.2614705185323
 10
1992.485682295285
 20
995.9571880802609
 10
1992.482519412249
 20
995.6526429524197
 10
1992.454067105735
 20
995.3485355985622
 10
1992.40039081696
 20
995.0455654753476
 10
1992.321614003108
 20
994.744429423768
 10
1992.217917853375
 20
994.445820066392
 10
1992.089540872229
 20
994.1504242143107
 10
1991.93677833084
 20
993.8589212874502
 10
1991.759981587949
 20
993.5719817518831
 10
1991.55955728173
 20
993.2902655777368
 10
1991.33596639451
 20
993.0144207212395
 10
1991.089723192494
 20
992.7450816344006
 10
1990.821394042938
 20
992.4828678057506
 10
1990.531596111486
 20
992.2283823354987
 10
1990.220995942665
 20
991.9822105483815
 10
1989.890307926818
 20
991.7449186473977
 10
1989.540292656978
 20
991.5170524115238
 10
1989.171755179482
 20
991.2991359404045
 10
1988.785543142338
 20
991.0916704489066
 10
1988.382544845609
 20
990.8951331143089
 10
1987.96368719829
 20
990.709975978779
 10
1987.529933586393
 20
990.5366249096623
 10
1987.082281657126
 20
990.3754786199725
 10
1986.62176102427
 20
990.2269077513398
 10
1986.149430900039
 20
990.0912540215237
 10
1985.666377658855
 20
989.9688294384493
 10
1985.173712338652
 20
989.8599155825813
 10
1984.672568085454
 20
989.7647629592778
 10
1984.164097547104
 20
989.683590422622
 10
1983.649470222132
 20
989.6165846720494
 10
1983.129869769879
 20
989.5638998229335
 10
1982.606491288034
 20
989.5256570521155
 10
1982.08053856388
 20
989.5019443191939
 10
1981.553221305534
 20
989.4928161642141
 10
1981.025752359591
 20
989.4982935822254
 10
1980.499344921527
 20
989.5183639749905
 10
1979.97520974532
 20
989.5529811799631
 10
1979.454552358672
 20
989.6020655764626
 10
1978.938570290256
 20
989.6655042688037
 10
1978.428450315363
 20
989.7431513459613
 10
1977.925365726285
 20
989.8348282171697
 10
1977.430473633697
 20
989.9403240226874
 10
1976.94491230527
 20
990.0593961187807
 10
1976.469798547622
 20
990.1917706358133
 10
1976.006225137618
 20
990.3371431081538
 10
1975.555258308959
 20
990.4951791744574
 10
1975.1179352998
 20
990.665515346707
 10
1974.695261967078
 20
990.8477598462482
 10
1974.288210473002
 20
991.0414935048921
 10
1973.897717049054
 20
991.2462707290151
 10
1973.52467984262
 20
991.4616205244398
 10
1973.169956851231
 20
991.6870475797356
 10
1972.834363949134
 20
991.9220334054516
 10
1972.518673010758
 20
992.1660375266583
 10
1972.223610135378
 20
992.4184987260577
 10
1971.949853977062
 20
992.6788363348011
 10
1971.698034183748
 20
992.9464515680457
 10
1971.468729949028
 20
993.2207289021791
 10
1971.262468679993
 20
993.5010374905434
 10
1971.079724784169
 20
993.7867326144029
 10
1970.920918578374
 20
994.0771571658174
 10
1970.78641532197
 20
994.3716431590122
 10
1970.676524376757
 20
994.6695132667654
 10
1970.59149849543
 20
994.9700823782842
 10
1970.531533240241
 20
995.2726591749801
 10
1970.496766533198
 20
995.5765477205247
 10
1970.487278338843
 20
995.8810490615247
 10
1970.503090480326
 20
996.1854628351382
 10
1970.544166589214
 20
996.4890888799306
 10
1970.610412189142
 20
996.7912288462692
 10
1970.701674913106
 20
997.0911878025491
 10
1970.817744853917
 20
997.3882758335586
 10
1970.958355046991
 20
997.681809627306
 10
1971.123182084379
 20
997.9711140466594
 10
1971.311846858612
 20
998.2555236821834
 10
1971.523915434664
 20
998.5343843826019
 10
1971.758900048014
 20
998.8070547593682
 10
1972.016260226522
 20
999.0729076618777
 10
1972.295404033528
 20
999.3313316199351
 10
1972.595689429333
 20
999.581732250156
 10
1972.916425747903
 20
999.8235336230662
 10
1973.256875285427
 20
1000.056179587759
 10
1973.616254997059
 20
1000.279135051062
 10
1973.993738297945
 20
1000.491887208263
 10
1974.388456964398
 20
1000.693946722584
 10
1974.799503130834
 20
1000.884848850667
 10
1975.225931377901
 20
1001.064154511499
 10
1975.666760906962
 20
1001.231451296314
 10
1976.120977795977
 20
1001.386354417147
 10
1976.587537331544
 20
1001.528507591855
 10
1977.06536641178
 20
1001.657583863581
 10
1977.553366014488
 20
1001.773286352765
 10
1978.050413724945
 20
1001.875348939973
 10
1978.555366317488
 20
1001.963536877984
 10
1979.067062384972
 20
1002.037647331714
 10
1979.584325010046
 20
1002.097509844745
 10
1980.105964472094
 20
1002.14298673138
 10
1980.630780983639
 20
1002.17397339332
 10
1981.157567449887
 20
1002.190398560251
 10
1981.685112245082
 20
1002.192224453762
 10
1982.212201999292
 20
1002.17944687424
 10
1982.737624389191
 20
1002.152095210528
 10
1983.260170926444
 20
1002.110232372328
 10
1983.77863973727
 20
1002.053954645509
 10
1984.291838326791
 20
1001.983391470647
 10
1984.798586321804
 20
1001.898705145305
 10
1985.297718185682
 20
1001.800090450746
 10
1985.788085899144
 20
1001.687774203926
 10
1986.268561600734
 20
1001.562014735813
 10
1986.738040180941
 20
1001.423101297214
 10
1987.195441823986
 20
1001.271353393488
 10
1987.639714491433
 20
1001.107120049677
 10
1988.06983634191
 20
1000.930779007736
 10
1988.484818081377
 20
1000.742735857711
 10
1988.883705238536
 20
1000.543423104873
 10
1989.265580360141
 20
1000.333299174941
  0
ARC
  5
442
330
41C
100
AcDbEntity
  8
0
  6
Continuous
 62
     7
370
    15
100
AcDbCircle
 10
1989.020613026384
 20
991.9226214722046
 30
0.0
 40
3.848257088006087
100
AcDbArc
 50
349.1906864401615
 51
358.037312331644
  0
LWPOLYLINE
  5
443
330
41C
100
AcDbEntity
  8
0
  6
Continuous
 62
     7
370
    15
100
AcDbPolyline
 90
        4
 70
   128
 43
0.0
 10
1991.154897391946
 20
990.4968128974743
 10
1991.146922950268
 20
990.174965839663
 10
1991.115021651639
 20
988.8875804703101
 10
1991.103036415714
 20
988.4039736176385
  0
SPLINE
  5
444
330
41C
100
AcDbEntity
  8
0
  6
Continuous
 62
     7
370
    15
100
AcDbSpline
210
0.0
220
0.0
230
1.0
 70
     8
 71
     3
 72
    10
 73
     6
 74
     0
 42
0.0000000001
 43
0.0000000001
 40
0.0
 40
0.0
 40
0.0
 40
0.0
 40
0.5
 40
0.5
 40
1.0
 40
1.0
 40
1.0
 40
1.0
 10
1991.154897391946
 20
990.4968128974743
 30
0.0
 10
1991.157049992278
 20
990.5836934189336
 30
0.0
 10
1991.13387586893
 20
990.6446314854749
 30
0.0
 10
1991.052417421875
 20
990.6873423235154
 30
0.0
 10
1990.994822125617
 20
990.6700373716857
 30
0.0
 10
1990.933703446678
 20
990.6187277538586
 30
0.0
  0
ARC
  5
445
330
41C
100
AcDbEntity
  8
0
  6
Continuous
 62
     7
370
    15
100
AcDbCircle
 10
1984.144604346719
 20
998.9718312580846
 30
0.0
 40
10.76411653324946
100
AcDbArc
 50
290.8916657369404
 51
309.1029577303607
  0
SPLINE
  5
446
330
41C
100
AcDbEntity
  8
0
  6
Continuous
 62
     7
370
    15
100
AcDbSpline
210
0.0
220
0.0
230
1.0
 70
     8
 71
     3
 72
    10
 73
     6
 74
     0
 42
0.0000000001
 43
0.0000000001
 40
0.0
 40
0.0
 40
0.0
 40
0.0
 40
0.5
 40
0.5
 40
1.0
 40
1.0
 40
1.0
 40
1.0
 10
1987.983110970132
 20
988.9153869737768
 30
0.0
 10
1987.894258998128
 20
988.8801152344262
 30
0.0
 10
1987.805059410659
 20
988.8125274853601
 30
0.0
 10
1987.672847741973
 20
988.6465508254016
 30
0.0
 10
1987.630687438534
 20
988.5479412859085
 30
0.0
 10
1987.628519205776
 20
988.4610781024312
 30
0.0
  0
LWPOLYLINE
  5
447
330
41C
100
AcDbEntity
  8
0
  6
Continuous
 62
     7
370
    15
100
AcDbPolyline
 90
        5
 70
   128
 43
0.0
 10
1987.576263059602
 20
986.3680106958438
 10
1987.584300553335
 20
986.6898914454401
 10
1987.600374109644
 20
987.3336536034262
 10
1987.616445767652
 20
987.977416635163
 10
1987.628519205776
 20
988.4610781024312
  0
ARC
  5
448
330
41C
100
AcDbEntity
  8
0
  6
Continuous
 62
     7
370
    15
100
AcDbCircle
 10
1981.487271094671
 20
1003.87110783607
 30
0.0
 40
18.53197864905883
100
AcDbArc
 50
250.8181939782271
 51
289.1818060217852
  0
LWPOLYLINE
  5
449
330
41C
100
AcDbEntity
  8
0
  6
Continuous
 62
     7
370
    15
100
AcDbPolyline
 90
        4
 70
   128
 43
0.0
 10
1975.346022983567
 20
988.461078102431
 10
1975.354057867913
 20
988.1391961518104
 10
1975.386202128877
 20
986.851670523287
 10
1975.398279129741
 20
986.3680106958438
  0
SPLINE
  5
44A
330
41C
100
AcDbEntity
  8
0
  6
Continuous
 62
     7
370
    15
100
AcDbSpline
210
0.0
220
0.0
230
1.0
 70
     8
 71
     3
 72
    10
 73
     6
 74
     0
 42
0.0000000001
 43
0.0000000001
 40
0.0
 40
0.0
 40
0.0
 40
0.0
 40
0.5
 40
0.5
 40
1.0
 40
1.0
 40
1.0
 40
1.0
 10
1975.346022983567
 20
988.461078102431
 30
0.0
 10
1975.343854083143
 20
988.5479680337336
 30
0.0
 10
1975.301696548897
 20
988.6466212634138
 30
0.0
 10
1975.169146216111
 20
988.8128767403351
 30
0.0
 10
1975.080311714591
 20
988.8801039114463
 30
0.0
 10
1974.99143121921
 20
988.9153869737768
 30
0.0
  0
ARC
  5
44B
330
41C
100
AcDbEntity
  8
0
  6
Continuous
 62
     7
370
    15
100
AcDbCircle
 10
1978.829937842624
 20
998.9718312580851
 30
0.0
 40
10.76411653325013
100
AcDbArc
 50
230.8970422696435
 51
249.1083342630596
  0
SPLINE
  5
44C
330
41C
100
AcDbEntity
  8
0
  6
Continuous
 62
     7
370
    15
100
AcDbSpline
210
0.0
220
0.0
230
1.0
 70
     8
 71
     3
 72
    10
 73
     6
 74
     0
 42
0.0000000001
 43
0.0000000001
 40
0.0
 40
0.0
 40
0.0
 40
0.0
 40
0.5
 40
0.5
 40
1.0
 40
1.0
 40
1.0
 40
1.0
 10
1972.040838742665
 20
990.6187277538586
 30
0.0
 10
1971.979739677827
 20
990.670020905491
 30
0.0
 10
1971.921913303108
 20
990.6873094377541
 30
0.0
 10
1971.840672254371
 20
990.644556408675
 30
0.0
 10
1971.817492859712
 20
990.5836666740048
 30
0.0
 10
1971.819644797396
 20
990.4968128974742
 30
0.0
  0
LWPOLYLINE
  5
44D
330
41C
100
AcDbEntity
  8
0
  6
Continuous
 62
     7
370
    15
100
AcDbPolyline
 90
        5
 70
   128
 43
0.0
 10
1971.871505773628
 20
988.4039736176383
 10
1971.863529380719
 20
988.7258190944791
 10
1971.8475776652
 20
989.3695109152748
 10
1971.831627369198
 20
990.0132038862166
 10
1971.819644797396
 20
990.4968128974742
  0
ARC
  5
44E
330
41C
100
AcDbEntity
  8
0
  6
Continuous
 62
     7
370
    15
100
AcDbCircle
 10
1973.953743476987
 20
991.922606688322
 30
0.0
 40
3.848071004650076
100
AcDbArc
 50
181.962562362751
 51
190.7780781824984
  0
LWPOLYLINE
  5
44F
330
41C
100
AcDbEntity
  8
0
  6
Continuous
 62
     7
370
    15
100
AcDbPolyline
 90
       77
 70
   128
 43
0.0
 10
1978.870976004281
 20
994.3326218083118
 10
1978.663860042332
 20
994.4625045642986
 10
1978.476030840772
 20
994.6018173455392
 10
1978.308771463503
 20
994.7496085044768
 10
1978.163224461671
 20
994.9048684776373
 10
1978.040384068881
 20
995.0665366819729
 10
1977.941089409576
 20
995.2335087597178
 10
1977.86601876696
 20
995.4046441222741
 10
1977.815684949644
 20
995.5787737415867
 10
1977.790431788638
 20
995.7547081357903
 10
1977.790431788638
 20
995.9312454945774
 10
1977.815684949644
 20
996.1071798887811
 10
1977.86601876696
 20
996.2813095080935
 10
1977.941089409576
 20
996.4524448706498
 10
1978.040384068881
 20
996.619416948395
 10
1978.163224461671
 20
996.7810851527303
 10
1978.308771463503
 20
996.9363451258908
 10
1978.476030840772
 20
997.0841362848284
 10
1978.663860042332
 20
997.2234490660692
 10
1978.870976004281
 20
997.3533318220558
 10
1979.095963914586
 20
997.4728973218658
 10
1979.337286877684
 20
997.5813288118974
 10
1979.59329641304
 20
997.6778855951259
 10
1979.862243715936
 20
997.7619080908143
 10
1980.142291603585
 20
997.8328223401193
 10
1980.43152706495
 20
997.8901439268124
 10
1980.727974328548
 20
997.9334812863326
 10
1981.029608358975
 20
997.9625383805716
 10
1981.334368689951
 20
997.9771167201116
 10
1981.640173499392
 20
997.9771167201116
 10
1981.944933830368
 20
997.9625383805716
 10
1982.246567860795
 20
997.9334812863326
 10
1982.543015124393
 20
997.8901439268124
 10
1982.832250585758
 20
997.8328223401193
 10
1983.112298473407
 20
997.7619080908143
 10
1983.381245776303
 20
997.6778855951259
 10
1983.637255311658
 20
997.5813288118974
 10
1983.878578274756
 20
997.4728973218658
 10
1984.103566185062
 20
997.3533318220558
 10
1984.310682147011
 20
997.2234490660692
 10
1984.498511348571
 20
997.0841362848284
 10
1984.66577072584
 20
996.9363451258908
 10
1984.811317727672
 20
996.7810851527303
 10
1984.934158120461
 20
996.619416948395
 10
1985.033452779767
 20
996.4524448706498
 10
1985.108523422383
 20
996.2813095080935
 10
1985.158857239699
 20
996.1071798887809
 10
1985.184110400704
 20
995.9312454945774
 10
1985.184110400704
 20
995.7547081357903
 10
1985.158857239699
 20
995.5787737415867
 10
1985.108523422383
 20
995.4046441222741
 10
1985.033452779767
 20
995.2335087597177
 10
1984.934158120461
 20
995.0665366819727
 10
1984.811317727671
 20
994.9048684776373
 10
1984.66577072584
 20
994.7496085044768
 10
1984.498511348571
 20
994.6018173455392
 10
1984.310682147011
 20
994.4625045642986
 10
1984.103566185061
 20
994.3326218083118
 10
1983.878578274756
 20
994.2130563085019
 10
1983.637255311658
 20
994.1046248184703
 10
1983.381245776303
 20
994.0080680352419
 10
1983.112298473406
 20
993.9240455395534
 10
1982.832250585757
 20
993.8531312902483
 10
1982.543015124393
 20
993.7958097035554
 10
1982.246567860795
 20
993.752472344035
 10
1981.944933830368
 20
993.7234152497962
 10
1981.640173499392
 20
993.7088369102562
 10
1981.334368689951
 20
993.7088369102562
 10
1981.029608358975
 20
993.7234152497962
 10
1980.727974328548
 20
993.752472344035
 10
1980.43152706495
 20
993.7958097035554
 10
1980.142291603585
 20
993.8531312902483
 10
1979.862243715936
 20
993.9240455395534
 10
1979.59329641304
 20
994.0080680352419
 10
1979.337286877684
 20
994.1046248184703
 10
1979.095963914586
 20
994.2130563085019
 10
1978.870976004281
 20
994.3326218083118
  0
ARC
  5
450
330
41C
100
AcDbEntity
  8
0
  6
Continuous
 62
     7
370
    15
100
AcDbCircle
 10
1989.042866911016
 20
991.5863854497096
 30
0.0
 40
3.835158860034044
100
AcDbArc
 50
348.2718984047409
 51
3.990961763838673
  0
ARC
  5
451
330
41C
100
AcDbEntity
  8
0
  6
Continuous
 62
     7
370
    15
100
AcDbCircle
 10
1973.928490111415
 20
991.5862102919513
 30
0.0
 40
3.831993628347695
100
AcDbArc
 50
176.0031110169106
 51
191.5701030211053
  0
ARC
  5
452
330
41C
100
AcDbEntity
  8
0
  6
Continuous
 62
     7
370
    15
100
AcDbCircle
 10
1973.993403063517
 20
990.6969160958524
 30
0.0
 40
3.849396117502775
100
AcDbArc
 50
183.0885077118194
 51
191.6963730936984
  0
ARC
  5
453
330
41C
100
AcDbEntity
  8
0
  6
Continuous
 62
     7
370
    15
100
AcDbCircle
 10
1988.972462663478
 20
990.6979997052411
 30
0.0
 40
3.858118409489992
100
AcDbArc
 50
348.0659206749749
 51
356.9023656322969
  0
ARC
  5
454
330
41C
100
AcDbEntity
  8
0
  6
Continuous
 62
     7
370
    15
100
AcDbCircle
 10
1989.007316833626
 20
990.364697818306
 30
0.0
 40
3.808868794870899
100
AcDbArc
 50
349.5777164776882
 51
359.9972186243288
  0
ARC
  5
455
330
41C
100
AcDbEntity
  8
0
  6
Continuous
 62
     7
370
    15
100
AcDbCircle
 10
1973.973826762635
 20
990.3652831049235
 30
0.0
 40
3.815470275035703
100
AcDbArc
 50
180.0115656380748
 51
190.4965250659701
  0
LINE
  5
456
330
41C
100
AcDbEntity
  8
0
  6
Continuous
 62
     7
370
    15
100
AcDbLine
 10
1992.543420019686
 20
982.2341782402846
 30
0.0
 11
1992.543076214424
 21
982.2243962016111
 31
0.0
  0
ARC
  5
457
330
41C
100
AcDbEntity
  8
0
  6
Continuous
 62
     7
370
    15
100
AcDbCircle
 10
1990.988015185767
 20
990.729096373035
 30
0.0
 40
0.2860162298855264
100
AcDbArc
 50
239.9340514730739
 51
305.6950539847013
  0
ARC
  5
458
330
41C
100
AcDbEntity
  8
0
  6
Continuous
 62
     7
370
    15
100
AcDbCircle
 10
1971.986527003576
 20
990.729096373035
 30
0.0
 40
0.286016229885586
100
AcDbArc
 50
234.3049460153168
 51
300.0659485269228
  0
LINE
  5
459
330
41C
100
AcDbEntity
  8
0
  6
Continuous
 62
     7
370
    15
100
AcDbLine
 10
1977.987407409999
 20
995.6975010385722
 30
0.0
 11
1977.987271094671
 21
995.6796686528067
 31
0.0
  0
LWPOLYLINE
  5
45A
330
41C
100
AcDbEntity
  8
0
  6
Continuous
 62
     7
370
    15
100
AcDbPolyline
 90
        3
 70
   128
 43
0.0
 10
1972.12982012803
 20
990.4815638211509
 10
1972.15568608687
 20
989.4406714202716
 10
1972.181834466736
 20
988.3885849488358
  0
ARC
  5
45B
330
41C
100
AcDbEntity
  8
0
  6
Continuous
 62
     7
370
    15
100
AcDbCircle
 10
1972.038557092701
 20
988.6359925874916
 30
0.0
 40
0.2859002371033128
100
AcDbArc
 50
234.2464931857882
 51
300.0757583215342
  0
ARC
  5
45C
330
41C
100
AcDbEntity
  8
0
  6
Continuous
 62
     7
370
    15
100
AcDbCircle
 10
1990.935985096642
 20
988.6359925874918
 30
0.0
 40
0.2859002371033373
100
AcDbArc
 50
239.9242416784771
 51
305.7535068142012
  0
LWPOLYLINE
  5
45D
330
41C
100
AcDbEntity
  8
0
  6
Continuous
 62
     7
370
    15
100
AcDbPolyline
 90
        3
 70
   128
 43
0.0
 10
1990.792707722606
 20
988.3885849488358
 10
1990.818856102472
 20
989.4406714202718
 10
1990.844722061313
 20
990.4815638211513
  0
LWPOLYLINE
  5
45E
330
41C
100
AcDbEntity
  8
0
  6
Continuous
 62
     7
370
    15
100
AcDbPolyline
 90
       71
 70
   128
 43
0.0
 10
1979.224529394874
 20
994.3734156738903
 10
1979.436469129919
 20
994.2615826500682
 10
1979.664920716532
 20
994.1611672209191
 10
1979.908044796865
 20
994.0729778724351
 10
1980.163883878778
 20
993.9977246533956
 10
1980.430378096414
 20
993.9360134584726
 10
1980.70538179503
 20
993.8883411499217
 10
1980.986680806542
 20
993.8550915571404
 10
1981.272010276713
 20
993.8365323862994
 10
1981.559072900418
 20
993.8328130649297
 10
1981.845557418202
 20
993.8439635388204
 10
1982.129157225178
 20
993.8698940309116
 10
1982.407588942454
 20
993.9103957641279
 10
1982.678610801557
 20
993.9651426423285
 10
1982.940040693838
 20
994.0336938758402
 10
1983.18977373952
 20
994.1154975304389
 10
1983.425799234962
 20
994.2098949711969
 10
1983.646216841654
 20
994.3161261654264
 10
1983.849251886631
 20
994.4333358020143
 10
1984.033269651093
 20
994.560580177885
 10
1984.196788532202
 20
994.6968347961421
 10
1984.338491972074
 20
994.8410026147165
 10
1984.457239057932
 20
994.9919228791017
 10
1984.552073708063
 20
995.1483804680689
 10
1984.622232369625
 20
995.3091156771073
 10
1984.66715016633
 20
995.4728343608241
 10
1984.686465446487
 20
995.6382183526436
 10
1984.68002269482
 20
995.8039360779077
 10
1984.647873784576
 20
995.9686532749328
 10
1984.590277559877
 20
996.1310437377008
 10
1984.507697751658
 20
996.2897999936895
 10
1984.400799243979
 20
996.4436438308728
 10
1984.270442720769
 20
996.5913365891324
 10
1984.117677736105
 20
996.731689133221
 10
1983.943734263817
 20
996.863571426979
 10
1983.750012794468
 20
996.985921631723
 10
1983.538073059423
 20
997.0977546555452
 10
1983.30962147281
 20
997.1981700846944
 10
1983.066497392477
 20
997.2863594331784
 10
1982.810658310564
 20
997.3616126522177
 10
1982.544164092928
 20
997.4233238471409
 10
1982.269160394313
 20
997.4709961556918
 10
1981.9878613828
 20
997.5042457484731
 10
1981.702531912629
 20
997.5228049193139
 10
1981.415469288925
 20
997.5265242406836
 10
1981.128984771141
 20
997.515373766793
 10
1980.845384964165
 20
997.4894432747019
 10
1980.566953246889
 20
997.4489415414854
 10
1980.295931387785
 20
997.3941946632848
 10
1980.034501495505
 20
997.3256434297731
 10
1979.784768449822
 20
997.2438397751746
 10
1979.548742954381
 20
997.1494423344166
 10
1979.328325347689
 20
997.0432111401869
 10
1979.125290302712
 20
996.926001503599
 10
1978.94127253825
 20
996.7987571277285
 10
1978.777753657141
 20
996.6625025094712
 10
1978.636050217269
 20
996.518334690897
 10
1978.51730313141
 20
996.3674144265116
 10
1978.422468481279
 20
996.2109568375446
 10
1978.352309819717
 20
996.0502216285062
 10
1978.307392023013
 20
995.8865029447892
 10
1978.288076742855
 20
995.7211189529697
 10
1978.294519494523
 20
995.5554012277056
 10
1978.326668404767
 20
995.3906840306807
 10
1978.384264629466
 20
995.2282935679127
 10
1978.466844437684
 20
995.069537311924
 10
1978.573742945363
 20
994.9156934747406
 10
1978.704099468573
 20
994.7680007164809
 10
1978.856864453238
 20
994.6276481723925
 10
1979.030807925526
 20
994.4957658786345
 10
1979.224529394874
 20
994.3734156738903
  0
LINE
  5
45F
330
41C
100
AcDbEntity
  8
0
  6
Continuous
 62
     7
370
    15
100
AcDbLine
 10
1978.08732061312
 20
995.5057672530161
 30
0.0
 11
1978.087271094671
 21
995.5163604904296
 31
0.0
  0
LINE
  5
460
330
41C
100
AcDbEntity
  8
0
  6
Continuous
 62
     7
370
    15
100
AcDbLine
 10
1984.887271094671
 20
995.5163604904296
 30
0.0
 11
1984.887143949208
 21
995.4993861408077
 31
0.0
  0
LINE
  5
461
330
41C
100
AcDbEntity
  8
0
  6
Continuous
 62
     7
370
    15
100
AcDbLine
 10
1982.503024097841
 20
996.6742544359618
 30
0.0
 11
1981.487271094671
 21
996.087872708718
 31
0.0
  0
LINE
  5
462
330
41C
100
AcDbEntity
  8
0
  6
Continuous
 62
     7
370
    15
100
AcDbLine
 10
1981.487271094671
 20
996.087872708718
 30
0.0
 11
1980.471518091501
 21
996.674254435962
 31
0.0
  0
ARC
  5
463
330
41C
100
AcDbEntity
  8
0
  6
Continuous
 62
     7
370
    15
100
AcDbCircle
 10
1981.03078617703
 20
994.8889279041551
 30
0.0
 40
1.87087455930755
100
AcDbArc
 50
107.3935901953563
 51
132.6010332719449
  0
LINE
  5
464
330
41C
100
AcDbEntity
  8
0
  6
Continuous
 62
     7
370
    15
100
AcDbLine
 10
1979.764411310315
 20
996.2660503800504
 30
0.0
 11
1980.780164313484
 21
995.6796686528067
 31
0.0
  0
LINE
  5
465
330
41C
100
AcDbEntity
  8
0
  6
Continuous
 62
     7
370
    15
100
AcDbLine
 10
1980.780164313484
 20
995.6796686528067
 30
0.0
 11
1979.764411310315
 21
995.0932869255629
 31
0.0
  0
ARC
  5
466
330
41C
100
AcDbEntity
  8
0
  6
Continuous
 62
     7
370
    15
100
AcDbCircle
 10
1981.03078617703
 20
996.4704094014578
 30
0.0
 40
1.870874559306995
100
AcDbArc
 50
227.398966728055
 51
252.6064098046437
  0
LINE
  5
467
330
41C
100
AcDbEntity
  8
0
  6
Continuous
 62
     7
370
    15
100
AcDbLine
 10
1980.471518091501
 20
994.6850828696515
 30
0.0
 11
1981.487271094671
 21
995.2714645968953
 31
0.0
  0
LINE
  5
468
330
41C
100
AcDbEntity
  8
0
  6
Continuous
 62
     7
370
    15
100
AcDbLine
 10
1981.487271094671
 20
995.2714645968953
 30
0.0
 11
1982.503024097841
 21
994.6850828696515
 31
0.0
  0
ARC
  5
469
330
41C
100
AcDbEntity
  8
0
  6
Continuous
 62
     7
370
    15
100
AcDbCircle
 10
1981.943756012313
 20
996.4704094014582
 30
0.0
 40
1.870874559307255
100
AcDbArc
 50
287.3935901953563
 51
312.6010332719449
  0
LINE
  5
46A
330
41C
100
AcDbEntity
  8
0
  6
Continuous
 62
     7
370
    15
100
AcDbLine
 10
1983.210130879027
 20
995.0932869255629
 30
0.0
 11
1982.194377875858
 21
995.6796686528067
 31
0.0
  0
LINE
  5
46B
330
41C
100
AcDbEntity
  8
0
  6
Continuous
 62
     7
370
    15
100
AcDbLine
 10
1982.194377875858
 20
995.6796686528067
 30
0.0
 11
1983.210130879027
 21
996.2660503800504
 31
0.0
  0
ARC
  5
46C
330
41C
100
AcDbEntity
  8
0
  6
Continuous
 62
     7
370
    15
100
AcDbCircle
 10
1981.943756012313
 20
994.8889279041564
 30
0.0
 40
1.870874559306031
100
AcDbArc
 50
47.39896672804103
 51
72.60640980465613
  0
LINE
  5
46D
330
41C
100
AcDbEntity
  8
0
  6
Continuous
 62
     7
370
    15
100
AcDbLine
 10
1981.362474156827
 20
995.1994208581721
 30
0.0
 11
1980.833585331716
 21
995.5047418779683
 31
0.0
  0
LINE
  5
46E
330
41C
100
AcDbEntity
  8
0
  6
Continuous
 62
     7
370
    15
100
AcDbLine
 10
1982.140956857627
 20
995.5047418779683
 30
0.0
 11
1981.612068032515
 21
995.1994208581721
 31
0.0
  0
LINE
  5
46F
330
41C
100
AcDbEntity
  8
0
  6
Continuous
 62
     7
370
    15
100
AcDbLine
 10
1981.982421880621
 20
994.9856201325372
 30
0.0
 11
1982.194377875858
 21
995.6796686528067
 31
0.0
  0
LINE
  5
470
330
41C
100
AcDbEntity
  8
0
  6
Continuous
 62
     7
370
    15
100
AcDbLine
 10
1980.992120308721
 20
994.9856201325372
 30
0.0
 11
1980.780164313484
 21
995.6796686528067
 31
0.0
  0
LINE
  5
471
330
41C
100
AcDbEntity
  8
0
  6
Continuous
 62
     7
370
    15
100
AcDbLine
 10
1982.523792774684
 20
995.869835826077
 30
0.0
 11
1982.503024097841
 21
996.6742544359618
 31
0.0
  0
LINE
  5
472
330
41C
100
AcDbEntity
  8
0
  6
Continuous
 62
     7
370
    15
100
AcDbLine
 10
1981.487271094671
 20
995.2714645968953
 30
0.0
 11
1981.487271094671
 21
996.087872708718
 31
0.0
  0
LINE
  5
473
330
41C
100
AcDbEntity
  8
0
  6
Continuous
 62
     7
370
    15
100
AcDbLine
 10
1980.450749414658
 20
995.869835826077
 30
0.0
 11
1980.471518091501
 21
996.6742544359618
 31
0.0
  0
LWPOLYLINE
  5
474
330
41C
100
AcDbEntity
  8
0
  6
Continuous
 62
     8
370
    15
100
AcDbPolyline
 90
       68
 70
   128
 43
0.0
 10
1992.985080107197
 20
995.29385353232
 10
1992.967523523946
 20
995.0345489611876
 10
1992.923329986791
 20
994.7243347551125
 10
1992.853997510239
 20
994.4156573313629
 10
1992.759678502122
 20
994.1091952299084
 10
1992.640580296088
 20
993.805622120959
 10
1992.496964695843
 20
993.5056053240922
 10
1992.329147399645
 20
993.2098043413395
 10
1992.137497306331
 20
992.9188694074584
 10
1991.9224357044
 20
992.633440060575
 10
1991.684435345928
 20
992.3541437363397
 10
1991.424019407356
 20
992.0815943886887
 10
1991.141760339434
 20
991.8163911402391
 10
1990.838278608853
 20
991.5591169652877
 10
1990.514241334319
 20
991.3103374083068
 10
1990.170360820088
 20
991.0705993407548
 10
1989.807392990162
 20
990.8404297589346
 10
1989.426135726606
 20
990.6203346255399
 10
1989.027427115627
 20
990.4107977574412
 10
1988.612143605285
 20
990.2122797621499
 10
1988.181198078865
 20
990.025217025304
 10
1987.73553784816
 20
989.8500207513967
 10
1987.276142571078
 20
989.6870760598607
 10
1986.80402209814
 20
989.5367411384919
 10
1986.32021425261
 20
989.3993464560741
 10
1985.825782549131
 20
989.2751940359383
 10
1985.321813855895
 20
989.164556792048
 10
1984.809416005465
 20
989.0676779290773
 10
1984.28971535952
 20
988.9847704077919
 10
1983.76385433287
 20
988.9160164769172
 10
1983.232988882179
 20
988.8615672725149
 10
1982.698285964921
 20
988.8215424857532
 10
1982.160920974153
 20
988.7960300997999
 10
1981.622075154749
 20
988.7850861964166
 10
1981.082933006764
 20
988.7887348326774
 10
1980.544679681649
 20
988.8069679880883
 10
1980.00849837703
 20
988.8397455822168
 10
1979.47556773578
 20
988.8869955627969
 10
1978.94705925511
 20
988.9486140641171
 10
1978.424134711362
 20
989.0244656353385
 10
1977.907943606172
 20
989.114383538245
 10
1977.399620639618
 20
989.2181701137719
 10
1976.900283215902
 20
989.3355972165013
 10
1976.41102898705
 20
989.4664067161764
 10
1975.932933440041
 20
989.6103110651276
 10
1975.467047532647
 20
989.7669939303645
 10
1975.014395383202
 20
989.9361108889443
 10
1974.575972019371
 20
990.1172901850895
 10
1974.152741190856
 20
990.3101335473856
 10
1973.745633250872
 20
990.5142170642697
 10
1973.355543111026
 20
990.7290921158802
 10
1972.983328274105
 20
990.9542863602192
 10
1972.629806949102
 20
991.189304771464
 10
1972.295756252615
 20
991.4336307281415
 10
1971.981910500571
 20
991.6867271487728
 10
1971.688959594048
 20
991.9480376724962
 10
1971.417547502717
 20
992.2169878820687
 10
1971.168270849259
 20
992.49298656656
 10
1970.941677597858
 20
992.7754270209618
 10
1970.738265849659
 20
993.0636883798577
 10
1970.558482747829
 20
993.35713698222
 10
1970.402723494645
 20
993.6551277643339
 10
1970.27133048275
 20
993.9570056777878
 10
1970.164592542499
 20
994.2621071294116
 10
1970.082744307051
 20
994.5697614399991
 10
1970.02596569659
 20
994.879292318606
 10
1969.994381522824
 20
995.1900193491837
 10
1969.989462082146
 20
995.29385353232
  0
ARC
  5
475
330
41C
100
AcDbEntity
  8
0
  6
Continuous
 62
     8
370
    15
100
AcDbCircle
 10
1987.772107022813
 20
992.3392414007674
 30
0.0
 40
5.15571751994105
100
AcDbArc
 50
310.2455835182423
 51
347.2446194470697
  0
ARC
  5
476
330
41C
100
AcDbEntity
  8
0
  6
Continuous
 62
     8
370
    15
100
AcDbCircle
 10
1975.201862948285
 20
992.3387598462758
 30
0.0
 40
5.154980269201886
100
AcDbArc
 50
192.728036569231
 51
229.7558130199792
  0
LWPOLYLINE
  5
477
330
41C
100
AcDbEntity
  8
0
  6
Continuous
 62
     8
370
    15
100
AcDbPolyline
 90
       63
 70
   128
 43
0.0
 10
1992.79796005198
 20
990.8068221204121
 10
1992.733676820649
 20
990.5417351297566
 10
1992.635724005224
 20
990.2362995311877
 10
1992.512894632055
 20
989.9338751032194
 10
1992.365462781505
 20
989.6351366730053
 10
1992.193757431679
 20
989.3407508427962
 10
1991.998161724355
 20
989.0513745024916
 10
1991.779112110038
 20
988.7676533638591
 10
1991.53709737407
 20
988.4902205197004
 10
1991.272657545962
 20
988.2196950311735
 10
1990.986382694372
 20
987.956680546425
 10
1990.678911610433
 20
987.701763953615
 10
1990.350930382362
 20
987.4555140713402
 10
1990.003170864527
 20
987.2184803793775
 10
1989.636409044394
 20
986.991191792579
 10
1989.251463310997
 20
986.7741554806569
 10
1988.849192628789
 20
986.5678557364892
 10
1988.430494620958
 20
986.3727528954733
 10
1987.996303566481
 20
986.1892823083371
 10
1987.547588315379
 20
986.0178533697014
 10
1987.085350126836
 20
985.8588486045613
 10
1986.610620434996
 20
985.7126228147221
 10
1986.12445854743
 20
985.5795022870987
 10
1985.627949281411
 20
985.4597840656413
 10
1985.122200543257
 20
985.3537352885146
 10
1984.608340856164
 20
985.2615925920076
 10
1984.087516842023
 20
985.1835615825065
 10
1983.560890662864
 20
985.119816377705
 10
1983.029637427616
 20
985.0704992180812
 10
1982.494942569979
 20
985.0357201495024
 10
1981.957999203257
 20
985.0155567776695
 10
1981.420005458061
 20
985.0100540949499
 10
1980.882161808802
 20
985.0192243799801
 10
1980.345668394971
 20
985.0430471702688
 10
1979.811722343155
 20
985.0814693078552
 10
1979.281515095783
 20
985.1344050579266
 10
1978.756229752545
 20
985.2017363001255
 10
1978.23703843044
 20
985.2833127921224
 10
1977.725099648325
 20
985.3789525048656
 10
1977.221555741801
 20
985.4884420287582
 10
1976.727530314222
 20
985.6115370498601
 10
1976.244125729492
 20
985.7479628950459
 10
1975.77242065226
 20
985.8974151449094
 10
1975.313467641002
 20
986.059560313042
 10
1974.868290799348
 20
986.2340365901712
 10
1974.437883490906
 20
986.4204546514983
 10
1974.023206122678
 20
986.6183985254348
 10
1973.625184002023
 20
986.8274265217975
 10
1973.244705271927
 20
987.0470722173918
 10
1972.882618929213
 20
987.276845496784
 10
1972.539732930096
 20
987.5162336459418
 10
1972.216812387316
 20
987.7647024962977
 10
1971.914577862872
 20
988.0216976166895
 10
1971.633703760171
 20
988.2866455505132
 10
1971.374816819163
 20
988.5589550953273
 10
1971.138494717844
 20
988.8380186220583
 10
1970.925264783229
 20
989.1232134308575
 10
1970.735602814681
 20
989.4139031405892
 10
1970.569932022213
 20
989.7094391088442
 10
1970.428622082145
 20
990.0091618793167
 10
1970.311988312207
 20
990.3124026533067
 10
1970.220290967949
 20
990.6184847820737
 10
1970.174362444757
 20
990.8176397811104
  0
ARC
  5
478
330
41C
100
AcDbEntity
  8
0
  6
Continuous
 62
     8
370
    15
100
AcDbCircle
 10
1979.677104254912
 20
997.8759901298976
 30
0.0
 40
12.30781616946972
100
AcDbArc
 50
240.2726340683681
 51
249.365221869275
  0
ARC
  5
479
330
41C
100
AcDbEntity
  8
0
  6
Continuous
 62
     8
370
    15
100
AcDbCircle
 10
1984.09838662315
 20
996.1723826102273
 30
0.0
 40
10.43230700550767
100
AcDbArc
 50
289.8153406446669
 51
310.7697448776843
  0
ARC
  5
47A
330
41C
100
AcDbEntity
  8
0
  6
Continuous
 62
     8
370
    15
100
AcDbCircle
 10
1977.967364044611
 20
994.9056957211096
 30
0.0
 40
8.880621076969358
100
AcDbArc
 50
228.3340107359465
 51
240.3490179403996
  0
LWPOLYLINE
  5
47B
330
41C
100
AcDbEntity
  8
0
  6
Continuous
 62
     8
370
    15
100
AcDbPolyline
 90
       63
 70
   128
 43
0.0
 10
1970.223937172028
 20
989.9165460795462
 10
1970.267579650791
 20
989.7284323410085
 10
1970.358892131796
 20
989.4236348706458
 10
1970.475036377718
 20
989.1216668295996
 10
1970.615753225328
 20
988.8232020266462
 10
1970.780728680317
 20
988.5289064534671
 10
1970.969594617933
 20
988.2394367985623
 10
1971.181929604422
 20
987.9554389819215
 10
1971.417259837399
 20
987.6775467137232
 10
1971.675060203096
 20
987.4063800802796
 10
1971.95475544809
 20
987.1425441603827
 10
1972.255721462923
 20
986.8866276751354
 10
1972.577286674731
 20
986.6392016742857
 10
1972.918733545787
 20
986.4008182619905
 10
1973.279300174609
 20
986.172009364856
 10
1973.658181996057
 20
985.9532855450012
 10
1974.054533576637
 20
985.7451348607945
 10
1974.46747050099
 20
985.5480217778037
 10
1974.896071345369
 20
985.3623861323928
 10
1975.339379733699
 20
985.1886421502745
 10
1975.796406471621
 20
985.0271775222106
 10
1976.266131753775
 20
984.8783525389228
 10
1976.747507439383
 20
984.7424992871429
 10
1977.239459391062
 20
984.6199209085972
 10
1977.740889871643
 20
984.5108909235792
 10
1978.250679993654
 20
984.4156526206187
 10
1978.767692215992
 20
984.33441851361
 10
1979.290772882225
 20
984.2673698676101
 10
1979.818754794851
 20
984.2146562943657
 10
1980.350459819771
 20
984.1763954184713
 10
1980.884701515163
 20
984.1526726149016
 10
1981.420287778907
 20
984.1435408185077
 10
1981.956023508619
 20
984.1490204058979
 10
1982.490713268403
 20
984.1690991499701
 10
1983.023163956329
 20
984.2037322471952
 10
1983.552187466711
 20
984.252842417591
 10
1984.076603341238
 20
984.3163200771638
 10
1984.595241403035
 20
984.3940235824341
 10
1985.106944367786
 20
984.4857795464978
 10
1985.61057042609
 20
984.5913832259205
 10
1986.104995791282
 20
984.7105989775997
 10
1986.589117207039
 20
984.8431607845775
 10
1987.061854409182
 20
984.9887728496279
 10
1987.52215253616
 20
985.1471102552959
 10
1987.968984482866
 20
985.3178196889162
 10
1988.401353192505
 20
985.5005202309909
 10
1988.81829388142
 20
985.6948042051707
 10
1989.218876191901
 20
985.9002380879394
 10
1989.602206268175
 20
986.1163634759755
 10
1989.967428750953
 20
986.3426981090285
 10
1990.313728686064
 20
986.5787369460296
 10
1990.640333342942
 20
986.8239532920371
 10
1990.946513938888
 20
987.0777999734981
 10
1991.231587265268
 20
987.3397105592058
 10
1991.494917212022
 20
987.6091006242312
 10
1991.73591618707
 20
987.885369054001
 10
1991.954046427462
 20
988.1678993856214
 10
1992.148821199339
 20
988.4560611834466
 10
1992.319805884022
 20
988.7492114458281
 10
1992.466618947823
 20
989.0466960399017
 10
1992.588932793387
 20
989.3478511612148
 10
1992.686474490698
 20
989.6520048149335
 10
1992.747192328633
 20
989.9001942047323
  0
LWPOLYLINE
  5
47C
330
41C
100
AcDbEntity
  8
0
  6
Continuous
 62
     8
370
    15
100
AcDbPolyline
 90
        6
 70
   128
 43
0.0
 10
1987.576263059602
 20
986.3680106958438
 10
1987.573713174037
 20
986.3391238067659
 10
1987.567290309642
 20
986.3150927167572
 10
1987.557232721907
 20
986.296808856612
 10
1987.543913496006
 20
986.2849504642282
 10
1987.538006904618
 20
986.2821957509458
  0
LWPOLYLINE
  5
47D
330
41C
100
AcDbEntity
  8
0
  6
Continuous
 62
     8
370
    15
100
AcDbPolyline
 90
        6
 70
   128
 43
0.0
 10
1975.398279129741
 20
986.3680106958438
 10
1975.400829015305
 20
986.3391238067659
 10
1975.4072518797
 20
986.3150927167572
 10
1975.417309467436
 20
986.296808856612
 10
1975.430628693337
 20
986.2849504642282
 10
1975.436535266328
 20
986.2821957576906
  0
LWPOLYLINE
  5
47E
330
41C
100
AcDbEntity
  8
0
  6
Continuous
 62
     8
370
    15
100
AcDbPolyline
 90
       64
 70
   128
 43
0.0
 10
1992.753343821257
 20
989.6756671190722
 10
1992.744951905908
 20
989.6313110987467
 10
1992.672490602461
 20
989.3252202765712
 10
1992.575070700615
 20
989.0214464043916
 10
1992.452909582266
 20
988.7206673204989
 10
1992.306279836636
 20
988.4235541806413
 10
1992.135508652023
 20
988.1307699604114
 10
1991.940977085716
 20
987.84296797589
 10
1991.723119213705
 20
987.5607904258417
 10
1991.48242116209
 20
987.2848669587188
 10
1991.219420022343
 20
987.0158132676683
 10
1990.934702652846
 20
986.7542297166815
 10
1990.628904369381
 20
986.5007000009455
 10
1990.302707527493
 20
986.2557898443924
 10
1989.956839999886
 20
986.0200457373466
 10
1989.592073552257
 20
985.7939937170922
 10
1989.209222121182
 20
985.5781381940781
 10
1988.809139997908
 20
985.3729608263805
 10
1988.392719922093
 20
985.1789194449358
 10
1987.960891089755
 20
984.9964470319404
 10
1987.514617079876
 20
984.8259507546991
 10
1987.054893704273
 20
984.6678110570739
 10
1986.582746785562
 20
984.5223808105666
 10
1986.099229868136
 20
984.3899845269234
 10
1985.605421867306
 20
984.2709176340235
 10
1985.10242466181
 20
984.1654458166628
 10
1984.591360635099
 20
984.0738044237076
 10
1984.073370170854
 20
983.9961979429393
 10
1983.549609108345
 20
983.9327995447625
 10
1983.021246163307
 20
983.8837506957942
 10
1982.489460320072
 20
983.8491608431947
 10
1981.955438200795
 20
983.8291071704515
 10
1981.420371417641
 20
983.8236344251496
 10
1980.885453913826
 20
983.8327548191237
 10
1980.351879299465
 20
983.8564480012085
 10
1979.820838188163
 20
983.8946611026502
 10
1979.29351554029
 20
983.9473088550775
 10
1978.771088018867
 20
984.0142737807681
 10
1978.254721363975
 20
984.0954064547881
 10
1977.745567791533
 20
984.1905258384167
 10
1977.244763422253
 20
984.2994196831156
 10
1976.753425746506
 20
984.421845004137
 10
1976.272651130773
 20
984.5575286227187
 10
1975.803512371215
 20
984.7061677756524
 10
1975.347056299848
 20
984.8674307908662
 10
1974.904301448653
 20
985.040957827516
 10
1974.476235776829
 20
985.2263616789301
 10
1974.063814466275
 20
985.4232286366183
 10
1973.667957790199
 20
985.6311194134191
 10
1973.289549059636
 20
985.8495701237192
 10
1972.92943265243
 20
986.0780933185646
 10
1972.588412129098
 20
986.3161790733499
 10
1972.267248439775
 20
986.5632961256594
 10
1971.966658226235
 20
986.8188930607205
 10
1971.687312222782
 20
987.0823995418273
 10
1971.429833759579
 20
987.3532275829834
 10
1971.194797371759
 20
987.6307728609287
 10
1970.982727517406
 20
987.9144160636217
 10
1970.794097407291
 20
988.2035242721665
 10
1970.629327948948
 20
988.4974523731015
 10
1970.488786807466
 20
988.7955444979011
 10
1970.372787585088
 20
989.0971354864742
 10
1970.281589121436
 20
989.401552371396
 10
1970.222204726801
 20
989.6701964053495
  0
LWPOLYLINE
  5
47F
330
41C
100
AcDbEntity
  8
0
  6
Continuous
 62
     8
370
    15
100
AcDbPolyline
 90
       68
 70
   128
 43
0.0
 10
1992.543076214424
 20
982.2243962016111
 10
1992.542395089046
 20
982.2068661422221
 10
1992.517351677495
 20
981.9033710361059
 10
1992.467321585775
 20
981.6009075908358
 10
1992.392418148136
 20
981.3001609833976
 10
1992.292811044954
 20
981.0018125015883
 10
1992.168725918357
 20
980.7065380006774
 10
1992.020443861065
 20
980.4150063723801
 10
1991.84830077963
 20
980.1278780296009
 10
1991.6526866335
 20
979.8458034103866
 10
1991.434044551631
 20
979.5694215044742
 10
1991.192869828662
 20
979.2993584057748
 10
1990.92970880291
 20
979.0362258940682
 10
1990.645157618741
 20
978.7806200491255
 10
1990.339860876106
 20
978.5331199003977
 10
1990.014510170323
 20
978.2942861153255
 10
1989.669842525383
 20
978.0646597292493
 10
1989.306638724361
 20
977.8447609197895
 10
1988.925721540682
 20
977.6350878284761
 10
1988.527953874285
 20
977.4361154322992
 10
1988.114236796869
 20
977.2482944677321
 10
1987.68550751068
 20
977.0720504096695
 10
1987.242737225446
 20
976.9077825075889
 10
1986.786928958272
 20
976.7558628811226
 10
1986.319115261486
 20
976.6166356770868
 10
1985.840355883577
 20
976.4904162898794
 10
1985.351735368522
 20
976.3774906470084
 10
1984.854360598944
 20
976.2781145613757
 10
1984.349358288667
 20
976.1925131517783
 10
1983.837872430352
 20
976.1208803329408
 10
1983.321061703978
 20
976.0633783762378
 10
1982.800096852065
 20
976.0201375420955
 10
1982.276158027562
 20
975.9912557849112
 10
1981.750432120423
 20
975.976798531154
 10
1981.224110068919
 20
975.9767985311542
 10
1980.69838416178
 20
975.9912557849112
 10
1980.174445337277
 20
976.0201375420955
 10
1979.653480485364
 20
976.0633783762378
 10
1979.13666975899
 20
976.1208803329408
 10
1978.625183900675
 20
976.1925131517783
 10
1978.120181590399
 20
976.2781145613757
 10
1977.62280682082
 20
976.3774906470084
 10
1977.134186305765
 20
976.4904162898794
 10
1976.655426927856
 20
976.6166356770868
 10
1976.187613231071
 20
976.7558628811226
 10
1975.731804963897
 20
976.9077825075889
 10
1975.289034678662
 20
977.0720504096697
 10
1974.860305392473
 20
977.2482944677323
 10
1974.446588315058
 20
977.4361154322992
 10
1974.048820648661
 20
977.6350878284763
 10
1973.667903464982
 20
977.8447609197895
 10
1973.304699663959
 20
978.0646597292495
 10
1972.96003201902
 20
978.2942861153255
 10
1972.634681313236
 20
978.5331199003977
 10
1972.329384570602
 20
978.7806200491257
 10
1972.044833386432
 20
979.0362258940682
 10
1971.78167236068
 20
979.2993584057748
 10
1971.540497637711
 20
979.5694215044743
 10
1971.321855555842
 20
979.8458034103866
 10
1971.126241409712
 20
980.127878029601
 10
1970.954098328278
 20
980.4150063723801
 10
1970.805816270986
 20
980.7065380006774
 10
1970.681731144388
 20
981.0018125015883
 10
1970.582124041207
 20
981.3001609833978
 10
1970.507220603568
 20
981.6009075908358
 10
1970.457190511847
 20
981.9033710361059
 10
1970.432147100297
 20
982.2068661422223
 10
1970.431122169657
 20
982.2341782402846
  0
ARC
  5
480
330
41C
100
AcDbEntity
  8
0
  6
Continuous
 62
     8
370
    15
100
AcDbCircle
 10
1975.077363010714
 20
988.9026654493845
 30
0.0
 40
0.0868683485161121
100
AcDbArc
 50
171.5789756950645
 51
238.1733818265666
  0
ARC
  5
481
330
41C
100
AcDbEntity
  8
0
  6
Continuous
 62
     8
370
    15
100
AcDbCircle
 10
1975.371024543985
 20
988.5775345367312
 30
0.0
 40
0.1191099454838886
100
AcDbArc
 50
188.6265094580554
 51
257.8833195797131
  0
LWPOLYLINE
  5
482
330
41C
100
AcDbEntity
  8
0
  6
Continuous
 62
     8
370
    15
100
AcDbPolyline
 90
        6
 70
   128
 43
0.0
 10
1987.983110970132
 20
988.9153869737768
 10
1987.980410362201
 20
988.8864426493086
 10
1987.973607845739
 20
988.8622668862494
 10
1987.962955759391
 20
988.8437564820256
 10
1987.948849241196
 20
988.8315980781637
 10
1987.942979866654
 20
988.8288543961097
  0
ARC
  5
483
330
41C
100
AcDbEntity
  8
0
  6
Continuous
 62
     8
370
    15
100
AcDbCircle
 10
1987.606700089477
 20
988.5746173261241
 30
0.0
 40
0.1156167338789283
100
AcDbArc
 50
280.8780570839621
 51
352.3110665668879
  0
ARC
  5
484
330
41C
100
AcDbEntity
  8
0
  6
Continuous
 62
     8
370
    15
100
AcDbCircle
 10
1972.148973172952
 20
990.616178137523
 30
0.0
 40
0.1081644838064152
100
AcDbArc
 50
178.6493183212853
 51
228.3091689364101
  0
ARC
  5
485
330
41C
100
AcDbEntity
  8
0
  6
Continuous
 62
     8
370
    15
100
AcDbCircle
 10
1990.825563491112
 20
990.6161794214046
 30
0.0
 40
0.1081699772950643
100
AcDbArc
 50
311.7077186453834
 51
1.349932831799508
  0
ARC
  5
486
330
41C
100
AcDbEntity
  8
0
  6
Continuous
 62
     8
370
    15
100
AcDbCircle
 10
1975.420209539755
 20
986.4820621473237
 30
0.0
 40
0.1161407614408985
100
AcDbArc
 50
188.3291562913789
 51
259.1157138368353
  0
ARC
  5
487
330
41C
100
AcDbEntity
  8
0
  6
Continuous
 62
     8
370
    15
100
AcDbCircle
 10
1987.554324997599
 20
986.4820739922398
 30
0.0
 40
0.1161538382885191
100
AcDbArc
 50
280.8868895220988
 51
351.6505026160758
  0
LWPOLYLINE
  5
488
330
41C
100
AcDbEntity
  8
0
  6
Continuous
 62
     8
370
    15
100
AcDbPolyline
 90
       39
 70
   128
 43
0.0
 10
1984.987262827292
 20
995.6840602752421
 10
1984.986482601283
 20
995.7225546882465
 10
1984.967576517843
 20
995.8937125516031
 10
1984.923594754077
 20
996.0633282237642
 10
1984.854854199602
 20
996.2301796199248
 10
1984.761850131689
 20
996.3930645719527
 10
1984.645252646776
 20
996.5508094900355
 10
1984.505901832416
 20
996.702277818424
 10
1984.344801714419
 20
996.8463782243411
 10
1984.163113022826
 20
996.9820724610602
 10
1983.962144828824
 20
997.1083828484964
 10
1983.743345112856
 20
997.2243993174139
 10
1983.508290331889
 20
997.3292859664953
 10
1983.258674061007
 20
997.4222870850306
 10
1982.99629479116
 20
997.5027325978297
 10
1982.723042971001
 20
997.5700428931297
 10
1982.440887386155
 20
997.6237329987101
 10
1982.151860974077
 20
997.6634160761305
 10
1981.858046176689
 20
997.6888062079082
 10
1981.561559936339
 20
997.6997204575619
 10
1981.264538443182
 20
997.6960801876732
 10
1980.969121743883
 20
997.6779116264697
 10
1980.67743832253
 20
997.6453456788515
 10
1980.391589764857
 20
997.5986169832172
 10
1980.113635616274
 20
997.5380622208897
 10
1979.845578542789
 20
997.4641176903189
 10
1979.589349901759
 20
997.3773161635426
 10
1979.346795826415
 20
997.2782830475498
 10
1979.119663924428
 20
997.1677318782107
 10
1978.909590686356
 20
997.0464591792337
 10
1978.718089694693
 20
996.9153387231939
 10
1978.546540718473
 20
996.7753152359817
 10
1978.396179772
 20
996.627397590031
 10
1978.268090209339
 20
996.4726515353703
 10
1978.163194918724
 20
996.3121920208697
 10
1978.082249673128
 20
996.147175161008
 10
1978.0258376849
 20
995.9787899060417
 10
1977.994365403709
 20
995.8082494755915
 10
1977.987407409999
 20
995.6975010385722
  0
ARC
  5
489
330
41C
100
AcDbEntity
  8
0
  6
Continuous
 62
     8
370
    15
100
AcDbCircle
 10
1979.278691467946
 20
995.5214235363953
 30
0.0
 40
1.191473723142467
100
AcDbArc
 50
180.7529035343809
 51
204.4839318472433
  0
ARC
  5
48A
330
41C
100
AcDbEntity
  8
0
  6
Continuous
 62
     8
370
    15
100
AcDbCircle
 10
1983.682956183195
 20
995.523683029593
 30
0.0
 40
1.204432860154595
100
AcDbArc
 50
333.8603573874642
 51
358.8441002692732
  0
LINE
  5
48B
330
41C
100
AcDbEntity
  8
0
  6
Continuous
 62
     8
370
    15
100
AcDbLine
 10
1972.181834466736
 20
988.3885849488358
 30
0.0
 11
1973.86572345162
 21
989.3606733683251
 31
0.0
  0
LINE
  5
48C
330
41C
100
AcDbEntity
  8
0
  6
Continuous
 62
     8
370
    15
100
AcDbLine
 10
1989.108409736725
 20
989.3609094795756
 30
0.0
 11
1990.792707722606
 21
988.3885849488358
 31
0.0
  0
ARC
  5
48D
330
41C
100
AcDbEntity
  8
0
  6
Continuous
 62
     8
370
    15
100
AcDbCircle
 10
1971.981826834272
 20
988.4022637170188
 30
0.0
 40
0.1103343109901426
100
AcDbArc
 50
179.1120258963954
 51
226.3519460377772
  0
ARC
  5
48E
330
41C
100
AcDbEntity
  8
0
  6
Continuous
 62
     8
370
    15
100
AcDbCircle
 10
1972.083834086285
 20
988.3777676013563
 30
0.0
 40
0.0985955859812003
100
AcDbArc
 50
305.0133328683123
 51
6.298847525022619
  0
ARC
  5
48F
330
41C
100
AcDbEntity
  8
0
  6
Continuous
 62
     8
370
    15
100
AcDbCircle
 10
1990.992715355071
 20
988.402263717019
 30
0.0
 40
0.1103343109901986
100
AcDbArc
 50
313.6480539622227
 51
0.887974103572049
  0
ARC
  5
490
330
41C
100
AcDbEntity
  8
0
  6
Continuous
 62
     8
370
    15
100
AcDbCircle
 10
1990.887844833888
 20
988.3764721431615
 30
0.0
 40
0.0959051093752465
100
AcDbArc
 50
172.7441704720489
 51
235.9436491345476
  0
ENDBLK
  5
41E
330
41C
100
AcDbEntity
  8
0
100
AcDbBlockEnd
  0
ENDSEC
  0
SECTION
  2
ENTITIES
  0
INSERT
  5
3EC
330
1F
100
AcDbEntity
  8
0
100
AcDbBlockReference
  2
1
 10
0.0
 20
0.0
 30
0.0
  0
INSERT
  5
41B
330
1F
100
AcDbEntity
  8
0
100
AcDbBlockReference
  2
2
 10
0.0
 20
0.0
 30
0.0
  0
INSERT
  5
491
330
1F
100
AcDbEntity
  8
0
100
AcDbBlockReference
  2
3
 10
0.0
 20
0.0
 30
0.0
  0
ENDSEC
  0
SECTION
  2
OBJECTS
  0
DICTIONARY
  5
C
330
0
100
AcDbDictionary
281
     1
  3
ACAD_COLOR
350
6B
  3
ACAD_GROUP
350
D
  3
ACAD_LAYOUT
350
1A
  3
ACAD_MATERIAL
350
6A
  3
ACAD_MLEADERSTYLE
350
12D
  3
ACAD_MLINESTYLE
350
17
  3
ACAD_PLOTSETTINGS
350
19
  3
ACAD_PLOTSTYLENAME
350
E
  3
ACAD_SCALELIST
350
10C
  3
ACAD_TABLESTYLE
350
7E
  3
ACAD_VISUALSTYLE
350
EF
  3
ACDB_RECOMPOSE_DATA
350
15D
  3
AcDbVariableDictionary
350
5E
  3
DWGPROPS
350
49F
  0
DICTIONARY
  5
13C
330
10
100
AcDbDictionary
280
     1
281
     1
  3
ADSK_XREC_LAYER_RECONCILED
360
492
  0
DICTIONARY
  5
6B
102
{ACAD_REACTORS
330
C
102
}
330
C
100
AcDbDictionary
281
     1
  0
DICTIONARY
  5
D
102
{ACAD_REACTORS
330
C
102
}
330
C
100
AcDbDictionary
281
     1
  0
DICTIONARY
  5
1A
102
{ACAD_REACTORS
330
C
102
}
330
C
100
AcDbDictionary
281
     1
  3
Layout1
350
D3
  3
Layout2
350
D7
  3
Model
350
22
  0
DICTIONARY
  5
6A
102
{ACAD_REACTORS
330
C
102
}
330
C
100
AcDbDictionary
281
     1
  3
ByBlock
350
ED
  3
ByLayer
350
EC
  3
Global
350
EE
  0
DICTIONARY
  5
12D
102
{ACAD_REACTORS
330
C
102
}
330
C
100
AcDbDictionary
281
     1
  3
Annotative
350
13B
  3
Standard
350
12E
  0
DICTIONARY
  5
17
102
{ACAD_REACTORS
330
C
102
}
330
C
100
AcDbDictionary
281
     1
  3
Standard
350
18
  0
DICTIONARY
  5
19
102
{ACAD_REACTORS
330
C
102
}
330
C
100
AcDbDictionary
281
     1
  0
ACDBDICTIONARYWDFLT
  5
E
102
{ACAD_REACTORS
330
C
102
}
330
C
100
AcDbDictionary
281
     1
  3
Normal
350
F
100
AcDbDictionaryWithDefault
340
F
  0
DICTIONARY
  5
10C
102
{ACAD_REACTORS
330
C
102
}
330
C
100
AcDbDictionary
281
     1
  3
A0
350
10D
  3
A1
350
188
  3
A2
350
189
  3
A3
350
18A
  3
A4
350
18B
  3
A5
350
18C
  3
A6
350
18D
  3
A7
350
18E
  3
A8
350
18F
  3
A9
350
190
  3
B0
350
191
  3
B1
350
192
  3
B2
350
193
  3
B3
350
194
  3
B4
350
195
  3
B5
350
196
  3
B6
350
197
  3
B7
350
198
  3
B8
350
199
  3
B9
350
19A
  3
C0
350
19B
  3
C1
350
19C
  3
C2
350
19D
  3
C3
350
19E
  3
C4
350
19F
  3
C5
350
1A0
  3
C6
350
1A1
  3
C7
350
1A2
  3
C8
350
1A3
  3
C9
350
1A4
  3
D0
350
1A5
  3
D1
350
1A6
  3
D2
350
1A7
  0
DICTIONARY
  5
7E
102
{ACAD_REACTORS
330
C
102
}
330
C
100
AcDbDictionary
281
     1
  3
Standard
350
7F
  0
DICTIONARY
  5
EF
102
{ACAD_REACTORS
330
C
102
}
330
C
100
AcDbDictionary
281
     1
  3
2dWireframe
350
F5
  3
3D Hidden
350
F7
  3
3dWireframe
350
F6
  3
Basic
350
F4
  3
Brighten
350
FB
  3
ColorChange
350
FF
  3
Conceptual
350
F8
  3
Dim
350
FA
  3
Facepattern
350
FE
  3
Flat
350
F0
  3
FlatWithEdges
350
F1
  3
Gouraud
350
F2
  3
GouraudWithEdges
350
F3
  3
Linepattern
350
FD
  3
Realistic
350
F9
  3
Thicken
350
FC
  0
XRECORD
  5
15D
102
{ACAD_REACTORS
330
C
102
}
330
C
100
AcDbXrecord
280
     1
 90
        1
330
7F
  0
DICTIONARY
  5
5E
102
{ACAD_REACTORS
330
C
102
}
330
C
100
AcDbDictionary
281
     1
  3
CANNOSCALE
350
146
  3
CMLEADERSTYLE
350
145
  3
CTABLESTYLE
350
84
  3
DIMASSOC
350
5F
  3
HIDETEXT
350
63
  3
INDEXCTL
350
49B
  3
LIGHTINGUNITS
350
499
  3
MSLTSCALE
350
498
  3
PSOLHEIGHT
350
49D
  3
PSOLWIDTH
350
49C
  3
SORTENTS
350
49A
  0
XRECORD
  5
49F
102
{ACAD_REACTORS
330
C
102
}
330
C
100
AcDbXrecord
280
     1
  1
DWGPROPS COOKIE
  2

  3

  4

  6

  7

  8
orhan kara
  9

300
=
301
=
302
=
303
=
304
=
305
=
306
=
307
=
308
=
309
=
 40
0.0003222916666667
 41
2459059.827153334
 42
2459067.606793206
  1

 90
        0
  0
XRECORD
  5
492
102
{ACAD_REACTORS
330
13C
102
}
330
13C
100
AcDbXrecord
280
     1
290
     1
  0
LAYOUT
  5
D3
102
{ACAD_XDICTIONARY
360
4A3
102
}
102
{ACAD_REACTORS
330
1A
102
}
330
1A
100
AcDbPlotSettings
  1

  2
C:\Documents and Settings\basas\Application Data\Autodesk\AutoCAD 2005\R16.1\enu\plotters\Default Windows System Printer.pc3
  4

  6

 40
0.0
 41
0.0
 42
0.0
 43
0.0
 44
0.0
 45
0.0
 46
0.0
 47
0.0
 48
0.0
 49
0.0
140
0.0
141
0.0
142
1.0
143
1.0
 70
   688
 72
     0
 73
     0
 74
     5
  7

 75
    16
147
1.0
148
0.0
149
0.0
100
AcDbLayout
  1
Layout1
 70
     1
 71
     1
 10
0.0
 20
0.0
 11
12.0
 21
9.0
 12
0.0
 22
0.0
 32
0.0
 14
0.0
 24
0.0
 34
0.0
 15
0.0
 25
0.0
 35
0.0
146
0.0
 13
0.0
 23
0.0
 33
0.0
 16
1.0
 26
0.0
 36
0.0
 17
0.0
 27
1.0
 37
0.0
 76
     0
330
D2
  0
LAYOUT
  5
D7
102
{ACAD_XDICTIONARY
360
4A5
102
}
102
{ACAD_REACTORS
330
1A
102
}
330
1A
100
AcDbPlotSettings
  1

  2
C:\Documents and Settings\basas\Application Data\Autodesk\AutoCAD 2005\R16.1\enu\plotters\Default Windows System Printer.pc3
  4

  6

 40
0.0
 41
0.0
 42
0.0
 43
0.0
 44
0.0
 45
0.0
 46
0.0
 47
0.0
 48
0.0
 49
0.0
140
0.0
141
0.0
142
1.0
143
1.0
 70
   688
 72
     0
 73
     0
 74
     5
  7

 75
    16
147
1.0
148
0.0
149
0.0
100
AcDbLayout
  1
Layout2
 70
     1
 71
     2
 10
0.0
 20
0.0
 11
12.0
 21
9.0
 12
0.0
 22
0.0
 32
0.0
 14
0.0
 24
0.0
 34
0.0
 15
0.0
 25
0.0
 35
0.0
146
0.0
 13
0.0
 23
0.0
 33
0.0
 16
1.0
 26
0.0
 36
0.0
 17
0.0
 27
1.0
 37
0.0
 76
     0
330
D6
  0
LAYOUT
  5
22
102
{ACAD_XDICTIONARY
360
4A0
102
}
102
{ACAD_REACTORS
330
1A
102
}
330
1A
100
AcDbPlotSettings
  1

  2
none_device
  4
ISO_A4_(210.00_x_297.00_MM)
  6

 40
7.5
 41
20.0
 42
7.5
 43
20.0
 44
210.0
 45
297.0
 46
11.54999923706054
 47
-13.65000009536743
 48
0.0
 49
0.0
140
0.0
141
0.0
142
1.0
143
8.704084754739808
 70
 11952
 72
     1
 73
     0
 74
     0
  7

 75
     0
147
0.1148885871608098
148
0.0
149
0.0
100
AcDbLayout
  1
Model
 70
     1
 71
     0
 10
0.0
 20
0.0
 11
12.0
 21
9.0
 12
0.0
 22
0.0
 32
0.0
 14
0.0
 24
0.0
 34
0.0
 15
0.0
 25
0.0
 35
0.0
146
0.0
 13
0.0
 23
0.0
 33
0.0
 16
1.0
 26
0.0
 36
0.0
 17
0.0
 27
1.0
 37
0.0
 76
     0
330
1F
331
EA
1001
ACAD_PSEXT
1000
None
1000
None
1000
Not applicable
1000
The layout will not be plotted unless a new plotter configuration name is selected.
1070
     0
  0
MATERIAL
  5
ED
102
{ACAD_XDICTIONARY
360
4A9
102
}
102
{ACAD_REACTORS
330
6A
102
}
330
6A
100
AcDbMaterial
  1
ByBlock
  0
MATERIAL
  5
EC
102
{ACAD_XDICTIONARY
360
4A7
102
}
102
{ACAD_REACTORS
330
6A
102
}
330
6A
100
AcDbMaterial
  1
ByLayer
  0
MATERIAL
  5
EE
102
{ACAD_XDICTIONARY
360
173
102
}
102
{ACAD_REACTORS
330
6A
102
}
330
6A
100
AcDbMaterial
  1
Global
 43
0.0007999999797903
 43
0.0
 43
0.0
 43
0.0
 43
0.0
 43
0.0007999999797903
 43
0.0
 43
0.0
 43
0.0
 43
0.0
 43
1.0
 43
0.0
 43
0.0
 43
0.0
 43
0.0
 43
1.0
 49
0.0007999999797903
 49
0.0
 49
0.0
 49
0.0
 49
0.0
 49
0.0007999999797903
 49
0.0
 49
0.0
 49
0.0
 49
0.0
 49
1.0
 49
0.0
 49
0.0
 49
0.0
 49
0.0
 49
1.0
142
0.0007999999797903
142
0.0
142
0.0
142
0.0
142
0.0
142
0.0007999999797903
142
0.0
142
0.0
142
0.0
142
0.0
142
1.0
142
0.0
142
0.0
142
0.0
142
0.0
142
1.0
144
0.0007999999797903
144
0.0
144
0.0
144
0.0
144
0.0
144
0.0007999999797903
144
0.0
144
0.0
144
0.0
144
0.0
144
1.0
144
0.0
144
0.0
144
0.0
144
0.0
144
1.0
1001
ACAD
1070
    -1
1070
     3
1070
     0
1000

1071
        0
1070
     0
  0
MLEADERSTYLE
  5
13B
102
{ACAD_REACTORS
330
12D
102
}
330
12D
100
AcDbMLeaderStyle
170
     2
171
     1
172
     0
 90
        2
 40
0.0
 41
0.0
173
     1
 91
-1056964608
340
14
 92
       -2
290
     1
 42
2.0
291
     1
 43
8.0
  3
Standard
 44
4.0
300

342
11
174
     1
178
     1
175
     1
176
     0
 93
-1056964608
 45
4.0
292
     0
297
     0
 46
4.0
 94
-1056964608
 47
1.0
 49
1.0
140
1.0
293
     1
141
0.0
294
     1
177
     0
142
1.0
295
     0
296
     1
143
3.75
1001
ACAD_MLEADERVER
1070
     2
  0
MLEADERSTYLE
  5
12E
102
{ACAD_REACTORS
330
12D
102
}
330
12D
100
AcDbMLeaderStyle
170
     2
171
     1
172
     0
 90
        2
 40
0.0
 41
0.0
173
     1
 91
-1056964608
340
14
 92
       -2
290
     1
 42
2.0
291
     1
 43
8.0
  3
Standard
 44
4.0
300

342
11
174
     1
178
     1
175
     1
176
     0
 93
-1056964608
 45
4.0
292
     0
297
     0
 46
4.0
 94
-1056964608
 47
1.0
 49
1.0
140
1.0
293
     1
141
0.0
294
     1
177
     0
142
1.0
295
     0
296
     0
143
3.75
1001
ACAD_MLEADERVER
1070
     2
  0
MLINESTYLE
  5
18
102
{ACAD_REACTORS
330
17
102
}
330
17
100
AcDbMlineStyle
  2
STANDARD
 70
     0
  3

 62
   256
 51
90.0
 52
90.0
 71
     2
 49
0.5
 62
   256
  6
BYLAYER
 49
-0.5
 62
   256
  6
BYLAYER
  0
ACDBPLACEHOLDER
  5
F
102
{ACAD_REACTORS
330
E
102
}
330
E
  0
SCALE
  5
10D
102
{ACAD_REACTORS
330
10C
102
}
330
10C
100
AcDbScale
 70
     0
300
1:1
140
1.0
141
1.0
290
     1
  0
SCALE
  5
188
102
{ACAD_REACTORS
330
10C
102
}
330
10C
100
AcDbScale
 70
     0
300
1:2
140
1.0
141
2.0
290
     0
  0
SCALE
  5
189
102
{ACAD_REACTORS
330
10C
102
}
330
10C
100
AcDbScale
 70
     0
300
1:4
140
1.0
141
4.0
290
     0
  0
SCALE
  5
18A
102
{ACAD_REACTORS
330
10C
102
}
330
10C
100
AcDbScale
 70
     0
300
1:5
140
1.0
141
5.0
290
     0
  0
SCALE
  5
18B
102
{ACAD_REACTORS
330
10C
102
}
330
10C
100
AcDbScale
 70
     0
300
1:8
140
1.0
141
8.0
290
     0
  0
SCALE
  5
18C
102
{ACAD_REACTORS
330
10C
102
}
330
10C
100
AcDbScale
 70
     0
300
1:10
140
1.0
141
10.0
290
     0
  0
SCALE
  5
18D
102
{ACAD_REACTORS
330
10C
102
}
330
10C
100
AcDbScale
 70
     0
300
1:16
140
1.0
141
16.0
290
     0
  0
SCALE
  5
18E
102
{ACAD_REACTORS
330
10C
102
}
330
10C
100
AcDbScale
 70
     0
300
1:20
140
1.0
141
20.0
290
     0
  0
SCALE
  5
18F
102
{ACAD_REACTORS
330
10C
102
}
330
10C
100
AcDbScale
 70
     0
300
1:30
140
1.0
141
30.0
290
     0
  0
SCALE
  5
190
102
{ACAD_REACTORS
330
10C
102
}
330
10C
100
AcDbScale
 70
     0
300
1:40
140
1.0
141
40.0
290
     0
  0
SCALE
  5
191
102
{ACAD_REACTORS
330
10C
102
}
330
10C
100
AcDbScale
 70
     0
300
1:50
140
1.0
141
50.0
290
     0
  0
SCALE
  5
192
102
{ACAD_REACTORS
330
10C
102
}
330
10C
100
AcDbScale
 70
     0
300
1:100
140
1.0
141
100.0
290
     0
  0
SCALE
  5
193
102
{ACAD_REACTORS
330
10C
102
}
330
10C
100
AcDbScale
 70
     0
300
2:1
140
2.0
141
1.0
290
     0
  0
SCALE
  5
194
102
{ACAD_REACTORS
330
10C
102
}
330
10C
100
AcDbScale
 70
     0
300
4:1
140
4.0
141
1.0
290
     0
  0
SCALE
  5
195
102
{ACAD_REACTORS
330
10C
102
}
330
10C
100
AcDbScale
 70
     0
300
8:1
140
8.0
141
1.0
290
     0
  0
SCALE
  5
196
102
{ACAD_REACTORS
330
10C
102
}
330
10C
100
AcDbScale
 70
     0
300
10:1
140
10.0
141
1.0
290
     0
  0
SCALE
  5
197
102
{ACAD_REACTORS
330
10C
102
}
330
10C
100
AcDbScale
 70
     0
300
100:1
140
100.0
141
1.0
290
     0
  0
SCALE
  5
198
102
{ACAD_REACTORS
330
10C
102
}
330
10C
100
AcDbScale
 70
     0
300
1/128" = 1'-0"
140
0.0078125
141
12.0
290
     0
  0
SCALE
  5
199
102
{ACAD_REACTORS
330
10C
102
}
330
10C
100
AcDbScale
 70
     0
300
1/64" = 1'-0"
140
0.015625
141
12.0
290
     0
  0
SCALE
  5
19A
102
{ACAD_REACTORS
330
10C
102
}
330
10C
100
AcDbScale
 70
     0
300
1/32" = 1'-0"
140
0.03125
141
12.0
290
     0
  0
SCALE
  5
19B
102
{ACAD_REACTORS
330
10C
102
}
330
10C
100
AcDbScale
 70
     0
300
1/16" = 1'-0"
140
0.0625
141
12.0
290
     0
  0
SCALE
  5
19C
102
{ACAD_REACTORS
330
10C
102
}
330
10C
100
AcDbScale
 70
     0
300
3/32" = 1'-0"
140
0.09375
141
12.0
290
     0
  0
SCALE
  5
19D
102
{ACAD_REACTORS
330
10C
102
}
330
10C
100
AcDbScale
 70
     0
300
1/8" = 1'-0"
140
0.125
141
12.0
290
     0
  0
SCALE
  5
19E
102
{ACAD_REACTORS
330
10C
102
}
330
10C
100
AcDbScale
 70
     0
300
3/16" = 1'-0"
140
0.1875
141
12.0
290
     0
  0
SCALE
  5
19F
102
{ACAD_REACTORS
330
10C
102
}
330
10C
100
AcDbScale
 70
     0
300
1/4" = 1'-0"
140
0.25
141
12.0
290
     0
  0
SCALE
  5
1A0
102
{ACAD_REACTORS
330
10C
102
}
330
10C
100
AcDbScale
 70
     0
300
3/8" = 1'-0"
140
0.375
141
12.0
290
     0
  0
SCALE
  5
1A1
102
{ACAD_REACTORS
330
10C
102
}
330
10C
100
AcDbScale
 70
     0
300
1/2" = 1'-0"
140
0.5
141
12.0
290
     0
  0
SCALE
  5
1A2
102
{ACAD_REACTORS
330
10C
102
}
330
10C
100
AcDbScale
 70
     0
300
3/4" = 1'-0"
140
0.75
141
12.0
290
     0
  0
SCALE
  5
1A3
102
{ACAD_REACTORS
330
10C
102
}
330
10C
100
AcDbScale
 70
     0
300
1" = 1'-0"
140
1.0
141
12.0
290
     0
  0
SCALE
  5
1A4
102
{ACAD_REACTORS
330
10C
102
}
330
10C
100
AcDbScale
 70
     0
300
1-1/2" = 1'-0"
140
1.5
141
12.0
290
     0
  0
SCALE
  5
1A5
102
{ACAD_REACTORS
330
10C
102
}
330
10C
100
AcDbScale
 70
     0
300
3" = 1'-0"
140
3.0
141
12.0
290
     0
  0
SCALE
  5
1A6
102
{ACAD_REACTORS
330
10C
102
}
330
10C
100
AcDbScale
 70
     0
300
6" = 1'-0"
140
6.0
141
12.0
290
     0
  0
SCALE
  5
1A7
102
{ACAD_REACTORS
330
10C
102
}
330
10C
100
AcDbScale
 70
     0
300
1'-0" = 1'-0"
140
12.0
141
12.0
290
     0
  0
TABLESTYLE
  5
7F
102
{ACAD_XDICTIONARY
360
162
102
}
102
{ACAD_REACTORS
330
7E
102
}
330
7E
100
AcDbTableStyle
  3
Standard
 70
     0
 71
     0
 40
1.5
 41
1.5
280
     0
281
     0
  7
Standard
140
4.5
170
     2
 62
     0
 63
     7
283
     0
274
    -2
284
     1
 64
     0
275
    -2
285
     1
 65
     0
276
    -2
286
     1
 66
     0
277
    -2
287
     1
 67
     0
278
    -2
288
     1
 68
     0
279
    -2
289
     1
 69
     0
  7
Standard
140
6.0
170
     5
 62
     0
 63
     7
283
     0
274
    -2
284
     1
 64
     0
275
    -2
285
     1
 65
     0
276
    -2
286
     1
 66
     0
277
    -2
287
     1
 67
     0
278
    -2
288
     1
 68
     0
279
    -2
289
     1
 69
     0
  7
Standard
140
4.5
170
     5
 62
     0
 63
     7
283
     0
274
    -2
284
     1
 64
     0
275
    -2
285
     1
 65
     0
276
    -2
286
     1
 66
     0
277
    -2
287
     1
 67
     0
278
    -2
288
     1
 68
     0
279
    -2
289
     1
 69
     0
  0
VISUALSTYLE
  5
F5
102
{ACAD_REACTORS
330
EF
102
}
330
EF
100
AcDbVisualStyle
  2
2dWireframe
 70
     4
 71
     0
 72
     2
 73
     1
 90
        0
 40
-0.6
 41
-30.0
 62
     5
 63
     7
 74
     1
 91
        4
 64
     7
 65
   257
 75
     1
175
     1
 42
1.0
 92
        0
 66
   257
 43
1.0
 76
     1
 77
     6
 78
     2
 67
     7
 79
     5
170
     0
171
     0
290
     0
174
     0
 93
        1
 44
0.0
173
     0
291
     0
 45
0.0
1001
ACAD
1000
AcDbSavedByObjectVersion
1070
     0
  0
VISUALSTYLE
  5
F7
102
{ACAD_REACTORS
330
EF
102
}
330
EF
100
AcDbVisualStyle
  2
3D Hidden
 70
     6
 71
     1
 72
     2
 73
     2
 90
        0
 40
-0.6
 41
-30.0
 62
     5
 63
     7
 74
     2
 91
        2
 64
     7
 65
   257
 75
     2
175
     1
 42
40.0
 92
        0
 66
   257
 43
1.0
 76
     1
 77
     6
 78
     2
 67
     7
 79
     3
170
     0
171
     0
290
     0
174
     0
 93
        1
 44
0.0
173
     0
291
     0
 45
0.0
1001
ACAD
1000
AcDbSavedByObjectVersion
1070
     0
  0
VISUALSTYLE
  5
F6
102
{ACAD_REACTORS
330
EF
102
}
330
EF
100
AcDbVisualStyle
  2
3dWireframe
 70
     5
 71
     0
 72
     2
 73
     1
 90
        0
 40
-0.6
 41
-30.0
 62
     5
 63
     7
 74
     1
 91
        4
 64
     7
 65
   257
 75
     1
175
     1
 42
1.0
 92
        0
 66
   257
 43
1.0
 76
     1
 77
     6
 78
     2
 67
     7
 79
     5
170
     0
171
     0
290
     0
174
     0
 93
        1
 44
0.0
173
     0
291
     0
 45
0.0
1001
ACAD
1000
AcDbSavedByObjectVersion
1070
     0
  0
VISUALSTYLE
  5
F4
102
{ACAD_REACTORS
330
EF
102
}
330
EF
100
AcDbVisualStyle
  2
Basic
 70
     7
 71
     1
 72
     0
 73
     1
 90
        0
 40
-0.6
 41
-30.0
 62
     5
 63
     7
 74
     0
 91
        4
 64
     7
 65
   257
 75
     1
175
     1
 42
1.0
 92
        8
 66
     7
 43
1.0
 76
     1
 77
     6
 78
     2
 67
     7
 79
     5
170
     0
171
     0
290
     0
174
     0
 93
        1
 44
0.0
173
     0
291
     1
 45
0.0
1001
ACAD
1000
AcDbSavedByObjectVersion
1070
     0
  0
VISUALSTYLE
  5
FB
102
{ACAD_REACTORS
330
EF
102
}
330
EF
100
AcDbVisualStyle
  2
Brighten
 70
    12
 71
     2
 72
     2
 73
     1
 90
        0
 40
-0.6
 41
-30.0
 62
     5
 63
     7
 74
     1
 91
        4
 64
     7
 65
   257
 75
     1
175
     1
 42
1.0
 92
        8
 66
     7
 43
1.0
 76
     1
 77
     6
 78
     2
 67
     7
 79
     5
170
     0
171
     0
290
     0
174
     0
 93
        1
 44
50.0
173
     0
291
     1
 45
0.0
1001
ACAD
1000
AcDbSavedByObjectVersion
1070
     0
  0
VISUALSTYLE
  5
FF
102
{ACAD_REACTORS
330
EF
102
}
330
EF
100
AcDbVisualStyle
  2
ColorChange
 70
    16
 71
     2
 72
     2
 73
     3
 90
        0
 40
-0.6
 41
-30.0
 62
     5
 63
     8
 74
     1
 91
        4
 64
     7
 65
   257
 75
     1
175
     1
 42
1.0
 92
        8
 66
     8
 43
1.0
 76
     1
 77
     6
 78
     2
 67
     7
 79
     5
170
     0
171
     0
290
     0
174
     0
 93
        1
 44
0.0
173
     0
291
     1
 45
0.0
1001
ACAD
1000
AcDbSavedByObjectVersion
1070
     0
  0
VISUALSTYLE
  5
F8
102
{ACAD_REACTORS
330
EF
102
}
330
EF
100
AcDbVisualStyle
  2
Conceptual
 70
     9
 71
     3
 72
     2
 73
     1
 90
        0
 40
-0.6
 41
-30.0
 62
     5
 63
     7
 74
     2
 91
        2
 64
     7
 65
   257
 75
     1
175
     1
 42
40.0
 92
        8
 66
     7
 43
1.0
 76
     1
 77
     6
 78
     2
 67
     7
 79
     3
170
     0
171
     0
290
     0
174
     0
 93
        1
 44
0.0
173
     0
291
     0
 45
0.0
1001
ACAD
1000
AcDbSavedByObjectVersion
1070
     0
  0
VISUALSTYLE
  5
FA
102
{ACAD_REACTORS
330
EF
102
}
330
EF
100
AcDbVisualStyle
  2
Dim
 70
    11
 71
     2
 72
     2
 73
     1
 90
        0
 40
-0.6
 41
-30.0
 62
     5
 63
     7
 74
     1
 91
        4
 64
     7
 65
   257
 75
     1
175
     1
 42
1.0
 92
        8
 66
     7
 43
1.0
 76
     1
 77
     6
 78
     2
 67
     7
 79
     5
170
     0
171
     0
290
     0
174
     0
 93
        1
 44
-50.0
173
     0
291
     1
 45
0.0
1001
ACAD
1000
AcDbSavedByObjectVersion
1070
     0
  0
VISUALSTYLE
  5
FE
102
{ACAD_REACTORS
330
EF
102
}
330
EF
100
AcDbVisualStyle
  2
Facepattern
 70
    15
 71
     2
 72
     2
 73
     1
 90
        0
 40
-0.6
 41
-30.0
 62
     5
 63
     7
 74
     1
 91
        4
 64
     7
 65
   257
 75
     1
175
     1
 42
1.0
 92
        8
 66
     7
 43
1.0
 76
     1
 77
     6
 78
     2
 67
     7
 79
     5
170
     0
171
     0
290
     0
174
     0
 93
        1
 44
0.0
173
     0
291
     1
 45
0.0
1001
ACAD
1000
AcDbSavedByObjectVersion
1070
     0
  0
VISUALSTYLE
  5
F0
102
{ACAD_REACTORS
330
EF
102
}
330
EF
100
AcDbVisualStyle
  2
Flat
 70
     0
 71
     2
 72
     1
 73
     1
 90
        2
 40
-0.6
 41
30.0
 62
     5
 63
     7
 74
     0
 91
        4
 64
     7
 65
   257
 75
     1
175
     1
 42
1.0
 92
        8
 66
     7
 43
1.0
 76
     1
 77
     6
 78
     2
 67
     7
 79
     5
170
     0
171
     0
290
     0
174
     0
 93
        1
 44
0.0
173
     0
291
     1
 45
0.0
1001
ACAD
1000
AcDbSavedByObjectVersion
1070
     0
  0
VISUALSTYLE
  5
F1
102
{ACAD_REACTORS
330
EF
102
}
330
EF
100
AcDbVisualStyle
  2
FlatWithEdges
 70
     1
 71
     2
 72
     1
 73
     1
 90
        2
 40
-0.6
 41
30.0
 62
     5
 63
     7
 74
     1
 91
        4
 64
     7
 65
   257
 75
     1
175
     1
 42
1.0
 92
        0
 66
   257
 43
1.0
 76
     1
 77
     6
 78
     2
 67
     7
 79
     5
170
     0
171
     0
290
     0
174
     0
 93
        1
 44
0.0
173
     0
291
     1
 45
0.0
1001
ACAD
1000
AcDbSavedByObjectVersion
1070
     0
  0
VISUALSTYLE
  5
F2
102
{ACAD_REACTORS
330
EF
102
}
330
EF
100
AcDbVisualStyle
  2
Gouraud
 70
     2
 71
     2
 72
     2
 73
     1
 90
        2
 40
-0.6
 41
30.0
 62
     5
 63
     7
 74
     0
 91
        4
 64
     7
 65
   257
 75
     1
175
     1
 42
1.0
 92
        0
 66
     7
 43
1.0
 76
     1
 77
     6
 78
     2
 67
     7
 79
     5
170
     0
171
     0
290
     0
174
     0
 93
        1
 44
0.0
173
     0
291
     1
 45
0.0
1001
ACAD
1000
AcDbSavedByObjectVersion
1070
     0
  0
VISUALSTYLE
  5
F3
102
{ACAD_REACTORS
330
EF
102
}
330
EF
100
AcDbVisualStyle
  2
GouraudWithEdges
 70
     3
 71
     2
 72
     2
 73
     1
 90
        2
 40
-0.6
 41
30.0
 62
     5
 63
     7
 74
     1
 91
        4
 64
     7
 65
   257
 75
     1
175
     1
 42
1.0
 92
        0
 66
   257
 43
1.0
 76
     1
 77
     6
 78
     2
 67
     7
 79
     5
170
     0
171
     0
290
     0
174
     0
 93
        1
 44
0.0
173
     0
291
     1
 45
0.0
1001
ACAD
1000
AcDbSavedByObjectVersion
1070
     0
  0
VISUALSTYLE
  5
FD
102
{ACAD_REACTORS
330
EF
102
}
330
EF
100
AcDbVisualStyle
  2
Linepattern
 70
    14
 71
     2
 72
     2
 73
     1
 90
        0
 40
-0.6
 41
-30.0
 62
     5
 63
     7
 74
     1
 91
        4
 64
     7
 65
   257
 75
     7
175
     7
 42
1.0
 92
        8
 66
     7
 43
1.0
 76
     1
 77
     6
 78
     2
 67
     7
 79
     5
170
     0
171
     0
290
     0
174
     0
 93
        1
 44
0.0
173
     0
291
     1
 45
0.0
1001
ACAD
1000
AcDbSavedByObjectVersion
1070
     0
  0
VISUALSTYLE
  5
F9
102
{ACAD_REACTORS
330
EF
102
}
330
EF
100
AcDbVisualStyle
  2
Realistic
 70
     8
 71
     2
 72
     2
 73
     1
 90
        0
 40
-0.6
 41
-30.0
 62
     5
 63
     7
 74
     1
 91
        0
 64
     7
 65
   257
 75
     1
175
     1
 42
1.0
 92
        8
 66
     8
 43
1.0
 76
     1
 77
     6
 78
     2
 67
     7
 79
     5
170
     0
171
     0
290
     0
174
     0
 93
       13
 44
0.0
173
     0
291
     0
 45
0.0
1001
ACAD
1000
AcDbSavedByObjectVersion
1070
     0
  0
VISUALSTYLE
  5
FC
102
{ACAD_REACTORS
330
EF
102
}
330
EF
100
AcDbVisualStyle
  2
Thicken
 70
    13
 71
     2
 72
     2
 73
     1
 90
        0
 40
-0.6
 41
-30.0
 62
     5
 63
     7
 74
     1
 91
        4
 64
     7
 65
   257
 75
     1
175
     1
 42
1.0
 92
       12
 66
     7
 43
1.0
 76
     1
 77
     6
 78
     2
 67
     7
 79
     5
170
     0
171
     0
290
     0
174
     0
 93
        1
 44
0.0
173
     0
291
     1
 45
0.0
1001
ACAD
1000
AcDbSavedByObjectVersion
1070
     0
  0
DICTIONARYVAR
  5
146
102
{ACAD_REACTORS
330
5E
102
}
330
5E
100
DictionaryVariables
280
     0
  1
1:1
  0
DICTIONARYVAR
  5
145
102
{ACAD_REACTORS
330
5E
102
}
330
5E
100
DictionaryVariables
280
     0
  1
STANDARD
  0
DICTIONARYVAR
  5
84
102
{ACAD_REACTORS
330
5E
102
}
330
5E
100
DictionaryVariables
280
     0
  1
STANDARD
  0
DICTIONARYVAR
  5
5F
102
{ACAD_REACTORS
330
5E
102
}
330
5E
100
DictionaryVariables
280
     0
  1
2
  0
DICTIONARYVAR
  5
63
102
{ACAD_REACTORS
330
5E
102
}
330
5E
100
DictionaryVariables
280
     0
  1
1
  0
DICTIONARYVAR
  5
49B
102
{ACAD_REACTORS
330
5E
102
}
330
5E
100
DictionaryVariables
280
     0
  1
0
  0
DICTIONARYVAR
  5
499
102
{ACAD_REACTORS
330
5E
102
}
330
5E
100
DictionaryVariables
280
     0
  1
2
  0
DICTIONARYVAR
  5
498
102
{ACAD_REACTORS
330
5E
102
}
330
5E
100
DictionaryVariables
280
     0
  1
1
  0
DICTIONARYVAR
  5
49D
102
{ACAD_REACTORS
330
5E
102
}
330
5E
100
DictionaryVariables
280
     0
  1
80.000000
  0
DICTIONARYVAR
  5
49C
102
{ACAD_REACTORS
330
5E
102
}
330
5E
100
DictionaryVariables
280
     0
  1
5.000000
  0
DICTIONARYVAR
  5
49A
102
{ACAD_REACTORS
330
5E
102
}
330
5E
100
DictionaryVariables
280
     0
  1
127
  0
DICTIONARY
  5
4A3
330
D3
100
AcDbDictionary
280
     1
281
     1
  3
ACAD_XREC_ROUNDTRIP
360
4A4
  0
DICTIONARY
  5
4A5
330
D7
100
AcDbDictionary
280
     1
281
     1
  3
ACAD_XREC_ROUNDTRIP
360
4A6
  0
DICTIONARY
  5
4A0
330
22
100
AcDbDictionary
280
     1
281
     1
  3
ACAD_XREC_ROUNDTRIP
360
4A1
  0
DICTIONARY
  5
4A9
330
ED
100
AcDbDictionary
280
     1
281
     1
  3
ACAD_XREC_ROUNDTRIP
360
4AA
  0
DICTIONARY
  5
4A7
330
EC
100
AcDbDictionary
280
     1
281
     1
  3
ACAD_XREC_ROUNDTRIP
360
4A8
  0
DICTIONARY
  5
173
330
EE
100
AcDbDictionary
280
     1
281
     1
  3
ACAD_XREC_ROUNDTRIP
360
4AB
  3
BUMPTILE
360
175
  3
DIFFUSETILE
360
174
  3
OPACITYTILE
360
176
  3
REFLECTIONTILE
360
177
  0
DICTIONARY
  5
162
330
7F
100
AcDbDictionary
280
     1
281
     1
  3
ACAD_ROUNDTRIP_2008_TABLESTYLE_CELLSTYLEMAP
360
49E
  3
ACAD_XREC_ROUNDTRIP
360
4A2
  0
XRECORD
  5
4A4
102
{ACAD_REACTORS
330
4A3
102
}
330
4A3
100
AcDbXrecord
280
     1
102
SHADEPLOT
 70
     0
102
SHADEPLOTRESLEVEL
 70
     2
102
SHADEPLOTCUSTOMDPI
 70
   300
  0
XRECORD
  5
4A6
102
{ACAD_REACTORS
330
4A5
102
}
330
4A5
100
AcDbXrecord
280
     1
102
SHADEPLOT
 70
     0
102
SHADEPLOTRESLEVEL
 70
     2
102
SHADEPLOTCUSTOMDPI
 70
   300
  0
XRECORD
  5
4A1
102
{ACAD_REACTORS
330
4A0
102
}
330
4A0
100
AcDbXrecord
280
     1
102
SHADEPLOT
 70
     0
102
SHADEPLOTRESLEVEL
 70
     2
102
SHADEPLOTCUSTOMDPI
 70
   300
  0
XRECORD
  5
4AA
102
{ACAD_REACTORS
330
4A9
102
}
330
4A9
100
AcDbXrecord
280
     1
102
MATERIAL
148
0.0
149
0.0
149
0.0
 93
        0
 94
       63
282
     0
 72
     1
 77
     1
171
     1
175
     1
179
     1
273
     0
  0
XRECORD
  5
4A8
102
{ACAD_REACTORS
330
4A7
102
}
330
4A7
100
AcDbXrecord
280
     1
102
MATERIAL
148
0.0
149
0.0
149
0.0
 93
        0
 94
       63
282
     0
 72
     1
 77
     1
171
     1
175
     1
179
     1
273
     0
  0
XRECORD
  5
4AB
102
{ACAD_REACTORS
330
173
102
}
330
173
100
AcDbXrecord
280
     1
102
MATERIAL
148
0.0
149
0.0
149
0.0
 93
        0
 94
       63
282
     0
 72
     1
 77
     1
171
     1
175
     1
179
     1
273
     0
  0
XRECORD
  5
175
102
{ACAD_REACTORS
330
173
102
}
330
173
100
AcDbXrecord
280
     1
270
     1
271
     1
  0
XRECORD
  5
174
102
{ACAD_REACTORS
330
173
102
}
330
173
100
AcDbXrecord
280
     1
270
     1
271
     1
  0
XRECORD
  5
176
102
{ACAD_REACTORS
330
173
102
}
330
173
100
AcDbXrecord
280
     1
270
     1
271
     1
  0
XRECORD
  5
177
102
{ACAD_REACTORS
330
173
102
}
330
173
100
AcDbXrecord
280
     1
270
     1
271
     1
  0
CELLSTYLEMAP
  5
49E
102
{ACAD_REACTORS
330
162
102
}
330
162
100
AcDbCellStyleMap
 90
        3
300
CELLSTYLE
  1
TABLEFORMAT_BEGIN
 90
        5
170
     1
 91
        0
 92
    32768
 62
   257
 93
        1
300
CONTENTFORMAT
  1
CONTENTFORMAT_BEGIN
 90
        0
 91
        0
 92
      512
 93
        0
300

 40
0.0
140
1.0
 94
        5
 62
     0
340
11
144
6.0
309
CONTENTFORMAT_END
171
     1
301
MARGIN
  1
CELLMARGIN_BEGIN
 40
1.5
 40
1.5
 40
1.5
 40
1.5
 40
4.5
 40
4.5
309
CELLMARGIN_END
 94
        6
 95
        1
302
GRIDFORMAT
  1
GRIDFORMAT_BEGIN
 90
        0
 91
        1
 62
     0
 92
       -2
340
14
 93
        0
 40
1.125
309
GRIDFORMAT_END
 95
        2
302
GRIDFORMAT
  1
GRIDFORMAT_BEGIN
 90
        0
 91
        1
 62
     0
 92
       -2
340
14
 93
        0
 40
1.125
309
GRIDFORMAT_END
 95
        4
302
GRIDFORMAT
  1
GRIDFORMAT_BEGIN
 90
        0
 91
        1
 62
     0
 92
       -2
340
14
 93
        0
 40
1.125
309
GRIDFORMAT_END
 95
        8
302
GRIDFORMAT
  1
GRIDFORMAT_BEGIN
 90
        0
 91
        1
 62
     0
 92
       -2
340
14
 93
        0
 40
1.125
309
GRIDFORMAT_END
 95
       16
302
GRIDFORMAT
  1
GRIDFORMAT_BEGIN
 90
        0
 91
        1
 62
     0
 92
       -2
340
14
 93
        0
 40
1.125
309
GRIDFORMAT_END
 95
       32
302
GRIDFORMAT
  1
GRIDFORMAT_BEGIN
 90
        0
 91
        1
 62
     0
 92
       -2
340
14
 93
        0
 40
1.125
309
GRIDFORMAT_END
309
TABLEFORMAT_END
  1
CELLSTYLE_BEGIN
 90
        1
 91
        1
300
_TITLE
309
CELLSTYLE_END
300
CELLSTYLE
  1
TABLEFORMAT_BEGIN
 90
        5
170
     1
 91
        0
 92
        0
 62
   257
 93
        1
300
CONTENTFORMAT
  1
CONTENTFORMAT_BEGIN
 90
        0
 91
        0
 92
      512
 93
        0
300

 40
0.0
140
1.0
 94
        5
 62
     0
340
11
144
4.5
309
CONTENTFORMAT_END
171
     1
301
MARGIN
  1
CELLMARGIN_BEGIN
 40
1.5
 40
1.5
 40
1.5
 40
1.5
 40
4.5
 40
4.5
309
CELLMARGIN_END
 94
        6
 95
        1
302
GRIDFORMAT
  1
GRIDFORMAT_BEGIN
 90
        0
 91
        1
 62
     0
 92
       -2
340
14
 93
        0
 40
1.125
309
GRIDFORMAT_END
 95
        2
302
GRIDFORMAT
  1
GRIDFORMAT_BEGIN
 90
        0
 91
        1
 62
     0
 92
       -2
340
14
 93
        0
 40
1.125
309
GRIDFORMAT_END
 95
        4
302
GRIDFORMAT
  1
GRIDFORMAT_BEGIN
 90
        0
 91
        1
 62
     0
 92
       -2
340
14
 93
        0
 40
1.125
309
GRIDFORMAT_END
 95
        8
302
GRIDFORMAT
  1
GRIDFORMAT_BEGIN
 90
        0
 91
        1
 62
     0
 92
       -2
340
14
 93
        0
 40
1.125
309
GRIDFORMAT_END
 95
       16
302
GRIDFORMAT
  1
GRIDFORMAT_BEGIN
 90
        0
 91
        1
 62
     0
 92
       -2
340
14
 93
        0
 40
1.125
309
GRIDFORMAT_END
 95
       32
302
GRIDFORMAT
  1
GRIDFORMAT_BEGIN
 90
        0
 91
        1
 62
     0
 92
       -2
340
14
 93
        0
 40
1.125
309
GRIDFORMAT_END
309
TABLEFORMAT_END
  1
CELLSTYLE_BEGIN
 90
        2
 91
        1
300
_HEADER
309
CELLSTYLE_END
300
CELLSTYLE
  1
TABLEFORMAT_BEGIN
 90
        5
170
     1
 91
        0
 92
        0
 62
   257
 93
        1
300
CONTENTFORMAT
  1
CONTENTFORMAT_BEGIN
 90
        0
 91
        0
 92
      512
 93
        0
300

 40
0.0
140
1.0
 94
        2
 62
     0
340
11
144
4.5
309
CONTENTFORMAT_END
171
     1
301
MARGIN
  1
CELLMARGIN_BEGIN
 40
1.5
 40
1.5
 40
1.5
 40
1.5
 40
4.5
 40
4.5
309
CELLMARGIN_END
 94
        6
 95
        1
302
GRIDFORMAT
  1
GRIDFORMAT_BEGIN
 90
        0
 91
        1
 62
     0
 92
       -2
340
14
 93
        0
 40
1.125
309
GRIDFORMAT_END
 95
        2
302
GRIDFORMAT
  1
GRIDFORMAT_BEGIN
 90
        0
 91
        1
 62
     0
 92
       -2
340
14
 93
        0
 40
1.125
309
GRIDFORMAT_END
 95
        4
302
GRIDFORMAT
  1
GRIDFORMAT_BEGIN
 90
        0
 91
        1
 62
     0
 92
       -2
340
14
 93
        0
 40
1.125
309
GRIDFORMAT_END
 95
        8
302
GRIDFORMAT
  1
GRIDFORMAT_BEGIN
 90
        0
 91
        1
 62
     0
 92
       -2
340
14
 93
        0
 40
1.125
309
GRIDFORMAT_END
 95
       16
302
GRIDFORMAT
  1
GRIDFORMAT_BEGIN
 90
        0
 91
        1
 62
     0
 92
       -2
340
14
 93
        0
 40
1.125
309
GRIDFORMAT_END
 95
       32
302
GRIDFORMAT
  1
GRIDFORMAT_BEGIN
 90
        0
 91
        1
 62
     0
 92
       -2
340
14
 93
        0
 40
1.125
309
GRIDFORMAT_END
309
TABLEFORMAT_END
  1
CELLSTYLE_BEGIN
 90
        3
 91
        2
300
_DATA
309
CELLSTYLE_END
  0
XRECORD
  5
4A2
102
{ACAD_REACTORS
330
162
102
}
330
162
100
AcDbXrecord
280
     1
102
ACAD_ROUNDTRIP_PRE2007_TABLESTYLE
 90
      512
 91
        0
  1

 92
      512
 93
        0
  2

 94
      512
 95
        0
  3

  0
ENDSEC
  0
EOF
