  0
SECTION
  2
HEADER
  9
$ACADVER
  1
AC1015
  9
$ACADMAINTVER
 70
    20
  9
$DWGCODEPAGE
  3
ANSI_1254
  9
$INSBASE
 10
0.0
 20
0.0
 30
0.0
  9
$EXTMIN
 10
2220.594124754062
 20
863.4067225948205
 30
0.0
  9
$EXTMAX
 10
2310.744467483152
 20
929.3141624610891
 30
0.0
  9
$LIMMIN
 10
0.0
 20
0.0
  9
$LIMMAX
 10
420.0
 20
297.0
  9
$ORTHOMODE
 70
     0
  9
$REGENMODE
 70
     1
  9
$FILLMODE
 70
     1
  9
$QTEXTMODE
 70
     0
  9
$MIRRTEXT
 70
     0
  9
$LTSCALE
 40
1.0
  9
$ATTMODE
 70
     1
  9
$TEXTSIZE
 40
2.5
  9
$TRACEWID
 40
1.0
  9
$TEXTSTYLE
  7
Standard
  9
$CLAYER
  8
0
  9
$CELTYPE
  6
ByLayer
  9
$CECOLOR
 62
   256
  9
$CELTSCALE
 40
1.0
  9
$DISPSILH
 70
     0
  9
$DIMSCALE
 40
1.0
  9
$DIMASZ
 40
2.5
  9
$DIMEXO
 40
0.625
  9
$DIMDLI
 40
3.75
  9
$DIMRND
 40
0.0
  9
$DIMDLE
 40
0.0
  9
$DIMEXE
 40
1.25
  9
$DIMTP
 40
0.0
  9
$DIMTM
 40
0.0
  9
$DIMTXT
 40
2.5
  9
$DIMCEN
 40
2.5
  9
$DIMTSZ
 40
0.0
  9
$DIMTOL
 70
     0
  9
$DIMLIM
 70
     0
  9
$DIMTIH
 70
     0
  9
$DIMTOH
 70
     0
  9
$DIMSE1
 70
     0
  9
$DIMSE2
 70
     0
  9
$DIMTAD
 70
     1
  9
$DIMZIN
 70
     8
  9
$DIMBLK
  1

  9
$DIMASO
 70
     1
  9
$DIMSHO
 70
     1
  9
$DIMPOST
  1

  9
$DIMAPOST
  1

  9
$DIMALT
 70
     0
  9
$DIMALTD
 70
     3
  9
$DIMALTF
 40
0.03937007874016
  9
$DIMLFAC
 40
1.0
  9
$DIMTOFL
 70
     1
  9
$DIMTVP
 40
0.0
  9
$DIMTIX
 70
     0
  9
$DIMSOXD
 70
     0
  9
$DIMSAH
 70
     0
  9
$DIMBLK1
  1

  9
$DIMBLK2
  1

  9
$DIMSTYLE
  2
ISO-25
  9
$DIMCLRD
 70
     0
  9
$DIMCLRE
 70
     0
  9
$DIMCLRT
 70
     0
  9
$DIMTFAC
 40
1.0
  9
$DIMGAP
 40
0.625
  9
$DIMJUST
 70
     0
  9
$DIMSD1
 70
     0
  9
$DIMSD2
 70
     0
  9
$DIMTOLJ
 70
     0
  9
$DIMTZIN
 70
     8
  9
$DIMALTZ
 70
     0
  9
$DIMALTTZ
 70
     0
  9
$DIMUPT
 70
     0
  9
$DIMDEC
 70
     2
  9
$DIMTDEC
 70
     2
  9
$DIMALTU
 70
     2
  9
$DIMALTTD
 70
     3
  9
$DIMTXSTY
  7
Standard
  9
$DIMAUNIT
 70
     0
  9
$DIMADEC
 70
     0
  9
$DIMALTRND
 40
0.0
  9
$DIMAZIN
 70
     0
  9
$DIMDSEP
 70
    44
  9
$DIMATFIT
 70
     3
  9
$DIMFRAC
 70
     0
  9
$DIMLDRBLK
  1

  9
$DIMLUNIT
 70
     2
  9
$DIMLWD
 70
    -2
  9
$DIMLWE
 70
    -2
  9
$DIMTMOVE
 70
     0
  9
$LUNITS
 70
     2
  9
$LUPREC
 70
     4
  9
$SKETCHINC
 40
1.0
  9
$FILLETRAD
 40
0.0
  9
$AUNITS
 70
     0
  9
$AUPREC
 70
     0
  9
$MENU
  1
.
  9
$ELEVATION
 40
0.0
  9
$PELEVATION
 40
0.0
  9
$THICKNESS
 40
0.0
  9
$LIMCHECK
 70
     0
  9
$CHAMFERA
 40
0.0
  9
$CHAMFERB
 40
0.0
  9
$CHAMFERC
 40
0.0
  9
$CHAMFERD
 40
0.0
  9
$SKPOLY
 70
     0
  9
$TDCREATE
 40
2459009.384545961
  9
$TDUCREATE
 40
2459009.259545961
  9
$TDUPDATE
 40
2459067.606039086
  9
$TDUUPDATE
 40
2459067.481039086
  9
$TDINDWG
 40
0.0002920486
  9
$TDUSRTIMER
 40
0.0002920486
  9
$USRTIMER
 70
     1
  9
$ANGBASE
 50
0.0
  9
$ANGDIR
 70
     0
  9
$PDMODE
 70
     0
  9
$PDSIZE
 40
0.0
  9
$PLINEWID
 40
0.0
  9
$SPLFRAME
 70
     0
  9
$SPLINETYPE
 70
     6
  9
$SPLINESEGS
 70
     8
  9
$HANDSEED
  5
3A0
  9
$SURFTAB1
 70
     6
  9
$SURFTAB2
 70
     6
  9
$SURFTYPE
 70
     6
  9
$SURFU
 70
     6
  9
$SURFV
 70
     6
  9
$UCSBASE
  2

  9
$UCSNAME
  2

  9
$UCSORG
 10
0.0
 20
0.0
 30
0.0
  9
$UCSXDIR
 10
1.0
 20
0.0
 30
0.0
  9
$UCSYDIR
 10
0.0
 20
1.0
 30
0.0
  9
$UCSORTHOREF
  2

  9
$UCSORTHOVIEW
 70
     0
  9
$UCSORGTOP
 10
0.0
 20
0.0
 30
0.0
  9
$UCSORGBOTTOM
 10
0.0
 20
0.0
 30
0.0
  9
$UCSORGLEFT
 10
0.0
 20
0.0
 30
0.0
  9
$UCSORGRIGHT
 10
0.0
 20
0.0
 30
0.0
  9
$UCSORGFRONT
 10
0.0
 20
0.0
 30
0.0
  9
$UCSORGBACK
 10
0.0
 20
0.0
 30
0.0
  9
$PUCSBASE
  2

  9
$PUCSNAME
  2

  9
$PUCSORG
 10
0.0
 20
0.0
 30
0.0
  9
$PUCSXDIR
 10
1.0
 20
0.0
 30
0.0
  9
$PUCSYDIR
 10
0.0
 20
1.0
 30
0.0
  9
$PUCSORTHOREF
  2

  9
$PUCSORTHOVIEW
 70
     0
  9
$PUCSORGTOP
 10
0.0
 20
0.0
 30
0.0
  9
$PUCSORGBOTTOM
 10
0.0
 20
0.0
 30
0.0
  9
$PUCSORGLEFT
 10
0.0
 20
0.0
 30
0.0
  9
$PUCSORGRIGHT
 10
0.0
 20
0.0
 30
0.0
  9
$PUCSORGFRONT
 10
0.0
 20
0.0
 30
0.0
  9
$PUCSORGBACK
 10
0.0
 20
0.0
 30
0.0
  9
$USERI1
 70
     0
  9
$USERI2
 70
     0
  9
$USERI3
 70
     0
  9
$USERI4
 70
     0
  9
$USERI5
 70
     0
  9
$USERR1
 40
0.0
  9
$USERR2
 40
0.0
  9
$USERR3
 40
0.0
  9
$USERR4
 40
0.0
  9
$USERR5
 40
0.0
  9
$WORLDVIEW
 70
     1
  9
$SHADEDGE
 70
     3
  9
$SHADEDIF
 70
    70
  9
$TILEMODE
 70
     1
  9
$MAXACTVP
 70
    64
  9
$PINSBASE
 10
0.0
 20
0.0
 30
0.0
  9
$PLIMCHECK
 70
     0
  9
$PEXTMIN
 10
0.0
 20
0.0
 30
0.0
  9
$PEXTMAX
 10
0.0
 20
0.0
 30
0.0
  9
$PLIMMIN
 10
0.0
 20
0.0
  9
$PLIMMAX
 10
12.0
 20
9.0
  9
$UNITMODE
 70
     0
  9
$VISRETAIN
 70
     1
  9
$PLINEGEN
 70
     0
  9
$PSLTSCALE
 70
     1
  9
$TREEDEPTH
 70
  3020
  9
$CMLSTYLE
  2
Standard
  9
$CMLJUST
 70
     0
  9
$CMLSCALE
 40
20.0
  9
$PROXYGRAPHICS
 70
     1
  9
$MEASUREMENT
 70
     1
  9
$CELWEIGHT
370
    -1
  9
$ENDCAPS
280
     0
  9
$JOINSTYLE
280
     0
  9
$LWDISPLAY
290
     0
  9
$INSUNITS
 70
     4
  9
$HYPERLINKBASE
  1

  9
$STYLESHEET
  1

  9
$XEDIT
290
     1
  9
$CEPSNTYPE
380
     0
  9
$PSTYLEMODE
290
     1
  9
$FINGERPRINTGUID
  2
{03B17ACB-F626-49E8-91C5-694F7359ECEE}
  9
$VERSIONGUID
  2
{868E05E4-A478-4BA4-81E4-B553AA26AAC1}
  9
$EXTNAMES
290
     1
  9
$PSVPSCALE
 40
0.0
  9
$OLESTARTUP
290
     0
  0
ENDSEC
  0
SECTION
  2
CLASSES
  0
CLASS
  1
ACDBDICTIONARYWDFLT
  2
AcDbDictionaryWithDefault
  3
ObjectDBX Classes
 90
        0
280
     0
281
     0
  0
CLASS
  1
ACDBPLACEHOLDER
  2
AcDbPlaceHolder
  3
ObjectDBX Classes
 90
        0
280
     0
281
     0
  0
CLASS
  1
LAYOUT
  2
AcDbLayout
  3
ObjectDBX Classes
 90
        0
280
     0
281
     0
  0
CLASS
  1
DICTIONARYVAR
  2
AcDbDictionaryVar
  3
ObjectDBX Classes
 90
        0
280
     0
281
     0
  0
CLASS
  1
TABLESTYLE
  2
AcDbTableStyle
  3
ObjectDBX Classes
 90
     4095
280
     0
281
     0
  0
CLASS
  1
MATERIAL
  2
AcDbMaterial
  3
ObjectDBX Classes
 90
     1153
280
     0
281
     0
  0
CLASS
  1
VISUALSTYLE
  2
AcDbVisualStyle
  3
ObjectDBX Classes
 90
     4095
280
     0
281
     0
  0
CLASS
  1
SCALE
  2
AcDbScale
  3
ObjectDBX Classes
 90
     1153
280
     0
281
     0
  0
CLASS
  1
MLEADERSTYLE
  2
AcDbMLeaderStyle
  3
ACDB_MLEADERSTYLE_CLASS
 90
     4095
280
     0
281
     0
  0
CLASS
  1
CELLSTYLEMAP
  2
AcDbCellStyleMap
  3
ObjectDBX Classes
 90
     1152
280
     0
281
     0
  0
ENDSEC
  0
SECTION
  2
TABLES
  0
TABLE
  2
VPORT
  5
8
330
0
100
AcDbSymbolTable
 70
     1
  0
VPORT
  5
EA
330
8
100
AcDbSymbolTableRecord
100
AcDbViewportTableRecord
  2
*Active
 70
     0
 10
0.0
 20
0.0
 11
1.0
 21
1.0
 12
2265.683264600128
 22
900.1317942983925
 13
0.0
 23
0.0
 14
10.0
 24
10.0
 15
10.0
 25
10.0
 16
0.0
 26
0.0
 36
1.0
 17
0.0
 27
0.0
 37
0.0
 40
74.00192531637109
 41
1.90311004784689
 42
50.0
 43
0.0
 44
0.0
 50
0.0
 51
0.0
 71
     0
 72
  1000
 73
     1
 74
     3
 75
     0
 76
     0
 77
     0
 78
     0
281
     0
 65
     1
110
0.0
120
0.0
130
0.0
111
1.0
121
0.0
131
0.0
112
0.0
122
1.0
132
0.0
 79
     0
146
0.0
  0
ENDTAB
  0
TABLE
  2
LTYPE
  5
5
330
0
100
AcDbSymbolTable
 70
     1
  0
LTYPE
  5
14
330
5
100
AcDbSymbolTableRecord
100
AcDbLinetypeTableRecord
  2
ByBlock
 70
     0
  3

 72
    65
 73
     0
 40
0.0
  0
LTYPE
  5
15
330
5
100
AcDbSymbolTableRecord
100
AcDbLinetypeTableRecord
  2
ByLayer
 70
     0
  3

 72
    65
 73
     0
 40
0.0
  0
LTYPE
  5
16
330
5
100
AcDbSymbolTableRecord
100
AcDbLinetypeTableRecord
  2
Continuous
 70
     0
  3
Solid line
 72
    65
 73
     0
 40
0.0
  0
ENDTAB
  0
TABLE
  2
LAYER
  5
2
330
0
100
AcDbSymbolTable
 70
     1
  0
LAYER
  5
10
102
{ACAD_XDICTIONARY
360
13C
102
}
330
2
100
AcDbSymbolTableRecord
100
AcDbLayerTableRecord
  2
0
 70
     0
 62
     7
  6
Continuous
370
    -3
390
F
  0
ENDTAB
  0
TABLE
  2
STYLE
  5
3
330
0
100
AcDbSymbolTable
 70
     2
  0
STYLE
  5
11
330
3
100
AcDbSymbolTableRecord
100
AcDbTextStyleTableRecord
  2
Standard
 70
     0
 40
0.0
 41
1.0
 50
0.0
 71
     0
 42
2.5
  3
txt
  4

  0
STYLE
  5
132
330
3
100
AcDbSymbolTableRecord
100
AcDbTextStyleTableRecord
  2
Annotative
 70
     0
 40
0.0
 41
1.0
 50
0.0
 71
     0
 42
2.5
  3
txt.shx
  4

1001
AcadAnnotative
1000
AnnotativeData
1002
{
1070
     1
1070
     1
1002
}
  0
ENDTAB
  0
TABLE
  2
VIEW
  5
6
330
0
100
AcDbSymbolTable
 70
     0
  0
ENDTAB
  0
TABLE
  2
UCS
  5
7
330
0
100
AcDbSymbolTable
 70
     0
  0
ENDTAB
  0
TABLE
  2
APPID
  5
9
330
0
100
AcDbSymbolTable
 70
     7
  0
APPID
  5
12
330
9
100
AcDbSymbolTableRecord
100
AcDbRegAppTableRecord
  2
ACAD
 70
     0
  0
APPID
  5
9E
330
9
100
AcDbSymbolTableRecord
100
AcDbRegAppTableRecord
  2
ACAD_PSEXT
 70
     0
  0
APPID
  5
133
330
9
100
AcDbSymbolTableRecord
100
AcDbRegAppTableRecord
  2
AcadAnnoPO
 70
     0
  0
APPID
  5
134
330
9
100
AcDbSymbolTableRecord
100
AcDbRegAppTableRecord
  2
AcadAnnotative
 70
     0
  0
APPID
  5
135
330
9
100
AcDbSymbolTableRecord
100
AcDbRegAppTableRecord
  2
ACAD_DSTYLE_DIMJAG
 70
     0
  0
APPID
  5
136
330
9
100
AcDbSymbolTableRecord
100
AcDbRegAppTableRecord
  2
ACAD_DSTYLE_DIMTALN
 70
     0
  0
APPID
  5
165
330
9
100
AcDbSymbolTableRecord
100
AcDbRegAppTableRecord
  2
ACAD_MLEADERVER
 70
     0
  0
ENDTAB
  0
TABLE
  2
DIMSTYLE
  5
A
330
0
100
AcDbSymbolTable
 70
     2
100
AcDbDimStyleTable
 71
     2
340
27
340
137
  0
DIMSTYLE
105
27
330
A
100
AcDbSymbolTableRecord
100
AcDbDimStyleTableRecord
  2
ISO-25
 70
     0
 41
2.5
 42
0.625
 43
3.75
 44
1.25
 73
     0
 74
     0
 77
     1
 78
     8
140
2.5
141
2.5
143
0.03937007874016
147
0.625
171
     3
172
     1
271
     2
272
     2
274
     3
278
    44
283
     0
284
     8
340
11
  0
DIMSTYLE
105
137
330
A
100
AcDbSymbolTableRecord
100
AcDbDimStyleTableRecord
  2
Annotative
 70
     0
 40
0.0
 41
2.5
 42
0.625
 43
3.75
 44
1.25
 73
     0
 74
     0
 77
     1
 78
     8
140
2.5
141
2.5
143
0.03937007874016
147
0.625
171
     3
172
     1
271
     2
272
     2
274
     3
278
    44
283
     0
284
     8
340
11
1001
AcadAnnotative
1000
AnnotativeData
1002
{
1070
     1
1070
     1
1002
}
1001
ACAD_DSTYLE_DIMJAG
1070
   388
1040
1.5
1001
ACAD_DSTYLE_DIMTALN
1070
   392
1070
     0
  0
ENDTAB
  0
TABLE
  2
BLOCK_RECORD
  5
1
330
0
100
AcDbSymbolTable
 70
     9
  0
BLOCK_RECORD
  5
1F
330
1
100
AcDbSymbolTableRecord
100
AcDbBlockTableRecord
  2
*Model_Space
340
22
  0
BLOCK_RECORD
  5
D2
330
1
100
AcDbSymbolTableRecord
100
AcDbBlockTableRecord
  2
*Paper_Space
340
D3
  0
BLOCK_RECORD
  5
D6
330
1
100
AcDbSymbolTableRecord
100
AcDbBlockTableRecord
  2
*Paper_Space0
340
D7
  0
BLOCK_RECORD
  5
1AD
330
1
100
AcDbSymbolTableRecord
100
AcDbBlockTableRecord
  2
SW_CENTERMARKSYMBOL_0
340
0
102
{BLKREFS
331
352
102
}
  0
BLOCK_RECORD
  5
1B8
330
1
100
AcDbSymbolTableRecord
100
AcDbBlockTableRecord
  2
SW_CENTERMARKSYMBOL_1
340
0
102
{BLKREFS
331
353
102
}
  0
BLOCK_RECORD
  5
1C3
330
1
100
AcDbSymbolTableRecord
100
AcDbBlockTableRecord
  2
SW_CENTERMARKSYMBOL_2
340
0
102
{BLKREFS
331
354
102
}
  0
BLOCK_RECORD
  5
1CE
330
1
100
AcDbSymbolTableRecord
100
AcDbBlockTableRecord
  2
SW_CENTERMARKSYMBOL_3
340
0
102
{BLKREFS
331
355
102
}
  0
BLOCK_RECORD
  5
1D9
330
1
100
AcDbSymbolTableRecord
100
AcDbBlockTableRecord
  2
SW_CENTERMARKSYMBOL_4
340
0
102
{BLKREFS
331
356
102
}
  0
BLOCK_RECORD
  5
2F4
330
1
100
AcDbSymbolTableRecord
100
AcDbBlockTableRecord
  2
1
340
0
310
2800000020000000200000000100080000000000000400000000000000000000000000000000000000000000000080000080000000808000800000008000800080800000C0C0C000C0DCC000F0CAA6000020400000206000002080000020A0000020C0000020E00000400000004020000040400000406000004080000040A0
310
000040C0000040E00000600000006020000060400000606000006080000060A0000060C0000060E00000800000008020000080400000806000008080000080A0000080C0000080E00000A0000000A0200000A0400000A0600000A0800000A0A00000A0C00000A0E00000C0000000C0200000C0400000C0600000C0800000C0
310
A00000C0C00000C0E00000E0000000E0200000E0400000E0600000E0800000E0A00000E0C00000E0E00040000000400020004000400040006000400080004000A0004000C0004000E00040200000402020004020400040206000402080004020A0004020C0004020E000404000004040200040404000404060004040800040
310
40A0004040C0004040E00040600000406020004060400040606000406080004060A0004060C0004060E00040800000408020004080400040806000408080004080A0004080C0004080E00040A0000040A0200040A0400040A0600040A0800040A0A00040A0C00040A0E00040C0000040C0200040C0400040C0600040C08000
310
40C0A00040C0C00040C0E00040E0000040E0200040E0400040E0600040E0800040E0A00040E0C00040E0E00080000000800020008000400080006000800080008000A0008000C0008000E00080200000802020008020400080206000802080008020A0008020C0008020E00080400000804020008040400080406000804080
310
008040A0008040C0008040E00080600000806020008060400080606000806080008060A0008060C0008060E00080800000808020008080400080806000808080008080A0008080C0008080E00080A0000080A0200080A0400080A0600080A0800080A0A00080A0C00080A0E00080C0000080C0200080C0400080C0600080C0
310
800080C0A00080C0C00080C0E00080E0000080E0200080E0400080E0600080E0800080E0A00080E0C00080E0E000C0000000C0002000C0004000C0006000C0008000C000A000C000C000C000E000C0200000C0202000C0204000C0206000C0208000C020A000C020C000C020E000C0400000C0402000C0404000C0406000C0
310
408000C040A000C040C000C040E000C0600000C0602000C0604000C0606000C0608000C060A000C060C000C060E000C0800000C0802000C0804000C0806000C0808000C080A000C080C000C080E000C0A00000C0A02000C0A04000C0A06000C0A08000C0A0A000C0A0C000C0A0E000C0C00000C0C02000C0C04000C0C06000
310
C0C08000C0C0A000F0FBFF00A4A0A000808080000000FF0000FF000000FFFF00FF000000FF00FF00FFFF0000FFFFFF0000000000000000000000000000000000000000000000000000000000000000000000000000000000000000000000000000000000000000000000000000000000000000000000000000000000000000
310
00000000000000000000000000000000000000000000000000000000000000000000000000000000000000000000000000000000000000000000000000000000000000000000000000000000000000000000000000000000000000000000000000000000000000000000000000000000000000000000000000000000000000
310
00000000000000000000000000000000000000000000000000000000000000000000000000000000000000000000000000000000000000FFFFFFFFFFFFFFFFFFFFFFFFFFFFFFFFFFFFFFFFFFFF00000000000000000000FFFFFFFFFFFFFFFFFFFFFFFFFFFFFFFFFFFFFFFFFFFF00000000000000000000FFFFFFFFFFFFFFFF
310
FFFFFFFFFFFFFFFFFFFFFFFFFFFF00000000000000000000FFFFFFFFFFFFFFFFFFFFFFFFFFFFFFFFFFFFFFFFFFFF000000000000FFFFFFFFFFFFFFFFFFFFFFFFFFFFFFFFFFFFFFFFFFFFFFFFFFFFFFFFFFFF0000FFFF00000000FF0000FF00000000000000000000FF0000FF00000000FFFF0000FFFF00000000FF0000FF00
310
000000000000000000FF0000FF00000000FFFF0000FFFFFFFFFFFFFFFFFFFFFFFFFFFFFFFFFFFFFFFFFFFFFFFFFFFFFFFFFFFF0000000000FFFFFFFFFFFFFFFFFFFFFFFFFFFFFFFFFFFFFFFFFFFFFFFF0000000000000000000000FF00000000000000000000000000000000FF0000000000000000000000000000FF000000
310
00000000000000000000000000FF0000000000000000000000000000FF00000000000000000000000000000000FF000000000000000000000000000000FF0000000000000000000000000000FF00000000000000000000000000000000FF0000000000000000000000000000FF00000000000000000000000000000000FF00
310
00000000000000000000000000FF00000000000000000000000000000000FFFFFFFFFFFFFFFFFFFFFFFFFFFFFFFF000000000000000000000000000000000000000000000000000000000000000000000000000000000000000000000000000000000000000000000000000000000000000000000000000000000000000000
310
00000000000000000000000000000000000000000000000000000000000000000000000000000000000000000000000000000000000000000000000000000000000000000000000000000000000000000000000000000000000000000000000000000000000000000000000000000000000000000000000000000000000000
310
0000000000000000000000000000000000000000000000000000000000000000000000000000000000000000000000000000000000000000
102
{BLKREFS
331
33A
102
}
1001
ACAD
1000
DesignCenter Data
1002
{
1070
     1
1070
     4
1002
}
  0
BLOCK_RECORD
  5
33B
330
1
100
AcDbSymbolTableRecord
100
AcDbBlockTableRecord
  2
2
340
0
310
2800000020000000200000000100080000000000000400000000000000000000000000000000000000000000000080000080000000808000800000008000800080800000C0C0C000C0DCC000F0CAA6000020400000206000002080000020A0000020C0000020E00000400000004020000040400000406000004080000040A0
310
000040C0000040E00000600000006020000060400000606000006080000060A0000060C0000060E00000800000008020000080400000806000008080000080A0000080C0000080E00000A0000000A0200000A0400000A0600000A0800000A0A00000A0C00000A0E00000C0000000C0200000C0400000C0600000C0800000C0
310
A00000C0C00000C0E00000E0000000E0200000E0400000E0600000E0800000E0A00000E0C00000E0E00040000000400020004000400040006000400080004000A0004000C0004000E00040200000402020004020400040206000402080004020A0004020C0004020E000404000004040200040404000404060004040800040
310
40A0004040C0004040E00040600000406020004060400040606000406080004060A0004060C0004060E00040800000408020004080400040806000408080004080A0004080C0004080E00040A0000040A0200040A0400040A0600040A0800040A0A00040A0C00040A0E00040C0000040C0200040C0400040C0600040C08000
310
40C0A00040C0C00040C0E00040E0000040E0200040E0400040E0600040E0800040E0A00040E0C00040E0E00080000000800020008000400080006000800080008000A0008000C0008000E00080200000802020008020400080206000802080008020A0008020C0008020E00080400000804020008040400080406000804080
310
008040A0008040C0008040E00080600000806020008060400080606000806080008060A0008060C0008060E00080800000808020008080400080806000808080008080A0008080C0008080E00080A0000080A0200080A0400080A0600080A0800080A0A00080A0C00080A0E00080C0000080C0200080C0400080C0600080C0
310
800080C0A00080C0C00080C0E00080E0000080E0200080E0400080E0600080E0800080E0A00080E0C00080E0E000C0000000C0002000C0004000C0006000C0008000C000A000C000C000C000E000C0200000C0202000C0204000C0206000C0208000C020A000C020C000C020E000C0400000C0402000C0404000C0406000C0
310
408000C040A000C040C000C040E000C0600000C0602000C0604000C0606000C0608000C060A000C060C000C060E000C0800000C0802000C0804000C0806000C0808000C080A000C080C000C080E000C0A00000C0A02000C0A04000C0A06000C0A08000C0A0A000C0A0C000C0A0E000C0C00000C0C02000C0C04000C0C06000
310
C0C08000C0C0A000F0FBFF00A4A0A000808080000000FF0000FF000000FFFF00FF000000FF00FF00FFFF0000FFFFFF0000000000000000000000000000000000000000000000000000000000000000000000000000000000000000000000000000000000000000000000000000000000000000000000000000000000000000
310
0000000000000000000000000000000000000000000000000000FFFFFFFFFFFFFFFFFFFFFFFFFFFF00000000000000000000000000000000FFFF0000000000000000000000000000FFFF0000000000000000000000000000FF0000000000000000FF0000000000000000FF000000000000000000000000FF00000000000000
310
0000FF0000000000000000FF000000000000000000000000FF00000000000000FFFFFF000000000000000000FF00000000000000000000FF00000000000000FF0000FFFFFFFF000000000000FF00000000000000000000FF0000000000FFFFFFFFFFFFFFFFFFFFFF0000000000FF0000000000000000FF0000000000FFFFFF
310
000000FF0000FFFFFF0000000000FF0000000000000000FF00000000FFFFFFFFFFFFFFFFFFFFFFFFFFFF0000000000FF000000000000FF00000000FF00FFFF00000000FF000000FFFFFF0000000000FF000000000000FF00000000FFFFFFFF00000000FF000000FFFFFFFF0000000000FF00000000FF0000000000FFFF00FF
310
00000000FF000000FF00FFFF0000000000FF00000000FF0000000000FFFF00FF00000000FF000000FF00FF00FF00000000FF00000000FF0000FFFFFFFFFFFFFFFFFFFFFFFFFFFFFFFFFFFFFFFFFFFF0000FF00000000FF0000000000FFFF00FF00000000FF000000FF00FF00FF00000000FF0000000000FF00000000FFFF00
310
FF00000000FF000000FF00FFFF0000000000FF0000000000FF00000000FF00FFFF00000000FF000000FFFF00FF00000000FF00000000000000FF00000000FFFFFFFFFFFFFFFFFFFFFFFFFFFF0000000000FF00000000000000FF0000000000FFFFFF000000FF0000FFFF00FF00000000FF000000000000000000FF00000000
310
0000FFFFFFFFFFFFFFFFFFFF0000000000FF000000000000000000FF00000000000000FF0000FFFFFFFF000000000000FF0000000000000000000000FF00000000000000FFFFFF000000000000000000FF0000000000000000000000FF000000000000000000FF0000000000000000FF00000000000000000000000000FF00
310
00000000000000FF0000000000000000FF00000000000000000000000000FFFF0000000000000000000000000000FFFF00000000000000000000000000000000FFFFFFFFFFFFFFFFFFFFFFFFFFFF00000000000000000000000000000000000000000000000000000000000000000000000000000000000000000000000000
310
0000000000000000000000000000000000000000000000000000000000000000000000000000000000000000000000000000000000000000
102
{BLKREFS
331
357
102
}
1001
ACAD
1000
DesignCenter Data
1002
{
1070
     1
1070
     4
1002
}
  0
BLOCK_RECORD
  5
358
330
1
100
AcDbSymbolTableRecord
100
AcDbBlockTableRecord
  2
3
340
0
310
2800000020000000200000000100080000000000000400000000000000000000000000000000000000000000000080000080000000808000800000008000800080800000C0C0C000C0DCC000F0CAA6000020400000206000002080000020A0000020C0000020E00000400000004020000040400000406000004080000040A0
310
000040C0000040E00000600000006020000060400000606000006080000060A0000060C0000060E00000800000008020000080400000806000008080000080A0000080C0000080E00000A0000000A0200000A0400000A0600000A0800000A0A00000A0C00000A0E00000C0000000C0200000C0400000C0600000C0800000C0
310
A00000C0C00000C0E00000E0000000E0200000E0400000E0600000E0800000E0A00000E0C00000E0E00040000000400020004000400040006000400080004000A0004000C0004000E00040200000402020004020400040206000402080004020A0004020C0004020E000404000004040200040404000404060004040800040
310
40A0004040C0004040E00040600000406020004060400040606000406080004060A0004060C0004060E00040800000408020004080400040806000408080004080A0004080C0004080E00040A0000040A0200040A0400040A0600040A0800040A0A00040A0C00040A0E00040C0000040C0200040C0400040C0600040C08000
310
40C0A00040C0C00040C0E00040E0000040E0200040E0400040E0600040E0800040E0A00040E0C00040E0E00080000000800020008000400080006000800080008000A0008000C0008000E00080200000802020008020400080206000802080008020A0008020C0008020E00080400000804020008040400080406000804080
310
008040A0008040C0008040E00080600000806020008060400080606000806080008060A0008060C0008060E00080800000808020008080400080806000808080008080A0008080C0008080E00080A0000080A0200080A0400080A0600080A0800080A0A00080A0C00080A0E00080C0000080C0200080C0400080C0600080C0
310
800080C0A00080C0C00080C0E00080E0000080E0200080E0400080E0600080E0800080E0A00080E0C00080E0E000C0000000C0002000C0004000C0006000C0008000C000A000C000C000C000E000C0200000C0202000C0204000C0206000C0208000C020A000C020C000C020E000C0400000C0402000C0404000C0406000C0
310
408000C040A000C040C000C040E000C0600000C0602000C0604000C0606000C0608000C060A000C060C000C060E000C0800000C0802000C0804000C0806000C0808000C080A000C080C000C080E000C0A00000C0A02000C0A04000C0A06000C0A08000C0A0A000C0A0C000C0A0E000C0C00000C0C02000C0C04000C0C06000
310
C0C08000C0C0A000F0FBFF00A4A0A000808080000000FF0000FF000000FFFF00FF000000FF00FF00FFFF0000FFFFFF0000000000000000000000000000000000000000000000000000000000000000000000000000000000000000000000000000000000000000000000000000000000000000000000000000000000000000
310
00000000000000000000000000000000000000000000000000000000000000000000000000000000000000000000000000000000000000000000000000FFFFFFFFFFFFFF00000000000000000000000000000000000000000000FFFFFFFFFFFFFFFFFFFFFFFFFF0000000000000000000000000000000000FFFFFFFFFFFFFF
310
FFFFFFFFFFFFFFFFFFFF0000000000000000000000000000FFFFFFFFFF0000FF0000000000FFFFFFFFFFFFFF0000000000000000000000FFFFFF0000FF0000FF00000000000000000000FFFFFF000000000000000000FFFF00000000FFFFFFFFFFFFFFFF000000000000FF00FFFF000000000000FFFF00000000FFFF000000
310
0000000000FFFFFFFFFFFFFF00FFFF000000000000FF000000FFFF0000000000000000000000000000000000FFFF00FF0000000000FF00FFFF0000000000FFFFFFFFFFFFFFFFFF000000000000FF0000FF00000000FFFF0000000000FFFFFF00000000000000FFFFFF0000000000FF00FF000000FFFF0000000000FFFF0000
310
00000000000000000000FFFF000000FFFF00FF0000FF0000000000FFFF0000000000000000000000000000FFFF000000FF00FF000000FF00000000FF00000000000000000000000000000000FF00000000FF00000000FFFF000000FF00000000000000000000000000000000FF00000000FF0000000000FF000000FF000000
310
00FFFFFFFFFFFFFF0000000000FF00000000FF000000000000FF0000FF00FFFFFFFFFFFFFFFFFFFFFFFF000000FF00000000FF000000000000FF000000FFFFFFFFFF00000000FFFFFFFFFFFF00FF0000FFFF0000000000000000FF0000FFFFFFFFFFFF000000FFFFFFFFFFFFFF0000FF0000000000000000000000FFFFFFFF
310
00FFFFFF000000FFFFFF00FFFFFFFFFF0000000000000000000000000000FF00000000000000000000000000FFFF00000000000000000000000000000000FFFF00FFFFFF000000FFFFFFFF00FFFF0000000000000000000000000000000000FFFFFFFFFF000000FFFFFFFFFFFF000000000000000000000000000000000000
310
00FFFFFFFFFF0000FFFFFFFFFF0000000000000000000000000000000000000000000000FFFFFFFFFFFF00000000000000000000000000000000000000000000000000000000000000000000000000000000000000000000000000000000000000000000000000000000000000000000000000000000000000000000000000
310
0000000000000000000000000000000000000000000000000000000000000000000000000000000000000000000000000000000000000000
102
{BLKREFS
331
385
102
}
1001
ACAD
1000
DesignCenter Data
1002
{
1070
     1
1070
     4
1002
}
  0
ENDTAB
  0
ENDSEC
  0
SECTION
  2
BLOCKS
  0
BLOCK
  5
20
330
1F
100
AcDbEntity
  8
0
100
AcDbBlockBegin
  2
*Model_Space
 70
     0
 10
0.0
 20
0.0
 30
0.0
  3
*Model_Space
  1

  0
ENDBLK
  5
21
330
1F
100
AcDbEntity
  8
0
100
AcDbBlockEnd
  0
BLOCK
  5
D4
330
D2
100
AcDbEntity
 67
     1
  8
0
100
AcDbBlockBegin
  2
*Paper_Space
 70
     0
 10
0.0
 20
0.0
 30
0.0
  3
*Paper_Space
  1

  0
ENDBLK
  5
D5
330
D2
100
AcDbEntity
 67
     1
  8
0
100
AcDbBlockEnd
  0
BLOCK
  5
D8
330
D6
100
AcDbEntity
 67
     1
  8
0
100
AcDbBlockBegin
  2
*Paper_Space0
 70
     0
 10
0.0
 20
0.0
 30
0.0
  3
*Paper_Space0
  1

  0
ENDBLK
  5
D9
330
D6
100
AcDbEntity
 67
     1
  8
0
100
AcDbBlockEnd
  0
BLOCK
  5
1AE
330
1AD
100
AcDbEntity
  8
0
100
AcDbBlockBegin
  2
SW_CENTERMARKSYMBOL_0
 70
     0
 10
0.0
 20
0.0
 30
0.0
  3
SW_CENTERMARKSYMBOL_0
  1

  0
LINE
  5
1AF
330
1AD
100
AcDbEntity
  8
0
  6
Continuous
 62
     0
370
     0
100
AcDbLine
 10
0.0
 20
0.0
 30
0.0
 11
0.0
 21
2.500000000000002
 31
0.0
  0
LINE
  5
1B0
330
1AD
100
AcDbEntity
  8
0
  6
Continuous
 62
     0
370
     0
100
AcDbLine
 10
0.0
 20
0.0
 30
0.0
 11
-2.500000000000002
 21
0.0
 31
0.0
  0
LINE
  5
1B1
330
1AD
100
AcDbEntity
  8
0
  6
Continuous
 62
     0
370
     0
100
AcDbLine
 10
0.0
 20
0.0
 30
0.0
 11
0.0
 21
-2.500000000000002
 31
0.0
  0
LINE
  5
1B2
330
1AD
100
AcDbEntity
  8
0
  6
Continuous
 62
     0
370
     0
100
AcDbLine
 10
0.0
 20
0.0
 30
0.0
 11
2.500000000000002
 21
0.0
 31
0.0
  0
LINE
  5
1B3
330
1AD
100
AcDbEntity
  8
0
  6
Continuous
 62
     0
370
     0
100
AcDbLine
 10
0.0
 20
5.000000000000004
 30
0.0
 11
0.0
 21
12.35
 31
0.0
  0
LINE
  5
1B4
330
1AD
100
AcDbEntity
  8
0
  6
Continuous
 62
     0
370
     0
100
AcDbLine
 10
-5.000000000000004
 20
0.0
 30
0.0
 11
-12.35
 21
0.0
 31
0.0
  0
LINE
  5
1B5
330
1AD
100
AcDbEntity
  8
0
  6
Continuous
 62
     0
370
     0
100
AcDbLine
 10
0.0
 20
-4.99999999999999
 30
0.0
 11
0.0
 21
-12.35
 31
0.0
  0
LINE
  5
1B6
330
1AD
100
AcDbEntity
  8
0
  6
Continuous
 62
     0
370
     0
100
AcDbLine
 10
5.000000000000004
 20
0.0
 30
0.0
 11
12.35
 21
0.0
 31
0.0
  0
ENDBLK
  5
1B7
330
1AD
100
AcDbEntity
  8
0
100
AcDbBlockEnd
  0
BLOCK
  5
1B9
330
1B8
100
AcDbEntity
  8
0
100
AcDbBlockBegin
  2
SW_CENTERMARKSYMBOL_1
 70
     0
 10
0.0
 20
0.0
 30
0.0
  3
SW_CENTERMARKSYMBOL_1
  1

  0
LINE
  5
1BA
330
1B8
100
AcDbEntity
  8
0
  6
Continuous
 62
     0
370
     0
100
AcDbLine
 10
0.0
 20
0.0
 30
0.0
 11
0.0
 21
2.500000000000002
 31
0.0
  0
LINE
  5
1BB
330
1B8
100
AcDbEntity
  8
0
  6
Continuous
 62
     0
370
     0
100
AcDbLine
 10
0.0
 20
0.0
 30
0.0
 11
-2.500000000000002
 21
0.0
 31
0.0
  0
LINE
  5
1BC
330
1B8
100
AcDbEntity
  8
0
  6
Continuous
 62
     0
370
     0
100
AcDbLine
 10
0.0
 20
0.0
 30
0.0
 11
0.0
 21
-2.500000000000002
 31
0.0
  0
LINE
  5
1BD
330
1B8
100
AcDbEntity
  8
0
  6
Continuous
 62
     0
370
     0
100
AcDbLine
 10
0.0
 20
0.0
 30
0.0
 11
2.500000000000002
 21
0.0
 31
0.0
  0
LINE
  5
1BE
330
1B8
100
AcDbEntity
  8
0
  6
Continuous
 62
     0
370
     0
100
AcDbLine
 10
0.0
 20
2.500000000000002
 30
0.0
 11
0.0
 21
4.000000000000003
 31
0.0
  0
LINE
  5
1BF
330
1B8
100
AcDbEntity
  8
0
  6
Continuous
 62
     0
370
     0
100
AcDbLine
 10
-2.500000000000002
 20
0.0
 30
0.0
 11
-4.000000000000003
 21
0.0
 31
0.0
  0
LINE
  5
1C0
330
1B8
100
AcDbEntity
  8
0
  6
Continuous
 62
     0
370
     0
100
AcDbLine
 10
0.0
 20
-2.500000000000002
 30
0.0
 11
0.0
 21
-4.000000000000003
 31
0.0
  0
LINE
  5
1C1
330
1B8
100
AcDbEntity
  8
0
  6
Continuous
 62
     0
370
     0
100
AcDbLine
 10
2.500000000000002
 20
0.0
 30
0.0
 11
3.999999999999989
 21
0.0
 31
0.0
  0
ENDBLK
  5
1C2
330
1B8
100
AcDbEntity
  8
0
100
AcDbBlockEnd
  0
BLOCK
  5
1C4
330
1C3
100
AcDbEntity
  8
0
100
AcDbBlockBegin
  2
SW_CENTERMARKSYMBOL_2
 70
     0
 10
0.0
 20
0.0
 30
0.0
  3
SW_CENTERMARKSYMBOL_2
  1

  0
LINE
  5
1C5
330
1C3
100
AcDbEntity
  8
0
  6
Continuous
 62
     0
370
     0
100
AcDbLine
 10
0.0
 20
0.0
 30
0.0
 11
0.0
 21
2.500000000000002
 31
0.0
  0
LINE
  5
1C6
330
1C3
100
AcDbEntity
  8
0
  6
Continuous
 62
     0
370
     0
100
AcDbLine
 10
0.0
 20
0.0
 30
0.0
 11
-2.500000000000002
 21
0.0
 31
0.0
  0
LINE
  5
1C7
330
1C3
100
AcDbEntity
  8
0
  6
Continuous
 62
     0
370
     0
100
AcDbLine
 10
0.0
 20
0.0
 30
0.0
 11
0.0
 21
-2.500000000000002
 31
0.0
  0
LINE
  5
1C8
330
1C3
100
AcDbEntity
  8
0
  6
Continuous
 62
     0
370
     0
100
AcDbLine
 10
0.0
 20
0.0
 30
0.0
 11
2.500000000000002
 21
0.0
 31
0.0
  0
LINE
  5
1C9
330
1C3
100
AcDbEntity
  8
0
  6
Continuous
 62
     0
370
     0
100
AcDbLine
 10
0.0
 20
2.500000000000002
 30
0.0
 11
0.0
 21
4.000000000000003
 31
0.0
  0
LINE
  5
1CA
330
1C3
100
AcDbEntity
  8
0
  6
Continuous
 62
     0
370
     0
100
AcDbLine
 10
-2.500000000000002
 20
0.0
 30
0.0
 11
-4.000000000000003
 21
0.0
 31
0.0
  0
LINE
  5
1CB
330
1C3
100
AcDbEntity
  8
0
  6
Continuous
 62
     0
370
     0
100
AcDbLine
 10
0.0
 20
-2.500000000000002
 30
0.0
 11
0.0
 21
-4.000000000000003
 31
0.0
  0
LINE
  5
1CC
330
1C3
100
AcDbEntity
  8
0
  6
Continuous
 62
     0
370
     0
100
AcDbLine
 10
2.500000000000002
 20
0.0
 30
0.0
 11
4.000000000000003
 21
0.0
 31
0.0
  0
ENDBLK
  5
1CD
330
1C3
100
AcDbEntity
  8
0
100
AcDbBlockEnd
  0
BLOCK
  5
1CF
330
1CE
100
AcDbEntity
  8
0
100
AcDbBlockBegin
  2
SW_CENTERMARKSYMBOL_3
 70
     0
 10
0.0
 20
0.0
 30
0.0
  3
SW_CENTERMARKSYMBOL_3
  1

  0
LINE
  5
1D0
330
1CE
100
AcDbEntity
  8
0
  6
Continuous
 62
     0
370
     0
100
AcDbLine
 10
0.0
 20
0.0
 30
0.0
 11
0.0
 21
2.499999999999988
 31
0.0
  0
LINE
  5
1D1
330
1CE
100
AcDbEntity
  8
0
  6
Continuous
 62
     0
370
     0
100
AcDbLine
 10
0.0
 20
0.0
 30
0.0
 11
-2.500000000000002
 21
0.0
 31
0.0
  0
LINE
  5
1D2
330
1CE
100
AcDbEntity
  8
0
  6
Continuous
 62
     0
370
     0
100
AcDbLine
 10
0.0
 20
0.0
 30
0.0
 11
0.0
 21
-2.500000000000002
 31
0.0
  0
LINE
  5
1D3
330
1CE
100
AcDbEntity
  8
0
  6
Continuous
 62
     0
370
     0
100
AcDbLine
 10
0.0
 20
0.0
 30
0.0
 11
2.500000000000002
 21
0.0
 31
0.0
  0
LINE
  5
1D4
330
1CE
100
AcDbEntity
  8
0
  6
Continuous
 62
     0
370
     0
100
AcDbLine
 10
0.0
 20
2.499999999999988
 30
0.0
 11
0.0
 21
3.999999999999989
 31
0.0
  0
LINE
  5
1D5
330
1CE
100
AcDbEntity
  8
0
  6
Continuous
 62
     0
370
     0
100
AcDbLine
 10
-2.500000000000002
 20
0.0
 30
0.0
 11
-4.000000000000003
 21
0.0
 31
0.0
  0
LINE
  5
1D6
330
1CE
100
AcDbEntity
  8
0
  6
Continuous
 62
     0
370
     0
100
AcDbLine
 10
0.0
 20
-2.500000000000002
 30
0.0
 11
0.0
 21
-4.000000000000003
 31
0.0
  0
LINE
  5
1D7
330
1CE
100
AcDbEntity
  8
0
  6
Continuous
 62
     0
370
     0
100
AcDbLine
 10
2.500000000000002
 20
0.0
 30
0.0
 11
4.000000000000003
 21
0.0
 31
0.0
  0
ENDBLK
  5
1D8
330
1CE
100
AcDbEntity
  8
0
100
AcDbBlockEnd
  0
BLOCK
  5
1DA
330
1D9
100
AcDbEntity
  8
0
100
AcDbBlockBegin
  2
SW_CENTERMARKSYMBOL_4
 70
     0
 10
0.0
 20
0.0
 30
0.0
  3
SW_CENTERMARKSYMBOL_4
  1

  0
LINE
  5
1DB
330
1D9
100
AcDbEntity
  8
0
  6
Continuous
 62
     0
370
     0
100
AcDbLine
 10
0.0
 20
0.0
 30
0.0
 11
0.0
 21
2.500000000000002
 31
0.0
  0
LINE
  5
1DC
330
1D9
100
AcDbEntity
  8
0
  6
Continuous
 62
     0
370
     0
100
AcDbLine
 10
0.0
 20
0.0
 30
0.0
 11
-2.500000000000002
 21
0.0
 31
0.0
  0
LINE
  5
1DD
330
1D9
100
AcDbEntity
  8
0
  6
Continuous
 62
     0
370
     0
100
AcDbLine
 10
0.0
 20
0.0
 30
0.0
 11
0.0
 21
-2.500000000000002
 31
0.0
  0
LINE
  5
1DE
330
1D9
100
AcDbEntity
  8
0
  6
Continuous
 62
     0
370
     0
100
AcDbLine
 10
0.0
 20
0.0
 30
0.0
 11
2.500000000000002
 21
0.0
 31
0.0
  0
LINE
  5
1DF
330
1D9
100
AcDbEntity
  8
0
  6
Continuous
 62
     0
370
     0
100
AcDbLine
 10
0.0
 20
2.500000000000002
 30
0.0
 11
0.0
 21
4.000000000000003
 31
0.0
  0
LINE
  5
1E0
330
1D9
100
AcDbEntity
  8
0
  6
Continuous
 62
     0
370
     0
100
AcDbLine
 10
-2.500000000000002
 20
0.0
 30
0.0
 11
-3.999999999999989
 21
0.0
 31
0.0
  0
LINE
  5
1E1
330
1D9
100
AcDbEntity
  8
0
  6
Continuous
 62
     0
370
     0
100
AcDbLine
 10
0.0
 20
-2.500000000000002
 30
0.0
 11
0.0
 21
-4.000000000000003
 31
0.0
  0
LINE
  5
1E2
330
1D9
100
AcDbEntity
  8
0
  6
Continuous
 62
     0
370
     0
100
AcDbLine
 10
2.500000000000002
 20
0.0
 30
0.0
 11
4.000000000000003
 21
0.0
 31
0.0
  0
ENDBLK
  5
1E3
330
1D9
100
AcDbEntity
  8
0
100
AcDbBlockEnd
  0
BLOCK
  5
2F5
330
2F4
100
AcDbEntity
  8
0
100
AcDbBlockBegin
  2
1
 70
     0
 10
0.0
 20
0.0
 30
0.0
  3
1
  1

  0
LINE
  5
2F7
330
2F4
100
AcDbEntity
  8
0
  6
Continuous
 62
     7
370
    15
100
AcDbLine
 10
2253.294124754062
 20
918.6070933075045
 30
0.0
 11
2246.794124754062
 21
919.0777041010372
 31
0.0
  0
LINE
  5
2F8
330
2F4
100
AcDbEntity
  8
0
  6
Continuous
 62
     7
370
    15
100
AcDbLine
 10
2227.094124754062
 20
919.0777041010372
 30
0.0
 11
2220.594124754062
 21
918.6070933075045
 31
0.0
  0
LINE
  5
2F9
330
2F4
100
AcDbEntity
  8
0
  6
Continuous
 62
     7
370
    15
100
AcDbLine
 10
2224.444124755095
 20
913.8701671253871
 30
0.0
 11
2224.444124755094
 21
913.5701671253873
 31
0.0
  0
LINE
  5
2FA
330
2F4
100
AcDbEntity
  8
0
  6
Continuous
 62
     7
370
    15
100
AcDbLine
 10
2224.444124754265
 20
912.370165389187
 30
0.0
 11
2224.444124754265
 21
912.0701653891872
 31
0.0
  0
LINE
  5
2FB
330
2F4
100
AcDbEntity
  8
0
  6
Continuous
 62
     7
370
    15
100
AcDbLine
 10
2224.444124754063
 20
910.8701640968281
 30
0.0
 11
2224.444124754063
 21
910.5701640968282
 31
0.0
  0
LINE
  5
2FC
330
2F4
100
AcDbEntity
  8
0
  6
Continuous
 62
     7
370
    15
100
AcDbLine
 10
2249.444124754015
 20
911.3201646758193
 30
0.0
 11
2249.444124754014
 21
911.6201646758193
 31
0.0
  0
LINE
  5
2FD
330
2F4
100
AcDbEntity
  8
0
  6
Continuous
 62
     7
370
    15
100
AcDbLine
 10
2249.444124753545
 20
912.8201662135406
 30
0.0
 11
2249.444124753545
 21
913.1201662135405
 31
0.0
  0
SPLINE
  5
2FE
330
2F4
100
AcDbEntity
  8
0
  6
Continuous
 62
     7
370
    15
100
AcDbSpline
210
0.0
220
0.0
230
1.0
 70
     8
 71
     3
 72
     9
 73
     5
 74
     0
 42
0.0000000001
 43
0.0000000001
 40
0.0
 40
0.0
 40
0.0
 40
0.0
 40
0.4999985948312597
 40
1.0
 40
1.0
 40
1.0
 40
1.0
 10
2248.938247358406
 20
912.4943139085344
 30
0.0
 10
2249.021476398084
 20
912.5475714694552
 30
0.0
 10
2249.187934945244
 20
912.6540868906412
 30
0.0
 10
2249.354864891044
 20
912.7598651496668
 30
0.0
 10
2249.438330098509
 20
912.8127544278161
 30
0.0
  0
SPLINE
  5
2FF
330
2F4
100
AcDbEntity
  8
0
  6
Continuous
 62
     7
370
    15
100
AcDbSpline
210
0.0
220
0.0
230
1.0
 70
     8
 71
     3
 72
     9
 73
     5
 74
     0
 42
0.0000000001
 43
0.0000000001
 40
0.0
 40
0.0
 40
0.0
 40
0.0
 40
0.5150033837268805
 40
1.0
 40
1.0
 40
1.0
 40
1.0
 10
2248.938247358406
 20
913.9943139085344
 30
0.0
 10
2249.021475219214
 20
914.0475733129438
 30
0.0
 10
2249.183081654119
 20
914.1509889527089
 30
0.0
 10
2249.345145753313
 20
914.2536889077703
 30
0.0
 10
2249.423746293043
 20
914.3034980384665
 30
0.0
  0
SPLINE
  5
300
330
2F4
100
AcDbEntity
  8
0
  6
Continuous
 62
     7
370
    15
100
AcDbSpline
210
0.0
220
0.0
230
1.0
 70
     8
 71
     3
 72
     9
 73
     5
 74
     0
 42
0.0000000001
 43
0.0000000001
 40
0.0
 40
0.0
 40
0.0
 40
0.0
 40
0.5059534085091584
 40
0.9999999999999998
 40
0.9999999999999998
 40
0.9999999999999998
 40
0.9999999999999998
 10
2224.449919409616
 20
912.0627544278161
 30
0.0
 10
2224.533385084709
 20
912.0098658809343
 30
0.0
 10
2224.698352201622
 20
911.9053334358664
 30
0.0
 10
2224.862853465398
 20
911.8000725005666
 30
0.0
 10
2224.944124754062
 20
911.7480686942647
 30
0.0
  0
SPLINE
  5
301
330
2F4
100
AcDbEntity
  8
0
  6
Continuous
 62
     7
370
    15
100
AcDbSpline
210
0.0
220
0.0
230
1.0
 70
     8
 71
     3
 72
     9
 73
     5
 74
     0
 42
0.0000000001
 43
0.0000000001
 40
0.0
 40
0.0
 40
0.0
 40
0.0
 40
0.5059534085091581
 40
1.0
 40
1.0
 40
1.0
 40
1.0
 10
2224.449919409616
 20
913.5627544278161
 30
0.0
 10
2224.533385084709
 20
913.5098658809342
 30
0.0
 10
2224.698352201622
 20
913.4053334358664
 30
0.0
 10
2224.862853465398
 20
913.3000725005667
 30
0.0
 10
2224.944124754062
 20
913.2480686942647
 30
0.0
  0
SPLINE
  5
302
330
2F4
100
AcDbEntity
  8
0
  6
Continuous
 62
     7
370
    15
100
AcDbSpline
210
0.0
220
0.0
230
1.0
 70
     8
 71
     3
 72
     9
 73
     5
 74
     0
 42
0.0000000001
 43
0.0000000001
 40
0.0
 40
0.0
 40
0.0
 40
0.0
 40
0.5059534085091575
 40
1.0
 40
1.0
 40
1.0
 40
1.0
 10
2224.449919409616
 20
910.5627544278162
 30
0.0
 10
2224.533385084709
 20
910.5098658809342
 30
0.0
 10
2224.698352201622
 20
910.4053334358663
 30
0.0
 10
2224.862853465398
 20
910.3000725005667
 30
0.0
 10
2224.944124754062
 20
910.2480686942646
 30
0.0
  0
SPLINE
  5
303
330
2F4
100
AcDbEntity
  8
0
  6
Continuous
 62
     7
370
    15
100
AcDbSpline
210
0.0
220
0.0
230
1.0
 70
     8
 71
     3
 72
     9
 73
     5
 74
     0
 42
0.0000000001
 43
0.0000000001
 40
0.0
 40
0.0
 40
0.0
 40
0.0
 40
0.4999985948312634
 40
1.0
 40
1.0
 40
1.0
 40
1.0
 10
2248.938247358406
 20
910.9943139085343
 30
0.0
 10
2249.021476398084
 20
911.0475714694551
 30
0.0
 10
2249.187934945244
 20
911.1540868906411
 30
0.0
 10
2249.354864891044
 20
911.2598651496668
 30
0.0
 10
2249.438330098509
 20
911.312754427816
 30
0.0
  0
SPLINE
  5
304
330
2F4
100
AcDbEntity
  8
0
  6
Continuous
 62
     7
370
    15
100
AcDbSpline
210
0.0
220
0.0
230
1.0
 70
     8
 71
     3
 72
     9
 73
     5
 74
     0
 42
0.0000000001
 43
0.0000000001
 40
0.0
 40
0.0
 40
0.0
 40
0.0
 40
0.4999991154256404
 40
1.0
 40
1.0
 40
1.0
 40
1.0
 10
2224.949528230411
 20
914.2052229005376
 30
0.0
 10
2224.866334981237
 20
914.1503370553609
 30
0.0
 10
2224.699948188527
 20
914.0405651708046
 30
0.0
 10
2224.532968680406
 20
913.9316940629734
 30
0.0
 10
2224.44947877864
 20
913.8772584127533
 30
0.0
  0
SPLINE
  5
305
330
2F4
100
AcDbEntity
  8
0
  6
Continuous
 62
     7
370
    15
100
AcDbSpline
210
0.0
220
0.0
230
1.0
 70
     8
 71
     3
 72
     9
 73
     5
 74
     0
 42
0.0000000001
 43
0.0000000001
 40
0.0
 40
0.0
 40
0.0
 40
0.0
 40
0.4999991206705846
 40
1.0
 40
1.0
 40
1.0
 40
1.0
 10
2224.94997829349
 20
912.7055190768734
 30
0.0
 10
2224.866786446836
 20
912.6506333124936
 30
0.0
 10
2224.700402460918
 20
912.5408615906833
 30
0.0
 10
2224.533425554793
 20
912.4319906421364
 30
0.0
 10
2224.449936954903
 20
912.3775550721296
 30
0.0
  0
SPLINE
  5
306
330
2F4
100
AcDbEntity
  8
0
  6
Continuous
 62
     7
370
    15
100
AcDbSpline
210
0.0
220
0.0
230
1.0
 70
     8
 71
     3
 72
     9
 73
     5
 74
     0
 42
0.0000000001
 43
0.0000000001
 40
0.0
 40
0.0
 40
0.0
 40
0.0
 40
0.4999990689047025
 40
1.0
 40
1.0
 40
1.0
 40
1.0
 10
2224.949950241541
 20
911.2055009583421
 30
0.0
 10
2224.866757196663
 20
911.1506144752993
 30
0.0
 10
2224.700370797064
 20
911.0408413047958
 30
0.0
 10
2224.533391487541
 20
910.9319689411304
 30
0.0
 10
2224.449901677306
 20
910.8775326579271
 30
0.0
  0
SPLINE
  5
307
330
2F4
100
AcDbEntity
  8
0
  6
Continuous
 62
     7
370
    15
100
AcDbSpline
210
0.0
220
0.0
230
1.0
 70
     8
 71
     3
 72
     9
 73
     5
 74
     0
 42
0.0000000001
 43
0.0000000001
 40
0.0
 40
0.0
 40
0.0
 40
0.0
 40
0.5059815393453439
 40
0.9999999999999998
 40
0.9999999999999998
 40
0.9999999999999998
 40
0.9999999999999998
 10
2249.438265630573
 20
911.6275847795646
 30
0.0
 10
2249.354775931507
 20
911.6820198532924
 30
0.0
 10
2249.189770506262
 20
911.7896029753923
 30
0.0
 10
2249.025351017032
 20
911.8980762423566
 30
0.0
 10
2248.944124754062
 20
911.9516640387246
 30
0.0
  0
SPLINE
  5
308
330
2F4
100
AcDbEntity
  8
0
  6
Continuous
 62
     7
370
    15
100
AcDbSpline
210
0.0
220
0.0
230
1.0
 70
     8
 71
     3
 72
     9
 73
     5
 74
     0
 42
0.0000000001
 43
0.0000000001
 40
0.0
 40
0.0
 40
0.0
 40
0.0
 40
0.5056855226545512
 40
1.0
 40
1.0
 40
1.0
 40
1.0
 10
2249.43855169989
 20
913.1274017572772
 30
0.0
 10
2249.355062542378
 20
913.1818360641759
 30
0.0
 10
2249.189961597677
 20
913.2894806465499
 30
0.0
 10
2249.025446800195
 20
913.3980158573081
 30
0.0
 10
2248.944124754062
 20
913.4516663832876
 30
0.0
  0
LINE
  5
309
330
2F4
100
AcDbEntity
  8
0
  6
Continuous
 62
     7
370
    15
100
AcDbLine
 10
2248.944124754062
 20
913.4479481169817
 30
0.0
 11
2248.944124754062
 21
913.9980686942648
 31
0.0
  0
LINE
  5
30A
330
2F4
100
AcDbEntity
  8
0
  6
Continuous
 62
     7
370
    15
100
AcDbLine
 10
2248.944124754062
 20
911.9479481169816
 30
0.0
 11
2248.944124754062
 21
912.4980686942647
 31
0.0
  0
LINE
  5
30B
330
2F4
100
AcDbEntity
  8
0
  6
Continuous
 62
     7
370
    15
100
AcDbLine
 10
2248.944124754062
 20
909.9070933075045
 30
0.0
 11
2248.944124754062
 21
910.9980686942646
 31
0.0
  0
LINE
  5
30C
330
2F4
100
AcDbEntity
  8
0
  6
Continuous
 62
     7
370
    15
100
AcDbLine
 10
2224.944124754062
 20
910.2519265872247
 30
0.0
 11
2224.944124754062
 21
909.9070933075045
 31
0.0
  0
LINE
  5
30D
330
2F4
100
AcDbEntity
  8
0
  6
Continuous
 62
     7
370
    15
100
AcDbLine
 10
2224.944124754062
 20
911.7519265872246
 30
0.0
 11
2224.944124754062
 21
911.201665136555
 31
0.0
  0
LINE
  5
30E
330
2F4
100
AcDbEntity
  8
0
  6
Continuous
 62
     7
370
    15
100
AcDbLine
 10
2224.944124754062
 20
913.2519265872247
 30
0.0
 11
2224.944124754062
 21
912.701664779038
 31
0.0
  0
LINE
  5
30F
330
2F4
100
AcDbEntity
  8
0
  6
Continuous
 62
     7
370
    15
100
AcDbLine
 10
2224.944124754062
 20
914.3070933075044
 30
0.0
 11
2224.944124754062
 21
914.2016650034031
 31
0.0
  0
LINE
  5
310
330
2F4
100
AcDbEntity
  8
0
  6
Continuous
 62
     7
370
    15
100
AcDbLine
 10
2246.794124754062
 20
919.0777041010372
 30
0.0
 11
2245.818128879429
 21
927.0503375322373
 31
0.0
  0
LINE
  5
311
330
2F4
100
AcDbEntity
  8
0
  6
Continuous
 62
     7
370
    15
100
AcDbLine
 10
2228.070120628695
 20
927.0503375322373
 30
0.0
 11
2227.094124754062
 21
919.0777041010372
 31
0.0
  0
ARC
  5
312
330
2F4
100
AcDbEntity
  8
0
  6
Continuous
 62
     7
370
    15
100
AcDbCircle
 10
2229.059807999576
 20
926.9070933075045
 30
0.0
 40
1.000000000000009
100
AcDbArc
 50
90.0
 51
171.7643806757861
  0
ARC
  5
313
330
2F4
100
AcDbEntity
  8
0
  6
Continuous
 62
     7
370
    15
100
AcDbCircle
 10
2244.828441508549
 20
926.9070933075045
 30
0.0
 40
1.000000000000009
100
AcDbArc
 50
8.235619324213917
 51
90.0
  0
LINE
  5
314
330
2F4
100
AcDbEntity
  8
0
  6
Continuous
 62
     7
370
    15
100
AcDbLine
 10
2220.594124754062
 20
918.6070933075045
 30
0.0
 11
2220.594124754062
 21
914.3070933075044
 31
0.0
  0
LINE
  5
315
330
2F4
100
AcDbEntity
  8
0
  6
Continuous
 62
     7
370
    15
100
AcDbLine
 10
2253.294124754062
 20
914.3070933075044
 30
0.0
 11
2253.294124754062
 21
918.6070933075045
 31
0.0
  0
LINE
  5
316
330
2F4
100
AcDbEntity
  8
0
  6
Continuous
 62
     7
370
    15
100
AcDbLine
 10
2246.681718544499
 20
918.6070933075045
 30
0.0
 11
2243.449699286722
 21
918.6070933075045
 31
0.0
  0
LINE
  5
317
330
2F4
100
AcDbEntity
  8
0
  6
Continuous
 62
     7
370
    15
100
AcDbLine
 10
2246.681718544499
 20
914.3070933075044
 30
0.0
 11
2246.681718544499
 21
918.6070933075045
 31
0.0
  0
LINE
  5
318
330
2F4
100
AcDbEntity
  8
0
  6
Continuous
 62
     7
370
    15
100
AcDbLine
 10
2243.449699286722
 20
914.3070933075044
 30
0.0
 11
2246.681718544499
 21
914.3070933075044
 31
0.0
  0
LINE
  5
319
330
2F4
100
AcDbEntity
  8
0
  6
Continuous
 62
     7
370
    15
100
AcDbLine
 10
2243.449699286722
 20
918.6070933075045
 30
0.0
 11
2243.449699286722
 21
914.3070933075044
 31
0.0
  0
LINE
  5
31A
330
2F4
100
AcDbEntity
  8
0
  6
Continuous
 62
     7
370
    15
100
AcDbLine
 10
2230.438550221402
 20
914.3070933075044
 30
0.0
 11
2230.438550221402
 21
918.6070933075045
 31
0.0
  0
SPLINE
  5
31B
330
2F4
100
AcDbEntity
  8
0
  6
Continuous
 62
     7
370
    15
100
AcDbSpline
210
0.0
220
0.0
230
1.0
 70
     8
 71
     3
 72
    10
 73
     6
 74
     0
 42
0.0000000001
 43
0.0000000001
 40
0.0
 40
0.0
 40
0.0
 40
0.0
 40
0.5
 40
0.5
 40
1.0
 40
1.0
 40
1.0
 40
1.0
 10
2230.438550221402
 20
918.6070933075045
 30
0.0
 10
2232.607123206271
 20
918.6695660353979
 30
0.0
 10
2234.776642720265
 20
918.7048469924034
 30
0.0
 10
2239.113793813374
 20
918.7048241003013
 30
0.0
 10
2241.28191973041
 20
918.6695431781334
 30
0.0
 10
2243.449699286722
 20
918.6070933075045
 30
0.0
  0
LINE
  5
31C
330
2F4
100
AcDbEntity
  8
0
  6
Continuous
 62
     7
370
    15
100
AcDbLine
 10
2230.438550221402
 20
914.3070933075044
 30
0.0
 11
2243.449699286722
 21
914.3070933075044
 31
0.0
  0
LINE
  5
31D
330
2F4
100
AcDbEntity
  8
0
  6
Continuous
 62
     7
370
    15
100
AcDbLine
 10
2253.294124754062
 20
918.6070933075045
 30
0.0
 11
2253.187293077159
 21
918.6070933075045
 31
0.0
  0
SPLINE
  5
31E
330
2F4
100
AcDbEntity
  8
0
  6
Continuous
 62
     7
370
    15
100
AcDbSpline
210
0.0
220
0.0
230
1.0
 70
     8
 71
     3
 72
     9
 73
     5
 74
     0
 42
0.0000000001
 43
0.0000000001
 40
0.0
 40
0.0
 40
0.0
 40
0.0
 40
0.5
 40
1.0
 40
1.0
 40
1.0
 40
1.0
 10
2246.681718544499
 20
918.6070933075045
 30
0.0
 10
2247.765980966608
 20
918.6695646485514
 30
0.0
 10
2249.934505810828
 20
918.7401064499249
 30
0.0
 10
2252.103030655049
 20
918.6695646485514
 30
0.0
 10
2253.187293077159
 20
918.6070933075045
 30
0.0
  0
LINE
  5
31F
330
2F4
100
AcDbEntity
  8
0
  6
Continuous
 62
     7
370
    15
100
AcDbLine
 10
2230.438550221402
 20
918.6070933075045
 30
0.0
 11
2227.206530963625
 21
918.6070933075045
 31
0.0
  0
SPLINE
  5
320
330
2F4
100
AcDbEntity
  8
0
  6
Continuous
 62
     7
370
    15
100
AcDbSpline
210
0.0
220
0.0
230
1.0
 70
     8
 71
     3
 72
     9
 73
     5
 74
     0
 42
0.0000000001
 43
0.0000000001
 40
0.0
 40
0.0
 40
0.0
 40
0.0
 40
0.5
 40
1.0
 40
1.0
 40
1.0
 40
1.0
 10
2220.700956430965
 20
918.6070933075045
 30
0.0
 10
2221.785218853075
 20
918.6695646485514
 30
0.0
 10
2223.953743697296
 20
918.7401064499249
 30
0.0
 10
2226.122268541516
 20
918.6695646485514
 30
0.0
 10
2227.206530963625
 20
918.6070933075045
 30
0.0
  0
LINE
  5
321
330
2F4
100
AcDbEntity
  8
0
  6
Continuous
 62
     7
370
    15
100
AcDbLine
 10
2220.700956430965
 20
918.6070933075045
 30
0.0
 11
2220.594124754062
 21
918.6070933075045
 31
0.0
  0
LINE
  5
322
330
2F4
100
AcDbEntity
  8
0
  6
Continuous
 62
     7
370
    15
100
AcDbLine
 10
2227.094124754062
 20
919.0777041010372
 30
0.0
 11
2246.794124754062
 21
919.0777041010372
 31
0.0
  0
LINE
  5
323
330
2F4
100
AcDbEntity
  8
0
  6
Continuous
 62
     7
370
    15
100
AcDbLine
 10
2227.206530963625
 20
918.6070933075045
 30
0.0
 11
2227.206530963625
 21
914.3070933075044
 31
0.0
  0
LINE
  5
324
330
2F4
100
AcDbEntity
  8
0
  6
Continuous
 62
     7
370
    15
100
AcDbLine
 10
2227.206530963625
 20
914.3070933075044
 30
0.0
 11
2230.438550221402
 21
914.3070933075044
 31
0.0
  0
SPLINE
  5
325
330
2F4
100
AcDbEntity
  8
0
  6
Continuous
 62
     7
370
    15
100
AcDbSpline
210
0.0
220
0.0
230
1.0
 70
     8
 71
     3
 72
    44
 73
    40
 74
     0
 42
0.0000000001
 43
0.0000000001
 40
0.0
 40
0.0
 40
0.0
 40
0.0
 40
0.0013306380541637
 40
0.0292349219154399
 40
0.0568720859027154
 40
0.0841455988778609
 40
0.1119183360443872
 40
0.1400662777785372
 40
0.1684873467527501
 40
0.1970732332242201
 40
0.225711778696639
 40
0.2537807760802748
 40
0.2816850599415511
 40
0.3093222239288266
 40
0.336595736903972
 40
0.3643684740704983
 40
0.3925164158046482
 40
0.4209374847788612
 40
0.4495233712503312
 40
0.4781619167227499
 40
0.5062309141063857
 40
0.534135197967662
 40
0.5617723619549375
 40
0.589045874930083
 40
0.6168186120966092
 40
0.6449665538307591
 40
0.673387622804972
 40
0.701973509276442
 40
0.7306120547488609
 40
0.7586810521324969
 40
0.7865853359937731
 40
0.8142224999810487
 40
0.841496012956194
 40
0.8692687501227201
 40
0.89741669185687
 40
0.9258377608310826
 40
0.9544236473025524
 40
0.9830621927749717
 40
1.0
 40
1.0
 40
1.0
 40
1.0
 10
2224.446275843507
 20
910.5701633279752
 30
0.0
 10
2224.445563838854
 20
910.5704999342355
 30
0.0
 10
2224.429920666469
 20
910.5778953771267
 30
0.0
 10
2224.48665754096
 20
910.5920742237332
 30
0.0
 10
2224.621757859054
 20
910.6124558940022
 30
0.0
 10
2224.857439194623
 20
910.6320538827336
 30
0.0
 10
2225.180988316351
 20
910.6517856838614
 30
0.0
 10
2225.599233530199
 20
910.6725385205569
 30
0.0
 10
2226.109413603946
 20
910.6938538988018
 30
0.0
 10
2226.707877128362
 20
910.7155569369425
 30
0.0
 10
2227.384416197384
 20
910.7372460047271
 30
0.0
 10
2228.129447384562
 20
910.7586754608146
 30
0.0
 10
2228.932155647926
 20
910.7795884413114
 30
0.0
 10
2229.786619701949
 20
910.7999521578751
 30
0.0
 10
2230.692084681503
 20
910.8195548980592
 30
0.0
 10
2231.649360958826
 20
910.8392854056925
 30
0.0
 10
2232.660128654893
 20
910.8600385963095
 30
0.0
 10
2233.713936872135
 20
910.8813538782898
 30
0.0
 10
2234.79925477962
 20
910.9030569424671
 30
0.0
 10
2235.896999256566
 20
910.9247460032779
 30
0.0
 10
2236.993992345259
 20
910.9461754611972
 30
0.0
 10
2238.077616393831
 20
910.9670884412103
 30
0.0
 10
2239.142500854984
 20
910.9874521579016
 30
0.0
 10
2240.189566049355
 20
911.0070548980523
 30
0.0
 10
2241.219204122742
 20
911.0267854056937
 30
0.0
 10
2242.230566078685
 20
911.0475385963116
 30
0.0
 10
2243.210650779291
 20
911.0688538782801
 30
0.0
 10
2244.147070779213
 20
911.0905569425042
 30
0.0
 10
2245.022973481585
 20
911.1122460031408
 30
0.0
 10
2245.829325982579
 20
911.1336754616964
 30
0.0
 10
2246.559092116589
 20
911.154588439366
 30
0.0
 10
2247.210606590102
 20
911.1749521646752
 30
0.0
 10
2247.785899039247
 20
911.1945548729421
 30
0.0
 10
2248.284813125588
 20
911.2142855019103
 30
0.0
 10
2248.704090254991
 20
911.2350382305354
 30
0.0
 10
2249.037227878099
 20
911.2563552608357
 30
0.0
 10
2249.272833896894
 20
911.2780517472302
 30
0.0
 10
2249.406313062685
 20
911.296931549165
 30
0.0
 10
2249.42134031343
 20
911.3084475706839
 30
0.0
 10
2249.426924978747
 20
911.3127273372942
 30
0.0
  0
SPLINE
  5
326
330
2F4
100
AcDbEntity
  8
0
  6
Continuous
 62
     7
370
    15
100
AcDbSpline
210
0.0
220
0.0
230
1.0
 70
     8
 71
     3
 72
    44
 73
    40
 74
     0
 42
0.0000000001
 43
0.0000000001
 40
0.0
 40
0.0
 40
0.0
 40
0.0
 40
0.0013289307317711
 40
0.0292332622981342
 40
0.0568704735338292
 40
0.0841440331356977
 40
0.1119168177824187
 40
0.1400648076382122
 40
0.1684859252010062
 40
0.1970718605428287
 40
0.2257104549756269
 40
0.2537795003459434
 40
0.2816838319123065
 40
0.3093210431480014
 40
0.3365946027498696
 40
0.364367387396591
 40
0.3925153772523848
 40
0.4209364948151792
 40
0.4495224301570022
 40
0.4781610245897986
 40
0.5062300699601149
 40
0.5341344015264783
 40
0.5617716127621737
 40
0.5890451723640416
 40
0.6168179570107629
 40
0.6449659468665567
 40
0.6733870644293509
 40
0.7019729997711739
 40
0.7306115942039704
 40
0.7586806395742871
 40
0.7865849711406506
 40
0.8142221823763456
 40
0.8414957419782133
 40
0.8692685266249341
 40
0.8974165164807281
 40
0.9258376340435226
 40
0.9544235693853455
 40
0.9830621638181426
 40
1.0
 40
1.0
 40
1.0
 40
1.0
 10
2224.446273218436
 20
912.0701646250989
 30
0.0
 10
2224.445562166193
 20
912.0705007988002
 30
0.0
 10
2224.429920736414
 20
912.0778958072479
 30
0.0
 10
2224.486658267444
 20
912.0920742220008
 30
0.0
 10
2224.621757668147
 20
912.1124558944574
 30
0.0
 10
2224.857439246505
 20
912.1320538826099
 30
0.0
 10
2225.180988302137
 20
912.1517856838952
 30
0.0
 10
2225.599233534071
 20
912.1725385205477
 30
0.0
 10
2226.109413602898
 20
912.1938538988043
 30
0.0
 10
2226.707877128644
 20
912.2155569369418
 30
0.0
 10
2227.38441619731
 20
912.2372460047271
 30
0.0
 10
2228.129447384581
 20
912.2586754608146
 30
0.0
 10
2228.932155647921
 20
912.2795884413115
 30
0.0
 10
2229.78661970195
 20
912.299952157875
 30
0.0
 10
2230.692084681503
 20
912.3195548980593
 30
0.0
 10
2231.649360958826
 20
912.3392854056923
 30
0.0
 10
2232.660128654893
 20
912.3600385963095
 30
0.0
 10
2233.713936872135
 20
912.3813538782897
 30
0.0
 10
2234.79925477962
 20
912.4030569424673
 30
0.0
 10
2235.896999256566
 20
912.424746003278
 30
0.0
 10
2236.993992345259
 20
912.4461754611973
 30
0.0
 10
2238.077616393831
 20
912.4670884412102
 30
0.0
 10
2239.142500854984
 20
912.4874521579016
 30
0.0
 10
2240.189566049355
 20
912.5070548980522
 30
0.0
 10
2241.219204122742
 20
912.5267854056938
 30
0.0
 10
2242.230566078685
 20
912.5475385963115
 30
0.0
 10
2243.210650779291
 20
912.5688538782801
 30
0.0
 10
2244.147070779213
 20
912.5905569425041
 30
0.0
 10
2245.022973481585
 20
912.6122460031409
 30
0.0
 10
2245.829325982579
 20
912.6336754616964
 30
0.0
 10
2246.559092116589
 20
912.654588439366
 30
0.0
 10
2247.210606590102
 20
912.6749521646752
 30
0.0
 10
2247.785899039247
 20
912.694554872942
 30
0.0
 10
2248.284813125588
 20
912.7142855019103
 30
0.0
 10
2248.704090254991
 20
912.7350382305355
 30
0.0
 10
2249.037227878099
 20
912.7563552608357
 30
0.0
 10
2249.272833896894
 20
912.7780517472301
 30
0.0
 10
2249.406313062685
 20
912.7969315491649
 30
0.0
 10
2249.42134031343
 20
912.808447570684
 30
0.0
 10
2249.426924978747
 20
912.8127273372943
 30
0.0
  0
SPLINE
  5
327
330
2F4
100
AcDbEntity
  8
0
  6
Continuous
 62
     7
370
    15
100
AcDbSpline
210
0.0
220
0.0
230
1.0
 70
     8
 71
     3
 72
    43
 73
    39
 74
     0
 42
0.0000000001
 43
0.0000000001
 40
0.0
 40
0.0
 40
0.0
 40
0.0
 40
0.0013366031223876
 40
0.0294506245905981
 40
0.0572955184255903
 40
0.0847740279300341
 40
0.112755513956065
 40
0.1411150247083918
 40
0.1697497156133023
 40
0.1985504628369938
 40
0.2274042648636861
 40
0.2556842378942719
 40
0.2837982593624831
 40
0.3116431531974757
 40
0.3391216627019189
 40
0.3671031487279492
 40
0.3954626594802761
 40
0.4240973503851868
 40
0.4528980976088782
 40
0.4817518996355714
 40
0.5100318726661573
 40
0.5381458941343685
 40
0.5659907879693613
 40
0.5934692974738037
 40
0.6214507834998348
 40
0.6498102942521617
 40
0.6784449851570722
 40
0.7072457323807639
 40
0.7360995344074563
 40
0.7643795074380416
 40
0.7924935289062527
 40
0.8203384227412454
 40
0.8478169322456885
 40
0.8776672508614668
 40
0.9079397489091988
 40
0.9385089161125272
 40
0.9692415250519387
 40
1.0
 40
1.0
 40
1.0
 40
1.0
 10
2224.446269691822
 20
913.5701663677009
 30
0.0
 10
2224.445559918938
 20
913.5705019602873
 30
0.0
 10
2224.429920830258
 20
913.5778963850881
 30
0.0
 10
2224.486659243582
 20
913.5920742196731
 30
0.0
 10
2224.621757411636
 20
913.612455895069
 30
0.0
 10
2224.857439316213
 20
913.6320538824437
 30
0.0
 10
2225.180988283039
 20
913.6517856839407
 30
0.0
 10
2225.599233539271
 20
913.6725385205354
 30
0.0
 10
2226.10941360149
 20
913.6938538988076
 30
0.0
 10
2226.707877129023
 20
913.715556936941
 30
0.0
 10
2227.384416197211
 20
913.7372460047274
 30
0.0
 10
2228.129447384608
 20
913.7586754608147
 30
0.0
 10
2228.932155647914
 20
913.7795884413115
 30
0.0
 10
2229.786619701952
 20
913.799952157875
 30
0.0
 10
2230.692084681502
 20
913.8195548980593
 30
0.0
 10
2231.649360958826
 20
913.8392854056924
 30
0.0
 10
2232.660128654893
 20
913.8600385963096
 30
0.0
 10
2233.713936872135
 20
913.8813538782898
 30
0.0
 10
2234.799254779621
 20
913.9030569424672
 30
0.0
 10
2235.896999256565
 20
913.9247460032782
 30
0.0
 10
2236.993992345263
 20
913.9461754611968
 30
0.0
 10
2238.077616393816
 20
913.9670884412124
 30
0.0
 10
2239.142500855041
 20
913.9874521578942
 30
0.0
 10
2240.189566049143
 20
914.0070548980796
 30
0.0
 10
2241.219204123557
 20
914.026785405589
 30
0.0
 10
2242.230566075585
 20
914.0475385967102
 30
0.0
 10
2243.210650791007
 20
914.0688538767738
 30
0.0
 10
2244.147070735184
 20
914.0905569481649
 30
0.0
 10
2245.022973644816
 20
914.1122459821541
 30
0.0
 10
2245.829325388379
 20
914.1336755380924
 30
0.0
 10
2246.559094312236
 20
914.1545881570724
 30
0.0
 10
2247.210598526198
 20
914.1749532014483
 30
0.0
 10
2247.798835692764
 20
914.1949906803271
 30
0.0
 10
2248.317287705362
 20
914.2156320034732
 30
0.0
 10
2248.756110432323
 20
914.2378381621087
 30
0.0
 10
2249.092556083758
 20
914.2606470132925
 30
0.0
 10
2249.329967916546
 20
914.283851476407
 30
0.0
 10
2249.394073034874
 20
914.2993438581999
 30
0.0
 10
2249.426139076835
 20
914.3070933075044
 30
0.0
  0
SPLINE
  5
328
330
2F4
100
AcDbEntity
  8
0
  6
Continuous
 62
     7
370
    15
100
AcDbSpline
210
0.0
220
0.0
230
1.0
 70
     8
 71
     3
 72
    43
 73
    39
 74
     0
 42
0.0000000001
 43
0.0000000001
 40
0.0
 40
0.0
 40
0.0
 40
0.0
 40
0.0194595487275134
 40
0.0470960963544455
 40
0.0743690010793438
 40
0.1021411188619915
 40
0.1302884328445008
 40
0.1587088679758258
 40
0.18729411692867
 40
0.2159320237080691
 40
0.2440003951006706
 40
0.2719040566443315
 40
0.2995406042712636
 40
0.3268135089961619
 40
0.3545856267788097
 40
0.3827329407613189
 40
0.4111533758926438
 40
0.439738624845488
 40
0.468376531624887
 40
0.4964449030174885
 40
0.5243485645611495
 40
0.5519851121880814
 40
0.5792580169129799
 40
0.6070301346956275
 40
0.6351774486781368
 40
0.6635978838094618
 40
0.6921831327623061
 40
0.7208210395417052
 40
0.7488894109343068
 40
0.7767930724779677
 40
0.8044296201048998
 40
0.831702524829798
 40
0.8594746426124459
 40
0.8876219565949549
 40
0.9160423917262797
 40
0.9446276406791238
 40
0.9732655474585232
 40
1.0
 40
1.0
 40
1.0
 40
1.0
 10
2224.459840344436
 20
910.8775045827725
 30
0.0
 10
2224.467980227209
 20
910.8823821390345
 30
0.0
 10
2224.487680411872
 20
910.8941868248939
 30
0.0
 10
2224.62560433053
 20
910.9124455285595
 30
0.0
 10
2224.856393881805
 20
910.9320566996345
 30
0.0
 10
2225.181274700859
 20
910.9517849121143
 30
0.0
 10
2225.59915554031
 20
910.9725387307234
 30
0.0
 10
2226.109434721698
 20
910.9938538418937
 30
0.0
 10
2226.707871440531
 20
911.0155569522699
 30
0.0
 10
2227.384417689225
 20
911.0372460007067
 30
0.0
 10
2228.129446990676
 20
911.0586754618759
 30
0.0
 10
2228.932155752125
 20
911.0795884410306
 30
0.0
 10
2229.786619674567
 20
911.0999521579488
 30
0.0
 10
2230.692084688945
 20
911.1195548980392
 30
0.0
 10
2231.649360956787
 20
911.1392854056978
 30
0.0
 10
2232.660128655449
 20
911.1600385963079
 30
0.0
 10
2233.713936871984
 20
911.18135387829
 30
0.0
 10
2234.799254779661
 20
911.2030569424669
 30
0.0
 10
2235.896999256556
 20
911.2247460032778
 30
0.0
 10
2236.993992345263
 20
911.246175461197
 30
0.0
 10
2238.077616393827
 20
911.2670884412102
 30
0.0
 10
2239.142500854996
 20
911.2874521579014
 30
0.0
 10
2240.189566049309
 20
911.3070548980521
 30
0.0
 10
2241.219204122919
 20
911.3267854056937
 30
0.0
 10
2242.230566078011
 20
911.3475385963106
 30
0.0
 10
2243.210650781839
 20
911.3688538782833
 30
0.0
 10
2244.147070769637
 20
911.3905569424916
 30
0.0
 10
2245.022973517087
 20
911.4122460031865
 30
0.0
 10
2245.829325853341
 20
911.4336754615292
 30
0.0
 10
2246.559092594139
 20
911.4545884399827
 30
0.0
 10
2247.210604836214
 20
911.4749521624094
 30
0.0
 10
2247.785905541045
 20
911.4945548813404
 30
0.0
 10
2248.284788212201
 20
911.5142854697293
 30
0.0
 10
2248.704184965504
 20
911.5350383528742
 30
0.0
 10
2249.036869892614
 20
911.556354798421
 30
0.0
 10
2249.274179110669
 20
911.5780534848594
 30
0.0
 10
2249.419058117796
 20
911.5994193610632
 30
0.0
 10
2249.43450880195
 20
911.613407278488
 30
0.0
 10
2249.441968581293
 20
911.6201608161581
 30
0.0
  0
SPLINE
  5
329
330
2F4
100
AcDbEntity
  8
0
  6
Continuous
 62
     7
370
    15
100
AcDbSpline
210
0.0
220
0.0
230
1.0
 70
     8
 71
     3
 72
    43
 73
    39
 74
     0
 42
0.0000000001
 43
0.0000000001
 40
0.0
 40
0.0
 40
0.0
 40
0.0
 40
0.0194303636218473
 40
0.0470676765008492
 40
0.0743413364085974
 40
0.1021142231972331
 40
0.1302623165748597
 40
0.1586835386639877
 40
0.1872695791383062
 40
0.2159082788972682
 40
0.2439774274990782
 40
0.2718818616911553
 40
0.2995191745701571
 40
0.3267928344779049
 40
0.354565721266541
 40
0.3827138146441679
 40
0.4111350367332963
 40
0.4397210772076152
 40
0.4683597769665756
 40
0.4964289255683853
 40
0.5243333597604627
 40
0.5519706726394649
 40
0.5792443325472125
 40
0.6070172193358486
 40
0.6351653127134754
 40
0.6635865348026037
 40
0.6921725752769225
 40
0.7208112750358828
 40
0.7488804236376931
 40
0.7767848578297704
 40
0.8044221707087723
 40
0.8316958306165197
 40
0.8594687174051552
 40
0.8876168107827822
 40
0.9160380328719105
 40
0.9446240733462294
 40
0.9732627731051904
 40
1.0
 40
1.0
 40
1.0
 40
1.0
 10
2224.459895283195
 20
912.3775268700846
 30
0.0
 10
2224.468025971935
 20
912.3823969646343
 30
0.0
 10
2224.487721569752
 20
912.394194172306
 30
0.0
 10
2224.625608545216
 20
912.4124455134882
 30
0.0
 10
2224.856392736427
 20
912.4320567037303
 30
0.0
 10
2225.181275014658
 20
912.4517849109922
 30
0.0
 10
2225.599155454855
 20
912.472538731029
 30
0.0
 10
2226.109434744837
 20
912.493853841811
 30
0.0
 10
2226.7078714343
 20
912.5155569522922
 30
0.0
 10
2227.384417690859
 20
912.5372460007008
 30
0.0
 10
2228.129446990244
 20
912.5586754618776
 30
0.0
 10
2228.932155752239
 20
912.5795884410301
 30
0.0
 10
2229.786619674537
 20
912.5999521579487
 30
0.0
 10
2230.692084688953
 20
912.619554898039
 30
0.0
 10
2231.649360956785
 20
912.6392854056978
 30
0.0
 10
2232.660128655449
 20
912.6600385963079
 30
0.0
 10
2233.713936871984
 20
912.6813538782901
 30
0.0
 10
2234.799254779661
 20
912.703056942467
 30
0.0
 10
2235.896999256556
 20
912.7247460032778
 30
0.0
 10
2236.993992345263
 20
912.7461754611971
 30
0.0
 10
2238.077616393827
 20
912.7670884412101
 30
0.0
 10
2239.142500854996
 20
912.7874521579014
 30
0.0
 10
2240.189566049309
 20
912.807054898052
 30
0.0
 10
2241.219204122919
 20
912.8267854056938
 30
0.0
 10
2242.230566078011
 20
912.8475385963106
 30
0.0
 10
2243.210650781839
 20
912.8688538782833
 30
0.0
 10
2244.147070769634
 20
912.8905569424917
 30
0.0
 10
2245.022973517093
 20
912.9122460031865
 30
0.0
 10
2245.82932585332
 20
912.9336754615293
 30
0.0
 10
2246.559092594219
 20
912.9545884399828
 30
0.0
 10
2247.210604835919
 20
912.9749521624091
 30
0.0
 10
2247.785905542138
 20
912.9945548813418
 30
0.0
 10
2248.284788208012
 20
913.0142854697238
 30
0.0
 10
2248.704184981429
 20
913.0350383528947
 30
0.0
 10
2249.036869832423
 20
913.0563547983433
 30
0.0
 10
2249.274179336851
 20
913.0780534851515
 30
0.0
 10
2249.419060805817
 20
913.0994198776281
 30
0.0
 10
2249.434511585569
 20
913.1134083082695
 30
0.0
 10
2249.441971704594
 20
913.1201623594712
 30
0.0
  0
SPLINE
  5
32A
330
2F4
100
AcDbEntity
  8
0
  6
Continuous
 62
     7
370
    15
100
AcDbSpline
210
0.0
220
0.0
230
1.0
 70
     8
 71
     3
 72
    29
 73
    25
 74
     0
 42
0.0000000001
 43
0.0000000001
 40
0.0
 40
0.0
 40
0.0
 40
0.0
 40
0.0341888870176264
 40
0.0818509423221424
 40
0.1288858582190244
 40
0.1767817181342541
 40
0.2253246423018369
 40
0.2743385918476764
 40
0.3236367796993362
 40
0.3730257813630286
 40
0.4214325609536243
 40
0.4695552815497542
 40
0.5172173368542712
 40
0.5642522527511521
 40
0.6121481126663807
 40
0.6606910368339636
 40
0.7097049863798033
 40
0.7590031742314631
 40
0.8083921758951568
 40
0.8567989554857524
 40
0.9049216760818826
 40
0.9525837313863997
 40
0.9996186472832796
 40
1.0
 40
1.0
 40
1.0
 40
1.0
 10
2224.459166314102
 20
913.8772311451345
 30
0.0
 10
2224.467418555213
 20
913.8822002489183
 30
0.0
 10
2224.487175083436
 20
913.8940966826035
 30
0.0
 10
2224.62555308784
 20
913.9124457117995
 30
0.0
 10
2224.856407807461
 20
913.9320566498374
 30
0.0
 10
2225.181270885644
 20
913.9517849257572
 30
0.0
 10
2225.599156579292
 20
913.9725387270082
 30
0.0
 10
2226.109434440366
 20
913.9938538428994
 30
0.0
 10
2226.707871516307
 20
914.0155569520002
 30
0.0
 10
2227.384417669343
 20
914.0372460007732
 30
0.0
 10
2228.129446995951
 20
914.0586754618734
 30
0.0
 10
2228.932155750635
 20
914.0795884409753
 30
0.0
 10
2229.786619675306
 20
914.0999521581685
 30
0.0
 10
2230.692084687457
 20
914.1195548972198
 30
0.0
 10
2231.649360962133
 20
914.1392854088387
 30
0.0
 10
2232.660128635219
 20
914.160038584367
 30
0.0
 10
2233.71393694842
 20
914.181353923424
 30
0.0
 10
2234.799254492443
 20
914.2030567728655
 30
0.0
 10
2235.897000321402
 20
914.224746632067
 30
0.0
 10
2236.993988468995
 20
914.2461731722709
 30
0.0
 10
2238.077630717141
 20
914.2670968990925
 30
0.0
 10
2239.142448250087
 20
914.287421094828
 30
0.0
 10
2239.840777512402
 20
914.3005893422335
 30
0.0
 10
2240.184898376883
 20
914.3070414157
 30
0.0
 10
2240.187666022469
 20
914.3070933075044
 30
0.0
  0
SPLINE
  5
32B
330
2F4
100
AcDbEntity
  8
0
  6
Continuous
 62
     7
370
    15
100
AcDbSpline
210
0.0
220
0.0
230
1.0
 70
     8
 71
     3
 72
    44
 73
    40
 74
     0
 42
0.0000000001
 43
0.0000000001
 40
0.0
 40
0.0
 40
0.0
 40
0.0
 40
0.0013351816186048
 40
0.0292466473511594
 40
0.0568909077558347
 40
0.084171401847371
 40
0.1119512481421231
 40
0.1401064179898918
 40
0.1685348024765311
 40
0.1971280575252158
 40
0.2257739885808909
 40
0.253850220854297
 40
0.2817616865868516
 40
0.3094059469915269
 40
0.3366864410830632
 40
0.3644662873778153
 40
0.3926214572255839
 40
0.4210498417122233
 40
0.4496430967609079
 40
0.478289027816583
 40
0.5063652600899891
 40
0.5342767258225436
 40
0.561920986227219
 40
0.5892014803187555
 40
0.6169813266135074
 40
0.645136496461276
 40
0.6735648809479153
 40
0.7021581359966
 40
0.7308040670522752
 40
0.7588802993256813
 40
0.7867917650582359
 40
0.8144360254629113
 40
0.8417165195544475
 40
0.8694963658491994
 40
0.8976515356969681
 40
0.9260799201836071
 40
0.9546731752322916
 40
0.9833191062879672
 40
1.0
 40
1.0
 40
1.0
 40
1.0
 10
2224.946195990311
 20
910.2519265872247
 30
0.0
 10
2224.945510219504
 20
910.2522642560364
 30
0.0
 10
2224.930488669874
 20
910.2596607633858
 30
0.0
 10
2224.984954487432
 20
910.2738406679508
 30
0.0
 10
2225.114652905652
 20
910.2942223294432
 30
0.0
 10
2225.340906482646
 20
910.3138203287249
 30
0.0
 10
2225.651513967057
 20
910.3335521384581
 30
0.0
 10
2226.053029304552
 20
910.3543049723317
 30
0.0
 10
2226.542802155022
 20
910.3756203484278
 30
0.0
 10
2227.117327071463
 20
910.3973233837848
 30
0.0
 10
2227.766804496086
 20
910.4190124488194
 30
0.0
 10
2228.482034337256
 20
910.4404419022879
 30
0.0
 10
2229.252634183007
 20
910.4613548808062
 30
0.0
 10
2230.072919526305
 20
910.4817185945616
 30
0.0
 10
2230.942166282819
 20
910.5013213437118
 30
0.0
 10
2231.861151938408
 20
910.5210518603817
 30
0.0
 10
2232.831488790735
 20
910.5418050480592
 30
0.0
 10
2233.843144583009
 20
910.5631203279228
 30
0.0
 10
2234.88504964129
 20
910.5848233893077
 30
0.0
 10
2235.938884205893
 20
910.606512447371
 30
0.0
 10
2236.991997440015
 20
910.6279419026703
 30
0.0
 10
2238.03227642729
 20
910.6488548807051
 30
0.0
 10
2239.0545653596
 20
910.6692185945881
 30
0.0
 10
2240.059748406212
 20
910.6888213437049
 30
0.0
 10
2241.048201393464
 20
910.7085518603829
 30
0.0
 10
2242.019108703951
 20
910.7293050480613
 30
0.0
 10
2242.959989912216
 20
910.7506203279129
 30
0.0
 10
2243.858952988432
 20
910.772323389345
 30
0.0
 10
2244.699819475289
 20
910.7940124472323
 30
0.0
 10
2245.473917794488
 20
910.815441903175
 30
0.0
 10
2246.174493210469
 20
910.8363548788403
 30
0.0
 10
2246.799947111858
 20
910.8567186014365
 30
0.0
 10
2247.352227874942
 20
910.8763213183173
 30
0.0
 10
2247.83118658515
 20
910.8960519576623
 30
0.0
 10
2248.233688724719
 20
910.9168046782446
 30
0.0
 10
2248.553515188289
 20
910.9381217257421
 30
0.0
 10
2248.779642757448
 20
910.9598181366745
 30
0.0
 10
2248.907505906107
 20
910.9786316726177
 30
0.0
 10
2248.921922441197
 20
910.9900817919296
 30
0.0
 10
2248.927227924006
 20
910.9942955930112
 30
0.0
  0
SPLINE
  5
32C
330
2F4
100
AcDbEntity
  8
0
  6
Continuous
 62
     7
370
    15
100
AcDbSpline
210
0.0
220
0.0
230
1.0
 70
     8
 71
     3
 72
    44
 73
    40
 74
     0
 42
0.0000000001
 43
0.0000000001
 40
0.0
 40
0.0
 40
0.0
 40
0.0
 40
0.0013351816186042
 40
0.0292466473511588
 40
0.0568909077558342
 40
0.0841714018473708
 40
0.1119512481421227
 40
0.1401064179898913
 40
0.1685348024765305
 40
0.197128057525215
 40
0.225773988580891
 40
0.2538502208542971
 40
0.2817616865868517
 40
0.3094059469915271
 40
0.3366864410830633
 40
0.3644662873778157
 40
0.3926214572255846
 40
0.4210498417122241
 40
0.4496430967609089
 40
0.4782890278165832
 40
0.5063652600899891
 40
0.5342767258225441
 40
0.5619209862272198
 40
0.5892014803187557
 40
0.6169813266135079
 40
0.6451364964612767
 40
0.6735648809479162
 40
0.702158135996601
 40
0.7308040670522753
 40
0.7588802993256816
 40
0.7867917650582366
 40
0.8144360254629122
 40
0.841716519554448
 40
0.8694963658491996
 40
0.8976515356969686
 40
0.9260799201836082
 40
0.954673175232293
 40
0.9833191062879681
 40
1.0
 40
1.0
 40
1.0
 40
1.0
 10
2224.946195990311
 20
911.7519265872246
 30
0.0
 10
2224.945510219504
 20
911.7522642560363
 30
0.0
 10
2224.930488669874
 20
911.7596607633858
 30
0.0
 10
2224.984954487432
 20
911.7738406679508
 30
0.0
 10
2225.114652905652
 20
911.7942223294432
 30
0.0
 10
2225.340906482646
 20
911.8138203287248
 30
0.0
 10
2225.651513967057
 20
911.8335521384581
 30
0.0
 10
2226.053029304552
 20
911.8543049723317
 30
0.0
 10
2226.542802155022
 20
911.8756203484279
 30
0.0
 10
2227.117327071463
 20
911.8973233837849
 30
0.0
 10
2227.766804496086
 20
911.9190124488195
 30
0.0
 10
2228.482034337256
 20
911.9404419022879
 30
0.0
 10
2229.252634183007
 20
911.9613548808063
 30
0.0
 10
2230.072919526305
 20
911.9817185945617
 30
0.0
 10
2230.942166282819
 20
912.0013213437118
 30
0.0
 10
2231.861151938408
 20
912.0210518603817
 30
0.0
 10
2232.831488790735
 20
912.0418050480591
 30
0.0
 10
2233.843144583009
 20
912.0631203279227
 30
0.0
 10
2234.88504964129
 20
912.0848233893076
 30
0.0
 10
2235.938884205893
 20
912.1065124473709
 30
0.0
 10
2236.991997440015
 20
912.1279419026704
 30
0.0
 10
2238.03227642729
 20
912.148854880705
 30
0.0
 10
2239.0545653596
 20
912.1692185945882
 30
0.0
 10
2240.059748406212
 20
912.1888213437047
 30
0.0
 10
2241.048201393464
 20
912.208551860383
 30
0.0
 10
2242.019108703951
 20
912.2293050480612
 30
0.0
 10
2242.959989912216
 20
912.2506203279129
 30
0.0
 10
2243.858952988432
 20
912.272323389345
 30
0.0
 10
2244.699819475289
 20
912.2940124472322
 30
0.0
 10
2245.473917794488
 20
912.3154419031751
 30
0.0
 10
2246.174493210469
 20
912.3363548788404
 30
0.0
 10
2246.799947111858
 20
912.3567186014366
 30
0.0
 10
2247.352227874942
 20
912.3763213183172
 30
0.0
 10
2247.83118658515
 20
912.3960519576623
 30
0.0
 10
2248.233688724719
 20
912.4168046782445
 30
0.0
 10
2248.553515188289
 20
912.438121725742
 30
0.0
 10
2248.779642757448
 20
912.4598181366746
 30
0.0
 10
2248.907505906107
 20
912.4786316726178
 30
0.0
 10
2248.921922441197
 20
912.4900817919296
 30
0.0
 10
2248.927227924006
 20
912.4942955930112
 30
0.0
  0
SPLINE
  5
32D
330
2F4
100
AcDbEntity
  8
0
  6
Continuous
 62
     7
370
    15
100
AcDbSpline
210
0.0
220
0.0
230
1.0
 70
     8
 71
     3
 72
    44
 73
    40
 74
     0
 42
0.0000000001
 43
0.0000000001
 40
0.0
 40
0.0
 40
0.0
 40
0.0
 40
0.0013351816186056
 40
0.0292466473511598
 40
0.0568909077558349
 40
0.0841714018473714
 40
0.1119512481421237
 40
0.1401064179898925
 40
0.1685348024765319
 40
0.1971280575252167
 40
0.225773988580891
 40
0.2538502208542973
 40
0.2817616865868522
 40
0.3094059469915278
 40
0.3366864410830637
 40
0.3644662873778153
 40
0.3926214572255842
 40
0.4210498417122237
 40
0.4496430967609086
 40
0.4782890278165837
 40
0.5063652600899901
 40
0.5342767258225451
 40
0.5619209862272207
 40
0.589201480318756
 40
0.6169813266135084
 40
0.6451364964612772
 40
0.6735648809479167
 40
0.7021581359966015
 40
0.7308040670522758
 40
0.7588802993256816
 40
0.7867917650582366
 40
0.8144360254629122
 40
0.841716519554448
 40
0.8694963658492005
 40
0.8976515356969693
 40
0.9260799201836089
 40
0.9546731752322937
 40
0.9833191062879681
 40
0.9999999999999998
 40
0.9999999999999998
 40
0.9999999999999998
 40
0.9999999999999998
 10
2224.946195990311
 20
913.2519265872247
 30
0.0
 10
2224.945510219504
 20
913.2522642560363
 30
0.0
 10
2224.930488669874
 20
913.2596607633857
 30
0.0
 10
2224.984954487432
 20
913.2738406679507
 30
0.0
 10
2225.114652905652
 20
913.2942223294433
 30
0.0
 10
2225.340906482646
 20
913.3138203287249
 30
0.0
 10
2225.651513967057
 20
913.333552138458
 30
0.0
 10
2226.053029304552
 20
913.3543049723318
 30
0.0
 10
2226.542802155022
 20
913.375620348428
 30
0.0
 10
2227.117327071463
 20
913.3973233837847
 30
0.0
 10
2227.766804496086
 20
913.4190124488194
 30
0.0
 10
2228.482034337256
 20
913.440441902288
 30
0.0
 10
2229.252634183007
 20
913.4613548808063
 30
0.0
 10
2230.072919526305
 20
913.4817185945617
 30
0.0
 10
2230.942166282819
 20
913.5013213437119
 30
0.0
 10
2231.861151938408
 20
913.5210518603816
 30
0.0
 10
2232.831488790735
 20
913.5418050480591
 30
0.0
 10
2233.843144583009
 20
913.5631203279228
 30
0.0
 10
2234.88504964129
 20
913.5848233893076
 30
0.0
 10
2235.938884205893
 20
913.6065124473709
 30
0.0
 10
2236.991997440015
 20
913.6279419026704
 30
0.0
 10
2238.03227642729
 20
913.6488548807051
 30
0.0
 10
2239.0545653596
 20
913.6692185945882
 30
0.0
 10
2240.059748406212
 20
913.6888213437048
 30
0.0
 10
2241.048201393464
 20
913.7085518603829
 30
0.0
 10
2242.019108703951
 20
913.7293050480613
 30
0.0
 10
2242.959989912216
 20
913.750620327913
 30
0.0
 10
2243.858952988432
 20
913.7723233893451
 30
0.0
 10
2244.699819475289
 20
913.7940124472322
 30
0.0
 10
2245.473917794488
 20
913.8154419031749
 30
0.0
 10
2246.174493210469
 20
913.8363548788404
 30
0.0
 10
2246.799947111858
 20
913.8567186014366
 30
0.0
 10
2247.352227874942
 20
913.8763213183173
 30
0.0
 10
2247.83118658515
 20
913.8960519576622
 30
0.0
 10
2248.233688724719
 20
913.9168046782446
 30
0.0
 10
2248.553515188289
 20
913.9381217257421
 30
0.0
 10
2248.779642757448
 20
913.9598181366746
 30
0.0
 10
2248.907505906107
 20
913.9786316726178
 30
0.0
 10
2248.921922441197
 20
913.9900817919297
 30
0.0
 10
2248.927227924006
 20
913.9942955930111
 30
0.0
  0
SPLINE
  5
32E
330
2F4
100
AcDbEntity
  8
0
  6
Continuous
 62
     7
370
    15
100
AcDbSpline
210
0.0
220
0.0
230
1.0
 70
     8
 71
     3
 72
    12
 73
     8
 74
     0
 42
0.0000000001
 43
0.0000000001
 40
0.0
 40
0.0
 40
0.0
 40
0.0
 40
0.2346847245146687
 40
0.4659051252666629
 40
0.6649881650621352
 40
0.8667609445001012
 40
1.0
 40
1.0
 40
1.0
 40
1.0
 10
2226.21304927239
 20
914.3070933075046
 30
0.0
 10
2226.041453989713
 20
914.2989590404781
 30
0.0
 10
2225.700796446552
 20
914.2828105812816
 30
0.0
 10
2225.351085760852
 20
914.2607825391234
 30
0.0
 10
2225.114476988582
 20
914.2398695470978
 30
0.0
 10
2224.983411569899
 20
914.2215651669472
 30
0.0
 10
2224.966753357204
 20
914.209844299402
 30
0.0
 10
2224.960128144915
 20
914.205182740739
 30
0.0
  0
SPLINE
  5
32F
330
2F4
100
AcDbEntity
  8
0
  6
Continuous
 62
     7
370
    15
100
AcDbSpline
210
0.0
220
0.0
230
1.0
 70
     8
 71
     3
 72
    44
 73
    40
 74
     0
 42
0.0000000001
 43
0.0000000001
 40
0.0
 40
0.0
 40
0.0
 40
0.0
 40
0.0001920902386036
 40
0.0287847221056566
 40
0.0574300288316409
 40
0.0855056491917757
 40
0.1134165066020976
 40
0.1410601645082022
 40
0.1683400640293468
 40
0.1961193048704731
 40
0.2242738610845482
 40
0.2527016259828609
 40
0.2812942578499131
 40
0.3099395645758994
 40
0.3380151849360342
 40
0.3659260423463559
 40
0.3935697002524605
 40
0.4208495997736056
 40
0.4486288406147321
 40
0.476783396828808
 40
0.5052111617271212
 40
0.5338037935941743
 40
0.5624491003201586
 40
0.5905247206802934
 40
0.6184355780906153
 40
0.6460792359967198
 40
0.6733591355178643
 40
0.7011383763589904
 40
0.7292929325730659
 40
0.757720697471379
 40
0.7863133293384316
 40
0.8149586360644171
 40
0.8430342564245517
 40
0.8709451138348731
 40
0.8985887717409774
 40
0.9258686712621233
 40
0.9536479121032492
 40
0.9818024683173248
 40
1.0
 40
1.0
 40
1.0
 40
1.0
 10
2248.943810120292
 20
913.4479481169817
 30
0.0
 10
2248.943914926057
 20
913.4479000857721
 30
0.0
 10
2248.95962006979
 20
913.4407026090528
 30
0.0
 10
2248.904572279098
 20
913.4260806554605
 30
0.0
 10
2248.771659129147
 20
913.4044204780042
 30
0.0
 10
2248.53690622135
 20
913.3829834372717
 30
0.0
 10
2248.220467993779
 20
913.3620724628068
 30
0.0
 10
2247.822637747336
 20
913.3417082196363
 30
0.0
 10
2247.346040558186
 20
913.3221056105957
 30
0.0
 10
2246.789612581004
 20
913.3023750557837
 30
0.0
 10
2246.150646225847
 20
913.2816218785427
 30
0.0
 10
2245.434001305
 20
913.2603065958404
 30
0.0
 10
2244.646395639989
 20
913.2386035352233
 30
0.0
 10
2243.801413245023
 20
913.2169144769544
 30
0.0
 10
2242.910203776773
 20
913.1954850217089
 30
0.0
 10
2241.984538705603
 20
913.1745720436599
 30
0.0
 10
2241.030325699421
 20
913.1542083297805
 30
0.0
 10
2240.047752881828
 20
913.1346055806632
 30
0.0
 10
2239.036132992021
 20
913.1148750639844
 30
0.0
 10
2237.994624483125
 20
913.0941218763094
 30
0.0
 10
2236.934889385959
 20
913.0728065964451
 30
0.0
 10
2235.869107939448
 20
913.0511035350604
 30
0.0
 10
2234.816155845332
 20
913.0294144769971
 30
0.0
 10
2233.788152802746
 20
913.0079850216979
 30
0.0
 10
2232.796135647985
 20
912.987072043662
 30
0.0
 10
2231.844337772506
 20
912.9667083297835
 30
0.0
 10
2230.93141139759
 20
912.9471055806494
 30
0.0
 10
2230.057180743587
 20
912.9273750640383
 30
0.0
 10
2229.223235014544
 20
912.9066218761044
 30
0.0
 10
2228.441186991537
 20
912.8853065972199
 30
0.0
 10
2227.721551454154
 20
912.8636035321491
 30
0.0
 10
2227.07743044563
 20
912.8419144877906
 30
0.0
 10
2226.514839458714
 20
912.820484982407
 30
0.0
 10
2226.037523788594
 20
912.7995721888467
 30
0.0
 10
2225.645899558292
 20
912.7792077965674
 30
0.0
 10
2225.336629136686
 20
912.7596075573217
 30
0.0
 10
2225.114831682704
 20
912.7398674898831
 30
0.0
 10
2224.983872669663
 20
912.721662926679
 30
0.0
 10
2224.967282474465
 20
912.7100410570271
 30
0.0
 10
2224.960769270499
 20
912.7054783857257
 30
0.0
  0
SPLINE
  5
330
330
2F4
100
AcDbEntity
  8
0
  6
Continuous
 62
     7
370
    15
100
AcDbSpline
210
0.0
220
0.0
230
1.0
 70
     8
 71
     3
 72
    44
 73
    40
 74
     0
 42
0.0000000001
 43
0.0000000001
 40
0.0
 40
0.0
 40
0.0
 40
0.0
 40
0.0001920856010333
 40
0.0287840271659053
 40
0.0574286423179991
 40
0.0855035848579858
 40
0.1134137684259753
 40
0.1410567589406543
 40
0.1683359998524694
 40
0.1961145700288376
 40
0.2242684465170438
 40
0.2526955250935034
 40
0.2812874666583754
 40
0.3099320818104692
 40
0.3380070243504558
 40
0.3659172079184453
 40
0.3935601984331244
 40
0.4208394393449397
 40
0.448618009521308
 40
0.4767718860095142
 40
0.5051989645859737
 40
0.5337909061508456
 40
0.5624355213029393
 40
0.590510463842926
 40
0.6184206474109156
 40
0.6460636379255944
 40
0.6733428788374099
 40
0.7011214490137779
 40
0.7292753255019841
 40
0.7577024040784436
 40
0.7862943456433157
 40
0.8149389607954095
 40
0.8430139033353961
 40
0.8709240869033855
 40
0.8985670774180645
 40
0.9258463183298799
 40
0.953624888506248
 40
0.9817787649944543
 40
1.0
 40
1.0
 40
1.0
 40
1.0
 10
2248.943810120292
 20
911.9479481169816
 30
0.0
 10
2248.943914926057
 20
911.9479000857721
 30
0.0
 10
2248.95962006979
 20
911.9407026090527
 30
0.0
 10
2248.904572279098
 20
911.9260806554605
 30
0.0
 10
2248.771659129147
 20
911.9044204780044
 30
0.0
 10
2248.53690622135
 20
911.8829834372716
 30
0.0
 10
2248.220467993779
 20
911.8620724628069
 30
0.0
 10
2247.822637747336
 20
911.8417082196362
 30
0.0
 10
2247.346040558186
 20
911.8221056105959
 30
0.0
 10
2246.789612581004
 20
911.8023750557838
 30
0.0
 10
2246.150646225847
 20
911.7816218785426
 30
0.0
 10
2245.434001305
 20
911.7603065958403
 30
0.0
 10
2244.646395639989
 20
911.7386035352232
 30
0.0
 10
2243.801413245023
 20
911.7169144769544
 30
0.0
 10
2242.910203776773
 20
911.6954850217089
 30
0.0
 10
2241.984538705603
 20
911.6745720436599
 30
0.0
 10
2241.030325699421
 20
911.6542083297805
 30
0.0
 10
2240.047752881828
 20
911.6346055806632
 30
0.0
 10
2239.036132992021
 20
911.6148750639846
 30
0.0
 10
2237.994624483125
 20
911.5941218763094
 30
0.0
 10
2236.934889385959
 20
911.5728065964452
 30
0.0
 10
2235.869107939448
 20
911.5511035350605
 30
0.0
 10
2234.816155845332
 20
911.529414476997
 30
0.0
 10
2233.788152802746
 20
911.507985021698
 30
0.0
 10
2232.796135647985
 20
911.487072043662
 30
0.0
 10
2231.844337772507
 20
911.4667083297836
 30
0.0
 10
2230.931411397583
 20
911.4471055806493
 30
0.0
 10
2230.057180743613
 20
911.4273750640382
 30
0.0
 10
2229.223235014446
 20
911.4066218761049
 30
0.0
 10
2228.441186991906
 20
911.3853065972186
 30
0.0
 10
2227.721551452766
 20
911.3636035321542
 30
0.0
 10
2227.077430450771
 20
911.3419144877719
 30
0.0
 10
2226.514839439998
 20
911.3204849824755
 30
0.0
 10
2226.037523857751
 20
911.2995721885933
 30
0.0
 10
2225.645899304299
 20
911.2792077974974
 30
0.0
 10
2225.33663007826
 20
911.2596075538737
 30
0.0
 10
2225.114828074809
 20
911.239867503095
 30
0.0
 10
2224.983841638602
 20
911.221656955228
 30
0.0
 10
2224.967249290553
 20
911.2100290083754
 30
0.0
 10
2224.960729994677
 20
911.2054602742977
 30
0.0
  0
LINE
  5
331
330
2F4
100
AcDbEntity
  8
0
  6
Continuous
 62
     7
370
    15
100
AcDbLine
 10
2253.187293077159
 20
918.6070933075045
 30
0.0
 11
2253.187293077159
 21
914.3070933075044
 31
0.0
  0
LINE
  5
332
330
2F4
100
AcDbEntity
  8
0
  6
Continuous
 62
     7
370
    15
100
AcDbLine
 10
2246.681718544499
 20
914.3070933075044
 30
0.0
 11
2253.187293077159
 21
914.3070933075044
 31
0.0
  0
LINE
  5
333
330
2F4
100
AcDbEntity
  8
0
  6
Continuous
 62
     7
370
    15
100
AcDbLine
 10
2220.700956430965
 20
914.3070933075044
 30
0.0
 11
2220.700956430965
 21
918.6070933075045
 31
0.0
  0
LINE
  5
334
330
2F4
100
AcDbEntity
  8
0
  6
Continuous
 62
     7
370
    15
100
AcDbLine
 10
2220.700956430965
 20
914.3070933075044
 30
0.0
 11
2227.206530963625
 21
914.3070933075044
 31
0.0
  0
LINE
  5
335
330
2F4
100
AcDbEntity
  8
0
  6
Continuous
 62
     7
370
    15
100
AcDbLine
 10
2248.944124754062
 20
909.9070933075045
 30
0.0
 11
2224.944124754062
 21
909.9070933075045
 31
0.0
  0
LINE
  5
336
330
2F4
100
AcDbEntity
  8
0
  6
Continuous
 62
     7
370
    15
100
AcDbLine
 10
2228.070120628695
 20
927.0503375322373
 30
0.0
 11
2245.818128879429
 21
927.0503375322373
 31
0.0
  0
SPLINE
  5
337
330
2F4
100
AcDbEntity
  8
0
  6
Continuous
 62
     7
370
    15
100
AcDbSpline
210
0.0
220
0.0
230
1.0
 70
    24
 71
     3
 72
    14
 73
    10
 74
     0
 42
0.0000000001
 43
0.0000000001
 40
0.0
 40
0.0
 40
0.0
 40
0.0
 40
0.25
 40
0.25
 40
0.5
 40
0.5
 40
0.75
 40
0.75
 40
1.0
 40
1.0
 40
1.0
 40
1.0
 10
2244.828441508549
 20
927.9070933075045
 30
0.0
 10
2244.828441508549
 20
927.9070933075045
 30
0.0
 10
2243.997732961397
 20
927.9070933075045
 30
0.0
 10
2241.040624230969
 20
927.9070933075045
 30
0.0
 10
2239.035116390054
 20
927.9070933075045
 30
0.0
 10
2234.85313311807
 20
927.9070933075045
 30
0.0
 10
2232.847625277156
 20
927.9070933075045
 30
0.0
 10
2229.890516546728
 20
927.9070933075045
 30
0.0
 10
2229.059807999576
 20
927.9070933075045
 30
0.0
 10
2229.059807999576
 20
927.9070933075045
 30
0.0
  0
LINE
  5
338
330
2F4
100
AcDbEntity
  8
0
  6
Continuous
 62
     7
370
    15
100
AcDbLine
 10
2220.594124754062
 20
914.3070933075044
 30
0.0
 11
2220.700956430965
 21
914.3070933075044
 31
0.0
  0
LINE
  5
339
330
2F4
100
AcDbEntity
  8
0
  6
Continuous
 62
     7
370
    15
100
AcDbLine
 10
2253.187293077159
 20
914.3070933075044
 30
0.0
 11
2253.294124754062
 21
914.3070933075044
 31
0.0
  0
ENDBLK
  5
2F6
330
2F4
100
AcDbEntity
  8
0
100
AcDbBlockEnd
  0
BLOCK
  5
33C
330
33B
100
AcDbEntity
  8
0
100
AcDbBlockBegin
  2
2
 70
     0
 10
0.0
 20
0.0
 30
0.0
  3
2
  1

  0
CIRCLE
  5
33E
330
33B
100
AcDbEntity
  8
0
  6
Continuous
 62
     7
370
    15
100
AcDbCircle
 10
2242.444124754062
 20
878.4067225948213
 30
0.0
 40
1.5
  0
CIRCLE
  5
33F
330
33B
100
AcDbEntity
  8
0
  6
Continuous
 62
     7
370
    15
100
AcDbCircle
 10
2236.944124754062
 20
883.9067225948213
 30
0.0
 40
1.5
  0
CIRCLE
  5
340
330
33B
100
AcDbEntity
  8
0
  6
Continuous
 62
     7
370
    15
100
AcDbCircle
 10
2236.944124754062
 20
872.9067225948213
 30
0.0
 40
1.5
  0
CIRCLE
  5
341
330
33B
100
AcDbEntity
  8
0
  6
Continuous
 62
     7
370
    15
100
AcDbCircle
 10
2231.444124754062
 20
878.4067225948213
 30
0.0
 40
1.5
  0
SPLINE
  5
342
330
33B
100
AcDbEntity
  8
0
  6
Continuous
 62
     7
370
    15
100
AcDbSpline
210
0.0
220
0.0
230
1.0
 70
     8
 71
     3
 72
    14
 73
    10
 74
     0
 42
0.0000000001
 43
0.0000000001
 40
0.0
 40
0.0
 40
0.0
 40
0.0
 40
0.25
 40
0.25
 40
0.5
 40
0.5
 40
0.75
 40
0.75
 40
1.0
 40
1.0
 40
1.0
 40
1.0
 10
2244.828441508549
 20
878.4067225948213
 30
0.0
 10
2244.828441508549
 20
876.3157309588295
 30
0.0
 10
2243.997732961397
 20
874.3102231179149
 30
0.0
 10
2241.040624230969
 20
871.3531143874869
 30
0.0
 10
2239.035116390054
 20
870.5224058403343
 30
0.0
 10
2234.85313311807
 20
870.5224058403343
 30
0.0
 10
2232.847625277156
 20
871.3531143874869
 30
0.0
 10
2229.890516546728
 20
874.3102231179149
 30
0.0
 10
2229.059807999576
 20
876.3157309588295
 30
0.0
 10
2229.059807999576
 20
878.4067225948213
 30
0.0
  0
SPLINE
  5
343
330
33B
100
AcDbEntity
  8
0
  6
Continuous
 62
     7
370
    15
100
AcDbSpline
210
0.0
220
0.0
230
1.0
 70
     8
 71
     3
 72
    14
 73
    10
 74
     0
 42
0.0000000001
 43
0.0000000001
 40
0.0
 40
0.0
 40
0.0
 40
0.0
 40
0.25
 40
0.25
 40
0.5
 40
0.5
 40
0.75
 40
0.75
 40
1.0
 40
1.0
 40
1.0
 40
1.0
 10
2229.059807999576
 20
878.4067225948213
 30
0.0
 10
2229.059807999576
 20
880.4977142308128
 30
0.0
 10
2229.890516546728
 20
882.5032220717277
 30
0.0
 10
2232.847625277156
 20
885.4603308021557
 30
0.0
 10
2234.85313311807
 20
886.2910393493082
 30
0.0
 10
2239.035116390054
 20
886.2910393493082
 30
0.0
 10
2241.040624230969
 20
885.4603308021557
 30
0.0
 10
2243.997732961397
 20
882.5032220717277
 30
0.0
 10
2244.828441508549
 20
880.4977142308128
 30
0.0
 10
2244.828441508549
 20
878.4067225948213
 30
0.0
  0
CIRCLE
  5
344
330
33B
100
AcDbEntity
  8
0
  6
Continuous
 62
     7
370
    15
100
AcDbCircle
 10
2236.944124754062
 20
878.4067225948213
 30
0.0
 40
8.874004125367633
  0
CIRCLE
  5
345
330
33B
100
AcDbEntity
  8
0
  6
Continuous
 62
     7
370
    15
100
AcDbCircle
 10
2236.944124754062
 20
878.4067225948213
 30
0.0
 40
9.849999999999994
  0
ARC
  5
346
330
33B
100
AcDbEntity
  8
0
  6
Continuous
 62
     7
370
    15
100
AcDbCircle
 10
2236.944124754062
 20
878.4067225948213
 30
0.0
 40
16.35000000000001
100
AcDbArc
 50
53.44661725504351
 51
66.55338274495879
  0
SPLINE
  5
347
330
33B
100
AcDbEntity
  8
0
  6
Continuous
 62
     7
370
    15
100
AcDbSpline
210
0.0
220
0.0
230
1.0
 70
    24
 71
     3
 72
     9
 73
     5
 74
     0
 42
0.0000000001
 43
0.0000000001
 40
0.0
 40
0.0
 40
0.0
 40
0.0
 40
0.5
 40
1.0
 40
1.0
 40
1.0
 40
1.0
 10
2253.187293077159
 20
880.2727297833243
 30
0.0
 10
2252.103030655049
 20
882.1507273871565
 30
0.0
 10
2249.934505810828
 20
885.9067225948212
 30
0.0
 10
2247.765980966608
 20
889.6627178024859
 30
0.0
 10
2246.681718544499
 20
891.5407154063183
 30
0.0
  0
ARC
  5
348
330
33B
100
AcDbEntity
  8
0
  6
Continuous
 62
     7
370
    15
100
AcDbCircle
 10
2236.944124754062
 20
878.4067225948213
 30
0.0
 40
16.35
100
AcDbArc
 50
353.4466172550462
 51
6.553382744953731
  0
SPLINE
  5
349
330
33B
100
AcDbEntity
  8
0
  6
Continuous
 62
     7
370
    15
100
AcDbSpline
210
0.0
220
0.0
230
1.0
 70
    24
 71
     3
 72
     9
 73
     5
 74
     0
 42
0.0000000001
 43
0.0000000001
 40
0.0
 40
0.0
 40
0.0
 40
0.0
 40
0.5
 40
1.0
 40
1.0
 40
1.0
 40
1.0
 10
2246.681718544499
 20
865.2727297833243
 30
0.0
 10
2247.765980966608
 20
867.1507273871567
 30
0.0
 10
2249.934505810828
 20
870.9067225948214
 30
0.0
 10
2252.103030655049
 20
874.662717802486
 30
0.0
 10
2253.187293077159
 20
876.5407154063183
 30
0.0
  0
ARC
  5
34A
330
33B
100
AcDbEntity
  8
0
  6
Continuous
 62
     7
370
    15
100
AcDbCircle
 10
2236.944124754062
 20
878.4067225948213
 30
0.0
 40
16.34999999999998
100
AcDbArc
 50
293.4466172550412
 51
306.5533827449565
  0
SPLINE
  5
34B
330
33B
100
AcDbEntity
  8
0
  6
Continuous
 62
     7
370
    15
100
AcDbSpline
210
0.0
220
0.0
230
1.0
 70
    24
 71
     3
 72
    10
 73
     6
 74
     0
 42
0.0000000001
 43
0.0000000001
 40
0.0
 40
0.0
 40
0.0
 40
0.0
 40
0.5
 40
0.5
 40
1.0
 40
1.0
 40
1.0
 40
1.0
 10
2230.438550221402
 20
863.4067225948212
 30
0.0
 10
2232.607123206271
 20
863.4067225948212
 30
0.0
 10
2234.776642720265
 20
863.4067225948212
 30
0.0
 10
2239.113793813374
 20
863.4067225948212
 30
0.0
 10
2241.28191973041
 20
863.4067225948212
 30
0.0
 10
2243.449699286722
 20
863.4067225948212
 30
0.0
  0
ARC
  5
34C
330
33B
100
AcDbEntity
  8
0
  6
Continuous
 62
     7
370
    15
100
AcDbCircle
 10
2236.944124754062
 20
878.4067225948213
 30
0.0
 40
16.34999999999999
100
AcDbArc
 50
233.4466172550435
 51
246.5533827449588
  0
SPLINE
  5
34D
330
33B
100
AcDbEntity
  8
0
  6
Continuous
 62
     7
370
    15
100
AcDbSpline
210
0.0
220
0.0
230
1.0
 70
    24
 71
     3
 72
     9
 73
     5
 74
     0
 42
0.0000000001
 43
0.0000000001
 40
0.0
 40
0.0
 40
0.0
 40
0.0
 40
0.5
 40
1.0
 40
1.0
 40
1.0
 40
1.0
 10
2220.700956430965
 20
876.5407154063181
 30
0.0
 10
2221.785218853075
 20
874.6627178024859
 30
0.0
 10
2223.953743697296
 20
870.9067225948214
 30
0.0
 10
2226.122268541516
 20
867.1507273871567
 30
0.0
 10
2227.206530963625
 20
865.2727297833243
 30
0.0
  0
ARC
  5
34E
330
33B
100
AcDbEntity
  8
0
  6
Continuous
 62
     7
370
    15
100
AcDbCircle
 10
2236.944124754062
 20
878.4067225948213
 30
0.0
 40
16.35000000000001
100
AcDbArc
 50
173.4466172550463
 51
186.5533827449537
  0
SPLINE
  5
34F
330
33B
100
AcDbEntity
  8
0
  6
Continuous
 62
     7
370
    15
100
AcDbSpline
210
0.0
220
0.0
230
1.0
 70
    24
 71
     3
 72
     9
 73
     5
 74
     0
 42
0.0000000001
 43
0.0000000001
 40
0.0
 40
0.0
 40
0.0
 40
0.0
 40
0.5
 40
1.0
 40
1.0
 40
1.0
 40
1.0
 10
2227.206530963625
 20
891.5407154063181
 30
0.0
 10
2226.122268541516
 20
889.6627178024859
 30
0.0
 10
2223.953743697296
 20
885.9067225948212
 30
0.0
 10
2221.785218853075
 20
882.1507273871565
 30
0.0
 10
2220.700956430965
 20
880.2727297833243
 30
0.0
  0
ARC
  5
350
330
33B
100
AcDbEntity
  8
0
  6
Continuous
 62
     7
370
    15
100
AcDbCircle
 10
2236.944124754062
 20
878.4067225948213
 30
0.0
 40
16.35
100
AcDbArc
 50
113.4466172550412
 51
126.5533827449565
  0
SPLINE
  5
351
330
33B
100
AcDbEntity
  8
0
  6
Continuous
 62
     7
370
    15
100
AcDbSpline
210
0.0
220
0.0
230
1.0
 70
    24
 71
     3
 72
    10
 73
     6
 74
     0
 42
0.0000000001
 43
0.0000000001
 40
0.0
 40
0.0
 40
0.0
 40
0.0
 40
0.5
 40
0.5
 40
1.0
 40
1.0
 40
1.0
 40
1.0
 10
2243.449699286722
 20
893.4067225948213
 30
0.0
 10
2241.28191973041
 20
893.4067225948213
 30
0.0
 10
2239.113793813374
 20
893.4067225948213
 30
0.0
 10
2234.776642720265
 20
893.4067225948213
 30
0.0
 10
2232.607123206271
 20
893.4067225948213
 30
0.0
 10
2230.438550221402
 20
893.4067225948213
 30
0.0
  0
INSERT
  5
352
330
33B
100
AcDbEntity
  8
0
  6
Continuous
 62
     7
370
     0
100
AcDbBlockReference
  2
SW_CENTERMARKSYMBOL_0
 10
2236.944124754062
 20
878.4067225948213
 30
0.0
  0
INSERT
  5
353
330
33B
100
AcDbEntity
  8
0
  6
Continuous
 62
     7
370
     0
100
AcDbBlockReference
  2
SW_CENTERMARKSYMBOL_1
 10
2242.444124754062
 20
878.4067225948213
 30
0.0
  0
INSERT
  5
354
330
33B
100
AcDbEntity
  8
0
  6
Continuous
 62
     7
370
     0
100
AcDbBlockReference
  2
SW_CENTERMARKSYMBOL_2
 10
2236.944124754062
 20
883.9067225948213
 30
0.0
  0
INSERT
  5
355
330
33B
100
AcDbEntity
  8
0
  6
Continuous
 62
     7
370
     0
100
AcDbBlockReference
  2
SW_CENTERMARKSYMBOL_3
 10
2236.944124754062
 20
872.9067225948213
 30
0.0
  0
INSERT
  5
356
330
33B
100
AcDbEntity
  8
0
  6
Continuous
 62
     7
370
     0
100
AcDbBlockReference
  2
SW_CENTERMARKSYMBOL_4
 10
2231.444124754062
 20
878.4067225948213
 30
0.0
  0
ENDBLK
  5
33D
330
33B
100
AcDbEntity
  8
0
100
AcDbBlockEnd
  0
BLOCK
  5
359
330
358
100
AcDbEntity
  8
0
100
AcDbBlockBegin
  2
3
 70
     0
 10
0.0
 20
0.0
 30
0.0
  3
3
  1

  0
LINE
  5
35B
330
358
100
AcDbEntity
  8
0
  6
Continuous
 62
     7
370
    15
100
AcDbLine
 10
2304.118661121856
 20
918.2886879233297
 30
0.0
 11
2302.871545616838
 21
924.9274279482284
 31
0.0
  0
LINE
  5
35C
330
358
100
AcDbEntity
  8
0
  6
Continuous
 62
     7
370
    15
100
AcDbLine
 10
2285.192496751758
 20
924.1997208251397
 30
0.0
 11
2284.495204916416
 21
917.4809448728243
 31
0.0
  0
SPLINE
  5
35D
330
358
100
AcDbEntity
  8
0
  6
Continuous
 62
     7
370
    15
100
AcDbSpline
210
0.0
220
0.0
230
1.0
 70
     8
 71
     3
 72
    36
 73
    32
 74
     0
 42
0.0000000001
 43
0.0000000001
 40
0.0
 40
0.0
 40
0.0
 40
0.0
 40
0.0410881188227761
 40
0.0577442492765186
 40
0.0853745644314281
 40
0.1140302230007463
 40
0.1447366759012156
 40
0.1767434018417884
 40
0.2097506872329881
 40
0.2435210983358528
 40
0.2778885835742711
 40
0.3127326726063022
 40
0.347964864833418
 40
0.3835191906480874
 40
0.4193457013105072
 40
0.4554057442715249
 40
0.4916683055093526
 40
0.528106932432872
 40
0.5646969096387588
 40
0.6014124968984559
 40
0.6382184771588399
 40
0.6750673513304771
 40
0.7119106171038075
 40
0.7486921668914519
 40
0.7853527052318345
 40
0.8218373155124526
 40
0.8581057378892301
 40
0.8941430995896764
 40
0.9299682954647236
 40
0.9656380276995339
 40
1.0
 40
1.0
 40
1.0
 40
1.0
 10
2293.836992860383
 20
929.3016278688726
 30
0.0
 10
2293.663030951544
 20
929.2928851863623
 30
0.0
 10
2293.418549088744
 20
929.2805984316341
 30
0.0
 10
2293.058524040907
 20
929.2509155846145
 30
0.0
 10
2292.751926589795
 20
929.220472984154
 30
0.0
 10
2292.388466282953
 20
929.1757224528121
 30
0.0
 10
2292.009793359908
 20
929.1196711268693
 30
0.0
 10
2291.617282465084
 20
929.0509717232854
 30
0.0
 10
2291.217557261446
 20
928.9695478857026
 30
0.0
 10
2290.814821694715
 20
928.8752639921233
 30
0.0
 10
2290.412516818505
 20
928.7681176839079
 30
0.0
 10
2290.013443130335
 20
928.6481747482023
 30
0.0
 10
2289.619956307137
 20
928.515554566098
 30
0.0
 10
2289.234085236123
 20
928.3704137070648
 30
0.0
 10
2288.857613920023
 20
928.2129341222027
 30
0.0
 10
2288.492140070565
 20
928.0433138744593
 30
0.0
 10
2288.139119654494
 20
927.8617607155895
 30
0.0
 10
2287.799903200744
 20
927.6684889579401
 30
0.0
 10
2287.475767353105
 20
927.4637206212604
 30
0.0
 10
2287.16795923999
 20
927.2477032978208
 30
0.0
 10
2286.87773214564
 20
927.0207387953483
 30
0.0
 10
2286.606335864076
 20
926.7831942720636
 30
0.0
 10
2286.355008132298
 20
926.5355152273334
 30
0.0
 10
2286.124953003229
 20
926.2782310840115
 30
0.0
 10
2285.917339620705
 20
926.0119783725523
 30
0.0
 10
2285.7332421151
 20
925.7374945569397
 30
0.0
 10
2285.573696187897
 20
925.4555833222092
 30
0.0
 10
2285.439354518137
 20
925.1671106559458
 30
0.0
 10
2285.331713499646
 20
924.8728450106343
 30
0.0
 10
2285.249607693041
 20
924.5773677232712
 30
0.0
 10
2285.21811295781
 20
924.3784294108765
 30
0.0
 10
2285.202659653814
 20
924.2808177244928
 30
0.0
  0
SPLINE
  5
35E
330
358
100
AcDbEntity
  8
0
  6
Continuous
 62
     7
370
    15
100
AcDbSpline
210
0.0
220
0.0
230
1.0
 70
     8
 71
     3
 72
    35
 73
    31
 74
     0
 42
0.0000000001
 43
0.0000000001
 40
0.0
 40
0.0
 40
0.0
 40
0.0
 40
0.0124337737697438
 40
0.0499600321113947
 40
0.0883802579869178
 40
0.1278578708474041
 40
0.1641017099648486
 40
0.2008721408336319
 40
0.238122418732542
 40
0.2757760092906784
 40
0.3137373775847843
 40
0.3519071020594231
 40
0.3901941841290595
 40
0.4285231692658098
 40
0.4668269080155321
 40
0.5050598881021401
 40
0.5431988130023452
 40
0.5812269639517513
 40
0.6191312685399751
 40
0.6568984780989473
 40
0.694510679854409
 40
0.7319387524041056
 40
0.7691306438770893
 40
0.8059864657798861
 40
0.8422962551758701
 40
0.8775504055852771
 40
0.9101494828470872
 40
0.9363920160724964
 40
0.9596287646073577
 40
1.0
 40
1.0
 40
1.0
 40
1.0
 10
2302.852665370892
 20
925.0033969488036
 30
0.0
 10
2302.845965815863
 20
925.0384656821314
 30
0.0
 10
2302.819046395371
 20
925.1793750372153
 30
0.0
 10
2302.740173146366
 20
925.4226617518856
 30
0.0
 10
2302.614914941744
 20
925.7332510707605
 30
0.0
 10
2302.459699910915
 20
926.0297678091873
 30
0.0
 10
2302.280970822009
 20
926.3111815829701
 30
0.0
 10
2302.082076015342
 20
926.5760932653716
 30
0.0
 10
2301.857782203569
 20
926.8328153493467
 30
0.0
 10
2301.60887136645
 20
927.0802132729571
 30
0.0
 10
2301.336433623521
 20
927.3172380948135
 30
0.0
 10
2301.04172876914
 20
927.5429687952073
 30
0.0
 10
2300.726130561291
 20
927.7566488166041
 30
0.0
 10
2300.391077607948
 20
927.9576713538782
 30
0.0
 10
2300.038019583122
 20
928.1455734009711
 30
0.0
 10
2299.668368364155
 20
928.320020672915
 30
0.0
 10
2299.283468343785
 20
928.4807802288209
 30
0.0
 10
2298.884627792836
 20
928.6276780782833
 30
0.0
 10
2298.473181040297
 20
928.7605659216611
 30
0.0
 10
2298.05052210071
 20
928.8793135469083
 30
0.0
 10
2297.618157049005
 20
928.983805288637
 30
0.0
 10
2297.177792693078
 20
929.0739399018782
 30
0.0
 10
2296.731513303034
 20
929.149633921887
 30
0.0
 10
2296.282193948544
 20
929.2108231089367
 30
0.0
 10
2295.83466555784
 20
929.2574760942322
 30
0.0
 10
2295.400115651883
 20
929.2895342419969
 30
0.0
 10
2295.00459419008
 20
929.3075803265612
 30
0.0
 10
2294.658040005476
 20
929.3148350494472
 30
0.0
 10
2294.277727933213
 20
929.315750884966
 30
0.0
 10
2294.008113777499
 20
929.3071113069181
 30
0.0
 10
2293.836992860383
 20
929.3016278688726
 30
0.0
  0
ARC
  5
35F
330
358
100
AcDbEntity
  8
0
  6
Continuous
 62
     7
370
    15
100
AcDbCircle
 10
2305.283034374967
 20
917.3819871306811
 30
0.0
 40
5.418070140896309
100
AcDbArc
 50
11.34225647958852
 51
33.63197072188654
  0
SPLINE
  5
360
330
358
100
AcDbEntity
  8
0
  6
Continuous
 62
     7
370
    15
100
AcDbSpline
210
0.0
220
0.0
230
1.0
 70
     8
 71
     3
 72
     9
 73
     5
 74
     0
 42
0.0000000001
 43
0.0000000001
 40
0.0
 40
0.0
 40
0.0
 40
0.0
 40
0.5
 40
1.0
 40
1.0
 40
1.0
 40
1.0
 10
2306.664122980125
 20
911.6676719317217
 30
0.0
 10
2307.317150009849
 20
912.8503052233487
 30
0.0
 10
2308.625091381774
 20
915.1697210948981
 30
0.0
 10
2309.937927322322
 20
917.3702274284007
 30
0.0
 10
2310.595288948834
 20
918.4475552392996
 30
0.0
  0
ARC
  5
361
330
358
100
AcDbEntity
  8
0
  6
Continuous
 62
     7
370
    15
100
AcDbCircle
 10
2297.246901867509
 20
926.4034555691427
 30
0.0
 40
17.4879207710002
100
AcDbArc
 50
292.3963025038034
 51
302.5814914311171
  0
SPLINE
  5
362
330
358
100
AcDbEntity
  8
0
  6
Continuous
 62
     7
370
    15
100
AcDbSpline
210
0.0
220
0.0
230
1.0
 70
     8
 71
     3
 72
     9
 73
     5
 74
     0
 42
0.0000000001
 43
0.0000000001
 40
0.0
 40
0.0
 40
0.0
 40
0.0
 40
0.5
 40
1.0
 40
1.0
 40
1.0
 40
1.0
 10
2291.210153471341
 20
908.3610664805174
 30
0.0
 10
2293.324625094565
 20
908.7259811005335
 30
0.0
 10
2297.555455653489
 20
909.4099596288613
 30
0.0
 10
2301.791180781034
 20
909.9750286191421
 30
0.0
 10
2303.909987001046
 20
910.2346377584302
 30
0.0
  0
ARC
  5
363
330
358
100
AcDbEntity
  8
0
  6
Continuous
 62
     7
370
    15
100
AcDbCircle
 10
2293.206187954351
 20
935.3255395723969
 30
0.0
 40
27.03824999477697
100
AcDbArc
 50
258.1522450533844
 51
265.766424084926
  0
SPLINE
  5
364
330
358
100
AcDbEntity
  8
0
  6
Continuous
 62
     7
370
    15
100
AcDbSpline
210
0.0
220
0.0
230
1.0
 70
     8
 71
     3
 72
    10
 73
     6
 74
     0
 42
0.0000000001
 43
0.0000000001
 40
0.0
 40
0.0
 40
0.0
 40
0.0
 40
0.5
 40
0.5
 40
1.0
 40
1.0
 40
1.0
 40
1.0
 10
2278.886247316513
 20
913.7696081218434
 30
0.0
 10
2280.34555700717
 20
913.0045252063451
 30
0.0
 10
2281.806447952316
 20
912.2161673197444
 30
0.0
 10
2284.729406273649
 20
910.5806724441629
 30
0.0
 10
2286.19180600602
 20
909.7333683711779
 30
0.0
 10
2287.654914877508
 20
908.8632960921783
 30
0.0
  0
ARC
  5
365
330
358
100
AcDbEntity
  8
0
  6
Continuous
 62
     7
370
    15
100
AcDbCircle
 10
2283.397399275624
 20
916.7704400154139
 30
0.0
 40
5.418070140895467
100
AcDbArc
 50
191.3422564795885
 51
213.631970721892
  0
SPLINE
  5
366
330
358
100
AcDbEntity
  8
0
  6
Continuous
 62
     7
370
    15
100
AcDbSpline
210
0.0
220
0.0
230
1.0
 70
     8
 71
     3
 72
     9
 73
     5
 74
     0
 42
0.0000000001
 43
0.0000000001
 40
0.0
 40
0.0
 40
0.0
 40
0.0
 40
0.5
 40
1.0
 40
1.0
 40
1.0
 40
1.0
 10
2282.016310670468
 20
922.4847552143735
 30
0.0
 10
2281.358949043956
 20
921.4074274034746
 30
0.0
 10
2280.046113103409
 20
919.2069210699722
 30
0.0
 10
2278.738171731483
 20
916.8875051984228
 30
0.0
 10
2278.085144701759
 20
915.7048719067958
 30
0.0
  0
ARC
  5
367
330
358
100
AcDbEntity
  8
0
  6
Continuous
 62
     7
370
    15
100
AcDbCircle
 10
2291.433531783082
 20
907.7489715769557
 30
0.0
 40
17.4879207709967
100
AcDbArc
 50
112.3963025038033
 51
122.5814914311171
  0
LINE
  5
368
330
358
100
AcDbEntity
  8
0
  6
Continuous
 62
     7
370
    15
100
AcDbLine
 10
2285.170160878832
 20
923.9845028657697
 30
0.0
 11
2284.770446649547
 21
923.9177893876652
 31
0.0
  0
SPLINE
  5
369
330
358
100
AcDbEntity
  8
0
  6
Continuous
 62
     7
370
    15
100
AcDbSpline
210
0.0
220
0.0
230
1.0
 70
     8
 71
     3
 72
    11
 73
     7
 74
     0
 42
0.0000000001
 43
0.0000000001
 40
0.0
 40
0.0
 40
0.0
 40
0.0
 40
0.2823572397787358
 40
0.5647565424348264
 40
0.8472980138395238
 40
1.0
 40
1.0
 40
1.0
 40
1.0
 10
2309.794186334079
 20
920.382819024252
 30
0.0
 10
2309.154357885513
 20
920.7609913891795
 30
0.0
 10
2307.874605672865
 20
921.5173924555317
 30
0.0
 10
2305.955621435638
 20
922.6139576318045
 30
0.0
 10
2304.331065761589
 20
923.5209894998488
 30
0.0
 10
2303.346866230013
 20
924.0497695374454
 30
0.0
 10
2303.001567017267
 20
924.2352881491086
 30
0.0
  0
LWPOLYLINE
  5
36A
330
358
100
AcDbEntity
  8
0
  6
Continuous
 62
     7
370
    15
100
AcDbPolyline
 90
       18
 70
   128
 43
0.0
 10
2300.962148927904
 20
913.7585691851544
 10
2301.37357634083
 20
913.9847710682326
 10
2301.761149846956
 20
914.2227755354536
 10
2302.123558020221
 20
914.4717772550389
 10
2302.459574586084
 20
914.7309336839892
 10
2302.76806257085
 20
914.9993679189828
 10
2303.047978148828
 20
915.2761716635394
 10
2303.298374174309
 20
915.5604083014074
 10
2303.5184033864
 20
915.8511160657774
 10
2303.707321275899
 20
916.1473112935963
 10
2303.864488604468
 20
916.4479917539713
 10
2303.989373567617
 20
916.7521400394029
 10
2304.081553594161
 20
917.0587270083686
 10
2304.140716776071
 20
917.366715267614
 10
2304.166662923865
 20
917.6750626823602
 10
2304.159304243994
 20
917.9827259025616
 10
2304.1186656359
 20
918.2886638932693
 10
2304.118661121856
 20
918.2886879233297
  0
LWPOLYLINE
  5
36B
330
358
100
AcDbEntity
  8
0
  6
Continuous
 62
     7
370
    15
100
AcDbPolyline
 90
       42
 70
   128
 43
0.0
 10
2284.495204916416
 20
917.4809448728243
 10
2284.48111722514
 20
917.2706545551308
 10
2284.488475905011
 20
916.9629913349295
 10
2284.529114513105
 20
916.657053344222
 10
2284.602895541235
 20
916.3538757803262
 10
2284.709569337758
 20
916.0544845001499
 10
2284.848774952313
 20
915.7598925490155
 10
2285.020041357164
 20
915.4710967328341
 10
2285.222789041011
 20
915.1890742452321
 10
2285.456331969869
 20
914.914779361035
 10
2285.719879908394
 20
914.6491402073051
 10
2286.012541093786
 20
914.3930556228527
 10
2286.333325253234
 20
914.1473921168497
 10
2286.681146954682
 20
913.9129809368375
 10
2287.054829279595
 20
913.6906152560481
 10
2287.453107805272
 20
913.4810474895571
 10
2287.874634883252
 20
913.2849867483495
 10
2288.317984199335
 20
913.1030964399114
 10
2288.781655599776
 20
912.935992023471
 10
2289.264080167327
 20
912.7842389274778
 10
2289.763625529957
 20
912.6483506363724
 10
2290.27860138429
 20
912.5287869531172
 10
2290.807265215043
 20
912.4259524433696
 10
2291.347828191161
 20
912.3401950665588
 10
2291.89846121864
 20
912.2718049985024
 10
2292.457301129617
 20
912.2210136495423
 10
2293.022456986729
 20
912.1879928815255
 10
2293.59201648145
 20
912.1728544262786
 10
2294.164052404742
 20
912.1756495075423
 10
2294.736629168112
 20
912.1963686676464
 10
2295.307809353039
 20
912.2349417995115
 10
2295.87566026658
 20
912.2912383838693
 10
2296.438260480992
 20
912.3650679308989
 10
2296.993706335237
 20
912.4561806247829
 10
2297.540118376366
 20
912.5642681690067
 10
2298.075647718994
 20
912.6889648295346
 10
2298.598482301344
 20
912.8298486723393
 10
2299.106853016689
 20
912.9864429910925
 10
2299.599039699449
 20
913.1582179201885
 10
2300.073376945687
 20
913.3445922276409
 10
2300.528259748311
 20
913.5449352817891
 10
2300.962148927904
 20
913.7585691851544
  0
LINE
  5
36C
330
358
100
AcDbEntity
  8
0
  6
Continuous
 62
     7
370
    15
100
AcDbLine
 10
2303.909987001046
 20
910.2346377584302
 30
0.0
 11
2304.059165535364
 21
906.6104673825272
 31
0.0
  0
LINE
  5
36D
330
358
100
AcDbEntity
  8
0
  6
Continuous
 62
     7
370
    15
100
AcDbLine
 10
2291.35933200566
 20
904.7368961046144
 30
0.0
 11
2304.059165535364
 21
906.6104673825272
 31
0.0
  0
LINE
  5
36E
330
358
100
AcDbEntity
  8
0
  6
Continuous
 62
     7
370
    15
100
AcDbLine
 10
2291.35933200566
 20
904.7368961046144
 30
0.0
 11
2291.210153471341
 21
908.3610664805174
 31
0.0
  0
LWPOLYLINE
  5
36F
330
358
100
AcDbEntity
  8
0
  6
Continuous
 62
     7
370
    15
100
AcDbPolyline
 90
       17
 70
   128
 43
0.0
 10
2300.027799197458
 20
920.8461799917843
 10
2300.415916104847
 20
921.0601374395606
 10
2300.780341334723
 20
921.2857472429851
 10
2301.119719201297
 20
921.5221701187704
 10
2301.432787196615
 20
921.7685265582911
 10
2301.71838068717
 20
922.0239000994109
 10
2301.975437246422
 20
922.2873407357839
 10
2302.203000607085
 20
922.55786845094
 10
2302.40022421851
 20
922.8344768640109
 10
2302.566374395912
 20
923.1161369735316
 10
2302.700833049716
 20
923.4018009853954
 10
2302.8030999849
 20
923.6904062107162
 10
2302.872794761746
 20
923.9808790190995
 10
2302.90965811111
 20
924.27213883262
 10
2302.913552898907
 20
924.5631021456418
 10
2302.884464636274
 20
924.8526865555293
 10
2302.856414558521
 20
925.0020021713048
  0
LWPOLYLINE
  5
370
330
358
100
AcDbEntity
  8
0
  6
Continuous
 62
     7
370
    15
100
AcDbPolyline
 90
       41
 70
   128
 43
0.0
 10
2285.201830295206
 20
924.2781479834809
 10
2285.199254263484
 20
924.2583933613335
 10
2285.178865711855
 20
923.9671463343006
 10
2285.191468310948
 20
923.6767373988941
 10
2285.237015178267
 20
923.3882468954284
 10
2285.315336876475
 20
923.1027480275241
 10
2285.426142043709
 20
922.8213028697213
 10
2285.56901847747
 20
922.544958416493
 10
2285.74343466804
 20
922.2747426873551
 10
2285.948741775735
 20
922.011660902568
 10
2286.184176044629
 20
921.7566917436503
 10
2286.448861643779
 20
921.5107837126195
 10
2286.741813925371
 20
921.2748516035025
 10
2287.061943087676
 20
921.0497730992413
 10
2287.408058229186
 20
920.8363855066549
 10
2287.778871778839
 20
920.6354826416029
 10
2288.173004285876
 20
920.4478118759389
 10
2288.588989551486
 20
920.2740713572374
 10
2289.025280083157
 20
920.114907411639
 10
2289.480252851456
 20
919.9709121394755
 10
2289.952215327802
 20
919.8426212126172
 10
2290.439411780784
 20
919.7305118817375
 10
2290.940029807599
 20
919.6350012009114
 10
2291.452207076307
 20
919.5564444761442
 10
2291.974038253826
 20
919.4951339436119
 10
2292.503582093903
 20
919.4512976825224
 10
2293.038868658673
 20
919.425098766646
 10
2293.577906646957
 20
919.4166346576706
 10
2294.118690802033
 20
919.4259368426376
 10
2294.659209371328
 20
919.4529707168078
 10
2295.19745159026
 20
919.4976357123938
 10
2295.731415162425
 20
919.5597656726784
 10
2296.259113708262
 20
919.6391294701285
 10
2296.778584154523
 20
919.735431866205
 10
2297.287894037027
 20
919.8483146096696
 10
2297.78514868956
 20
919.9773577693022
 10
2298.268498292156
 20
920.1220812960734
 10
2298.736144752545
 20
920.2819468089581
 10
2299.186348395181
 20
920.4563595977486
 10
2299.617434432944
 20
920.6446708354148
 10
2300.027799197458
 20
920.8461799917843
  0
SPLINE
  5
371
330
358
100
AcDbEntity
  8
0
  6
Continuous
 62
     7
370
    15
100
AcDbSpline
210
0.0
220
0.0
230
1.0
 70
     8
 71
     3
 72
    14
 73
    10
 74
     0
 42
0.0000000001
 43
0.0000000001
 40
0.0
 40
0.0
 40
0.0
 40
0.0
 40
0.25
 40
0.25
 40
0.5
 40
0.5
 40
0.75
 40
0.75
 40
1.0
 40
1.0
 40
1.0
 40
1.0
 10
2288.704058584717
 20
927.8875948800335
 30
0.0
 10
2290.247159632805
 20
928.6905024167529
 30
0.0
 10
2292.287019205191
 20
929.1473376188903
 30
0.0
 10
2296.462192438579
 20
929.1677383454921
 30
0.0
 10
2298.426816917018
 20
928.7304698486709
 30
0.0
 10
2301.245201432756
 20
927.1535057594746
 30
0.0
 10
2301.983740442747
 20
926.0782795187337
 30
0.0
 10
2301.794364815499
 20
923.8277147898154
 30
0.0
 10
2300.874192221332
 20
922.7443837543615
 30
0.0
 10
2299.331091173244
 20
921.9414762176423
 30
0.0
  0
SPLINE
  5
372
330
358
100
AcDbEntity
  8
0
  6
Continuous
 62
     7
370
    15
100
AcDbSpline
210
0.0
220
0.0
230
1.0
 70
     8
 71
     3
 72
    14
 73
    10
 74
     0
 42
0.0000000001
 43
0.0000000001
 40
0.0
 40
0.0
 40
0.0
 40
0.0
 40
0.25
 40
0.25
 40
0.5
 40
0.5
 40
0.75
 40
0.75
 40
1.0
 40
1.0
 40
1.0
 40
1.0
 10
2299.331091173244
 20
921.9414762176423
 30
0.0
 10
2297.787990125156
 20
921.1385686809228
 30
0.0
 10
2295.74813055277
 20
920.6817334787853
 30
0.0
 10
2291.572957319382
 20
920.6613327521834
 30
0.0
 10
2289.608332840944
 20
921.098601249005
 30
0.0
 10
2286.789948325205
 20
922.675565338201
 30
0.0
 10
2286.051409315214
 20
923.750791578942
 30
0.0
 10
2286.240784942462
 20
926.0013563078603
 30
0.0
 10
2287.160957536629
 20
927.0846873433141
 30
0.0
 10
2288.704058584717
 20
927.8875948800335
 30
0.0
  0
LINE
  5
373
330
358
100
AcDbEntity
  8
0
  6
Continuous
 62
     7
370
    15
100
AcDbLine
 10
2287.654914877508
 20
908.8632960921783
 30
0.0
 11
2287.804093411827
 21
905.2391257162753
 31
0.0
  0
ARC
  5
374
330
358
100
AcDbEntity
  8
0
  6
Continuous
 62
     7
370
    15
100
AcDbCircle
 10
2293.35536648867
 20
931.7013691964964
 30
0.0
 40
27.03824999477941
100
AcDbArc
 50
258.1522450533844
 51
265.766424084926
  0
LWPOLYLINE
  5
375
330
358
100
AcDbEntity
  8
0
  6
Continuous
 62
     7
370
    15
100
AcDbPolyline
 90
       43
 70
   128
 43
0.0
 10
2298.735119241804
 20
922.2749389970472
 10
2298.558843938169
 20
922.1954118024473
 10
2298.363924445196
 20
922.1302963050668
 10
2298.154714942265
 20
922.0810470775173
 10
2297.935888823962
 20
922.0487642661598
 10
2297.712334304172
 20
922.034169015655
 10
2297.489045221453
 20
922.0375873597806
 10
2297.271009484939
 20
922.0589429383778
 10
2297.063097652692
 20
922.0977587031098
 10
2296.869954131479
 20
922.1531675739333
 10
2296.695893428404
 20
922.2239318082349
 10
2296.544803771948
 20
922.3084706499545
 10
2296.420060255366
 20
922.4048956410644
 10
2296.324449442689
 20
922.5110528066005
 10
2296.260107121478
 20
922.6245707709043
 10
2296.228470592866
 20
922.7429137302362
 10
2296.230246564626
 20
922.86343809844
 10
2296.265395364482
 20
922.9834515602915
 10
2296.333131826328
 20
923.1002732133683
 10
2296.431942829537
 20
923.2112934549832
 10
2296.559621099578
 20
923.3140322763937
 10
2296.71331451488
 20
923.4061946621004
 10
2296.889589818515
 20
923.4857218567
 10
2297.084509311488
 20
923.5508373540806
 10
2297.293718814419
 20
923.6000865816302
 10
2297.512544932722
 20
923.6323693929875
 10
2297.736099452512
 20
923.6469646434924
 10
2297.959388535231
 20
923.6435462993668
 10
2298.177424271744
 20
923.6221907207697
 10
2298.385336103992
 20
923.5833749560377
 10
2298.578479625205
 20
923.5279660852141
 10
2298.75254032828
 20
923.4572018509124
 10
2298.903629984736
 20
923.3726630091929
 10
2299.028373501317
 20
923.276238018083
 10
2299.123984313995
 20
923.170080852547
 10
2299.188326635206
 20
923.056562888243
 10
2299.219963163818
 20
922.9382199289114
 10
2299.218187192058
 20
922.8176955607073
 10
2299.183038392202
 20
922.6976820988561
 10
2299.115301930356
 20
922.5808604457791
 10
2299.016490927147
 20
922.4698402041642
 10
2298.888812657106
 20
922.3671013827539
 10
2298.735119241804
 20
922.2749389970472
  0
LWPOLYLINE
  5
376
330
358
100
AcDbEntity
  8
0
  6
Continuous
 62
     7
370
    15
100
AcDbPolyline
 90
       43
 70
   128
 43
0.0
 10
2299.087343676148
 20
926.4608202538582
 10
2298.911068372512
 20
926.3812930592582
 10
2298.716148879539
 20
926.316177561878
 10
2298.506939376608
 20
926.2669283343281
 10
2298.288113258305
 20
926.2346455229709
 10
2298.064558738515
 20
926.2200502724658
 10
2297.841269655796
 20
926.2234686165916
 10
2297.623233919283
 20
926.2448241951888
 10
2297.415322087035
 20
926.2836399599207
 10
2297.222178565822
 20
926.3390488307443
 10
2297.048117862747
 20
926.4098130650459
 10
2296.897028206291
 20
926.4943519067655
 10
2296.77228468971
 20
926.5907768978753
 10
2296.676673877032
 20
926.6969340634116
 10
2296.612331555821
 20
926.8104520277153
 10
2296.580695027209
 20
926.9287949870472
 10
2296.582470998968
 20
927.0493193552512
 10
2296.617619798825
 20
927.1693328171025
 10
2296.685356260671
 20
927.2861544701793
 10
2296.78416726388
 20
927.3971747117942
 10
2296.911845533921
 20
927.4999135332047
 10
2297.065538949223
 20
927.5920759189112
 10
2297.241814252859
 20
927.671603113511
 10
2297.436733745831
 20
927.7367186108916
 10
2297.645943248763
 20
927.7859678384412
 10
2297.864769367065
 20
927.8182506497985
 10
2298.088323886855
 20
927.8328459003036
 10
2298.311612969574
 20
927.8294275561778
 10
2298.529648706088
 20
927.8080719775806
 10
2298.737560538335
 20
927.7692562128487
 10
2298.930704059548
 20
927.7138473420251
 10
2299.104764762623
 20
927.6430831077234
 10
2299.255854419079
 20
927.5585442660039
 10
2299.380597935661
 20
927.4621192748941
 10
2299.476208748338
 20
927.355962109358
 10
2299.54055106955
 20
927.2424441450541
 10
2299.572187598161
 20
927.1241011857224
 10
2299.570411626402
 20
927.0035768175182
 10
2299.535262826545
 20
926.8835633556669
 10
2299.4675263647
 20
926.7667417025901
 10
2299.36871536149
 20
926.6557214609752
 10
2299.24103709145
 20
926.5529826395647
 10
2299.087343676148
 20
926.4608202538582
  0
LWPOLYLINE
  5
377
330
358
100
AcDbEntity
  8
0
  6
Continuous
 62
     7
370
    15
100
AcDbPolyline
 90
       43
 70
   128
 43
0.0
 10
2290.969610808739
 20
922.2369951787644
 10
2290.793335505103
 20
922.1574679841646
 10
2290.59841601213
 20
922.0923524867842
 10
2290.389206509199
 20
922.0431032592344
 10
2290.170380390896
 20
922.0108204478773
 10
2289.946825871105
 20
921.9962251973722
 10
2289.723536788387
 20
921.9996435414978
 10
2289.505501051873
 20
922.0209991200951
 10
2289.297589219626
 20
922.0598148848269
 10
2289.104445698413
 20
922.1152237556506
 10
2288.930384995338
 20
922.1859879899522
 10
2288.779295338882
 20
922.2705268316719
 10
2288.6545518223
 20
922.3669518227817
 10
2288.558941009623
 20
922.4731089883178
 10
2288.494598688411
 20
922.5866269526216
 10
2288.4629621598
 20
922.7049699119534
 10
2288.464738131559
 20
922.8254942801575
 10
2288.499886931416
 20
922.9455077420087
 10
2288.567623393262
 20
923.0623293950857
 10
2288.666434396471
 20
923.1733496367006
 10
2288.794112666512
 20
923.2760884581109
 10
2288.947806081814
 20
923.3682508438176
 10
2289.124081385449
 20
923.4477780384175
 10
2289.319000878422
 20
923.5128935357979
 10
2289.528210381353
 20
923.5621427633475
 10
2289.747036499656
 20
923.5944255747048
 10
2289.970591019446
 20
923.6090208252099
 10
2290.193880102165
 20
923.605602481084
 10
2290.411915838678
 20
923.584246902487
 10
2290.619827670926
 20
923.545431137755
 10
2290.812971192139
 20
923.4900222669313
 10
2290.987031895213
 20
923.4192580326299
 10
2291.13812155167
 20
923.3347191909102
 10
2291.262865068251
 20
923.2382941998004
 10
2291.358475880929
 20
923.1321370342643
 10
2291.422818202141
 20
923.0186190699603
 10
2291.454454730752
 20
922.9002761106286
 10
2291.452678758993
 20
922.7797517424246
 10
2291.417529959136
 20
922.6597382805733
 10
2291.34979349729
 20
922.5429166274963
 10
2291.250982494081
 20
922.4318963858816
 10
2291.12330422404
 20
922.329157564471
 10
2290.969610808739
 20
922.2369951787644
  0
LWPOLYLINE
  5
378
330
358
100
AcDbEntity
  8
0
  6
Continuous
 62
     7
370
    15
100
AcDbPolyline
 90
       43
 70
   128
 43
0.0
 10
2291.321835243081
 20
926.4228764355754
 10
2291.145559939446
 20
926.3433492409756
 10
2290.950640446473
 20
926.278233743595
 10
2290.741430943542
 20
926.2289845160454
 10
2290.522604825239
 20
926.1967017046881
 10
2290.299050305449
 20
926.1821064541832
 10
2290.07576122273
 20
926.1855247983088
 10
2289.857725486217
 20
926.2068803769061
 10
2289.649813653969
 20
926.2456961416379
 10
2289.456670132756
 20
926.3011050124616
 10
2289.282609429681
 20
926.3718692467632
 10
2289.131519773225
 20
926.4564080884827
 10
2289.006776256644
 20
926.5528330795925
 10
2288.911165443966
 20
926.6589902451286
 10
2288.846823122755
 20
926.7725082094326
 10
2288.815186594143
 20
926.8908511687643
 10
2288.816962565903
 20
927.0113755369685
 10
2288.852111365759
 20
927.1313889988197
 10
2288.919847827605
 20
927.2482106518966
 10
2289.018658830814
 20
927.3592308935114
 10
2289.146337100855
 20
927.4619697149219
 10
2289.300030516157
 20
927.5541321006285
 10
2289.476305819793
 20
927.6336592952285
 10
2289.671225312766
 20
927.6987747926087
 10
2289.880434815696
 20
927.7480240201585
 10
2290.099260933999
 20
927.7803068315158
 10
2290.322815453789
 20
927.7949020820209
 10
2290.546104536508
 20
927.7914837378951
 10
2290.764140273021
 20
927.7701281592978
 10
2290.972052105269
 20
927.731312394566
 10
2291.165195626482
 20
927.6759035237423
 10
2291.339256329557
 20
927.6051392894407
 10
2291.490345986014
 20
927.520600447721
 10
2291.615089502594
 20
927.4241754566114
 10
2291.710700315272
 20
927.3180182910751
 10
2291.775042636484
 20
927.2045003267713
 10
2291.806679165095
 20
927.0861573674395
 10
2291.804903193336
 20
926.9656329992354
 10
2291.769754393479
 20
926.8456195373842
 10
2291.702017931633
 20
926.7287978843073
 10
2291.603206928424
 20
926.6177776426925
 10
2291.475528658383
 20
926.515038821282
 10
2291.321835243081
 20
926.4228764355754
  0
SPLINE
  5
379
330
358
100
AcDbEntity
  8
0
  6
Continuous
 62
     7
370
    15
100
AcDbSpline
210
0.0
220
0.0
230
1.0
 70
     8
 71
     3
 72
    29
 73
    25
 74
     0
 42
0.0000000001
 43
0.0000000001
 40
0.0
 40
0.0
 40
0.0
 40
0.0
 40
0.0455498657405806
 40
0.0920298244681649
 40
0.1385954054552926
 40
0.1842349150509864
 40
0.2296066044505568
 40
0.274543963407681
 40
0.318890034630842
 40
0.3640478322923046
 40
0.4098157034890049
 40
0.456027672959802
 40
0.5025076316873864
 40
0.5490732126745144
 40
0.5947127222702081
 40
0.6400844116697785
 40
0.6850217706269027
 40
0.7293678418500634
 40
0.774525639511526
 40
0.8202935107082261
 40
0.8665054801790228
 40
0.9129854389066071
 40
0.9595510198937356
 40
1.0
 40
1.0
 40
1.0
 40
1.0
 10
2283.052956632202
 20
907.8975181543858
 30
0.0
 10
2283.199461121956
 20
907.7291517513927
 30
0.0
 10
2283.495461609699
 20
907.3889810338314
 30
0.0
 10
2284.052458174551
 20
906.9099039671867
 30
0.0
 10
2284.686052465907
 20
906.4597456778241
 30
0.0
 10
2285.392987055017
 20
906.0475931846283
 30
0.0
 10
2286.160517121478
 20
905.6763801355399
 30
0.0
 10
2286.983406639816
 20
905.3471033955252
 30
0.0
 10
2287.860658044134
 20
905.0584338658806
 30
0.0
 10
2288.793102997736
 20
904.811272887869
 30
0.0
 10
2289.78250709212
 20
904.6079303803905
 30
0.0
 10
2290.818814825105
 20
904.45223847444
 30
0.0
 10
2291.890790517162
 20
904.3472161192044
 30
0.0
 10
2292.979611323635
 20
904.2949878393333
 30
0.0
 10
2294.07211116999
 20
904.2950654744199
 30
0.0
 10
2295.155580238393
 20
904.3457346485157
 30
0.0
 10
2296.224524503879
 20
904.4453226133073
 30
0.0
 10
2297.279770035725
 20
904.592591682824
 30
0.0
 10
2298.321749674239
 20
904.7886767564163
 30
0.0
 10
2299.349586192308
 20
905.0361461180207
 30
0.0
 10
2300.350783559999
 20
905.3332777826794
 30
0.0
 10
2301.310734329619
 20
905.6789361381309
 30
0.0
 10
2302.185869381354
 20
906.0484659130006
 30
0.0
 10
2302.707708703774
 20
906.320446603021
 30
0.0
 10
2302.950287280348
 20
906.4468776437765
 30
0.0
  0
SPLINE
  5
37A
330
358
100
AcDbEntity
  8
0
  6
Continuous
 62
     7
370
    15
100
AcDbSpline
210
0.0
220
0.0
230
1.0
 70
     8
 71
     3
 72
    16
 73
    12
 74
     0
 42
0.0000000001
 43
0.0000000001
 40
0.0
 40
0.0
 40
0.0
 40
0.0
 40
0.1153345571948602
 40
0.2313479083214588
 40
0.3462506267846503
 40
0.4596413591193233
 40
0.575107637147032
 40
0.6921339386991016
 40
0.8102958504744375
 40
0.929143042864854
 40
1.0
 40
1.0
 40
1.0
 40
1.0
 10
2300.9471773566
 20
906.1513643828462
 30
0.0
 10
2300.650727070117
 20
906.0419586820271
 30
0.0
 10
2300.056081758537
 20
905.8225033803504
 30
0.0
 10
2299.111948970624
 20
905.5469369751628
 30
0.0
 10
2298.142996939016
 20
905.3136438716895
 30
0.0
 10
2297.148527013431
 20
905.1264382502095
 30
0.0
 10
2296.129157776762
 20
904.984012278998
 30
0.0
 10
2295.083647694347
 20
904.8867912404821
 30
0.0
 10
2294.024892031653
 20
904.8405277014877
 30
0.0
 10
2293.105473053924
 20
904.8368458337316
 30
0.0
 10
2292.548927749102
 20
904.8695215624155
 30
0.0
 10
2292.341050868674
 20
904.8817263703362
 30
0.0
  0
SPLINE
  5
37B
330
358
100
AcDbEntity
  8
0
  6
Continuous
 62
     7
370
    15
100
AcDbSpline
210
0.0
220
0.0
230
1.0
 70
     8
 71
     3
 72
    31
 73
    27
 74
     0
 42
0.0000000001
 43
0.0000000001
 40
0.0
 40
0.0
 40
0.0
 40
0.0
 40
0.0328181751901339
 40
0.0759917941228339
 40
0.119415782520049
 40
0.1629197636734269
 40
0.2055585608968382
 40
0.2479471466009758
 40
0.2899299582767009
 40
0.3313603582807738
 40
0.3735491152284298
 40
0.4163078345177237
 40
0.4594814534504237
 40
0.5029054418476389
 40
0.5464094230010171
 40
0.5890482202244283
 40
0.6314368059285658
 40
0.6734196176042911
 40
0.7148500176083638
 40
0.7570387745560198
 40
0.7997974938453135
 40
0.8429711127780132
 40
0.8863951011752281
 40
0.9298990823286066
 40
0.9725378795520178
 40
1.0
 40
1.0
 40
1.0
 40
1.0
 10
2282.772072707297
 20
908.0546804792332
 30
0.0
 10
2282.862729879837
 20
907.9194037563469
 30
0.0
 10
2283.072650180142
 20
907.6061651068597
 30
0.0
 10
2283.509264999958
 20
907.1399021002894
 30
0.0
 10
2284.061234730853
 20
906.656655846964
 30
0.0
 10
2284.696888124887
 20
906.2070012404561
 30
0.0
 10
2285.403281894741
 20
905.7947164559514
 30
0.0
 10
2286.170954809966
 20
905.423538349502
 30
0.0
 10
2286.993806591624
 20
905.0942523785987
 30
0.0
 10
2287.871067982905
 20
904.8055852919443
 30
0.0
 10
2288.803510217972
 20
904.5584236487483
 30
0.0
 10
2289.792915055317
 20
904.3550813237537
 30
0.0
 10
2290.829222589533
 20
904.199389366358
 30
0.0
 10
2291.901198322891
 20
904.0943670318485
 30
0.0
 10
2292.990019164618
 20
904.0421387211033
 30
0.0
 10
2294.08251883242
 20
904.0422164568578
 30
0.0
 10
2295.165988571651
 20
904.0928852633838
 30
0.0
 10
2296.234930366724
 20
904.1924745790497
 30
0.0
 10
2297.290185039323
 20
904.3397386509417
 30
0.0
 10
2298.332129894465
 20
904.5358427418291
 30
0.0
 10
2299.360098862019
 20
904.7832396886891
 30
0.0
 10
2300.360794997478
 20
905.0806453944435
 30
0.0
 10
2301.322631576498
 20
905.4252727123047
 30
0.0
 10
2302.224782120066
 20
905.8130039517148
 30
0.0
 10
2302.972631731882
 20
906.1832989427053
 30
0.0
 10
2303.387849915601
 20
906.4363098309616
 30
0.0
 10
2303.550512148169
 20
906.5354271566508
 30
0.0
  0
LINE
  5
37C
330
358
100
AcDbEntity
  8
0
  6
Continuous
 62
     7
370
    15
100
AcDbLine
 10
2279.035425850832
 20
910.1454377459404
 30
0.0
 11
2278.886247316513
 21
913.7696081218434
 31
0.0
  0
LINE
  5
37D
330
358
100
AcDbEntity
  8
0
  6
Continuous
 62
     7
370
    15
100
AcDbLine
 10
2279.035425850832
 20
910.1454377459404
 30
0.0
 11
2287.804093411827
 21
905.2391257162753
 31
0.0
  0
LWPOLYLINE
  5
37E
330
358
100
AcDbEntity
  8
0
  6
Continuous
 62
     7
370
    15
100
AcDbPolyline
 90
       48
 70
   128
 43
0.0
 10
2305.436183019015
 20
907.2494226769768
 10
2305.345068842735
 20
907.1477378128522
 10
2305.04548719768
 20
906.8401076394435
 10
2304.717068671845
 20
906.540525509386
 10
2304.360723595101
 20
906.2498218221264
 10
2303.977439705785
 20
905.9688023673189
 10
2303.568279412823
 20
905.69824609129
 10
2303.134376850888
 20
905.4389029379093
 10
2302.676934736734
 20
905.1914917698505
 10
2302.197221035438
 20
904.9566983760053
 10
2301.696565445777
 20
904.7351735705738
 10
2301.17635571449
 20
904.5275313890988
 10
2300.638033789645
 20
904.3343473864457
 10
2300.083091823754
 20
904.1561570414454
 10
2299.513068037743
 20
903.9934542726237
 10
2298.929542457217
 20
903.8466900691267
 10
2298.334132532852
 20
903.7162712406441
 10
2297.728488657054
 20
903.6025592897896
 10
2297.114289589295
 20
903.5058694100662
 10
2296.493237802837
 20
903.4264696121946
 10
2295.867054765711
 20
903.3645799812255
 10
2295.237476169053
 20
903.3203720664939
 10
2294.60624711601
 20
903.2939684061098
 10
2293.975117284562
 20
903.2854421872986
 10
2293.345836077662
 20
903.2948170435378
 10
2292.720147774135
 20
903.3220669890466
 10
2292.099786693783
 20
903.3671164908161
 10
2291.4864723901
 20
903.4298406779765
 10
2290.881904883903
 20
903.5100656879198
 10
2290.287759951123
 20
903.607569148224
 10
2289.705684477786
 20
903.7220807930379
 10
2289.137291895073
 20
903.8532832122191
 10
2288.584157707127
 20
904.0008127311514
 10
2288.047815123965
 20
904.1642604187984
 10
2287.529750811646
 20
904.3431732212038
 10
2287.031400771436
 20
904.5370552172919
 10
2286.554146359418
 20
904.7453689934924
 10
2286.099310457564
 20
904.9675371333734
 10
2285.6681538069
 20
905.2029438181603
 10
2285.261871512899
 20
905.4509365336969
 10
2284.881589732826
 20
905.7108278791236
 10
2284.528362554187
 20
905.9818974722556
 10
2284.20316907294
 20
906.2633939463809
 10
2283.90691067959
 20
906.5545370329424
 10
2283.640408560653
 20
906.8545197243329
 10
2283.404401422446
 20
907.1625105108067
 10
2283.199543443498
 20
907.4776556853063
 10
2283.19419969851
 20
907.4866788052592
  0
LINE
  5
37F
330
358
100
AcDbEntity
  8
0
  6
Continuous
 62
     7
370
    15
100
AcDbLine
 10
2306.813301514443
 20
908.0435015558188
 30
0.0
 11
2306.664122980125
 21
911.6676719317217
 31
0.0
  0
ARC
  5
380
330
358
100
AcDbEntity
  8
0
  6
Continuous
 62
     7
370
    15
100
AcDbCircle
 10
2297.39608040183
 20
922.779285193233
 30
0.0
 40
17.48792077099269
100
AcDbArc
 50
292.3963025038034
 51
302.5814914311206
  0
LINE
  5
381
330
358
100
AcDbEntity
  8
0
  6
Continuous
 62
     7
370
    15
100
AcDbLine
 10
2310.595288948834
 20
918.4475552392996
 30
0.0
 11
2310.744467483152
 21
914.8233848633966
 31
0.0
  0
LINE
  5
382
330
358
100
AcDbEntity
  8
0
  6
Continuous
 62
     7
370
    15
100
AcDbLine
 10
2306.813301514443
 20
908.0435015558188
 30
0.0
 11
2310.744467483152
 21
914.8233848633966
 31
0.0
  0
LINE
  5
383
330
358
100
AcDbEntity
  8
0
  6
Continuous
 62
     7
370
    15
100
AcDbLine
 10
2278.085144701759
 20
915.7048719067958
 30
0.0
 11
2278.234323236077
 21
912.0807015308928
 31
0.0
  0
ARC
  5
384
330
358
100
AcDbEntity
  8
0
  6
Continuous
 62
     7
370
    15
100
AcDbCircle
 10
2283.546577809941
 20
913.1462696395102
 30
0.0
 40
5.418070140893679
100
AcDbArc
 50
191.3422564795821
 51
213.631970721892
  0
ENDBLK
  5
35A
330
358
100
AcDbEntity
  8
0
100
AcDbBlockEnd
  0
ENDSEC
  0
SECTION
  2
ENTITIES
  0
INSERT
  5
33A
330
1F
100
AcDbEntity
  8
0
100
AcDbBlockReference
  2
1
 10
0.0
 20
0.0
 30
0.0
  0
INSERT
  5
357
330
1F
100
AcDbEntity
  8
0
100
AcDbBlockReference
  2
2
 10
0.0
 20
0.0
 30
0.0
  0
INSERT
  5
385
330
1F
100
AcDbEntity
  8
0
100
AcDbBlockReference
  2
3
 10
0.0
 20
0.0
 30
0.0
  0
ENDSEC
  0
SECTION
  2
OBJECTS
  0
DICTIONARY
  5
C
330
0
100
AcDbDictionary
281
     1
  3
ACAD_COLOR
350
6B
  3
ACAD_GROUP
350
D
  3
ACAD_LAYOUT
350
1A
  3
ACAD_MATERIAL
350
6A
  3
ACAD_MLEADERSTYLE
350
12D
  3
ACAD_MLINESTYLE
350
17
  3
ACAD_PLOTSETTINGS
350
19
  3
ACAD_PLOTSTYLENAME
350
E
  3
ACAD_SCALELIST
350
10C
  3
ACAD_TABLESTYLE
350
7E
  3
ACAD_VISUALSTYLE
350
EF
  3
ACDB_RECOMPOSE_DATA
350
15D
  3
AcDbVariableDictionary
350
5E
  3
DWGPROPS
350
393
  0
DICTIONARY
  5
13C
330
10
100
AcDbDictionary
280
     1
281
     1
  3
ADSK_XREC_LAYER_RECONCILED
360
386
  0
DICTIONARY
  5
6B
102
{ACAD_REACTORS
330
C
102
}
330
C
100
AcDbDictionary
281
     1
  0
DICTIONARY
  5
D
102
{ACAD_REACTORS
330
C
102
}
330
C
100
AcDbDictionary
281
     1
  0
DICTIONARY
  5
1A
102
{ACAD_REACTORS
330
C
102
}
330
C
100
AcDbDictionary
281
     1
  3
Layout1
350
D3
  3
Layout2
350
D7
  3
Model
350
22
  0
DICTIONARY
  5
6A
102
{ACAD_REACTORS
330
C
102
}
330
C
100
AcDbDictionary
281
     1
  3
ByBlock
350
ED
  3
ByLayer
350
EC
  3
Global
350
EE
  0
DICTIONARY
  5
12D
102
{ACAD_REACTORS
330
C
102
}
330
C
100
AcDbDictionary
281
     1
  3
Annotative
350
13B
  3
Standard
350
12E
  0
DICTIONARY
  5
17
102
{ACAD_REACTORS
330
C
102
}
330
C
100
AcDbDictionary
281
     1
  3
Standard
350
18
  0
DICTIONARY
  5
19
102
{ACAD_REACTORS
330
C
102
}
330
C
100
AcDbDictionary
281
     1
  0
ACDBDICTIONARYWDFLT
  5
E
102
{ACAD_REACTORS
330
C
102
}
330
C
100
AcDbDictionary
281
     1
  3
Normal
350
F
100
AcDbDictionaryWithDefault
340
F
  0
DICTIONARY
  5
10C
102
{ACAD_REACTORS
330
C
102
}
330
C
100
AcDbDictionary
281
     1
  3
A0
350
10D
  3
A1
350
188
  3
A2
350
189
  3
A3
350
18A
  3
A4
350
18B
  3
A5
350
18C
  3
A6
350
18D
  3
A7
350
18E
  3
A8
350
18F
  3
A9
350
190
  3
B0
350
191
  3
B1
350
192
  3
B2
350
193
  3
B3
350
194
  3
B4
350
195
  3
B5
350
196
  3
B6
350
197
  3
B7
350
198
  3
B8
350
199
  3
B9
350
19A
  3
C0
350
19B
  3
C1
350
19C
  3
C2
350
19D
  3
C3
350
19E
  3
C4
350
19F
  3
C5
350
1A0
  3
C6
350
1A1
  3
C7
350
1A2
  3
C8
350
1A3
  3
C9
350
1A4
  3
D0
350
1A5
  3
D1
350
1A6
  3
D2
350
1A7
  0
DICTIONARY
  5
7E
102
{ACAD_REACTORS
330
C
102
}
330
C
100
AcDbDictionary
281
     1
  3
Standard
350
7F
  0
DICTIONARY
  5
EF
102
{ACAD_REACTORS
330
C
102
}
330
C
100
AcDbDictionary
281
     1
  3
2dWireframe
350
F5
  3
3D Hidden
350
F7
  3
3dWireframe
350
F6
  3
Basic
350
F4
  3
Brighten
350
FB
  3
ColorChange
350
FF
  3
Conceptual
350
F8
  3
Dim
350
FA
  3
Facepattern
350
FE
  3
Flat
350
F0
  3
FlatWithEdges
350
F1
  3
Gouraud
350
F2
  3
GouraudWithEdges
350
F3
  3
Linepattern
350
FD
  3
Realistic
350
F9
  3
Thicken
350
FC
  0
XRECORD
  5
15D
102
{ACAD_REACTORS
330
C
102
}
330
C
100
AcDbXrecord
280
     1
 90
        1
330
7F
  0
DICTIONARY
  5
5E
102
{ACAD_REACTORS
330
C
102
}
330
C
100
AcDbDictionary
281
     1
  3
CANNOSCALE
350
146
  3
CMLEADERSTYLE
350
145
  3
CTABLESTYLE
350
84
  3
DIMASSOC
350
5F
  3
HIDETEXT
350
63
  3
INDEXCTL
350
38F
  3
LIGHTINGUNITS
350
38D
  3
MSLTSCALE
350
38C
  3
PSOLHEIGHT
350
391
  3
PSOLWIDTH
350
390
  3
SORTENTS
350
38E
  0
XRECORD
  5
393
102
{ACAD_REACTORS
330
C
102
}
330
C
100
AcDbXrecord
280
     1
  1
DWGPROPS COOKIE
  2

  3

  4

  6

  7

  8
orhan kara
  9

300
=
301
=
302
=
303
=
304
=
305
=
306
=
307
=
308
=
309
=
 40
0.0002918634259259
 41
2459009.384545961
 42
2459067.606039086
  1

 90
        0
  0
XRECORD
  5
386
102
{ACAD_REACTORS
330
13C
102
}
330
13C
100
AcDbXrecord
280
     1
290
     1
  0
LAYOUT
  5
D3
102
{ACAD_XDICTIONARY
360
397
102
}
102
{ACAD_REACTORS
330
1A
102
}
330
1A
100
AcDbPlotSettings
  1

  2
C:\Documents and Settings\basas\Application Data\Autodesk\AutoCAD 2005\R16.1\enu\plotters\Default Windows System Printer.pc3
  4

  6

 40
0.0
 41
0.0
 42
0.0
 43
0.0
 44
0.0
 45
0.0
 46
0.0
 47
0.0
 48
0.0
 49
0.0
140
0.0
141
0.0
142
1.0
143
1.0
 70
   688
 72
     0
 73
     0
 74
     5
  7

 75
    16
147
1.0
148
0.0
149
0.0
100
AcDbLayout
  1
Layout1
 70
     1
 71
     1
 10
0.0
 20
0.0
 11
12.0
 21
9.0
 12
0.0
 22
0.0
 32
0.0
 14
0.0
 24
0.0
 34
0.0
 15
0.0
 25
0.0
 35
0.0
146
0.0
 13
0.0
 23
0.0
 33
0.0
 16
1.0
 26
0.0
 36
0.0
 17
0.0
 27
1.0
 37
0.0
 76
     0
330
D2
  0
LAYOUT
  5
D7
102
{ACAD_XDICTIONARY
360
399
102
}
102
{ACAD_REACTORS
330
1A
102
}
330
1A
100
AcDbPlotSettings
  1

  2
C:\Documents and Settings\basas\Application Data\Autodesk\AutoCAD 2005\R16.1\enu\plotters\Default Windows System Printer.pc3
  4

  6

 40
0.0
 41
0.0
 42
0.0
 43
0.0
 44
0.0
 45
0.0
 46
0.0
 47
0.0
 48
0.0
 49
0.0
140
0.0
141
0.0
142
1.0
143
1.0
 70
   688
 72
     0
 73
     0
 74
     5
  7

 75
    16
147
1.0
148
0.0
149
0.0
100
AcDbLayout
  1
Layout2
 70
     1
 71
     2
 10
0.0
 20
0.0
 11
12.0
 21
9.0
 12
0.0
 22
0.0
 32
0.0
 14
0.0
 24
0.0
 34
0.0
 15
0.0
 25
0.0
 35
0.0
146
0.0
 13
0.0
 23
0.0
 33
0.0
 16
1.0
 26
0.0
 36
0.0
 17
0.0
 27
1.0
 37
0.0
 76
     0
330
D6
  0
LAYOUT
  5
22
102
{ACAD_XDICTIONARY
360
394
102
}
102
{ACAD_REACTORS
330
1A
102
}
330
1A
100
AcDbPlotSettings
  1

  2
none_device
  4
ISO_A4_(210.00_x_297.00_MM)
  6

 40
7.5
 41
20.0
 42
7.5
 43
20.0
 44
210.0
 45
297.0
 46
11.54999923706054
 47
-13.65000009536743
 48
0.0
 49
0.0
140
0.0
141
0.0
142
1.0
143
8.704084754739808
 70
 11952
 72
     1
 73
     0
 74
     0
  7

 75
     0
147
0.1148885871608098
148
0.0
149
0.0
100
AcDbLayout
  1
Model
 70
     1
 71
     0
 10
0.0
 20
0.0
 11
12.0
 21
9.0
 12
0.0
 22
0.0
 32
0.0
 14
0.0
 24
0.0
 34
0.0
 15
0.0
 25
0.0
 35
0.0
146
0.0
 13
0.0
 23
0.0
 33
0.0
 16
1.0
 26
0.0
 36
0.0
 17
0.0
 27
1.0
 37
0.0
 76
     0
330
1F
331
EA
1001
ACAD_PSEXT
1000
None
1000
None
1000
Not applicable
1000
The layout will not be plotted unless a new plotter configuration name is selected.
1070
     0
  0
MATERIAL
  5
ED
102
{ACAD_XDICTIONARY
360
39D
102
}
102
{ACAD_REACTORS
330
6A
102
}
330
6A
100
AcDbMaterial
  1
ByBlock
  0
MATERIAL
  5
EC
102
{ACAD_XDICTIONARY
360
39B
102
}
102
{ACAD_REACTORS
330
6A
102
}
330
6A
100
AcDbMaterial
  1
ByLayer
  0
MATERIAL
  5
EE
102
{ACAD_XDICTIONARY
360
173
102
}
102
{ACAD_REACTORS
330
6A
102
}
330
6A
100
AcDbMaterial
  1
Global
 43
0.0007999999797903
 43
0.0
 43
0.0
 43
0.0
 43
0.0
 43
0.0007999999797903
 43
0.0
 43
0.0
 43
0.0
 43
0.0
 43
1.0
 43
0.0
 43
0.0
 43
0.0
 43
0.0
 43
1.0
 49
0.0007999999797903
 49
0.0
 49
0.0
 49
0.0
 49
0.0
 49
0.0007999999797903
 49
0.0
 49
0.0
 49
0.0
 49
0.0
 49
1.0
 49
0.0
 49
0.0
 49
0.0
 49
0.0
 49
1.0
142
0.0007999999797903
142
0.0
142
0.0
142
0.0
142
0.0
142
0.0007999999797903
142
0.0
142
0.0
142
0.0
142
0.0
142
1.0
142
0.0
142
0.0
142
0.0
142
0.0
142
1.0
144
0.0007999999797903
144
0.0
144
0.0
144
0.0
144
0.0
144
0.0007999999797903
144
0.0
144
0.0
144
0.0
144
0.0
144
1.0
144
0.0
144
0.0
144
0.0
144
0.0
144
1.0
1001
ACAD
1070
    -1
1070
     3
1070
     0
1000

1071
        0
1070
     0
  0
MLEADERSTYLE
  5
13B
102
{ACAD_REACTORS
330
12D
102
}
330
12D
100
AcDbMLeaderStyle
170
     2
171
     1
172
     0
 90
        2
 40
0.0
 41
0.0
173
     1
 91
-1056964608
340
14
 92
       -2
290
     1
 42
2.0
291
     1
 43
8.0
  3
Standard
 44
4.0
300

342
11
174
     1
178
     1
175
     1
176
     0
 93
-1056964608
 45
4.0
292
     0
297
     0
 46
4.0
 94
-1056964608
 47
1.0
 49
1.0
140
1.0
293
     1
141
0.0
294
     1
177
     0
142
1.0
295
     0
296
     1
143
3.75
1001
ACAD_MLEADERVER
1070
     2
  0
MLEADERSTYLE
  5
12E
102
{ACAD_REACTORS
330
12D
102
}
330
12D
100
AcDbMLeaderStyle
170
     2
171
     1
172
     0
 90
        2
 40
0.0
 41
0.0
173
     1
 91
-1056964608
340
14
 92
       -2
290
     1
 42
2.0
291
     1
 43
8.0
  3
Standard
 44
4.0
300

342
11
174
     1
178
     1
175
     1
176
     0
 93
-1056964608
 45
4.0
292
     0
297
     0
 46
4.0
 94
-1056964608
 47
1.0
 49
1.0
140
1.0
293
     1
141
0.0
294
     1
177
     0
142
1.0
295
     0
296
     0
143
3.75
1001
ACAD_MLEADERVER
1070
     2
  0
MLINESTYLE
  5
18
102
{ACAD_REACTORS
330
17
102
}
330
17
100
AcDbMlineStyle
  2
STANDARD
 70
     0
  3

 62
   256
 51
90.0
 52
90.0
 71
     2
 49
0.5
 62
   256
  6
BYLAYER
 49
-0.5
 62
   256
  6
BYLAYER
  0
ACDBPLACEHOLDER
  5
F
102
{ACAD_REACTORS
330
E
102
}
330
E
  0
SCALE
  5
10D
102
{ACAD_REACTORS
330
10C
102
}
330
10C
100
AcDbScale
 70
     0
300
1:1
140
1.0
141
1.0
290
     1
  0
SCALE
  5
188
102
{ACAD_REACTORS
330
10C
102
}
330
10C
100
AcDbScale
 70
     0
300
1:2
140
1.0
141
2.0
290
     0
  0
SCALE
  5
189
102
{ACAD_REACTORS
330
10C
102
}
330
10C
100
AcDbScale
 70
     0
300
1:4
140
1.0
141
4.0
290
     0
  0
SCALE
  5
18A
102
{ACAD_REACTORS
330
10C
102
}
330
10C
100
AcDbScale
 70
     0
300
1:5
140
1.0
141
5.0
290
     0
  0
SCALE
  5
18B
102
{ACAD_REACTORS
330
10C
102
}
330
10C
100
AcDbScale
 70
     0
300
1:8
140
1.0
141
8.0
290
     0
  0
SCALE
  5
18C
102
{ACAD_REACTORS
330
10C
102
}
330
10C
100
AcDbScale
 70
     0
300
1:10
140
1.0
141
10.0
290
     0
  0
SCALE
  5
18D
102
{ACAD_REACTORS
330
10C
102
}
330
10C
100
AcDbScale
 70
     0
300
1:16
140
1.0
141
16.0
290
     0
  0
SCALE
  5
18E
102
{ACAD_REACTORS
330
10C
102
}
330
10C
100
AcDbScale
 70
     0
300
1:20
140
1.0
141
20.0
290
     0
  0
SCALE
  5
18F
102
{ACAD_REACTORS
330
10C
102
}
330
10C
100
AcDbScale
 70
     0
300
1:30
140
1.0
141
30.0
290
     0
  0
SCALE
  5
190
102
{ACAD_REACTORS
330
10C
102
}
330
10C
100
AcDbScale
 70
     0
300
1:40
140
1.0
141
40.0
290
     0
  0
SCALE
  5
191
102
{ACAD_REACTORS
330
10C
102
}
330
10C
100
AcDbScale
 70
     0
300
1:50
140
1.0
141
50.0
290
     0
  0
SCALE
  5
192
102
{ACAD_REACTORS
330
10C
102
}
330
10C
100
AcDbScale
 70
     0
300
1:100
140
1.0
141
100.0
290
     0
  0
SCALE
  5
193
102
{ACAD_REACTORS
330
10C
102
}
330
10C
100
AcDbScale
 70
     0
300
2:1
140
2.0
141
1.0
290
     0
  0
SCALE
  5
194
102
{ACAD_REACTORS
330
10C
102
}
330
10C
100
AcDbScale
 70
     0
300
4:1
140
4.0
141
1.0
290
     0
  0
SCALE
  5
195
102
{ACAD_REACTORS
330
10C
102
}
330
10C
100
AcDbScale
 70
     0
300
8:1
140
8.0
141
1.0
290
     0
  0
SCALE
  5
196
102
{ACAD_REACTORS
330
10C
102
}
330
10C
100
AcDbScale
 70
     0
300
10:1
140
10.0
141
1.0
290
     0
  0
SCALE
  5
197
102
{ACAD_REACTORS
330
10C
102
}
330
10C
100
AcDbScale
 70
     0
300
100:1
140
100.0
141
1.0
290
     0
  0
SCALE
  5
198
102
{ACAD_REACTORS
330
10C
102
}
330
10C
100
AcDbScale
 70
     0
300
1/128" = 1'-0"
140
0.0078125
141
12.0
290
     0
  0
SCALE
  5
199
102
{ACAD_REACTORS
330
10C
102
}
330
10C
100
AcDbScale
 70
     0
300
1/64" = 1'-0"
140
0.015625
141
12.0
290
     0
  0
SCALE
  5
19A
102
{ACAD_REACTORS
330
10C
102
}
330
10C
100
AcDbScale
 70
     0
300
1/32" = 1'-0"
140
0.03125
141
12.0
290
     0
  0
SCALE
  5
19B
102
{ACAD_REACTORS
330
10C
102
}
330
10C
100
AcDbScale
 70
     0
300
1/16" = 1'-0"
140
0.0625
141
12.0
290
     0
  0
SCALE
  5
19C
102
{ACAD_REACTORS
330
10C
102
}
330
10C
100
AcDbScale
 70
     0
300
3/32" = 1'-0"
140
0.09375
141
12.0
290
     0
  0
SCALE
  5
19D
102
{ACAD_REACTORS
330
10C
102
}
330
10C
100
AcDbScale
 70
     0
300
1/8" = 1'-0"
140
0.125
141
12.0
290
     0
  0
SCALE
  5
19E
102
{ACAD_REACTORS
330
10C
102
}
330
10C
100
AcDbScale
 70
     0
300
3/16" = 1'-0"
140
0.1875
141
12.0
290
     0
  0
SCALE
  5
19F
102
{ACAD_REACTORS
330
10C
102
}
330
10C
100
AcDbScale
 70
     0
300
1/4" = 1'-0"
140
0.25
141
12.0
290
     0
  0
SCALE
  5
1A0
102
{ACAD_REACTORS
330
10C
102
}
330
10C
100
AcDbScale
 70
     0
300
3/8" = 1'-0"
140
0.375
141
12.0
290
     0
  0
SCALE
  5
1A1
102
{ACAD_REACTORS
330
10C
102
}
330
10C
100
AcDbScale
 70
     0
300
1/2" = 1'-0"
140
0.5
141
12.0
290
     0
  0
SCALE
  5
1A2
102
{ACAD_REACTORS
330
10C
102
}
330
10C
100
AcDbScale
 70
     0
300
3/4" = 1'-0"
140
0.75
141
12.0
290
     0
  0
SCALE
  5
1A3
102
{ACAD_REACTORS
330
10C
102
}
330
10C
100
AcDbScale
 70
     0
300
1" = 1'-0"
140
1.0
141
12.0
290
     0
  0
SCALE
  5
1A4
102
{ACAD_REACTORS
330
10C
102
}
330
10C
100
AcDbScale
 70
     0
300
1-1/2" = 1'-0"
140
1.5
141
12.0
290
     0
  0
SCALE
  5
1A5
102
{ACAD_REACTORS
330
10C
102
}
330
10C
100
AcDbScale
 70
     0
300
3" = 1'-0"
140
3.0
141
12.0
290
     0
  0
SCALE
  5
1A6
102
{ACAD_REACTORS
330
10C
102
}
330
10C
100
AcDbScale
 70
     0
300
6" = 1'-0"
140
6.0
141
12.0
290
     0
  0
SCALE
  5
1A7
102
{ACAD_REACTORS
330
10C
102
}
330
10C
100
AcDbScale
 70
     0
300
1'-0" = 1'-0"
140
12.0
141
12.0
290
     0
  0
TABLESTYLE
  5
7F
102
{ACAD_XDICTIONARY
360
162
102
}
102
{ACAD_REACTORS
330
7E
102
}
330
7E
100
AcDbTableStyle
  3
Standard
 70
     0
 71
     0
 40
1.5
 41
1.5
280
     0
281
     0
  7
Standard
140
4.5
170
     2
 62
     0
 63
     7
283
     0
274
    -2
284
     1
 64
     0
275
    -2
285
     1
 65
     0
276
    -2
286
     1
 66
     0
277
    -2
287
     1
 67
     0
278
    -2
288
     1
 68
     0
279
    -2
289
     1
 69
     0
  7
Standard
140
6.0
170
     5
 62
     0
 63
     7
283
     0
274
    -2
284
     1
 64
     0
275
    -2
285
     1
 65
     0
276
    -2
286
     1
 66
     0
277
    -2
287
     1
 67
     0
278
    -2
288
     1
 68
     0
279
    -2
289
     1
 69
     0
  7
Standard
140
4.5
170
     5
 62
     0
 63
     7
283
     0
274
    -2
284
     1
 64
     0
275
    -2
285
     1
 65
     0
276
    -2
286
     1
 66
     0
277
    -2
287
     1
 67
     0
278
    -2
288
     1
 68
     0
279
    -2
289
     1
 69
     0
  0
VISUALSTYLE
  5
F5
102
{ACAD_REACTORS
330
EF
102
}
330
EF
100
AcDbVisualStyle
  2
2dWireframe
 70
     4
 71
     0
 72
     2
 73
     1
 90
        0
 40
-0.6
 41
-30.0
 62
     5
 63
     7
 74
     1
 91
        4
 64
     7
 65
   257
 75
     1
175
     1
 42
1.0
 92
        0
 66
   257
 43
1.0
 76
     1
 77
     6
 78
     2
 67
     7
 79
     5
170
     0
171
     0
290
     0
174
     0
 93
        1
 44
0.0
173
     0
291
     0
 45
0.0
1001
ACAD
1000
AcDbSavedByObjectVersion
1070
     0
  0
VISUALSTYLE
  5
F7
102
{ACAD_REACTORS
330
EF
102
}
330
EF
100
AcDbVisualStyle
  2
3D Hidden
 70
     6
 71
     1
 72
     2
 73
     2
 90
        0
 40
-0.6
 41
-30.0
 62
     5
 63
     7
 74
     2
 91
        2
 64
     7
 65
   257
 75
     2
175
     1
 42
40.0
 92
        0
 66
   257
 43
1.0
 76
     1
 77
     6
 78
     2
 67
     7
 79
     3
170
     0
171
     0
290
     0
174
     0
 93
        1
 44
0.0
173
     0
291
     0
 45
0.0
1001
ACAD
1000
AcDbSavedByObjectVersion
1070
     0
  0
VISUALSTYLE
  5
F6
102
{ACAD_REACTORS
330
EF
102
}
330
EF
100
AcDbVisualStyle
  2
3dWireframe
 70
     5
 71
     0
 72
     2
 73
     1
 90
        0
 40
-0.6
 41
-30.0
 62
     5
 63
     7
 74
     1
 91
        4
 64
     7
 65
   257
 75
     1
175
     1
 42
1.0
 92
        0
 66
   257
 43
1.0
 76
     1
 77
     6
 78
     2
 67
     7
 79
     5
170
     0
171
     0
290
     0
174
     0
 93
        1
 44
0.0
173
     0
291
     0
 45
0.0
1001
ACAD
1000
AcDbSavedByObjectVersion
1070
     0
  0
VISUALSTYLE
  5
F4
102
{ACAD_REACTORS
330
EF
102
}
330
EF
100
AcDbVisualStyle
  2
Basic
 70
     7
 71
     1
 72
     0
 73
     1
 90
        0
 40
-0.6
 41
-30.0
 62
     5
 63
     7
 74
     0
 91
        4
 64
     7
 65
   257
 75
     1
175
     1
 42
1.0
 92
        8
 66
     7
 43
1.0
 76
     1
 77
     6
 78
     2
 67
     7
 79
     5
170
     0
171
     0
290
     0
174
     0
 93
        1
 44
0.0
173
     0
291
     1
 45
0.0
1001
ACAD
1000
AcDbSavedByObjectVersion
1070
     0
  0
VISUALSTYLE
  5
FB
102
{ACAD_REACTORS
330
EF
102
}
330
EF
100
AcDbVisualStyle
  2
Brighten
 70
    12
 71
     2
 72
     2
 73
     1
 90
        0
 40
-0.6
 41
-30.0
 62
     5
 63
     7
 74
     1
 91
        4
 64
     7
 65
   257
 75
     1
175
     1
 42
1.0
 92
        8
 66
     7
 43
1.0
 76
     1
 77
     6
 78
     2
 67
     7
 79
     5
170
     0
171
     0
290
     0
174
     0
 93
        1
 44
50.0
173
     0
291
     1
 45
0.0
1001
ACAD
1000
AcDbSavedByObjectVersion
1070
     0
  0
VISUALSTYLE
  5
FF
102
{ACAD_REACTORS
330
EF
102
}
330
EF
100
AcDbVisualStyle
  2
ColorChange
 70
    16
 71
     2
 72
     2
 73
     3
 90
        0
 40
-0.6
 41
-30.0
 62
     5
 63
     8
 74
     1
 91
        4
 64
     7
 65
   257
 75
     1
175
     1
 42
1.0
 92
        8
 66
     8
 43
1.0
 76
     1
 77
     6
 78
     2
 67
     7
 79
     5
170
     0
171
     0
290
     0
174
     0
 93
        1
 44
0.0
173
     0
291
     1
 45
0.0
1001
ACAD
1000
AcDbSavedByObjectVersion
1070
     0
  0
VISUALSTYLE
  5
F8
102
{ACAD_REACTORS
330
EF
102
}
330
EF
100
AcDbVisualStyle
  2
Conceptual
 70
     9
 71
     3
 72
     2
 73
     1
 90
        0
 40
-0.6
 41
-30.0
 62
     5
 63
     7
 74
     2
 91
        2
 64
     7
 65
   257
 75
     1
175
     1
 42
40.0
 92
        8
 66
     7
 43
1.0
 76
     1
 77
     6
 78
     2
 67
     7
 79
     3
170
     0
171
     0
290
     0
174
     0
 93
        1
 44
0.0
173
     0
291
     0
 45
0.0
1001
ACAD
1000
AcDbSavedByObjectVersion
1070
     0
  0
VISUALSTYLE
  5
FA
102
{ACAD_REACTORS
330
EF
102
}
330
EF
100
AcDbVisualStyle
  2
Dim
 70
    11
 71
     2
 72
     2
 73
     1
 90
        0
 40
-0.6
 41
-30.0
 62
     5
 63
     7
 74
     1
 91
        4
 64
     7
 65
   257
 75
     1
175
     1
 42
1.0
 92
        8
 66
     7
 43
1.0
 76
     1
 77
     6
 78
     2
 67
     7
 79
     5
170
     0
171
     0
290
     0
174
     0
 93
        1
 44
-50.0
173
     0
291
     1
 45
0.0
1001
ACAD
1000
AcDbSavedByObjectVersion
1070
     0
  0
VISUALSTYLE
  5
FE
102
{ACAD_REACTORS
330
EF
102
}
330
EF
100
AcDbVisualStyle
  2
Facepattern
 70
    15
 71
     2
 72
     2
 73
     1
 90
        0
 40
-0.6
 41
-30.0
 62
     5
 63
     7
 74
     1
 91
        4
 64
     7
 65
   257
 75
     1
175
     1
 42
1.0
 92
        8
 66
     7
 43
1.0
 76
     1
 77
     6
 78
     2
 67
     7
 79
     5
170
     0
171
     0
290
     0
174
     0
 93
        1
 44
0.0
173
     0
291
     1
 45
0.0
1001
ACAD
1000
AcDbSavedByObjectVersion
1070
     0
  0
VISUALSTYLE
  5
F0
102
{ACAD_REACTORS
330
EF
102
}
330
EF
100
AcDbVisualStyle
  2
Flat
 70
     0
 71
     2
 72
     1
 73
     1
 90
        2
 40
-0.6
 41
30.0
 62
     5
 63
     7
 74
     0
 91
        4
 64
     7
 65
   257
 75
     1
175
     1
 42
1.0
 92
        8
 66
     7
 43
1.0
 76
     1
 77
     6
 78
     2
 67
     7
 79
     5
170
     0
171
     0
290
     0
174
     0
 93
        1
 44
0.0
173
     0
291
     1
 45
0.0
1001
ACAD
1000
AcDbSavedByObjectVersion
1070
     0
  0
VISUALSTYLE
  5
F1
102
{ACAD_REACTORS
330
EF
102
}
330
EF
100
AcDbVisualStyle
  2
FlatWithEdges
 70
     1
 71
     2
 72
     1
 73
     1
 90
        2
 40
-0.6
 41
30.0
 62
     5
 63
     7
 74
     1
 91
        4
 64
     7
 65
   257
 75
     1
175
     1
 42
1.0
 92
        0
 66
   257
 43
1.0
 76
     1
 77
     6
 78
     2
 67
     7
 79
     5
170
     0
171
     0
290
     0
174
     0
 93
        1
 44
0.0
173
     0
291
     1
 45
0.0
1001
ACAD
1000
AcDbSavedByObjectVersion
1070
     0
  0
VISUALSTYLE
  5
F2
102
{ACAD_REACTORS
330
EF
102
}
330
EF
100
AcDbVisualStyle
  2
Gouraud
 70
     2
 71
     2
 72
     2
 73
     1
 90
        2
 40
-0.6
 41
30.0
 62
     5
 63
     7
 74
     0
 91
        4
 64
     7
 65
   257
 75
     1
175
     1
 42
1.0
 92
        0
 66
     7
 43
1.0
 76
     1
 77
     6
 78
     2
 67
     7
 79
     5
170
     0
171
     0
290
     0
174
     0
 93
        1
 44
0.0
173
     0
291
     1
 45
0.0
1001
ACAD
1000
AcDbSavedByObjectVersion
1070
     0
  0
VISUALSTYLE
  5
F3
102
{ACAD_REACTORS
330
EF
102
}
330
EF
100
AcDbVisualStyle
  2
GouraudWithEdges
 70
     3
 71
     2
 72
     2
 73
     1
 90
        2
 40
-0.6
 41
30.0
 62
     5
 63
     7
 74
     1
 91
        4
 64
     7
 65
   257
 75
     1
175
     1
 42
1.0
 92
        0
 66
   257
 43
1.0
 76
     1
 77
     6
 78
     2
 67
     7
 79
     5
170
     0
171
     0
290
     0
174
     0
 93
        1
 44
0.0
173
     0
291
     1
 45
0.0
1001
ACAD
1000
AcDbSavedByObjectVersion
1070
     0
  0
VISUALSTYLE
  5
FD
102
{ACAD_REACTORS
330
EF
102
}
330
EF
100
AcDbVisualStyle
  2
Linepattern
 70
    14
 71
     2
 72
     2
 73
     1
 90
        0
 40
-0.6
 41
-30.0
 62
     5
 63
     7
 74
     1
 91
        4
 64
     7
 65
   257
 75
     7
175
     7
 42
1.0
 92
        8
 66
     7
 43
1.0
 76
     1
 77
     6
 78
     2
 67
     7
 79
     5
170
     0
171
     0
290
     0
174
     0
 93
        1
 44
0.0
173
     0
291
     1
 45
0.0
1001
ACAD
1000
AcDbSavedByObjectVersion
1070
     0
  0
VISUALSTYLE
  5
F9
102
{ACAD_REACTORS
330
EF
102
}
330
EF
100
AcDbVisualStyle
  2
Realistic
 70
     8
 71
     2
 72
     2
 73
     1
 90
        0
 40
-0.6
 41
-30.0
 62
     5
 63
     7
 74
     1
 91
        0
 64
     7
 65
   257
 75
     1
175
     1
 42
1.0
 92
        8
 66
     8
 43
1.0
 76
     1
 77
     6
 78
     2
 67
     7
 79
     5
170
     0
171
     0
290
     0
174
     0
 93
       13
 44
0.0
173
     0
291
     0
 45
0.0
1001
ACAD
1000
AcDbSavedByObjectVersion
1070
     0
  0
VISUALSTYLE
  5
FC
102
{ACAD_REACTORS
330
EF
102
}
330
EF
100
AcDbVisualStyle
  2
Thicken
 70
    13
 71
     2
 72
     2
 73
     1
 90
        0
 40
-0.6
 41
-30.0
 62
     5
 63
     7
 74
     1
 91
        4
 64
     7
 65
   257
 75
     1
175
     1
 42
1.0
 92
       12
 66
     7
 43
1.0
 76
     1
 77
     6
 78
     2
 67
     7
 79
     5
170
     0
171
     0
290
     0
174
     0
 93
        1
 44
0.0
173
     0
291
     1
 45
0.0
1001
ACAD
1000
AcDbSavedByObjectVersion
1070
     0
  0
DICTIONARYVAR
  5
146
102
{ACAD_REACTORS
330
5E
102
}
330
5E
100
DictionaryVariables
280
     0
  1
1:1
  0
DICTIONARYVAR
  5
145
102
{ACAD_REACTORS
330
5E
102
}
330
5E
100
DictionaryVariables
280
     0
  1
STANDARD
  0
DICTIONARYVAR
  5
84
102
{ACAD_REACTORS
330
5E
102
}
330
5E
100
DictionaryVariables
280
     0
  1
STANDARD
  0
DICTIONARYVAR
  5
5F
102
{ACAD_REACTORS
330
5E
102
}
330
5E
100
DictionaryVariables
280
     0
  1
2
  0
DICTIONARYVAR
  5
63
102
{ACAD_REACTORS
330
5E
102
}
330
5E
100
DictionaryVariables
280
     0
  1
1
  0
DICTIONARYVAR
  5
38F
102
{ACAD_REACTORS
330
5E
102
}
330
5E
100
DictionaryVariables
280
     0
  1
0
  0
DICTIONARYVAR
  5
38D
102
{ACAD_REACTORS
330
5E
102
}
330
5E
100
DictionaryVariables
280
     0
  1
2
  0
DICTIONARYVAR
  5
38C
102
{ACAD_REACTORS
330
5E
102
}
330
5E
100
DictionaryVariables
280
     0
  1
1
  0
DICTIONARYVAR
  5
391
102
{ACAD_REACTORS
330
5E
102
}
330
5E
100
DictionaryVariables
280
     0
  1
80.000000
  0
DICTIONARYVAR
  5
390
102
{ACAD_REACTORS
330
5E
102
}
330
5E
100
DictionaryVariables
280
     0
  1
5.000000
  0
DICTIONARYVAR
  5
38E
102
{ACAD_REACTORS
330
5E
102
}
330
5E
100
DictionaryVariables
280
     0
  1
127
  0
DICTIONARY
  5
397
330
D3
100
AcDbDictionary
280
     1
281
     1
  3
ACAD_XREC_ROUNDTRIP
360
398
  0
DICTIONARY
  5
399
330
D7
100
AcDbDictionary
280
     1
281
     1
  3
ACAD_XREC_ROUNDTRIP
360
39A
  0
DICTIONARY
  5
394
330
22
100
AcDbDictionary
280
     1
281
     1
  3
ACAD_XREC_ROUNDTRIP
360
395
  0
DICTIONARY
  5
39D
330
ED
100
AcDbDictionary
280
     1
281
     1
  3
ACAD_XREC_ROUNDTRIP
360
39E
  0
DICTIONARY
  5
39B
330
EC
100
AcDbDictionary
280
     1
281
     1
  3
ACAD_XREC_ROUNDTRIP
360
39C
  0
DICTIONARY
  5
173
330
EE
100
AcDbDictionary
280
     1
281
     1
  3
ACAD_XREC_ROUNDTRIP
360
39F
  3
BUMPTILE
360
175
  3
DIFFUSETILE
360
174
  3
OPACITYTILE
360
176
  3
REFLECTIONTILE
360
177
  0
DICTIONARY
  5
162
330
7F
100
AcDbDictionary
280
     1
281
     1
  3
ACAD_ROUNDTRIP_2008_TABLESTYLE_CELLSTYLEMAP
360
392
  3
ACAD_XREC_ROUNDTRIP
360
396
  0
XRECORD
  5
398
102
{ACAD_REACTORS
330
397
102
}
330
397
100
AcDbXrecord
280
     1
102
SHADEPLOT
 70
     0
102
SHADEPLOTRESLEVEL
 70
     2
102
SHADEPLOTCUSTOMDPI
 70
   300
  0
XRECORD
  5
39A
102
{ACAD_REACTORS
330
399
102
}
330
399
100
AcDbXrecord
280
     1
102
SHADEPLOT
 70
     0
102
SHADEPLOTRESLEVEL
 70
     2
102
SHADEPLOTCUSTOMDPI
 70
   300
  0
XRECORD
  5
395
102
{ACAD_REACTORS
330
394
102
}
330
394
100
AcDbXrecord
280
     1
102
SHADEPLOT
 70
     0
102
SHADEPLOTRESLEVEL
 70
     2
102
SHADEPLOTCUSTOMDPI
 70
   300
  0
XRECORD
  5
39E
102
{ACAD_REACTORS
330
39D
102
}
330
39D
100
AcDbXrecord
280
     1
102
MATERIAL
148
0.0
149
0.0
149
0.0
 93
        0
 94
       63
282
     0
 72
     1
 77
     1
171
     1
175
     1
179
     1
273
     0
  0
XRECORD
  5
39C
102
{ACAD_REACTORS
330
39B
102
}
330
39B
100
AcDbXrecord
280
     1
102
MATERIAL
148
0.0
149
0.0
149
0.0
 93
        0
 94
       63
282
     0
 72
     1
 77
     1
171
     1
175
     1
179
     1
273
     0
  0
XRECORD
  5
39F
102
{ACAD_REACTORS
330
173
102
}
330
173
100
AcDbXrecord
280
     1
102
MATERIAL
148
0.0
149
0.0
149
0.0
 93
        0
 94
       63
282
     0
 72
     1
 77
     1
171
     1
175
     1
179
     1
273
     0
  0
XRECORD
  5
175
102
{ACAD_REACTORS
330
173
102
}
330
173
100
AcDbXrecord
280
     1
270
     1
271
     1
  0
XRECORD
  5
174
102
{ACAD_REACTORS
330
173
102
}
330
173
100
AcDbXrecord
280
     1
270
     1
271
     1
  0
XRECORD
  5
176
102
{ACAD_REACTORS
330
173
102
}
330
173
100
AcDbXrecord
280
     1
270
     1
271
     1
  0
XRECORD
  5
177
102
{ACAD_REACTORS
330
173
102
}
330
173
100
AcDbXrecord
280
     1
270
     1
271
     1
  0
CELLSTYLEMAP
  5
392
102
{ACAD_REACTORS
330
162
102
}
330
162
100
AcDbCellStyleMap
 90
        3
300
CELLSTYLE
  1
TABLEFORMAT_BEGIN
 90
        5
170
     1
 91
        0
 92
    32768
 62
   257
 93
        1
300
CONTENTFORMAT
  1
CONTENTFORMAT_BEGIN
 90
        0
 91
        0
 92
      512
 93
        0
300

 40
0.0
140
1.0
 94
        5
 62
     0
340
11
144
6.0
309
CONTENTFORMAT_END
171
     1
301
MARGIN
  1
CELLMARGIN_BEGIN
 40
1.5
 40
1.5
 40
1.5
 40
1.5
 40
4.5
 40
4.5
309
CELLMARGIN_END
 94
        6
 95
        1
302
GRIDFORMAT
  1
GRIDFORMAT_BEGIN
 90
        0
 91
        1
 62
     0
 92
       -2
340
14
 93
        0
 40
1.125
309
GRIDFORMAT_END
 95
        2
302
GRIDFORMAT
  1
GRIDFORMAT_BEGIN
 90
        0
 91
        1
 62
     0
 92
       -2
340
14
 93
        0
 40
1.125
309
GRIDFORMAT_END
 95
        4
302
GRIDFORMAT
  1
GRIDFORMAT_BEGIN
 90
        0
 91
        1
 62
     0
 92
       -2
340
14
 93
        0
 40
1.125
309
GRIDFORMAT_END
 95
        8
302
GRIDFORMAT
  1
GRIDFORMAT_BEGIN
 90
        0
 91
        1
 62
     0
 92
       -2
340
14
 93
        0
 40
1.125
309
GRIDFORMAT_END
 95
       16
302
GRIDFORMAT
  1
GRIDFORMAT_BEGIN
 90
        0
 91
        1
 62
     0
 92
       -2
340
14
 93
        0
 40
1.125
309
GRIDFORMAT_END
 95
       32
302
GRIDFORMAT
  1
GRIDFORMAT_BEGIN
 90
        0
 91
        1
 62
     0
 92
       -2
340
14
 93
        0
 40
1.125
309
GRIDFORMAT_END
309
TABLEFORMAT_END
  1
CELLSTYLE_BEGIN
 90
        1
 91
        1
300
_TITLE
309
CELLSTYLE_END
300
CELLSTYLE
  1
TABLEFORMAT_BEGIN
 90
        5
170
     1
 91
        0
 92
        0
 62
   257
 93
        1
300
CONTENTFORMAT
  1
CONTENTFORMAT_BEGIN
 90
        0
 91
        0
 92
      512
 93
        0
300

 40
0.0
140
1.0
 94
        5
 62
     0
340
11
144
4.5
309
CONTENTFORMAT_END
171
     1
301
MARGIN
  1
CELLMARGIN_BEGIN
 40
1.5
 40
1.5
 40
1.5
 40
1.5
 40
4.5
 40
4.5
309
CELLMARGIN_END
 94
        6
 95
        1
302
GRIDFORMAT
  1
GRIDFORMAT_BEGIN
 90
        0
 91
        1
 62
     0
 92
       -2
340
14
 93
        0
 40
1.125
309
GRIDFORMAT_END
 95
        2
302
GRIDFORMAT
  1
GRIDFORMAT_BEGIN
 90
        0
 91
        1
 62
     0
 92
       -2
340
14
 93
        0
 40
1.125
309
GRIDFORMAT_END
 95
        4
302
GRIDFORMAT
  1
GRIDFORMAT_BEGIN
 90
        0
 91
        1
 62
     0
 92
       -2
340
14
 93
        0
 40
1.125
309
GRIDFORMAT_END
 95
        8
302
GRIDFORMAT
  1
GRIDFORMAT_BEGIN
 90
        0
 91
        1
 62
     0
 92
       -2
340
14
 93
        0
 40
1.125
309
GRIDFORMAT_END
 95
       16
302
GRIDFORMAT
  1
GRIDFORMAT_BEGIN
 90
        0
 91
        1
 62
     0
 92
       -2
340
14
 93
        0
 40
1.125
309
GRIDFORMAT_END
 95
       32
302
GRIDFORMAT
  1
GRIDFORMAT_BEGIN
 90
        0
 91
        1
 62
     0
 92
       -2
340
14
 93
        0
 40
1.125
309
GRIDFORMAT_END
309
TABLEFORMAT_END
  1
CELLSTYLE_BEGIN
 90
        2
 91
        1
300
_HEADER
309
CELLSTYLE_END
300
CELLSTYLE
  1
TABLEFORMAT_BEGIN
 90
        5
170
     1
 91
        0
 92
        0
 62
   257
 93
        1
300
CONTENTFORMAT
  1
CONTENTFORMAT_BEGIN
 90
        0
 91
        0
 92
      512
 93
        0
300

 40
0.0
140
1.0
 94
        2
 62
     0
340
11
144
4.5
309
CONTENTFORMAT_END
171
     1
301
MARGIN
  1
CELLMARGIN_BEGIN
 40
1.5
 40
1.5
 40
1.5
 40
1.5
 40
4.5
 40
4.5
309
CELLMARGIN_END
 94
        6
 95
        1
302
GRIDFORMAT
  1
GRIDFORMAT_BEGIN
 90
        0
 91
        1
 62
     0
 92
       -2
340
14
 93
        0
 40
1.125
309
GRIDFORMAT_END
 95
        2
302
GRIDFORMAT
  1
GRIDFORMAT_BEGIN
 90
        0
 91
        1
 62
     0
 92
       -2
340
14
 93
        0
 40
1.125
309
GRIDFORMAT_END
 95
        4
302
GRIDFORMAT
  1
GRIDFORMAT_BEGIN
 90
        0
 91
        1
 62
     0
 92
       -2
340
14
 93
        0
 40
1.125
309
GRIDFORMAT_END
 95
        8
302
GRIDFORMAT
  1
GRIDFORMAT_BEGIN
 90
        0
 91
        1
 62
     0
 92
       -2
340
14
 93
        0
 40
1.125
309
GRIDFORMAT_END
 95
       16
302
GRIDFORMAT
  1
GRIDFORMAT_BEGIN
 90
        0
 91
        1
 62
     0
 92
       -2
340
14
 93
        0
 40
1.125
309
GRIDFORMAT_END
 95
       32
302
GRIDFORMAT
  1
GRIDFORMAT_BEGIN
 90
        0
 91
        1
 62
     0
 92
       -2
340
14
 93
        0
 40
1.125
309
GRIDFORMAT_END
309
TABLEFORMAT_END
  1
CELLSTYLE_BEGIN
 90
        3
 91
        2
300
_DATA
309
CELLSTYLE_END
  0
XRECORD
  5
396
102
{ACAD_REACTORS
330
162
102
}
330
162
100
AcDbXrecord
280
     1
102
ACAD_ROUNDTRIP_PRE2007_TABLESTYLE
 90
      512
 91
        0
  1

 92
      512
 93
        0
  2

 94
      512
 95
        0
  3

  0
ENDSEC
  0
EOF
