  0
SECTION
  2
HEADER
  9
$ACADVER
  1
AC1015
  9
$ACADMAINTVER
 70
    20
  9
$DWGCODEPAGE
  3
ANSI_1254
  9
$INSBASE
 10
0.0
 20
0.0
 30
0.0
  9
$EXTMIN
 10
2536.355389299302
 20
925.7223495595599
 30
0.0
  9
$EXTMAX
 10
2701.378508760383
 20
1077.08872330295
 30
0.0
  9
$LIMMIN
 10
0.0
 20
0.0
  9
$LIMMAX
 10
420.0
 20
297.0
  9
$ORTHOMODE
 70
     0
  9
$REGENMODE
 70
     1
  9
$FILLMODE
 70
     1
  9
$QTEXTMODE
 70
     0
  9
$MIRRTEXT
 70
     0
  9
$LTSCALE
 40
1.0
  9
$ATTMODE
 70
     1
  9
$TEXTSIZE
 40
2.5
  9
$TRACEWID
 40
1.0
  9
$TEXTSTYLE
  7
Standard
  9
$CLAYER
  8
0
  9
$CELTYPE
  6
ByLayer
  9
$CECOLOR
 62
   256
  9
$CELTSCALE
 40
1.0
  9
$DISPSILH
 70
     0
  9
$DIMSCALE
 40
1.0
  9
$DIMASZ
 40
2.5
  9
$DIMEXO
 40
0.625
  9
$DIMDLI
 40
3.75
  9
$DIMRND
 40
0.0
  9
$DIMDLE
 40
0.0
  9
$DIMEXE
 40
1.25
  9
$DIMTP
 40
0.0
  9
$DIMTM
 40
0.0
  9
$DIMTXT
 40
2.5
  9
$DIMCEN
 40
2.5
  9
$DIMTSZ
 40
0.0
  9
$DIMTOL
 70
     0
  9
$DIMLIM
 70
     0
  9
$DIMTIH
 70
     0
  9
$DIMTOH
 70
     0
  9
$DIMSE1
 70
     0
  9
$DIMSE2
 70
     0
  9
$DIMTAD
 70
     1
  9
$DIMZIN
 70
     8
  9
$DIMBLK
  1

  9
$DIMASO
 70
     1
  9
$DIMSHO
 70
     1
  9
$DIMPOST
  1

  9
$DIMAPOST
  1

  9
$DIMALT
 70
     0
  9
$DIMALTD
 70
     3
  9
$DIMALTF
 40
0.03937007874016
  9
$DIMLFAC
 40
1.0
  9
$DIMTOFL
 70
     1
  9
$DIMTVP
 40
0.0
  9
$DIMTIX
 70
     0
  9
$DIMSOXD
 70
     0
  9
$DIMSAH
 70
     0
  9
$DIMBLK1
  1

  9
$DIMBLK2
  1

  9
$DIMSTYLE
  2
ISO-25
  9
$DIMCLRD
 70
     0
  9
$DIMCLRE
 70
     0
  9
$DIMCLRT
 70
     0
  9
$DIMTFAC
 40
1.0
  9
$DIMGAP
 40
0.625
  9
$DIMJUST
 70
     0
  9
$DIMSD1
 70
     0
  9
$DIMSD2
 70
     0
  9
$DIMTOLJ
 70
     0
  9
$DIMTZIN
 70
     8
  9
$DIMALTZ
 70
     0
  9
$DIMALTTZ
 70
     0
  9
$DIMUPT
 70
     0
  9
$DIMDEC
 70
     2
  9
$DIMTDEC
 70
     2
  9
$DIMALTU
 70
     2
  9
$DIMALTTD
 70
     3
  9
$DIMTXSTY
  7
Standard
  9
$DIMAUNIT
 70
     0
  9
$DIMADEC
 70
     0
  9
$DIMALTRND
 40
0.0
  9
$DIMAZIN
 70
     0
  9
$DIMDSEP
 70
    44
  9
$DIMATFIT
 70
     3
  9
$DIMFRAC
 70
     0
  9
$DIMLDRBLK
  1

  9
$DIMLUNIT
 70
     2
  9
$DIMLWD
 70
    -2
  9
$DIMLWE
 70
    -2
  9
$DIMTMOVE
 70
     0
  9
$LUNITS
 70
     2
  9
$LUPREC
 70
     4
  9
$SKETCHINC
 40
1.0
  9
$FILLETRAD
 40
0.0
  9
$AUNITS
 70
     0
  9
$AUPREC
 70
     0
  9
$MENU
  1
.
  9
$ELEVATION
 40
0.0
  9
$PELEVATION
 40
0.0
  9
$THICKNESS
 40
0.0
  9
$LIMCHECK
 70
     0
  9
$CHAMFERA
 40
0.0
  9
$CHAMFERB
 40
0.0
  9
$CHAMFERC
 40
0.0
  9
$CHAMFERD
 40
0.0
  9
$SKPOLY
 70
     0
  9
$TDCREATE
 40
2459059.797981655
  9
$TDUCREATE
 40
2459059.672981656
  9
$TDUPDATE
 40
2459067.604453750
  9
$TDUUPDATE
 40
2459067.479453750
  9
$TDINDWG
 40
0.0019555324
  9
$TDUSRTIMER
 40
0.0019555324
  9
$USRTIMER
 70
     1
  9
$ANGBASE
 50
0.0
  9
$ANGDIR
 70
     0
  9
$PDMODE
 70
     0
  9
$PDSIZE
 40
0.0
  9
$PLINEWID
 40
0.0
  9
$SPLFRAME
 70
     0
  9
$SPLINETYPE
 70
     6
  9
$SPLINESEGS
 70
     8
  9
$HANDSEED
  5
4DA
  9
$SURFTAB1
 70
     6
  9
$SURFTAB2
 70
     6
  9
$SURFTYPE
 70
     6
  9
$SURFU
 70
     6
  9
$SURFV
 70
     6
  9
$UCSBASE
  2

  9
$UCSNAME
  2

  9
$UCSORG
 10
0.0
 20
0.0
 30
0.0
  9
$UCSXDIR
 10
1.0
 20
0.0
 30
0.0
  9
$UCSYDIR
 10
0.0
 20
1.0
 30
0.0
  9
$UCSORTHOREF
  2

  9
$UCSORTHOVIEW
 70
     0
  9
$UCSORGTOP
 10
0.0
 20
0.0
 30
0.0
  9
$UCSORGBOTTOM
 10
0.0
 20
0.0
 30
0.0
  9
$UCSORGLEFT
 10
0.0
 20
0.0
 30
0.0
  9
$UCSORGRIGHT
 10
0.0
 20
0.0
 30
0.0
  9
$UCSORGFRONT
 10
0.0
 20
0.0
 30
0.0
  9
$UCSORGBACK
 10
0.0
 20
0.0
 30
0.0
  9
$PUCSBASE
  2

  9
$PUCSNAME
  2

  9
$PUCSORG
 10
0.0
 20
0.0
 30
0.0
  9
$PUCSXDIR
 10
1.0
 20
0.0
 30
0.0
  9
$PUCSYDIR
 10
0.0
 20
1.0
 30
0.0
  9
$PUCSORTHOREF
  2

  9
$PUCSORTHOVIEW
 70
     0
  9
$PUCSORGTOP
 10
0.0
 20
0.0
 30
0.0
  9
$PUCSORGBOTTOM
 10
0.0
 20
0.0
 30
0.0
  9
$PUCSORGLEFT
 10
0.0
 20
0.0
 30
0.0
  9
$PUCSORGRIGHT
 10
0.0
 20
0.0
 30
0.0
  9
$PUCSORGFRONT
 10
0.0
 20
0.0
 30
0.0
  9
$PUCSORGBACK
 10
0.0
 20
0.0
 30
0.0
  9
$USERI1
 70
     0
  9
$USERI2
 70
     0
  9
$USERI3
 70
     0
  9
$USERI4
 70
     0
  9
$USERI5
 70
     0
  9
$USERR1
 40
0.0
  9
$USERR2
 40
0.0
  9
$USERR3
 40
0.0
  9
$USERR4
 40
0.0
  9
$USERR5
 40
0.0
  9
$WORLDVIEW
 70
     1
  9
$SHADEDGE
 70
     3
  9
$SHADEDIF
 70
    70
  9
$TILEMODE
 70
     1
  9
$MAXACTVP
 70
    64
  9
$PINSBASE
 10
0.0
 20
0.0
 30
0.0
  9
$PLIMCHECK
 70
     0
  9
$PEXTMIN
 10
0.0
 20
0.0
 30
0.0
  9
$PEXTMAX
 10
0.0
 20
0.0
 30
0.0
  9
$PLIMMIN
 10
0.0
 20
0.0
  9
$PLIMMAX
 10
12.0
 20
9.0
  9
$UNITMODE
 70
     0
  9
$VISRETAIN
 70
     1
  9
$PLINEGEN
 70
     0
  9
$PSLTSCALE
 70
     1
  9
$TREEDEPTH
 70
  3020
  9
$CMLSTYLE
  2
Standard
  9
$CMLJUST
 70
     0
  9
$CMLSCALE
 40
20.0
  9
$PROXYGRAPHICS
 70
     1
  9
$MEASUREMENT
 70
     1
  9
$CELWEIGHT
370
    -1
  9
$ENDCAPS
280
     0
  9
$JOINSTYLE
280
     0
  9
$LWDISPLAY
290
     0
  9
$INSUNITS
 70
     4
  9
$HYPERLINKBASE
  1

  9
$STYLESHEET
  1

  9
$XEDIT
290
     1
  9
$CEPSNTYPE
380
     0
  9
$PSTYLEMODE
290
     1
  9
$FINGERPRINTGUID
  2
{6CEA0628-AE9D-410A-8385-53605012112A}
  9
$VERSIONGUID
  2
{B9448A01-2DD8-4253-98AD-05BF4F86BA8F}
  9
$EXTNAMES
290
     1
  9
$PSVPSCALE
 40
0.0
  9
$OLESTARTUP
290
     0
  0
ENDSEC
  0
SECTION
  2
CLASSES
  0
CLASS
  1
ACDBDICTIONARYWDFLT
  2
AcDbDictionaryWithDefault
  3
ObjectDBX Classes
 90
        0
280
     0
281
     0
  0
CLASS
  1
ACDBPLACEHOLDER
  2
AcDbPlaceHolder
  3
ObjectDBX Classes
 90
        0
280
     0
281
     0
  0
CLASS
  1
LAYOUT
  2
AcDbLayout
  3
ObjectDBX Classes
 90
        0
280
     0
281
     0
  0
CLASS
  1
DICTIONARYVAR
  2
AcDbDictionaryVar
  3
ObjectDBX Classes
 90
        0
280
     0
281
     0
  0
CLASS
  1
TABLESTYLE
  2
AcDbTableStyle
  3
ObjectDBX Classes
 90
     4095
280
     0
281
     0
  0
CLASS
  1
MATERIAL
  2
AcDbMaterial
  3
ObjectDBX Classes
 90
     1153
280
     0
281
     0
  0
CLASS
  1
VISUALSTYLE
  2
AcDbVisualStyle
  3
ObjectDBX Classes
 90
     4095
280
     0
281
     0
  0
CLASS
  1
SCALE
  2
AcDbScale
  3
ObjectDBX Classes
 90
     1153
280
     0
281
     0
  0
CLASS
  1
MLEADERSTYLE
  2
AcDbMLeaderStyle
  3
ACDB_MLEADERSTYLE_CLASS
 90
     4095
280
     0
281
     0
  0
CLASS
  1
CELLSTYLEMAP
  2
AcDbCellStyleMap
  3
ObjectDBX Classes
 90
     1152
280
     0
281
     0
  0
ENDSEC
  0
SECTION
  2
TABLES
  0
TABLE
  2
VPORT
  5
8
330
0
100
AcDbSymbolTable
 70
     1
  0
VPORT
  5
EA
330
8
100
AcDbSymbolTableRecord
100
AcDbViewportTableRecord
  2
*Active
 70
     0
 10
0.0
 20
0.0
 11
1.0
 21
1.0
 12
2632.832613042373
 22
1057.075754271073
 13
0.0
 23
0.0
 14
10.0
 24
10.0
 15
10.0
 25
10.0
 16
0.0
 26
0.0
 36
1.0
 17
0.0
 27
0.0
 37
0.0
 40
540.32052929956
 41
1.903110047846889
 42
50.0
 43
0.0
 44
0.0
 50
0.0
 51
0.0
 71
     0
 72
  1000
 73
     1
 74
     3
 75
     0
 76
     0
 77
     0
 78
     0
281
     0
 65
     1
110
0.0
120
0.0
130
0.0
111
1.0
121
0.0
131
0.0
112
0.0
122
1.0
132
0.0
 79
     0
146
0.0
  0
ENDTAB
  0
TABLE
  2
LTYPE
  5
5
330
0
100
AcDbSymbolTable
 70
     1
  0
LTYPE
  5
14
330
5
100
AcDbSymbolTableRecord
100
AcDbLinetypeTableRecord
  2
ByBlock
 70
     0
  3

 72
    65
 73
     0
 40
0.0
  0
LTYPE
  5
15
330
5
100
AcDbSymbolTableRecord
100
AcDbLinetypeTableRecord
  2
ByLayer
 70
     0
  3

 72
    65
 73
     0
 40
0.0
  0
LTYPE
  5
16
330
5
100
AcDbSymbolTableRecord
100
AcDbLinetypeTableRecord
  2
Continuous
 70
     0
  3
Solid line
 72
    65
 73
     0
 40
0.0
  0
ENDTAB
  0
TABLE
  2
LAYER
  5
2
330
0
100
AcDbSymbolTable
 70
     1
  0
LAYER
  5
10
102
{ACAD_XDICTIONARY
360
13C
102
}
330
2
100
AcDbSymbolTableRecord
100
AcDbLayerTableRecord
  2
0
 70
     0
 62
     7
  6
Continuous
370
    -3
390
F
  0
ENDTAB
  0
TABLE
  2
STYLE
  5
3
330
0
100
AcDbSymbolTable
 70
     2
  0
STYLE
  5
11
330
3
100
AcDbSymbolTableRecord
100
AcDbTextStyleTableRecord
  2
Standard
 70
     0
 40
0.0
 41
1.0
 50
0.0
 71
     0
 42
2.5
  3
txt
  4

  0
STYLE
  5
132
330
3
100
AcDbSymbolTableRecord
100
AcDbTextStyleTableRecord
  2
Annotative
 70
     0
 40
0.0
 41
1.0
 50
0.0
 71
     0
 42
2.5
  3
txt.shx
  4

1001
AcadAnnotative
1000
AnnotativeData
1002
{
1070
     1
1070
     1
1002
}
  0
ENDTAB
  0
TABLE
  2
VIEW
  5
6
330
0
100
AcDbSymbolTable
 70
     0
  0
ENDTAB
  0
TABLE
  2
UCS
  5
7
330
0
100
AcDbSymbolTable
 70
     0
  0
ENDTAB
  0
TABLE
  2
APPID
  5
9
330
0
100
AcDbSymbolTable
 70
     7
  0
APPID
  5
12
330
9
100
AcDbSymbolTableRecord
100
AcDbRegAppTableRecord
  2
ACAD
 70
     0
  0
APPID
  5
9E
330
9
100
AcDbSymbolTableRecord
100
AcDbRegAppTableRecord
  2
ACAD_PSEXT
 70
     0
  0
APPID
  5
133
330
9
100
AcDbSymbolTableRecord
100
AcDbRegAppTableRecord
  2
AcadAnnoPO
 70
     0
  0
APPID
  5
134
330
9
100
AcDbSymbolTableRecord
100
AcDbRegAppTableRecord
  2
AcadAnnotative
 70
     0
  0
APPID
  5
135
330
9
100
AcDbSymbolTableRecord
100
AcDbRegAppTableRecord
  2
ACAD_DSTYLE_DIMJAG
 70
     0
  0
APPID
  5
136
330
9
100
AcDbSymbolTableRecord
100
AcDbRegAppTableRecord
  2
ACAD_DSTYLE_DIMTALN
 70
     0
  0
APPID
  5
165
330
9
100
AcDbSymbolTableRecord
100
AcDbRegAppTableRecord
  2
ACAD_MLEADERVER
 70
     0
  0
ENDTAB
  0
TABLE
  2
DIMSTYLE
  5
A
330
0
100
AcDbSymbolTable
 70
     2
100
AcDbDimStyleTable
 71
     2
340
27
340
137
  0
DIMSTYLE
105
27
330
A
100
AcDbSymbolTableRecord
100
AcDbDimStyleTableRecord
  2
ISO-25
 70
     0
 41
2.5
 42
0.625
 43
3.75
 44
1.25
 73
     0
 74
     0
 77
     1
 78
     8
140
2.5
141
2.5
143
0.03937007874016
147
0.625
171
     3
172
     1
271
     2
272
     2
274
     3
278
    44
283
     0
284
     8
340
11
  0
DIMSTYLE
105
137
330
A
100
AcDbSymbolTableRecord
100
AcDbDimStyleTableRecord
  2
Annotative
 70
     0
 40
0.0
 41
2.5
 42
0.625
 43
3.75
 44
1.25
 73
     0
 74
     0
 77
     1
 78
     8
140
2.5
141
2.5
143
0.03937007874016
147
0.625
171
     3
172
     1
271
     2
272
     2
274
     3
278
    44
283
     0
284
     8
340
11
1001
AcadAnnotative
1000
AnnotativeData
1002
{
1070
     1
1070
     1
1002
}
1001
ACAD_DSTYLE_DIMJAG
1070
   388
1040
1.5
1001
ACAD_DSTYLE_DIMTALN
1070
   392
1070
     0
  0
ENDTAB
  0
TABLE
  2
BLOCK_RECORD
  5
1
330
0
100
AcDbSymbolTable
 70
     4
  0
BLOCK_RECORD
  5
1F
330
1
100
AcDbSymbolTableRecord
100
AcDbBlockTableRecord
  2
*Model_Space
340
22
  0
BLOCK_RECORD
  5
D2
330
1
100
AcDbSymbolTableRecord
100
AcDbBlockTableRecord
  2
*Paper_Space
340
D3
  0
BLOCK_RECORD
  5
D6
330
1
100
AcDbSymbolTableRecord
100
AcDbBlockTableRecord
  2
*Paper_Space0
340
D7
  0
BLOCK_RECORD
  5
3B3
330
1
100
AcDbSymbolTableRecord
100
AcDbBlockTableRecord
  2
1
340
0
310
2800000020000000200000000100080000000000000400000000000000000000000000000000000000000000000080000080000000808000800000008000800080800000C0C0C000C0DCC000F0CAA6000020400000206000002080000020A0000020C0000020E00000400000004020000040400000406000004080000040A0
310
000040C0000040E00000600000006020000060400000606000006080000060A0000060C0000060E00000800000008020000080400000806000008080000080A0000080C0000080E00000A0000000A0200000A0400000A0600000A0800000A0A00000A0C00000A0E00000C0000000C0200000C0400000C0600000C0800000C0
310
A00000C0C00000C0E00000E0000000E0200000E0400000E0600000E0800000E0A00000E0C00000E0E00040000000400020004000400040006000400080004000A0004000C0004000E00040200000402020004020400040206000402080004020A0004020C0004020E000404000004040200040404000404060004040800040
310
40A0004040C0004040E00040600000406020004060400040606000406080004060A0004060C0004060E00040800000408020004080400040806000408080004080A0004080C0004080E00040A0000040A0200040A0400040A0600040A0800040A0A00040A0C00040A0E00040C0000040C0200040C0400040C0600040C08000
310
40C0A00040C0C00040C0E00040E0000040E0200040E0400040E0600040E0800040E0A00040E0C00040E0E00080000000800020008000400080006000800080008000A0008000C0008000E00080200000802020008020400080206000802080008020A0008020C0008020E00080400000804020008040400080406000804080
310
008040A0008040C0008040E00080600000806020008060400080606000806080008060A0008060C0008060E00080800000808020008080400080806000808080008080A0008080C0008080E00080A0000080A0200080A0400080A0600080A0800080A0A00080A0C00080A0E00080C0000080C0200080C0400080C0600080C0
310
800080C0A00080C0C00080C0E00080E0000080E0200080E0400080E0600080E0800080E0A00080E0C00080E0E000C0000000C0002000C0004000C0006000C0008000C000A000C000C000C000E000C0200000C0202000C0204000C0206000C0208000C020A000C020C000C020E000C0400000C0402000C0404000C0406000C0
310
408000C040A000C040C000C040E000C0600000C0602000C0604000C0606000C0608000C060A000C060C000C060E000C0800000C0802000C0804000C0806000C0808000C080A000C080C000C080E000C0A00000C0A02000C0A04000C0A06000C0A08000C0A0A000C0A0C000C0A0E000C0C00000C0C02000C0C04000C0C06000
310
C0C08000C0C0A000F0FBFF00A4A0A000808080000000FF0000FF000000FFFF00FF000000FF00FF00FFFF0000FFFFFF0000000000000000000000000000000000000000000000000000000000000000000000000000000000000000000000000000000000000000000000000000000000000000000000000000000000000000
310
00000000000000000000000000000000000000000000000000000000000000000000000000000000000000000000000000000000000000000000000000000000000000000000000000000000000000000000000000000000000000000000000000000000000000000000000000000000000000000000000000000000000000
310
000000000000000000000000000000000000000000000000000000000000000000000000000000000000000000000000000000000000000000000000FFFFFFFFFFFFFFFFFFFFFFFFFFFFFFFFFF0000000000000000000000000000FFFFFFFFFFFFFFFFFFFFFFFFFFFFFFFFFFFF0000000000000000000000000000FFFFFFFF
310
FFFFFFFFFFFFFFFFFFFFFFFFFFFF000000000000000000000000FFFFFFFFFFFFFFFFFFFFFFFFFFFFFFFFFFFFFFFFFFFFFF000000000000000000FFFF0000000000000000FF00FF0000000000000000FFFF0000000000000000FFFFFFFFFFFFFFFFFFFFFFFFFFFFFFFFFFFFFFFFFFFFFFFFFF0000FFFFFFFFFFFFFFFFFFFFFF
310
FFFFFFFFFFFFFFFFFFFFFFFFFFFFFFFFFFFFFF0000FF00000000000000000000000000000000FF00000000000000000000FF000000FF00000000000000000000000000000000FF00000000000000000000FF000000FF00000000000000000000000000000000FF00000000000000000000FF000000FF000000000000000000
310
00000000000000FF00000000000000000000FF000000FFFFFFFFFFFFFFFFFFFFFFFFFFFFFFFFFFFFA4A4A4A4A4A4A4A4A4A4FF000000FFFFFFFFFFFFFFFFFFFFFFFFFFFFFFFFFFFFFFFFFFFFFFFFFFFF00FF00000000FFFFFFFFFFFFFFFFFFFFFFFFFFFFFFFFFFFFFFFFFFFFFFFFFFFFFFFF00000000FF0000000000000000
310
00000000000000000000000000000000FFFFFF00000000FFFFFFFFFFFFFFFFFFFFFFFFFFFFFFFFFFFFFFFFFFFFFFFFFFFFFF0000000000000000000000000000000000000000000000000000000000000000000000000000000000000000000000000000000000000000000000000000000000000000000000000000000000
310
00000000000000000000000000000000000000000000000000000000000000000000000000000000000000000000000000000000000000000000000000000000000000000000000000000000000000000000000000000000000000000000000000000000000000000000000000000000000000000000000000000000000000
310
0000000000000000000000000000000000000000000000000000000000000000000000000000000000000000000000000000000000000000
102
{BLKREFS
331
41D
102
}
1001
ACAD
1000
DesignCenter Data
1002
{
1070
     1
1070
     4
1002
}
  0
BLOCK_RECORD
  5
41E
330
1
100
AcDbSymbolTableRecord
100
AcDbBlockTableRecord
  2
2
340
0
310
2800000020000000200000000100080000000000000400000000000000000000000000000000000000000000000080000080000000808000800000008000800080800000C0C0C000C0DCC000F0CAA6000020400000206000002080000020A0000020C0000020E00000400000004020000040400000406000004080000040A0
310
000040C0000040E00000600000006020000060400000606000006080000060A0000060C0000060E00000800000008020000080400000806000008080000080A0000080C0000080E00000A0000000A0200000A0400000A0600000A0800000A0A00000A0C00000A0E00000C0000000C0200000C0400000C0600000C0800000C0
310
A00000C0C00000C0E00000E0000000E0200000E0400000E0600000E0800000E0A00000E0C00000E0E00040000000400020004000400040006000400080004000A0004000C0004000E00040200000402020004020400040206000402080004020A0004020C0004020E000404000004040200040404000404060004040800040
310
40A0004040C0004040E00040600000406020004060400040606000406080004060A0004060C0004060E00040800000408020004080400040806000408080004080A0004080C0004080E00040A0000040A0200040A0400040A0600040A0800040A0A00040A0C00040A0E00040C0000040C0200040C0400040C0600040C08000
310
40C0A00040C0C00040C0E00040E0000040E0200040E0400040E0600040E0800040E0A00040E0C00040E0E00080000000800020008000400080006000800080008000A0008000C0008000E00080200000802020008020400080206000802080008020A0008020C0008020E00080400000804020008040400080406000804080
310
008040A0008040C0008040E00080600000806020008060400080606000806080008060A0008060C0008060E00080800000808020008080400080806000808080008080A0008080C0008080E00080A0000080A0200080A0400080A0600080A0800080A0A00080A0C00080A0E00080C0000080C0200080C0400080C0600080C0
310
800080C0A00080C0C00080C0E00080E0000080E0200080E0400080E0600080E0800080E0A00080E0C00080E0E000C0000000C0002000C0004000C0006000C0008000C000A000C000C000C000E000C0200000C0202000C0204000C0206000C0208000C020A000C020C000C020E000C0400000C0402000C0404000C0406000C0
310
408000C040A000C040C000C040E000C0600000C0602000C0604000C0606000C0608000C060A000C060C000C060E000C0800000C0802000C0804000C0806000C0808000C080A000C080C000C080E000C0A00000C0A02000C0A04000C0A06000C0A08000C0A0A000C0A0C000C0A0E000C0C00000C0C02000C0C04000C0C06000
310
C0C08000C0C0A000F0FBFF00A4A0A000808080000000FF0000FF000000FFFF00FF000000FF00FF00FFFF0000FFFFFF0000000000000000000000000000000000000000000000000000000000000000000000000000000000000000000000000000000000000000000000000000000000000000000000000000000000000000
310
0000000000000000000000000000000000000000000000000000000000000000000000000000000000000000000000000000FFFFFFFFFFFFFFFFFFFFFFFFFFFFFFFFFFFFFFFFFF0000000000000000000000FFFFFFFFFFFFFFFFFFFFFFFFFFFFFFFFFFFFFFFFFFFFFF000000000000000000FF000000000000000000000000
310
000000000000FFFFFFFFFFFF00000000000000FF000000000000000000000000000000000000000000FFFFFFFF000000000000FF00000000000000000000000000000000000000000000FFFFFF000000000000FF0000000000000000000000000000000000000000000000FFFFFFFF00000000FF0000000000000000000000
310
00000000000000000000000000FFFFFFFF000000FF00000000000000000000000000000000000000000000000000FFFFFF000000FF00000000000000000000000000000000000000000000000000FFFF00000000FFFFFFFFFFFFFFFFFFFFFFFFFFFFFFFFFFFFFFFFFFFFFFFFFFFFFFFF00000000FFFFFFFFFFFFFFFFFFFFFF
310
FFFFFFFFFFFFFFFFFFFFFFFFFFFFFF00FF00000000FF0000000000000000000000000000000000000000000000FF0000FF00000000FF0000000000000000000000000000000000000000000000FF0000FF00000000FFFFFFFFFFFFFFFFFFFFFFFFFFFFFFFFFFFFFFFFFFFFFFFFFFFF00FF00000000FFFFFFFFFFFFFFFFFFFF
310
FFFFFFFFFFFFFFFFFFFFFFFFFFFFFFFFFFFF00000000FF000000000000000000000000000000000000000000000000FFFFFF00000000FF00000000000000000000000000000000000000000000000000FFFFFF000000FF000000000000000000000000000000000000000000000000FFFFFFFF000000FF0000000000000000
310
000000000000000000000000000000FFFFFFFF00000000FF00000000000000000000000000000000000000000000FFFFFF000000000000FF000000000000000000000000000000000000000000FFFFFFFF000000000000FF000000000000000000000000000000000000FFFFFFFFFFFF00000000000000FFFFFFFFFFFFFFFF
310
FFFFFFFFFFFFFFFFFFFFFFFFFFFFFF000000000000000000FFFFFFFFFFFFFFFFFFFFFFFFFFFFFFFFFFFFFFFFFF00000000000000000000000000000000000000000000000000000000000000000000000000000000000000000000000000000000000000000000000000000000000000000000000000000000000000000000
310
0000000000000000000000000000000000000000000000000000000000000000000000000000000000000000000000000000000000000000
102
{BLKREFS
331
455
102
}
1001
ACAD
1000
DesignCenter Data
1002
{
1070
     1
1070
     4
1002
}
  0
BLOCK_RECORD
  5
456
330
1
100
AcDbSymbolTableRecord
100
AcDbBlockTableRecord
  2
3
340
0
310
2800000020000000200000000100080000000000000400000000000000000000000000000000000000000000000080000080000000808000800000008000800080800000C0C0C000C0DCC000F0CAA6000020400000206000002080000020A0000020C0000020E00000400000004020000040400000406000004080000040A0
310
000040C0000040E00000600000006020000060400000606000006080000060A0000060C0000060E00000800000008020000080400000806000008080000080A0000080C0000080E00000A0000000A0200000A0400000A0600000A0800000A0A00000A0C00000A0E00000C0000000C0200000C0400000C0600000C0800000C0
310
A00000C0C00000C0E00000E0000000E0200000E0400000E0600000E0800000E0A00000E0C00000E0E00040000000400020004000400040006000400080004000A0004000C0004000E00040200000402020004020400040206000402080004020A0004020C0004020E000404000004040200040404000404060004040800040
310
40A0004040C0004040E00040600000406020004060400040606000406080004060A0004060C0004060E00040800000408020004080400040806000408080004080A0004080C0004080E00040A0000040A0200040A0400040A0600040A0800040A0A00040A0C00040A0E00040C0000040C0200040C0400040C0600040C08000
310
40C0A00040C0C00040C0E00040E0000040E0200040E0400040E0600040E0800040E0A00040E0C00040E0E00080000000800020008000400080006000800080008000A0008000C0008000E00080200000802020008020400080206000802080008020A0008020C0008020E00080400000804020008040400080406000804080
310
008040A0008040C0008040E00080600000806020008060400080606000806080008060A0008060C0008060E00080800000808020008080400080806000808080008080A0008080C0008080E00080A0000080A0200080A0400080A0600080A0800080A0A00080A0C00080A0E00080C0000080C0200080C0400080C0600080C0
310
800080C0A00080C0C00080C0E00080E0000080E0200080E0400080E0600080E0800080E0A00080E0C00080E0E000C0000000C0002000C0004000C0006000C0008000C000A000C000C000C000E000C0200000C0202000C0204000C0206000C0208000C020A000C020C000C020E000C0400000C0402000C0404000C0406000C0
310
408000C040A000C040C000C040E000C0600000C0602000C0604000C0606000C0608000C060A000C060C000C060E000C0800000C0802000C0804000C0806000C0808000C080A000C080C000C080E000C0A00000C0A02000C0A04000C0A06000C0A08000C0A0A000C0A0C000C0A0E000C0C00000C0C02000C0C04000C0C06000
310
C0C08000C0C0A000F0FBFF00A4A0A000808080000000FF0000FF000000FFFF00FF000000FF00FF00FFFF0000FFFFFF0000000000000000000000000000000000000000000000000000000000000000000000000000000000000000000000000000000000000000000000000000000000000000000000000000000000000000
310
000000000000000000000000000000000000000000000000000000000000000000000000000000000000000000000000000000000000000000000000000000000000000000000000000000000000000000000000000000000000FFFFFFFFFFFFFF00000000000000000000000000000000000000000000FFFFFFFFFFFFFFFF
310
FFFFFFFFFF000000000000000000000000000000000000FFFFFFFFFFFFFFFFFFFFFFFFFFFFFF00000000000000000000000000000000FFFFFFFFFFFFFFFFFFFFFFFFFFFFFFFFFF00000000000000000000000000FFFFFFFFFFFFFFFFFFFFFFFFFFFFFFFFFFFFFFFF000000000000000000000000FFFFFFFFFFFF0000000000
310
00000000FFFFFFFFFF000000000000000000000000FFFFFF0000000000000000000000000000FF00FFFFFF000000000000000000FFFF000000000000000000A4000000000000FF000000FFFFFFFF000000000000FFFF0000A4A4A4A4A4A4A4A4A4A4A4A4A4A4FF0000000000FFFFFFFF0000000000FFA4A4A400000000FFFF
310
FFFFFFFFFFFFFFFFFF000000000000FFFFFFFF000000FFA40000000000FFFFFFFFFFFFFFFFFFFFFFFFFFFFFF0000000000FFFF0000FFA40000000000FFFFFF000000000000FFFFFF00FFFF00FFFF00000000FF0000FFFF0000000000FFFF00000000000000000000FFFFFFFFFFFFFFFFFF00FF000000FFFFFFFFA4FFFFFFFF
310
000000000000000000000000FFFF00FFFF00FFFF000000FFFF00FFFFFF0000FFFFFF000000000000000000000000FFFFFFFFFFFF000000FFFFFF000000FFFF0000FFFFFFFF000000000000000000000000FFFF000000000000FFFFFF000000FFFFFF0000FFFFFF000000000000000000FFFF000000000000000000FFFFFF00
310
000000FFFF0000FFFFFFFF00000000FFFF00000000000000000000000000FFFFFF00000000FFFFFF0000FFFFFF00FFFF00000000000000000000000000000000FFFFFF0000000000FFFF0000FFFFFF00000000000000000000000000000000000000FFFFFF00FFFFFFFFFFFFFF000000000000000000000000000000000000
310
0000000000FFFFFF0000000000000000000000000000000000000000000000000000000000000000000000000000000000000000000000000000000000000000000000000000000000000000000000000000000000000000000000000000000000000000000000000000000000000000000000000000000000000000000000
310
0000000000000000000000000000000000000000000000000000000000000000000000000000000000000000000000000000000000000000
102
{BLKREFS
331
4BF
102
}
1001
ACAD
1000
DesignCenter Data
1002
{
1070
     1
1070
     4
1002
}
  0
ENDTAB
  0
ENDSEC
  0
SECTION
  2
BLOCKS
  0
BLOCK
  5
20
330
1F
100
AcDbEntity
  8
0
100
AcDbBlockBegin
  2
*Model_Space
 70
     0
 10
0.0
 20
0.0
 30
0.0
  3
*Model_Space
  1

  0
ENDBLK
  5
21
330
1F
100
AcDbEntity
  8
0
100
AcDbBlockEnd
  0
BLOCK
  5
D4
330
D2
100
AcDbEntity
 67
     1
  8
0
100
AcDbBlockBegin
  2
*Paper_Space
 70
     0
 10
0.0
 20
0.0
 30
0.0
  3
*Paper_Space
  1

  0
ENDBLK
  5
D5
330
D2
100
AcDbEntity
 67
     1
  8
0
100
AcDbBlockEnd
  0
BLOCK
  5
D8
330
D6
100
AcDbEntity
 67
     1
  8
0
100
AcDbBlockBegin
  2
*Paper_Space0
 70
     0
 10
0.0
 20
0.0
 30
0.0
  3
*Paper_Space0
  1

  0
ENDBLK
  5
D9
330
D6
100
AcDbEntity
 67
     1
  8
0
100
AcDbBlockEnd
  0
BLOCK
  5
3B4
330
3B3
100
AcDbEntity
  8
0
100
AcDbBlockBegin
  2
1
 70
     0
 10
0.0
 20
0.0
 30
0.0
  3
1
  1

  0
LINE
  5
3B6
330
3B3
100
AcDbEntity
  8
0
  6
Continuous
 62
     7
370
    15
100
AcDbLine
 10
2547.489126293938
 20
1049.956481623632
 30
0.0
 11
2547.489126293938
 21
1048.156481623632
 31
0.0
  0
LINE
  5
3B7
330
3B3
100
AcDbEntity
  8
0
  6
Continuous
 62
     7
370
    15
100
AcDbLine
 10
2602.489126293938
 20
1048.156481623632
 30
0.0
 11
2602.489126293938
 21
1049.956481623632
 31
0.0
  0
LINE
  5
3B8
330
3B3
100
AcDbEntity
  8
0
  6
Continuous
 62
     7
370
    15
100
AcDbLine
 10
2602.239126293938
 20
1051.154553488796
 30
0.0
 11
2602.239126293938
 21
1061.156481623632
 31
0.0
  0
ARC
  5
3B9
330
3B3
100
AcDbEntity
  8
0
  6
Continuous
 62
     7
370
    15
100
AcDbCircle
 10
2592.239126293938
 20
1061.156481623632
 30
0.0
 40
10.00000000000003
100
AcDbArc
 50
0.0
 51
90.0
  0
LINE
  5
3BA
330
3B3
100
AcDbEntity
  8
0
  6
Continuous
 62
     7
370
    15
100
AcDbLine
 10
2602.191126293938
 20
1049.956481623632
 30
0.0
 11
2602.191126293938
 21
1050.162117224753
 31
0.0
  0
LINE
  5
3BB
330
3B3
100
AcDbEntity
  8
0
  6
Continuous
 62
     7
370
    15
100
AcDbLine
 10
2602.190126293939
 20
1050.15084602251
 30
0.0
 11
2602.190126293939
 21
1051.158406317951
 31
0.0
  0
LINE
  5
3BC
330
3B3
100
AcDbEntity
  8
0
  6
Continuous
 62
     7
370
    15
100
AcDbLine
 10
2574.989126293938
 20
1066.364773245839
 30
0.0
 11
2536.355389299302
 21
1066.364773245839
 31
0.0
  0
SPLINE
  5
3BD
330
3B3
100
AcDbEntity
  8
0
  6
Continuous
 62
     7
370
    15
100
AcDbSpline
210
0.0
220
0.0
230
1.0
 70
     8
 71
     3
 72
    16
 73
    12
 74
     0
 42
0.0000000001
 43
0.0000000001
 40
0.0
 40
0.0
 40
0.0
 40
0.0
 40
0.0359882335274484
 40
0.1022050532781635
 40
0.1919052869022744
 40
0.3056686710401392
 40
0.4139780950309509
 40
0.5373219705232613
 40
0.6758790821494914
 40
0.8299507095568536
 40
1.0
 40
1.0
 40
1.0
 40
1.0
 10
2583.032060464125
 20
1066.339137329703
 30
0.0
 10
2582.951633159785
 20
1066.338957032404
 30
0.0
 10
2582.723223034606
 20
1066.338444995739
 30
0.0
 10
2582.23689635358
 20
1066.335511982749
 30
0.0
 10
2581.543731615402
 20
1066.333504976906
 30
0.0
 10
2580.717682113297
 20
1066.332920152283
 30
0.0
 10
2579.789558076085
 20
1066.334040579166
 30
0.0
 10
2578.782359609354
 20
1066.336154984827
 30
0.0
 10
2577.64010741295
 20
1066.338648220509
 30
0.0
 10
2576.360815835089
 20
1066.340987885222
 30
0.0
 10
2575.461139436913
 20
1066.340972161958
 30
0.0
 10
2574.989126293939
 20
1066.340963912783
 30
0.0
  0
LINE
  5
3BE
330
3B3
100
AcDbEntity
  8
0
  6
Continuous
 62
     7
370
    15
100
AcDbLine
 10
2556.159147305329
 20
1036.836460612241
 30
0.0
 11
2556.840409211913
 21
1036.155198705657
 31
0.0
  0
LINE
  5
3BF
330
3B3
100
AcDbEntity
  8
0
  6
Continuous
 62
     7
370
    15
100
AcDbLine
 10
2593.137843375964
 20
1036.155198705657
 30
0.0
 11
2594.424503094586
 21
1037.441858424279
 31
0.0
  0
LINE
  5
3C0
330
3B3
100
AcDbEntity
  8
0
  6
Continuous
 62
     7
370
    15
100
AcDbLine
 10
2556.600390029278
 20
1037.112068473253
 30
0.0
 11
2556.173542141698
 21
1036.849440087021
 31
0.0
  0
SPLINE
  5
3C1
330
3B3
100
AcDbEntity
  8
0
  6
Continuous
 62
     7
370
    15
100
AcDbSpline
210
0.0
220
0.0
230
1.0
 70
     8
 71
     3
 72
     9
 73
     5
 74
     0
 42
0.0000000001
 43
0.0000000001
 40
0.0
 40
0.0
 40
0.0
 40
0.0
 40
0.4999957876538583
 40
1.0
 40
1.0
 40
1.0
 40
1.0
 10
2556.600654810598
 20
1039.112232409717
 30
0.0
 10
2556.391489459351
 20
1038.983537630889
 30
0.0
 10
2555.973155232522
 20
1038.726145904785
 30
0.0
 10
2555.554816953807
 20
1038.468760789582
 30
0.0
 10
2555.345646052264
 20
1038.340067147785
 30
0.0
  0
SPLINE
  5
3C2
330
3B3
100
AcDbEntity
  8
0
  6
Continuous
 62
     7
370
    15
100
AcDbSpline
210
0.0
220
0.0
230
1.0
 70
     8
 71
     3
 72
     9
 73
     5
 74
     0
 42
0.0000000001
 43
0.0000000001
 40
0.0
 40
0.0
 40
0.0
 40
0.0
 40
0.4999957664724842
 40
1.0
 40
1.0
 40
1.0
 40
1.0
 10
2556.600656652604
 20
1041.112233539247
 30
0.0
 10
2556.391490923741
 20
1040.983538528559
 30
0.0
 10
2555.973155923952
 20
1040.72614632783
 30
0.0
 10
2555.554816924306
 20
1040.468760771255
 30
0.0
 10
2555.345645653434
 20
1040.340066903319
 30
0.0
  0
SPLINE
  5
3C3
330
3B3
100
AcDbEntity
  8
0
  6
Continuous
 62
     7
370
    15
100
AcDbSpline
210
0.0
220
0.0
230
1.0
 70
     8
 71
     3
 72
     9
 73
     5
 74
     0
 42
0.0000000001
 43
0.0000000001
 40
0.0
 40
0.0
 40
0.0
 40
0.0
 40
0.4999957340891887
 40
1.0
 40
1.0
 40
1.0
 40
1.0
 10
2556.601269533372
 20
1043.112601482694
 30
0.0
 10
2556.392103659355
 20
1042.983906088416
 30
0.0
 10
2555.973768342159
 20
1042.72651310383
 30
0.0
 10
2555.555427797984
 20
1042.469126813817
 30
0.0
 10
2555.346255741292
 20
1042.340432570824
 30
0.0
  0
SPLINE
  5
3C4
330
3B3
100
AcDbEntity
  8
0
  6
Continuous
 62
     7
370
    15
100
AcDbSpline
210
0.0
220
0.0
230
1.0
 70
     8
 71
     3
 72
     9
 73
     5
 74
     0
 42
0.0000000001
 43
0.0000000001
 40
0.0
 40
0.0
 40
0.0
 40
0.0
 40
0.6263539445356607
 40
1.0
 40
1.0
 40
1.0
 40
1.0
 10
2594.632586313329
 20
1043.340079533501
 30
0.0
 10
2594.423414877025
 20
1043.468773304479
 30
0.0
 10
2594.089464020438
 20
1043.674238237048
 30
0.0
 10
2593.755516385114
 20
1043.879708478426
 30
0.0
 10
2593.630738168443
 20
1043.956481623632
 30
0.0
  0
SPLINE
  5
3C5
330
3B3
100
AcDbEntity
  8
0
  6
Continuous
 62
     7
370
    15
100
AcDbSpline
210
0.0
220
0.0
230
1.0
 70
     8
 71
     3
 72
     9
 73
     5
 74
     0
 42
0.0000000001
 43
0.0000000001
 40
0.0
 40
0.0
 40
0.0
 40
0.0
 40
0.5047083618100185
 40
0.9999999999999998
 40
0.9999999999999998
 40
0.9999999999999998
 40
0.9999999999999998
 10
2594.632913787465
 20
1041.339876562993
 30
0.0
 10
2594.423740414163
 20
1041.468571862068
 30
0.0
 10
2594.009296372555
 20
1041.7235612952
 30
0.0
 10
2593.594855278932
 20
1041.978557524367
 30
0.0
 10
2593.389586070739
 20
1042.104855024443
 30
0.0
  0
SPLINE
  5
3C6
330
3B3
100
AcDbEntity
  8
0
  6
Continuous
 62
     7
370
    15
100
AcDbSpline
210
0.0
220
0.0
230
1.0
 70
     8
 71
     3
 72
     9
 73
     5
 74
     0
 42
0.0000000001
 43
0.0000000001
 40
0.0
 40
0.0
 40
0.0
 40
0.0
 40
0.5047758383257679
 40
1.0
 40
1.0
 40
1.0
 40
1.0
 10
2594.632729107498
 20
1039.339991663727
 30
0.0
 10
2594.423558769405
 20
1039.468684989409
 30
0.0
 10
2594.009176142086
 20
1039.723636427076
 30
0.0
 10
2593.594797331671
 20
1039.978594368994
 30
0.0
 10
2593.389586932668
 20
1040.104855702042
 30
0.0
  0
SPLINE
  5
3C7
330
3B3
100
AcDbEntity
  8
0
  6
Continuous
 62
     7
370
    15
100
AcDbSpline
210
0.0
220
0.0
230
1.0
 70
     8
 71
     3
 72
     9
 73
     5
 74
     0
 42
0.0000000001
 43
0.0000000001
 40
0.0
 40
0.0
 40
0.0
 40
0.0
 40
0.405562346749598
 40
1.0
 40
1.0
 40
1.0
 40
1.0
 10
2594.424017064383
 20
1037.468394167063
 30
0.0
 10
2594.284173043006
 20
1037.554434071792
 30
0.0
 10
2593.939357942449
 20
1037.766583709001
 30
0.0
 10
2593.594547184412
 20
1037.978738837509
 30
0.0
 10
2593.389578686589
 20
1038.104851834225
 30
0.0
  0
SPLINE
  5
3C8
330
3B3
100
AcDbEntity
  8
0
  6
Continuous
 62
     7
370
    15
100
AcDbSpline
210
0.0
220
0.0
230
1.0
 70
     8
 71
     3
 72
     9
 73
     5
 74
     0
 42
0.0000000001
 43
0.0000000001
 40
0.0
 40
0.0
 40
0.0
 40
0.0
 40
0.503502344835979
 40
1.0
 40
1.0
 40
1.0
 40
1.0
 10
2555.342581522859
 20
1038.150692695217
 30
0.0
 10
2555.551717810364
 20
1037.975166471426
 30
0.0
 10
2555.967080895859
 20
1037.626555932485
 30
0.0
 10
2556.382440941234
 20
1037.277941415216
 30
0.0
 10
2556.588666229811
 20
1037.104855124835
 30
0.0
  0
SPLINE
  5
3C9
330
3B3
100
AcDbEntity
  8
0
  6
Continuous
 62
     7
370
    15
100
AcDbSpline
210
0.0
220
0.0
230
1.0
 70
     8
 71
     3
 72
     9
 73
     5
 74
     0
 42
0.0000000001
 43
0.0000000001
 40
0.0
 40
0.0
 40
0.0
 40
0.0
 40
0.5034793987287032
 40
1.0
 40
1.0
 40
1.0
 40
1.0
 10
2555.342534816985
 20
1040.150732069139
 30
0.0
 10
2555.551669339965
 20
1039.975207306212
 30
0.0
 10
2555.967047850999
 20
1039.626583780861
 30
0.0
 10
2556.382423228495
 20
1039.277956448936
 30
0.0
 10
2556.588665660682
 20
1039.104855796469
 30
0.0
  0
SPLINE
  5
3CA
330
3B3
100
AcDbEntity
  8
0
  6
Continuous
 62
     7
370
    15
100
AcDbSpline
210
0.0
220
0.0
230
1.0
 70
     8
 71
     3
 72
     9
 73
     5
 74
     0
 42
0.0000000001
 43
0.0000000001
 40
0.0
 40
0.0
 40
0.0
 40
0.0
 40
0.5036000399913884
 40
1.0
 40
1.0
 40
1.0
 40
1.0
 10
2555.342826581549
 20
1042.150490308908
 30
0.0
 10
2555.551962703236
 20
1041.974964319406
 30
0.0
 10
2555.967244881708
 20
1041.626421873885
 30
0.0
 10
2556.382523458684
 20
1041.277875480304
 30
0.0
 10
2556.588667727688
 20
1041.104857064468
 30
0.0
  0
SPLINE
  5
3CB
330
3B3
100
AcDbEntity
  8
0
  6
Continuous
 62
     7
370
    15
100
AcDbSpline
210
0.0
220
0.0
230
1.0
 70
     8
 71
     3
 72
     9
 73
     5
 74
     0
 42
0.0000000001
 43
0.0000000001
 40
0.0
 40
0.0
 40
0.0
 40
0.0
 40
0.3889120832779885
 40
1.0
 40
1.0
 40
1.0
 40
1.0
 10
2555.57623428424
 20
1043.954589398819
 30
0.0
 10
2555.707484540383
 20
1043.844432147547
 30
0.0
 10
2556.044965070781
 20
1043.561187537753
 30
0.0
 10
2556.382443089862
 20
1043.277939736867
 30
0.0
 10
2556.588671829482
 20
1043.104850428308
 30
0.0
  0
SPLINE
  5
3CC
330
3B3
100
AcDbEntity
  8
0
  6
Continuous
 62
     7
370
    15
100
AcDbSpline
210
0.0
220
0.0
230
1.0
 70
     8
 71
     3
 72
     9
 73
     5
 74
     0
 42
0.0000000001
 43
0.0000000001
 40
0.0
 40
0.0
 40
0.0
 40
0.0
 40
0.4999981812380262
 40
1.0
 40
1.0
 40
1.0
 40
1.0
 10
2593.380811268287
 20
1042.097490294958
 30
0.0
 10
2593.589943227148
 20
1042.27301620504
 30
0.0
 10
2594.00820866632
 20
1042.62406930217
 30
0.0
 10
2594.426477427698
 20
1042.975118510676
 30
0.0
 10
2594.635612569117
 20
1043.150643753404
 30
0.0
  0
SPLINE
  5
3CD
330
3B3
100
AcDbEntity
  8
0
  6
Continuous
 62
     7
370
    15
100
AcDbSpline
210
0.0
220
0.0
230
1.0
 70
     8
 71
     3
 72
     9
 73
     5
 74
     0
 42
0.0000000001
 43
0.0000000001
 40
0.0
 40
0.0
 40
0.0
 40
0.0
 40
0.4999981211339225
 40
1.0
 40
1.0
 40
1.0
 40
1.0
 10
2593.380902311191
 20
1040.097566662888
 30
0.0
 10
2593.590035622308
 20
1040.273093667942
 30
0.0
 10
2594.008303816281
 20
1040.624148997224
 30
0.0
 10
2594.426574969312
 20
1040.975200309297
 30
0.0
 10
2594.635711331703
 20
1041.150726624912
 30
0.0
  0
SPLINE
  5
3CE
330
3B3
100
AcDbEntity
  8
0
  6
Continuous
 62
     7
370
    15
100
AcDbSpline
210
0.0
220
0.0
230
1.0
 70
     8
 71
     3
 72
     9
 73
     5
 74
     0
 42
0.0000000001
 43
0.0000000001
 40
0.0
 40
0.0
 40
0.0
 40
0.0
 40
0.4999981617567607
 40
1.0
 40
1.0
 40
1.0
 40
1.0
 10
2593.380621299677
 20
1038.097333857225
 30
0.0
 10
2593.589753563344
 20
1038.272860135378
 30
0.0
 10
2594.008019628427
 20
1038.623913982329
 30
0.0
 10
2594.42628937259
 20
1038.97496389909
 30
0.0
 10
2594.635425013553
 20
1039.150489502786
 30
0.0
  0
LINE
  5
3CF
330
3B3
100
AcDbEntity
  8
0
  6
Continuous
 62
     7
370
    15
100
AcDbLine
 10
2594.639126293938
 20
1043.156481623632
 30
0.0
 11
2594.639126293938
 21
1043.332106447308
 31
0.0
  0
LINE
  5
3D0
330
3B3
100
AcDbEntity
  8
0
  6
Continuous
 62
     7
370
    15
100
AcDbLine
 10
2594.639126293938
 20
1041.156481623632
 30
0.0
 11
2594.639126293938
 21
1041.332106447308
 31
0.0
  0
LINE
  5
3D1
330
3B3
100
AcDbEntity
  8
0
  6
Continuous
 62
     7
370
    15
100
AcDbLine
 10
2594.639126293938
 20
1039.156481623632
 30
0.0
 11
2594.639126293938
 21
1039.332106447308
 31
0.0
  0
LINE
  5
3D2
330
3B3
100
AcDbEntity
  8
0
  6
Continuous
 62
     7
370
    15
100
AcDbLine
 10
2555.339126293939
 20
1038.332106447308
 30
0.0
 11
2555.339126293939
 21
1038.156481623632
 31
0.0
  0
LINE
  5
3D3
330
3B3
100
AcDbEntity
  8
0
  6
Continuous
 62
     7
370
    15
100
AcDbLine
 10
2555.339126293939
 20
1040.332106447308
 30
0.0
 11
2555.339126293939
 21
1040.156481623632
 31
0.0
  0
LINE
  5
3D4
330
3B3
100
AcDbEntity
  8
0
  6
Continuous
 62
     7
370
    15
100
AcDbLine
 10
2555.339126293939
 20
1042.332106447308
 30
0.0
 11
2555.339126293939
 21
1042.156481623632
 31
0.0
  0
LINE
  5
3D5
330
3B3
100
AcDbEntity
  8
0
  6
Continuous
 62
     7
370
    15
100
AcDbLine
 10
2572.674738458077
 20
1043.956481623632
 30
0.0
 11
2577.235340796389
 21
1043.956481623632
 31
0.0
  0
LINE
  5
3D6
330
3B3
100
AcDbEntity
  8
0
  6
Continuous
 62
     7
370
    15
100
AcDbLine
 10
2572.674738458077
 20
1048.156481623632
 30
0.0
 11
2572.674738458077
 21
1043.956481623632
 31
0.0
  0
LINE
  5
3D7
330
3B3
100
AcDbEntity
  8
0
  6
Continuous
 62
     7
370
    15
100
AcDbLine
 10
2577.235340796389
 20
1048.156481623632
 30
0.0
 11
2572.674738458077
 21
1048.156481623632
 31
0.0
  0
LINE
  5
3D8
330
3B3
100
AcDbEntity
  8
0
  6
Continuous
 62
     7
370
    15
100
AcDbLine
 10
2577.235340796389
 20
1043.956481623632
 30
0.0
 11
2577.235340796389
 21
1048.156481623632
 31
0.0
  0
LINE
  5
3D9
330
3B3
100
AcDbEntity
  8
0
  6
Continuous
 62
     7
370
    15
100
AcDbLine
 10
2597.410693710431
 20
1048.156481623632
 30
0.0
 11
2597.919489919854
 21
1048.156481623632
 31
0.0
  0
LINE
  5
3DA
330
3B3
100
AcDbEntity
  8
0
  6
Continuous
 62
     7
370
    15
100
AcDbLine
 10
2597.919489919854
 20
1048.156481623632
 30
0.0
 11
2597.919489919854
 21
1043.956481623632
 31
0.0
  0
LINE
  5
3DB
330
3B3
100
AcDbEntity
  8
0
  6
Continuous
 62
     7
370
    15
100
AcDbLine
 10
2597.919489919854
 20
1043.956481623632
 30
0.0
 11
2577.235340796389
 21
1043.956481623632
 31
0.0
  0
LINE
  5
3DC
330
3B3
100
AcDbEntity
  8
0
  6
Continuous
 62
     7
370
    15
100
AcDbLine
 10
2577.235340796389
 20
1048.156481623632
 30
0.0
 11
2577.567558877446
 21
1048.156481623632
 31
0.0
  0
LINE
  5
3DD
330
3B3
100
AcDbEntity
  8
0
  6
Continuous
 62
     7
370
    15
100
AcDbLine
 10
2552.734206645246
 20
1043.956481623632
 30
0.0
 11
2552.734206645246
 21
1048.156481623632
 31
0.0
  0
LINE
  5
3DE
330
3B3
100
AcDbEntity
  8
0
  6
Continuous
 62
     7
370
    15
100
AcDbLine
 10
2572.674738458077
 20
1043.956481623632
 30
0.0
 11
2552.734206645246
 21
1043.956481623632
 31
0.0
  0
LINE
  5
3DF
330
3B3
100
AcDbEntity
  8
0
  6
Continuous
 62
     7
370
    15
100
AcDbLine
 10
2572.410693710431
 20
1048.156481623632
 30
0.0
 11
2572.674738458077
 21
1048.156481623632
 31
0.0
  0
LINE
  5
3E0
330
3B3
100
AcDbEntity
  8
0
  6
Continuous
 62
     7
370
    15
100
AcDbLine
 10
2599.989126293938
 20
1048.156481623632
 30
0.0
 11
2602.489126293938
 21
1048.156481623632
 31
0.0
  0
LINE
  5
3E1
330
3B3
100
AcDbEntity
  8
0
  6
Continuous
 62
     7
370
    15
100
AcDbLine
 10
2577.567558877446
 20
1048.156481623632
 30
0.0
 11
2597.410693710431
 21
1048.156481623632
 31
0.0
  0
LINE
  5
3E2
330
3B3
100
AcDbEntity
  8
0
  6
Continuous
 62
     7
370
    15
100
AcDbLine
 10
2547.489126293938
 20
1048.156481623632
 30
0.0
 11
2572.410693710431
 21
1048.156481623632
 31
0.0
  0
LINE
  5
3E3
330
3B3
100
AcDbEntity
  8
0
  6
Continuous
 62
     7
370
    15
100
AcDbLine
 10
2602.489126293938
 20
1049.956481623632
 30
0.0
 11
2574.989126293938
 21
1049.956481623632
 31
0.0
  0
LINE
  5
3E4
330
3B3
100
AcDbEntity
  8
0
  6
Continuous
 62
     7
370
    15
100
AcDbLine
 10
2574.989126293938
 20
1049.956481623632
 30
0.0
 11
2570.951652331174
 21
1049.956481623632
 31
0.0
  0
SPLINE
  5
3E5
330
3B3
100
AcDbEntity
  8
0
  6
Continuous
 62
     7
370
    15
100
AcDbSpline
210
0.0
220
0.0
230
1.0
 70
    24
 71
     3
 72
     8
 73
     4
 74
     0
 42
0.0000000001
 43
0.0000000001
 40
0.0
 40
0.0
 40
0.0
 40
0.0
 40
1.0
 40
1.0
 40
1.0
 40
1.0
 10
2536.359126293939
 20
1064.311183941071
 30
0.0
 10
2536.359126293939
 20
1063.295974341783
 30
0.0
 10
2536.359126293939
 20
1062.226322121357
 30
0.0
 10
2536.359126293939
 20
1061.156481623632
 30
0.0
  0
LINE
  5
3E6
330
3B3
100
AcDbEntity
  8
0
  6
Continuous
 62
     7
370
    15
100
AcDbLine
 10
2574.989126293938
 20
1064.311183941071
 30
0.0
 11
2536.359126293939
 21
1064.311183941071
 31
0.0
  0
LINE
  5
3E7
330
3B3
100
AcDbEntity
  8
0
  6
Continuous
 62
     7
370
    15
100
AcDbLine
 10
2574.989126293938
 20
1061.156481623632
 30
0.0
 11
2574.989126293938
 21
1064.311183941071
 31
0.0
  0
LINE
  5
3E8
330
3B3
100
AcDbEntity
  8
0
  6
Continuous
 62
     7
370
    15
100
AcDbLine
 10
2536.359126293939
 20
1061.156481623632
 30
0.0
 11
2574.989126293938
 21
1061.156481623632
 31
0.0
  0
LINE
  5
3E9
330
3B3
100
AcDbEntity
  8
0
  6
Continuous
 62
     7
370
    15
100
AcDbLine
 10
2574.989126293938
 20
1061.156481623632
 30
0.0
 11
2574.989126293938
 21
1051.156481623632
 31
0.0
  0
LINE
  5
3EA
330
3B3
100
AcDbEntity
  8
0
  6
Continuous
 62
     7
370
    15
100
AcDbLine
 10
2574.989126293938
 20
1051.156481623632
 30
0.0
 11
2536.359126293939
 21
1051.156481623632
 31
0.0
  0
LINE
  5
3EB
330
3B3
100
AcDbEntity
  8
0
  6
Continuous
 62
     7
370
    15
100
AcDbLine
 10
2536.359126293939
 20
1051.156481623632
 30
0.0
 11
2536.359126293939
 21
1061.156481623632
 31
0.0
  0
SPLINE
  5
3EC
330
3B3
100
AcDbEntity
  8
0
  6
Continuous
 62
     7
370
    15
100
AcDbSpline
210
0.0
220
0.0
230
1.0
 70
    24
 71
     3
 72
    34
 73
    30
 74
     0
 42
0.0000000001
 43
0.0000000001
 40
0.0
 40
0.0
 40
0.0
 40
0.0
 40
0.0116739349849505
 40
0.0233327335166634
 40
0.0349802909679374
 40
0.0466205139969362
 40
0.0582573166486698
 40
0.0698946164193382
 40
0.0815363303032929
 40
0.0931863708425261
 40
0.1048486421985761
 40
0.1165270362664673
 40
0.1782617690976522
 40
0.2400087579376962
 40
0.304316785360837
 40
0.3686371183819784
 40
0.434313503001801
 40
0.5000024550731636
 40
0.565678840052136
 40
0.631367792483087
 40
0.6956758208957888
 40
0.7599961549085612
 40
0.8217308869523
 40
0.8834778751891459
 40
0.9068076364706067
 40
0.9300934404821234
 40
0.9533665634077806
 40
0.9766583325162002
 40
1.0
 40
1.0
 40
1.0
 40
1.0
 10
2602.239126293938
 20
1051.156481623632
 30
0.0
 10
2602.238255158022
 20
1051.156481623632
 30
0.0
 10
2602.236514015705
 20
1051.156481623632
 30
0.0
 10
2602.222362161306
 20
1051.156481623632
 30
0.0
 10
2602.199757848823
 20
1051.156481623632
 30
0.0
 10
2602.167875725204
 20
1051.156481623632
 30
0.0
 10
2602.126936631876
 20
1051.156481623632
 30
0.0
 10
2602.076881532406
 20
1051.156481623632
 30
0.0
 10
2602.017725961514
 20
1051.156481623632
 30
0.0
 10
2601.949466937238
 20
1051.156481623632
 30
0.0
 10
2601.872101053414
 20
1051.156481623632
 30
0.0
 10
2601.662184922088
 20
1051.156481623632
 30
0.0
 10
2601.219777131887
 20
1051.156481623632
 30
0.0
 10
2600.353533881023
 20
1051.156481623632
 30
0.0
 10
2599.226806235313
 20
1051.156481623632
 30
0.0
 10
2597.826032101845
 20
1051.156481623632
 30
0.0
 10
2596.178238638741
 20
1051.156481623632
 30
0.0
 10
2594.291864713744
 20
1051.156481623632
 30
0.0
 10
2592.201653022313
 20
1051.156481623632
 30
0.0
 10
2589.942798292492
 20
1051.156481623632
 30
0.0
 10
2587.545840944611
 20
1051.156481623632
 30
0.0
 10
2585.07023024671
 20
1051.156481623632
 30
0.0
 10
2582.531229960253
 20
1051.156481623632
 30
0.0
 10
2580.489284094814
 20
1051.156481623632
 30
0.0
 10
2578.964376703625
 20
1051.156481623632
 30
0.0
 10
2577.975464003162
 20
1051.156481623632
 30
0.0
 10
2576.983102323876
 20
1051.156481623632
 30
0.0
 10
2575.987266777057
 20
1051.156481623632
 30
0.0
 10
2575.322077042161
 20
1051.156481623632
 30
0.0
 10
2574.989126293938
 20
1051.156481623632
 30
0.0
  0
SPLINE
  5
3ED
330
3B3
100
AcDbEntity
  8
0
  6
Continuous
 62
     7
370
    15
100
AcDbSpline
210
0.0
220
0.0
230
1.0
 70
     8
 71
     3
 72
    37
 73
    33
 74
     0
 42
0.0000000001
 43
0.0000000001
 40
0.0
 40
0.0
 40
0.0
 40
0.0
 40
0.0082633351826739
 40
0.0165526695660547
 40
0.0248766133364802
 40
0.0332444928295613
 40
0.0416663415041981
 40
0.0501528818082049
 40
0.0587154977159498
 40
0.0673661980121803
 40
0.0761175707088735
 40
0.0849827292927688
 40
0.1262350160841523
 40
0.1699156527650141
 40
0.2110435628528116
 40
0.254552384455316
 40
0.2956795491135737
 40
0.3388889490409495
 40
0.4193073691631203
 40
0.5068831453270886
 40
0.587176145973973
 40
0.6743893696835718
 40
0.7153747505904676
 40
0.7578911700449803
 40
0.7981853387270809
 40
0.8412725846317018
 40
0.8644788420444132
 40
0.8889834863606067
 40
0.9147875341987935
 40
0.9418915680843824
 40
0.9702957793258477
 40
1.0
 40
1.0
 40
1.0
 40
1.0
 10
2591.834654342037
 20
1071.156481623632
 30
0.0
 10
2591.919598243848
 20
1071.155867714295
 30
0.0
 10
2592.089753309235
 20
1071.154637964058
 30
0.0
 10
2592.344417241337
 20
1071.144581548291
 30
0.0
 10
2592.598788790738
 20
1071.128348534579
 30
0.0
 10
2592.852592286491
 20
1071.105223989885
 30
0.0
 10
2593.105589042692
 20
1071.075239594783
 30
0.0
 10
2593.357503328993
 20
1071.038231323357
 30
0.0
 10
2593.608043458099
 20
1070.994092912841
 30
0.0
 10
2593.856887637969
 20
1070.942712995683
 30
0.0
 10
2594.103715770105
 20
1070.883972748515
 30
0.0
 10
2594.644361320439
 20
1070.737624174155
 30
0.0
 10
2595.446572769348
 20
1070.438634807817
 30
0.0
 10
2596.329426537745
 20
1069.928778227984
 30
0.0
 10
2597.008677769433
 20
1069.346686018354
 30
0.0
 10
2597.454831234816
 20
1068.754048513458
 30
0.0
 10
2597.699409966866
 20
1068.159803620179
 30
0.0
 10
2597.768035031519
 20
1067.431490815042
 30
0.0
 10
2597.445605888684
 20
1066.597715021878
 30
0.0
 10
2596.552043130023
 20
1065.822284836281
 30
0.0
 10
2595.233324074987
 20
1065.226381174615
 30
0.0
 10
2593.895460017321
 20
1064.882203737011
 30
0.0
 10
2592.673353482942
 20
1064.674185412321
 30
0.0
 10
2591.732431107964
 20
1064.553857958992
 30
0.0
 10
2590.726028521825
 20
1064.459992124464
 30
0.0
 10
2589.836160741803
 20
1064.400217089498
 30
0.0
 10
2589.055303344338
 20
1064.360906764187
 30
0.0
 10
2588.410428455823
 20
1064.335334837257
 30
0.0
 10
2587.718392800514
 20
1064.314175059889
 30
0.0
 10
2586.977870325706
 20
1064.297576599803
 30
0.0
 10
2586.189029125254
 20
1064.285159965133
 30
0.0
 10
2585.639855960505
 20
1064.280778300201
 30
0.0
 10
2585.359126291226
 20
1064.278538454144
 30
0.0
  0
SPLINE
  5
3EE
330
3B3
100
AcDbEntity
  8
0
  6
Continuous
 62
     7
370
    15
100
AcDbSpline
210
0.0
220
0.0
230
1.0
 70
    24
 71
     3
 72
     8
 73
     4
 74
     0
 42
0.0000000001
 43
0.0000000001
 40
0.0
 40
0.0
 40
0.0
 40
0.0
 40
1.0
 40
1.0
 40
1.0
 40
1.0
 10
2592.239126293938
 20
1071.156481623632
 30
0.0
 10
2592.239126293938
 20
1071.156481623632
 30
0.0
 10
2592.103504490045
 20
1071.156481623632
 30
0.0
 10
2591.834654342037
 20
1071.156481623632
 30
0.0
  0
SPLINE
  5
3EF
330
3B3
100
AcDbEntity
  8
0
  6
Continuous
 62
     7
370
    15
100
AcDbSpline
210
0.0
220
0.0
230
1.0
 70
     8
 71
     3
 72
    17
 73
    13
 74
     0
 42
0.0000000001
 43
0.0000000001
 40
0.0
 40
0.0
 40
0.0
 40
0.0
 40
0.0230763018548
 40
0.1362145448970376
 40
0.2665582288490301
 40
0.3649197280636182
 40
0.5114987529638876
 40
0.6273051794937409
 40
0.7340557320542588
 40
0.8317534179737295
 40
0.920400798756922
 40
1.0
 40
1.0
 40
1.0
 40
1.0
 10
2585.330044847743
 20
1064.278354981754
 30
0.0
 10
2585.254705321165
 20
1064.277922292905
 30
0.0
 10
2584.809991978872
 20
1064.275368221851
 30
0.0
 10
2583.928539970818
 20
1064.274065456227
 30
0.0
 10
2582.778524589157
 20
1064.276887217177
 30
0.0
 10
2581.498442261942
 20
1064.283631439288
 30
0.0
 10
2580.252308489113
 20
1064.291273084901
 30
0.0
 10
2578.964397125762
 20
1064.298856790573
 30
0.0
 10
2577.839775702971
 20
1064.304285023475
 30
0.0
 10
2576.806201549691
 20
1064.308174495368
 30
0.0
 10
2575.86611809751
 20
1064.310667408239
 30
0.0
 10
2575.270784695143
 20
1064.311018049199
 30
0.0
 10
2574.989126293938
 20
1064.311183941071
 30
0.0
  0
SPLINE
  5
3F0
330
3B3
100
AcDbEntity
  8
0
  6
Continuous
 62
     7
370
    15
100
AcDbSpline
210
0.0
220
0.0
230
1.0
 70
     8
 71
     3
 72
     8
 73
     4
 74
     0
 42
0.0000000001
 43
0.0000000001
 40
0.0
 40
0.0
 40
0.0
 40
0.0
 40
1.0
 40
1.0
 40
1.0
 40
1.0
 10
2585.330048585354
 20
1064.278358160992
 30
0.0
 10
2585.339745171259
 20
1064.278416949001
 30
0.0
 10
2585.349439283446
 20
1064.278476555742
 30
0.0
 10
2585.359130920498
 20
1064.278536988066
 30
0.0
  0
LINE
  5
3F1
330
3B3
100
AcDbEntity
  8
0
  6
Continuous
 62
     7
370
    15
100
AcDbLine
 10
2536.408126293939
 20
1051.156481623632
 30
0.0
 11
2536.408126293939
 21
1050.156481623632
 31
0.0
  0
LINE
  5
3F2
330
3B3
100
AcDbEntity
  8
0
  6
Continuous
 62
     7
370
    15
100
AcDbLine
 10
2574.989126293938
 20
1051.156481623632
 30
0.0
 11
2574.989126293938
 21
1050.156481623632
 31
0.0
  0
LINE
  5
3F3
330
3B3
100
AcDbEntity
  8
0
  6
Continuous
 62
     7
370
    15
100
AcDbLine
 10
2545.702447840869
 20
1050.156481623632
 30
0.0
 11
2574.989126293938
 21
1050.156481623632
 31
0.0
  0
LINE
  5
3F4
330
3B3
100
AcDbEntity
  8
0
  6
Continuous
 62
     7
370
    15
100
AcDbLine
 10
2536.407626293939
 20
1050.156481623632
 30
0.0
 11
2545.702447840869
 21
1050.156481623632
 31
0.0
  0
LINE
  5
3F5
330
3B3
100
AcDbEntity
  8
0
  6
Continuous
 62
     7
370
    15
100
AcDbLine
 10
2574.989126293938
 20
1050.156481623632
 30
0.0
 11
2574.989126293938
 21
1049.956481623632
 31
0.0
  0
LINE
  5
3F6
330
3B3
100
AcDbEntity
  8
0
  6
Continuous
 62
     7
370
    15
100
AcDbLine
 10
2570.951652331174
 20
1049.956481623632
 30
0.0
 11
2536.407126293938
 21
1049.956481623632
 31
0.0
  0
LINE
  5
3F7
330
3B3
100
AcDbEntity
  8
0
  6
Continuous
 62
     7
370
    15
100
AcDbLine
 10
2536.407126293938
 20
1050.156481623632
 30
0.0
 11
2536.407126293938
 21
1049.956481623632
 31
0.0
  0
SPLINE
  5
3F8
330
3B3
100
AcDbEntity
  8
0
  6
Continuous
 62
     7
370
    15
100
AcDbSpline
210
0.0
220
0.0
230
1.0
 70
    24
 71
     3
 72
    15
 73
    11
 74
     0
 42
0.0000000001
 43
0.0000000001
 40
0.0
 40
0.0
 40
0.0
 40
0.0
 40
0.0997041332588064
 40
0.2283178285075482
 40
0.3569315237562904
 40
0.4855452190050324
 40
0.6141589142537738
 40
0.742772609502516
 40
0.8713863047512584
 40
1.0
 40
1.0
 40
1.0
 40
1.0
 10
2536.359126293939
 20
1066.358025868972
 30
0.0
 10
2536.359126293939
 20
1066.356240362757
 30
0.0
 10
2536.359126293939
 20
1066.352151636556
 30
0.0
 10
2536.359126293939
 20
1066.254370098499
 30
0.0
 10
2536.359126293939
 20
1066.083295624637
 30
0.0
 10
2536.359126293939
 20
1065.839643633656
 30
0.0
 10
2536.359126293939
 20
1065.532957206906
 30
0.0
 10
2536.359126293939
 20
1065.16971829636
 30
0.0
 10
2536.359126293939
 20
1064.761737063051
 30
0.0
 10
2536.359126293939
 20
1064.461368315064
 30
0.0
 10
2536.359126293939
 20
1064.311183941071
 30
0.0
  0
LINE
  5
3F9
330
3B3
100
AcDbEntity
  8
0
  6
Continuous
 62
     7
370
    15
100
AcDbLine
 10
2583.098384588071
 20
1066.339285538172
 30
0.0
 11
2583.032062179854
 21
1066.339436249638
 31
0.0
  0
SPLINE
  5
3FA
330
3B3
100
AcDbEntity
  8
0
  6
Continuous
 62
     7
370
    15
100
AcDbSpline
210
0.0
220
0.0
230
1.0
 70
     8
 71
     3
 72
    42
 73
    38
 74
     0
 42
0.0000000001
 43
0.0000000001
 40
0.0
 40
0.0
 40
0.0
 40
0.0
 40
0.0312499999999998
 40
0.0312499999999998
 40
0.0624999999999996
 40
0.0624999999999996
 40
0.0937499999999995
 40
0.0937499999999995
 40
0.1249999999999992
 40
0.1249999999999992
 40
0.1562499999999991
 40
0.1562499999999991
 40
0.1874999999999989
 40
0.1874999999999989
 40
0.2187499999999988
 40
0.2187499999999988
 40
0.2499999999999986
 40
0.2499999999999986
 40
0.3124999999999986
 40
0.3124999999999986
 40
0.3749999999999986
 40
0.3749999999999986
 40
0.4374999999999985
 40
0.4374999999999985
 40
0.4999999999999986
 40
0.4999999999999986
 40
0.5624999999999987
 40
0.5624999999999987
 40
0.6249999999999987
 40
0.6249999999999987
 40
0.7499999999999992
 40
0.7499999999999992
 40
0.8124999999999992
 40
0.8124999999999992
 40
0.8749999999999994
 40
0.8749999999999994
 40
1.0
 40
1.0
 40
1.0
 40
1.0
 10
2591.834654342037
 20
1070.785695440898
 30
0.0
 10
2592.125914310065
 20
1070.785695418337
 30
0.0
 10
2592.410521435204
 20
1070.769777247163
 30
0.0
 10
2592.965587537724
 20
1070.70508102195
 30
0.0
 10
2593.238187468737
 20
1070.655366130167
 30
0.0
 10
2593.73544744485
 20
1070.530876226952
 30
0.0
 10
2593.965801459467
 20
1070.455343592734
 30
0.0
 10
2594.384758182339
 20
1070.284799633569
 30
0.0
 10
2594.568689882912
 20
1070.191912245073
 30
0.0
 10
2594.89347238538
 20
1069.995150314843
 30
0.0
 10
2595.032472819785
 20
1069.892188002077
 30
0.0
 10
2595.264851786327
 20
1069.685510400915
 30
0.0
 10
2595.359533227233
 20
1069.58107325575
 30
0.0
 10
2595.511797698932
 20
1069.371146996269
 30
0.0
 10
2595.568626050021
 20
1069.266446528316
 30
0.0
 10
2595.647118238646
 20
1069.062902386176
 30
0.0
 10
2595.669144075943
 20
1068.963409826983
 30
0.0
 10
2595.691017041981
 20
1068.672094036272
 30
0.0
 10
2595.645229695802
 20
1068.486100362656
 30
0.0
 10
2595.460365408846
 20
1068.14529356513
 30
0.0
 10
2595.322463627824
 20
1067.989279160924
 30
0.0
 10
2594.969779748112
 20
1067.702363955564
 30
0.0
 10
2594.753656009896
 20
1067.570914930798
 30
0.0
 10
2594.262278401964
 20
1067.335062677462
 30
0.0
 10
2593.98807853088
 20
1067.230792893041
 30
0.0
 10
2593.389014000724
 20
1067.044240298569
 30
0.0
 10
2593.0641021383
 20
1066.962130598111
 30
0.0
 10
2592.367243686896
 20
1066.81683440693
 30
0.0
 10
2591.99341495624
 20
1066.753439302549
 30
0.0
 10
2590.825404959443
 20
1066.590303451471
 30
0.0
 10
2589.982245035902
 20
1066.515768099559
 30
0.0
 10
2588.629776712878
 20
1066.436944011931
 30
0.0
 10
2588.164193358859
 20
1066.41624649828
 30
0.0
 10
2587.204537520006
 20
1066.383218105618
 30
0.0
 10
2586.709133418202
 20
1066.370992530811
 30
0.0
 10
2585.203289531278
 20
1066.344301175526
 30
0.0
 10
2584.166500566734
 20
1066.339290884019
 30
0.0
 10
2583.098384588109
 20
1066.339280853539
 30
0.0
  0
LINE
  5
3FB
330
3B3
100
AcDbEntity
  8
0
  6
Continuous
 62
     7
370
    15
100
AcDbLine
 10
2591.834654342037
 20
1071.156481623632
 30
0.0
 11
2591.834654342037
 21
1070.785695440898
 31
0.0
  0
LINE
  5
3FC
330
3B3
100
AcDbEntity
  8
0
  6
Continuous
 62
     7
370
    15
100
AcDbLine
 10
2536.359126293939
 20
1070.785695440898
 30
0.0
 11
2591.834654342037
 21
1070.785695440898
 31
0.0
  0
SPLINE
  5
3FD
330
3B3
100
AcDbEntity
  8
0
  6
Continuous
 62
     7
370
    15
100
AcDbSpline
210
0.0
220
0.0
230
1.0
 70
    24
 71
     3
 72
    10
 73
     6
 74
     0
 42
0.0000000001
 43
0.0000000001
 40
0.0
 40
0.0
 40
0.0
 40
0.0
 40
0.5000000000000001
 40
0.5000000000000001
 40
1.0
 40
1.0
 40
1.0
 40
1.0
 10
2536.359126293939
 20
1070.785695440898
 30
0.0
 10
2536.359126293939
 20
1069.334872179052
 30
0.0
 10
2536.359126293939
 20
1068.21753514856
 30
0.0
 10
2536.359126293939
 20
1066.719692256148
 30
0.0
 10
2536.359126293939
 20
1066.339285538172
 30
0.0
 10
2536.359126293939
 20
1066.339285538172
 30
0.0
  0
SPLINE
  5
3FE
330
3B3
100
AcDbEntity
  8
0
  6
Continuous
 62
     7
370
    15
100
AcDbSpline
210
0.0
220
0.0
230
1.0
 70
    24
 71
     3
 72
    22
 73
    18
 74
     0
 42
0.0000000001
 43
0.0000000001
 40
0.0
 40
0.0
 40
0.0
 40
0.0
 40
0.125
 40
0.125
 40
0.25
 40
0.25
 40
0.375
 40
0.375
 40
0.5
 40
0.5
 40
0.625
 40
0.625
 40
0.75
 40
0.75
 40
0.875
 40
0.875
 40
1.0
 40
1.0
 40
1.0
 40
1.0
 10
2556.839126293939
 20
1036.156481623632
 30
0.0
 10
2556.839126293939
 20
1036.156481623632
 30
0.0
 10
2556.95612278895
 20
1036.156481623632
 30
0.0
 10
2557.41962412029
 20
1036.156481623632
 30
0.0
 10
2557.766117495634
 20
1036.156481623632
 30
0.0
 10
2558.675308062084
 20
1036.156481623632
 30
0.0
 10
2559.237982771661
 20
1036.156481623632
 30
0.0
 10
2560.557922889633
 20
1036.156481623632
 30
0.0
 10
2561.315155659908
 20
1036.156481623632
 30
0.0
 10
2562.995120770898
 20
1036.156481623632
 30
0.0
 10
2563.917811571168
 20
1036.156481623632
 30
0.0
 10
2565.893241558098
 20
1036.156481623632
 30
0.0
 10
2566.94593189836
 20
1036.156481623632
 30
0.0
 10
2569.140912094665
 20
1036.156481623632
 30
0.0
 10
2570.283147675498
 20
1036.156481623632
 30
0.0
 10
2572.613326223193
 20
1036.156481623632
 30
0.0
 10
2573.8012115718
 20
1036.156481623632
 30
0.0
 10
2574.989126293938
 20
1036.156481623632
 30
0.0
  0
SPLINE
  5
3FF
330
3B3
100
AcDbEntity
  8
0
  6
Continuous
 62
     7
370
    15
100
AcDbSpline
210
0.0
220
0.0
230
1.0
 70
    24
 71
     3
 72
    22
 73
    18
 74
     0
 42
0.0000000001
 43
0.0000000001
 40
0.0
 40
0.0
 40
0.0
 40
0.0
 40
0.125
 40
0.125
 40
0.25
 40
0.25
 40
0.3750000000000001
 40
0.3750000000000001
 40
0.5000000000000001
 40
0.5000000000000001
 40
0.625
 40
0.625
 40
0.75
 40
0.75
 40
0.875
 40
0.875
 40
1.0
 40
1.0
 40
1.0
 40
1.0
 10
2574.989126293938
 20
1036.156481623632
 30
0.0
 10
2576.177041016077
 20
1036.156481623632
 30
0.0
 10
2577.364926364683
 20
1036.156481623632
 30
0.0
 10
2579.695104912379
 20
1036.156481623632
 30
0.0
 10
2580.837340493213
 20
1036.156481623632
 30
0.0
 10
2583.032320689518
 20
1036.156481623632
 30
0.0
 10
2584.08501102978
 20
1036.156481623632
 30
0.0
 10
2586.06044101671
 20
1036.156481623632
 30
0.0
 10
2586.983131816979
 20
1036.156481623632
 30
0.0
 10
2588.66309692797
 20
1036.156481623632
 30
0.0
 10
2589.420329698244
 20
1036.156481623632
 30
0.0
 10
2590.740269816216
 20
1036.156481623632
 30
0.0
 10
2591.302944525793
 20
1036.156481623632
 30
0.0
 10
2592.212135092244
 20
1036.156481623632
 30
0.0
 10
2592.558628467588
 20
1036.156481623632
 30
0.0
 10
2593.022129798927
 20
1036.156481623632
 30
0.0
 10
2593.139126293938
 20
1036.156481623632
 30
0.0
 10
2593.139126293938
 20
1036.156481623632
 30
0.0
  0
SPLINE
  5
400
330
3B3
100
AcDbEntity
  8
0
  6
Continuous
 62
     7
370
    15
100
AcDbSpline
210
0.0
220
0.0
230
1.0
 70
     8
 71
     3
 72
    22
 73
    18
 74
     0
 42
0.0000000001
 43
0.0000000001
 40
0.0
 40
0.0
 40
0.0
 40
0.0
 40
0.0389562627161539
 40
0.1080941343995564
 40
0.1771563305602062
 40
0.2461428512152183
 40
0.3150536963817632
 40
0.3838888660770696
 40
0.4526483603184217
 40
0.5213321791231608
 40
0.5899403225086867
 40
0.6584727904924553
 40
0.726929583091982
 40
0.7953107003248391
 40
0.863616142208658
 40
0.9318459087611287
 40
1.0
 40
1.0
 40
1.0
 40
1.0
 10
2594.410589824502
 20
1037.455771694363
 30
0.0
 10
2594.410518297324
 20
1037.451782192419
 30
0.0
 10
2594.410319826838
 20
1037.44071229687
 30
0.0
 10
2594.160487971218
 20
1037.422544072668
 30
0.0
 10
2593.685532418464
 20
1037.401276899296
 30
0.0
 10
2592.983931733372
 20
1037.380008634725
 30
0.0
 10
2592.077735689734
 20
1037.358740662084
 30
0.0
 10
2590.974332731651
 20
1037.337472611428
 30
0.0
 10
2589.687931027749
 20
1037.316204581519
 30
0.0
 10
2588.233617574628
 20
1037.294936546685
 30
0.0
 10
2586.628722463102
 20
1037.273668511006
 30
0.0
 10
2584.892198596949
 20
1037.252400483785
 30
0.0
 10
2583.044514661471
 20
1037.231132423801
 30
0.0
 10
2581.107360261131
 20
1037.20986448639
 30
0.0
 10
2579.10348919549
 20
1037.18859609233
 30
0.0
 10
2577.056114891813
 20
1037.167329399838
 30
0.0
 10
2575.677867577193
 20
1037.153139504866
 30
0.0
 10
2574.989126293938
 20
1037.146048494154
 30
0.0
  0
SPLINE
  5
401
330
3B3
100
AcDbEntity
  8
0
  6
Continuous
 62
     7
370
    15
100
AcDbSpline
210
0.0
220
0.0
230
1.0
 70
     8
 71
     3
 72
    22
 73
    18
 74
     0
 42
0.0000000001
 43
0.0000000001
 40
0.0
 40
0.0
 40
0.0
 40
0.0
 40
0.125
 40
0.125
 40
0.2499999999999999
 40
0.2499999999999999
 40
0.3749999999999998
 40
0.3749999999999998
 40
0.4999999999999999
 40
0.4999999999999999
 40
0.6249999999999999
 40
0.6249999999999999
 40
0.75
 40
0.75
 40
0.8749999999999998
 40
0.8749999999999998
 40
1.0
 40
1.0
 40
1.0
 40
1.0
 10
2574.989126293938
 20
1037.146048494154
 30
0.0
 10
2573.736444571578
 20
1037.133148999074
 30
0.0
 10
2572.486342814836
 20
1037.120249503994
 30
0.0
 10
2570.039120644897
 20
1037.094450513835
 30
0.0
 10
2568.842060246732
 20
1037.081551018755
 30
0.0
 10
2566.546639129795
 20
1037.055752028596
 30
0.0
 10
2565.44833419423
 20
1037.042852533516
 30
0.0
 10
2563.392169500118
 20
1037.017053543357
 30
0.0
 10
2562.434359167936
 20
1037.004154048277
 30
0.0
 10
2560.695370064376
 20
1036.978355058118
 30
0.0
 10
2559.914232490246
 20
1036.965455563038
 30
0.0
 10
2558.557849751873
 20
1036.939656572879
 30
0.0
 10
2557.982636007133
 20
1036.926757077799
 30
0.0
 10
2557.059341256551
 20
1036.90095808764
 30
0.0
 10
2556.71128072567
 20
1036.88805859256
 30
0.0
 10
2556.254729608154
 20
1036.862259602401
 30
0.0
 10
2556.14624781025
 20
1036.849360107321
 30
0.0
 10
2556.159147305329
 20
1036.836460612241
 30
0.0
  0
SPLINE
  5
402
330
3B3
100
AcDbEntity
  8
0
  6
Continuous
 62
     7
370
    15
100
AcDbSpline
210
0.0
220
0.0
230
1.0
 70
     8
 71
     3
 72
    24
 73
    20
 74
     0
 42
0.0000000001
 43
0.0000000001
 40
0.0
 40
0.0
 40
0.0
 40
0.0
 40
0.0161805690276209
 40
0.0776692834633947
 40
0.1391579978991683
 40
0.2006467123349419
 40
0.2621354267707157
 40
0.3236241412064895
 40
0.3851128556422629
 40
0.4466015700780367
 40
0.5080902845138105
 40
0.5695789989495843
 40
0.6310677133853581
 40
0.6925564278211315
 40
0.7540451422569053
 40
0.815533856692679
 40
0.8770225711284524
 40
0.9385112855642262
 40
1.0
 40
1.0
 40
1.0
 40
1.0
 10
2594.614227295618
 20
1043.340329790189
 30
0.0
 10
2594.624053305595
 20
1043.337588675895
 30
0.0
 10
2594.671219703323
 20
1043.324430894935
 30
0.0
 10
2594.566690918892
 20
1043.300856447308
 30
0.0
 10
2594.295020363169
 20
1043.269606447308
 30
0.0
 10
2593.822569951605
 20
1043.238356447308
 30
0.0
 10
2593.172723176869
 20
1043.207106447308
 30
0.0
 10
2592.346691987631
 20
1043.175856447308
 30
0.0
 10
2591.353783702911
 20
1043.144606447308
 30
0.0
 10
2590.203198254827
 20
1043.113356447308
 30
0.0
 10
2588.906113492882
 20
1043.082106447308
 30
0.0
 10
2587.474995039172
 20
1043.050856447308
 30
0.0
 10
2585.923632316956
 20
1043.019606447308
 30
0.0
 10
2584.266963929646
 20
1042.988356447308
 30
0.0
 10
2582.520944999877
 20
1042.957106447308
 30
0.0
 10
2580.702390510322
 20
1042.925856447308
 30
0.0
 10
2578.828814170766
 20
1042.894606447308
 30
0.0
 10
2576.918259535946
 20
1042.863356447308
 30
0.0
 10
2575.632170707941
 20
1042.842523113975
 30
0.0
 10
2574.989126293938
 20
1042.832106447308
 30
0.0
  0
SPLINE
  5
403
330
3B3
100
AcDbEntity
  8
0
  6
Continuous
 62
     7
370
    15
100
AcDbSpline
210
0.0
220
0.0
230
1.0
 70
     8
 71
     3
 72
    22
 73
    18
 74
     0
 42
0.0000000001
 43
0.0000000001
 40
0.0
 40
0.0
 40
0.0
 40
0.0
 40
0.125
 40
0.125
 40
0.25
 40
0.25
 40
0.375
 40
0.375
 40
0.5
 40
0.5
 40
0.625
 40
0.625
 40
0.75
 40
0.75
 40
0.875
 40
0.875
 40
1.0
 40
1.0
 40
1.0
 40
1.0
 10
2574.989126293938
 20
1042.832106447308
 30
0.0
 10
2573.703036801375
 20
1042.811273113975
 30
0.0
 10
2572.416979109909
 20
1042.790439780642
 30
0.0
 10
2569.894223822734
 20
1042.748773113975
 30
0.0
 10
2568.657588607122
 20
1042.727939780641
 30
0.0
 10
2566.281205088807
 20
1042.686273113975
 30
0.0
 10
2565.141515546871
 20
1042.665439780641
 30
0.0
 10
2563.002826883335
 20
1042.623773113975
 30
0.0
 10
2562.003880645027
 20
1042.602939780642
 30
0.0
 10
2560.185075442218
 20
1042.561273113975
 30
0.0
 10
2559.365261451261
 20
1042.540439780641
 30
0.0
 10
2557.936235373126
 20
1042.498773113975
 30
0.0
 10
2557.327058621435
 20
1042.477939780641
 30
0.0
 10
2556.342728338749
 20
1042.436273113975
 30
0.0
 10
2555.967599147261
 20
1042.415439780641
 30
0.0
 10
2555.46579192077
 20
1042.373773113975
 30
0.0
 10
2555.339126293939
 20
1042.352939780641
 30
0.0
 10
2555.339126293939
 20
1042.332106447308
 30
0.0
  0
SPLINE
  5
404
330
3B3
100
AcDbEntity
  8
0
  6
Continuous
 62
     7
370
    15
100
AcDbSpline
210
0.0
220
0.0
230
1.0
 70
     8
 71
     3
 72
    24
 73
    20
 74
     0
 42
0.0000000001
 43
0.0000000001
 40
0.0
 40
0.0
 40
0.0
 40
0.0
 40
0.0157772199632533
 40
0.07729114371555
 40
0.1388050674678466
 40
0.2003189912201432
 40
0.26183291497244
 40
0.3233468387247367
 40
0.3848607624770332
 40
0.44637468622933
 40
0.5078886099816267
 40
0.5694025337339234
 40
0.6309164574862202
 40
0.6924303812385167
 40
0.7539443049908133
 40
0.81545822874311
 40
0.8769721524954064
 40
0.9384860762477032
 40
1.0
 40
1.0
 40
1.0
 40
1.0
 10
2594.614857927215
 20
1041.34012151274
 30
0.0
 10
2594.624405997965
 20
1041.337449824263
 30
0.0
 10
2594.671181114891
 20
1041.324361469119
 30
0.0
 10
2594.566585714876
 20
1041.300856447308
 30
0.0
 10
2594.2950485525
 20
1041.269606447308
 30
0.0
 10
2593.822562398297
 20
1041.238356447308
 30
0.0
 10
2593.172725200772
 20
1041.207106447308
 30
0.0
 10
2592.346691445328
 20
1041.175856447308
 30
0.0
 10
2591.353783848221
 20
1041.144606447308
 30
0.0
 10
2590.203198215891
 20
1041.113356447308
 30
0.0
 10
2588.906113503315
 20
1041.082106447308
 30
0.0
 10
2587.474995036377
 20
1041.050856447308
 30
0.0
 10
2585.923632317705
 20
1041.019606447308
 30
0.0
 10
2584.266963929445
 20
1040.988356447308
 30
0.0
 10
2582.52094499993
 20
1040.957106447308
 30
0.0
 10
2580.702390510308
 20
1040.925856447308
 30
0.0
 10
2578.82881417077
 20
1040.894606447308
 30
0.0
 10
2576.918259535944
 20
1040.863356447308
 30
0.0
 10
2575.632170707941
 20
1040.842523113975
 30
0.0
 10
2574.989126293938
 20
1040.832106447308
 30
0.0
  0
SPLINE
  5
405
330
3B3
100
AcDbEntity
  8
0
  6
Continuous
 62
     7
370
    15
100
AcDbSpline
210
0.0
220
0.0
230
1.0
 70
     8
 71
     3
 72
    22
 73
    18
 74
     0
 42
0.0000000001
 43
0.0000000001
 40
0.0
 40
0.0
 40
0.0
 40
0.0
 40
0.125
 40
0.125
 40
0.25
 40
0.25
 40
0.375
 40
0.375
 40
0.5
 40
0.5
 40
0.625
 40
0.625
 40
0.75
 40
0.75
 40
0.875
 40
0.875
 40
1.0
 40
1.0
 40
1.0
 40
1.0
 10
2574.989126293938
 20
1040.832106447308
 30
0.0
 10
2573.703036801375
 20
1040.811273113975
 30
0.0
 10
2572.416979109909
 20
1040.790439780642
 30
0.0
 10
2569.894223822734
 20
1040.748773113975
 30
0.0
 10
2568.657588607122
 20
1040.727939780641
 30
0.0
 10
2566.281205088807
 20
1040.686273113975
 30
0.0
 10
2565.141515546871
 20
1040.665439780641
 30
0.0
 10
2563.002826883335
 20
1040.623773113975
 30
0.0
 10
2562.003880645027
 20
1040.602939780642
 30
0.0
 10
2560.185075442218
 20
1040.561273113975
 30
0.0
 10
2559.365261451261
 20
1040.540439780641
 30
0.0
 10
2557.936235373126
 20
1040.498773113975
 30
0.0
 10
2557.327058621435
 20
1040.477939780641
 30
0.0
 10
2556.342728338749
 20
1040.436273113975
 30
0.0
 10
2555.967599147261
 20
1040.415439780641
 30
0.0
 10
2555.46579192077
 20
1040.373773113975
 30
0.0
 10
2555.339126293939
 20
1040.352939780642
 30
0.0
 10
2555.339126293939
 20
1040.332106447308
 30
0.0
  0
SPLINE
  5
406
330
3B3
100
AcDbEntity
  8
0
  6
Continuous
 62
     7
370
    15
100
AcDbSpline
210
0.0
220
0.0
230
1.0
 70
     8
 71
     3
 72
    24
 73
    20
 74
     0
 42
0.0000000001
 43
0.0000000001
 40
0.0
 40
0.0
 40
0.0
 40
0.0
 40
0.0160058573256269
 40
0.0775054912427753
 40
0.1390051251599236
 40
0.2005047590770718
 40
0.2620043929942202
 40
0.3235040269113686
 40
0.3850036608285167
 40
0.4465032947456651
 40
0.5080029286628136
 40
0.569502562579962
 40
0.6310021964971103
 40
0.6925018304142584
 40
0.7540014643314068
 40
0.8155010982485551
 40
0.8770007321657033
 40
0.9385003660828516
 40
1.0
 40
1.0
 40
1.0
 40
1.0
 10
2594.614500518813
 20
1039.340239553305
 30
0.0
 10
2594.62420596809
 20
1039.337528517973
 30
0.0
 10
2594.671202864198
 20
1039.324400815974
 30
0.0
 10
2594.566645491774
 20
1039.300856447308
 30
0.0
 10
2594.295032535328
 20
1039.269606447308
 30
0.0
 10
2593.822566690085
 20
1039.238356447308
 30
0.0
 10
2593.172724050791
 20
1039.207106447308
 30
0.0
 10
2592.346691753464
 20
1039.175856447308
 30
0.0
 10
2591.353783765656
 20
1039.144606447308
 30
0.0
 10
2590.203198238014
 20
1039.113356447308
 30
0.0
 10
2588.906113497387
 20
1039.082106447308
 30
0.0
 10
2587.474995037965
 20
1039.050856447308
 30
0.0
 10
2585.92363231728
 20
1039.019606447308
 30
0.0
 10
2584.26696392956
 20
1038.988356447308
 30
0.0
 10
2582.5209449999
 20
1038.957106447308
 30
0.0
 10
2580.702390510316
 20
1038.925856447308
 30
0.0
 10
2578.828814170768
 20
1038.894606447308
 30
0.0
 10
2576.918259535945
 20
1038.863356447308
 30
0.0
 10
2575.632170707941
 20
1038.842523113975
 30
0.0
 10
2574.989126293938
 20
1038.832106447308
 30
0.0
  0
SPLINE
  5
407
330
3B3
100
AcDbEntity
  8
0
  6
Continuous
 62
     7
370
    15
100
AcDbSpline
210
0.0
220
0.0
230
1.0
 70
     8
 71
     3
 72
    22
 73
    18
 74
     0
 42
0.0000000001
 43
0.0000000001
 40
0.0
 40
0.0
 40
0.0
 40
0.0
 40
0.125
 40
0.125
 40
0.25
 40
0.25
 40
0.375
 40
0.375
 40
0.5
 40
0.5
 40
0.625
 40
0.625
 40
0.75
 40
0.75
 40
0.875
 40
0.875
 40
1.0
 40
1.0
 40
1.0
 40
1.0
 10
2574.989126293938
 20
1038.832106447308
 30
0.0
 10
2573.703036801375
 20
1038.811273113975
 30
0.0
 10
2572.416979109909
 20
1038.790439780642
 30
0.0
 10
2569.894223822734
 20
1038.748773113975
 30
0.0
 10
2568.657588607122
 20
1038.727939780641
 30
0.0
 10
2566.281205088807
 20
1038.686273113975
 30
0.0
 10
2565.141515546871
 20
1038.665439780642
 30
0.0
 10
2563.002826883335
 20
1038.623773113975
 30
0.0
 10
2562.003880645027
 20
1038.602939780641
 30
0.0
 10
2560.185075442218
 20
1038.561273113975
 30
0.0
 10
2559.365261451261
 20
1038.540439780641
 30
0.0
 10
2557.936235373126
 20
1038.498773113975
 30
0.0
 10
2557.327058621435
 20
1038.477939780641
 30
0.0
 10
2556.342728338749
 20
1038.436273113975
 30
0.0
 10
2555.967599147261
 20
1038.415439780641
 30
0.0
 10
2555.46579192077
 20
1038.373773113975
 30
0.0
 10
2555.339126293939
 20
1038.352939780641
 30
0.0
 10
2555.339126293939
 20
1038.332106447308
 30
0.0
  0
SPLINE
  5
408
330
3B3
100
AcDbEntity
  8
0
  6
Continuous
 62
     7
370
    15
100
AcDbSpline
210
0.0
220
0.0
230
1.0
 70
     8
 71
     3
 72
    36
 73
    32
 74
     0
 42
0.0000000001
 43
0.0000000001
 40
0.0
 40
0.0
 40
0.0
 40
0.0
 40
0.0265100586465077
 40
0.0621334802131063
 40
0.0979441770684829
 40
0.1337235248815423
 40
0.169254040755657
 40
0.2037495847484236
 40
0.2384665897805819
 40
0.2735185724492527
 40
0.308702575010708
 40
0.3444467206332018
 40
0.3798963402838418
 40
0.4149953175881917
 40
0.4504449372388319
 40
0.4861890828613235
 40
0.5213730854227764
 40
0.5564250680914471
 40
0.5911420731236056
 40
0.6256376171163721
 40
0.6611681329904913
 40
0.6969474808035507
 40
0.7327581776589275
 40
0.768381599225526
 40
0.8036058960657223
 40
0.8381976801159199
 40
0.8731780683132324
 40
0.9083465887191763
 40
0.9434962049682651
 40
0.9790515587886567
 40
1.0
 40
1.0
 40
1.0
 40
1.0
 10
2556.620688863457
 20
1037.1121543077
 30
0.0
 10
2556.638074263162
 20
1037.120661138623
 30
0.0
 10
2556.678821641468
 20
1037.140599193753
 30
0.0
 10
2557.002653313692
 20
1037.173063328298
 30
0.0
 10
2557.549209873454
 20
1037.208850419289
 30
0.0
 10
2558.315829113478
 20
1037.244548475601
 30
0.0
 10
2559.271569920664
 20
1037.279420341252
 30
0.0
 10
2560.401815643307
 20
1037.312642304613
 30
0.0
 10
2561.694581819448
 20
1037.346506537394
 30
0.0
 10
2563.151137757792
 20
1037.381331523004
 30
0.0
 10
2564.762392435619
 20
1037.416748714788
 30
0.0
 10
2566.502835639804
 20
1037.452134842743
 30
0.0
 10
2568.344162837898
 20
1037.486964274274
 30
0.0
 10
2570.259505184971
 20
1037.520487873079
 30
0.0
 10
2572.236781865177
 20
1037.555317304851
 30
0.0
 10
2574.24895336114
 20
1037.590703431837
 30
0.0
 10
2576.262283273063
 20
1037.626120627203
 30
0.0
 10
2578.241125700967
 20
1037.660945599573
 30
0.0
 10
2580.169202241954
 20
1037.694809881176
 30
0.0
 10
2582.046207116082
 20
1037.72803166201
 30
0.0
 10
2583.859195926645
 20
1037.762904229478
 30
0.0
 10
2585.586767168672
 20
1037.798599631815
 30
0.0
 10
2587.186201262727
 20
1037.834396630507
 30
0.0
 10
2588.629215619106
 20
1037.869712491387
 30
0.0
 10
2589.893227052174
 20
1037.903525177216
 30
0.0
 10
2590.975794550463
 20
1037.937120214363
 30
0.0
 10
2591.871486871367
 20
1037.971782500016
 30
0.0
 10
2592.575785177179
 20
1038.006932375784
 30
0.0
 10
2593.065590775565
 20
1038.042218211913
 30
0.0
 10
2593.33430818749
 20
1038.072495498974
 30
0.0
 10
2593.349014859964
 20
1038.090546994831
 30
0.0
 10
2593.354467270082
 20
1038.097239478044
 30
0.0
  0
SPLINE
  5
409
330
3B3
100
AcDbEntity
  8
0
  6
Continuous
 62
     7
370
    15
100
AcDbSpline
210
0.0
220
0.0
230
1.0
 70
     8
 71
     3
 72
    37
 73
    33
 74
     0
 42
0.0000000001
 43
0.0000000001
 40
0.0
 40
0.0
 40
0.0
 40
0.0
 40
0.0061363092564444
 40
0.0415549745328559
 40
0.0766444274693061
 40
0.1118282856575236
 40
0.1468989182527295
 40
0.1816526634261517
 40
0.2167600163907972
 40
0.2522627450393358
 40
0.2880295726626707
 40
0.3238434140215554
 40
0.359485472477765
 40
0.3941187278696035
 40
0.4286685931754855
 40
0.4636199309678586
 40
0.4987779919715522
 40
0.5345733489298371
 40
0.5701505829153107
 40
0.6053116574769581
 40
0.6406036102010257
 40
0.6762651064796156
 40
0.7114438022054057
 40
0.7465658105845372
 40
0.7814256735589372
 40
0.815903339031953
 40
0.8512918825528274
 40
0.8870051309699299
 40
0.9228279413296696
 40
0.958541189746772
 40
0.993929733267644
 40
1.0
 40
1.0
 40
1.0
 40
1.0
 10
2556.616304799819
 20
1039.112251929783
 30
0.0
 10
2556.614564804204
 20
1039.114213921539
 30
0.0
 10
2556.602781585587
 20
1039.127500493981
 30
0.0
 10
2556.7926695158
 20
1039.15259803039
 30
0.0
 10
2557.196416003336
 20
1039.187714577355
 30
0.0
 10
2557.828532936706
 20
1039.222930151225
 30
0.0
 10
2558.65514546652
 20
1039.25780401144
 30
0.0
 10
2559.673283593369
 20
1039.292007056936
 30
0.0
 10
2560.875011085564
 20
1039.325369971709
 30
0.0
 10
2562.25744385078
 20
1039.360372347837
 30
0.0
 10
2563.803962935877
 20
1039.396037067706
 30
0.0
 10
2565.489345581817
 20
1039.431853824799
 30
0.0
 10
2567.271679043258
 20
1039.467004349758
 30
0.0
 10
2569.12313052972
 20
1039.500771241473
 30
0.0
 10
2571.029737982505
 20
1039.534009574559
 30
0.0
 10
2572.991961310131
 20
1039.568608703324
 30
0.0
 10
2575.001206889576
 20
1039.603938884564
 30
0.0
 10
2577.022390119963
 20
1039.639476602267
 30
0.0
 10
2579.01891620617
 20
1039.674687693604
 30
0.0
 10
2580.95772831413
 20
1039.708461428022
 30
0.0
 10
2582.826982712577
 20
1039.74274046782
 30
0.0
 10
2584.602564281142
 20
1039.777934010879
 30
0.0
 10
2586.260134182673
 20
1039.813336464596
 30
0.0
 10
2587.772341500085
 20
1039.848344019636
 30
0.0
 10
2589.125489731529
 20
1039.882691370351
 30
0.0
 10
2590.318298631205
 20
1039.915848542667
 30
0.0
 10
2591.341114003596
 20
1039.950276005395
 30
0.0
 10
2592.177399531927
 20
1039.985800759878
 30
0.0
 10
2592.811384063188
 20
1040.021652878366
 30
0.0
 10
2593.206279495802
 20
1040.057168746613
 30
0.0
 10
2593.385204674043
 20
1040.082358612591
 30
0.0
 10
2593.368208029185
 20
1040.095620035496
 30
0.0
 10
2593.365719434669
 20
1040.09756173073
 30
0.0
  0
SPLINE
  5
40A
330
3B3
100
AcDbEntity
  8
0
  6
Continuous
 62
     7
370
    15
100
AcDbSpline
210
0.0
220
0.0
230
1.0
 70
     8
 71
     3
 72
    36
 73
    32
 74
     0
 42
0.0000000001
 43
0.0000000001
 40
0.0
 40
0.0
 40
0.0
 40
0.0
 40
0.019375350828587
 40
0.054299919901313
 40
0.090089013261769
 40
0.1258937827134972
 40
0.1614958270951571
 40
0.1966871245566422
 40
0.231946925076085
 40
0.2669530786959127
 40
0.3021287090283122
 40
0.3372665363297169
 40
0.3721606090688553
 40
0.4072828483280938
 40
0.442642335232063
 40
0.4783415565391543
 40
0.5141659404093561
 40
0.5498963703685766
 40
0.5846891718712476
 40
0.6191608650089976
 40
0.6539890445676566
 40
0.6890977159938167
 40
0.7249204177868985
 40
0.7606023862863407
 40
0.7959296724060124
 40
0.8310698210029208
 40
0.8666254079641852
 40
0.9017752546936772
 40
0.9369440057039815
 40
0.9719246232720479
 40
0.9999999999999998
 40
0.9999999999999998
 40
0.9999999999999998
 40
0.9999999999999998
 10
2556.626466103704
 20
1041.112335928851
 30
0.0
 10
2556.632921172974
 20
1041.118529253413
 30
0.0
 10
2556.651011670917
 20
1041.13588620507
 30
0.0
 10
2556.917735220988
 20
1041.165657052127
 30
0.0
 10
2557.41201390919
 20
1041.201160573248
 30
0.0
 10
2558.134832126742
 20
1041.23693814541
 30
0.0
 10
2559.05530156019
 20
1041.272204528788
 30
0.0
 10
2560.162410220323
 20
1041.306088289134
 30
0.0
 10
2561.438694632084
 20
1041.340031951218
 30
0.0
 10
2562.874779695075
 20
1041.374961858742
 30
0.0
 10
2564.45194347675
 20
1041.410134371009
 30
0.0
 10
2566.151661262977
 20
1041.445181180997
 30
0.0
 10
2567.954175199163
 20
1041.479829054176
 30
0.0
 10
2569.843303741337
 20
1041.513240314862
 30
0.0
 10
2571.808290913412
 20
1041.547759614579
 30
0.0
 10
2573.824866422712
 20
1041.58324710106
 30
0.0
 10
2575.862701463589
 20
1041.619094716156
 30
0.0
 10
2577.872712180634
 20
1041.654447063157
 30
0.0
 10
2579.822851625853
 20
1041.688782336583
 30
0.0
 10
2581.700624066872
 20
1041.721707558943
 30
0.0
 10
2583.506780851218
 20
1041.755949790321
 30
0.0
 10
2585.235946758027
 20
1041.791127730252
 30
0.0
 10
2586.855757482377
 20
1041.826757120391
 30
0.0
 10
2588.334379391799
 20
1041.862204161847
 30
0.0
 10
2589.643140041206
 20
1041.896606608703
 30
0.0
 10
2590.775937895394
 20
1041.930290347768
 30
0.0
 10
2591.718165254484
 20
1041.965227781813
 30
0.0
 10
2592.462694963655
 20
1042.000522740398
 30
0.0
 10
2592.990650960306
 20
1042.035663906711
 30
0.0
 10
2593.307421218735
 20
1042.068193572323
 30
0.0
 10
2593.347078135363
 20
1042.088419503413
 30
0.0
 10
2593.36473518584
 20
1042.097425001485
 30
0.0
  0
SPLINE
  5
40B
330
3B3
100
AcDbEntity
  8
0
  6
Continuous
 62
     7
370
    15
100
AcDbSpline
210
0.0
220
0.0
230
1.0
 70
     8
 71
     3
 72
    32
 73
    28
 74
     0
 42
0.0000000001
 43
0.0000000001
 40
0.0
 40
0.0
 40
0.0
 40
0.0
 40
0.039161553723597
 40
0.0807842662304108
 40
0.1225711429262457
 40
0.1635251092773491
 40
0.2041518842527393
 40
0.2443628208527798
 40
0.2849483276270219
 40
0.3266275700141346
 40
0.3684164088386083
 40
0.4100592465986779
 40
0.4513057870695424
 40
0.492275580182435
 40
0.5329792189919268
 40
0.5739671954233096
 40
0.6149992687685442
 40
0.6558336489712597
 40
0.6941772972754913
 40
0.7323803648136861
 40
0.7710172895709214
 40
0.8099042914171389
 40
0.8488361317186774
 40
0.8869170242061198
 40
0.924650746490983
 40
0.9621231825985761
 40
1.0
 40
1.0
 40
1.0
 40
1.0
 10
2556.606414706437
 20
1043.112605759239
 30
0.0
 10
2556.641674142865
 20
1043.123442113377
 30
0.0
 10
2556.714408940867
 20
1043.145795846427
 30
0.0
 10
2557.100990037008
 20
1043.18070456116
 30
0.0
 10
2557.692587541175
 20
1043.216321914196
 30
0.0
 10
2558.490960526218
 20
1043.251503016309
 30
0.0
 10
2559.469859086979
 20
1043.285744414483
 30
0.0
 10
2560.624510392003
 20
1043.318669857638
 30
0.0
 10
2561.955617381044
 20
1043.353005071345
 30
0.0
 10
2563.459893833798
 20
1043.388357434416
 30
0.0
 10
2565.118014718212
 20
1043.424205046689
 30
0.0
 10
2566.890650446347
 20
1043.459692528253
 30
0.0
 10
2568.74894599314
 20
1043.49421185018
 30
0.0
 10
2570.666975238085
 20
1043.527623027772
 30
0.0
 10
2572.631592938316
 20
1043.562271209711
 30
0.0
 10
2574.624968859427
 20
1043.597316860607
 30
0.0
 10
2576.624759935185
 20
1043.63249370277
 30
0.0
 10
2578.562657501504
 20
1043.666616479353
 30
0.0
 10
2580.415448719701
 20
1043.699092984306
 30
0.0
 10
2582.1775341247
 20
1043.730524172883
 30
0.0
 10
2583.873106595483
 20
1043.763238096722
 30
0.0
 10
2585.485515160716
 20
1043.796486812191
 30
0.0
 10
2586.97911734673
 20
1043.829678933752
 30
0.0
 10
2588.334469947762
 20
1043.862267513032
 30
0.0
 10
2589.535119572574
 20
1043.893831924768
 30
0.0
 10
2590.600472427404
 20
1043.924521467149
 30
0.0
 10
2591.177043555068
 20
1043.9457901901
 30
0.0
 10
2591.46687627808
 20
1043.956481623632
 30
0.0
  0
SPLINE
  5
40C
330
3B3
100
AcDbEntity
  8
0
  6
Continuous
 62
     7
370
    15
100
AcDbSpline
210
0.0
220
0.0
230
1.0
 70
     8
 71
     3
 72
    24
 73
    20
 74
     0
 42
0.0000000001
 43
0.0000000001
 40
0.0
 40
0.0
 40
0.0
 40
0.0
 40
0.0118106111019519
 40
0.0735724479080797
 40
0.135334284714208
 40
0.1970961215203358
 40
0.2588579583264642
 40
0.3206197951325919
 40
0.3823816319387197
 40
0.4441434687448482
 40
0.5059053055509759
 40
0.5676671423571039
 40
0.6294289791632318
 40
0.69119081596936
 40
0.7529526527754881
 40
0.8147144895816161
 40
0.8764763263877441
 40
0.9382381631938722
 40
1.0
 40
1.0
 40
1.0
 40
1.0
 10
2555.357220338871
 20
1038.150505739234
 30
0.0
 10
2555.350328113781
 20
1038.1524977007
 30
0.0
 10
2555.307394021125
 20
1038.164906328833
 30
0.0
 10
2555.412766959614
 20
1038.187731623632
 30
0.0
 10
2555.682909268057
 20
1038.218981623632
 30
0.0
 10
2556.155769172246
 20
1038.250231623632
 30
0.0
 10
2556.805506223764
 20
1038.281481623632
 30
0.0
 10
2557.63156681325
 20
1038.312731623632
 30
0.0
 10
2558.624467220197
 20
1038.343981623632
 30
0.0
 10
2559.775054779124
 20
1038.375231623632
 30
0.0
 10
2561.07213897547
 20
1038.406481623632
 30
0.0
 10
2562.503257580732
 20
1038.437731623632
 30
0.0
 10
2564.054620262339
 20
1038.468981623632
 30
0.0
 10
2565.71128866053
 20
1038.500231623632
 30
0.0
 10
2567.457307587384
 20
1038.531481623632
 30
0.0
 10
2569.27586207772
 20
1038.562731623632
 30
0.0
 10
2571.149438417066
 20
1038.593981623632
 30
0.0
 10
2573.059993051943
 20
1038.625231623632
 30
0.0
 10
2574.34608187994
 20
1038.646064956965
 30
0.0
 10
2574.989126293938
 20
1038.656481623632
 30
0.0
  0
SPLINE
  5
40D
330
3B3
100
AcDbEntity
  8
0
  6
Continuous
 62
     7
370
    15
100
AcDbSpline
210
0.0
220
0.0
230
1.0
 70
     8
 71
     3
 72
    22
 73
    18
 74
     0
 42
0.0000000001
 43
0.0000000001
 40
0.0
 40
0.0
 40
0.0
 40
0.0
 40
0.125
 40
0.125
 40
0.25
 40
0.25
 40
0.375
 40
0.375
 40
0.5
 40
0.5
 40
0.625
 40
0.625
 40
0.75
 40
0.75
 40
0.875
 40
0.875
 40
1.0
 40
1.0
 40
1.0
 40
1.0
 10
2574.989126293938
 20
1038.656481623632
 30
0.0
 10
2576.275215786502
 20
1038.677314956965
 30
0.0
 10
2577.561273477968
 20
1038.698148290298
 30
0.0
 10
2580.084028765142
 20
1038.739814956965
 30
0.0
 10
2581.320663980755
 20
1038.760648290298
 30
0.0
 10
2583.697047499069
 20
1038.802314956965
 30
0.0
 10
2584.836737041006
 20
1038.823148290298
 30
0.0
 10
2586.975425704542
 20
1038.864814956965
 30
0.0
 10
2587.97437194285
 20
1038.885648290298
 30
0.0
 10
2589.793177145658
 20
1038.927314956965
 30
0.0
 10
2590.612991136616
 20
1038.948148290298
 30
0.0
 10
2592.042017214752
 20
1038.989814956965
 30
0.0
 10
2592.651193966443
 20
1039.010648290298
 30
0.0
 10
2593.635524249128
 20
1039.052314956965
 30
0.0
 10
2594.010653440617
 20
1039.073148290298
 30
0.0
 10
2594.512460667108
 20
1039.114814956965
 30
0.0
 10
2594.639126293938
 20
1039.135648290298
 30
0.0
 10
2594.639126293938
 20
1039.156481623632
 30
0.0
  0
SPLINE
  5
40E
330
3B3
100
AcDbEntity
  8
0
  6
Continuous
 62
     7
370
    15
100
AcDbSpline
210
0.0
220
0.0
230
1.0
 70
     8
 71
     3
 72
    24
 73
    20
 74
     0
 42
0.0000000001
 43
0.0000000001
 40
0.0
 40
0.0
 40
0.0
 40
0.0
 40
0.0117313693161841
 40
0.0734981587339224
 40
0.1352649481516613
 40
0.1970317375693995
 40
0.2587985269871384
 40
0.3205653164048766
 40
0.382332105822615
 40
0.4440988952403539
 40
0.5058656846580921
 40
0.5676324740758306
 40
0.629399263493569
 40
0.6911660529113077
 40
0.7529328423290462
 40
0.8146996317467847
 40
0.8764664211645232
 40
0.9382332105822618
 40
1.0
 40
1.0
 40
1.0
 40
1.0
 10
2555.357097498098
 20
1040.150546309613
 30
0.0
 10
2555.350256825179
 20
1040.152524747619
 30
0.0
 10
2555.307399350445
 20
1040.164919852292
 30
0.0
 10
2555.412790225726
 20
1040.187731623632
 30
0.0
 10
2555.682903033922
 20
1040.218981623632
 30
0.0
 10
2556.155770842677
 20
1040.250231623632
 30
0.0
 10
2556.805505776173
 20
1040.281481623632
 30
0.0
 10
2557.631566933181
 20
1040.312731623632
 30
0.0
 10
2558.624467188061
 20
1040.343981623632
 30
0.0
 10
2559.775054787735
 20
1040.375231623632
 30
0.0
 10
2561.072138973163
 20
1040.406481623632
 30
0.0
 10
2562.50325758135
 20
1040.437731623632
 30
0.0
 10
2564.054620262174
 20
1040.468981623632
 30
0.0
 10
2565.711288660575
 20
1040.500231623632
 30
0.0
 10
2567.457307587373
 20
1040.531481623632
 30
0.0
 10
2569.275862077723
 20
1040.562731623632
 30
0.0
 10
2571.149438417066
 20
1040.593981623632
 30
0.0
 10
2573.059993051943
 20
1040.625231623632
 30
0.0
 10
2574.34608187994
 20
1040.646064956965
 30
0.0
 10
2574.989126293938
 20
1040.656481623632
 30
0.0
  0
SPLINE
  5
40F
330
3B3
100
AcDbEntity
  8
0
  6
Continuous
 62
     7
370
    15
100
AcDbSpline
210
0.0
220
0.0
230
1.0
 70
     8
 71
     3
 72
    22
 73
    18
 74
     0
 42
0.0000000001
 43
0.0000000001
 40
0.0
 40
0.0
 40
0.0
 40
0.0
 40
0.125
 40
0.125
 40
0.25
 40
0.25
 40
0.375
 40
0.375
 40
0.5
 40
0.5
 40
0.625
 40
0.625
 40
0.75
 40
0.75
 40
0.875
 40
0.875
 40
1.0
 40
1.0
 40
1.0
 40
1.0
 10
2574.989126293938
 20
1040.656481623632
 30
0.0
 10
2576.275215786502
 20
1040.677314956965
 30
0.0
 10
2577.561273477968
 20
1040.698148290299
 30
0.0
 10
2580.084028765142
 20
1040.739814956965
 30
0.0
 10
2581.320663980755
 20
1040.760648290298
 30
0.0
 10
2583.697047499069
 20
1040.802314956965
 30
0.0
 10
2584.836737041006
 20
1040.823148290298
 30
0.0
 10
2586.975425704542
 20
1040.864814956965
 30
0.0
 10
2587.97437194285
 20
1040.885648290299
 30
0.0
 10
2589.793177145658
 20
1040.927314956965
 30
0.0
 10
2590.612991136616
 20
1040.948148290298
 30
0.0
 10
2592.042017214752
 20
1040.989814956965
 30
0.0
 10
2592.651193966443
 20
1041.010648290298
 30
0.0
 10
2593.635524249128
 20
1041.052314956965
 30
0.0
 10
2594.010653440617
 20
1041.073148290299
 30
0.0
 10
2594.512460667108
 20
1041.114814956965
 30
0.0
 10
2594.639126293938
 20
1041.135648290298
 30
0.0
 10
2594.639126293938
 20
1041.156481623632
 30
0.0
  0
SPLINE
  5
410
330
3B3
100
AcDbEntity
  8
0
  6
Continuous
 62
     7
370
    15
100
AcDbSpline
210
0.0
220
0.0
230
1.0
 70
     8
 71
     3
 72
    24
 73
    20
 74
     0
 42
0.0000000001
 43
0.0000000001
 40
0.0
 40
0.0
 40
0.0
 40
0.0
 40
0.0122170391689156
 40
0.0739534742208582
 40
0.1356899092728013
 40
0.1974263443247438
 40
0.259162779376687
 40
0.3208992144286294
 40
0.382635649480572
 40
0.4443720845325153
 40
0.5061085195844577
 40
0.5678449546364004
 40
0.6295813896883433
 40
0.6913178247402861
 40
0.753054259792229
 40
0.8147906948441717
 40
0.8765271298961145
 40
0.9382635649480574
 40
1.0
 40
1.0
 40
1.0
 40
1.0
 10
2555.35785069424
 20
1042.150297553014
 30
0.0
 10
2555.350693096615
 20
1042.152358909887
 30
0.0
 10
2555.307365969304
 20
1042.164836933426
 30
0.0
 10
2555.412648463223
 20
1042.187731623632
 30
0.0
 10
2555.68294101907
 20
1042.218981623632
 30
0.0
 10
2556.155760664588
 20
1042.250231623632
 30
0.0
 10
2556.805508503384
 20
1042.281481623632
 30
0.0
 10
2557.631566202427
 20
1042.312731623632
 30
0.0
 10
2558.624467383866
 20
1042.343981623632
 30
0.0
 10
2559.775054735269
 20
1042.375231623632
 30
0.0
 10
2561.072138987221
 20
1042.406481623632
 30
0.0
 10
2562.503257577584
 20
1042.437731623632
 30
0.0
 10
2564.054620263183
 20
1042.468981623632
 30
0.0
 10
2565.711288660305
 20
1042.500231623632
 30
0.0
 10
2567.457307587444
 20
1042.531481623632
 30
0.0
 10
2569.275862077704
 20
1042.562731623632
 30
0.0
 10
2571.149438417071
 20
1042.593981623632
 30
0.0
 10
2573.059993051942
 20
1042.625231623632
 30
0.0
 10
2574.346081879939
 20
1042.646064956965
 30
0.0
 10
2574.989126293938
 20
1042.656481623632
 30
0.0
  0
SPLINE
  5
411
330
3B3
100
AcDbEntity
  8
0
  6
Continuous
 62
     7
370
    15
100
AcDbSpline
210
0.0
220
0.0
230
1.0
 70
     8
 71
     3
 72
    22
 73
    18
 74
     0
 42
0.0000000001
 43
0.0000000001
 40
0.0
 40
0.0
 40
0.0
 40
0.0
 40
0.125
 40
0.125
 40
0.25
 40
0.25
 40
0.375
 40
0.375
 40
0.5
 40
0.5
 40
0.625
 40
0.625
 40
0.75
 40
0.75
 40
0.875
 40
0.875
 40
1.0
 40
1.0
 40
1.0
 40
1.0
 10
2574.989126293938
 20
1042.656481623632
 30
0.0
 10
2576.275215786502
 20
1042.677314956965
 30
0.0
 10
2577.561273477968
 20
1042.698148290298
 30
0.0
 10
2580.084028765142
 20
1042.739814956965
 30
0.0
 10
2581.320663980755
 20
1042.760648290298
 30
0.0
 10
2583.697047499069
 20
1042.802314956965
 30
0.0
 10
2584.836737041006
 20
1042.823148290298
 30
0.0
 10
2586.975425704542
 20
1042.864814956965
 30
0.0
 10
2587.97437194285
 20
1042.885648290298
 30
0.0
 10
2589.793177145658
 20
1042.927314956965
 30
0.0
 10
2590.612991136616
 20
1042.948148290298
 30
0.0
 10
2592.042017214752
 20
1042.989814956965
 30
0.0
 10
2592.651193966443
 20
1043.010648290299
 30
0.0
 10
2593.635524249128
 20
1043.052314956965
 30
0.0
 10
2594.010653440617
 20
1043.073148290298
 30
0.0
 10
2594.512460667108
 20
1043.114814956965
 30
0.0
 10
2594.639126293938
 20
1043.135648290298
 30
0.0
 10
2594.639126293938
 20
1043.156481623632
 30
0.0
  0
LINE
  5
412
330
3B3
100
AcDbEntity
  8
0
  6
Continuous
 62
     7
370
    15
100
AcDbLine
 10
2549.989126293938
 20
1048.156481623632
 30
0.0
 11
2549.989126293938
 21
1043.956481623632
 31
0.0
  0
LINE
  5
413
330
3B3
100
AcDbEntity
  8
0
  6
Continuous
 62
     7
370
    15
100
AcDbLine
 10
2549.989126293938
 20
1043.956481623632
 30
0.0
 11
2552.734206645246
 21
1043.956481623632
 31
0.0
  0
LINE
  5
414
330
3B3
100
AcDbEntity
  8
0
  6
Continuous
 62
     7
370
    15
100
AcDbLine
 10
2599.989126293938
 20
1043.956481623632
 30
0.0
 11
2599.989126293938
 21
1048.156481623632
 31
0.0
  0
LINE
  5
415
330
3B3
100
AcDbEntity
  8
0
  6
Continuous
 62
     7
370
    15
100
AcDbLine
 10
2599.989126293938
 20
1048.156481623632
 30
0.0
 11
2597.919489919854
 21
1048.156481623632
 31
0.0
  0
LINE
  5
416
330
3B3
100
AcDbEntity
  8
0
  6
Continuous
 62
     7
370
    15
100
AcDbLine
 10
2597.919489919854
 20
1043.956481623632
 30
0.0
 11
2599.989126293938
 21
1043.956481623632
 31
0.0
  0
LINE
  5
417
330
3B3
100
AcDbEntity
  8
0
  6
Continuous
 62
     7
370
    15
100
AcDbLine
 10
2536.359126293939
 20
1071.156481623632
 30
0.0
 11
2591.834654342037
 21
1071.156481623632
 31
0.0
  0
SPLINE
  5
418
330
3B3
100
AcDbEntity
  8
0
  6
Continuous
 62
     7
370
    15
100
AcDbSpline
210
0.0
220
0.0
230
1.0
 70
    24
 71
     3
 72
     8
 73
     4
 74
     0
 42
0.0000000001
 43
0.0000000001
 40
0.0
 40
0.0
 40
0.0
 40
0.0
 40
1.0
 40
1.0
 40
1.0
 40
1.0
 10
2536.359126293939
 20
1071.156481623632
 30
0.0
 10
2536.359126293939
 20
1071.156481623632
 30
0.0
 10
2536.359126293939
 20
1071.027663784281
 30
0.0
 10
2536.359126293939
 20
1070.785695440898
 30
0.0
  0
LINE
  5
419
330
3B3
100
AcDbEntity
  8
0
  6
Continuous
 62
     8
370
    15
100
AcDbLine
 10
2602.239126293938
 20
1061.156481623632
 30
0.0
 11
2574.989126293938
 21
1061.156481623632
 31
0.0
  0
SPLINE
  5
41A
330
3B3
100
AcDbEntity
  8
0
  6
Continuous
 62
     8
370
    15
100
AcDbSpline
210
0.0
220
0.0
230
1.0
 70
    24
 71
     3
 72
    22
 73
    18
 74
     0
 42
0.0000000001
 43
0.0000000001
 40
0.0
 40
0.0
 40
0.0
 40
0.0
 40
0.1250000000000001
 40
0.1250000000000001
 40
0.2500000000000002
 40
0.2500000000000002
 40
0.3750000000000002
 40
0.3750000000000002
 40
0.5000000000000004
 40
0.5000000000000004
 40
0.6250000000000004
 40
0.6250000000000004
 40
0.7500000000000002
 40
0.7500000000000002
 40
0.8750000000000001
 40
0.8750000000000001
 40
1.0
 40
1.0
 40
1.0
 40
1.0
 10
2574.989126293938
 20
1050.156481623632
 30
0.0
 10
2576.76942758082
 20
1050.156481623632
 30
0.0
 10
2578.549684846243
 20
1050.156481623632
 30
0.0
 10
2582.041871439955
 20
1050.156481623632
 30
0.0
 10
2583.753714417048
 20
1050.156481623632
 30
0.0
 10
2587.043282258355
 20
1050.156481623632
 30
0.0
 10
2588.62092578152
 20
1050.156481623632
 30
0.0
 10
2591.581458623089
 20
1050.156481623632
 30
0.0
 10
2592.964274736485
 20
1050.156481623632
 30
0.0
 10
2595.482000961503
 20
1050.156481623632
 30
0.0
 10
2596.616848817383
 20
1050.156481623632
 30
0.0
 10
2598.595013618978
 20
1050.156481623632
 30
0.0
 10
2599.43828165067
 20
1050.156481623632
 30
0.0
 10
2600.800865264885
 20
1050.156481623632
 30
0.0
 10
2601.320147154843
 20
1050.156481623632
 30
0.0
 10
2602.01478625753
 20
1050.156481623632
 30
0.0
 10
2602.190126293939
 20
1050.156481623632
 30
0.0
 10
2602.190126293939
 20
1050.156481623632
 30
0.0
  0
LINE
  5
41B
330
3B3
100
AcDbEntity
  8
0
  6
Continuous
 62
     8
370
    15
100
AcDbLine
 10
2574.989126293938
 20
1064.311183941071
 30
0.0
 11
2574.989126293938
 21
1066.364773245839
 31
0.0
  0
SPLINE
  5
41C
330
3B3
100
AcDbEntity
  8
0
  6
Continuous
 62
     8
370
    15
100
AcDbSpline
210
0.0
220
0.0
230
1.0
 70
     8
 71
     3
 72
    11
 73
     7
 74
     0
 42
0.0000000001
 43
0.0000000001
 40
0.0
 40
0.0
 40
0.0
 40
0.0
 40
0.2428156867696921
 40
0.4959771827937561
 40
0.747642840187574
 40
1.0
 40
1.0
 40
1.0
 40
1.0
 10
2583.032062179854
 20
1066.339436249638
 30
0.0
 10
2582.398885537828
 20
1066.340522251148
 30
0.0
 10
2581.105554076007
 20
1066.342740526156
 30
0.0
 10
2579.10214295369
 20
1066.352863919777
 30
0.0
 10
2577.051512865809
 20
1066.361034488367
 30
0.0
 10
2575.677216980532
 20
1066.362218569322
 30
0.0
 10
2574.989126293938
 20
1066.362811422059
 30
0.0
  0
ENDBLK
  5
3B5
330
3B3
100
AcDbEntity
  8
0
100
AcDbBlockEnd
  0
BLOCK
  5
41F
330
41E
100
AcDbEntity
  8
0
100
AcDbBlockBegin
  2
2
 70
     0
 10
0.0
 20
0.0
 30
0.0
  3
2
  1

  0
LINE
  5
421
330
41E
100
AcDbEntity
  8
0
  6
Continuous
 62
     7
370
    15
100
AcDbLine
 10
2536.359127794586
 20
957.0826433219053
 30
0.0
 11
2536.359127794586
 21
949.6554814714045
 31
0.0
  0
LINE
  5
422
330
41E
100
AcDbEntity
  8
0
  6
Continuous
 62
     7
370
    15
100
AcDbLine
 10
2591.834655215226
 20
957.0826433219053
 30
0.0
 11
2536.359127794586
 21
957.0826433219053
 31
0.0
  0
SPLINE
  5
423
330
41E
100
AcDbEntity
  8
0
  6
Continuous
 62
     7
370
    15
100
AcDbSpline
210
0.0
220
0.0
230
1.0
 70
     8
 71
     3
 72
     8
 73
     4
 74
     0
 42
0.0000000001
 43
0.0000000001
 40
0.0
 40
0.0
 40
0.0
 40
0.0
 40
0.9999999999999998
 40
0.9999999999999998
 40
0.9999999999999998
 40
0.9999999999999998
 10
2591.834654342037
 20
957.0826436955268
 30
0.0
 10
2592.373934211033
 20
954.6363650630482
 30
0.0
 10
2592.373934211033
 20
952.1017600756426
 30
0.0
 10
2591.834654342037
 20
949.655481443164
 30
0.0
  0
LINE
  5
424
330
41E
100
AcDbEntity
  8
0
  6
Continuous
 62
     7
370
    15
100
AcDbLine
 10
2536.359127794586
 20
949.6554814714045
 30
0.0
 11
2591.834655215226
 21
949.6554814714045
 31
0.0
  0
SPLINE
  5
425
330
41E
100
AcDbEntity
  8
0
  6
Continuous
 62
     7
370
    15
100
AcDbSpline
210
0.0
220
0.0
230
1.0
 70
    24
 71
     3
 72
     8
 73
     4
 74
     0
 42
0.0000000001
 43
0.0000000001
 40
0.0
 40
0.0
 40
0.0
 40
0.0
 40
1.0
 40
1.0
 40
1.0
 40
1.0
 10
2536.359126293939
 20
949.655481443164
 30
0.0
 10
2536.359126293939
 20
949.1530299254415
 30
0.0
 10
2536.359126293939
 20
948.6511057524822
 30
0.0
 10
2536.359126293939
 20
948.2107549281815
 30
0.0
  0
LINE
  5
426
330
41E
100
AcDbEntity
  8
0
  6
Continuous
 62
     7
370
    15
100
AcDbLine
 10
2591.834655215226
 20
949.6554814714045
 30
0.0
 11
2591.834655215226
 21
948.2107549293004
 31
0.0
  0
LINE
  5
427
330
41E
100
AcDbEntity
  8
0
  6
Continuous
 62
     7
370
    15
100
AcDbLine
 10
2536.359127794586
 20
948.2107549293004
 30
0.0
 11
2591.834655215226
 21
948.2107549293004
 31
0.0
  0
LINE
  5
428
330
41E
100
AcDbEntity
  8
0
  6
Continuous
 62
     7
370
    15
100
AcDbLine
 10
2591.834655215226
 20
958.5273705042936
 30
0.0
 11
2536.359127794586
 21
958.5273705042936
 31
0.0
  0
LINE
  5
429
330
41E
100
AcDbEntity
  8
0
  6
Continuous
 62
     7
370
    15
100
AcDbLine
 10
2591.834655215226
 20
958.5273705042936
 30
0.0
 11
2591.834655215226
 21
957.0826433219053
 31
0.0
  0
SPLINE
  5
42A
330
41E
100
AcDbEntity
  8
0
  6
Continuous
 62
     7
370
    15
100
AcDbSpline
210
0.0
220
0.0
230
1.0
 70
    24
 71
     3
 72
     8
 73
     4
 74
     0
 42
0.0000000001
 43
0.0000000001
 40
0.0
 40
0.0
 40
0.0
 40
0.0
 40
1.0
 40
1.0
 40
1.0
 40
1.0
 10
2536.359126293939
 20
958.5273702105094
 30
0.0
 10
2536.359126293939
 20
958.0870193862086
 30
0.0
 10
2536.359126293939
 20
957.5850952132494
 30
0.0
 10
2536.359126293939
 20
957.0826436955268
 30
0.0
  0
SPLINE
  5
42B
330
41E
100
AcDbEntity
  8
0
  6
Continuous
 62
     7
370
    15
100
AcDbSpline
210
0.0
220
0.0
230
1.0
 70
     8
 71
     3
 72
    17
 73
    13
 74
     0
 42
0.0000000001
 43
0.0000000001
 40
0.0
 40
0.0
 40
0.0
 40
0.0
 40
0.0230763018548
 40
0.1362145448970376
 40
0.2665582288490301
 40
0.3649197280636182
 40
0.5114987529638876
 40
0.6273051794937409
 40
0.7340557320542588
 40
0.8317534179737295
 40
0.920400798756922
 40
1.0
 40
1.0
 40
1.0
 40
1.0
 10
2585.330044847743
 20
928.6984544711955
 30
0.0
 10
2585.254705321165
 20
928.6669784678688
 30
0.0
 10
2584.809991978872
 20
928.4811822560104
 30
0.0
 10
2583.928539970818
 20
928.1444834304524
 30
0.0
 10
2582.778524589157
 20
927.7678497094383
 30
0.0
 10
2581.498442261942
 20
927.4137312770049
 30
0.0
 10
2580.252308489113
 20
927.1336714156733
 30
0.0
 10
2578.964397125762
 20
926.913959532399
 30
0.0
 10
2577.839775702971
 20
926.7722744647764
 30
0.0
 10
2576.806201549691
 20
926.6848164838954
 30
0.0
 10
2575.86611809751
 20
926.6376031171487
 30
0.0
 10
2575.270784695143
 20
926.6322435167426
 30
0.0
 10
2574.989126293938
 20
926.6297078342569
 30
0.0
  0
LINE
  5
42C
330
41E
100
AcDbEntity
  8
0
  6
Continuous
 62
     7
370
    15
100
AcDbLine
 10
2574.989126247547
 20
926.6297082968094
 30
0.0
 11
2574.989126247547
 21
929.584990403805
 31
0.0
  0
SPLINE
  5
42D
330
41E
100
AcDbEntity
  8
0
  6
Continuous
 62
     7
370
    15
100
AcDbSpline
210
0.0
220
0.0
230
1.0
 70
     8
 71
     3
 72
    12
 73
     8
 74
     0
 42
0.0000000001
 43
0.0000000001
 40
0.0
 40
0.0
 40
0.0
 40
0.0
 40
0.25
 40
0.25
 40
0.5
 40
0.5
 40
1.0
 40
1.0
 40
1.0
 40
1.0
 10
2583.098384588109
 20
930.8858205533624
 30
0.0
 10
2582.452675823987
 20
930.6708370239489
 30
0.0
 10
2581.795089105797
 20
930.4815686049245
 30
0.0
 10
2580.458343107184
 20
930.155559758646
 30
0.0
 10
2579.781306534043
 20
930.0193756321602
 30
0.0
 10
2577.746146338676
 20
929.6938344842414
 30
0.0
 10
2576.374863602292
 20
929.5849923114245
 30
0.0
 10
2574.989126293939
 20
929.5849904914726
 30
0.0
  0
SPLINE
  5
42E
330
41E
100
AcDbEntity
  8
0
  6
Continuous
 62
     7
370
    15
100
AcDbSpline
210
0.0
220
0.0
230
1.0
 70
     8
 71
     3
 72
    42
 73
    38
 74
     0
 42
0.0000000001
 43
0.0000000001
 40
0.0
 40
0.0
 40
0.0
 40
0.0
 40
0.0312499999999998
 40
0.0312499999999998
 40
0.0624999999999996
 40
0.0624999999999996
 40
0.0937499999999995
 40
0.0937499999999995
 40
0.1249999999999992
 40
0.1249999999999992
 40
0.1562499999999991
 40
0.1562499999999991
 40
0.1874999999999989
 40
0.1874999999999989
 40
0.2187499999999988
 40
0.2187499999999988
 40
0.2499999999999986
 40
0.2499999999999986
 40
0.3124999999999986
 40
0.3124999999999986
 40
0.3749999999999986
 40
0.3749999999999986
 40
0.4374999999999985
 40
0.4374999999999985
 40
0.4999999999999986
 40
0.4999999999999986
 40
0.5624999999999987
 40
0.5624999999999987
 40
0.6249999999999987
 40
0.6249999999999987
 40
0.7499999999999992
 40
0.7499999999999992
 40
0.8124999999999992
 40
0.8124999999999992
 40
0.8749999999999994
 40
0.8749999999999994
 40
1.0
 40
1.0
 40
1.0
 40
1.0
 10
2591.834654342037
 20
948.2107549281815
 30
0.0
 10
2592.125914310065
 20
948.210754887123
 30
0.0
 10
2592.410521435204
 20
948.1819597783321
 30
0.0
 10
2592.965587537724
 20
948.0633489276971
 30
0.0
 10
2593.238187468737
 20
947.9719375213774
 30
0.0
 10
2593.73544744485
 20
947.7392307355467
 30
0.0
 10
2593.965801459467
 20
947.5965023055429
 30
0.0
 10
2594.384758182339
 20
947.2672489979244
 30
0.0
 10
2594.568689882912
 20
947.0848042906098
 30
0.0
 10
2594.89347238538
 20
946.6885583866044
 30
0.0
 10
2595.032472819785
 20
946.4765369873287
 30
0.0
 10
2595.264851786327
 20
946.0392263863786
 30
0.0
 10
2595.359533227233
 20
945.8125479153098
 30
0.0
 10
2595.511797698932
 20
945.3433127708397
 30
0.0
 10
2595.568626050021
 20
945.1024549688458
 30
0.0
 10
2595.647118238646
 20
944.6196340385357
 30
0.0
 10
2595.669144075943
 20
944.3762640716681
 30
0.0
 10
2595.691017041981
 20
943.6405959632072
 30
0.0
 10
2595.645229695802
 20
943.1385148161897
 30
0.0
 10
2595.460365408846
 20
942.1532191956863
 30
0.0
 10
2595.322463627824
 20
941.6676917338556
 30
0.0
 10
2594.969779748112
 20
940.7076570134657
 30
0.0
 10
2594.753656009896
 20
940.2307385162814
 30
0.0
 10
2594.262278401964
 20
939.3050909143253
 30
0.0
 10
2593.98807853088
 20
938.8575139924659
 30
0.0
 10
2593.389014000724
 20
937.9868339323701
 30
0.0
 10
2593.0641021383
 20
937.5642127712756
 30
0.0
 10
2592.367243686896
 20
936.7429193129879
 30
0.0
 10
2591.99341495624
 20
936.3425449832107
 30
0.0
 10
2590.825404959443
 20
935.197729297176
 30
0.0
 10
2589.982245035902
 20
934.5029034431572
 30
0.0
 10
2588.629776712878
 20
933.5550844452834
 30
0.0
 10
2588.164193358859
 20
933.2550282965653
 30
0.0
 10
2587.204537520006
 20
932.685817699499
 30
0.0
 10
2586.709133418202
 20
932.4164543866732
 30
0.0
 10
2585.203289531278
 20
931.6672762539354
 30
0.0
 10
2584.166500566734
 20
931.2414391397458
 30
0.0
 10
2583.098384588109
 20
930.8858205533624
 30
0.0
  0
SPLINE
  5
42F
330
41E
100
AcDbEntity
  8
0
  6
Continuous
 62
     7
370
    15
100
AcDbSpline
210
0.0
220
0.0
230
1.0
 70
     8
 71
     3
 72
    37
 73
    33
 74
     0
 42
0.0000000001
 43
0.0000000001
 40
0.0
 40
0.0
 40
0.0
 40
0.0
 40
0.0082633351826739
 40
0.0165526695660547
 40
0.0248766133364802
 40
0.0332444928295613
 40
0.0416663415041981
 40
0.0501528818082049
 40
0.0587154977159498
 40
0.0673661980121803
 40
0.0761175707088735
 40
0.0849827292927688
 40
0.1262350160841523
 40
0.1699156527650141
 40
0.2110435628528116
 40
0.254552384455316
 40
0.2956795491135737
 40
0.3388889490409495
 40
0.4193073691631203
 40
0.5068831453270886
 40
0.587176145973973
 40
0.6743893696835718
 40
0.7153747505904676
 40
0.7578911700449803
 40
0.7981853387270809
 40
0.8412725846317018
 40
0.8644788420444132
 40
0.8889834863606067
 40
0.9147875341987935
 40
0.9418915680843824
 40
0.9702957793258477
 40
1.0
 40
1.0
 40
1.0
 40
1.0
 10
2591.834654342037
 20
949.655481443164
 30
0.0
 10
2591.919598243848
 20
949.6492984385461
 30
0.0
 10
2592.089753309235
 20
949.6369129755217
 30
0.0
 10
2592.344417241337
 20
949.6081674380741
 30
0.0
 10
2592.598788790738
 20
949.5715260900354
 30
0.0
 10
2592.852592286491
 20
949.5259339171063
 30
0.0
 10
2593.105589042692
 20
949.471237927395
 30
0.0
 10
2593.357503328993
 20
949.4070430627731
 30
0.0
 10
2593.608043458099
 20
949.3330205013341
 30
0.0
 10
2593.856887637969
 20
949.2488337576212
 30
0.0
 10
2594.103715770105
 20
949.154130592662
 30
0.0
 10
2594.644361320439
 20
948.9207924158487
 30
0.0
 10
2595.446572769348
 20
948.4528274979785
 30
0.0
 10
2596.329426537745
 20
947.6306073352189
 30
0.0
 10
2597.008677769433
 20
946.6459962907329
 30
0.0
 10
2597.454831234816
 20
945.5742507960536
 30
0.0
 10
2597.699409966866
 20
944.4182463143881
 30
0.0
 10
2597.768035031519
 20
942.8798688632136
 30
0.0
 10
2597.445605888684
 20
940.8723939871181
 30
0.0
 10
2596.552043130023
 20
938.5836673809484
 30
0.0
 10
2595.233324074987
 20
936.3766798135134
 30
0.0
 10
2593.895460017321
 20
934.7194690814452
 30
0.0
 10
2592.673353482942
 20
933.4699392129335
 30
0.0
 10
2591.732431107964
 20
932.6153623841266
 30
0.0
 10
2590.726028521825
 20
931.8008154280747
 30
0.0
 10
2589.836160741803
 20
931.1583929392815
 30
0.0
 10
2589.055303344338
 20
930.6440443637814
 30
0.0
 10
2588.410428455823
 20
930.2469609468262
 30
0.0
 10
2587.718392800514
 20
929.850273777839
 30
0.0
 10
2586.977870325706
 20
929.4581391804538
 30
0.0
 10
2586.189029125254
 20
929.0718026579124
 30
0.0
 10
2585.639855960505
 20
928.8328692377239
 30
0.0
 10
2585.359126291226
 20
928.7107298027791
 30
0.0
  0
SPLINE
  5
430
330
41E
100
AcDbEntity
  8
0
  6
Continuous
 62
     7
370
    15
100
AcDbSpline
210
0.0
220
0.0
230
1.0
 70
     8
 71
     3
 72
     8
 73
     4
 74
     0
 42
0.0000000001
 43
0.0000000001
 40
0.0
 40
0.0
 40
0.0
 40
0.0
 40
1.0
 40
1.0
 40
1.0
 40
1.0
 10
2585.330048585354
 20
928.6984455477085
 30
0.0
 10
2585.339745171259
 20
928.7025306636074
 30
0.0
 10
2585.349439283446
 20
928.7066217688993
 30
0.0
 10
2585.359130920498
 20
928.710718866279
 30
0.0
  0
SPLINE
  5
431
330
41E
100
AcDbEntity
  8
0
  6
Continuous
 62
     7
370
    15
100
AcDbSpline
210
0.0
220
0.0
230
1.0
 70
     8
 71
     3
 72
    31
 73
    27
 74
     0
 42
0.0000000001
 43
0.0000000001
 40
0.0
 40
0.0
 40
0.0
 40
0.0
 40
0.0159524337045317
 40
0.0313211699810024
 40
0.0461061853258773
 40
0.060307494747476
 40
0.0739251543536578
 40
0.1167195886709898
 40
0.1572118324068606
 40
0.2452841014932251
 40
0.3248846390985385
 40
0.4122870021516451
 40
0.4927419177642129
 40
0.5803371812239483
 40
0.6607775047971335
 40
0.7040930656935299
 40
0.7453202811994485
 40
0.7888361979035312
 40
0.8299740621253429
 40
0.8736556722008218
 40
0.9149117150776911
 40
0.9325503304599827
 40
0.9497847783701953
 40
0.9667138484195866
 40
0.983426334296428
 40
1.0
 40
1.0
 40
1.0
 40
1.0
 10
2585.359110305873
 20
978.0274107427514
 30
0.0
 10
2585.510164846735
 20
977.9625633050521
 30
0.0
 10
2585.806746862893
 20
977.8352411887762
 30
0.0
 10
2586.238699653521
 20
977.6373425207077
 30
0.0
 10
2586.650917505301
 20
977.4399394390744
 30
0.0
 10
2587.04335515596
 20
977.2431928588435
 30
0.0
 10
2587.688064890281
 20
976.9060626761127
 30
0.0
 10
2588.556377599783
 20
976.4124006665142
 30
0.0
 10
2590.042908626552
 20
975.4607700087845
 30
0.0
 10
2591.748784274317
 20
974.1572870476453
 30
0.0
 10
2593.635427502479
 20
972.3393037950675
 30
0.0
 10
2595.224546079651
 20
970.3742300543348
 30
0.0
 10
2596.547016710001
 20
968.1649755686057
 30
0.0
 10
2597.442963043275
 20
965.8750886453507
 30
0.0
 10
2597.767518800276
 20
963.8664913861022
 30
0.0
 10
2597.700300546301
 20
962.3259221226831
 30
0.0
 10
2597.456155788864
 20
961.1678803545974
 30
0.0
 10
2597.010235266835
 20
960.0950079989377
 30
0.0
 10
2596.33159977513
 20
959.1100197225555
 30
0.0
 10
2595.449210077687
 20
958.2872832629858
 30
0.0
 10
2594.572671938697
 20
957.7752512518063
 30
0.0
 10
2593.864902701441
 20
957.4865662189479
 30
0.0
 10
2593.36359868365
 20
957.3274971139911
 30
0.0
 10
2592.856804267964
 20
957.2087173511993
 30
0.0
 10
2592.34696426884
 20
957.1244941310247
 30
0.0
 10
2592.004948858262
 20
957.0965550005672
 30
0.0
 10
2591.834654342037
 20
957.0826436955268
 30
0.0
  0
SPLINE
  5
432
330
41E
100
AcDbEntity
  8
0
  6
Continuous
 62
     7
370
    15
100
AcDbSpline
210
0.0
220
0.0
230
1.0
 70
     8
 71
     3
 72
    65
 73
    61
 74
     0
 42
0.0000000001
 43
0.0000000001
 40
0.0
 40
0.0
 40
0.0
 40
0.0
 40
0.0195054452368627
 40
0.0389434410876481
 40
0.0583227029658545
 40
0.0776514580403211
 40
0.0969381743183981
 40
0.1161915774192203
 40
0.1354206483872961
 40
0.1546346203102853
 40
0.1738429737205002
 40
0.1930554329133587
 40
0.2122821785801283
 40
0.2315341271208211
 40
0.2508341113288918
 40
0.2701354890055813
 40
0.2893593225958015
 40
0.3084886222097389
 40
0.3275348977635406
 40
0.3465103129215776
 40
0.3654275927893593
 40
0.3842997643008517
 40
0.4031405398507081
 40
0.4219648545522741
 40
0.4407910135745988
 40
0.4596522743566857
 40
0.478516938178114
 40
0.4973368806169699
 40
0.5160660403850283
 40
0.5346906488410843
 40
0.5532409907998167
 40
0.5717409766626408
 40
0.5902178953796945
 40
0.608711425611695
 40
0.6272377454880216
 40
0.6457459813185567
 40
0.6641880752764843
 40
0.6783865246120318
 40
0.6925444563710328
 40
0.7066961945039516
 40
0.7208768069498
 40
0.7351255654977118
 40
0.7493868613153402
 40
0.763603278520009
 40
0.7777838724281953
 40
0.7919781160775327
 40
0.8062663092335169
 40
0.8206516070760066
 40
0.8350515485085205
 40
0.849455106113664
 40
0.8639604410007617
 40
0.8786710151966749
 40
0.8934220330596829
 40
0.9082551359938401
 40
0.9233100575906554
 40
0.9384481013754076
 40
0.9535840663139381
 40
0.9689514341650454
 40
0.9844568273966832
 40
1.0
 40
1.0
 40
1.0
 40
1.0
 10
2583.09838492386
 20
975.8523055163378
 30
0.0
 10
2583.259983585632
 20
975.7974268714674
 30
0.0
 10
2583.582622104679
 20
975.6878593508325
 30
0.0
 10
2584.061349919014
 20
975.51106372392
 30
0.0
 10
2584.535105963008
 20
975.3256285331065
 30
0.0
 10
2585.003549357465
 20
975.1305563196618
 30
0.0
 10
2585.466731464527
 20
974.926046245152
 30
0.0
 10
2585.92459724237
 20
974.711979061324
 30
0.0
 10
2586.377119571663
 20
974.4883198951638
 30
0.0
 10
2586.824265390812
 20
974.2550139120048
 30
0.0
 10
2587.265997441422
 20
974.0120021437338
 30
0.0
 10
2587.702302809642
 20
973.7592612328054
 30
0.0
 10
2588.13308009144
 20
973.4966099277279
 30
0.0
 10
2588.558296523219
 20
973.2237960050914
 30
0.0
 10
2588.977485716074
 20
972.940845921445
 30
0.0
 10
2589.389575829601
 20
972.648322087646
 30
0.0
 10
2589.793190714708
 20
972.3469875179333
 30
0.0
 10
2590.187458140713
 20
972.037455432609
 30
0.0
 10
2590.57209443041
 20
971.7198216235429
 30
0.0
 10
2590.947023660254
 20
971.3940528835546
 30
0.0
 10
2591.312182746941
 20
971.0601302775417
 30
0.0
 10
2591.667430991688
 20
970.7179572274439
 30
0.0
 10
2592.01253030521
 20
970.3673537669827
 30
0.0
 10
2592.347255830896
 20
970.0081388223223
 30
0.0
 10
2592.67152161013
 20
969.6400631881111
 30
0.0
 10
2592.984684978516
 20
969.2630038851012
 30
0.0
 10
2593.285916254183
 20
968.8774809217207
 30
0.0
 10
2593.573919907066
 20
968.4845670778138
 30
0.0
 10
2593.847372462378
 20
968.085200974103
 30
0.0
 10
2594.105499671055
 20
967.6799396311176
 30
0.0
 10
2594.347804394405
 20
967.2688502013443
 30
0.0
 10
2594.573655877048
 20
966.8516214806096
 30
0.0
 10
2594.782492784366
 20
966.4279885655373
 30
0.0
 10
2594.973625258825
 20
965.9977970447073
 30
0.0
 10
2595.14553934449
 20
965.561417783182
 30
0.0
 10
2595.296785579782
 20
965.1201460852307
 30
0.0
 10
2595.415925121841
 20
964.7090461094665
 30
0.0
 10
2595.507064599049
 20
964.3301397738193
 30
0.0
 10
2595.575003587792
 20
963.984234097246
 30
0.0
 10
2595.627131705898
 20
963.6372600659372
 30
0.0
 10
2595.662668137142
 20
963.2889576757017
 30
0.0
 10
2595.680417161002
 20
962.9398996856888
 30
0.0
 10
2595.679339148218
 20
962.5915160757296
 30
0.0
 10
2595.658177891527
 20
962.245665692116
 30
0.0
 10
2595.615957209472
 20
961.9034547300001
 30
0.0
 10
2595.551265050346
 20
961.5650938272581
 30
0.0
 10
2595.462571460609
 20
961.2311336474858
 30
0.0
 10
2595.348475702008
 20
960.9033947453839
 30
0.0
 10
2595.207814555835
 20
960.5847503451384
 30
0.0
 10
2595.039622889848
 20
960.2775808949402
 30
0.0
 10
2594.841731139527
 20
959.9835665764318
 30
0.0
 10
2594.613285311003
 20
959.7058033141845
 30
0.0
 10
2594.354324436861
 20
959.4479359918942
 30
0.0
 10
2594.06458680463
 20
959.2143626427329
 30
0.0
 10
2593.745426805458
 20
959.008779607492
 30
0.0
 10
2593.399842280799
 20
958.8356161215495
 30
0.0
 10
2593.031291531263
 20
958.698146172022
 30
0.0
 10
2592.643878122583
 20
958.5997946782075
 30
0.0
 10
2592.242522932024
 20
958.5383563995586
 30
0.0
 10
2591.970720780125
 20
958.5310352429457
 30
0.0
 10
2591.834654342037
 20
958.5273702105094
 30
0.0
  0
SPLINE
  5
433
330
41E
100
AcDbEntity
  8
0
  6
Continuous
 62
     7
370
    15
100
AcDbSpline
210
0.0
220
0.0
230
1.0
 70
     8
 71
     3
 72
    12
 73
     8
 74
     0
 42
0.0000000001
 43
0.0000000001
 40
0.0
 40
0.0
 40
0.0
 40
0.0
 40
0.5000000000000005
 40
0.5000000000000005
 40
0.7500000000000002
 40
0.7500000000000002
 40
1.0
 40
1.0
 40
1.0
 40
1.0
 10
2574.989126293938
 20
977.153134647218
 30
0.0
 10
2576.377111119138
 20
977.1531346468945
 30
0.0
 10
2577.747632854374
 20
977.0439410437385
 30
0.0
 10
2579.77745421867
 20
976.719428659207
 30
0.0
 10
2580.449745214145
 20
976.5845062056861
 30
0.0
 10
2581.785402746196
 20
976.2591544944175
 30
0.0
 10
2582.450379015651
 20
976.0680377032816
 30
0.0
 10
2583.09838492386
 20
975.8523055163378
 30
0.0
  0
LINE
  5
434
330
41E
100
AcDbEntity
  8
0
  6
Continuous
 62
     7
370
    15
100
AcDbLine
 10
2574.989126247547
 20
977.1531346805431
 30
0.0
 11
2574.989126247547
 21
980.1084167875387
 31
0.0
  0
SPLINE
  5
435
330
41E
100
AcDbEntity
  8
0
  6
Continuous
 62
     7
370
    15
100
AcDbSpline
210
0.0
220
0.0
230
1.0
 70
     8
 71
     3
 72
    20
 73
    16
 74
     0
 42
0.0000000001
 43
0.0000000001
 40
0.0
 40
0.0
 40
0.0
 40
0.0
 40
0.0486676360488992
 40
0.1008446846031714
 40
0.1565316444361018
 40
0.215729080899281
 40
0.2784376277406376
 40
0.344657988262195
 40
0.4143909359941645
 40
0.4876373150026569
 40
0.6339788757690181
 40
0.7318900358418905
 40
0.8626790937101375
 40
0.9761170742702885
 40
1.0
 40
1.0
 40
1.0
 40
1.0
 10
2574.989126293938
 20
980.1084173044339
 30
0.0
 10
2575.161333868415
 20
980.1074723452307
 30
0.0
 10
2575.518166867595
 20
980.1055142860249
 30
0.0
 10
2576.07183967146
 20
980.0887744304663
 30
0.0
 10
2576.662267444668
 20
980.0592701219411
 30
0.0
 10
2577.289050208214
 20
980.0135248729848
 30
0.0
 10
2577.951664600298
 20
979.949243010413
 30
0.0
 10
2578.649443435081
 20
979.8636072253101
 30
0.0
 10
2579.381568866271
 20
979.7537699957482
 30
0.0
 10
2580.389381715184
 20
979.5734203357422
 30
0.0
 10
2581.486275817647
 20
979.3273585404584
 30
0.0
 10
2582.76573350556
 20
978.9741496060683
 30
0.0
 10
2583.916971446436
 20
978.5978002179824
 30
0.0
 10
2584.803710433815
 20
978.2594937590253
 30
0.0
 10
2585.252069222493
 20
978.0722429208053
 30
0.0
 10
2585.330048023679
 20
978.0396761545141
 30
0.0
  0
LINE
  5
436
330
41E
100
AcDbEntity
  8
0
  6
Continuous
 62
     7
370
    15
100
AcDbLine
 10
2585.330048759661
 20
978.0396755404808
 30
0.0
 11
2585.359109749279
 21
978.0274100221731
 31
0.0
  0
LINE
  5
437
330
41E
100
AcDbEntity
  8
0
  6
Continuous
 62
     7
370
    15
100
AcDbLine
 10
2574.989126247547
 20
980.6190609552004
 30
0.0
 11
2574.989126247547
 21
980.1084167875387
 31
0.0
  0
ARC
  5
438
330
41E
100
AcDbEntity
  8
0
  6
Continuous
 62
     7
370
    15
100
AcDbCircle
 10
2574.989126293938
 20
953.3690625693454
 30
0.0
 40
27.25000000000001
100
AcDbArc
 50
270.0
 51
90.0
  0
LINE
  5
439
330
41E
100
AcDbEntity
  8
0
  6
Continuous
 62
     7
370
    15
100
AcDbLine
 10
2574.989126247547
 20
926.1190622665026
 30
0.0
 11
2574.989126247547
 21
926.6297082968094
 31
0.0
  0
LINE
  5
43A
330
41E
100
AcDbEntity
  8
0
  6
Continuous
 62
     7
370
    15
100
AcDbLine
 10
2574.989126247547
 20
929.584990403805
 30
0.0
 11
2536.359127794586
 21
929.584990403805
 31
0.0
  0
SPLINE
  5
43B
330
41E
100
AcDbEntity
  8
0
  6
Continuous
 62
     7
370
    15
100
AcDbSpline
210
0.0
220
0.0
230
1.0
 70
    24
 71
     3
 72
    10
 73
     6
 74
     0
 42
0.0000000001
 43
0.0000000001
 40
0.0
 40
0.0
 40
0.0
 40
0.0
 40
0.5000000000000001
 40
0.5000000000000001
 40
1.0
 40
1.0
 40
1.0
 40
1.0
 10
2536.359126293939
 20
948.2107549281815
 30
0.0
 10
2536.359126293939
 20
945.5704458268394
 30
0.0
 10
2536.359126293939
 20
942.7471169332788
 30
0.0
 10
2536.359126293939
 20
936.9109411459477
 30
0.0
 10
2536.359126293939
 20
933.8984805553604
 30
0.0
 10
2536.359126293939
 20
930.8858205533448
 30
0.0
  0
SPLINE
  5
43C
330
41E
100
AcDbEntity
  8
0
  6
Continuous
 62
     7
370
    15
100
AcDbSpline
210
0.0
220
0.0
230
1.0
 70
    24
 71
     3
 72
     9
 73
     5
 74
     0
 42
0.0000000001
 43
0.0000000001
 40
0.0
 40
0.0
 40
0.0
 40
0.0
 40
0.5000000000000217
 40
1.0
 40
1.0
 40
1.0
 40
1.0
 10
2536.359126293939
 20
930.8858205533448
 30
0.0
 10
2536.359126293939
 20
930.6689624489216
 30
0.0
 10
2536.359126293939
 20
930.2352462400754
 30
0.0
 10
2536.359126293939
 20
929.8017424076737
 30
0.0
 10
2536.359126293939
 20
929.584990491473
 30
0.0
  0
LINE
  5
43D
330
41E
100
AcDbEntity
  8
0
  6
Continuous
 62
     7
370
    15
100
AcDbLine
 10
2536.359127794586
 20
977.1531346805431
 30
0.0
 11
2574.989126247547
 21
977.1531346805431
 31
0.0
  0
SPLINE
  5
43E
330
41E
100
AcDbEntity
  8
0
  6
Continuous
 62
     7
370
    15
100
AcDbSpline
210
0.0
220
0.0
230
1.0
 70
    24
 71
     3
 72
     9
 73
     5
 74
     0
 42
0.0000000001
 43
0.0000000001
 40
0.0
 40
0.0
 40
0.0
 40
0.0
 40
0.5000000000000369
 40
1.0
 40
1.0
 40
1.0
 40
1.0
 10
2536.359126293939
 20
977.153134647218
 30
0.0
 10
2536.359126293939
 20
976.936382731017
 30
0.0
 10
2536.359126293939
 20
976.5028788986153
 30
0.0
 10
2536.359126293939
 20
976.069162689769
 30
0.0
 10
2536.359126293939
 20
975.8523045853459
 30
0.0
  0
SPLINE
  5
43F
330
41E
100
AcDbEntity
  8
0
  6
Continuous
 62
     7
370
    15
100
AcDbSpline
210
0.0
220
0.0
230
1.0
 70
    24
 71
     3
 72
    10
 73
     6
 74
     0
 42
0.0000000001
 43
0.0000000001
 40
0.0
 40
0.0
 40
0.0
 40
0.0
 40
0.4999999999999999
 40
0.4999999999999999
 40
1.0
 40
1.0
 40
1.0
 40
1.0
 10
2536.359126293939
 20
975.8523045853459
 30
0.0
 10
2536.359126293939
 20
972.8396445833304
 30
0.0
 10
2536.359126293939
 20
969.827183992743
 30
0.0
 10
2536.359126293939
 20
963.991008205412
 30
0.0
 10
2536.359126293939
 20
961.1676793118514
 30
0.0
 10
2536.359126293939
 20
958.5273702105094
 30
0.0
  0
LINE
  5
440
330
41E
100
AcDbEntity
  8
0
  6
Continuous
 62
     7
370
    15
100
AcDbLine
 10
2536.359127794586
 20
980.1084167875387
 30
0.0
 11
2574.989126247547
 21
980.1084167875387
 31
0.0
  0
SPLINE
  5
441
330
41E
100
AcDbEntity
  8
0
  6
Continuous
 62
     7
370
    15
100
AcDbSpline
210
0.0
220
0.0
230
1.0
 70
    24
 71
     3
 72
    14
 73
    10
 74
     0
 42
0.0000000001
 43
0.0000000001
 40
0.0
 40
0.0
 40
0.0
 40
0.0
 40
0.25
 40
0.25
 40
0.5
 40
0.5
 40
0.75
 40
0.75
 40
1.0
 40
1.0
 40
1.0
 40
1.0
 10
2536.359126293939
 20
980.1084173044339
 30
0.0
 10
2536.359126293939
 20
980.0098451463558
 30
0.0
 10
2536.359126293939
 20
979.864592170621
 30
0.0
 10
2536.359126293939
 20
979.4947012392121
 30
0.0
 10
2536.359126293939
 20
979.2701217741644
 30
0.0
 10
2536.359126293939
 20
978.7633045216814
 30
0.0
 10
2536.359126293939
 20
978.4811468769476
 30
0.0
 10
2536.359126293939
 20
977.8864835633726
 30
0.0
 10
2536.359126293939
 20
977.5740719282767
 30
0.0
 10
2536.359126293939
 20
977.2616108839073
 30
0.0
  0
SPLINE
  5
442
330
41E
100
AcDbEntity
  8
0
  6
Continuous
 62
     7
370
    15
100
AcDbSpline
210
0.0
220
0.0
230
1.0
 70
    24
 71
     3
 72
     8
 73
     4
 74
     0
 42
0.0000000001
 43
0.0000000001
 40
0.0
 40
0.0
 40
0.0
 40
0.0
 40
1.0
 40
1.0
 40
1.0
 40
1.0
 10
2536.359126293939
 20
977.2616108839073
 30
0.0
 10
2536.359126293939
 20
977.2254442543834
 30
0.0
 10
2536.359126293939
 20
977.1892776258907
 30
0.0
 10
2536.359126293939
 20
977.153134647218
 30
0.0
  0
LINE
  5
443
330
41E
100
AcDbEntity
  8
0
  6
Continuous
 62
     7
370
    15
100
AcDbLine
 10
2574.989126247547
 20
926.6297082968094
 30
0.0
 11
2536.359127794586
 21
926.6297082968094
 31
0.0
  0
SPLINE
  5
444
330
41E
100
AcDbEntity
  8
0
  6
Continuous
 62
     7
370
    15
100
AcDbSpline
210
0.0
220
0.0
230
1.0
 70
    24
 71
     3
 72
    14
 73
    10
 74
     0
 42
0.0000000001
 43
0.0000000001
 40
0.0
 40
0.0
 40
0.0
 40
0.0
 40
0.25
 40
0.25
 40
0.5
 40
0.5
 40
0.75
 40
0.75
 40
1.0
 40
1.0
 40
1.0
 40
1.0
 10
2536.359126293939
 20
929.584990491473
 30
0.0
 10
2536.359126293939
 20
929.2636980336045
 30
0.0
 10
2536.359126293939
 20
928.9405778198002
 30
0.0
 10
2536.359126293939
 20
928.3235709835281
 30
0.0
 10
2536.359126293939
 20
928.0297936909567
 30
0.0
 10
2536.359126293939
 20
927.5015937625582
 30
0.0
 10
2536.359126293939
 20
927.267264720578
 30
0.0
 10
2536.359126293939
 20
926.881999889037
 30
0.0
 10
2536.359126293939
 20
926.7311323660843
 30
0.0
 10
2536.359126293939
 20
926.6297078342569
 30
0.0
  0
LINE
  5
445
330
41E
100
AcDbEntity
  8
0
  6
Continuous
 62
     7
370
    15
100
AcDbLine
 10
2574.989126247547
 20
980.6190609552004
 30
0.0
 11
2536.359127794586
 21
980.6190609552004
 31
0.0
  0
SPLINE
  5
446
330
41E
100
AcDbEntity
  8
0
  6
Continuous
 62
     7
370
    15
100
AcDbSpline
210
0.0
220
0.0
230
1.0
 70
    24
 71
     3
 72
     8
 73
     4
 74
     0
 42
0.0000000001
 43
0.0000000001
 40
0.0
 40
0.0
 40
0.0
 40
0.0
 40
1.0
 40
1.0
 40
1.0
 40
1.0
 10
2536.359126293939
 20
980.6190625693455
 30
0.0
 10
2536.359126293939
 20
980.6190625693455
 30
0.0
 10
2536.359126293939
 20
980.4459201341803
 30
0.0
 10
2536.359126293939
 20
980.1084173044339
 30
0.0
  0
LINE
  5
447
330
41E
100
AcDbEntity
  8
0
  6
Continuous
 62
     7
370
    15
100
AcDbLine
 10
2536.359127794586
 20
926.1190622665026
 30
0.0
 11
2574.989126247547
 21
926.1190622665026
 31
0.0
  0
SPLINE
  5
448
330
41E
100
AcDbEntity
  8
0
  6
Continuous
 62
     7
370
    15
100
AcDbSpline
210
0.0
220
0.0
230
1.0
 70
    24
 71
     3
 72
     8
 73
     4
 74
     0
 42
0.0000000001
 43
0.0000000001
 40
0.0
 40
0.0
 40
0.0
 40
0.0
 40
1.0
 40
1.0
 40
1.0
 40
1.0
 10
2536.359126293939
 20
926.6297078342569
 30
0.0
 10
2536.359126293939
 20
926.2922050045105
 30
0.0
 10
2536.359126293939
 20
926.1190625693455
 30
0.0
 10
2536.359126293939
 20
926.1190625693455
 30
0.0
  0
ARC
  5
449
330
41E
100
AcDbEntity
  8
0
  6
Continuous
 62
     7
370
    15
100
AcDbCircle
 10
2574.989126293938
 20
953.3690625693454
 30
0.0
 40
27.50000000000002
100
AcDbArc
 50
90.0
 51
97.73162618721025
  0
ARC
  5
44A
330
41E
100
AcDbEntity
  8
0
  6
Continuous
 62
     7
370
    15
100
AcDbCircle
 10
2574.989126293938
 20
953.3690625693454
 30
0.0
 40
27.50000000000002
100
AcDbArc
 50
270.0
 51
90.0
  0
ARC
  5
44B
330
41E
100
AcDbEntity
  8
0
  6
Continuous
 62
     7
370
    15
100
AcDbCircle
 10
2574.989126293938
 20
953.3690625693454
 30
0.0
 40
27.5
100
AcDbArc
 50
262.2683738127898
 51
270.0
  0
ARC
  5
44C
330
41E
100
AcDbEntity
  8
0
  6
Continuous
 62
     7
370
    15
100
AcDbCircle
 10
2575.191549841876
 20
953.22234955956
 30
0.0
 40
27.5
100
AcDbArc
 50
25.61358492526825
 51
35.5096002635615
  0
LINE
  5
44D
330
41E
100
AcDbEntity
  8
0
  6
Continuous
 62
     7
370
    15
100
AcDbLine
 10
2599.989125688753
 20
964.8255008824207
 30
0.0
 11
2599.989125688753
 21
965.1105880357363
 31
0.0
  0
LINE
  5
44E
330
41E
100
AcDbEntity
  8
0
  6
Continuous
 62
     7
370
    15
100
AcDbLine
 10
2597.577050511918
 20
969.1954321779348
 30
0.0
 11
2597.41069394835
 21
969.2914776124098
 31
0.0
  0
ARC
  5
44F
330
41E
100
AcDbEntity
  8
0
  6
Continuous
 62
     7
370
    15
100
AcDbCircle
 10
2575.191549841876
 20
953.22234955956
 30
0.0
 40
27.50000000000001
100
AcDbArc
 50
264.7489185714283
 51
274.262133232454
  0
LINE
  5
450
330
41E
100
AcDbEntity
  8
0
  6
Continuous
 62
     7
370
    15
100
AcDbLine
 10
2577.235341255746
 20
925.798402316127
 30
0.0
 11
2577.567558919273
 21
925.9902082003691
 31
0.0
  0
LINE
  5
451
330
41E
100
AcDbEntity
  8
0
  6
Continuous
 62
     7
370
    15
100
AcDbLine
 10
2572.410693808652
 20
925.9902082003691
 30
0.0
 11
2572.674738426886
 21
925.8377618707754
 31
0.0
  0
ARC
  5
452
330
41E
100
AcDbEntity
  8
0
  6
Continuous
 62
     7
370
    15
100
AcDbCircle
 10
2575.191549841876
 20
953.22234955956
 30
0.0
 40
27.5
100
AcDbArc
 50
325.7378667675513
 51
334.3864150747318
  0
LINE
  5
453
330
41E
100
AcDbEntity
  8
0
  6
Continuous
 62
     7
370
    15
100
AcDbLine
 10
2597.41069394835
 20
937.4466474719383
 30
0.0
 11
2597.919490372024
 21
937.7404005818107
 31
0.0
  0
LINE
  5
454
330
41E
100
AcDbEntity
  8
0
  6
Continuous
 62
     7
370
    15
100
AcDbLine
 10
2599.989125688753
 20
941.3341117642858
 30
0.0
 11
2599.989125688753
 21
941.9126232706048
 31
0.0
  0
ENDBLK
  5
420
330
41E
100
AcDbEntity
  8
0
100
AcDbBlockEnd
  0
BLOCK
  5
457
330
456
100
AcDbEntity
  8
0
100
AcDbBlockBegin
  2
3
 70
     0
 10
0.0
 20
0.0
 30
0.0
  3
3
  1

  0
SPLINE
  5
459
330
456
100
AcDbEntity
  8
0
  6
Continuous
 62
     7
370
    15
100
AcDbSpline
210
0.0
220
0.0
230
1.0
 70
     8
 71
     3
 72
    13
 73
     9
 74
     0
 42
0.0000000001
 43
0.0000000001
 40
0.0
 40
0.0
 40
0.0
 40
0.0
 40
0.1244315095024076
 40
0.3084987065411887
 40
0.4918750219659275
 40
0.6748847748534367
 40
0.8578387871133202
 40
1.0
 40
1.0
 40
1.0
 40
1.0
 10
2628.467851258653
 20
1058.246007084884
 30
0.0
 10
2628.401183928144
 20
1058.065266390243
 30
0.0
 10
2628.235897938183
 20
1057.617162282698
 30
0.0
 10
2628.030849889103
 20
1056.879139779885
 30
0.0
 10
2627.847097722451
 20
1056.040347467986
 30
0.0
 10
2627.72233087712
 20
1055.190449775192
 30
0.0
 10
2627.652121855236
 20
1054.397415161643
 30
0.0
 10
2627.650359641496
 20
1053.888167297614
 30
0.0
 10
2627.64958908871
 20
1053.665491494049
 30
0.0
  0
LINE
  5
45A
330
456
100
AcDbEntity
  8
0
  6
Continuous
 62
     7
370
    15
100
AcDbLine
 10
2627.644636503148
 20
1053.664203283104
 30
0.0
 11
2627.66797074668
 21
1044.570159759473
 31
0.0
  0
LINE
  5
45B
330
456
100
AcDbEntity
  8
0
  6
Continuous
 62
     7
370
    15
100
AcDbLine
 10
2627.718299888853
 20
1044.052065532534
 30
0.0
 11
2627.719311821908
 21
1043.657685349026
 31
0.0
  0
LINE
  5
45C
330
456
100
AcDbEntity
  8
0
  6
Continuous
 62
     7
370
    15
100
AcDbLine
 10
2627.420767105407
 20
1043.480196803074
 30
0.0
 11
2627.424966458763
 21
1041.843584836747
 31
0.0
  0
LINE
  5
45D
330
456
100
AcDbEntity
  8
0
  6
Continuous
 62
     7
370
    15
100
AcDbLine
 10
2627.718285752295
 20
1043.667931780935
 30
0.0
 11
2627.718769958714
 21
1043.479222245927
 31
0.0
  0
SPLINE
  5
45E
330
456
100
AcDbEntity
  8
0
  6
Continuous
 62
     7
370
    15
100
AcDbSpline
210
0.0
220
0.0
230
1.0
 70
     8
 71
     3
 72
     9
 73
     5
 74
     0
 42
0.0000000001
 43
0.0000000001
 40
0.0
 40
0.0
 40
0.0
 40
0.0
 40
0.50000213484482
 40
1.0
 40
1.0
 40
1.0
 40
1.0
 10
2638.281839351305
 20
1029.291412429959
 30
0.0
 10
2638.457259431912
 20
1029.179851220006
 30
0.0
 10
2638.808098095156
 20
1028.956729752759
 30
0.0
 10
2639.15939784842
 20
1028.7333084524
 30
0.0
 10
2639.335046975082
 20
1028.621598279189
 30
0.0
  0
LINE
  5
45F
330
456
100
AcDbEntity
  8
0
  6
Continuous
 62
     7
370
    15
100
AcDbLine
 10
2670.165042492426
 20
1029.009580180065
 30
0.0
 11
2670.354641923491
 21
1029.131531833962
 31
0.0
  0
SPLINE
  5
460
330
456
100
AcDbEntity
  8
0
  6
Continuous
 62
     7
370
    15
100
AcDbSpline
210
0.0
220
0.0
230
1.0
 70
     8
 71
     3
 72
     9
 73
     5
 74
     0
 42
0.0000000001
 43
0.0000000001
 40
0.0
 40
0.0
 40
0.0
 40
0.0
 40
0.4999987287741437
 40
1.0
 40
1.0
 40
1.0
 40
1.0
 10
2670.169708441233
 20
1027.191122192722
 30
0.0
 10
2670.344562574996
 20
1027.30358990328
 30
0.0
 10
2670.694271731642
 20
1027.528525896284
 30
0.0
 10
2671.044428540436
 20
1027.753745358864
 30
0.0
 10
2671.219507389961
 20
1027.866355376458
 30
0.0
  0
SPLINE
  5
461
330
456
100
AcDbEntity
  8
0
  6
Continuous
 62
     7
370
    15
100
AcDbSpline
210
0.0
220
0.0
230
1.0
 70
     8
 71
     3
 72
    25
 73
    21
 74
     0
 42
0.0000000001
 43
0.0000000001
 40
0.0
 40
0.0
 40
0.0
 40
0.0
 40
0.0860426577993034
 40
0.1613090389737704
 40
0.2278016618896649
 40
0.2946798826755594
 40
0.3633433426460059
 40
0.4327617923751566
 40
0.4964278686466768
 40
0.5621334266708964
 40
0.6271996574127796
 40
0.6944533395157439
 40
0.7172738089798663
 40
0.7384194909949274
 40
0.758004842622187
 40
0.7839316664143191
 40
0.821069476808325
 40
0.8695605808067703
 40
0.9292663418933825
 40
1.0
 40
1.0
 40
1.0
 40
1.0
 10
2636.561377457501
 20
1065.389722621979
 30
0.0
 10
2636.227974352947
 20
1065.241421353128
 30
0.0
 10
2635.602924688488
 20
1064.963392573348
 30
0.0
 10
2634.77220570387
 20
1064.540502067017
 30
0.0
 10
2634.042520974431
 20
1064.135841429131
 30
0.0
 10
2633.367034423218
 20
1063.725976054525
 30
0.0
 10
2632.71542285555
 20
1063.292991367114
 30
0.0
 10
2632.110252739007
 20
1062.850885782308
 30
0.0
 10
2631.548491265335
 20
1062.399685899915
 30
0.0
 10
2631.032128967315
 20
1061.94322763828
 30
0.0
 10
2630.538852134763
 20
1061.459928311167
 30
0.0
 10
2630.182325382124
 20
1061.069264373381
 30
0.0
 10
2629.941980085698
 20
1060.78338305849
 30
0.0
 10
2629.808469857265
 20
1060.617751288585
 30
0.0
 10
2629.672917757555
 20
1060.442745664436
 30
0.0
 10
2629.50522526447
 20
1060.215743205673
 30
0.0
 10
2629.289834247696
 20
1059.902700105444
 30
0.0
 10
2629.034822193244
 20
1059.490293859491
 30
0.0
 10
2628.758462404289
 20
1058.979402014121
 30
0.0
 10
2628.605690762322
 20
1058.610417802788
 30
0.0
 10
2628.522846962817
 20
1058.410327958686
 30
0.0
  0
LINE
  5
462
330
456
100
AcDbEntity
  8
0
  6
Continuous
 62
     7
370
    15
100
AcDbLine
 10
2637.737562769756
 20
1028.377794666834
 30
0.0
 11
2638.827037655308
 21
1027.501746753028
 31
0.0
  0
LINE
  5
463
330
456
100
AcDbEntity
  8
0
  6
Continuous
 62
     7
370
    15
100
AcDbLine
 10
2671.09646293809
 20
1027.584546005213
 30
0.0
 11
2671.47733576389
 21
1027.894038473413
 31
0.0
  0
LINE
  5
464
330
456
100
AcDbEntity
  8
0
  6
Continuous
 62
     7
370
    15
100
AcDbLine
 10
2663.474290328151
 20
1076.985075374191
 30
0.0
 11
2636.561068091579
 21
1065.389589860051
 31
0.0
  0
SPLINE
  5
465
330
456
100
AcDbEntity
  8
0
  6
Continuous
 62
     7
370
    15
100
AcDbSpline
210
0.0
220
0.0
230
1.0
 70
     8
 71
     3
 72
     8
 73
     4
 74
     0
 42
0.0000000001
 43
0.0000000001
 40
0.0
 40
0.0
 40
0.0
 40
0.0
 40
0.9999999999999998
 40
0.9999999999999998
 40
0.9999999999999998
 40
0.9999999999999998
 10
2645.800445036838
 20
1056.699131306891
 30
0.0
 10
2643.669731209746
 20
1057.242968934817
 30
0.0
 10
2641.85132500299
 20
1057.974145567555
 30
0.0
 10
2640.471962687362
 20
1058.841700864462
 30
0.0
  0
SPLINE
  5
466
330
456
100
AcDbEntity
  8
0
  6
Continuous
 62
     7
370
    15
100
AcDbSpline
210
0.0
220
0.0
230
1.0
 70
     8
 71
     3
 72
    31
 73
    27
 74
     0
 42
0.0000000001
 43
0.0000000001
 40
0.0
 40
0.0
 40
0.0
 40
0.0
 40
0.0159524337045317
 40
0.0313211699810024
 40
0.0461061853258773
 40
0.060307494747476
 40
0.0739251543536578
 40
0.1167195886709898
 40
0.1572118324068606
 40
0.2452841014932251
 40
0.3248846390985385
 40
0.4122870021516451
 40
0.4927419177642129
 40
0.5803371812239483
 40
0.6607775047971335
 40
0.7040930656935299
 40
0.7453202811994485
 40
0.7888361979035312
 40
0.8299740621253429
 40
0.8736556722008218
 40
0.9149117150776911
 40
0.9325503304599827
 40
0.9497847783701953
 40
0.9667138484195866
 40
0.983426334296428
 40
1.0
 40
1.0
 40
1.0
 40
1.0
 10
2665.353957853688
 20
1046.346950974868
 30
0.0
 10
2665.202203436187
 20
1046.321278456539
 30
0.0
 10
2664.904247275144
 20
1046.270872773914
 30
0.0
 10
2664.461348750919
 20
1046.202479066337
 30
0.0
 10
2664.032551224599
 20
1046.140801081606
 30
0.0
 10
2663.61800145059
 20
1046.085892477799
 30
0.0
 10
2662.926981111795
 20
1046.001962745292
 30
0.0
 10
2661.967863369904
 20
1045.907420202893
 30
0.0
 10
2660.249420015132
 20
1045.797673759198
 30
0.0
 10
2658.125591151704
 20
1045.783833922295
 30
0.0
 10
2655.506387867827
 20
1045.99213393542
 30
0.0
 10
2652.988610685527
 20
1046.452813374056
 30
0.0
 10
2650.480965769498
 20
1047.234778791023
 30
0.0
 10
2648.212181082453
 20
1048.331286618123
 30
0.0
 10
2646.543111135963
 20
1049.571257679345
 30
0.0
 10
2645.482983027347
 20
1050.698642461589
 30
0.0
 10
2644.820855973026
 20
1051.647078996618
 30
0.0
 10
2644.360398757698
 20
1052.629720459167
 30
0.0
 10
2644.125132889551
 20
1053.646924090396
 30
0.0
 10
2644.148380082715
 20
1054.612921088276
 30
0.0
 10
2644.3908870704
 20
1055.321160753819
 30
0.0
 10
2644.676404244626
 20
1055.780804886921
 30
0.0
 10
2644.911279368682
 20
1056.064638721333
 30
0.0
 10
2645.178952400062
 20
1056.311877528407
 30
0.0
 10
2645.473599408957
 20
1056.526527436277
 30
0.0
 10
2645.691799829771
 20
1056.641756871795
 30
0.0
 10
2645.800445036838
 20
1056.699131306891
 30
0.0
  0
LINE
  5
467
330
456
100
AcDbEntity
  8
0
  6
Continuous
 62
     7
370
    15
100
AcDbLine
 10
2665.38300241848
 20
1046.351974092657
 30
0.0
 11
2665.353957725415
 21
1046.346950976828
 31
0.0
  0
SPLINE
  5
468
330
456
100
AcDbEntity
  8
0
  6
Continuous
 62
     7
370
    15
100
AcDbSpline
210
0.0
220
0.0
230
1.0
 70
     8
 71
     3
 72
    20
 73
    16
 74
     0
 42
0.0000000001
 43
0.0000000001
 40
0.0
 40
0.0
 40
0.0
 40
0.0
 40
0.0486676360488992
 40
0.1008446846031714
 40
0.1565316444361018
 40
0.215729080899281
 40
0.2784376277406376
 40
0.344657988262195
 40
0.4143909359941645
 40
0.4876373150026569
 40
0.6339788757690181
 40
0.7318900358418905
 40
0.8626790937101375
 40
0.9761170742702885
 40
1.0
 40
1.0
 40
1.0
 40
1.0
 10
2674.07085042571
 20
1048.888766650971
 30
0.0
 10
2673.950208552107
 20
1048.837296465362
 30
0.0
 10
2673.700225345994
 20
1048.730644590407
 30
0.0
 10
2673.302515650596
 20
1048.568421566116
 30
0.0
 10
2672.870045182861
 20
1048.398351547228
 30
0.0
 10
2672.400598594493
 20
1048.221495490791
 30
0.0
 10
2671.892893434251
 20
1048.038691880369
 30
0.0
 10
2671.345373283653
 20
1047.850941893549
 30
0.0
 10
2670.756564905198
 20
1047.659338470039
 30
0.0
 10
2669.925122964758
 20
1047.403382166722
 30
0.0
 10
2668.98448234373
 20
1047.13905743563
 30
0.0
 10
2667.839792803649
 20
1046.850779645321
 30
0.0
 10
2666.767813553103
 20
1046.611197787873
 30
0.0
 10
2665.907374276942
 20
1046.443837542912
 30
0.0
 10
2665.460690803279
 20
1046.365583342082
 30
0.0
 10
2665.383003373781
 20
1046.35197332947
 30
0.0
  0
ARC
  5
469
330
456
100
AcDbEntity
  8
0
  6
Continuous
 62
     7
370
    15
100
AcDbCircle
 10
2661.303448639565
 20
1045.775595697862
 30
0.0
 40
13.14147545545859
100
AcDbArc
 50
0.4251625012209192
 51
13.70345064289442
  0
ARC
  5
46A
330
456
100
AcDbEntity
  8
0
  6
Continuous
 62
     7
370
    15
100
AcDbCircle
 10
2644.651413104628
 20
1054.027431054892
 30
0.0
 40
2.908307841785731
100
AcDbArc
 50
41.25574552252358
 51
66.72867630948598
  0
SPLINE
  5
46B
330
456
100
AcDbEntity
  8
0
  6
Continuous
 62
     7
370
    15
100
AcDbSpline
210
0.0
220
0.0
230
1.0
 70
     8
 71
     3
 72
    65
 73
    61
 74
     0
 42
0.0000000001
 43
0.0000000001
 40
0.0
 40
0.0
 40
0.0
 40
0.0
 40
0.0195054452368627
 40
0.0389434410876481
 40
0.0583227029658545
 40
0.0776514580403211
 40
0.0969381743183981
 40
0.1161915774192203
 40
0.1354206483872961
 40
0.1546346203102853
 40
0.1738429737205002
 40
0.1930554329133587
 40
0.2122821785801283
 40
0.2315341271208211
 40
0.2508341113288918
 40
0.2701354890055813
 40
0.2893593225958015
 40
0.3084886222097389
 40
0.3275348977635406
 40
0.3465103129215776
 40
0.3654275927893593
 40
0.3842997643008517
 40
0.4031405398507081
 40
0.4219648545522741
 40
0.4407910135745988
 40
0.4596522743566857
 40
0.478516938178114
 40
0.4973368806169699
 40
0.5160660403850283
 40
0.5346906488410843
 40
0.5532409907998167
 40
0.5717409766626408
 40
0.5902178953796945
 40
0.608711425611695
 40
0.6272377454880216
 40
0.6457459813185567
 40
0.6641880752764843
 40
0.6783865246120318
 40
0.6925444563710328
 40
0.7066961945039516
 40
0.7208768069498
 40
0.7351255654977118
 40
0.7493868613153402
 40
0.763603278520009
 40
0.7777838724281953
 40
0.7919781160775327
 40
0.8062663092335169
 40
0.8206516070760066
 40
0.8350515485085205
 40
0.849455106113664
 40
0.8639604410007617
 40
0.8786710151966749
 40
0.8934220330596829
 40
0.9082551359938401
 40
0.9233100575906554
 40
0.9384481013754076
 40
0.9535840663139381
 40
0.9689514341650454
 40
0.9844568273966832
 40
1.0
 40
1.0
 40
1.0
 40
1.0
 10
2665.363537950952
 20
1049.526664324466
 30
0.0
 10
2665.211592458562
 20
1049.494057769114
 30
0.0
 10
2664.908226897839
 20
1049.428957411137
 30
0.0
 10
2664.447891474797
 20
1049.33741569928
 30
0.0
 10
2663.984819096235
 20
1049.250683363651
 30
0.0
 10
2663.518531025246
 20
1049.16938165347
 30
0.0
 10
2663.049134011318
 20
1049.093576134042
 30
0.0
 10
2662.576580426976
 20
1049.023480824198
 30
0.0
 10
2662.100863742731
 20
1048.959270780992
 30
0.0
 10
2661.621967246437
 20
1048.901129018287
 30
0.0
 10
2661.13987417231
 20
1048.849245586881
 30
0.0
 10
2660.654576391645
 20
1048.803774275977
 30
0.0
 10
2660.166013945295
 20
1048.765017667495
 30
0.0
 10
2659.674028094475
 20
1048.733295943696
 30
0.0
 10
2659.178962179695
 20
1048.708951269758
 30
0.0
 10
2658.681965919658
 20
1048.692315902309
 30
0.0
 10
2658.184544983396
 20
1048.683739161735
 30
0.0
 10
2657.687746558305
 20
1048.683451661526
 30
0.0
 10
2657.19183646919
 20
1048.69171197848
 30
0.0
 10
2656.696843246721
 20
1048.70876124725
 30
0.0
 10
2656.202796733227
 20
1048.734825908424
 30
0.0
 10
2655.709725055548
 20
1048.770209599807
 30
0.0
 10
2655.217664245831
 20
1048.815313665921
 30
0.0
 10
2654.726640326499
 20
1048.870534597784
 30
0.0
 10
2654.236533697523
 20
1048.936240204913
 30
0.0
 10
2653.747702937918
 20
1049.013004833584
 30
0.0
 10
2653.261098705642
 20
1049.101079341802
 30
0.0
 10
2652.778392984505
 20
1049.200605840669
 30
0.0
 10
2652.30118084833
 20
1049.311823004936
 30
0.0
 10
2651.830400936623
 20
1049.434937324316
 30
0.0
 10
2651.366447264075
 20
1049.570266410527
 30
0.0
 10
2650.909535091867
 20
1049.71842877613
 30
0.0
 10
2650.459864627664
 20
1049.879974036267
 30
0.0
 10
2650.017804847771
 20
1050.055471781153
 30
0.0
 10
2649.584675853076
 20
1050.245514490581
 30
0.0
 10
2649.162417170381
 20
1050.449967354751
 30
0.0
 10
2648.78417902613
 20
1050.652209498562
 30
0.0
 10
2648.448555724795
 20
1050.848673006922
 30
0.0
 10
2648.152786612163
 20
1051.036176713127
 30
0.0
 10
2647.867255161114
 20
1051.232675050248
 30
0.0
 10
2647.592318344701
 20
1051.43864404688
 30
0.0
 10
2647.329220281545
 20
1051.65418601517
 30
0.0
 10
2647.079712440365
 20
1051.878684411778
 30
0.0
 10
2646.846005027486
 20
1052.111393222448
 30
0.0
 10
2646.629572959489
 20
1052.351793412624
 30
0.0
 10
2646.431551458886
 20
1052.60007892805
 30
0.0
 10
2646.2534020136
 20
1052.856308206278
 30
0.0
 10
2646.097408900969
 20
1053.1194549825
 30
0.0
 10
2645.96644733268
 20
1053.387659003955
 30
0.0
 10
2645.862900550065
 20
1053.659316242271
 30
0.0
 10
2645.789488282046
 20
1053.933447118111
 30
0.0
 10
2645.749031024215
 20
1054.207673719151
 30
0.0
 10
2645.744122030795
 20
1054.478793311528
 30
0.0
 10
2645.778105636634
 20
1054.742992596425
 30
0.0
 10
2645.852696274678
 20
1054.996435803985
 30
0.0
 10
2645.968990403374
 20
1055.234156915286
 30
0.0
 10
2646.126933458051
 20
1055.451947742373
 30
0.0
 10
2646.32612972929
 20
1055.645331932109
 30
0.0
 10
2646.56156735474
 20
1055.81414967516
 30
0.0
 10
2646.745649661519
 20
1055.901501523931
 30
0.0
 10
2646.837802809033
 20
1055.945230592445
 30
0.0
  0
SPLINE
  5
46C
330
456
100
AcDbEntity
  8
0
  6
Continuous
 62
     7
370
    15
100
AcDbSpline
210
0.0
220
0.0
230
1.0
 70
     8
 71
     3
 72
    12
 73
     8
 74
     0
 42
0.0000000001
 43
0.0000000001
 40
0.0
 40
0.0
 40
0.0
 40
0.0
 40
0.5000000000000005
 40
0.5000000000000005
 40
0.7500000000000002
 40
0.7500000000000002
 40
1.0
 40
1.0
 40
1.0
 40
1.0
 10
2671.945850288565
 20
1051.606698556438
 30
0.0
 10
2670.97894557312
 20
1051.190110400697
 30
0.0
 10
2669.945877643121
 20
1050.806161357148
 30
0.0
 10
2668.299058441784
 20
1050.28263740286
 30
0.0
 10
2667.733933737537
 20
1050.116830532617
 30
0.0
 10
2666.570075830922
 20
1049.805136151437
 30
0.0
 10
2665.969728096645
 20
1049.658922398141
 30
0.0
 10
2665.363537950952
 20
1049.526664324466
 30
0.0
  0
ARC
  5
46D
330
456
100
AcDbEntity
  8
0
  6
Continuous
 62
     7
370
    15
100
AcDbCircle
 10
2670.329161733106
 20
1048.153024389876
 30
0.0
 40
3.813338349322151
100
AcDbArc
 50
11.12436958315557
 51
64.91538495004173
  0
LINE
  5
46E
330
456
100
AcDbEntity
  8
0
  6
Continuous
 62
     7
370
    15
100
AcDbLine
 10
2674.467892034111
 20
1036.780820253377
 30
0.0
 11
2674.444562288176
 21
1045.87311093103
 31
0.0
  0
SPLINE
  5
46F
330
456
100
AcDbEntity
  8
0
  6
Continuous
 62
     7
370
    15
100
AcDbSpline
210
0.0
220
0.0
230
1.0
 70
     8
 71
     3
 72
    38
 73
    34
 74
     0
 42
0.0000000001
 43
0.0000000001
 40
0.0
 40
0.0
 40
0.0
 40
0.0
 40
0.033141456372956
 40
0.0662829226884059
 40
0.0994243700286096
 40
0.1325658335527826
 40
0.1657072988407469
 40
0.1988487580809014
 40
0.2319902177425071
 40
0.265131653636713
 40
0.2982731425787945
 40
0.331414587954985
 40
0.3645560333311754
 40
0.3976975222732569
 40
0.4308389581674628
 40
0.4639804178290685
 40
0.4971218901695219
 40
0.5302633319380029
 40
0.5634048032934349
 40
0.5965462506336387
 40
0.6296877169490886
 40
0.6628291733220446
 40
0.6959706296950007
 40
0.729112091533769
 40
0.7622535486008552
 40
0.7953950112789298
 40
0.8285364631977321
 40
0.8616779289880359
 40
0.8948193760635597
 40
0.9279608359462823
 40
0.9611023022313926
 40
0.9942437687933264
 40
1.0
 40
1.0
 40
1.0
 40
1.0
 10
2674.467892034111
 20
1036.780820253377
 30
0.0
 10
2673.959307889799
 20
1036.571368525471
 30
0.0
 10
2672.942139448599
 20
1036.152465006825
 30
0.0
 10
2671.272962920964
 20
1035.589436874149
 30
0.0
 10
2669.511607079788
 20
1035.078739264514
 30
0.0
 10
2667.657957062103
 20
1034.62793373839
 30
0.0
 10
2665.726381137651
 20
1034.238617336829
 30
0.0
 10
2663.727999486712
 20
1033.913508678435
 30
0.0
 10
2661.675347633858
 20
1033.65452345728
 30
0.0
 10
2659.581019918738
 20
1033.463285203659
 30
0.0
 10
2657.457946339814
 20
1033.340964104958
 30
0.0
 10
2655.319211098689
 20
1033.288318608524
 30
0.0
 10
2653.178001813044
 20
1033.305668767587
 30
0.0
 10
2651.047519691706
 20
1033.392911824265
 30
0.0
 10
2648.940898920709
 20
1033.549507172325
 30
0.0
 10
2646.871129715377
 20
1033.774492233157
 30
0.0
 10
2644.850969301509
 20
1034.066475550717
 30
0.0
 10
2642.892877168777
 20
1034.423662272943
 30
0.0
 10
2641.008920731806
 20
1034.843844758652
 30
0.0
 10
2639.210719626109
 20
1035.324437019636
 30
0.0
 10
2637.509356339017
 20
1035.862472660156
 30
0.0
 10
2635.915325212815
 20
1036.45463755061
 30
0.0
 10
2634.438447674666
 20
1037.097277502815
 30
0.0
 10
2633.087834793575
 20
1037.786433545194
 30
0.0
 10
2631.871813330688
 20
1038.517854300438
 30
0.0
 10
2630.797862322868
 20
1039.287032687526
 30
0.0
 10
2629.87269152962
 20
1040.089223457181
 30
0.0
 10
2629.101644025029
 20
1040.919484997504
 30
0.0
 10
2628.49086118263
 20
1041.772690809563
 30
0.0
 10
2628.038890804096
 20
1042.64360284427
 30
0.0
 10
2627.768015115609
 20
1043.526772301145
 30
0.0
 10
2627.651458328931
 20
1044.171834133277
 30
0.0
 10
2627.67634272878
 20
1044.520254352964
 30
0.0
 10
2627.680025218161
 20
1044.571814919698
 30
0.0
  0
SPLINE
  5
470
330
456
100
AcDbEntity
  8
0
  6
Continuous
 62
     7
370
    15
100
AcDbSpline
210
0.0
220
0.0
230
1.0
 70
     8
 71
     3
 72
     9
 73
     5
 74
     0
 42
0.0000000001
 43
0.0000000001
 40
0.0
 40
0.0
 40
0.0
 40
0.0
 40
0.5000000000000369
 40
1.0
 40
1.0
 40
1.0
 40
1.0
 10
2698.856468092543
 20
1063.201061958177
 30
0.0
 10
2698.700979372752
 20
1063.257355669503
 30
0.0
 10
2698.390001933172
 20
1063.369943092154
 30
0.0
 10
2698.078844731739
 20
1063.493268903553
 30
0.0
 10
2697.923266131022
 20
1063.554931809252
 30
0.0
  0
LINE
  5
471
330
456
100
AcDbEntity
  8
0
  6
Continuous
 62
     7
370
    15
100
AcDbLine
 10
2698.856467070311
 20
1063.201061791057
 30
0.0
 11
2671.94585034404
 21
1051.606698853644
 31
0.0
  0
LINE
  5
472
330
456
100
AcDbEntity
  8
0
  6
Continuous
 62
     7
370
    15
100
AcDbLine
 10
2646.837802409797
 20
1055.945230916409
 30
0.0
 11
2685.483433160274
 21
1072.595591382835
 31
0.0
  0
SPLINE
  5
473
330
456
100
AcDbEntity
  8
0
  6
Continuous
 62
     7
370
    15
100
AcDbSpline
210
0.0
220
0.0
230
1.0
 70
     8
 71
     3
 72
    10
 73
     6
 74
     0
 42
0.0000000001
 43
0.0000000001
 40
0.0
 40
0.0
 40
0.0
 40
0.0
 40
0.4999999999999999
 40
0.4999999999999999
 40
1.0
 40
1.0
 40
1.0
 40
1.0
 10
2697.923266131022
 20
1063.554931809252
 30
0.0
 10
2695.761888056833
 20
1064.424016580569
 30
0.0
 10
2693.599765567596
 20
1065.638920647242
 30
0.0
 10
2689.409213065028
 20
1068.684408530294
 30
0.0
 10
2687.381060429182
 20
1070.51479076233
 30
0.0
 10
2685.483433996613
 20
1072.595591247196
 30
0.0
  0
LINE
  5
474
330
456
100
AcDbEntity
  8
0
  6
Continuous
 62
     7
370
    15
100
AcDbLine
 10
2674.435071750375
 20
1035.885726985055
 30
0.0
 11
2674.432738777736
 21
1036.794955290713
 31
0.0
  0
SPLINE
  5
475
330
456
100
AcDbEntity
  8
0
  6
Continuous
 62
     7
370
    15
100
AcDbSpline
210
0.0
220
0.0
230
1.0
 70
     8
 71
     3
 72
    38
 73
    34
 74
     0
 42
0.0000000001
 43
0.0000000001
 40
0.0
 40
0.0
 40
0.0
 40
0.0
 40
0.0057562338579984
 40
0.0388977068453191
 40
0.0720391501986729
 40
0.105180626427866
 40
0.1383220734403176
 40
0.1714635421515642
 40
0.2046049934896193
 40
0.23774645227293
 40
0.2708879124559659
 40
0.3040293728878536
 40
0.337170830413881
 40
0.3703122915498293
 40
0.4034537470486781
 40
0.4365952138753809
 40
0.4697366639660208
 40
0.5028781186934866
 40
0.5360195939664405
 40
0.5691610346747461
 40
0.6023024988885223
 40
0.635443942241876
 40
0.6685854152291969
 40
0.7017268882165176
 40
0.7348683315698713
 40
0.7680097957836474
 40
0.8011512364919529
 40
0.834292711764907
 40
0.8674341664923728
 40
0.9005756165830126
 40
0.9337170834097154
 40
0.9668585460838936
 40
1.0
 40
1.0
 40
1.0
 40
1.0
 10
2627.730803393874
 20
1043.480863683817
 30
0.0
 10
2627.727127395593
 20
1043.429393915324
 30
0.0
 10
2627.70228686496
 20
1043.081587343245
 30
0.0
 10
2627.818636046013
 20
1042.437661784056
 30
0.0
 10
2628.089039414968
 20
1041.55604828611
 30
0.0
 10
2628.540209160182
 20
1040.686670002318
 30
0.0
 10
2629.149918429206
 20
1039.834967122808
 30
0.0
 10
2629.919607399836
 20
1039.006168032181
 30
0.0
 10
2630.843146958403
 20
1038.205389918826
 30
0.0
 10
2631.915209205242
 20
1037.437567172915
 30
0.0
 10
2633.129085668374
 20
1036.707433913059
 30
0.0
 10
2634.477321792239
 20
1036.019492571039
 30
0.0
 10
2635.951593423101
 20
1035.377982731113
 30
0.0
 10
2637.542820884338
 20
1034.786862859702
 30
0.0
 10
2639.241185829853
 20
1034.249774006336
 30
0.0
 10
2641.036220977112
 20
1033.770029421846
 30
0.0
 10
2642.916857772416
 20
1033.350586040682
 30
0.0
 10
2644.871501288234
 20
1032.994028951604
 30
0.0
 10
2646.888103180311
 20
1032.70256000598
 30
0.0
 10
2648.954226742875
 20
1032.477970947579
 30
0.0
 10
2651.057136488821
 20
1032.321652576325
 30
0.0
 10
2653.183865836119
 20
1032.234562428339
 30
0.0
 10
2655.321303730732
 20
1032.217242789919
 30
0.0
 10
2657.456271936842
 20
1032.269795598384
 30
0.0
 10
2659.575605733984
 20
1032.391902000758
 30
0.0
 10
2661.666244171134
 20
1032.582802245062
 30
0.0
 10
2663.715280734548
 20
1032.84133163373
 30
0.0
 10
2665.710142185333
 20
1033.165867462484
 30
0.0
 10
2667.638314757639
 20
1033.55449878677
 30
0.0
 10
2669.488700000126
 20
1034.00450982934
 30
0.0
 10
2671.246954521962
 20
1034.5143072393
 30
0.0
 10
2672.913189915334
 20
1035.076344268903
 30
0.0
 10
2673.928568208006
 20
1035.494509149553
 30
0.0
 10
2674.436257287259
 20
1035.703591562253
 30
0.0
  0
LINE
  5
476
330
456
100
AcDbEntity
  8
0
  6
Continuous
 62
     7
370
    15
100
AcDbLine
 10
2674.436257287259
 20
1035.703591562253
 30
0.0
 11
2677.248861944266
 21
1036.915394306296
 31
0.0
  0
ARC
  5
477
330
456
100
AcDbEntity
  8
0
  6
Continuous
 62
     7
370
    15
100
AcDbCircle
 10
2665.080370140541
 20
1058.032115351897
 30
0.0
 40
24.37187109138453
100
AcDbArc
 50
293.1196560611358
 51
299.9526588007118
  0
LWPOLYLINE
  5
478
330
456
100
AcDbEntity
  8
0
  6
Continuous
 62
     7
370
    15
100
AcDbPolyline
 90
       53
 70
   128
 43
0.0
 10
2674.650049915346
 20
1035.617626075923
 10
2673.70146357339
 20
1035.228119861904
 10
2672.709013411701
 20
1034.858051793619
 10
2671.675016017238
 20
1034.508286396229
 10
2670.601887823534
 20
1034.179639940838
 10
2669.492138220966
 20
1033.872879702233
 10
2668.348353429053
 20
1033.588723688801
 10
2667.173208600853
 20
1033.327833613775
 10
2665.969447894417
 20
1033.090819666055
 10
2664.739881993931
 20
1032.878236102954
 10
2663.48738295821
 20
1032.690577917606
 10
2662.214876851555
 20
1032.528284342478
 10
2660.925332714452
 20
1032.39173409743
 10
2659.621765158702
 20
1032.281246507816
 10
2658.307218641617
 20
1032.197079181394
 10
2656.984763457061
 20
1032.139429620318
 10
2655.657486652492
 20
1032.108431307776
 10
2654.328487981244
 20
1032.104156416364
 10
2653.000873298438
 20
1032.126616301979
 10
2651.677741507817
 20
1032.175758106061
 10
2650.362185820557
 20
1032.251466411031
 10
2649.057275279311
 20
1032.353564184626
 10
2647.766058650903
 20
1032.481814457061
 10
2646.491552709486
 20
1032.635916385934
 10
2645.236733511707
 20
1032.815509845273
 10
2644.004531090172
 20
1033.02017647847
 10
2642.797823595031
 20
1033.249437730742
 10
2641.619429276048
 20
1033.502758073118
 10
2640.472102473646
 20
1033.779546614431
 10
2639.358519190662
 20
1034.079155337282
 10
2638.281284722716
 20
1034.400886837885
 10
2637.24290922229
 20
1034.74398685889
 10
2636.245821778162
 20
1035.107655920881
 10
2635.292350668624
 20
1035.491044292904
 10
2634.384722705338
 20
1035.893256579505
 10
2633.525058222134
 20
1036.313353735717
 10
2632.715360954457
 20
1036.750352813318
 10
2631.957528194388
 20
1037.203235847109
 10
2631.25332499231
 20
1037.670942935572
 10
2630.604399598758
 20
1038.152383324536
 10
2630.012265882116
 20
1038.646431668973
 10
2629.478306484263
 20
1039.151934329728
 10
2629.003769479764
 20
1039.667710716845
 10
2628.589761527232
 20
1040.192556043388
 10
2628.237251389181
 20
1040.725244233314
 10
2627.947061875349
 20
1041.264532241849
 10
2627.719869213293
 20
1041.809159227765
 10
2627.55620641322
 20
1042.357853846787
 10
2627.456454030013
 20
1042.909334723765
 10
2627.420846612297
 20
1043.462314344314
 10
2627.449465430191
 20
1044.015499817376
 10
2627.542243510534
 20
1044.567599496953
 10
2627.666814512393
 20
1045.020964718677
  0
ARC
  5
479
330
456
100
AcDbEntity
  8
0
  6
Continuous
 62
     7
370
    15
100
AcDbCircle
 10
2654.471188637926
 20
1091.524371654096
 30
0.0
 40
61.04789079808385
100
AcDbArc
 50
261.7663125708741
 51
266.4853287802828
  0
LWPOLYLINE
  5
47A
330
456
100
AcDbEntity
  8
0
  6
Continuous
 62
     7
370
    15
100
AcDbPolyline
 90
       18
 70
   128
 43
0.0
 10
2629.290041111919
 20
1037.715601050062
 10
2629.825827961851
 20
1037.182782385458
 10
2630.425743089995
 20
1036.662052365828
 10
2631.088257273145
 20
1036.154742458291
 10
2631.811672494999
 20
1035.662147163678
 10
2632.594144821925
 20
1035.18552670703
 10
2633.433671081229
 20
1034.726097263047
 10
2634.328111364089
 20
1034.285034877303
 10
2635.275177040135
 20
1033.863465154361
 10
2636.272447903092
 20
1033.462465009952
 10
2637.317376090211
 20
1033.083058933376
 10
2638.407291678117
 20
1032.726216737432
 10
2639.539413462902
 20
1032.392851385365
 10
2640.710843924889
 20
1032.083812369125
 10
2641.918593742066
 20
1031.799890983773
 10
2643.159572566827
 20
1031.541811066531
 10
2644.430614541653
 20
1031.31023386819
 10
2645.728468034854
 20
1031.105750291544
  0
ARC
  5
47B
330
456
100
AcDbEntity
  8
0
  6
Continuous
 62
     7
370
    15
100
AcDbCircle
 10
2634.718170060858
 20
1042.932925342902
 30
0.0
 40
7.528947912089833
100
AcDbArc
 50
204.7754409698018
 51
223.8655589910432
  0
ARC
  5
47C
330
456
100
AcDbEntity
  8
0
  6
Continuous
 62
     7
370
    15
100
AcDbCircle
 10
2632.505769146716
 20
1041.884698131455
 30
0.0
 40
5.080969027352867
100
AcDbArc
 50
180.4636210065783
 51
204.4979217965133
  0
LWPOLYLINE
  5
47D
330
456
100
AcDbEntity
  8
0
  6
Continuous
 62
     7
370
    15
100
AcDbPolyline
 90
       31
 70
   128
 43
0.0
 10
2650.728701352766
 20
1030.591303786023
 10
2652.043171107028
 20
1030.523061653819
 10
2653.364336648375
 20
1030.481283897989
 10
2654.689127831889
 20
1030.466066934027
 10
2656.014464772367
 20
1030.47744732679
 10
2657.337271168769
 20
1030.515397513556
 10
2658.654474149205
 20
1030.57983018957
 10
2659.96301099128
 20
1030.670594524998
 10
2661.259843434079
 20
1030.787481218115
 10
2662.541959169498
 20
1030.930217572445
 10
2663.806376955005
 20
1031.098471925737
 10
2665.050161080622
 20
1031.291854317614
 10
2666.270422744006
 20
1031.509914855865
 10
2667.464325201958
 20
1031.752147049038
 10
2668.629095642278
 20
1032.017987355985
 10
2669.762027662633
 20
1032.306819593123
 10
2670.860490624798
 20
1032.617971173113
 10
2671.921928047051
 20
1032.950721316874
 10
2672.943879556568
 20
1033.304294928578
 10
2673.923969395057
 20
1033.677871000305
 10
2674.859917278689
 20
1034.070582838693
 10
2675.749551281893
 20
1034.481516937392
 10
2676.590805658468
 20
1034.90971871679
 10
2677.381726271559
 20
1035.354192637334
 10
2678.12047011782
 20
1035.813908673007
 10
2678.805328453948
 20
1036.287795579113
 10
2679.434705990401
 20
1036.774754189573
 10
2680.00713980802
 20
1037.273653323201
 10
2680.521302281128
 20
1037.783333269281
 10
2680.975997802042
 20
1038.302609941737
 10
2681.228387564609
 20
1038.629962760401
  0
LINE
  5
47E
330
456
100
AcDbEntity
  8
0
  6
Continuous
 62
     7
370
    15
100
AcDbLine
 10
2674.436257287259
 20
1035.703591562253
 30
0.0
 11
2674.435790690994
 21
1035.885437900813
 31
0.0
  0
LINE
  5
47F
330
456
100
AcDbEntity
  8
0
  6
Continuous
 62
     7
370
    15
100
AcDbLine
 10
2672.487303126625
 20
1029.387999545283
 30
0.0
 11
2650.553705682117
 21
1026.750318569868
 31
0.0
  0
LINE
  5
480
330
456
100
AcDbEntity
  8
0
  6
Continuous
 62
     7
370
    15
100
AcDbLine
 10
2650.553705682117
 20
1026.750318569868
 30
0.0
 11
2650.54390718878
 21
1030.569080671418
 31
0.0
  0
LINE
  5
481
330
456
100
AcDbEntity
  8
0
  6
Continuous
 62
     7
370
    15
100
AcDbLine
 10
2650.54390718878
 20
1030.569080671418
 30
0.0
 11
2650.728701352766
 21
1030.591303786023
 31
0.0
  0
LINE
  5
482
330
456
100
AcDbEntity
  8
0
  6
Continuous
 62
     7
370
    15
100
AcDbLine
 10
2672.477679242137
 20
1033.138711423988
 30
0.0
 11
2672.487303126625
 21
1029.387999545283
 31
0.0
  0
ARC
  5
483
330
456
100
AcDbEntity
  8
0
  6
Continuous
 62
     7
370
    15
100
AcDbCircle
 10
2654.259649243719
 20
1091.89103975235
 30
0.0
 40
61.43443175078907
100
AcDbArc
 50
262.2103155287564
 51
266.5324599174397
  0
LINE
  5
484
330
456
100
AcDbEntity
  8
0
  6
Continuous
 62
     7
370
    15
100
AcDbLine
 10
2645.728468034854
 20
1031.105750291544
 30
0.0
 11
2645.932998623104
 21
1031.023509048497
 31
0.0
  0
LINE
  5
485
330
456
100
AcDbEntity
  8
0
  6
Continuous
 62
     7
370
    15
100
AcDbLine
 10
2645.932998623104
 20
1031.023509048497
 30
0.0
 11
2645.94279711644
 21
1027.204746946947
 31
0.0
  0
ARC
  5
486
330
456
100
AcDbEntity
  8
0
  6
Continuous
 62
     7
370
    15
100
AcDbCircle
 10
2654.269447737052
 20
1088.072277650764
 30
0.0
 40
61.43443175075214
100
AcDbArc
 50
262.2103155287564
 51
266.5324599174397
  0
SPLINE
  5
487
330
456
100
AcDbEntity
  8
0
  6
Continuous
 62
     7
370
    15
100
AcDbSpline
210
0.0
220
0.0
230
1.0
 70
     8
 71
     3
 72
     8
 73
     4
 74
     0
 42
0.0000000001
 43
0.0000000001
 40
0.0
 40
0.0
 40
0.0
 40
0.0
 40
1.0
 40
1.0
 40
1.0
 40
1.0
 10
2698.934287816905
 20
1063.171552746446
 30
0.0
 10
2698.908340726952
 20
1063.181986007062
 30
0.0
 10
2698.882395163699
 20
1063.191824555396
 30
0.0
 10
2698.856468092543
 20
1063.201061958177
 30
0.0
  0
SPLINE
  5
488
330
456
100
AcDbEntity
  8
0
  6
Continuous
 62
     7
370
    15
100
AcDbSpline
210
0.0
220
0.0
230
1.0
 70
     8
 71
     3
 72
    14
 73
    10
 74
     0
 42
0.0000000001
 43
0.0000000001
 40
0.0
 40
0.0
 40
0.0
 40
0.0
 40
0.25
 40
0.25
 40
0.5
 40
0.5
 40
0.75
 40
0.75
 40
1.0
 40
1.0
 40
1.0
 40
1.0
 10
2700.981468229687
 20
1060.48313005271
 30
0.0
 10
2700.910057689896
 20
1060.781157188451
 30
0.0
 10
2700.805193173889
 20
1061.078493141462
 30
0.0
 10
2700.53864655209
 20
1061.643172169058
 30
0.0
 10
2700.377006595153
 20
1061.910425951296
 30
0.0
 10
2700.012546846622
 20
1062.389046131905
 30
0.0
 10
2699.809784686824
 20
1062.600336846361
 30
0.0
 10
2699.382706149159
 20
1062.946548528739
 30
0.0
 10
2699.158457304961
 20
1063.081414750419
 30
0.0
 10
2698.934287816905
 20
1063.171552746446
 30
0.0
  0
LINE
  5
489
330
456
100
AcDbEntity
  8
0
  6
Continuous
 62
     7
370
    15
100
AcDbLine
 10
2700.981466812204
 20
1060.483130242129
 30
0.0
 11
2674.070850085931
 21
1048.888767304717
 31
0.0
  0
SPLINE
  5
48A
330
456
100
AcDbEntity
  8
0
  6
Continuous
 62
     7
370
    15
100
AcDbSpline
210
0.0
220
0.0
230
1.0
 70
     8
 71
     3
 72
     8
 73
     4
 74
     0
 42
0.0000000001
 43
0.0000000001
 40
0.0
 40
0.0
 40
0.0
 40
0.0
 40
1.0
 40
1.0
 40
1.0
 40
1.0
 10
2701.355181218743
 20
1057.467473514486
 30
0.0
 10
2701.35268530822
 20
1058.44020352404
 30
0.0
 10
2701.225971948821
 20
1059.46271005162
 30
0.0
 10
2700.981468229687
 20
1060.48313005271
 30
0.0
  0
LINE
  5
48B
330
456
100
AcDbEntity
  8
0
  6
Continuous
 62
     7
370
    15
100
AcDbLine
 10
2674.444562288176
 20
1045.87311093103
 30
0.0
 11
2701.355179014448
 21
1057.467473868443
 31
0.0
  0
LINE
  5
48C
330
456
100
AcDbEntity
  8
0
  6
Continuous
 62
     7
370
    15
100
AcDbLine
 10
2645.800444160157
 20
1056.699131288081
 30
0.0
 11
2684.446074910634
 21
1073.349491754507
 31
0.0
  0
SPLINE
  5
48D
330
456
100
AcDbEntity
  8
0
  6
Continuous
 62
     7
370
    15
100
AcDbSpline
210
0.0
220
0.0
230
1.0
 70
     8
 71
     3
 72
     8
 73
     4
 74
     0
 42
0.0000000001
 43
0.0000000001
 40
0.0
 40
0.0
 40
0.0
 40
0.0
 40
1.0
 40
1.0
 40
1.0
 40
1.0
 10
2685.483433996613
 20
1072.595591247196
 30
0.0
 10
2685.166947808169
 20
1072.942627209103
 30
0.0
 10
2684.806550918881
 20
1073.204545979658
 30
0.0
 10
2684.446076224417
 20
1073.349491961642
 30
0.0
  0
LINE
  5
48E
330
456
100
AcDbEntity
  8
0
  6
Continuous
 62
     7
370
    15
100
AcDbLine
 10
2628.884797056615
 20
1034.063726529533
 30
0.0
 11
2628.874998563279
 21
1037.882488631083
 31
0.0
  0
LINE
  5
48F
330
456
100
AcDbEntity
  8
0
  6
Continuous
 62
     7
370
    15
100
AcDbLine
 10
2628.874998563279
 20
1037.882488631083
 30
0.0
 11
2629.290041111919
 21
1037.715601050062
 31
0.0
  0
LINE
  5
490
330
456
100
AcDbEntity
  8
0
  6
Continuous
 62
     7
370
    15
100
AcDbLine
 10
2645.94279711644
 20
1027.204746946947
 30
0.0
 11
2628.884797056615
 21
1034.063726529533
 31
0.0
  0
LINE
  5
491
330
456
100
AcDbEntity
  8
0
  6
Continuous
 62
     7
370
    15
100
AcDbLine
 10
2669.828600654196
 20
1029.0682712304
 30
0.0
 11
2669.041831110563
 21
1028.676798982511
 31
0.0
  0
SPLINE
  5
492
330
456
100
AcDbEntity
  8
0
  6
Continuous
 62
     7
370
    15
100
AcDbSpline
210
0.0
220
0.0
230
1.0
 70
     8
 71
     3
 72
    28
 73
    24
 74
     0
 42
0.0000000001
 43
0.0000000001
 40
0.0
 40
0.0
 40
0.0
 40
0.0
 40
0.0481719206782671
 40
0.0963438308854768
 40
0.1445157450936983
 40
0.1926876581548737
 40
0.2408595586524079
 40
0.289031491414893
 40
0.3372033937142195
 40
0.3853753184243439
 40
0.4335472432286993
 40
0.4817191455280259
 40
0.5298910782905109
 40
0.578062978788045
 40
0.6262348918492204
 40
0.6744068060574417
 40
0.7225787162646515
 40
0.7707506369429186
 40
0.8189225519076581
 40
0.8670944664287379
 40
0.9152663847731043
 40
0.9634382950968516
 40
0.9999999999999998
 40
0.9999999999999998
 40
0.9999999999999998
 40
0.9999999999999998
 10
2669.041831110563
 20
1028.676798982511
 30
0.0
 10
2668.580809314121
 20
1028.479586880307
 30
0.0
 10
2667.65876582145
 20
1028.085162718767
 30
0.0
 10
2666.116876374044
 20
1027.568169048277
 30
0.0
 10
2664.477136407926
 20
1027.111978035174
 30
0.0
 10
2662.742982029371
 20
1026.725676706846
 30
0.0
 10
2660.93442391178
 20
1026.41138192852
 30
0.0
 10
2659.067993075671
 20
1026.172204014045
 30
0.0
 10
2657.161903889287
 20
1026.010074087215
 30
0.0
 10
2655.234448881301
 20
1025.926310121458
 30
0.0
 10
2653.304208844965
 20
1025.921433861713
 30
0.0
 10
2651.389769401264
 20
1025.995224577243
 30
0.0
 10
2649.509568940039
 20
1026.146693200738
 30
0.0
 10
2647.681715357468
 20
1026.374111320843
 30
0.0
 10
2645.923815788274
 20
1026.675013523332
 30
0.0
 10
2644.252787680998
 20
1027.046226070893
 30
0.0
 10
2642.684766081318
 20
1027.483908016284
 30
0.0
 10
2641.234707365953
 20
1027.983548076258
 30
0.0
 10
2639.917111038979
 20
1028.540140937814
 30
0.0
 10
2638.74268208528
 20
1029.147754701072
 30
0.0
 10
2637.730131192766
 20
1029.801374553927
 30
0.0
 10
2636.931381760794
 20
1030.434945280015
 30
0.0
 10
2636.55384175051
 20
1030.861480463993
 30
0.0
 10
2636.390937023643
 20
1031.045526116779
 30
0.0
  0
SPLINE
  5
493
330
456
100
AcDbEntity
  8
0
  6
Continuous
 62
     7
370
    15
100
AcDbSpline
210
0.0
220
0.0
230
1.0
 70
     8
 71
     3
 72
    12
 73
     8
 74
     0
 42
0.0000000001
 43
0.0000000001
 40
0.0
 40
0.0
 40
0.0
 40
0.0
 40
0.0050459262716747
 40
0.2537844200519945
 40
0.5025229538333168
 40
0.7512614796053554
 40
1.0
 40
1.0
 40
1.0
 40
1.0
 10
2673.224159412946
 20
1029.676467886207
 30
0.0
 10
2673.219958642313
 20
1029.671127883747
 30
0.0
 10
2673.008681251128
 20
1029.402552927533
 30
0.0
 10
2672.428123324162
 20
1028.895490396252
 30
0.0
 10
2671.474426880341
 20
1028.167725115222
 30
0.0
 10
2670.350167237293
 20
1027.48167665457
 30
0.0
 10
2669.481053782031
 20
1027.06611961737
 30
0.0
 10
2669.046497059098
 20
1026.858341101016
 30
0.0
  0
SPLINE
  5
494
330
456
100
AcDbEntity
  8
0
  6
Continuous
 62
     7
370
    15
100
AcDbSpline
210
0.0
220
0.0
230
1.0
 70
     8
 71
     3
 72
    10
 73
     6
 74
     0
 42
0.0000000001
 43
0.0000000001
 40
0.0
 40
0.0
 40
0.0
 40
0.0
 40
0.5
 40
0.5
 40
1.0
 40
1.0
 40
1.0
 40
1.0
 10
2669.046496940536
 20
1026.858341083293
 30
0.0
 10
2667.785099494255
 20
1026.288228283431
 30
0.0
 10
2666.343107539238
 20
1025.790834017879
 30
0.0
 10
2663.206903715709
 20
1024.97705701824
 30
0.0
 10
2661.512996097994
 20
1024.660748063684
 30
0.0
 10
2659.757285314271
 20
1024.445964041246
 30
0.0
  0
SPLINE
  5
495
330
456
100
AcDbEntity
  8
0
  6
Continuous
 62
     7
370
    15
100
AcDbSpline
210
0.0
220
0.0
230
1.0
 70
     8
 71
     3
 72
    24
 73
    20
 74
     0
 42
0.0000000001
 43
0.0000000001
 40
0.0
 40
0.0
 40
0.0
 40
0.0
 40
0.0628350170895848
 40
0.1256019507153077
 40
0.1883009216224304
 40
0.2509317932786407
 40
0.3134946426927343
 40
0.3759894711554009
 40
0.4384162897769115
 40
0.5007750431460656
 40
0.5630657869889673
 40
0.6252884899975953
 40
0.6874431638316543
 40
0.7495298015630072
 40
0.8115484184523097
 40
0.8734989746519897
 40
0.9353815177883701
 40
0.9971960249016886
 40
1.0
 40
1.0
 40
1.0
 40
1.0
 10
2659.757285528462
 20
1024.445963596304
 30
0.0
 10
2659.0657559862
 20
1024.377890873831
 30
0.0
 10
2657.683446192896
 20
1024.241819187547
 30
0.0
 10
2655.567262494912
 20
1024.156788151042
 30
0.0
 10
2653.452326695297
 20
1024.160199137725
 30
0.0
 10
2651.35833892176
 20
1024.259955506391
 30
0.0
 10
2649.310877526569
 20
1024.452229717813
 30
0.0
 10
2647.333272707796
 20
1024.73495946482
 30
0.0
 10
2645.448438001982
 20
1025.104280874879
 30
0.0
 10
2643.678035475285
 20
1025.555533403664
 30
0.0
 10
2642.042397185339
 20
1026.083061007105
 30
0.0
 10
2640.560183174013
 20
1026.680349320225
 30
0.0
 10
2639.248440851221
 20
1027.340084628145
 30
0.0
 10
2638.121403481763
 20
1028.054231258431
 30
0.0
 10
2637.194109980118
 20
1028.814199692649
 30
0.0
 10
2636.468135777605
 20
1029.61065552896
 30
0.0
 10
2635.984086420888
 20
1030.434720853701
 30
0.0
 10
2635.739511312412
 20
1031.007250756577
 30
0.0
 10
2635.720699015557
 20
1031.302542132298
 30
0.0
 10
2635.719882697838
 20
1031.315355643788
 30
0.0
  0
SPLINE
  5
496
330
456
100
AcDbEntity
  8
0
  6
Continuous
 62
     7
370
    15
100
AcDbSpline
210
0.0
220
0.0
230
1.0
 70
     8
 71
     3
 72
    12
 73
     8
 74
     0
 42
0.0000000001
 43
0.0000000001
 40
0.0
 40
0.0
 40
0.0
 40
0.0
 40
0.0155657245886559
 40
0.262059052562635
 40
0.5082959187893327
 40
0.7542761984769953
 40
1.0
 40
1.0
 40
1.0
 40
1.0
 10
2672.275105782228
 20
1028.636403673703
 30
0.0
 10
2672.262413859676
 20
1028.620918664857
 30
0.0
 10
2672.048737125256
 20
1028.360218514082
 30
0.0
 10
2671.479170053721
 20
1027.878984092668
 30
0.0
 10
2670.560011633605
 20
1027.204642166993
 30
0.0
 10
2669.483258101831
 20
1026.570847383263
 30
0.0
 10
2668.653691803087
 20
1026.188516947442
 30
0.0
 10
2668.239125009091
 20
1025.997451443375
 30
0.0
  0
SPLINE
  5
497
330
456
100
AcDbEntity
  8
0
  6
Continuous
 62
     7
370
    15
100
AcDbSpline
210
0.0
220
0.0
230
1.0
 70
     8
 71
     3
 72
    10
 73
     6
 74
     0
 42
0.0000000001
 43
0.0000000001
 40
0.0
 40
0.0
 40
0.0
 40
0.0
 40
0.5
 40
0.5
 40
1.0
 40
1.0
 40
1.0
 40
1.0
 10
2668.239124680993
 20
1025.997451535693
 30
0.0
 10
2666.861149354295
 20
1025.397243532164
 30
0.0
 10
2665.263776638183
 20
1024.889338001885
 30
0.0
 10
2661.790790601097
 20
1024.105158110284
 30
0.0
 10
2659.915771590242
 20
1023.828998449917
 30
0.0
 10
2657.995668070185
 20
1023.680687783254
 30
0.0
  0
SPLINE
  5
498
330
456
100
AcDbEntity
  8
0
  6
Continuous
 62
     7
370
    15
100
AcDbSpline
210
0.0
220
0.0
230
1.0
 70
     8
 71
     3
 72
    16
 73
    12
 74
     0
 42
0.0000000001
 43
0.0000000001
 40
0.0
 40
0.0
 40
0.0
 40
0.0
 40
0.1002846293619739
 40
0.2002638254310984
 40
0.2996152490056158
 40
0.4340903646120867
 40
0.5694738683983971
 40
0.7061581408055587
 40
0.8433216413776497
 40
0.9801253926378615
 40
0.9999999999999998
 40
0.9999999999999998
 40
0.9999999999999998
 40
0.9999999999999998
 10
2657.995668075046
 20
1023.680688274577
 30
0.0
 10
2658.483665943968
 20
1023.728658174021
 30
0.0
 10
2659.458175404234
 20
1023.82445187271
 30
0.0
 10
2660.881456370037
 20
1024.029259471812
 30
0.0
 10
2662.425622039955
 20
1024.305670963195
 30
0.0
 10
2664.065408578342
 20
1024.677548952746
 30
0.0
 10
2665.761013960894
 20
1025.167056686838
 30
0.0
 10
2667.34178780541
 20
1025.734327262216
 30
0.0
 10
2668.758934452212
 20
1026.37755463674
 30
0.0
 10
2669.699161232957
 20
1026.869523173215
 30
0.0
 10
2670.106546308678
 20
1027.15749875844
 30
0.0
 10
2670.158222995212
 20
1027.194028383441
 30
0.0
  0
SPLINE
  5
499
330
456
100
AcDbEntity
  8
0
  6
Continuous
 62
     7
370
    15
100
AcDbSpline
210
0.0
220
0.0
230
1.0
 70
     8
 71
     3
 72
    26
 73
    22
 74
     0
 42
0.0000000001
 43
0.0000000001
 40
0.0
 40
0.0
 40
0.0
 40
0.0
 40
0.0238701678085992
 40
0.0792076034511965
 40
0.1338984655947688
 40
0.1888805830119025
 40
0.244414713188677
 40
0.3001678699692938
 40
0.3548097665034293
 40
0.4090150928981717
 40
0.4626655833365025
 40
0.5168158786326442
 40
0.5724253986299312
 40
0.6281812065265635
 40
0.6837421647821876
 40
0.7387743951588713
 40
0.7934373825149411
 40
0.8477452695364782
 40
0.9024325130260816
 40
0.9571786035911385
 40
1.0
 40
1.0
 40
1.0
 40
1.0
 10
2639.357901089363
 20
1028.627406013121
 30
0.0
 10
2639.506470515973
 20
1028.528217741228
 30
0.0
 10
2639.999463624449
 20
1028.199084516437
 30
0.0
 10
2641.027311277051
 20
1027.696047155418
 30
0.0
 10
2642.419433976282
 20
1027.124813016672
 30
0.0
 10
2643.973495540428
 20
1026.623732589141
 30
0.0
 10
2645.667367471019
 20
1026.194213868102
 30
0.0
 10
2647.471373722083
 20
1025.846794550513
 30
0.0
 10
2649.349909194957
 20
1025.58603642617
 30
0.0
 10
2651.269602968037
 20
1025.413401604049
 30
0.0
 10
2653.225678694136
 20
1025.326717056496
 30
0.0
 10
2655.218738882638
 20
1025.328885403745
 30
0.0
 10
2657.234514067082
 20
1025.423310662582
 30
0.0
 10
2659.239511810852
 20
1025.611791739534
 30
0.0
 10
2661.185228546771
 20
1025.890225861294
 30
0.0
 10
2663.043173922407
 20
1026.252790341108
 30
0.0
 10
2664.790762614378
 20
1026.693335107922
 30
0.0
 10
2666.420553145928
 20
1027.209579633012
 30
0.0
 10
2667.910989666613
 20
1027.798244136381
 30
0.0
 10
2669.173893687865
 20
1028.399755198873
 30
0.0
 10
2669.852666697851
 20
1028.826703446675
 30
0.0
 10
2670.150573398472
 20
1029.014086772128
 30
0.0
  0
SPLINE
  5
49A
330
456
100
AcDbEntity
  8
0
  6
Continuous
 62
     7
370
    15
100
AcDbSpline
210
0.0
220
0.0
230
1.0
 70
     8
 71
     3
 72
    14
 73
    10
 74
     0
 42
0.0000000001
 43
0.0000000001
 40
0.0
 40
0.0
 40
0.0
 40
0.0
 40
0.0124937015764601
 40
0.1994479175062339
 40
0.3875483455134507
 40
0.5722998678538485
 40
0.7559651175006704
 40
0.9375205698399238
 40
1.0
 40
1.0
 40
1.0
 40
1.0
 10
2653.906788929054
 20
1027.153552305244
 30
0.0
 10
2653.95162166856
 20
1027.152345552174
 30
0.0
 10
2654.667326015737
 20
1027.133081094387
 30
0.0
 10
2656.072982464422
 20
1027.182252352359
 30
0.0
 10
2658.081359110344
 20
1027.308996696792
 30
0.0
 10
2660.044301779671
 20
1027.534127183249
 30
0.0
 10
2661.916357873588
 20
1027.845028865679
 30
0.0
 10
2663.3311710454
 20
1028.135259250056
 30
0.0
 10
2664.077033357648
 20
1028.345689955097
 30
0.0
 10
2664.267993976761
 20
1028.399565820729
 30
0.0
  0
SPLINE
  5
49B
330
456
100
AcDbEntity
  8
0
  6
Continuous
 62
     7
370
    15
100
AcDbSpline
210
0.0
220
0.0
230
1.0
 70
     8
 71
     3
 72
    34
 73
    30
 74
     0
 42
0.0000000001
 43
0.0000000001
 40
0.0
 40
0.0
 40
0.0
 40
0.0
 40
0.03580332520518
 40
0.0706903614095097
 40
0.1046537177371894
 40
0.1376862223322899
 40
0.1697809224564712
 40
0.2009310845861902
 40
0.2311301945101698
 40
0.2603719574280596
 40
0.2886502980513179
 40
0.3159593607077098
 40
0.3422935094510721
 40
0.3676473281784372
 40
0.392015620757253
 40
0.415393411166151
 40
0.4377759436538926
 40
0.4591586829225726
 40
0.4795373143433354
 40
0.4989077442159002
 40
0.5376112284592763
 40
0.5804679303121394
 40
0.6275114726630812
 40
0.6787788133792767
 40
0.7343102502996974
 40
0.7941494248865805
 40
0.8583433250691367
 40
0.9269422875849539
 40
0.9999999999999998
 40
0.9999999999999998
 40
0.9999999999999998
 40
0.9999999999999998
 10
2657.995668070185
 20
1023.680687783254
 30
0.0
 10
2658.139948467575
 20
1023.699131537346
 30
0.0
 10
2658.424816796908
 20
1023.735547027667
 30
0.0
 10
2658.845614505173
 20
1023.794501404636
 30
0.0
 10
2659.254348494195
 20
1023.855354055428
 30
0.0
 10
2659.650763679707
 20
1023.918127249457
 30
0.0
 10
2660.034702406153
 20
1023.982401083319
 30
0.0
 10
2660.406023807754
 20
1024.047878898319
 30
0.0
 10
2660.764621565528
 20
1024.114242620966
 30
0.0
 10
2661.110416404668
 20
1024.181190510561
 30
0.0
 10
2661.443355114104
 20
1024.248428021565
 30
0.0
 10
2661.763407943553
 20
1024.315670601817
 30
0.0
 10
2662.070566480798
 20
1024.382643379365
 30
0.0
 10
2662.364841452984
 20
1024.449081546088
 30
0.0
 10
2662.646260695616
 20
1024.514730626074
 30
0.0
 10
2662.914866900971
 20
1024.579346295547
 30
0.0
 10
2663.170716417076
 20
1024.642695756131
 30
0.0
 10
2663.413874696138
 20
1024.704553467121
 30
0.0
 10
2663.644423752758
 20
1024.764716400761
 30
0.0
 10
2663.938758089679
 20
1024.843341135736
 30
0.0
 10
2664.314610966929
 20
1024.947408958419
 30
0.0
 10
2664.788289260405
 20
1025.085331873914
 30
0.0
 10
2665.301468683102
 20
1025.242928080427
 30
0.0
 10
2665.85215567496
 20
1025.421898181307
 30
0.0
 10
2666.437893878023
 20
1025.62404403992
 30
0.0
 10
2667.055907316907
 20
1025.851198040603
 30
0.0
 10
2667.702271329607
 20
1026.105568388607
 30
0.0
 10
2668.375018852769
 20
1026.388173960365
 30
0.0
 10
2668.818293265426
 20
1026.593014087922
 30
0.0
 10
2669.046906668758
 20
1026.698657899888
 30
0.0
  0
SPLINE
  5
49C
330
456
100
AcDbEntity
  8
0
  6
Continuous
 62
     7
370
    15
100
AcDbSpline
210
0.0
220
0.0
230
1.0
 70
     8
 71
     3
 72
    12
 73
     8
 74
     0
 42
0.0000000001
 43
0.0000000001
 40
0.0
 40
0.0
 40
0.0
 40
0.0
 40
0.2318450209247522
 40
0.4636900468616835
 40
0.6955350802639345
 40
0.9273800766086798
 40
1.0
 40
1.0
 40
1.0
 40
1.0
 10
2669.046906787388
 20
1026.698657890949
 30
0.0
 10
2669.481579765732
 20
1026.90641866152
 30
0.0
 10
2670.350925731817
 20
1027.321940207154
 30
0.0
 10
2671.473441543646
 20
1028.008254854557
 30
0.0
 10
2672.433764546291
 20
1028.735008626191
 30
0.0
 10
2673.079409296868
 20
1029.318509426585
 30
0.0
 10
2673.343918215486
 20
1029.665328450622
 30
0.0
 10
2673.407007971189
 20
1029.748050529008
 30
0.0
  0
SPLINE
  5
49D
330
456
100
AcDbEntity
  8
0
  6
Continuous
 62
     7
370
    15
100
AcDbSpline
210
0.0
220
0.0
230
1.0
 70
     8
 71
     3
 72
    29
 73
    25
 74
     0
 42
0.0000000001
 43
0.0000000001
 40
0.0
 40
0.0
 40
0.0
 40
0.0
 40
0.0044261422100289
 40
0.0518344177268044
 40
0.0992426924749752
 40
0.1466509751166196
 40
0.1940592539955853
 40
0.2414675333111779
 40
0.2888758183424625
 40
0.3362840928832059
 40
0.383692371454273
 40
0.4311006488964773
 40
0.47850891406694
 40
0.5259172108054058
 40
0.5733254776563613
 40
0.6207337666555892
 40
0.6681420555620798
 40
0.7155503224130352
 40
0.762958619244238
 40
0.8103668844147007
 40
0.8577751617641677
 40
0.9051834403352348
 40
0.9525917149687153
 40
1.0
 40
1.0
 40
1.0
 40
1.0
 10
2636.182064989464
 20
1031.129512439781
 30
0.0
 10
2636.197282574928
 20
1031.106260387375
 30
0.0
 10
2636.37549525864
 20
1030.833956303997
 30
0.0
 10
2636.887509442175
 20
1030.334065341159
 30
0.0
 10
2637.723709776984
 20
1029.64076516822
 30
0.0
 10
2638.744922213184
 20
1028.988319652405
 30
0.0
 10
2639.917030312779
 20
1028.38039125777
 30
0.0
 10
2641.235248513522
 20
1027.823882584346
 30
0.0
 10
2642.685140591492
 20
1027.324220401823
 30
0.0
 10
2644.253206847438
 20
1026.886544034097
 30
0.0
 10
2645.924222987431
 20
1026.515330023298
 30
0.0
 10
2647.68212576638
 20
1026.214428096931
 30
0.0
 10
2649.509978480777
 20
1025.987010335109
 30
0.0
 10
2651.390179181382
 20
1025.835541274929
 30
0.0
 10
2653.304618559714
 20
1025.76175067588
 30
0.0
 10
2655.234858613188
 20
1025.76662690665
 30
0.0
 10
2657.162313616739
 20
1025.850390871872
 30
0.0
 10
2659.068402803723
 20
1026.01252082982
 30
0.0
 10
2660.934833643083
 20
1026.251698620518
 30
0.0
 10
2662.743391751883
 20
1026.565993863532
 30
0.0
 10
2664.477546139203
 20
1026.952294723469
 30
0.0
 10
2666.117286101612
 20
1027.408485879427
 30
0.0
 10
2667.659175551726
 20
1027.925479446104
 30
0.0
 10
2668.581219042411
 20
1028.319903790377
 30
0.0
 10
2669.04224083831
 20
1028.51711598414
 30
0.0
  0
LINE
  5
49E
330
456
100
AcDbEntity
  8
0
  6
Continuous
 62
     7
370
    15
100
AcDbLine
 10
2669.04224083831
 20
1028.51711598414
 30
0.0
 11
2670.252354955778
 21
1029.119230773827
 31
0.0
  0
ARC
  5
49F
330
456
100
AcDbEntity
  8
0
  6
Continuous
 62
     7
370
    15
100
AcDbCircle
 10
2656.731948328233
 20
1057.20233196187
 30
0.0
 40
32.89577987638767
100
AcDbArc
 50
275.2767965548674
 51
291.9849395923037
  0
LINE
  5
4A0
330
456
100
AcDbEntity
  8
0
  6
Continuous
 62
     7
370
    15
100
AcDbLine
 10
2684.446074910634
 20
1073.349491754507
 30
0.0
 11
2679.117592849467
 21
1075.49206119615
 31
0.0
  0
LINE
  5
4A1
330
456
100
AcDbEntity
  8
0
  6
Continuous
 62
     7
370
    15
100
AcDbLine
 10
2679.117592849467
 20
1075.49206119615
 30
0.0
 11
2640.471962098991
 21
1058.841700729723
 31
0.0
  0
LINE
  5
4A2
330
456
100
AcDbEntity
  8
0
  6
Continuous
 62
     7
370
    15
100
AcDbLine
 10
2701.355179014448
 20
1057.467473868443
 30
0.0
 11
2701.378508760383
 21
1048.375183190789
 31
0.0
  0
LINE
  5
4A3
330
456
100
AcDbEntity
  8
0
  6
Continuous
 62
     7
370
    15
100
AcDbLine
 10
2701.378508760383
 20
1048.375183190789
 30
0.0
 11
2674.467892034111
 21
1036.780820253377
 31
0.0
  0
SPLINE
  5
4A4
330
456
100
AcDbEntity
  8
0
  6
Continuous
 62
     7
370
    15
100
AcDbSpline
210
0.0
220
0.0
230
1.0
 70
     8
 71
     3
 72
    12
 73
     8
 74
     0
 42
0.0000000001
 43
0.0000000001
 40
0.0
 40
0.0
 40
0.0
 40
0.0
 40
0.25
 40
0.25
 40
0.5
 40
0.5
 40
1.0
 40
1.0
 40
1.0
 40
1.0
 10
2633.10315215489
 20
1062.498481838128
 30
0.0
 10
2633.398732917964
 20
1062.75429652595
 30
0.0
 10
2633.721032513497
 20
1063.008005284056
 30
0.0
 10
2634.418341909259
 20
1063.507925140288
 30
0.0
 10
2634.792271973427
 20
1063.753382801877
 30
0.0
 10
2635.97644121406
 20
1064.466054553315
 30
0.0
 10
2636.853613489546
 20
1064.913125987227
 30
0.0
 10
2637.818951222837
 20
1065.329040160839
 30
0.0
  0
SPLINE
  5
4A5
330
456
100
AcDbEntity
  8
0
  6
Continuous
 62
     7
370
    15
100
AcDbSpline
210
0.0
220
0.0
230
1.0
 70
     8
 71
     3
 72
    42
 73
    38
 74
     0
 42
0.0000000001
 43
0.0000000001
 40
0.0
 40
0.0
 40
0.0
 40
0.0
 40
0.0312499999999998
 40
0.0312499999999998
 40
0.0624999999999996
 40
0.0624999999999996
 40
0.0937499999999995
 40
0.0937499999999995
 40
0.1249999999999992
 40
0.1249999999999992
 40
0.1562499999999991
 40
0.1562499999999991
 40
0.1874999999999989
 40
0.1874999999999989
 40
0.2187499999999988
 40
0.2187499999999988
 40
0.2499999999999986
 40
0.2499999999999986
 40
0.3124999999999986
 40
0.3124999999999986
 40
0.3749999999999986
 40
0.3749999999999986
 40
0.4374999999999985
 40
0.4374999999999985
 40
0.4999999999999986
 40
0.4999999999999986
 40
0.5624999999999987
 40
0.5624999999999987
 40
0.6249999999999987
 40
0.6249999999999987
 40
0.7499999999999992
 40
0.7499999999999992
 40
0.8124999999999992
 40
0.8124999999999992
 40
0.8749999999999994
 40
0.8749999999999994
 40
1.0
 40
1.0
 40
1.0
 40
1.0
 10
2639.436334984532
 20
1058.921342476099
 30
0.0
 10
2639.233436024733
 20
1058.833924038393
 30
0.0
 10
2639.014550240077
 20
1058.742335865381
 30
0.0
 10
2638.54293314096
 20
1058.551131852088
 30
0.0
 10
2638.287567790192
 20
1058.450481941795
 30
0.0
 10
2637.774503320472
 20
1058.255175761645
 30
0.0
 10
2637.511811292407
 20
1058.158535060663
 30
0.0
 10
2636.98413671289
 20
1057.972708548643
 30
0.0
 10
2636.725330390261
 20
1057.885678795535
 30
0.0
 10
2636.215258459691
 20
1057.723605345075
 30
0.0
 10
2635.966556618764
 20
1057.649433008319
 30
0.0
 10
2635.491417300935
 20
1057.517924075471
 30
0.0
 10
2635.263077163447
 20
1057.459940865772
 30
0.0
 10
2634.820851489719
 20
1057.358733144181
 30
0.0
 10
2634.608708666581
 20
1057.315962114868
 30
0.0
 10
2634.208112834149
 20
1057.246618321147
 30
0.0
 10
2634.018399849951
 20
1057.219752762819
 30
0.0
 10
2633.476050538767
 20
1057.160538802403
 30
0.0
 10
2633.148172081492
 20
1057.150009659235
 30
0.0
 10
2632.570865824459
 20
1057.179858852048
 30
0.0
 10
2632.318962770393
 20
1057.219459483262
 30
0.0
 10
2631.876561056549
 20
1057.341390450132
 30
0.0
 10
2631.685268395934
 20
1057.424320591318
 30
0.0
 10
2631.364035462719
 20
1057.624386938296
 30
0.0
 10
2631.234187249816
 20
1057.740995750551
 30
0.0
 10
2631.027292149622
 20
1058.002350903467
 30
0.0
 10
2630.950623527222
 20
1058.147129768368
 30
0.0
 10
2630.847189370635
 20
1058.461101268038
 30
0.0
 10
2630.820514377499
 20
1058.631160127226
 30
0.0
 10
2630.813232580465
 20
1059.163651068248
 30
0.0
 10
2630.902282461547
 20
1059.549388065049
 30
0.0
 10
2631.164633908116
 20
1060.15707169322
 30
0.0
 10
2631.273749305719
 20
1060.364552023602
 30
0.0
 10
2631.533976680526
 20
1060.786756119164
 30
0.0
 10
2631.685866203508
 20
1061.002035552666
 30
0.0
 10
2632.197452526855
 20
1061.645850307223
 30
0.0
 10
2632.614208083194
 20
1062.075319889036
 30
0.0
 10
2633.10315215489
 20
1062.498481838128
 30
0.0
  0
ARC
  5
4A6
330
456
100
AcDbEntity
  8
0
  6
Continuous
 62
     7
370
    15
100
AcDbCircle
 10
2639.840140553612
 20
1057.399021513906
 30
0.0
 40
1.574967232978376
100
AcDbArc
 50
66.34897885624565
 51
104.8559771964176
  0
SPLINE
  5
4A7
330
456
100
AcDbEntity
  8
0
  6
Continuous
 62
     7
370
    15
100
AcDbSpline
210
0.0
220
0.0
230
1.0
 70
     8
 71
     3
 72
    11
 73
     7
 74
     0
 42
0.0000000001
 43
0.0000000001
 40
0.0
 40
0.0
 40
0.0
 40
0.0
 40
0.3314689032488562
 40
0.6629378924997469
 40
0.9944067972304889
 40
1.0
 40
1.0
 40
1.0
 40
1.0
 10
2667.974259047721
 20
1025.767530498728
 30
0.0
 10
2668.376929025769
 20
1025.95046446967
 30
0.0
 10
2669.18226908634
 20
1026.316332459017
 30
0.0
 10
2670.201829938006
 20
1026.927297453833
 30
0.0
 10
2670.84248586572
 20
1027.352555633824
 30
0.0
 10
2671.092151859797
 20
1027.581925327631
 30
0.0
 10
2671.096294812975
 20
1027.585731484354
 30
0.0
  0
SPLINE
  5
4A8
330
456
100
AcDbEntity
  8
0
  6
Continuous
 62
     7
370
    15
100
AcDbSpline
210
0.0
220
0.0
230
1.0
 70
     8
 71
     3
 72
    27
 73
    23
 74
     0
 42
0.0000000001
 43
0.0000000001
 40
0.0
 40
0.0
 40
0.0
 40
0.0
 40
0.0152745690316505
 40
0.0671022215487049
 40
0.1189298856381652
 40
0.170757536280562
 40
0.2225851869229587
 40
0.274412851012419
 40
0.3262405035294735
 40
0.3780681466184996
 40
0.4298958088059872
 40
0.4817234543287773
 40
0.5335511300613791
 40
0.5853787681402811
 40
0.6372064062191831
 40
0.6890340819517846
 40
0.7408617274745748
 40
0.7926893896620624
 40
0.8445170327510885
 40
0.896344685268143
 40
0.9481723493576032
 40
1.0
 40
1.0
 40
1.0
 40
1.0
 10
2638.842259358499
 20
1027.505998739995
 30
0.0
 10
2638.917869484765
 20
1027.44044171417
 30
0.0
 10
2639.250029916498
 20
1027.152445237031
 30
0.0
 10
2639.994958857885
 20
1026.676599620247
 30
0.0
 10
2641.06946999622
 20
1026.087013731417
 30
0.0
 10
2642.289323487408
 20
1025.547230068801
 30
0.0
 10
2643.628015026079
 20
1025.059334233156
 30
0.0
 10
2645.076608629436
 20
1024.628860340457
 30
0.0
 10
2646.620090138101
 20
1024.259728417823
 30
0.0
 10
2648.24388110026
 20
1023.955554388911
 30
0.0
 10
2649.932267365237
 20
1023.719251861984
 30
0.0
 10
2651.669009101309
 20
1023.55309984916
 30
0.0
 10
2653.437375697753
 20
1023.45869961583
 30
0.0
 10
2655.220336252072
 20
1023.436958352367
 30
0.0
 10
2657.00072422279
 20
1023.488084678684
 30
0.0
 10
2658.761378419887
 20
1023.6115915705
 30
0.0
 10
2660.485400512662
 20
1023.806268603858
 30
0.0
 10
2662.155968103351
 20
1024.070326844419
 30
0.0
 10
2663.75781221833
 20
1024.400894736491
 30
0.0
 10
2665.272447229459
 20
1024.796018404753
 30
0.0
 10
2666.696704677726
 20
1025.247301199452
 30
0.0
 10
2667.548407627886
 20
1025.5941207473
 30
0.0
 10
2667.974259047721
 20
1025.767530498728
 30
0.0
  0
SPLINE
  5
4A9
330
456
100
AcDbEntity
  8
0
  6
Continuous
 62
     7
370
    15
100
AcDbSpline
210
0.0
220
0.0
230
1.0
 70
     8
 71
     3
 72
    10
 73
     6
 74
     0
 42
0.0000000001
 43
0.0000000001
 40
0.0
 40
0.0
 40
0.0
 40
0.0
 40
0.5000000000000001
 40
0.5000000000000001
 40
1.0
 40
1.0
 40
1.0
 40
1.0
 10
2678.081966172112
 20
1075.57170313085
 30
0.0
 10
2676.191109206683
 20
1075.014242438732
 30
0.0
 10
2674.168170008278
 20
1074.812794201353
 30
0.0
 10
2669.984606364041
 20
1075.134517683743
 30
0.0
 10
2667.824258833095
 20
1075.657668108264
 30
0.0
 10
2665.662880758905
 20
1076.526752879581
 30
0.0
  0
LINE
  5
4AA
330
456
100
AcDbEntity
  8
0
  6
Continuous
 62
     7
370
    15
100
AcDbLine
 10
2678.081965125806
 20
1075.571703350916
 30
0.0
 11
2639.436334375329
 21
1058.92134288449
 31
0.0
  0
LINE
  5
4AB
330
456
100
AcDbEntity
  8
0
  6
Continuous
 62
     7
370
    15
100
AcDbLine
 10
2637.818951191507
 20
1065.329040492948
 30
0.0
 11
2664.729567917779
 21
1076.923403430361
 31
0.0
  0
SPLINE
  5
4AC
330
456
100
AcDbEntity
  8
0
  6
Continuous
 62
     7
370
    15
100
AcDbSpline
210
0.0
220
0.0
230
1.0
 70
     8
 71
     3
 72
     9
 73
     5
 74
     0
 42
0.0000000001
 43
0.0000000001
 40
0.0
 40
0.0
 40
0.0
 40
0.0
 40
0.5000000000000217
 40
1.0
 40
1.0
 40
1.0
 40
1.0
 10
2665.662880758905
 20
1076.526752879581
 30
0.0
 10
2665.507297561213
 20
1076.590207362478
 30
0.0
 10
2665.196131165828
 20
1076.717116328272
 30
0.0
 10
2664.885089739819
 20
1076.854641151143
 30
0.0
 10
2664.729569026814
 20
1076.923403562578
 30
0.0
  0
LINE
  5
4AD
330
456
100
AcDbEntity
  8
0
  6
Continuous
 62
     7
370
    15
100
AcDbLine
 10
2676.4735843502
 20
1031.136748418875
 30
0.0
 11
2676.464075895323
 21
1034.8424739713
 31
0.0
  0
ARC
  5
4AE
330
456
100
AcDbEntity
  8
0
  6
Continuous
 62
     7
370
    15
100
AcDbCircle
 10
2663.187806470245
 20
1056.003993368667
 30
0.0
 40
28.19382494924127
100
AcDbArc
 50
289.2591622412667
 51
298.1141721858098
  0
LINE
  5
4AF
330
456
100
AcDbEntity
  8
0
  6
Continuous
 62
     7
370
    15
100
AcDbLine
 10
2694.836899268811
 20
1044.675796541667
 30
0.0
 11
2701.31190248203
 21
1047.465533322456
 31
0.0
  0
LINE
  5
4B0
330
456
100
AcDbEntity
  8
0
  6
Continuous
 62
     7
370
    15
100
AcDbLine
 10
2674.435071750375
 20
1035.885726985055
 30
0.0
 11
2694.836899268811
 21
1044.675796541667
 31
0.0
  0
LINE
  5
4B1
330
456
100
AcDbEntity
  8
0
  6
Continuous
 62
     7
370
    15
100
AcDbLine
 10
2701.31155473464
 20
1047.465383496478
 30
0.0
 11
2701.309221762002
 21
1048.374611802136
 31
0.0
  0
SPLINE
  5
4B2
330
456
100
AcDbEntity
  8
0
  6
Continuous
 62
     7
370
    15
100
AcDbSpline
210
0.0
220
0.0
230
1.0
 70
     8
 71
     3
 72
     8
 73
     4
 74
     0
 42
0.0000000001
 43
0.0000000001
 40
0.0
 40
0.0
 40
0.0
 40
0.0
 40
1.0
 40
1.0
 40
1.0
 40
1.0
 10
2679.117593874942
 20
1075.492061519213
 30
0.0
 10
2678.757119180479
 20
1075.637007501198
 30
0.0
 10
2678.397323348641
 20
1075.664676440363
 30
0.0
 10
2678.081966172112
 20
1075.57170313085
 30
0.0
  0
LINE
  5
4B3
330
456
100
AcDbEntity
  8
0
  6
Continuous
 62
     7
370
    15
100
AcDbLine
 10
2701.313438361436
 20
1047.283548843735
 30
0.0
 11
2677.248861944266
 21
1036.915394306296
 31
0.0
  0
LINE
  5
4B4
330
456
100
AcDbEntity
  8
0
  6
Continuous
 62
     7
370
    15
100
AcDbLine
 10
2701.313438361436
 20
1047.283548843735
 30
0.0
 11
2701.31297176517
 21
1047.465395182294
 31
0.0
  0
LINE
  5
4B5
330
456
100
AcDbEntity
  8
0
  6
Continuous
 62
     7
370
    15
100
AcDbLine
 10
2680.450990273951
 20
1037.709413341627
 30
0.0
 11
2676.4735843502
 21
1031.136748418875
 31
0.0
  0
ARC
  5
4B6
330
456
100
AcDbEntity
  8
0
  6
Continuous
 62
     7
370
    15
100
AcDbCircle
 10
2634.471009356519
 20
1042.93704198475
 30
0.0
 40
7.540812051969897
100
AcDbArc
 50
206.7718070847368
 51
222.0896808767641
  0
LINE
  5
4B7
330
456
100
AcDbEntity
  8
0
  6
Continuous
 62
     7
370
    15
100
AcDbLine
 10
2627.882207690728
 20
1039.777822311759
 30
0.0
 11
2627.738515281423
 21
1039.540371566248
 31
0.0
  0
LINE
  5
4B8
330
456
100
AcDbEntity
  8
0
  6
Continuous
 62
     7
370
    15
100
AcDbLine
 10
2627.738515281423
 20
1039.540371566248
 30
0.0
 11
2627.748313774759
 21
1035.721609464698
 31
0.0
  0
ARC
  5
4B9
330
456
100
AcDbEntity
  8
0
  6
Continuous
 62
     7
370
    15
100
AcDbCircle
 10
2634.480807849854
 20
1039.1182798832
 30
0.0
 40
7.540812051968599
100
AcDbArc
 50
206.7718070847309
 51
222.0896808767641
  0
SPLINE
  5
4BA
330
456
100
AcDbEntity
  8
0
  6
Continuous
 62
     7
370
    15
100
AcDbSpline
210
0.0
220
0.0
230
1.0
 70
     8
 71
     3
 72
    11
 73
     7
 74
     0
 42
0.0000000001
 43
0.0000000001
 40
0.0
 40
0.0
 40
0.0
 40
0.0
 40
0.2604784924448796
 40
0.5209567667148049
 40
0.7814346843170021
 40
1.0
 40
1.0
 40
1.0
 40
1.0
 10
2664.729567917779
 20
1076.923403430361
 30
0.0
 10
2664.614082329875
 20
1076.968419099575
 30
0.0
 10
2664.383111250798
 20
1077.058450400299
 30
0.0
 10
2664.044045985813
 20
1077.100074565467
 30
0.0
 10
2663.735364207433
 20
1077.081085305443
 30
0.0
 10
2663.555600255979
 20
1077.011038041463
 30
0.0
 10
2663.47358226247
 20
1076.979078708148
 30
0.0
  0
SPLINE
  5
4BB
330
456
100
AcDbEntity
  8
0
  6
Continuous
 62
     8
370
    15
100
AcDbSpline
210
0.0
220
0.0
230
1.0
 70
     8
 71
     3
 72
    42
 73
    38
 74
     0
 42
0.0000000001
 43
0.0000000001
 40
0.0
 40
0.0
 40
0.0
 40
0.0
 40
0.025384447996906
 40
0.0510702630336991
 40
0.0684617840377799
 40
0.0861396675172459
 40
0.1041751628394287
 40
0.1292415231718187
 40
0.1548346199796951
 40
0.1723013067843438
 40
0.1901648524137968
 40
0.2084919594055926
 40
0.2334411582437645
 40
0.2589794307810514
 40
0.2852487176892929
 40
0.3123839751184313
 40
0.3373338498581159
 40
0.3628501742245489
 40
0.3890056909026369
 40
0.4158668145710611
 40
0.4642617423015638
 40
0.5146364127233325
 40
0.5406453097031924
 40
0.5672277181636656
 40
0.594405070341794
 40
0.6221967983429383
 40
0.6606267732114427
 40
0.7003656942401265
 40
0.7414483332363293
 40
0.7839045260794326
 40
0.8277597279512956
 40
0.8610588085649805
 40
0.8951891904973543
 40
0.9301569663157975
 40
0.9627180284159873
 40
0.9967993858844346
 40
1.0
 40
1.0
 40
1.0
 40
1.0
 10
2640.471962098991
 20
1058.841700729723
 30
0.0
 10
2640.310654143174
 20
1058.7796338982
 30
0.0
 10
2639.986123165229
 20
1058.654763370705
 30
0.0
 10
2639.515412637801
 20
1058.46470629008
 30
0.0
 10
2639.082016571965
 20
1058.286655947525
 30
0.0
 10
2638.691979102842
 20
1058.124447546208
 30
0.0
 10
2638.235541961261
 20
1057.933199433653
 30
0.0
 10
2637.709205582599
 20
1057.711458243957
 30
0.0
 10
2637.180599257741
 20
1057.490014037599
 30
0.0
 10
2636.707408736163
 20
1057.294463881702
 30
0.0
 10
2636.292152254743
 20
1057.125466839805
 30
0.0
 10
2635.823108487658
 20
1056.938228983076
 30
0.0
 10
2635.303252539643
 20
1056.736416188784
 30
0.0
 10
2634.738281166925
 20
1056.526856894
 30
0.0
 10
2634.17653126972
 20
1056.330608391326
 30
0.0
 10
2633.641650623051
 20
1056.157434688159
 30
0.0
 10
2633.13589652806
 20
1056.007842445414
 30
0.0
 10
2632.660775236799
 20
1055.882221760607
 30
0.0
 10
2632.200183163798
 20
1055.77702607724
 30
0.0
 10
2631.641058897038
 20
1055.67229610755
 30
0.0
 10
2631.010955365763
 20
1055.596034933444
 30
0.0
 10
2630.466945212669
 20
1055.58761537601
 30
0.0
 10
2630.068984735666
 20
1055.62043963522
 30
0.0
 10
2629.78717031955
 20
1055.666072974085
 30
0.0
 10
2629.526218504782
 20
1055.732757083456
 30
0.0
 10
2629.258422279312
 20
1055.831179699938
 30
0.0
 10
2628.996160529789
 20
1055.971443676742
 30
0.0
 10
2628.75446534116
 20
1056.163874014429
 30
0.0
 10
2628.559759764681
 20
1056.395927346861
 30
0.0
 10
2628.415497206174
 20
1056.667265869976
 30
0.0
 10
2628.333615068416
 20
1056.949279157163
 30
0.0
 10
2628.300397819721
 20
1057.231135061545
 30
0.0
 10
2628.303762222792
 20
1057.504281482933
 30
0.0
 10
2628.339796784661
 20
1057.787853225308
 30
0.0
 10
2628.411293883111
 20
1058.08297510282
 30
0.0
 10
2628.473052926591
 20
1058.290034743752
 30
0.0
 10
2628.521652868611
 20
1058.40414179411
 30
0.0
 10
2628.525825117391
 20
1058.413937752331
 30
0.0
  0
LWPOLYLINE
  5
4BC
330
456
100
AcDbEntity
  8
0
  6
Continuous
 62
     8
370
    15
100
AcDbPolyline
 90
       51
 70
   128
 43
0.0
 10
2674.444562288176
 20
1045.87311093103
 10
2673.504598471805
 20
1045.487146067027
 10
2672.521170328193
 20
1045.120441961419
 10
2671.496573605749
 20
1044.773856387299
 10
2670.433201304326
 20
1044.448197745601
 10
2669.333539341866
 20
1044.144226537323
 10
2668.200154474413
 20
1043.86265238507
 10
2667.035692959795
 20
1043.604134570376
 10
2665.842875522383
 20
1043.369275411973
 10
2664.624487350066
 20
1043.158623747572
 10
2663.383374240317
 20
1042.972672160331
 10
2662.122436112356
 20
1042.811854183594
 10
2660.844615784081
 20
1042.676545030859
 10
2659.552900269626
 20
1042.567062154838
 10
2658.250303833507
 20
1042.48366017254
 10
2656.939867874358
 20
1042.426534154422
 10
2655.624658368549
 20
1042.395817409906
 10
2654.307742126466
 20
1042.39158238827
 10
2652.992196107998
 20
1042.413838013712
 10
2651.681094136839
 20
1042.462532865902
 10
2650.377497778781
 20
1042.537552362992
 10
2649.084449621351
 20
1042.638722544664
 10
2647.804972092516
 20
1042.765806223921
 10
2646.542051502341
 20
1042.918507242299
 10
2645.298640086233
 20
1043.096468567488
 10
2644.077639455949
 20
1043.299274624435
 10
2642.881903862884
 20
1043.526452144787
 10
2641.714221131474
 20
1043.777469187125
 10
2640.577324298517
 20
1044.051741264818
 10
2639.47386413178
 20
1044.348626184225
 10
2638.406421359971
 20
1044.667432096657
 10
2637.377488017726
 20
1045.007414191504
 10
2636.389463436656
 20
1045.367776308235
 10
2635.444660205294
 20
1045.747679347908
 10
2634.545284923453
 20
1046.146236042203
 10
2633.69343302397
 20
1046.562513035585
 10
2632.891098243913
 20
1046.995540046547
 10
2632.140155235425
 20
1047.444306051757
 10
2631.442354194333
 20
1047.907761445877
 10
2630.799329184779
 20
1048.384825502246
 10
2630.212576959547
 20
1048.874381919579
 10
2629.6834716655
 20
1049.375289120942
 10
2629.213247691932
 20
1049.886376342392
 10
2628.803004705803
 20
1050.406450254717
 10
2628.453698876125
 20
1050.934296330492
 10
2628.16614739606
 20
1051.468681348949
 10
2627.941020760321
 20
1052.008357582021
 10
2627.778845026219
 20
1052.552064046774
 10
2627.680000322323
 20
1053.098531428277
 10
2627.644714873767
 20
1053.646483401203
 10
2627.644635340659
 20
1053.664701999238
  0
SPLINE
  5
4BD
330
456
100
AcDbEntity
  8
0
  6
Continuous
 62
     8
370
    15
100
AcDbSpline
210
0.0
220
0.0
230
1.0
 70
     8
 71
     3
 72
    38
 73
    34
 74
     0
 42
0.0000000001
 43
0.0000000001
 40
0.0
 40
0.0
 40
0.0
 40
0.0
 40
0.0057562623522352
 40
0.0388977260698003
 40
0.0720391841408882
 40
0.1051806394920333
 40
0.1383220949385992
 40
0.1714635594918881
 40
0.2046050139224945
 40
0.237746467838676
 40
0.2708879289969295
 40
0.3040293852099428
 40
0.3371708415057022
 40
0.3703122978014615
 40
0.4034537522205765
 40
0.4365952151505394
 40
0.4697366621123279
 40
0.5028781233220033
 40
0.5360195878752922
 40
0.5691610307131062
 40
0.6023025100959773
 40
0.635443956818166
 40
0.668585420535731
 40
0.7017268842532962
 40
0.7348683309754848
 40
0.7680098103583558
 40
0.8011512531961699
 40
0.8342927046255606
 40
0.8674341793933743
 40
0.9005756263551628
 40
0.9337170892851258
 40
0.9668585437042407
 40
1.0
 40
1.0
 40
1.0
 40
1.0
 10
2627.73133719981
 20
1043.662713063048
 30
0.0
 10
2627.727660670033
 20
1043.611244935878
 30
0.0
 10
2627.702816658523
 20
1043.263451004761
 30
0.0
 10
2627.819166666146
 20
1042.619548776633
 30
0.0
 10
2628.089558748542
 20
1041.737967828311
 30
0.0
 10
2628.540713445545
 20
1040.868621589042
 30
0.0
 10
2629.150397968835
 20
1040.016949855005
 30
0.0
 10
2629.920060788135
 20
1039.188181495977
 30
0.0
 10
2630.843563785486
 20
1038.387432325646
 30
0.0
 10
2631.915589024084
 20
1037.619638369819
 30
0.0
 10
2633.129419028687
 20
1036.889531486903
 30
0.0
 10
2634.47760823473
 20
1036.201616327065
 30
0.0
 10
2635.951825611998
 20
1035.560130185129
 30
0.0
 10
2637.542994363067
 20
1034.969032054331
 30
0.0
 10
2639.24129468937
 20
1034.431961817709
 30
0.0
 10
2641.036264965005
 20
1033.952235690742
 30
0.0
 10
2642.916831337722
 20
1033.532806695635
 30
0.0
 10
2644.871404008406
 20
1033.176263771745
 30
0.0
 10
2646.887931070986
 20
1032.884804690817
 30
0.0
 10
2648.953979693658
 20
1032.660225221601
 30
0.0
 10
2651.056811819759
 20
1032.50391085736
 30
0.0
 10
2653.183463445148
 20
1032.41682448119
 30
0.0
 10
2655.320822437334
 20
1032.399504893074
 30
0.0
 10
2657.455711792436
 20
1032.452056349146
 30
0.0
 10
2659.574968173844
 20
1032.574157706056
 30
0.0
 10
2661.665529340553
 20
1032.765052644265
 30
0.0
 10
2663.714491336907
 20
1033.023571260185
 30
0.0
 10
2665.709279009981
 20
1033.348095683588
 30
0.0
 10
2667.637381482907
 20
1033.736711965739
 30
0.0
 10
2669.487697684646
 20
1034.186707457539
 30
0.0
 10
2671.245888584593
 20
1034.696485313647
 30
0.0
 10
2672.912060514355
 20
1035.25850274226
 30
0.0
 10
2673.927401328786
 20
1035.676652233511
 30
0.0
 10
2674.435071750375
 20
1035.885726985055
 30
0.0
  0
ARC
  5
4BE
330
456
100
AcDbEntity
  8
0
  6
Continuous
 62
     8
370
    15
100
AcDbCircle
 10
2637.122093256902
 20
1063.948340012716
 30
0.0
 40
1.546591347814753
100
AcDbArc
 50
63.21931333731623
 51
111.2697286470176
  0
ENDBLK
  5
458
330
456
100
AcDbEntity
  8
0
100
AcDbBlockEnd
  0
ENDSEC
  0
SECTION
  2
ENTITIES
  0
INSERT
  5
41D
330
1F
100
AcDbEntity
  8
0
100
AcDbBlockReference
  2
1
 10
0.0
 20
0.0
 30
0.0
  0
INSERT
  5
455
330
1F
100
AcDbEntity
  8
0
100
AcDbBlockReference
  2
2
 10
0.0
 20
0.0
 30
0.0
  0
INSERT
  5
4BF
330
1F
100
AcDbEntity
  8
0
100
AcDbBlockReference
  2
3
 10
0.0
 20
0.0
 30
0.0
  0
ENDSEC
  0
SECTION
  2
OBJECTS
  0
DICTIONARY
  5
C
330
0
100
AcDbDictionary
281
     1
  3
ACAD_COLOR
350
6B
  3
ACAD_GROUP
350
D
  3
ACAD_LAYOUT
350
1A
  3
ACAD_MATERIAL
350
6A
  3
ACAD_MLEADERSTYLE
350
12D
  3
ACAD_MLINESTYLE
350
17
  3
ACAD_PLOTSETTINGS
350
19
  3
ACAD_PLOTSTYLENAME
350
E
  3
ACAD_SCALELIST
350
10C
  3
ACAD_TABLESTYLE
350
7E
  3
ACAD_VISUALSTYLE
350
EF
  3
ACDB_RECOMPOSE_DATA
350
15D
  3
AcDbVariableDictionary
350
5E
  3
DWGPROPS
350
4CD
  0
DICTIONARY
  5
13C
330
10
100
AcDbDictionary
280
     1
281
     1
  3
ADSK_XREC_LAYER_RECONCILED
360
4C0
  0
DICTIONARY
  5
6B
102
{ACAD_REACTORS
330
C
102
}
330
C
100
AcDbDictionary
281
     1
  0
DICTIONARY
  5
D
102
{ACAD_REACTORS
330
C
102
}
330
C
100
AcDbDictionary
281
     1
  0
DICTIONARY
  5
1A
102
{ACAD_REACTORS
330
C
102
}
330
C
100
AcDbDictionary
281
     1
  3
Layout1
350
D3
  3
Layout2
350
D7
  3
Model
350
22
  0
DICTIONARY
  5
6A
102
{ACAD_REACTORS
330
C
102
}
330
C
100
AcDbDictionary
281
     1
  3
ByBlock
350
ED
  3
ByLayer
350
EC
  3
Global
350
EE
  0
DICTIONARY
  5
12D
102
{ACAD_REACTORS
330
C
102
}
330
C
100
AcDbDictionary
281
     1
  3
Annotative
350
13B
  3
Standard
350
12E
  0
DICTIONARY
  5
17
102
{ACAD_REACTORS
330
C
102
}
330
C
100
AcDbDictionary
281
     1
  3
Standard
350
18
  0
DICTIONARY
  5
19
102
{ACAD_REACTORS
330
C
102
}
330
C
100
AcDbDictionary
281
     1
  0
ACDBDICTIONARYWDFLT
  5
E
102
{ACAD_REACTORS
330
C
102
}
330
C
100
AcDbDictionary
281
     1
  3
Normal
350
F
100
AcDbDictionaryWithDefault
340
F
  0
DICTIONARY
  5
10C
102
{ACAD_REACTORS
330
C
102
}
330
C
100
AcDbDictionary
281
     1
  3
A0
350
10D
  3
A1
350
188
  3
A2
350
189
  3
A3
350
18A
  3
A4
350
18B
  3
A5
350
18C
  3
A6
350
18D
  3
A7
350
18E
  3
A8
350
18F
  3
A9
350
190
  3
B0
350
191
  3
B1
350
192
  3
B2
350
193
  3
B3
350
194
  3
B4
350
195
  3
B5
350
196
  3
B6
350
197
  3
B7
350
198
  3
B8
350
199
  3
B9
350
19A
  3
C0
350
19B
  3
C1
350
19C
  3
C2
350
19D
  3
C3
350
19E
  3
C4
350
19F
  3
C5
350
1A0
  3
C6
350
1A1
  3
C7
350
1A2
  3
C8
350
1A3
  3
C9
350
1A4
  3
D0
350
1A5
  3
D1
350
1A6
  3
D2
350
1A7
  0
DICTIONARY
  5
7E
102
{ACAD_REACTORS
330
C
102
}
330
C
100
AcDbDictionary
281
     1
  3
Standard
350
7F
  0
DICTIONARY
  5
EF
102
{ACAD_REACTORS
330
C
102
}
330
C
100
AcDbDictionary
281
     1
  3
2dWireframe
350
F5
  3
3D Hidden
350
F7
  3
3dWireframe
350
F6
  3
Basic
350
F4
  3
Brighten
350
FB
  3
ColorChange
350
FF
  3
Conceptual
350
F8
  3
Dim
350
FA
  3
Facepattern
350
FE
  3
Flat
350
F0
  3
FlatWithEdges
350
F1
  3
Gouraud
350
F2
  3
GouraudWithEdges
350
F3
  3
Linepattern
350
FD
  3
Realistic
350
F9
  3
Thicken
350
FC
  0
XRECORD
  5
15D
102
{ACAD_REACTORS
330
C
102
}
330
C
100
AcDbXrecord
280
     1
 90
        1
330
7F
  0
DICTIONARY
  5
5E
102
{ACAD_REACTORS
330
C
102
}
330
C
100
AcDbDictionary
281
     1
  3
CANNOSCALE
350
146
  3
CMLEADERSTYLE
350
145
  3
CTABLESTYLE
350
84
  3
DIMASSOC
350
5F
  3
HIDETEXT
350
63
  3
INDEXCTL
350
4C9
  3
LIGHTINGUNITS
350
4C7
  3
MSLTSCALE
350
4C6
  3
PSOLHEIGHT
350
4CB
  3
PSOLWIDTH
350
4CA
  3
SORTENTS
350
4C8
  0
XRECORD
  5
4CD
102
{ACAD_REACTORS
330
C
102
}
330
C
100
AcDbXrecord
280
     1
  1
DWGPROPS COOKIE
  2

  3

  4

  6

  7

  8
orhan kara
  9

300
=
301
=
302
=
303
=
304
=
305
=
306
=
307
=
308
=
309
=
 40
0.0019555324074074
 41
2459059.797981655
 42
2459067.60445375
  1

 90
        0
  0
XRECORD
  5
4C0
102
{ACAD_REACTORS
330
13C
102
}
330
13C
100
AcDbXrecord
280
     1
290
     1
  0
LAYOUT
  5
D3
102
{ACAD_XDICTIONARY
360
4D1
102
}
102
{ACAD_REACTORS
330
1A
102
}
330
1A
100
AcDbPlotSettings
  1

  2
C:\Documents and Settings\basas\Application Data\Autodesk\AutoCAD 2005\R16.1\enu\plotters\Default Windows System Printer.pc3
  4

  6

 40
0.0
 41
0.0
 42
0.0
 43
0.0
 44
0.0
 45
0.0
 46
0.0
 47
0.0
 48
0.0
 49
0.0
140
0.0
141
0.0
142
1.0
143
1.0
 70
   688
 72
     0
 73
     0
 74
     5
  7

 75
    16
147
1.0
148
0.0
149
0.0
100
AcDbLayout
  1
Layout1
 70
     1
 71
     1
 10
0.0
 20
0.0
 11
12.0
 21
9.0
 12
0.0
 22
0.0
 32
0.0
 14
0.0
 24
0.0
 34
0.0
 15
0.0
 25
0.0
 35
0.0
146
0.0
 13
0.0
 23
0.0
 33
0.0
 16
1.0
 26
0.0
 36
0.0
 17
0.0
 27
1.0
 37
0.0
 76
     0
330
D2
  0
LAYOUT
  5
D7
102
{ACAD_XDICTIONARY
360
4D3
102
}
102
{ACAD_REACTORS
330
1A
102
}
330
1A
100
AcDbPlotSettings
  1

  2
C:\Documents and Settings\basas\Application Data\Autodesk\AutoCAD 2005\R16.1\enu\plotters\Default Windows System Printer.pc3
  4

  6

 40
0.0
 41
0.0
 42
0.0
 43
0.0
 44
0.0
 45
0.0
 46
0.0
 47
0.0
 48
0.0
 49
0.0
140
0.0
141
0.0
142
1.0
143
1.0
 70
   688
 72
     0
 73
     0
 74
     5
  7

 75
    16
147
1.0
148
0.0
149
0.0
100
AcDbLayout
  1
Layout2
 70
     1
 71
     2
 10
0.0
 20
0.0
 11
12.0
 21
9.0
 12
0.0
 22
0.0
 32
0.0
 14
0.0
 24
0.0
 34
0.0
 15
0.0
 25
0.0
 35
0.0
146
0.0
 13
0.0
 23
0.0
 33
0.0
 16
1.0
 26
0.0
 36
0.0
 17
0.0
 27
1.0
 37
0.0
 76
     0
330
D6
  0
LAYOUT
  5
22
102
{ACAD_XDICTIONARY
360
4CE
102
}
102
{ACAD_REACTORS
330
1A
102
}
330
1A
100
AcDbPlotSettings
  1

  2
none_device
  4
ISO_A4_(210.00_x_297.00_MM)
  6

 40
7.5
 41
20.0
 42
7.5
 43
20.0
 44
210.0
 45
297.0
 46
11.54999923706054
 47
-13.65000009536743
 48
0.0
 49
0.0
140
0.0
141
0.0
142
1.0
143
8.704084754739808
 70
 11952
 72
     1
 73
     0
 74
     0
  7

 75
     0
147
0.1148885871608098
148
0.0
149
0.0
100
AcDbLayout
  1
Model
 70
     1
 71
     0
 10
0.0
 20
0.0
 11
12.0
 21
9.0
 12
0.0
 22
0.0
 32
0.0
 14
0.0
 24
0.0
 34
0.0
 15
0.0
 25
0.0
 35
0.0
146
0.0
 13
0.0
 23
0.0
 33
0.0
 16
1.0
 26
0.0
 36
0.0
 17
0.0
 27
1.0
 37
0.0
 76
     0
330
1F
331
EA
1001
ACAD_PSEXT
1000
None
1000
None
1000
Not applicable
1000
The layout will not be plotted unless a new plotter configuration name is selected.
1070
     0
  0
MATERIAL
  5
ED
102
{ACAD_XDICTIONARY
360
4D7
102
}
102
{ACAD_REACTORS
330
6A
102
}
330
6A
100
AcDbMaterial
  1
ByBlock
  0
MATERIAL
  5
EC
102
{ACAD_XDICTIONARY
360
4D5
102
}
102
{ACAD_REACTORS
330
6A
102
}
330
6A
100
AcDbMaterial
  1
ByLayer
  0
MATERIAL
  5
EE
102
{ACAD_XDICTIONARY
360
173
102
}
102
{ACAD_REACTORS
330
6A
102
}
330
6A
100
AcDbMaterial
  1
Global
 43
0.0007999999797903
 43
0.0
 43
0.0
 43
0.0
 43
0.0
 43
0.0007999999797903
 43
0.0
 43
0.0
 43
0.0
 43
0.0
 43
1.0
 43
0.0
 43
0.0
 43
0.0
 43
0.0
 43
1.0
 49
0.0007999999797903
 49
0.0
 49
0.0
 49
0.0
 49
0.0
 49
0.0007999999797903
 49
0.0
 49
0.0
 49
0.0
 49
0.0
 49
1.0
 49
0.0
 49
0.0
 49
0.0
 49
0.0
 49
1.0
142
0.0007999999797903
142
0.0
142
0.0
142
0.0
142
0.0
142
0.0007999999797903
142
0.0
142
0.0
142
0.0
142
0.0
142
1.0
142
0.0
142
0.0
142
0.0
142
0.0
142
1.0
144
0.0007999999797903
144
0.0
144
0.0
144
0.0
144
0.0
144
0.0007999999797903
144
0.0
144
0.0
144
0.0
144
0.0
144
1.0
144
0.0
144
0.0
144
0.0
144
0.0
144
1.0
1001
ACAD
1070
    -1
1070
     3
1070
     0
1000

1071
        0
1070
     0
  0
MLEADERSTYLE
  5
13B
102
{ACAD_REACTORS
330
12D
102
}
330
12D
100
AcDbMLeaderStyle
170
     2
171
     1
172
     0
 90
        2
 40
0.0
 41
0.0
173
     1
 91
-1056964608
340
14
 92
       -2
290
     1
 42
2.0
291
     1
 43
8.0
  3
Standard
 44
4.0
300

342
11
174
     1
178
     1
175
     1
176
     0
 93
-1056964608
 45
4.0
292
     0
297
     0
 46
4.0
 94
-1056964608
 47
1.0
 49
1.0
140
1.0
293
     1
141
0.0
294
     1
177
     0
142
1.0
295
     0
296
     1
143
3.75
1001
ACAD_MLEADERVER
1070
     2
  0
MLEADERSTYLE
  5
12E
102
{ACAD_REACTORS
330
12D
102
}
330
12D
100
AcDbMLeaderStyle
170
     2
171
     1
172
     0
 90
        2
 40
0.0
 41
0.0
173
     1
 91
-1056964608
340
14
 92
       -2
290
     1
 42
2.0
291
     1
 43
8.0
  3
Standard
 44
4.0
300

342
11
174
     1
178
     1
175
     1
176
     0
 93
-1056964608
 45
4.0
292
     0
297
     0
 46
4.0
 94
-1056964608
 47
1.0
 49
1.0
140
1.0
293
     1
141
0.0
294
     1
177
     0
142
1.0
295
     0
296
     0
143
3.75
1001
ACAD_MLEADERVER
1070
     2
  0
MLINESTYLE
  5
18
102
{ACAD_REACTORS
330
17
102
}
330
17
100
AcDbMlineStyle
  2
STANDARD
 70
     0
  3

 62
   256
 51
90.0
 52
90.0
 71
     2
 49
0.5
 62
   256
  6
BYLAYER
 49
-0.5
 62
   256
  6
BYLAYER
  0
ACDBPLACEHOLDER
  5
F
102
{ACAD_REACTORS
330
E
102
}
330
E
  0
SCALE
  5
10D
102
{ACAD_REACTORS
330
10C
102
}
330
10C
100
AcDbScale
 70
     0
300
1:1
140
1.0
141
1.0
290
     1
  0
SCALE
  5
188
102
{ACAD_REACTORS
330
10C
102
}
330
10C
100
AcDbScale
 70
     0
300
1:2
140
1.0
141
2.0
290
     0
  0
SCALE
  5
189
102
{ACAD_REACTORS
330
10C
102
}
330
10C
100
AcDbScale
 70
     0
300
1:4
140
1.0
141
4.0
290
     0
  0
SCALE
  5
18A
102
{ACAD_REACTORS
330
10C
102
}
330
10C
100
AcDbScale
 70
     0
300
1:5
140
1.0
141
5.0
290
     0
  0
SCALE
  5
18B
102
{ACAD_REACTORS
330
10C
102
}
330
10C
100
AcDbScale
 70
     0
300
1:8
140
1.0
141
8.0
290
     0
  0
SCALE
  5
18C
102
{ACAD_REACTORS
330
10C
102
}
330
10C
100
AcDbScale
 70
     0
300
1:10
140
1.0
141
10.0
290
     0
  0
SCALE
  5
18D
102
{ACAD_REACTORS
330
10C
102
}
330
10C
100
AcDbScale
 70
     0
300
1:16
140
1.0
141
16.0
290
     0
  0
SCALE
  5
18E
102
{ACAD_REACTORS
330
10C
102
}
330
10C
100
AcDbScale
 70
     0
300
1:20
140
1.0
141
20.0
290
     0
  0
SCALE
  5
18F
102
{ACAD_REACTORS
330
10C
102
}
330
10C
100
AcDbScale
 70
     0
300
1:30
140
1.0
141
30.0
290
     0
  0
SCALE
  5
190
102
{ACAD_REACTORS
330
10C
102
}
330
10C
100
AcDbScale
 70
     0
300
1:40
140
1.0
141
40.0
290
     0
  0
SCALE
  5
191
102
{ACAD_REACTORS
330
10C
102
}
330
10C
100
AcDbScale
 70
     0
300
1:50
140
1.0
141
50.0
290
     0
  0
SCALE
  5
192
102
{ACAD_REACTORS
330
10C
102
}
330
10C
100
AcDbScale
 70
     0
300
1:100
140
1.0
141
100.0
290
     0
  0
SCALE
  5
193
102
{ACAD_REACTORS
330
10C
102
}
330
10C
100
AcDbScale
 70
     0
300
2:1
140
2.0
141
1.0
290
     0
  0
SCALE
  5
194
102
{ACAD_REACTORS
330
10C
102
}
330
10C
100
AcDbScale
 70
     0
300
4:1
140
4.0
141
1.0
290
     0
  0
SCALE
  5
195
102
{ACAD_REACTORS
330
10C
102
}
330
10C
100
AcDbScale
 70
     0
300
8:1
140
8.0
141
1.0
290
     0
  0
SCALE
  5
196
102
{ACAD_REACTORS
330
10C
102
}
330
10C
100
AcDbScale
 70
     0
300
10:1
140
10.0
141
1.0
290
     0
  0
SCALE
  5
197
102
{ACAD_REACTORS
330
10C
102
}
330
10C
100
AcDbScale
 70
     0
300
100:1
140
100.0
141
1.0
290
     0
  0
SCALE
  5
198
102
{ACAD_REACTORS
330
10C
102
}
330
10C
100
AcDbScale
 70
     0
300
1/128" = 1'-0"
140
0.0078125
141
12.0
290
     0
  0
SCALE
  5
199
102
{ACAD_REACTORS
330
10C
102
}
330
10C
100
AcDbScale
 70
     0
300
1/64" = 1'-0"
140
0.015625
141
12.0
290
     0
  0
SCALE
  5
19A
102
{ACAD_REACTORS
330
10C
102
}
330
10C
100
AcDbScale
 70
     0
300
1/32" = 1'-0"
140
0.03125
141
12.0
290
     0
  0
SCALE
  5
19B
102
{ACAD_REACTORS
330
10C
102
}
330
10C
100
AcDbScale
 70
     0
300
1/16" = 1'-0"
140
0.0625
141
12.0
290
     0
  0
SCALE
  5
19C
102
{ACAD_REACTORS
330
10C
102
}
330
10C
100
AcDbScale
 70
     0
300
3/32" = 1'-0"
140
0.09375
141
12.0
290
     0
  0
SCALE
  5
19D
102
{ACAD_REACTORS
330
10C
102
}
330
10C
100
AcDbScale
 70
     0
300
1/8" = 1'-0"
140
0.125
141
12.0
290
     0
  0
SCALE
  5
19E
102
{ACAD_REACTORS
330
10C
102
}
330
10C
100
AcDbScale
 70
     0
300
3/16" = 1'-0"
140
0.1875
141
12.0
290
     0
  0
SCALE
  5
19F
102
{ACAD_REACTORS
330
10C
102
}
330
10C
100
AcDbScale
 70
     0
300
1/4" = 1'-0"
140
0.25
141
12.0
290
     0
  0
SCALE
  5
1A0
102
{ACAD_REACTORS
330
10C
102
}
330
10C
100
AcDbScale
 70
     0
300
3/8" = 1'-0"
140
0.375
141
12.0
290
     0
  0
SCALE
  5
1A1
102
{ACAD_REACTORS
330
10C
102
}
330
10C
100
AcDbScale
 70
     0
300
1/2" = 1'-0"
140
0.5
141
12.0
290
     0
  0
SCALE
  5
1A2
102
{ACAD_REACTORS
330
10C
102
}
330
10C
100
AcDbScale
 70
     0
300
3/4" = 1'-0"
140
0.75
141
12.0
290
     0
  0
SCALE
  5
1A3
102
{ACAD_REACTORS
330
10C
102
}
330
10C
100
AcDbScale
 70
     0
300
1" = 1'-0"
140
1.0
141
12.0
290
     0
  0
SCALE
  5
1A4
102
{ACAD_REACTORS
330
10C
102
}
330
10C
100
AcDbScale
 70
     0
300
1-1/2" = 1'-0"
140
1.5
141
12.0
290
     0
  0
SCALE
  5
1A5
102
{ACAD_REACTORS
330
10C
102
}
330
10C
100
AcDbScale
 70
     0
300
3" = 1'-0"
140
3.0
141
12.0
290
     0
  0
SCALE
  5
1A6
102
{ACAD_REACTORS
330
10C
102
}
330
10C
100
AcDbScale
 70
     0
300
6" = 1'-0"
140
6.0
141
12.0
290
     0
  0
SCALE
  5
1A7
102
{ACAD_REACTORS
330
10C
102
}
330
10C
100
AcDbScale
 70
     0
300
1'-0" = 1'-0"
140
12.0
141
12.0
290
     0
  0
TABLESTYLE
  5
7F
102
{ACAD_XDICTIONARY
360
162
102
}
102
{ACAD_REACTORS
330
7E
102
}
330
7E
100
AcDbTableStyle
  3
Standard
 70
     0
 71
     0
 40
1.5
 41
1.5
280
     0
281
     0
  7
Standard
140
4.5
170
     2
 62
     0
 63
     7
283
     0
274
    -2
284
     1
 64
     0
275
    -2
285
     1
 65
     0
276
    -2
286
     1
 66
     0
277
    -2
287
     1
 67
     0
278
    -2
288
     1
 68
     0
279
    -2
289
     1
 69
     0
  7
Standard
140
6.0
170
     5
 62
     0
 63
     7
283
     0
274
    -2
284
     1
 64
     0
275
    -2
285
     1
 65
     0
276
    -2
286
     1
 66
     0
277
    -2
287
     1
 67
     0
278
    -2
288
     1
 68
     0
279
    -2
289
     1
 69
     0
  7
Standard
140
4.5
170
     5
 62
     0
 63
     7
283
     0
274
    -2
284
     1
 64
     0
275
    -2
285
     1
 65
     0
276
    -2
286
     1
 66
     0
277
    -2
287
     1
 67
     0
278
    -2
288
     1
 68
     0
279
    -2
289
     1
 69
     0
  0
VISUALSTYLE
  5
F5
102
{ACAD_REACTORS
330
EF
102
}
330
EF
100
AcDbVisualStyle
  2
2dWireframe
 70
     4
 71
     0
 72
     2
 73
     1
 90
        0
 40
-0.6
 41
-30.0
 62
     5
 63
     7
 74
     1
 91
        4
 64
     7
 65
   257
 75
     1
175
     1
 42
1.0
 92
        0
 66
   257
 43
1.0
 76
     1
 77
     6
 78
     2
 67
     7
 79
     5
170
     0
171
     0
290
     0
174
     0
 93
        1
 44
0.0
173
     0
291
     0
 45
0.0
1001
ACAD
1000
AcDbSavedByObjectVersion
1070
     0
  0
VISUALSTYLE
  5
F7
102
{ACAD_REACTORS
330
EF
102
}
330
EF
100
AcDbVisualStyle
  2
3D Hidden
 70
     6
 71
     1
 72
     2
 73
     2
 90
        0
 40
-0.6
 41
-30.0
 62
     5
 63
     7
 74
     2
 91
        2
 64
     7
 65
   257
 75
     2
175
     1
 42
40.0
 92
        0
 66
   257
 43
1.0
 76
     1
 77
     6
 78
     2
 67
     7
 79
     3
170
     0
171
     0
290
     0
174
     0
 93
        1
 44
0.0
173
     0
291
     0
 45
0.0
1001
ACAD
1000
AcDbSavedByObjectVersion
1070
     0
  0
VISUALSTYLE
  5
F6
102
{ACAD_REACTORS
330
EF
102
}
330
EF
100
AcDbVisualStyle
  2
3dWireframe
 70
     5
 71
     0
 72
     2
 73
     1
 90
        0
 40
-0.6
 41
-30.0
 62
     5
 63
     7
 74
     1
 91
        4
 64
     7
 65
   257
 75
     1
175
     1
 42
1.0
 92
        0
 66
   257
 43
1.0
 76
     1
 77
     6
 78
     2
 67
     7
 79
     5
170
     0
171
     0
290
     0
174
     0
 93
        1
 44
0.0
173
     0
291
     0
 45
0.0
1001
ACAD
1000
AcDbSavedByObjectVersion
1070
     0
  0
VISUALSTYLE
  5
F4
102
{ACAD_REACTORS
330
EF
102
}
330
EF
100
AcDbVisualStyle
  2
Basic
 70
     7
 71
     1
 72
     0
 73
     1
 90
        0
 40
-0.6
 41
-30.0
 62
     5
 63
     7
 74
     0
 91
        4
 64
     7
 65
   257
 75
     1
175
     1
 42
1.0
 92
        8
 66
     7
 43
1.0
 76
     1
 77
     6
 78
     2
 67
     7
 79
     5
170
     0
171
     0
290
     0
174
     0
 93
        1
 44
0.0
173
     0
291
     1
 45
0.0
1001
ACAD
1000
AcDbSavedByObjectVersion
1070
     0
  0
VISUALSTYLE
  5
FB
102
{ACAD_REACTORS
330
EF
102
}
330
EF
100
AcDbVisualStyle
  2
Brighten
 70
    12
 71
     2
 72
     2
 73
     1
 90
        0
 40
-0.6
 41
-30.0
 62
     5
 63
     7
 74
     1
 91
        4
 64
     7
 65
   257
 75
     1
175
     1
 42
1.0
 92
        8
 66
     7
 43
1.0
 76
     1
 77
     6
 78
     2
 67
     7
 79
     5
170
     0
171
     0
290
     0
174
     0
 93
        1
 44
50.0
173
     0
291
     1
 45
0.0
1001
ACAD
1000
AcDbSavedByObjectVersion
1070
     0
  0
VISUALSTYLE
  5
FF
102
{ACAD_REACTORS
330
EF
102
}
330
EF
100
AcDbVisualStyle
  2
ColorChange
 70
    16
 71
     2
 72
     2
 73
     3
 90
        0
 40
-0.6
 41
-30.0
 62
     5
 63
     8
 74
     1
 91
        4
 64
     7
 65
   257
 75
     1
175
     1
 42
1.0
 92
        8
 66
     8
 43
1.0
 76
     1
 77
     6
 78
     2
 67
     7
 79
     5
170
     0
171
     0
290
     0
174
     0
 93
        1
 44
0.0
173
     0
291
     1
 45
0.0
1001
ACAD
1000
AcDbSavedByObjectVersion
1070
     0
  0
VISUALSTYLE
  5
F8
102
{ACAD_REACTORS
330
EF
102
}
330
EF
100
AcDbVisualStyle
  2
Conceptual
 70
     9
 71
     3
 72
     2
 73
     1
 90
        0
 40
-0.6
 41
-30.0
 62
     5
 63
     7
 74
     2
 91
        2
 64
     7
 65
   257
 75
     1
175
     1
 42
40.0
 92
        8
 66
     7
 43
1.0
 76
     1
 77
     6
 78
     2
 67
     7
 79
     3
170
     0
171
     0
290
     0
174
     0
 93
        1
 44
0.0
173
     0
291
     0
 45
0.0
1001
ACAD
1000
AcDbSavedByObjectVersion
1070
     0
  0
VISUALSTYLE
  5
FA
102
{ACAD_REACTORS
330
EF
102
}
330
EF
100
AcDbVisualStyle
  2
Dim
 70
    11
 71
     2
 72
     2
 73
     1
 90
        0
 40
-0.6
 41
-30.0
 62
     5
 63
     7
 74
     1
 91
        4
 64
     7
 65
   257
 75
     1
175
     1
 42
1.0
 92
        8
 66
     7
 43
1.0
 76
     1
 77
     6
 78
     2
 67
     7
 79
     5
170
     0
171
     0
290
     0
174
     0
 93
        1
 44
-50.0
173
     0
291
     1
 45
0.0
1001
ACAD
1000
AcDbSavedByObjectVersion
1070
     0
  0
VISUALSTYLE
  5
FE
102
{ACAD_REACTORS
330
EF
102
}
330
EF
100
AcDbVisualStyle
  2
Facepattern
 70
    15
 71
     2
 72
     2
 73
     1
 90
        0
 40
-0.6
 41
-30.0
 62
     5
 63
     7
 74
     1
 91
        4
 64
     7
 65
   257
 75
     1
175
     1
 42
1.0
 92
        8
 66
     7
 43
1.0
 76
     1
 77
     6
 78
     2
 67
     7
 79
     5
170
     0
171
     0
290
     0
174
     0
 93
        1
 44
0.0
173
     0
291
     1
 45
0.0
1001
ACAD
1000
AcDbSavedByObjectVersion
1070
     0
  0
VISUALSTYLE
  5
F0
102
{ACAD_REACTORS
330
EF
102
}
330
EF
100
AcDbVisualStyle
  2
Flat
 70
     0
 71
     2
 72
     1
 73
     1
 90
        2
 40
-0.6
 41
30.0
 62
     5
 63
     7
 74
     0
 91
        4
 64
     7
 65
   257
 75
     1
175
     1
 42
1.0
 92
        8
 66
     7
 43
1.0
 76
     1
 77
     6
 78
     2
 67
     7
 79
     5
170
     0
171
     0
290
     0
174
     0
 93
        1
 44
0.0
173
     0
291
     1
 45
0.0
1001
ACAD
1000
AcDbSavedByObjectVersion
1070
     0
  0
VISUALSTYLE
  5
F1
102
{ACAD_REACTORS
330
EF
102
}
330
EF
100
AcDbVisualStyle
  2
FlatWithEdges
 70
     1
 71
     2
 72
     1
 73
     1
 90
        2
 40
-0.6
 41
30.0
 62
     5
 63
     7
 74
     1
 91
        4
 64
     7
 65
   257
 75
     1
175
     1
 42
1.0
 92
        0
 66
   257
 43
1.0
 76
     1
 77
     6
 78
     2
 67
     7
 79
     5
170
     0
171
     0
290
     0
174
     0
 93
        1
 44
0.0
173
     0
291
     1
 45
0.0
1001
ACAD
1000
AcDbSavedByObjectVersion
1070
     0
  0
VISUALSTYLE
  5
F2
102
{ACAD_REACTORS
330
EF
102
}
330
EF
100
AcDbVisualStyle
  2
Gouraud
 70
     2
 71
     2
 72
     2
 73
     1
 90
        2
 40
-0.6
 41
30.0
 62
     5
 63
     7
 74
     0
 91
        4
 64
     7
 65
   257
 75
     1
175
     1
 42
1.0
 92
        0
 66
     7
 43
1.0
 76
     1
 77
     6
 78
     2
 67
     7
 79
     5
170
     0
171
     0
290
     0
174
     0
 93
        1
 44
0.0
173
     0
291
     1
 45
0.0
1001
ACAD
1000
AcDbSavedByObjectVersion
1070
     0
  0
VISUALSTYLE
  5
F3
102
{ACAD_REACTORS
330
EF
102
}
330
EF
100
AcDbVisualStyle
  2
GouraudWithEdges
 70
     3
 71
     2
 72
     2
 73
     1
 90
        2
 40
-0.6
 41
30.0
 62
     5
 63
     7
 74
     1
 91
        4
 64
     7
 65
   257
 75
     1
175
     1
 42
1.0
 92
        0
 66
   257
 43
1.0
 76
     1
 77
     6
 78
     2
 67
     7
 79
     5
170
     0
171
     0
290
     0
174
     0
 93
        1
 44
0.0
173
     0
291
     1
 45
0.0
1001
ACAD
1000
AcDbSavedByObjectVersion
1070
     0
  0
VISUALSTYLE
  5
FD
102
{ACAD_REACTORS
330
EF
102
}
330
EF
100
AcDbVisualStyle
  2
Linepattern
 70
    14
 71
     2
 72
     2
 73
     1
 90
        0
 40
-0.6
 41
-30.0
 62
     5
 63
     7
 74
     1
 91
        4
 64
     7
 65
   257
 75
     7
175
     7
 42
1.0
 92
        8
 66
     7
 43
1.0
 76
     1
 77
     6
 78
     2
 67
     7
 79
     5
170
     0
171
     0
290
     0
174
     0
 93
        1
 44
0.0
173
     0
291
     1
 45
0.0
1001
ACAD
1000
AcDbSavedByObjectVersion
1070
     0
  0
VISUALSTYLE
  5
F9
102
{ACAD_REACTORS
330
EF
102
}
330
EF
100
AcDbVisualStyle
  2
Realistic
 70
     8
 71
     2
 72
     2
 73
     1
 90
        0
 40
-0.6
 41
-30.0
 62
     5
 63
     7
 74
     1
 91
        0
 64
     7
 65
   257
 75
     1
175
     1
 42
1.0
 92
        8
 66
     8
 43
1.0
 76
     1
 77
     6
 78
     2
 67
     7
 79
     5
170
     0
171
     0
290
     0
174
     0
 93
       13
 44
0.0
173
     0
291
     0
 45
0.0
1001
ACAD
1000
AcDbSavedByObjectVersion
1070
     0
  0
VISUALSTYLE
  5
FC
102
{ACAD_REACTORS
330
EF
102
}
330
EF
100
AcDbVisualStyle
  2
Thicken
 70
    13
 71
     2
 72
     2
 73
     1
 90
        0
 40
-0.6
 41
-30.0
 62
     5
 63
     7
 74
     1
 91
        4
 64
     7
 65
   257
 75
     1
175
     1
 42
1.0
 92
       12
 66
     7
 43
1.0
 76
     1
 77
     6
 78
     2
 67
     7
 79
     5
170
     0
171
     0
290
     0
174
     0
 93
        1
 44
0.0
173
     0
291
     1
 45
0.0
1001
ACAD
1000
AcDbSavedByObjectVersion
1070
     0
  0
DICTIONARYVAR
  5
146
102
{ACAD_REACTORS
330
5E
102
}
330
5E
100
DictionaryVariables
280
     0
  1
1:1
  0
DICTIONARYVAR
  5
145
102
{ACAD_REACTORS
330
5E
102
}
330
5E
100
DictionaryVariables
280
     0
  1
STANDARD
  0
DICTIONARYVAR
  5
84
102
{ACAD_REACTORS
330
5E
102
}
330
5E
100
DictionaryVariables
280
     0
  1
STANDARD
  0
DICTIONARYVAR
  5
5F
102
{ACAD_REACTORS
330
5E
102
}
330
5E
100
DictionaryVariables
280
     0
  1
2
  0
DICTIONARYVAR
  5
63
102
{ACAD_REACTORS
330
5E
102
}
330
5E
100
DictionaryVariables
280
     0
  1
1
  0
DICTIONARYVAR
  5
4C9
102
{ACAD_REACTORS
330
5E
102
}
330
5E
100
DictionaryVariables
280
     0
  1
0
  0
DICTIONARYVAR
  5
4C7
102
{ACAD_REACTORS
330
5E
102
}
330
5E
100
DictionaryVariables
280
     0
  1
2
  0
DICTIONARYVAR
  5
4C6
102
{ACAD_REACTORS
330
5E
102
}
330
5E
100
DictionaryVariables
280
     0
  1
1
  0
DICTIONARYVAR
  5
4CB
102
{ACAD_REACTORS
330
5E
102
}
330
5E
100
DictionaryVariables
280
     0
  1
80.000000
  0
DICTIONARYVAR
  5
4CA
102
{ACAD_REACTORS
330
5E
102
}
330
5E
100
DictionaryVariables
280
     0
  1
5.000000
  0
DICTIONARYVAR
  5
4C8
102
{ACAD_REACTORS
330
5E
102
}
330
5E
100
DictionaryVariables
280
     0
  1
127
  0
DICTIONARY
  5
4D1
330
D3
100
AcDbDictionary
280
     1
281
     1
  3
ACAD_XREC_ROUNDTRIP
360
4D2
  0
DICTIONARY
  5
4D3
330
D7
100
AcDbDictionary
280
     1
281
     1
  3
ACAD_XREC_ROUNDTRIP
360
4D4
  0
DICTIONARY
  5
4CE
330
22
100
AcDbDictionary
280
     1
281
     1
  3
ACAD_XREC_ROUNDTRIP
360
4CF
  0
DICTIONARY
  5
4D7
330
ED
100
AcDbDictionary
280
     1
281
     1
  3
ACAD_XREC_ROUNDTRIP
360
4D8
  0
DICTIONARY
  5
4D5
330
EC
100
AcDbDictionary
280
     1
281
     1
  3
ACAD_XREC_ROUNDTRIP
360
4D6
  0
DICTIONARY
  5
173
330
EE
100
AcDbDictionary
280
     1
281
     1
  3
ACAD_XREC_ROUNDTRIP
360
4D9
  3
BUMPTILE
360
175
  3
DIFFUSETILE
360
174
  3
OPACITYTILE
360
176
  3
REFLECTIONTILE
360
177
  0
DICTIONARY
  5
162
330
7F
100
AcDbDictionary
280
     1
281
     1
  3
ACAD_ROUNDTRIP_2008_TABLESTYLE_CELLSTYLEMAP
360
4CC
  3
ACAD_XREC_ROUNDTRIP
360
4D0
  0
XRECORD
  5
4D2
102
{ACAD_REACTORS
330
4D1
102
}
330
4D1
100
AcDbXrecord
280
     1
102
SHADEPLOT
 70
     0
102
SHADEPLOTRESLEVEL
 70
     2
102
SHADEPLOTCUSTOMDPI
 70
   300
  0
XRECORD
  5
4D4
102
{ACAD_REACTORS
330
4D3
102
}
330
4D3
100
AcDbXrecord
280
     1
102
SHADEPLOT
 70
     0
102
SHADEPLOTRESLEVEL
 70
     2
102
SHADEPLOTCUSTOMDPI
 70
   300
  0
XRECORD
  5
4CF
102
{ACAD_REACTORS
330
4CE
102
}
330
4CE
100
AcDbXrecord
280
     1
102
SHADEPLOT
 70
     0
102
SHADEPLOTRESLEVEL
 70
     2
102
SHADEPLOTCUSTOMDPI
 70
   300
  0
XRECORD
  5
4D8
102
{ACAD_REACTORS
330
4D7
102
}
330
4D7
100
AcDbXrecord
280
     1
102
MATERIAL
148
0.0
149
0.0
149
0.0
 93
        0
 94
       63
282
     0
 72
     1
 77
     1
171
     1
175
     1
179
     1
273
     0
  0
XRECORD
  5
4D6
102
{ACAD_REACTORS
330
4D5
102
}
330
4D5
100
AcDbXrecord
280
     1
102
MATERIAL
148
0.0
149
0.0
149
0.0
 93
        0
 94
       63
282
     0
 72
     1
 77
     1
171
     1
175
     1
179
     1
273
     0
  0
XRECORD
  5
4D9
102
{ACAD_REACTORS
330
173
102
}
330
173
100
AcDbXrecord
280
     1
102
MATERIAL
148
0.0
149
0.0
149
0.0
 93
        0
 94
       63
282
     0
 72
     1
 77
     1
171
     1
175
     1
179
     1
273
     0
  0
XRECORD
  5
175
102
{ACAD_REACTORS
330
173
102
}
330
173
100
AcDbXrecord
280
     1
270
     1
271
     1
  0
XRECORD
  5
174
102
{ACAD_REACTORS
330
173
102
}
330
173
100
AcDbXrecord
280
     1
270
     1
271
     1
  0
XRECORD
  5
176
102
{ACAD_REACTORS
330
173
102
}
330
173
100
AcDbXrecord
280
     1
270
     1
271
     1
  0
XRECORD
  5
177
102
{ACAD_REACTORS
330
173
102
}
330
173
100
AcDbXrecord
280
     1
270
     1
271
     1
  0
CELLSTYLEMAP
  5
4CC
102
{ACAD_REACTORS
330
162
102
}
330
162
100
AcDbCellStyleMap
 90
        3
300
CELLSTYLE
  1
TABLEFORMAT_BEGIN
 90
        5
170
     1
 91
        0
 92
    32768
 62
   257
 93
        1
300
CONTENTFORMAT
  1
CONTENTFORMAT_BEGIN
 90
        0
 91
        0
 92
      512
 93
        0
300

 40
0.0
140
1.0
 94
        5
 62
     0
340
11
144
6.0
309
CONTENTFORMAT_END
171
     1
301
MARGIN
  1
CELLMARGIN_BEGIN
 40
1.5
 40
1.5
 40
1.5
 40
1.5
 40
4.5
 40
4.5
309
CELLMARGIN_END
 94
        6
 95
        1
302
GRIDFORMAT
  1
GRIDFORMAT_BEGIN
 90
        0
 91
        1
 62
     0
 92
       -2
340
14
 93
        0
 40
1.125
309
GRIDFORMAT_END
 95
        2
302
GRIDFORMAT
  1
GRIDFORMAT_BEGIN
 90
        0
 91
        1
 62
     0
 92
       -2
340
14
 93
        0
 40
1.125
309
GRIDFORMAT_END
 95
        4
302
GRIDFORMAT
  1
GRIDFORMAT_BEGIN
 90
        0
 91
        1
 62
     0
 92
       -2
340
14
 93
        0
 40
1.125
309
GRIDFORMAT_END
 95
        8
302
GRIDFORMAT
  1
GRIDFORMAT_BEGIN
 90
        0
 91
        1
 62
     0
 92
       -2
340
14
 93
        0
 40
1.125
309
GRIDFORMAT_END
 95
       16
302
GRIDFORMAT
  1
GRIDFORMAT_BEGIN
 90
        0
 91
        1
 62
     0
 92
       -2
340
14
 93
        0
 40
1.125
309
GRIDFORMAT_END
 95
       32
302
GRIDFORMAT
  1
GRIDFORMAT_BEGIN
 90
        0
 91
        1
 62
     0
 92
       -2
340
14
 93
        0
 40
1.125
309
GRIDFORMAT_END
309
TABLEFORMAT_END
  1
CELLSTYLE_BEGIN
 90
        1
 91
        1
300
_TITLE
309
CELLSTYLE_END
300
CELLSTYLE
  1
TABLEFORMAT_BEGIN
 90
        5
170
     1
 91
        0
 92
        0
 62
   257
 93
        1
300
CONTENTFORMAT
  1
CONTENTFORMAT_BEGIN
 90
        0
 91
        0
 92
      512
 93
        0
300

 40
0.0
140
1.0
 94
        5
 62
     0
340
11
144
4.5
309
CONTENTFORMAT_END
171
     1
301
MARGIN
  1
CELLMARGIN_BEGIN
 40
1.5
 40
1.5
 40
1.5
 40
1.5
 40
4.5
 40
4.5
309
CELLMARGIN_END
 94
        6
 95
        1
302
GRIDFORMAT
  1
GRIDFORMAT_BEGIN
 90
        0
 91
        1
 62
     0
 92
       -2
340
14
 93
        0
 40
1.125
309
GRIDFORMAT_END
 95
        2
302
GRIDFORMAT
  1
GRIDFORMAT_BEGIN
 90
        0
 91
        1
 62
     0
 92
       -2
340
14
 93
        0
 40
1.125
309
GRIDFORMAT_END
 95
        4
302
GRIDFORMAT
  1
GRIDFORMAT_BEGIN
 90
        0
 91
        1
 62
     0
 92
       -2
340
14
 93
        0
 40
1.125
309
GRIDFORMAT_END
 95
        8
302
GRIDFORMAT
  1
GRIDFORMAT_BEGIN
 90
        0
 91
        1
 62
     0
 92
       -2
340
14
 93
        0
 40
1.125
309
GRIDFORMAT_END
 95
       16
302
GRIDFORMAT
  1
GRIDFORMAT_BEGIN
 90
        0
 91
        1
 62
     0
 92
       -2
340
14
 93
        0
 40
1.125
309
GRIDFORMAT_END
 95
       32
302
GRIDFORMAT
  1
GRIDFORMAT_BEGIN
 90
        0
 91
        1
 62
     0
 92
       -2
340
14
 93
        0
 40
1.125
309
GRIDFORMAT_END
309
TABLEFORMAT_END
  1
CELLSTYLE_BEGIN
 90
        2
 91
        1
300
_HEADER
309
CELLSTYLE_END
300
CELLSTYLE
  1
TABLEFORMAT_BEGIN
 90
        5
170
     1
 91
        0
 92
        0
 62
   257
 93
        1
300
CONTENTFORMAT
  1
CONTENTFORMAT_BEGIN
 90
        0
 91
        0
 92
      512
 93
        0
300

 40
0.0
140
1.0
 94
        2
 62
     0
340
11
144
4.5
309
CONTENTFORMAT_END
171
     1
301
MARGIN
  1
CELLMARGIN_BEGIN
 40
1.5
 40
1.5
 40
1.5
 40
1.5
 40
4.5
 40
4.5
309
CELLMARGIN_END
 94
        6
 95
        1
302
GRIDFORMAT
  1
GRIDFORMAT_BEGIN
 90
        0
 91
        1
 62
     0
 92
       -2
340
14
 93
        0
 40
1.125
309
GRIDFORMAT_END
 95
        2
302
GRIDFORMAT
  1
GRIDFORMAT_BEGIN
 90
        0
 91
        1
 62
     0
 92
       -2
340
14
 93
        0
 40
1.125
309
GRIDFORMAT_END
 95
        4
302
GRIDFORMAT
  1
GRIDFORMAT_BEGIN
 90
        0
 91
        1
 62
     0
 92
       -2
340
14
 93
        0
 40
1.125
309
GRIDFORMAT_END
 95
        8
302
GRIDFORMAT
  1
GRIDFORMAT_BEGIN
 90
        0
 91
        1
 62
     0
 92
       -2
340
14
 93
        0
 40
1.125
309
GRIDFORMAT_END
 95
       16
302
GRIDFORMAT
  1
GRIDFORMAT_BEGIN
 90
        0
 91
        1
 62
     0
 92
       -2
340
14
 93
        0
 40
1.125
309
GRIDFORMAT_END
 95
       32
302
GRIDFORMAT
  1
GRIDFORMAT_BEGIN
 90
        0
 91
        1
 62
     0
 92
       -2
340
14
 93
        0
 40
1.125
309
GRIDFORMAT_END
309
TABLEFORMAT_END
  1
CELLSTYLE_BEGIN
 90
        3
 91
        2
300
_DATA
309
CELLSTYLE_END
  0
XRECORD
  5
4D0
102
{ACAD_REACTORS
330
162
102
}
330
162
100
AcDbXrecord
280
     1
102
ACAD_ROUNDTRIP_PRE2007_TABLESTYLE
 90
      512
 91
        0
  1

 92
      512
 93
        0
  2

 94
      512
 95
        0
  3

  0
ENDSEC
  0
EOF
