  0
SECTION
  2
HEADER
  9
$ACADVER
  1
AC1015
  9
$ACADMAINTVER
 70
    20
  9
$DWGCODEPAGE
  3
ANSI_1254
  9
$INSBASE
 10
0.0
 20
0.0
 30
0.0
  9
$EXTMIN
 10
2139.999999263479
 20
890.0000002902823
 30
0.0
  9
$EXTMAX
 10
2249.635082319958
 20
957.6506179982931
 30
0.0
  9
$LIMMIN
 10
0.0
 20
0.0
  9
$LIMMAX
 10
420.0
 20
297.0
  9
$ORTHOMODE
 70
     1
  9
$REGENMODE
 70
     1
  9
$FILLMODE
 70
     1
  9
$QTEXTMODE
 70
     0
  9
$MIRRTEXT
 70
     0
  9
$LTSCALE
 40
1.0
  9
$ATTMODE
 70
     1
  9
$TEXTSIZE
 40
2.5
  9
$TRACEWID
 40
1.0
  9
$TEXTSTYLE
  7
Standard
  9
$CLAYER
  8
0
  9
$CELTYPE
  6
ByLayer
  9
$CECOLOR
 62
   256
  9
$CELTSCALE
 40
1.0
  9
$DISPSILH
 70
     0
  9
$DIMSCALE
 40
1.0
  9
$DIMASZ
 40
2.5
  9
$DIMEXO
 40
0.625
  9
$DIMDLI
 40
3.75
  9
$DIMRND
 40
0.0
  9
$DIMDLE
 40
0.0
  9
$DIMEXE
 40
1.25
  9
$DIMTP
 40
0.0
  9
$DIMTM
 40
0.0
  9
$DIMTXT
 40
2.5
  9
$DIMCEN
 40
2.5
  9
$DIMTSZ
 40
0.0
  9
$DIMTOL
 70
     0
  9
$DIMLIM
 70
     0
  9
$DIMTIH
 70
     0
  9
$DIMTOH
 70
     0
  9
$DIMSE1
 70
     0
  9
$DIMSE2
 70
     0
  9
$DIMTAD
 70
     1
  9
$DIMZIN
 70
     8
  9
$DIMBLK
  1

  9
$DIMASO
 70
     1
  9
$DIMSHO
 70
     1
  9
$DIMPOST
  1

  9
$DIMAPOST
  1

  9
$DIMALT
 70
     0
  9
$DIMALTD
 70
     3
  9
$DIMALTF
 40
0.03937007874016
  9
$DIMLFAC
 40
1.0
  9
$DIMTOFL
 70
     1
  9
$DIMTVP
 40
0.0
  9
$DIMTIX
 70
     0
  9
$DIMSOXD
 70
     0
  9
$DIMSAH
 70
     0
  9
$DIMBLK1
  1

  9
$DIMBLK2
  1

  9
$DIMSTYLE
  2
ISO-25
  9
$DIMCLRD
 70
     0
  9
$DIMCLRE
 70
     0
  9
$DIMCLRT
 70
     0
  9
$DIMTFAC
 40
1.0
  9
$DIMGAP
 40
0.625
  9
$DIMJUST
 70
     0
  9
$DIMSD1
 70
     0
  9
$DIMSD2
 70
     0
  9
$DIMTOLJ
 70
     0
  9
$DIMTZIN
 70
     8
  9
$DIMALTZ
 70
     0
  9
$DIMALTTZ
 70
     0
  9
$DIMUPT
 70
     0
  9
$DIMDEC
 70
     2
  9
$DIMTDEC
 70
     2
  9
$DIMALTU
 70
     2
  9
$DIMALTTD
 70
     3
  9
$DIMTXSTY
  7
Standard
  9
$DIMAUNIT
 70
     0
  9
$DIMADEC
 70
     0
  9
$DIMALTRND
 40
0.0
  9
$DIMAZIN
 70
     0
  9
$DIMDSEP
 70
    44
  9
$DIMATFIT
 70
     3
  9
$DIMFRAC
 70
     0
  9
$DIMLDRBLK
  1

  9
$DIMLUNIT
 70
     2
  9
$DIMLWD
 70
    -2
  9
$DIMLWE
 70
    -2
  9
$DIMTMOVE
 70
     0
  9
$LUNITS
 70
     2
  9
$LUPREC
 70
     4
  9
$SKETCHINC
 40
1.0
  9
$FILLETRAD
 40
0.0
  9
$AUNITS
 70
     0
  9
$AUPREC
 70
     0
  9
$MENU
  1
.
  9
$ELEVATION
 40
0.0
  9
$PELEVATION
 40
0.0
  9
$THICKNESS
 40
0.0
  9
$LIMCHECK
 70
     0
  9
$CHAMFERA
 40
0.0
  9
$CHAMFERB
 40
0.0
  9
$CHAMFERC
 40
0.0
  9
$CHAMFERD
 40
0.0
  9
$SKPOLY
 70
     0
  9
$TDCREATE
 40
2458559.456592211
  9
$TDUCREATE
 40
2458559.331592211
  9
$TDUPDATE
 40
2459067.648242327
  9
$TDUUPDATE
 40
2459067.523242326
  9
$TDINDWG
 40
0.0031021181
  9
$TDUSRTIMER
 40
0.0031021181
  9
$USRTIMER
 70
     1
  9
$ANGBASE
 50
0.0
  9
$ANGDIR
 70
     0
  9
$PDMODE
 70
     0
  9
$PDSIZE
 40
0.0
  9
$PLINEWID
 40
0.0
  9
$SPLFRAME
 70
     0
  9
$SPLINETYPE
 70
     6
  9
$SPLINESEGS
 70
     8
  9
$HANDSEED
  5
3E5
  9
$SURFTAB1
 70
     6
  9
$SURFTAB2
 70
     6
  9
$SURFTYPE
 70
     6
  9
$SURFU
 70
     6
  9
$SURFV
 70
     6
  9
$UCSBASE
  2

  9
$UCSNAME
  2

  9
$UCSORG
 10
0.0
 20
0.0
 30
0.0
  9
$UCSXDIR
 10
1.0
 20
0.0
 30
0.0
  9
$UCSYDIR
 10
0.0
 20
1.0
 30
0.0
  9
$UCSORTHOREF
  2

  9
$UCSORTHOVIEW
 70
     0
  9
$UCSORGTOP
 10
0.0
 20
0.0
 30
0.0
  9
$UCSORGBOTTOM
 10
0.0
 20
0.0
 30
0.0
  9
$UCSORGLEFT
 10
0.0
 20
0.0
 30
0.0
  9
$UCSORGRIGHT
 10
0.0
 20
0.0
 30
0.0
  9
$UCSORGFRONT
 10
0.0
 20
0.0
 30
0.0
  9
$UCSORGBACK
 10
0.0
 20
0.0
 30
0.0
  9
$PUCSBASE
  2

  9
$PUCSNAME
  2

  9
$PUCSORG
 10
0.0
 20
0.0
 30
0.0
  9
$PUCSXDIR
 10
1.0
 20
0.0
 30
0.0
  9
$PUCSYDIR
 10
0.0
 20
1.0
 30
0.0
  9
$PUCSORTHOREF
  2

  9
$PUCSORTHOVIEW
 70
     0
  9
$PUCSORGTOP
 10
0.0
 20
0.0
 30
0.0
  9
$PUCSORGBOTTOM
 10
0.0
 20
0.0
 30
0.0
  9
$PUCSORGLEFT
 10
0.0
 20
0.0
 30
0.0
  9
$PUCSORGRIGHT
 10
0.0
 20
0.0
 30
0.0
  9
$PUCSORGFRONT
 10
0.0
 20
0.0
 30
0.0
  9
$PUCSORGBACK
 10
0.0
 20
0.0
 30
0.0
  9
$USERI1
 70
     0
  9
$USERI2
 70
     0
  9
$USERI3
 70
     0
  9
$USERI4
 70
     0
  9
$USERI5
 70
     0
  9
$USERR1
 40
0.0
  9
$USERR2
 40
0.0
  9
$USERR3
 40
0.0
  9
$USERR4
 40
0.0
  9
$USERR5
 40
0.0
  9
$WORLDVIEW
 70
     1
  9
$SHADEDGE
 70
     3
  9
$SHADEDIF
 70
    70
  9
$TILEMODE
 70
     1
  9
$MAXACTVP
 70
    64
  9
$PINSBASE
 10
0.0
 20
0.0
 30
0.0
  9
$PLIMCHECK
 70
     0
  9
$PEXTMIN
 10
0.0
 20
0.0
 30
0.0
  9
$PEXTMAX
 10
0.0
 20
0.0
 30
0.0
  9
$PLIMMIN
 10
0.0
 20
0.0
  9
$PLIMMAX
 10
12.0
 20
9.0
  9
$UNITMODE
 70
     0
  9
$VISRETAIN
 70
     1
  9
$PLINEGEN
 70
     0
  9
$PSLTSCALE
 70
     1
  9
$TREEDEPTH
 70
  3020
  9
$CMLSTYLE
  2
Standard
  9
$CMLJUST
 70
     0
  9
$CMLSCALE
 40
20.0
  9
$PROXYGRAPHICS
 70
     1
  9
$MEASUREMENT
 70
     1
  9
$CELWEIGHT
370
    -1
  9
$ENDCAPS
280
     0
  9
$JOINSTYLE
280
     0
  9
$LWDISPLAY
290
     0
  9
$INSUNITS
 70
     4
  9
$HYPERLINKBASE
  1

  9
$STYLESHEET
  1

  9
$XEDIT
290
     1
  9
$CEPSNTYPE
380
     0
  9
$PSTYLEMODE
290
     1
  9
$FINGERPRINTGUID
  2
{0755FAF8-DA75-48E8-9197-6CEB734FB60B}
  9
$VERSIONGUID
  2
{F7FEB2EA-AF0B-4DE5-88B0-685173B81995}
  9
$EXTNAMES
290
     1
  9
$PSVPSCALE
 40
0.0
  9
$OLESTARTUP
290
     0
  0
ENDSEC
  0
SECTION
  2
CLASSES
  0
CLASS
  1
ACDBDICTIONARYWDFLT
  2
AcDbDictionaryWithDefault
  3
ObjectDBX Classes
 90
        0
280
     0
281
     0
  0
CLASS
  1
ACDBPLACEHOLDER
  2
AcDbPlaceHolder
  3
ObjectDBX Classes
 90
        0
280
     0
281
     0
  0
CLASS
  1
LAYOUT
  2
AcDbLayout
  3
ObjectDBX Classes
 90
        0
280
     0
281
     0
  0
CLASS
  1
DICTIONARYVAR
  2
AcDbDictionaryVar
  3
ObjectDBX Classes
 90
        0
280
     0
281
     0
  0
CLASS
  1
TABLESTYLE
  2
AcDbTableStyle
  3
ObjectDBX Classes
 90
     4095
280
     0
281
     0
  0
CLASS
  1
MATERIAL
  2
AcDbMaterial
  3
ObjectDBX Classes
 90
     1153
280
     0
281
     0
  0
CLASS
  1
VISUALSTYLE
  2
AcDbVisualStyle
  3
ObjectDBX Classes
 90
     4095
280
     0
281
     0
  0
CLASS
  1
SCALE
  2
AcDbScale
  3
ObjectDBX Classes
 90
     1153
280
     0
281
     0
  0
CLASS
  1
MLEADERSTYLE
  2
AcDbMLeaderStyle
  3
ACDB_MLEADERSTYLE_CLASS
 90
     4095
280
     0
281
     0
  0
CLASS
  1
CELLSTYLEMAP
  2
AcDbCellStyleMap
  3
ObjectDBX Classes
 90
     1152
280
     0
281
     0
  0
CLASS
  1
ACAD_EVALUATION_GRAPH
  2
AcDbEvalGraph
  3
ObjectDBX Classes
 90
    33921
280
     0
281
     0
  0
CLASS
  1
ACAECUSTOBJ
  2
AcAeEditorObj
  3
AcAeEditorObj
 90
    33792
280
     0
281
     0
  0
CLASS
  1
ACDB_DYNAMICBLOCKPURGEPREVENTER_VERSION
  2
AcDbDynamicBlockPurgePreventer
  3
ObjectDBX Classes
 90
    33921
280
     0
281
     0
  0
ENDSEC
  0
SECTION
  2
TABLES
  0
TABLE
  2
VPORT
  5
8
330
0
100
AcDbSymbolTable
 70
     1
  0
VPORT
  5
EA
330
8
100
AcDbSymbolTableRecord
100
AcDbViewportTableRecord
  2
*Active
 70
     0
 10
0.0
 20
0.0
 11
1.0
 21
1.0
 12
2209.410161803269
 22
935.5974719017224
 13
0.0
 23
0.0
 14
10.0
 24
10.0
 15
10.0
 25
10.0
 16
0.0
 26
0.0
 36
1.0
 17
0.0
 27
0.0
 37
0.0
 40
94.43353881101275
 41
1.903110047846889
 42
50.0
 43
0.0
 44
0.0
 50
0.0
 51
0.0
 71
     0
 72
  1000
 73
     1
 74
     3
 75
     0
 76
     0
 77
     0
 78
     0
281
     0
 65
     1
110
0.0
120
0.0
130
0.0
111
1.0
121
0.0
131
0.0
112
0.0
122
1.0
132
0.0
 79
     0
146
0.0
  0
ENDTAB
  0
TABLE
  2
LTYPE
  5
5
330
0
100
AcDbSymbolTable
 70
     1
  0
LTYPE
  5
14
330
5
100
AcDbSymbolTableRecord
100
AcDbLinetypeTableRecord
  2
ByBlock
 70
     0
  3

 72
    65
 73
     0
 40
0.0
  0
LTYPE
  5
15
330
5
100
AcDbSymbolTableRecord
100
AcDbLinetypeTableRecord
  2
ByLayer
 70
     0
  3

 72
    65
 73
     0
 40
0.0
  0
LTYPE
  5
16
330
5
100
AcDbSymbolTableRecord
100
AcDbLinetypeTableRecord
  2
Continuous
 70
     0
  3
Solid line
 72
    65
 73
     0
 40
0.0
  0
ENDTAB
  0
TABLE
  2
LAYER
  5
2
330
0
100
AcDbSymbolTable
 70
     1
  0
LAYER
  5
10
102
{ACAD_XDICTIONARY
360
13C
102
}
330
2
100
AcDbSymbolTableRecord
100
AcDbLayerTableRecord
  2
0
 70
     0
 62
     7
  6
Continuous
370
    -3
390
F
  0
ENDTAB
  0
TABLE
  2
STYLE
  5
3
330
0
100
AcDbSymbolTable
 70
     2
  0
STYLE
  5
11
330
3
100
AcDbSymbolTableRecord
100
AcDbTextStyleTableRecord
  2
Standard
 70
     0
 40
0.0
 41
1.0
 50
0.0
 71
     0
 42
2.5
  3
txt
  4

  0
STYLE
  5
132
330
3
100
AcDbSymbolTableRecord
100
AcDbTextStyleTableRecord
  2
Annotative
 70
     0
 40
0.0
 41
1.0
 50
0.0
 71
     0
 42
2.5
  3
txt.shx
  4

1001
AcadAnnotative
1000
AnnotativeData
1002
{
1070
     1
1070
     1
1002
}
  0
ENDTAB
  0
TABLE
  2
VIEW
  5
6
330
0
100
AcDbSymbolTable
 70
     0
  0
ENDTAB
  0
TABLE
  2
UCS
  5
7
330
0
100
AcDbSymbolTable
 70
     0
  0
ENDTAB
  0
TABLE
  2
APPID
  5
9
330
0
100
AcDbSymbolTable
 70
    12
  0
APPID
  5
12
330
9
100
AcDbSymbolTableRecord
100
AcDbRegAppTableRecord
  2
ACAD
 70
     0
  0
APPID
  5
9E
330
9
100
AcDbSymbolTableRecord
100
AcDbRegAppTableRecord
  2
ACAD_PSEXT
 70
     0
  0
APPID
  5
133
330
9
100
AcDbSymbolTableRecord
100
AcDbRegAppTableRecord
  2
AcadAnnoPO
 70
     0
  0
APPID
  5
134
330
9
100
AcDbSymbolTableRecord
100
AcDbRegAppTableRecord
  2
AcadAnnotative
 70
     0
  0
APPID
  5
135
330
9
100
AcDbSymbolTableRecord
100
AcDbRegAppTableRecord
  2
ACAD_DSTYLE_DIMJAG
 70
     0
  0
APPID
  5
136
330
9
100
AcDbSymbolTableRecord
100
AcDbRegAppTableRecord
  2
ACAD_DSTYLE_DIMTALN
 70
     0
  0
APPID
  5
165
330
9
100
AcDbSymbolTableRecord
100
AcDbRegAppTableRecord
  2
ACAD_MLEADERVER
 70
     0
  0
APPID
  5
369
330
9
100
AcDbSymbolTableRecord
100
AcDbRegAppTableRecord
  2
ACAUTHENVIRON
 70
     0
  0
APPID
  5
36D
330
9
100
AcDbSymbolTableRecord
100
AcDbRegAppTableRecord
  2
AcDbDynamicBlockTrueName
 70
     0
  0
APPID
  5
36E
330
9
100
AcDbSymbolTableRecord
100
AcDbRegAppTableRecord
  2
AcDbDynamicBlockGUID
 70
     0
  0
APPID
  5
370
330
9
100
AcDbSymbolTableRecord
100
AcDbRegAppTableRecord
  2
AcDbBlockRepETag
 70
     0
  0
APPID
  5
3C4
330
9
100
AcDbSymbolTableRecord
100
AcDbRegAppTableRecord
  2
ACAD_EXEMPT_FROM_CAD_STANDARDS
 70
     0
  0
ENDTAB
  0
TABLE
  2
DIMSTYLE
  5
A
330
0
100
AcDbSymbolTable
 70
     2
100
AcDbDimStyleTable
 71
     2
340
27
340
137
  0
DIMSTYLE
105
27
330
A
100
AcDbSymbolTableRecord
100
AcDbDimStyleTableRecord
  2
ISO-25
 70
     0
 41
2.5
 42
0.625
 43
3.75
 44
1.25
 73
     0
 74
     0
 77
     1
 78
     8
140
2.5
141
2.5
143
0.03937007874016
147
0.625
171
     3
172
     1
271
     2
272
     2
274
     3
278
    44
283
     0
284
     8
340
11
  0
DIMSTYLE
105
137
330
A
100
AcDbSymbolTableRecord
100
AcDbDimStyleTableRecord
  2
Annotative
 70
     0
 40
0.0
 41
2.5
 42
0.625
 43
3.75
 44
1.25
 73
     0
 74
     0
 77
     1
 78
     8
140
2.5
141
2.5
143
0.03937007874016
147
0.625
171
     3
172
     1
271
     2
272
     2
274
     3
278
    44
283
     0
284
     8
340
11
1001
AcadAnnotative
1000
AnnotativeData
1002
{
1070
     1
1070
     1
1002
}
1001
ACAD_DSTYLE_DIMJAG
1070
   388
1040
1.5
1001
ACAD_DSTYLE_DIMTALN
1070
   392
1070
     0
  0
ENDTAB
  0
TABLE
  2
BLOCK_RECORD
  5
1
330
0
100
AcDbSymbolTable
 70
     5
  0
BLOCK_RECORD
  5
1F
330
1
100
AcDbSymbolTableRecord
100
AcDbBlockTableRecord
  2
*Model_Space
340
22
  0
BLOCK_RECORD
  5
D2
330
1
100
AcDbSymbolTableRecord
100
AcDbBlockTableRecord
  2
*Paper_Space
340
D3
  0
BLOCK_RECORD
  5
D6
330
1
100
AcDbSymbolTableRecord
100
AcDbBlockTableRecord
  2
*Paper_Space0
340
D7
  0
BLOCK_RECORD
  5
1AD
330
1
100
AcDbSymbolTableRecord
100
AcDbBlockTableRecord
  2
SW_CENTERMARKSYMBOL_0
340
0
102
{BLKREFS
331
306
102
}
  0
BLOCK_RECORD
  5
2B0
102
{ACAD_XDICTIONARY
360
3C0
102
}
330
1
100
AcDbSymbolTableRecord
100
AcDbBlockTableRecord
  2
1
340
0
310
2800000020000000200000000100080000000000000400000000000000000000000000000000000000000000000080000080000000808000800000008000800080800000C0C0C000C0DCC000F0CAA6000020400000206000002080000020A0000020C0000020E00000400000004020000040400000406000004080000040A0
310
000040C0000040E00000600000006020000060400000606000006080000060A0000060C0000060E00000800000008020000080400000806000008080000080A0000080C0000080E00000A0000000A0200000A0400000A0600000A0800000A0A00000A0C00000A0E00000C0000000C0200000C0400000C0600000C0800000C0
310
A00000C0C00000C0E00000E0000000E0200000E0400000E0600000E0800000E0A00000E0C00000E0E00040000000400020004000400040006000400080004000A0004000C0004000E00040200000402020004020400040206000402080004020A0004020C0004020E000404000004040200040404000404060004040800040
310
40A0004040C0004040E00040600000406020004060400040606000406080004060A0004060C0004060E00040800000408020004080400040806000408080004080A0004080C0004080E00040A0000040A0200040A0400040A0600040A0800040A0A00040A0C00040A0E00040C0000040C0200040C0400040C0600040C08000
310
40C0A00040C0C00040C0E00040E0000040E0200040E0400040E0600040E0800040E0A00040E0C00040E0E00080000000800020008000400080006000800080008000A0008000C0008000E00080200000802020008020400080206000802080008020A0008020C0008020E00080400000804020008040400080406000804080
310
008040A0008040C0008040E00080600000806020008060400080606000806080008060A0008060C0008060E00080800000808020008080400080806000808080008080A0008080C0008080E00080A0000080A0200080A0400080A0600080A0800080A0A00080A0C00080A0E00080C0000080C0200080C0400080C0600080C0
310
800080C0A00080C0C00080C0E00080E0000080E0200080E0400080E0600080E0800080E0A00080E0C00080E0E000C0000000C0002000C0004000C0006000C0008000C000A000C000C000C000E000C0200000C0202000C0204000C0206000C0208000C020A000C020C000C020E000C0400000C0402000C0404000C0406000C0
310
408000C040A000C040C000C040E000C0600000C0602000C0604000C0606000C0608000C060A000C060C000C060E000C0800000C0802000C0804000C0806000C0808000C080A000C080C000C080E000C0A00000C0A02000C0A04000C0A06000C0A08000C0A0A000C0A0C000C0A0E000C0C00000C0C02000C0C04000C0C06000
310
C0C08000C0C0A000F0FBFF00A4A0A000808080000000FF0000FF000000FFFF00FF000000FF00FF00FFFF0000FFFFFF0000000000000000000000000000000000000000000000000000000000000000000000000000000000000000000000000000000000000000000000000000000000000000000000000000000000000000
310
00000000000000000000000000000000000000000000000000000000000000000000000000000000000000000000000000000000000000000000000000000000000000000000000000000000000000000000000000000000000000000000000000000000000000000000000000000000000000000000000000000000000000
310
00000000000000000000000000000000000000000000000000000000000000000000000000000000000000000000000000000000000000000000000000000000000000000000000000000000000000000000000000000000000000000000000000000000000000000000000000000000000000000000000000000000000000
310
000000000000000000000000000000000000000000000000FFFFFFFFFFFFFFFFFFFFFFFFFFFFFFFFFFFFFFFFFFFF000000000000000000FFFFFFFFFFFFFFFFFFFFFFFFFFFFFFFFFFFFFFFFFFFFFFFF0000000000000000FFFFFFFFFFFFFFFFFFFFFFFFFFFFFFFFFFFFFFFFFFFFFFFF0000000000000000FFFFFFFFFFFFFFFF
310
FFFFFFFFFFFFFFFFFFFFFFFFFFFFFFFF0000000000000000FFFFFFFFFFFFFFFFFFFFFFFFFFFFFFFFFFFFFFFFFFFFFFFF0000000000000000FFFFFFFFFFFFFFFFFFFFFFFFFFFFFFFFFFFFFFFFFFFFFFFF0000000000FFFFFFFFFFFFFFFFFFFFFFFFFFFFFFFFFFFFFFFFFFFFFFFFFFFFFFFFFFFF0000FFFFFFFFFFFFFFFFFFFF
310
FFFFFFFFFFFFFFFFFFFFFFFFFFFFFFFFFFFFFFFF0000000000000000FFFFFFFFFF0000000000000000FFFFFFFFFF000000000000000000000000000000000000FFFFFFFFFFFFFFFFFFFF0000000000000000000000000000000000000000000000000000000000000000000000000000000000000000000000000000000000
310
00000000000000000000000000000000000000000000000000000000000000000000000000000000000000000000000000000000000000000000000000000000000000000000000000000000000000000000000000000000000000000000000000000000000000000000000000000000000000000000000000000000000000
310
00000000000000000000000000000000000000000000000000000000000000000000000000000000000000000000000000000000000000000000000000000000000000000000000000000000000000000000000000000000000000000000000000000000000000000000000000000000000000000000000000000000000000
310
0000000000000000000000000000000000000000000000000000000000000000000000000000000000000000000000000000000000000000
102
{BLKREFS
331
2FA
102
}
1001
AcDbDynamicBlockGUID
1000
{80002E31-CE2A-470D-81D4-CE987EA5491D}
1001
AcDbBlockRepETag
1070
     1
1071
       71
1001
ACAD
1000
DesignCenter Data
1002
{
1070
     1
1070
     4
1002
}
  0
BLOCK_RECORD
  5
2FB
330
1
100
AcDbSymbolTableRecord
100
AcDbBlockTableRecord
  2
2
340
0
310
2800000020000000200000000100080000000000000400000000000000000000000000000000000000000000000080000080000000808000800000008000800080800000C0C0C000C0DCC000F0CAA6000020400000206000002080000020A0000020C0000020E00000400000004020000040400000406000004080000040A0
310
000040C0000040E00000600000006020000060400000606000006080000060A0000060C0000060E00000800000008020000080400000806000008080000080A0000080C0000080E00000A0000000A0200000A0400000A0600000A0800000A0A00000A0C00000A0E00000C0000000C0200000C0400000C0600000C0800000C0
310
A00000C0C00000C0E00000E0000000E0200000E0400000E0600000E0800000E0A00000E0C00000E0E00040000000400020004000400040006000400080004000A0004000C0004000E00040200000402020004020400040206000402080004020A0004020C0004020E000404000004040200040404000404060004040800040
310
40A0004040C0004040E00040600000406020004060400040606000406080004060A0004060C0004060E00040800000408020004080400040806000408080004080A0004080C0004080E00040A0000040A0200040A0400040A0600040A0800040A0A00040A0C00040A0E00040C0000040C0200040C0400040C0600040C08000
310
40C0A00040C0C00040C0E00040E0000040E0200040E0400040E0600040E0800040E0A00040E0C00040E0E00080000000800020008000400080006000800080008000A0008000C0008000E00080200000802020008020400080206000802080008020A0008020C0008020E00080400000804020008040400080406000804080
310
008040A0008040C0008040E00080600000806020008060400080606000806080008060A0008060C0008060E00080800000808020008080400080806000808080008080A0008080C0008080E00080A0000080A0200080A0400080A0600080A0800080A0A00080A0C00080A0E00080C0000080C0200080C0400080C0600080C0
310
800080C0A00080C0C00080C0E00080E0000080E0200080E0400080E0600080E0800080E0A00080E0C00080E0E000C0000000C0002000C0004000C0006000C0008000C000A000C000C000C000E000C0200000C0202000C0204000C0206000C0208000C020A000C020C000C020E000C0400000C0402000C0404000C0406000C0
310
408000C040A000C040C000C040E000C0600000C0602000C0604000C0606000C0608000C060A000C060C000C060E000C0800000C0802000C0804000C0806000C0808000C080A000C080C000C080E000C0A00000C0A02000C0A04000C0A06000C0A08000C0A0A000C0A0C000C0A0E000C0C00000C0C02000C0C04000C0C06000
310
C0C08000C0C0A000F0FBFF00A4A0A000808080000000FF0000FF000000FFFF00FF000000FF00FF00FFFF0000FFFFFF00000000000000000000000000000000000000000000000000000000000000000000000000000000000000000000000000FF000000000000000000000000000000000000000000000000000000000000
310
00FF000000000000000000000000000000000000000000000000000000000000FFFF00000000000000000000000000000000000000000000000000000000FFFF00FFFFFF000000000000000000000000000000000000000000000000FFFF000000FF0000FFFF0000000000000000000000000000000000000000FFFF000000
310
0000FF00000000FFFF00000000000000000000000000000000FFFF00000000000000FF000000000000FFFF0000000000000000000000000000FF0000000000000000FF00000000000000FF00000000000000000000000000FF000000000000000000FF0000000000000000FF000000000000000000000000FF000000000000
310
000000FF0000000000000000FF0000000000000000000000FF00000000000000000000FF000000000000000000FF00000000000000000000FF00000000000000000000FF000000000000000000FF000000000000000000FF0000000000000000000000FF00000000000000000000FF0000000000000000FF00000000000000
310
00000000FF00000000000000000000FF00000000000000FF00000000000000FFFFFFFFFFFFFFFFFFFF00000000000000FF00000000FFFFFFFFFFFFFFFFFFFFFFFFFFFFFFFFFFFFFFFFFFFFFFFFFFFFFFFFFFFF0000000000FF0000000000000000000000FF0000000000000000000000FF00000000000000FF000000000000
310
0000000000FF00000000000000000000FF000000000000000000FF00000000000000000000FF00000000000000000000FF000000000000000000FF00000000000000000000FF000000000000000000FF0000000000000000000000FF000000000000000000FF000000000000000000FF0000000000000000000000FF000000
310
000000000000FF0000000000000000FF00000000000000000000000000FF0000000000000000FF0000000000000000FF00000000000000000000000000FF0000000000000000FF000000000000FFFF000000000000000000000000000000FFFF000000000000FF00000000FFFF000000000000000000000000000000000000
310
00FFFF00000000FF0000FFFF0000000000000000000000000000000000000000000000FFFF0000FFFFFF000000000000000000000000000000000000000000000000000000FFFFFF00000000000000000000000000000000000000000000000000000000000000FF0000000000000000000000000000000000000000000000
310
0000000000000000FF0000000000000000000000000000000000000000000000000000000000000000000000000000000000000000000000
102
{BLKREFS
331
307
102
}
1001
ACAD
1000
DesignCenter Data
1002
{
1070
     1
1070
     4
1002
}
  0
BLOCK_RECORD
  5
308
102
{ACAD_XDICTIONARY
360
36A
102
}
330
1
100
AcDbSymbolTableRecord
100
AcDbBlockTableRecord
  2
3
340
0
310
2800000020000000200000000100080000000000000400000000000000000000000000000000000000000000000080000080000000808000800000008000800080800000C0C0C000C0DCC000F0CAA6000020400000206000002080000020A0000020C0000020E00000400000004020000040400000406000004080000040A0
310
000040C0000040E00000600000006020000060400000606000006080000060A0000060C0000060E00000800000008020000080400000806000008080000080A0000080C0000080E00000A0000000A0200000A0400000A0600000A0800000A0A00000A0C00000A0E00000C0000000C0200000C0400000C0600000C0800000C0
310
A00000C0C00000C0E00000E0000000E0200000E0400000E0600000E0800000E0A00000E0C00000E0E00040000000400020004000400040006000400080004000A0004000C0004000E00040200000402020004020400040206000402080004020A0004020C0004020E000404000004040200040404000404060004040800040
310
40A0004040C0004040E00040600000406020004060400040606000406080004060A0004060C0004060E00040800000408020004080400040806000408080004080A0004080C0004080E00040A0000040A0200040A0400040A0600040A0800040A0A00040A0C00040A0E00040C0000040C0200040C0400040C0600040C08000
310
40C0A00040C0C00040C0E00040E0000040E0200040E0400040E0600040E0800040E0A00040E0C00040E0E00080000000800020008000400080006000800080008000A0008000C0008000E00080200000802020008020400080206000802080008020A0008020C0008020E00080400000804020008040400080406000804080
310
008040A0008040C0008040E00080600000806020008060400080606000806080008060A0008060C0008060E00080800000808020008080400080806000808080008080A0008080C0008080E00080A0000080A0200080A0400080A0600080A0800080A0A00080A0C00080A0E00080C0000080C0200080C0400080C0600080C0
310
800080C0A00080C0C00080C0E00080E0000080E0200080E0400080E0600080E0800080E0A00080E0C00080E0E000C0000000C0002000C0004000C0006000C0008000C000A000C000C000C000E000C0200000C0202000C0204000C0206000C0208000C020A000C020C000C020E000C0400000C0402000C0404000C0406000C0
310
408000C040A000C040C000C040E000C0600000C0602000C0604000C0606000C0608000C060A000C060C000C060E000C0800000C0802000C0804000C0806000C0808000C080A000C080C000C080E000C0A00000C0A02000C0A04000C0A06000C0A08000C0A0A000C0A0C000C0A0E000C0C00000C0C02000C0C04000C0C06000
310
C0C08000C0C0A000F0FBFF00A4A0A000808080000000FF0000FF000000FFFF00FF000000FF00FF00FFFF0000FFFFFF0000000000000000000000000000000000000000000000000000000000000000000000000000000000000000000000000000000000000000000000000000000000000000000000000000000000000000
310
00000000000000000000000000000000000000000000000000000000000000000000000000000000000000000000000000000000000000000000000000000000000000000000000000000000000000000000000000000000000000000000000000FFFF00000000000000000000000000000000000000000000000000FFFFFF
310
FFFFFFFFFFFFFFFFFF000000000000000000000000000000000000FFFFFFFFFFFFFFFFFFFFFFFFFFFFFFFF0000000000000000000000000000FFFFFFFFFFFFFFFFFFFFFFFFFFFFFFFFFFFFFF0000000000000000000000FFFFFFFFFFFFFFFFFFA4A4A4A4FFFFFFFFFFFFFFFFFF00000000000000000000FFFFFFFFA4FFFFFF
310
FFFFFFFFFFFFFFFFFFA4FFFFFFFFFF0000000000000000FFFFFFFFFFFFFF0000000000000000000000FFFFFFFFFFFF00000000000000FFFFFFFFFF00000000000000000000000000000000FFFFFFFFFF000000000000FFFFFF0000000000000000000000000000000000000000FFFFFF0000000000FFFFFF00000000000000
310
000000000000000000000000000000FFFFFF00000000FFFF000000000000000000000000000000000000000000000000FFFF000000FFFF000000000000000000000000000000FFFF000000000000000000FFFF0000FFFF0000000000000000000000000000FFFFFF000000000000000000FFFF000000FF0000000000000000
310
00000000FFFFFFFF00000000000000000000FFFF000000FF0000000000000000000000FFFFFF000000000000000000000000FF00000000FFFF0000000000000000FFFFFF00000000000000000000000000FFFF0000000000FFFF0000000000000000FF00000000000000000000000000FFFF00000000000000FFFF00000000
310
0000000000000000000000000000000000FF000000000000000000FFFF000000000000000000000000000000000000FFFF000000000000000000000000FFFFFF000000000000000000000000FFFFFF00000000000000000000000000000000FFFFFFFFFFFFFFFFFFFFFFFFFFFF000000000000000000000000000000000000
310
0000000000FFFFFF0000000000000000000000000000000000000000000000000000000000000000000000000000000000000000000000000000000000000000000000000000000000000000000000000000000000000000000000000000000000000000000000000000000000000000000000000000000000000000000000
310
0000000000000000000000000000000000000000000000000000000000000000000000000000000000000000000000000000000000000000
102
{BLKREFS
331
335
102
}
1001
AcDbDynamicBlockGUID
1000
{B4D747FB-B5D7-4715-925A-3DFF13868242}
1001
AcDbBlockRepETag
1070
     1
1071
       40
1001
ACAD
1000
DesignCenter Data
1002
{
1070
     1
1070
     4
1002
}
  0
ENDTAB
  0
ENDSEC
  0
SECTION
  2
BLOCKS
  0
BLOCK
  5
20
330
1F
100
AcDbEntity
  8
0
100
AcDbBlockBegin
  2
*Model_Space
 70
     0
 10
0.0
 20
0.0
 30
0.0
  3
*Model_Space
  1

  0
ENDBLK
  5
21
330
1F
100
AcDbEntity
  8
0
100
AcDbBlockEnd
  0
BLOCK
  5
D4
330
D2
100
AcDbEntity
 67
     1
  8
0
100
AcDbBlockBegin
  2
*Paper_Space
 70
     0
 10
0.0
 20
0.0
 30
0.0
  3
*Paper_Space
  1

  0
ENDBLK
  5
D5
330
D2
100
AcDbEntity
 67
     1
  8
0
100
AcDbBlockEnd
  0
BLOCK
  5
D8
330
D6
100
AcDbEntity
 67
     1
  8
0
100
AcDbBlockBegin
  2
*Paper_Space0
 70
     0
 10
0.0
 20
0.0
 30
0.0
  3
*Paper_Space0
  1

  0
ENDBLK
  5
D9
330
D6
100
AcDbEntity
 67
     1
  8
0
100
AcDbBlockEnd
  0
BLOCK
  5
1AE
330
1AD
100
AcDbEntity
  8
0
100
AcDbBlockBegin
  2
SW_CENTERMARKSYMBOL_0
 70
     0
 10
0.0
 20
0.0
 30
0.0
  3
SW_CENTERMARKSYMBOL_0
  1

  0
LINE
  5
1AF
330
1AD
100
AcDbEntity
  8
0
  6
Continuous
 62
     0
370
     0
100
AcDbLine
 10
0.0
 20
0.0
 30
0.0
 11
0.0
 21
2.499999999999974
 31
0.0
  0
LINE
  5
1B0
330
1AD
100
AcDbEntity
  8
0
  6
Continuous
 62
     0
370
     0
100
AcDbLine
 10
0.0
 20
0.0
 30
0.0
 11
-2.500000000000002
 21
0.0
 31
0.0
  0
LINE
  5
1B1
330
1AD
100
AcDbEntity
  8
0
  6
Continuous
 62
     0
370
     0
100
AcDbLine
 10
0.0
 20
0.0
 30
0.0
 11
0.0
 21
-2.500000000000002
 31
0.0
  0
LINE
  5
1B2
330
1AD
100
AcDbEntity
  8
0
  6
Continuous
 62
     0
370
     0
100
AcDbLine
 10
0.0
 20
0.0
 30
0.0
 11
2.500000000000002
 21
0.0
 31
0.0
  0
LINE
  5
1B3
330
1AD
100
AcDbEntity
  8
0
  6
Continuous
 62
     0
370
     0
100
AcDbLine
 10
0.0
 20
4.999999999999976
 30
0.0
 11
0.0
 21
24.70000000000047
 31
0.0
  0
LINE
  5
1B4
330
1AD
100
AcDbEntity
  8
0
  6
Continuous
 62
     0
370
     0
100
AcDbLine
 10
-5.000000000000004
 20
0.0
 30
0.0
 11
-24.70000000000049
 21
0.0
 31
0.0
  0
LINE
  5
1B5
330
1AD
100
AcDbEntity
  8
0
  6
Continuous
 62
     0
370
     0
100
AcDbLine
 10
0.0
 20
-5.000000000000004
 30
0.0
 11
0.0
 21
-24.7000000000005
 31
0.0
  0
LINE
  5
1B6
330
1AD
100
AcDbEntity
  8
0
  6
Continuous
 62
     0
370
     0
100
AcDbLine
 10
5.000000000000004
 20
0.0
 30
0.0
 11
24.70000000000049
 21
0.0
 31
0.0
  0
ENDBLK
  5
1B7
330
1AD
100
AcDbEntity
  8
0
100
AcDbBlockEnd
  0
BLOCK
  5
2B1
330
2B0
100
AcDbEntity
  8
0
100
AcDbBlockBegin
  2
1
 70
     0
 10
0.0
 20
0.0
 30
0.0
  3
1
  1

  0
LINE
  5
379
330
2B0
100
AcDbEntity
  8
0
  6
Continuous
 62
     7
370
    15
100
AcDbLine
 10
2186.899999263479
 20
953.6493798450109
 30
0.0
 11
2186.899999263479
 21
954.7709615530965
 31
0.0
1001
AcDbBlockRepETag
1070
     1
1071
        0
1005
379
  0
LINE
  5
37A
330
2B0
100
AcDbEntity
  8
0
  6
Continuous
 62
     7
370
    15
100
AcDbLine
 10
2142.499999263479
 20
954.7709615530987
 30
0.0
 11
2142.499999263479
 21
953.6493798450132
 31
0.0
1001
AcDbBlockRepETag
1070
     1
1071
        1
1005
37A
  0
ARC
  5
37B
330
2B0
100
AcDbEntity
  8
0
  6
Continuous
 62
     7
370
    15
100
AcDbCircle
 10
2185.899999263479
 20
954.7709615530965
 30
0.0
 40
0.9999999999997442
100
AcDbArc
 50
359.9999999999935
 51
77.97686772179209
1001
AcDbBlockRepETag
1070
     1
1071
        2
1005
37B
  0
ARC
  5
37C
330
2B0
100
AcDbEntity
  8
0
  6
Continuous
 62
     7
370
    15
100
AcDbCircle
 10
2143.499999263479
 20
954.7709615530987
 30
0.0
 40
0.9999999999997442
100
AcDbArc
 50
102.0231322782079
 51
180.0
1001
AcDbBlockRepETag
1070
     1
1071
        3
1005
37C
  0
ARC
  5
37D
330
2B0
100
AcDbEntity
  8
0
  6
Continuous
 62
     7
370
    15
100
AcDbCircle
 10
2164.699999263479
 20
836.4813722816856
 30
0.0
 40
121.1737950529386
100
AcDbArc
 50
93.54858181407692
 51
100.1761121297518
1001
AcDbBlockRepETag
1070
     1
1071
        4
1005
37D
  0
ARC
  5
37E
330
2B0
100
AcDbEntity
  8
0
  6
Continuous
 62
     7
370
    15
100
AcDbCircle
 10
2164.699999263479
 20
836.4813722816856
 30
0.0
 40
121.1737950529386
100
AcDbArc
 50
79.82388787024818
 51
86.45145786557673
1001
AcDbBlockRepETag
1070
     1
1071
        5
1005
37E
  0
SPLINE
  5
37F
330
2B0
100
AcDbEntity
  8
0
  6
Continuous
 62
     7
370
    15
100
AcDbSpline
210
0.0
220
0.0
230
1.0
 70
     8
 71
     3
 72
     9
 73
     5
 74
     0
 42
0.0000000001
 43
0.0000000001
 40
0.0
 40
0.0
 40
0.0
 40
0.0
 40
0.4999991656016745
 40
0.9999999999999998
 40
0.9999999999999998
 40
0.9999999999999998
 40
0.9999999999999998
 10
2182.227847452494
 20
945.8058097395401
 30
0.0
 10
2182.357932975802
 20
945.9100392090441
 30
0.0
 10
2182.618104456591
 20
946.1184984959286
 30
0.0
 10
2182.878276869355
 20
946.3269567231129
 30
0.0
 10
2182.950676817972
 20
946.4163055898254
 30
0.0
1001
AcDbBlockRepETag
1070
     1
1071
        6
1005
37F
  0
SPLINE
  5
380
330
2B0
100
AcDbEntity
  8
0
  6
Continuous
 62
     7
370
    15
100
AcDbSpline
210
0.0
220
0.0
230
1.0
 70
     8
 71
     3
 72
     9
 73
     5
 74
     0
 42
0.0000000001
 43
0.0000000001
 40
0.0
 40
0.0
 40
0.0
 40
0.0
 40
0.4999991746037678
 40
1.0
 40
1.0
 40
1.0
 40
1.0
 10
2182.227882200792
 20
947.3058370622508
 30
0.0
 10
2182.35796755377
 20
947.4100663867757
 30
0.0
 10
2182.618138689215
 20
947.6185253799476
 30
0.0
 10
2182.878310738499
 20
947.8269833248496
 30
0.0
 10
2182.950676817972
 20
947.9163819222847
 30
0.0
1001
AcDbBlockRepETag
1070
     1
1071
        7
1005
380
  0
SPLINE
  5
381
330
2B0
100
AcDbEntity
  8
0
  6
Continuous
 62
     7
370
    15
100
AcDbSpline
210
0.0
220
0.0
230
1.0
 70
     8
 71
     3
 72
     9
 73
     5
 74
     0
 42
0.0000000001
 43
0.0000000001
 40
0.0
 40
0.0
 40
0.0
 40
0.0
 40
0.4999991830745927
 40
0.9259911466681073
 40
0.9259911466681073
 40
0.9259911466681073
 40
0.9259911466681073
 10
2182.227928061567
 20
948.8058734281903
 30
0.0
 10
2182.358013258586
 20
948.9101026151251
 30
0.0
 10
2182.598929133712
 20
949.1031335391609
 30
0.0
 10
2182.839845767222
 20
949.2961635735676
 30
0.0
 10
2182.950676817972
 20
949.4303121369672
 30
0.0
1001
AcDbBlockRepETag
1070
     1
1071
        8
1005
381
  0
SPLINE
  5
382
330
2B0
100
AcDbEntity
  8
0
  6
Continuous
 62
     7
370
    15
100
AcDbSpline
210
0.0
220
0.0
230
1.0
 70
     8
 71
     3
 72
     9
 73
     5
 74
     0
 42
0.0000000001
 43
0.0000000001
 40
0.0
 40
0.0
 40
0.0
 40
0.0
 40
0.4999991905076964
 40
0.9259218457263498
 40
0.9259218457263498
 40
0.9259218457263498
 40
0.9259218457263498
 10
2182.227982953786
 20
950.3059174260821
 30
0.0
 10
2182.358068017542
 20
950.4101464911904
 30
0.0
 10
2182.598965612221
 20
950.6031627403681
 30
0.0
 10
2182.839863931177
 20
950.7961781081382
 30
0.0
 10
2182.950676817972
 20
950.9163799579775
 30
0.0
1001
AcDbBlockRepETag
1070
     1
1071
        9
1005
382
  0
SPLINE
  5
383
330
2B0
100
AcDbEntity
  8
0
  6
Continuous
 62
     7
370
    15
100
AcDbSpline
210
0.0
220
0.0
230
1.0
 70
     8
 71
     3
 72
     9
 73
     5
 74
     0
 42
0.0000000001
 43
0.0000000001
 40
0.0
 40
0.0
 40
0.0
 40
0.0
 40
0.0261120939548175
 40
1.0
 40
1.0
 40
1.0
 40
1.0
 10
2146.771400229189
 20
951.3769052986059
 30
0.0
 10
2146.77484360449
 20
951.3741463552447
 30
0.0
 10
2146.906712588521
 20
951.2684886716447
 30
0.0
 10
2147.03858115612
 20
951.1628304689979
 30
0.0
 10
2147.167006359293
 20
951.0599312232656
 30
0.0
1001
AcDbBlockRepETag
1070
     1
1071
       10
1005
383
  0
SPLINE
  5
384
330
2B0
100
AcDbEntity
  8
0
  6
Continuous
 62
     7
370
    15
100
AcDbSpline
210
0.0
220
0.0
230
1.0
 70
     8
 71
     3
 72
     9
 73
     5
 74
     0
 42
0.0000000001
 43
0.0000000001
 40
0.0745232466169722
 40
0.0745232466169722
 40
0.0745232466169722
 40
0.0745232466169722
 40
0.5032490206693262
 40
1.0
 40
1.0
 40
1.0
 40
1.0
 10
2146.449321708985
 20
950.2035042220807
 30
0.0
 10
2146.560144004991
 20
950.046170514653
 30
0.0
 10
2146.799372535785
 20
949.8544930391368
 30
0.0
 10
2147.038600329776
 20
949.6628146849033
 30
0.0
 10
2147.1670061925
 20
949.559931052404
 30
0.0
1001
AcDbBlockRepETag
1070
     1
1071
       11
1005
384
  0
SPLINE
  5
385
330
2B0
100
AcDbEntity
  8
0
  6
Continuous
 62
     7
370
    15
100
AcDbSpline
210
0.0
220
0.0
230
1.0
 70
     8
 71
     3
 72
     9
 73
     5
 74
     0
 42
0.0000000001
 43
0.0000000001
 40
0.0744638285953842
 40
0.0744638285953842
 40
0.0744638285953842
 40
0.0744638285953842
 40
0.5032816293047297
 40
1.0
 40
1.0
 40
1.0
 40
1.0
 10
2146.449321708986
 20
948.7035039404853
 30
0.0
 10
2146.560160753451
 20
948.5461573424533
 30
0.0
 10
2146.799389447217
 20
948.3544797428617
 30
0.0
 10
2147.038617374622
 20
948.1628012558402
 30
0.0
 10
2147.167006636972
 20
948.0599309102911
 30
0.0
1001
AcDbBlockRepETag
1070
     1
1071
       12
1005
385
  0
SPLINE
  5
386
330
2B0
100
AcDbEntity
  8
0
  6
Continuous
 62
     7
370
    15
100
AcDbSpline
210
0.0
220
0.0
230
1.0
 70
     8
 71
     3
 72
     9
 73
     5
 74
     0
 42
0.0000000001
 43
0.0000000001
 40
0.0744166853847333
 40
0.0744166853847333
 40
0.0744166853847333
 40
0.0744166853847333
 40
0.5033078496236162
 40
1.0
 40
1.0
 40
1.0
 40
1.0
 10
2146.449321708987
 20
947.2035037197869
 30
0.0
 10
2146.560174094847
 20
947.0461471574321
 30
0.0
 10
2146.799402841387
 20
946.8544695217289
 30
0.0
 10
2147.038630801236
 20
946.6627909890418
 30
0.0
 10
2147.16700676473
 20
946.5599312884853
 30
0.0
1001
AcDbBlockRepETag
1070
     1
1071
       13
1005
386
  0
SPLINE
  5
387
330
2B0
100
AcDbEntity
  8
0
  6
Continuous
 62
     7
370
    15
100
AcDbSpline
210
0.0
220
0.0
230
1.0
 70
     8
 71
     3
 72
     9
 73
     5
 74
     0
 42
0.0000000001
 43
0.0000000001
 40
0.0743837311865766
 40
0.0743837311865766
 40
0.0743837311865766
 40
0.0743837311865766
 40
0.5033262527563207
 40
1.0
 40
1.0
 40
1.0
 40
1.0
 10
2146.449321708986
 20
945.7035035670608
 30
0.0
 10
2146.560183472688
 20
945.5461401553844
 30
0.0
 10
2146.799412328519
 20
945.354462439184
 30
0.0
 10
2147.038640387117
 20
945.1627838161659
 30
0.0
 10
2147.167007076762
 20
945.0599315401543
 30
0.0
1001
AcDbBlockRepETag
1070
     1
1071
       14
1005
387
  0
LINE
  5
388
330
2B0
100
AcDbEntity
  8
0
  6
Continuous
 62
     7
370
    15
100
AcDbLine
 10
2182.950676817972
 20
951.0549119285288
 30
0.0
 11
2182.419999263556
 21
951.559379845028
 31
0.0
1001
AcDbBlockRepETag
1070
     1
1071
       15
1005
388
  0
LINE
  5
389
330
2B0
100
AcDbEntity
  8
0
  6
Continuous
 62
     7
370
    15
100
AcDbLine
 10
2146.979999263402
 20
951.5593798450298
 30
0.0
 11
2146.774547730437
 21
951.3839140498573
 31
0.0
1001
AcDbBlockRepETag
1070
     1
1071
       16
1005
389
  0
LINE
  5
38A
330
2B0
100
AcDbEntity
  8
0
  6
Continuous
 62
     7
370
    15
100
AcDbLine
 10
2182.950676817972
 20
950.9163799579775
 30
0.0
 11
2182.950676817972
 21
951.0549119285288
 31
0.0
1001
AcDbBlockRepETag
1070
     1
1071
       17
1005
38A
  0
LINE
  5
38B
330
2B0
100
AcDbEntity
  8
0
  6
Continuous
 62
     7
370
    15
100
AcDbLine
 10
2182.950676817972
 20
949.4163055898255
 30
0.0
 11
2182.950676817971
 21
949.7663087186644
 31
0.0
1001
AcDbBlockRepETag
1070
     1
1071
       18
1005
38B
  0
LINE
  5
38C
330
2B0
100
AcDbEntity
  8
0
  6
Continuous
 62
     7
370
    15
100
AcDbLine
 10
2182.950676817972
 20
947.9163819222847
 30
0.0
 11
2182.950676817972
 21
948.2663084830601
 31
0.0
1001
AcDbBlockRepETag
1070
     1
1071
       19
1005
38C
  0
LINE
  5
38D
330
2B0
100
AcDbEntity
  8
0
  6
Continuous
 62
     7
370
    15
100
AcDbLine
 10
2182.950676817972
 20
946.4163055898254
 30
0.0
 11
2182.950676817972
 21
946.7663073477229
 31
0.0
1001
AcDbBlockRepETag
1070
     1
1071
       20
1005
38D
  0
LINE
  5
38E
330
2B0
100
AcDbEntity
  8
0
  6
Continuous
 62
     7
370
    15
100
AcDbLine
 10
2182.950676817972
 20
945.2297739825562
 30
0.0
 11
2182.950676817972
 21
945.2664883866683
 31
0.0
1001
AcDbBlockRepETag
1070
     1
1071
       21
1005
38E
  0
LINE
  5
38F
330
2B0
100
AcDbEntity
  8
0
  6
Continuous
 62
     7
370
    15
100
AcDbLine
 10
2146.449321708986
 20
946.0535777402121
 30
0.0
 11
2146.449321708986
 21
945.7035035670607
 31
0.0
1001
AcDbBlockRepETag
1070
     1
1071
       22
1005
38F
  0
LINE
  5
390
330
2B0
100
AcDbEntity
  8
0
  6
Continuous
 62
     7
370
    15
100
AcDbLine
 10
2146.449321708986
 20
947.5774775802275
 30
0.0
 11
2146.449321708986
 21
947.2035037197889
 31
0.0
1001
AcDbBlockRepETag
1070
     1
1071
       23
1005
390
  0
LINE
  5
391
330
2B0
100
AcDbEntity
  8
0
  6
Continuous
 62
     7
370
    15
100
AcDbLine
 10
2146.449321708986
 20
949.0535777402122
 30
0.0
 11
2146.449321708986
 21
948.7035039404853
 31
0.0
1001
AcDbBlockRepETag
1070
     1
1071
       24
1005
391
  0
LINE
  5
392
330
2B0
100
AcDbEntity
  8
0
  6
Continuous
 62
     7
370
    15
100
AcDbLine
 10
2146.449321708986
 20
950.5536348269753
 30
0.0
 11
2146.449321708986
 21
950.2035042220793
 31
0.0
1001
AcDbBlockRepETag
1070
     1
1071
       25
1005
392
  0
SPLINE
  5
393
330
2B0
100
AcDbEntity
  8
0
  6
Continuous
 62
     7
370
    15
100
AcDbSpline
210
0.0
220
0.0
230
1.0
 70
     8
 71
     3
 72
     9
 73
     5
 74
     0
 42
0.0000000001
 43
0.0000000001
 40
0.0
 40
0.0
 40
0.0
 40
0.0
 40
0.503962214105837
 40
1.0
 40
1.0
 40
1.0
 40
1.0
 10
2182.950676817972
 20
945.2664883866683
 30
0.0
 10
2182.877325474126
 20
945.3767867245415
 30
0.0
 10
2182.619182159183
 20
945.5503186985165
 30
0.0
 10
2182.361039806681
 20
945.7238521483688
 30
0.0
 10
2182.2329914457
 20
945.8099312966121
 30
0.0
1001
AcDbBlockRepETag
1070
     1
1071
       26
1005
393
  0
SPLINE
  5
394
330
2B0
100
AcDbEntity
  8
0
  6
Continuous
 62
     7
370
    15
100
AcDbSpline
210
0.0
220
0.0
230
1.0
 70
     8
 71
     3
 72
     9
 73
     5
 74
     0
 42
0.0000000001
 43
0.0000000001
 40
0.0
 40
0.0
 40
0.0
 40
0.0
 40
0.5038271899622427
 40
1.0
 40
1.0
 40
1.0
 40
1.0
 10
2182.950676817972
 20
946.7663073477229
 30
0.0
 10
2182.877528959718
 20
946.8766502403697
 30
0.0
 10
2182.619318378692
 20
947.0502275078635
 30
0.0
 10
2182.361108648033
 20
947.2238061962954
 30
0.0
 10
2182.232992000393
 20
947.3099312218975
 30
0.0
1001
AcDbBlockRepETag
1070
     1
1071
       27
1005
394
  0
SPLINE
  5
395
330
2B0
100
AcDbEntity
  8
0
  6
Continuous
 62
     7
370
    15
100
AcDbSpline
210
0.0
220
0.0
230
1.0
 70
     8
 71
     3
 72
     9
 73
     5
 74
     0
 42
0.0000000001
 43
0.0000000001
 40
0.0732993066603668
 40
0.0732993066603668
 40
0.0732993066603668
 40
0.0732993066603668
 40
0.5039430273551488
 40
1.0
 40
1.0
 40
1.0
 40
1.0
 10
2182.950676817972
 20
948.2663084830601
 30
0.0
 10
2182.839505721256
 20
948.4022106224211
 30
0.0
 10
2182.60027709296
 20
948.5630277245677
 30
0.0
 10
2182.361049351716
 20
948.7238460379916
 30
0.0
 10
2182.232992267107
 20
948.8099310558149
 30
0.0
1001
AcDbBlockRepETag
1070
     1
1071
       28
1005
395
  0
SPLINE
  5
396
330
2B0
100
AcDbEntity
  8
0
  6
Continuous
 62
     7
370
    15
100
AcDbSpline
210
0.0
220
0.0
230
1.0
 70
     8
 71
     3
 72
     9
 73
     5
 74
     0
 42
0.0000000001
 43
0.0000000001
 40
0.073253949014868
 40
0.073253949014868
 40
0.073253949014868
 40
0.073253949014868
 40
0.5039716462206235
 40
1.0
 40
1.0
 40
1.0
 40
1.0
 10
2182.950676817971
 20
949.7663087186646
 30
0.0
 10
2182.839492025902
 20
949.9022193780998
 30
0.0
 10
2182.60026330785
 20
950.0630365127268
 30
0.0
 10
2182.361035429588
 20
950.2238549136814
 30
0.0
 10
2182.232991926724
 20
950.3099307988692
 30
0.0
1001
AcDbBlockRepETag
1070
     1
1071
       29
1005
396
  0
SPLINE
  5
397
330
2B0
100
AcDbEntity
  8
0
  6
Continuous
 62
     7
370
    15
100
AcDbSpline
210
0.0
220
0.0
230
1.0
 70
     8
 71
     3
 72
     9
 73
     5
 74
     0
 42
0.0000000001
 43
0.0000000001
 40
0.0
 40
0.0
 40
0.0
 40
0.0
 40
0.4999986702735754
 40
0.9999999999999998
 40
0.9999999999999998
 40
0.9999999999999998
 40
0.9999999999999998
 10
2147.173099329753
 20
951.0640271497694
 30
0.0
 10
2147.043007212161
 20
950.9765741038235
 30
0.0
 10
2146.782822285026
 20
950.8016675467755
 30
0.0
 10
2146.522636322793
 20
950.626762407669
 30
0.0
 10
2146.449321708986
 20
950.5536348269753
 30
0.0
1001
AcDbBlockRepETag
1070
     1
1071
       30
1005
397
  0
SPLINE
  5
398
330
2B0
100
AcDbEntity
  8
0
  6
Continuous
 62
     7
370
    15
100
AcDbSpline
210
0.0
220
0.0
230
1.0
 70
     8
 71
     3
 72
     9
 73
     5
 74
     0
 42
0.0000000001
 43
0.0000000001
 40
0.0
 40
0.0
 40
0.0
 40
0.0
 40
0.4999986526687223
 40
1.0
 40
1.0
 40
1.0
 40
1.0
 10
2147.17293992731
 20
949.563919933691
 30
0.0
 10
2147.042847463878
 20
949.4764666847247
 30
0.0
 10
2146.782661835901
 20
949.3015597154769
 30
0.0
 10
2146.522475352766
 20
949.1266541829741
 30
0.0
 10
2146.449321708986
 20
949.0535777402122
 30
0.0
1001
AcDbBlockRepETag
1070
     1
1071
       31
1005
398
  0
SPLINE
  5
399
330
2B0
100
AcDbEntity
  8
0
  6
Continuous
 62
     7
370
    15
100
AcDbSpline
210
0.0
220
0.0
230
1.0
 70
     8
 71
     3
 72
     9
 73
     5
 74
     0
 42
0.0000000001
 43
0.0000000001
 40
0.0
 40
0.0
 40
0.0
 40
0.0
 40
0.4999986055052181
 40
0.9273143518395096
 40
0.9273143518395096
 40
0.9273143518395096
 40
0.9273143518395096
 10
2147.173149032652
 20
948.0640600621274
 30
0.0
 10
2147.043055778359
 20
947.9766062533109
 30
0.0
 10
2146.801780421879
 20
947.8144114568738
 30
0.0
 10
2146.560504224584
 20
947.6522179391377
 30
0.0
 10
2146.449321708986
 20
947.5774775802277
 30
0.0
1001
AcDbBlockRepETag
1070
     1
1071
       32
1005
399
  0
SPLINE
  5
39A
330
2B0
100
AcDbEntity
  8
0
  6
Continuous
 62
     7
370
    15
100
AcDbSpline
210
0.0
220
0.0
230
1.0
 70
     8
 71
     3
 72
     9
 73
     5
 74
     0
 42
0.0000000001
 43
0.0000000001
 40
0.0
 40
0.0
 40
0.0
 40
0.0
 40
0.4999986633797804
 40
1.0
 40
1.0
 40
1.0
 40
1.0
 10
2147.173122901759
 20
946.5640427886132
 30
0.0
 10
2147.043030668565
 20
946.4765896599795
 30
0.0
 10
2146.78284550664
 20
946.3016829351442
 30
0.0
 10
2146.522659298533
 20
946.126777635599
 30
0.0
 10
2146.449321708986
 20
946.0535777402121
 30
0.0
1001
AcDbBlockRepETag
1070
     1
1071
       33
1005
39A
  0
LINE
  5
39B
330
2B0
100
AcDbEntity
  8
0
  6
Continuous
 62
     7
370
    15
100
AcDbLine
 10
2147.17292831531
 20
945.0639120208826
 30
0.0
 11
2146.950110795439
 21
944.9141256482031
 31
0.0
1001
AcDbBlockRepETag
1070
     1
1071
       34
1005
39B
  0
LINE
  5
39C
330
2B0
100
AcDbEntity
  8
0
  6
Continuous
 62
     7
370
    15
100
AcDbLine
 10
2146.955959336036
 20
944.9026255960475
 30
0.0
 11
2147.389321708986
 21
944.6524237133681
 31
0.0
1001
AcDbBlockRepETag
1070
     1
1071
       35
1005
39C
  0
LINE
  5
39D
330
2B0
100
AcDbEntity
  8
0
  6
Continuous
 62
     7
370
    15
100
AcDbLine
 10
2182.010676817971
 20
944.6524237133663
 30
0.0
 11
2182.950676817972
 21
945.229773982556
 31
0.0
1001
AcDbBlockRepETag
1070
     1
1071
       36
1005
39D
  0
LINE
  5
39E
330
2B0
100
AcDbEntity
  8
0
  6
Continuous
 62
     7
370
    15
100
AcDbLine
 10
2182.419999263565
 20
951.559379845028
 30
0.0
 11
2182.419999263565
 21
953.6493798450113
 31
0.0
1001
AcDbBlockRepETag
1070
     1
1071
       37
1005
39E
  0
LINE
  5
39F
330
2B0
100
AcDbEntity
  8
0
  6
Continuous
 62
     7
370
    15
100
AcDbLine
 10
2146.979999263393
 20
953.6493798450129
 30
0.0
 11
2146.979999263393
 21
951.5593798450298
 31
0.0
1001
AcDbBlockRepETag
1070
     1
1071
       38
1005
39F
  0
LINE
  5
3A0
330
2B0
100
AcDbEntity
  8
0
  6
Continuous
 62
     7
370
    15
100
AcDbLine
 10
2186.899999263479
 20
953.6493798450109
 30
0.0
 11
2142.499999263479
 21
953.6493798450132
 31
0.0
1001
AcDbBlockRepETag
1070
     1
1071
       39
1005
3A0
  0
LINE
  5
3A1
330
2B0
100
AcDbEntity
  8
0
  6
Continuous
 62
     7
370
    15
100
AcDbLine
 10
2186.108305849193
 20
955.7490251330065
 30
0.0
 11
2143.291692677764
 21
955.7490251330087
 31
0.0
1001
AcDbBlockRepETag
1070
     1
1071
       40
1005
3A1
  0
LINE
  5
3A2
330
2B0
100
AcDbEntity
  8
0
  6
Continuous
 62
     7
370
    15
100
AcDbLine
 10
2157.199999263479
 20
957.4228399738366
 30
0.0
 11
2157.232117242308
 21
957.4245528542062
 31
0.0
1001
AcDbBlockRepETag
1070
     1
1071
       41
1005
3A2
  0
SPLINE
  5
3A3
330
2B0
100
AcDbEntity
  8
0
  6
Continuous
 62
     7
370
    15
100
AcDbSpline
210
0.0
220
0.0
230
1.0
 70
     8
 71
     3
 72
    12
 73
     8
 74
     0
 42
0.0000000001
 43
0.0000000001
 40
0.0
 40
0.0
 40
0.0
 40
0.0
 40
0.2500000000000003
 40
0.2500000000000003
 40
0.5000000000000007
 40
0.5000000000000007
 40
1.0
 40
1.0
 40
1.0
 40
1.0
 10
2158.249999263478
 20
957.478825178561
 30
0.0
 10
2158.111441583106
 20
957.4714390971436
 30
0.0
 10
2157.975490117831
 20
957.4641912496858
 30
0.0
 10
2157.721372905493
 20
957.4506426498444
 30
0.0
 10
2157.604959829714
 20
957.4444353444716
 30
0.0
 10
2157.314280128398
 20
957.4289350412179
 30
0.0
 10
2157.199999263479
 20
957.4228399738366
 30
0.0
 10
2157.199999263479
 20
957.4228399738366
 30
0.0
1001
AcDbBlockRepETag
1070
     1
1071
       42
1005
3A3
  0
ARC
  5
3A4
330
2B0
100
AcDbEntity
  8
0
  6
Continuous
 62
     7
370
    15
100
AcDbCircle
 10
2164.699999263479
 20
836.4813722816856
 30
0.0
 40
121.1692457166074
100
AcDbArc
 50
86.9486272953576
 51
93.05137270464241
1001
AcDbBlockRepETag
1070
     1
1071
       43
1005
3A4
  0
SPLINE
  5
3A5
330
2B0
100
AcDbEntity
  8
0
  6
Continuous
 62
     7
370
    15
100
AcDbSpline
210
0.0
220
0.0
230
1.0
 70
     8
 71
     3
 72
    12
 73
     8
 74
     0
 42
0.0000000001
 43
0.0000000001
 40
0.0
 40
0.0
 40
0.0
 40
0.0
 40
0.25
 40
0.25
 40
0.5000000000000001
 40
0.5000000000000001
 40
1.0
 40
1.0
 40
1.0
 40
1.0
 10
2172.199999263479
 20
957.4228399738366
 30
0.0
 10
2172.199999263479
 20
957.4228399738366
 30
0.0
 10
2172.172674081142
 20
957.4242972929598
 30
0.0
 10
2172.067272757167
 20
957.4299183141286
 30
0.0
 10
2171.989275842996
 20
957.4340777756392
 30
0.0
 10
2171.698837220059
 20
957.449565227173
 30
0.0
 10
2171.427107811096
 20
957.4640533789128
 30
0.0
 10
2171.149999263478
 20
957.478825178561
 30
0.0
1001
AcDbBlockRepETag
1070
     1
1071
       44
1005
3A5
  0
SPLINE
  5
3A6
330
2B0
100
AcDbEntity
  8
0
  6
Continuous
 62
     7
370
    15
100
AcDbSpline
210
0.0
220
0.0
230
1.0
 70
     8
 71
     3
 72
    25
 73
    21
 74
     0
 42
0.0000000001
 43
0.0000000001
 40
0.0
 40
0.0
 40
0.0
 40
0.0
 40
0.0557004341704352
 40
0.1121531050952879
 40
0.1691533518116319
 40
0.2264840271033964
 40
0.2839202733437176
 40
0.3402143023965028
 40
0.3961781111757082
 40
0.4516063876953817
 40
0.506305590611291
 40
0.5620060247817263
 40
0.6184586957065791
 40
0.6754589424229229
 40
0.7327896177146874
 40
0.7902258639550088
 40
0.8465198930077937
 40
0.9024837017869991
 40
0.9579119783066728
 40
1.0
 40
1.0
 40
1.0
 40
1.0
 10
2164.699999263479
 20
951.4345774866015
 30
0.0
 10
2164.195102637761
 20
951.4279913278359
 30
0.0
 10
2163.178490735723
 20
951.4147300639477
 30
0.0
 10
2161.656710190225
 20
951.3939764675781
 30
0.0
 10
2160.143855062946
 20
951.372661279105
 30
0.0
 10
2158.658125147022
 20
951.3509581701896
 30
0.0
 10
2157.226029213342
 20
951.3292691011567
 30
0.0
 10
2155.863289725861
 20
951.3078396260953
 30
0.0
 10
2154.583359356627
 20
951.2869266351392
 30
0.0
 10
2153.390653027109
 20
951.2665629022293
 30
0.0
 10
2152.282663047286
 20
951.2469602133739
 30
0.0
 10
2151.259439129155
 20
951.2272297600812
 30
0.0
 10
2150.324263498346
 20
951.2064765443605
 30
0.0
 10
2149.491711239534
 20
951.185161280874
 30
0.0
 10
2148.773973000981
 20
951.1634580849465
 30
0.0
 10
2148.184803720639
 20
951.1417694381014
 30
0.0
 10
2147.726991855778
 20
951.1203383941715
 30
0.0
 10
2147.406826751776
 20
951.0994311887204
 30
0.0
 10
2147.218102549205
 20
951.0805939957998
 30
0.0
 10
2147.194476162276
 20
951.0690569803209
 30
0.0
 10
2147.184279016733
 20
951.0640776059327
 30
0.0
1001
AcDbBlockRepETag
1070
     1
1071
       45
1005
3A6
  0
SPLINE
  5
3A7
330
2B0
100
AcDbEntity
  8
0
  6
Continuous
 62
     7
370
    15
100
AcDbSpline
210
0.0
220
0.0
230
1.0
 70
     8
 71
     3
 72
    43
 73
    39
 74
     0
 42
0.0000000001
 43
0.0000000001
 40
0.0
 40
0.0
 40
0.0
 40
0.0
 40
0.022633019744943
 40
0.0508235885459057
 40
0.0792875983155752
 40
0.1079166130236576
 40
0.1365983463195393
 40
0.1647096946950378
 40
0.1926561421510704
 40
0.2203351627739676
 40
0.2476501085134072
 40
0.2754650355310384
 40
0.3036556043320012
 40
0.3321196141016707
 40
0.360748628809753
 40
0.389430362105635
 40
0.4175417104811337
 40
0.4454881579371663
 40
0.4731671785600637
 40
0.500482124299503
 40
0.5282970513171346
 40
0.5564876201180973
 40
0.5849516298877666
 40
0.6135806445958491
 40
0.6422623778917309
 40
0.6703737262672297
 40
0.6983201737232625
 40
0.72599919434616
 40
0.7533141400855988
 40
0.7811290671032304
 40
0.8093196359041929
 40
0.8377836456738624
 40
0.8664126603819447
 40
0.8950943936778267
 40
0.9232057420533253
 40
0.9511521895093579
 40
0.9788312101322551
 40
0.9999999999999998
 40
0.9999999999999998
 40
0.9999999999999998
 40
0.9999999999999998
 10
2182.218076529327
 20
950.3058735659381
 30
0.0
 10
2182.207089648856
 20
950.3005111773395
 30
0.0
 10
2182.182418054046
 20
950.2884696630017
 30
0.0
 10
2181.984605951698
 20
950.268972698759
 30
0.0
 10
2181.652307790258
 20
950.247662299604
 30
0.0
 10
2181.18067460784
 20
950.2259578953283
 30
0.0
 10
2180.582362278233
 20
950.2042691732501
 30
0.0
 10
2179.865742631774
 20
950.1828396070511
 30
0.0
 10
2179.043267117057
 20
950.1619266402057
 30
0.0
 10
2178.122256173099
 20
950.1415629007858
 30
0.0
 10
2177.104507285845
 20
950.1219602141736
 30
0.0
 10
2175.988820452587
 20
950.1022297582904
 30
0.0
 10
2174.771871208671
 20
950.0814765508151
 30
0.0
 10
2173.46494005663
 20
950.060161256566
 30
0.0
 10
2172.081473274171
 20
950.0384581762588
 30
0.0
 10
2170.645597670945
 20
950.0167690995663
 30
0.0
 10
2169.175310786198
 20
949.9953396265064
 30
0.0
 10
2167.68867423489
 20
949.9744266350598
 30
0.0
 10
2166.194053291454
 20
949.9540629021389
 30
0.0
 10
2164.69092837227
 20
949.9344602138066
 30
0.0
 10
2163.178489428832
 20
949.9147297583917
 30
0.0
 10
2161.656710546123
 20
949.8939765507882
 30
0.0
 10
2160.14385496658
 20
949.8726612565739
 30
0.0
 10
2158.658125172974
 20
949.8509581762581
 30
0.0
 10
2157.226029206549
 20
949.8292690995652
 30
0.0
 10
2155.863289727603
 20
949.8078396265153
 30
0.0
 10
2154.583359356352
 20
949.786926635029
 30
0.0
 10
2153.390653026495
 20
949.766562902255
 30
0.0
 10
2152.28266304999
 20
949.7469602133781
 30
0.0
 10
2151.259439118673
 20
949.7272297600364
 30
0.0
 10
2150.324263538223
 20
949.7064765445387
 30
0.0
 10
2149.491711088796
 20
949.6851612801988
 30
0.0
 10
2148.773973567413
 20
949.663458087485
 30
0.0
 10
2148.184801620618
 20
949.6417694286893
 30
0.0
 10
2147.726999500311
 20
949.6203384284335
 30
0.0
 10
2147.406798504114
 20
949.5994310621179
 30
0.0
 10
2147.217823597953
 20
949.5805571950135
 30
0.0
 10
2147.194176920566
 20
949.5689845380342
 30
0.0
 10
2147.183929346731
 20
949.5639693870714
 30
0.0
1001
AcDbBlockRepETag
1070
     1
1071
       46
1005
3A7
  0
SPLINE
  5
3A8
330
2B0
100
AcDbEntity
  8
0
  6
Continuous
 62
     7
370
    15
100
AcDbSpline
210
0.0
220
0.0
230
1.0
 70
     8
 71
     3
 72
    43
 73
    39
 74
     0
 42
0.0000000001
 43
0.0000000001
 40
0.0
 40
0.0
 40
0.0
 40
0.0
 40
0.0225766806863832
 40
0.0507745835974909
 40
0.0792459986162098
 40
0.1078824615013294
 40
0.1365716566896132
 40
0.1646903185651254
 40
0.1926440366202455
 40
0.2203302582679742
 40
0.2476523103138554
 40
0.2754744737139752
 40
0.303672376625083
 40
0.3321437916438019
 40
0.3607802545289216
 40
0.3894694497172054
 40
0.4175881115927177
 40
0.445541829647838
 40
0.4732280512955669
 40
0.5005501033414478
 40
0.528372266741568
 40
0.5565701696526756
 40
0.5850415846713945
 40
0.613678047556514
 40
0.6423672427447978
 40
0.6704859046203099
 40
0.69843962267543
 40
0.7261258443231588
 40
0.7534478963690395
 40
0.7812700597691599
 40
0.8094679626802674
 40
0.8379393776989864
 40
0.866575840584106
 40
0.8952650357723898
 40
0.9233836976479018
 40
0.951337415703022
 40
0.9790236373507509
 40
1.0
 40
1.0
 40
1.0
 40
1.0
 10
2182.21793026113
 20
948.8058290987089
 30
0.0
 10
2182.206963961124
 20
948.8004814066874
 30
0.0
 10
2182.182300932746
 20
948.7884545352722
 30
0.0
 10
2181.984594690066
 20
948.7689726484644
 30
0.0
 10
2181.65231083962
 20
948.7476623132224
 30
0.0
 10
2181.18067378653
 20
948.7259578916603
 30
0.0
 10
2180.582362493652
 20
948.7042691742122
 30
0.0
 10
2179.865742574897
 20
948.6828396067972
 30
0.0
 10
2179.043267132103
 20
948.661926640273
 30
0.0
 10
2178.122256169145
 20
948.6415629007682
 30
0.0
 10
2177.104507286919
 20
948.6219602141785
 30
0.0
 10
2175.988820452293
 20
948.6022297582891
 30
0.0
 10
2174.771871208751
 20
948.5814765508155
 30
0.0
 10
2173.464940056609
 20
948.5601612565657
 30
0.0
 10
2172.081473274177
 20
948.5384581762589
 30
0.0
 10
2170.645597670943
 20
948.5167690995663
 30
0.0
 10
2169.175310786198
 20
948.4953396265064
 30
0.0
 10
2167.688674234889
 20
948.4744266350597
 30
0.0
 10
2166.194053291454
 20
948.4540629021388
 30
0.0
 10
2164.69092837227
 20
948.4344602138067
 30
0.0
 10
2163.178489428831
 20
948.4147297583918
 30
0.0
 10
2161.656710546123
 20
948.3939765507884
 30
0.0
 10
2160.143854966579
 20
948.3726612565739
 30
0.0
 10
2158.658125172979
 20
948.3509581762582
 30
0.0
 10
2157.22602920653
 20
948.3292690995652
 30
0.0
 10
2155.863289727674
 20
948.3078396265156
 30
0.0
 10
2154.583359356089
 20
948.2869266350277
 30
0.0
 10
2153.390653027461
 20
948.2665629022594
 30
0.0
 10
2152.282663046408
 20
948.2469602133621
 30
0.0
 10
2151.259439132395
 20
948.2272297600978
 30
0.0
 10
2150.32426348606
 20
948.2064765443048
 30
0.0
 10
2149.49171128596
 20
948.1851612810825
 30
0.0
 10
2148.773972826528
 20
948.1634580841644
 30
0.0
 10
2148.184804367414
 20
948.1417694410001
 30
0.0
 10
2147.726989501373
 20
948.1203383836195
 30
0.0
 10
2147.406835451644
 20
948.0994312277122
 30
0.0
 10
2147.218188055816
 20
948.0806052801044
 30
0.0
 10
2147.194567885244
 20
948.0690791935611
 30
0.0
 10
2147.184386238072
 20
948.0641107897092
 30
0.0
1001
AcDbBlockRepETag
1070
     1
1071
       47
1005
3A8
  0
SPLINE
  5
3A9
330
2B0
100
AcDbEntity
  8
0
  6
Continuous
 62
     7
370
    15
100
AcDbSpline
210
0.0
220
0.0
230
1.0
 70
     8
 71
     3
 72
    43
 73
    39
 74
     0
 42
0.0000000001
 43
0.0000000001
 40
0.0
 40
0.0
 40
0.0
 40
0.0
 40
0.0225258628087363
 40
0.0507245288995151
 40
0.0791967145005436
 40
0.1078339524350133
 40
0.1365239240998514
 40
0.1646433470103664
 40
0.1925978216362648
 40
0.2202847926149491
 40
0.2476075841354882
 40
0.275430500545843
 40
0.3036291666366206
 40
0.332101352237648
 40
0.3607385901721166
 40
0.3894285618369576
 40
0.4175479847474726
 40
0.445502459373371
 40
0.4731894303520552
 40
0.5005122218725953
 40
0.528335138282951
 40
0.5565338043737297
 40
0.5850059899747581
 40
0.6136432279092277
 40
0.6423331995740656
 40
0.6704526224845805
 40
0.6984070971104789
 40
0.7260940680891631
 40
0.7534168596097022
 40
0.781239776020057
 40
0.8094384421108346
 40
0.8379106277118619
 40
0.8665478656463305
 40
0.8952378373111715
 40
0.9233572602216865
 40
0.9513117348475848
 40
0.978998705826269
 40
1.0
 40
1.0
 40
1.0
 40
1.0
 10
2182.217809378322
 20
947.3057923489324
 30
0.0
 10
2182.206860107789
 20
947.3004568029356
 30
0.0
 10
2182.182204155904
 20
947.2884420330949
 30
0.0
 10
2181.984585360408
 20
947.2689726067981
 30
0.0
 10
2181.652313365853
 20
947.2476623245047
 30
0.0
 10
2181.180673106118
 20
947.2259578886216
 30
0.0
 10
2180.582362672115
 20
947.2042691750091
 30
0.0
 10
2179.865742527778
 20
947.1828396065868
 30
0.0
 10
2179.043267144568
 20
947.1619266403287
 30
0.0
 10
2178.122256165869
 20
947.1415629007536
 30
0.0
 10
2177.104507287809
 20
947.1219602141824
 30
0.0
 10
2175.988820452049
 20
947.102229758288
 30
0.0
 10
2174.771871208817
 20
947.0814765508157
 30
0.0
 10
2173.46494005659
 20
947.0601612565658
 30
0.0
 10
2172.081473274182
 20
947.0384581762589
 30
0.0
 10
2170.645597670942
 20
947.0167690995664
 30
0.0
 10
2169.175310786199
 20
946.9953396265063
 30
0.0
 10
2167.688674234889
 20
946.9744266350598
 30
0.0
 10
2166.194053291454
 20
946.9540629021388
 30
0.0
 10
2164.69092837227
 20
946.9344602138066
 30
0.0
 10
2163.178489428831
 20
946.9147297583917
 30
0.0
 10
2161.656710546123
 20
946.8939765507883
 30
0.0
 10
2160.143854966579
 20
946.8726612565738
 30
0.0
 10
2158.658125172978
 20
946.8509581762582
 30
0.0
 10
2157.226029206531
 20
946.8292690995651
 30
0.0
 10
2155.863289727665
 20
946.8078396265156
 30
0.0
 10
2154.583359356122
 20
946.7869266350279
 30
0.0
 10
2153.390653027342
 20
946.766562902259
 30
0.0
 10
2152.282663046851
 20
946.7469602133641
 30
0.0
 10
2151.259439130699
 20
946.7272297600903
 30
0.0
 10
2150.324263492505
 20
946.7064765443337
 30
0.0
 10
2149.491711261598
 20
946.6851612809731
 30
0.0
 10
2148.773972918073
 20
946.6634580845747
 30
0.0
 10
2148.184804028015
 20
946.641769439479
 30
0.0
 10
2147.726990736858
 20
946.6203383891567
 30
0.0
 10
2147.406830886346
 20
946.599431207251
 30
0.0
 10
2147.218143209572
 20
946.5805993615237
 30
0.0
 10
2147.194519778855
 20
946.5690675427834
 30
0.0
 10
2147.184330000758
 20
946.5640933849043
 30
0.0
1001
AcDbBlockRepETag
1070
     1
1071
       48
1005
3A9
  0
SPLINE
  5
3AA
330
2B0
100
AcDbEntity
  8
0
  6
Continuous
 62
     7
370
    15
100
AcDbSpline
210
0.0
220
0.0
230
1.0
 70
     8
 71
     3
 72
    43
 73
    39
 74
     0
 42
0.0000000001
 43
0.0000000001
 40
0.0
 40
0.0
 40
0.0
 40
0.0
 40
0.0224839421501656
 40
0.0506784885946474
 40
0.0791465145899129
 40
0.1077795688055203
 40
0.1364653490474367
 40
0.1645806638885818
 40
0.1925310545430087
 40
0.2202139806308081
 40
0.2475327804647735
 40
0.2753516321234779
 40
0.3035461785679608
 40
0.3320142045632274
 40
0.3606472587788361
 40
0.3893330390207495
 40
0.4174483538618947
 40
0.4453987445163218
 40
0.4730816706041212
 40
0.5004004704380849
 40
0.5282193220967893
 40
0.556413868541271
 40
0.5848818945365366
 40
0.613514948752144
 40
0.6422007289940602
 40
0.6703160438352054
 40
0.6982664344896325
 40
0.7259493605774318
 40
0.7532681604113963
 40
0.7810870120701017
 40
0.8092815585145844
 40
0.8377495845098509
 40
0.8663826387254594
 40
0.8950684189673726
 40
0.9231837338085176
 40
0.9511341244629447
 40
0.9788170505507439
 40
1.0
 40
1.0
 40
1.0
 40
1.0
 10
2182.217718566423
 20
945.8057647410614
 30
0.0
 10
2182.206782101534
 20
945.8004383196893
 30
0.0
 10
2182.182131463874
 20
945.7884326410169
 30
0.0
 10
2181.984578338152
 20
945.7689725754365
 30
0.0
 10
2181.652315267301
 20
945.7476623329965
 30
0.0
 10
2181.180672593986
 20
945.7259578863343
 30
0.0
 10
2180.58236280644
 20
945.704269175609
 30
0.0
 10
2179.865742492313
 20
945.6828396064283
 30
0.0
 10
2179.04326715395
 20
945.6619266403706
 30
0.0
 10
2178.122256163403
 20
945.6415629007425
 30
0.0
 10
2177.10450728848
 20
945.6219602141853
 30
0.0
 10
2175.988820451865
 20
945.6022297582872
 30
0.0
 10
2174.771871208867
 20
945.581476550816
 30
0.0
 10
2173.464940056577
 20
945.5601612565656
 30
0.0
 10
2172.081473274185
 20
945.5384581762588
 30
0.0
 10
2170.64559767094
 20
945.5167690995663
 30
0.0
 10
2169.175310786199
 20
945.4953396265064
 30
0.0
 10
2167.688674234889
 20
945.4744266350598
 30
0.0
 10
2166.194053291454
 20
945.4540629021389
 30
0.0
 10
2164.69092837227
 20
945.4344602138066
 30
0.0
 10
2163.178489428831
 20
945.4147297583917
 30
0.0
 10
2161.656710546122
 20
945.3939765507882
 30
0.0
 10
2160.14385496658
 20
945.3726612565739
 30
0.0
 10
2158.658125172973
 20
945.3509581762581
 30
0.0
 10
2157.22602920655
 20
945.3292690995651
 30
0.0
 10
2155.8632897276
 20
945.3078396265153
 30
0.0
 10
2154.583359356367
 20
945.2869266350289
 30
0.0
 10
2153.390653026441
 20
945.2665629022549
 30
0.0
 10
2152.28266305019
 20
945.246960213379
 30
0.0
 10
2151.259439117902
 20
945.2272297600329
 30
0.0
 10
2150.324263541154
 20
945.2064765445518
 30
0.0
 10
2149.491711077717
 20
945.185161280149
 30
0.0
 10
2148.773973609044
 20
945.1634580876715
 30
0.0
 10
2148.184801466269
 20
945.1417694279976
 30
0.0
 10
2147.727000062169
 20
945.1203384309517
 30
0.0
 10
2147.406796427962
 20
945.0994310528129
 30
0.0
 10
2147.217803015602
 20
945.0805544804245
 30
0.0
 10
2147.194154840448
 20
945.0689791943906
 30
0.0
 10
2147.183903553771
 20
945.0639614044458
 30
0.0
1001
AcDbBlockRepETag
1070
     1
1071
       49
1005
3AA
  0
SPLINE
  5
3AB
330
2B0
100
AcDbEntity
  8
0
  6
Continuous
 62
     7
370
    15
100
AcDbSpline
210
0.0
220
0.0
230
1.0
 70
     8
 71
     3
 72
    43
 73
    39
 74
     0
 42
0.0000000001
 43
0.0000000001
 40
0.0205775352278703
 40
0.0205775352278703
 40
0.0205775352278703
 40
0.0205775352278703
 40
0.0225856609454057
 40
0.050459589537792
 40
0.0786038792488688
 40
0.1069113152365527
 40
0.1352708759494621
 40
0.1630664605733101
 40
0.1906990017614645
 40
0.2180671282162608
 40
0.2450752799492515
 40
0.2725777971952592
 40
0.3004517257876455
 40
0.3285960154987224
 40
0.3569034514864064
 40
0.385263012199316
 40
0.413058596823164
 40
0.4406911380113186
 40
0.468059264466115
 40
0.4950674161991055
 40
0.5225699334451135
 40
0.5504438620374997
 40
0.5785881517485766
 40
0.6068955877362605
 40
0.6352551484491699
 40
0.6630507330730181
 40
0.6906832742611728
 40
0.7180514007159694
 40
0.7450595524489594
 40
0.7725620696949674
 40
0.8004359982873536
 40
0.8285802879984304
 40
0.8568877239861143
 40
0.8852472846990238
 40
0.9130428693228719
 40
0.9406754105110264
 40
0.9680435369658228
 40
0.9691533428184929
 40
0.9691533428184929
 40
0.9691533428184929
 40
0.9691533428184929
 10
2182.950676817972
 20
950.9163799579779
 30
0.0
 10
2182.948066795011
 20
950.9158920162427
 30
0.0
 10
2182.906928996952
 20
950.9086213347194
 30
0.0
 10
2182.754126038335
 20
950.8941910070893
 30
0.0
 10
2182.406984554912
 20
950.8728803932555
 30
0.0
 10
2181.914368577302
 20
950.8511760453655
 30
0.0
 10
2181.289416759858
 20
950.8294873064413
 30
0.0
 10
2180.540895345519
 20
950.808057743
 30
0.0
 10
2179.681804342645
 20
950.7871447740944
 30
0.0
 10
2178.719791558643
 20
950.7667810335574
 30
0.0
 10
2177.656734461023
 20
950.7471783513423
 30
0.0
 10
2176.491379468325
 20
950.7274478999871
 30
0.0
 10
2175.220253673348
 20
950.70669469104
 30
0.0
 10
2173.855140152796
 20
950.6853793957366
 30
0.0
 10
2172.410083739241
 20
950.6636763140361
 30
0.0
 10
2170.910285349857
 20
950.6419872359732
 30
0.0
 10
2169.374543745151
 20
950.6205577616062
 30
0.0
 10
2167.821724635246
 20
950.599644769173
 30
0.0
 10
2166.260565637355
 20
950.5792810348513
 30
0.0
 10
2164.690524556144
 20
950.5596783509915
 30
0.0
 10
2163.110754808835
 20
950.5399479000841
 30
0.0
 10
2161.521228841709
 20
950.5191946910144
 30
0.0
 10
2159.941023472973
 20
950.4978793957443
 30
0.0
 10
2158.389151461124
 20
950.4761763140356
 30
0.0
 10
2156.89330097512
 20
950.4544872359721
 30
0.0
 10
2155.469894603094
 20
950.4330577616151
 30
0.0
 10
2154.132983938251
 20
950.412144769143
 30
0.0
 10
2152.88718015654
 20
950.3917810349646
 30
0.0
 10
2151.729865249336
 20
950.372178350574
 30
0.0
 10
2150.661087158301
 20
950.3524479016862
 30
0.0
 10
2149.68428756623
 20
950.3316946849267
 30
0.0
 10
2148.814639163129
 20
950.3103794187573
 30
0.0
 10
2148.065069948401
 20
950.2886762275609
 30
0.0
 10
2147.449219936481
 20
950.266987556575
 30
0.0
 10
2146.972678525321
 20
950.2455565945526
 30
0.0
 10
2146.632177372765
 20
950.2246490816125
 30
0.0
 10
2146.501526710535
 20
950.2107024176956
 30
0.0
 10
2146.451254041624
 20
950.2037740127725
 30
0.0
 10
2146.449321708985
 20
950.2035042220807
 30
0.0
1001
AcDbBlockRepETag
1070
     1
1071
       50
1005
3AB
  0
SPLINE
  5
3AC
330
2B0
100
AcDbEntity
  8
0
  6
Continuous
 62
     7
370
    15
100
AcDbSpline
210
0.0
220
0.0
230
1.0
 70
     8
 71
     3
 72
    43
 73
    39
 74
     0
 42
0.0000000001
 43
0.0000000001
 40
0.0254721462786406
 40
0.0254721462786406
 40
0.0254721462786406
 40
0.0254721462786406
 40
0.0273664443407148
 40
0.0551024624134363
 40
0.083107503951914
 40
0.1112748845758732
 40
0.1394941320300178
 40
0.167152193752953
 40
0.1946480187224988
 40
0.2218807371909712
 40
0.2487552619675632
 40
0.276121706308278
 40
0.3038577243809994
 40
0.3318627659194771
 40
0.3600301465434365
 40
0.3882493939975811
 40
0.4159074557205164
 40
0.4434032806900622
 40
0.4706359991585348
 40
0.4975105239351265
 40
0.5248769682758418
 40
0.5526129863485632
 40
0.5806180278870407
 40
0.6087854085110002
 40
0.6370046559651446
 40
0.6646627176880799
 40
0.6921585426576256
 40
0.719391261126098
 40
0.7462657859026896
 40
0.7736322302434048
 40
0.8013682483161261
 40
0.8293732898546039
 40
0.8575406704785631
 40
0.8857599179327076
 40
0.9134179796556429
 40
0.9409138046251886
 40
0.9681465230936611
 40
0.9692512189975806
 40
0.9692512189975806
 40
0.9692512189975806
 40
0.9692512189975806
 10
2182.950676817972
 20
949.4163055898255
 30
0.0
 10
2182.948038801017
 20
949.4158423177799
 30
0.0
 10
2182.904767587724
 20
949.4085873037404
 30
0.0
 10
2182.754968167247
 20
949.3941946078022
 30
0.0
 10
2182.406756527986
 20
949.3728794182748
 30
0.0
 10
2181.914429993685
 20
949.3511763079652
 30
0.0
 10
2181.289400651167
 20
949.3294872375649
 30
0.0
 10
2180.540899598657
 20
949.3080577611854
 30
0.0
 10
2179.681803217513
 20
949.2871447692836
 30
0.0
 10
2178.71979185431
 20
949.2667810348216
 30
0.0
 10
2177.656734380673
 20
949.2471783509989
 30
0.0
 10
2176.491379490338
 20
949.2274479000812
 30
0.0
 10
2175.220253667354
 20
949.2066946910144
 30
0.0
 10
2173.855140154419
 20
949.1853793957435
 30
0.0
 10
2172.410083738804
 20
949.1636763140343
 30
0.0
 10
2170.910285349971
 20
949.1419872359736
 30
0.0
 10
2169.37454374512
 20
949.1205577616062
 30
0.0
 10
2167.821724635254
 20
949.0996447691729
 30
0.0
 10
2166.260565637352
 20
949.0792810348512
 30
0.0
 10
2164.690524556145
 20
949.0596783509914
 30
0.0
 10
2163.110754808835
 20
949.039947900084
 30
0.0
 10
2161.521228841709
 20
949.0191946910144
 30
0.0
 10
2159.941023472973
 20
948.9978793957442
 30
0.0
 10
2158.389151461125
 20
948.9761763140354
 30
0.0
 10
2156.893300975117
 20
948.954487235972
 30
0.0
 10
2155.469894603108
 20
948.9330577616151
 30
0.0
 10
2154.1329839382
 20
948.9121447691431
 30
0.0
 10
2152.88718015673
 20
948.8917810349645
 30
0.0
 10
2151.729865248635
 20
948.872178350575
 30
0.0
 10
2150.661087160985
 20
948.8524479016829
 30
0.0
 10
2149.684287556026
 20
948.8316946849389
 30
0.0
 10
2148.814639201697
 20
948.8103794187116
 30
0.0
 10
2148.065069803476
 20
948.7886762277325
 30
0.0
 10
2147.449220473781
 20
948.7669875559383
 30
0.0
 10
2146.972676569433
 20
948.74555659687
 30
0.0
 10
2146.632184600058
 20
948.7246490730493
 30
0.0
 10
2146.501509940035
 20
948.7107023413424
 30
0.0
 10
2146.451253984911
 20
948.7037738249364
 30
0.0
 10
2146.449321708986
 20
948.7035039404805
 30
0.0
1001
AcDbBlockRepETag
1070
     1
1071
       51
1005
3AC
  0
SPLINE
  5
3AD
330
2B0
100
AcDbEntity
  8
0
  6
Continuous
 62
     7
370
    15
100
AcDbSpline
210
0.0
220
0.0
230
1.0
 70
     8
 71
     3
 72
    43
 73
    39
 74
     0
 42
0.0000000001
 43
0.0000000001
 40
0.0204647918015846
 40
0.0204647918015846
 40
0.0204647918015846
 40
0.0204647918015846
 40
0.0224756979806083
 40
0.0503499410124114
 40
0.0784945482127871
 40
0.1068023035301857
 40
0.1351621841608151
 40
0.1629580823402996
 40
0.1905909352448347
 40
0.2179593704332096
 40
0.2449678268389837
 40
0.2724706543346009
 40
0.3003448973664029
 40
0.3284895045667774
 40
0.3567972598841749
 40
0.3851571405148073
 40
0.4129530386942916
 40
0.4405858915988267
 40
0.4679543267872016
 40
0.4949627831929766
 40
0.5224656106885948
 40
0.5503398537203978
 40
0.5784844609207735
 40
0.6067922162381719
 40
0.6351520968688012
 40
0.6629479950482855
 40
0.6905808479528206
 40
0.7179492831411954
 40
0.7449577395469694
 40
0.7724605670425867
 40
0.8003348100743886
 40
0.8284794172747632
 40
0.8567871725921607
 40
0.885147053222793
 40
0.9129429514022774
 40
0.9405758043068125
 40
0.9679442394951873
 40
0.9690547408219513
 40
0.9690547408219513
 40
0.9690547408219513
 40
0.9690547408219513
 10
2182.950676817972
 20
947.9163819222847
 30
0.0
 10
2182.9480675481
 20
947.9158933290007
 30
0.0
 10
2182.906983230229
 20
947.9086222213751
 30
0.0
 10
2182.754105126128
 20
947.8941909176743
 30
0.0
 10
2182.406990217401
 20
947.8728804174668
 30
0.0
 10
2181.914367052177
 20
947.8511760388444
 30
0.0
 10
2181.289417159877
 20
947.8294873081516
 30
0.0
 10
2180.540895239902
 20
947.8080577425485
 30
0.0
 10
2179.681804370584
 20
947.7871447742138
 30
0.0
 10
2178.719791551301
 20
947.766781033526
 30
0.0
 10
2177.656734463018
 20
947.7471783513507
 30
0.0
 10
2176.491379467778
 20
947.7274478999849
 30
0.0
 10
2175.220253673497
 20
947.7066946910408
 30
0.0
 10
2173.855140152755
 20
947.6853793957364
 30
0.0
 10
2172.410083739252
 20
947.663676314036
 30
0.0
 10
2170.910285349854
 20
947.6419872359731
 30
0.0
 10
2169.374543745151
 20
947.6205577616063
 30
0.0
 10
2167.821724635246
 20
947.5996447691729
 30
0.0
 10
2166.260565637355
 20
947.5792810348513
 30
0.0
 10
2164.690524556144
 20
947.5596783509914
 30
0.0
 10
2163.110754808835
 20
947.5399479000842
 30
0.0
 10
2161.521228841709
 20
947.5191946910145
 30
0.0
 10
2159.941023472973
 20
947.4978793957442
 30
0.0
 10
2158.389151461125
 20
947.4761763140355
 30
0.0
 10
2156.893300975113
 20
947.4544872359722
 30
0.0
 10
2155.469894603118
 20
947.4330577616152
 30
0.0
 10
2154.132983938159
 20
947.412144769143
 30
0.0
 10
2152.887180156877
 20
947.3917810349643
 30
0.0
 10
2151.729865248087
 20
947.3721783505755
 30
0.0
 10
2150.661087163087
 20
947.3524479016806
 30
0.0
 10
2149.684287548034
 20
947.3316946849482
 30
0.0
 10
2148.814639231902
 20
947.3103794186759
 30
0.0
 10
2148.065069689972
 20
947.2886762278671
 30
0.0
 10
2147.449220894592
 20
947.2669875554398
 30
0.0
 10
2146.972675037588
 20
947.245556598685
 30
0.0
 10
2146.632190260447
 20
947.2246490663424
 30
0.0
 10
2146.501496804763
 20
947.2107022814938
 30
0.0
 10
2146.451253940446
 20
947.203773677727
 30
0.0
 10
2146.449321708987
 20
947.2035037197869
 30
0.0
1001
AcDbBlockRepETag
1070
     1
1071
       52
1005
3AD
  0
SPLINE
  5
3AE
330
2B0
100
AcDbEntity
  8
0
  6
Continuous
 62
     7
370
    15
100
AcDbSpline
210
0.0
220
0.0
230
1.0
 70
     8
 71
     3
 72
    43
 73
    39
 74
     0
 42
0.0000000001
 43
0.0000000001
 40
0.0254702775826137
 40
0.0254702775826137
 40
0.0254702775826137
 40
0.0254702775826137
 40
0.0273644366745665
 40
0.0550984199683496
 40
0.0831014069917003
 40
0.111266721190959
 40
0.1394838984153334
 40
0.1671399310783908
 40
0.1946337388901252
 40
0.2218644595028924
 40
0.2487370127017025
 40
0.2761014493762699
 40
0.3038354326700541
 40
0.331838419693406
 40
0.3600037338926659
 40
0.3882209111170374
 40
0.415876943780095
 40
0.4433707515918295
 40
0.4706014722045968
 40
0.4974740254034051
 40
0.5248384620779725
 40
0.5525724453717556
 40
0.5805754323951064
 40
0.6087407465943652
 40
0.6369579238187395
 40
0.6646139564817969
 40
0.6921077642935312
 40
0.7193384849062984
 40
0.7462110381051074
 40
0.7735754747796757
 40
0.8013094580734597
 40
0.8293124450968115
 40
0.8574777592960712
 40
0.8856949365204426
 40
0.9133509691835
 40
0.9408447769952344
 40
0.9680754976080015
 40
0.9691806176486791
 40
0.9691806176486791
 40
0.9691806176486791
 40
0.9691806176486791
 10
2182.950676817972
 20
946.4163055898254
 30
0.0
 10
2182.948038801017
 20
946.4158423177797
 30
0.0
 10
2182.904767587724
 20
946.4085873037404
 30
0.0
 10
2182.754968167247
 20
946.3941946078021
 30
0.0
 10
2182.406756527986
 20
946.3728794182747
 30
0.0
 10
2181.914429993685
 20
946.3511763079653
 30
0.0
 10
2181.289400651167
 20
946.3294872375648
 30
0.0
 10
2180.540899598657
 20
946.3080577611854
 30
0.0
 10
2179.681803217513
 20
946.2871447692837
 30
0.0
 10
2178.71979185431
 20
946.2667810348214
 30
0.0
 10
2177.656734380673
 20
946.2471783509988
 30
0.0
 10
2176.491379490338
 20
946.2274479000813
 30
0.0
 10
2175.220253667353
 20
946.2066946910145
 30
0.0
 10
2173.855140154419
 20
946.1853793957436
 30
0.0
 10
2172.410083738804
 20
946.1636763140344
 30
0.0
 10
2170.910285349971
 20
946.1419872359737
 30
0.0
 10
2169.37454374512
 20
946.1205577616061
 30
0.0
 10
2167.821724635254
 20
946.099644769173
 30
0.0
 10
2166.260565637352
 20
946.0792810348513
 30
0.0
 10
2164.690524556145
 20
946.0596783509915
 30
0.0
 10
2163.110754808835
 20
946.0399479000841
 30
0.0
 10
2161.521228841709
 20
946.0191946910144
 30
0.0
 10
2159.941023472972
 20
945.9978793957443
 30
0.0
 10
2158.389151461126
 20
945.9761763140354
 30
0.0
 10
2156.893300975111
 20
945.9544872359721
 30
0.0
 10
2155.469894603126
 20
945.9330577616151
 30
0.0
 10
2154.132983938132
 20
945.9121447691432
 30
0.0
 10
2152.88718015698
 20
945.8917810349642
 30
0.0
 10
2151.729865247707
 20
945.872178350576
 30
0.0
 10
2150.661087164541
 20
945.8524479016787
 30
0.0
 10
2149.684287542506
 20
945.8316946849548
 30
0.0
 10
2148.814639252795
 20
945.8103794186511
 30
0.0
 10
2148.06506961146
 20
945.7886762279601
 30
0.0
 10
2147.449221185671
 20
945.7669875550948
 30
0.0
 10
2146.972673977997
 20
945.7455565999405
 30
0.0
 10
2146.632194175793
 20
945.7246490617032
 30
0.0
 10
2146.501487718613
 20
945.7107022400709
 30
0.0
 10
2146.451253909663
 20
945.7037735758506
 30
0.0
 10
2146.449321708986
 20
945.7035035670561
 30
0.0
1001
AcDbBlockRepETag
1070
     1
1071
       53
1005
3AE
  0
SPLINE
  5
3AF
330
2B0
100
AcDbEntity
  8
0
  6
Continuous
 62
     7
370
    15
100
AcDbSpline
210
0.0
220
0.0
230
1.0
 70
     8
 71
     3
 72
    25
 73
    21
 74
     0
 42
0.0000000001
 43
0.0000000001
 40
0.0
 40
0.0
 40
0.0
 40
0.0
 40
0.0405978540159457
 40
0.0813388584907456
 40
0.1383352758453196
 40
0.1953316931602308
 40
0.2539839796009559
 40
0.3126362661122269
 40
0.3696326893727528
 40
0.4266291127903691
 40
0.4852761277214636
 40
0.5439236719046678
 40
0.6010501136810694
 40
0.6581765553531285
 40
0.7169484593400336
 40
0.7757203633211143
 40
0.8330803307842815
 40
0.8904402983423464
 40
0.9494665104237812
 40
0.9999999999999998
 40
0.9999999999999998
 40
0.9999999999999998
 40
0.9999999999999998
 10
2162.62083662409
 20
951.5593798450291
 30
0.0
 10
2162.273088079972
 20
951.556962248067
 30
0.0
 10
2161.576364809593
 20
951.5521185295513
 30
0.0
 10
2160.405421421327
 20
951.5437414646504
 30
0.0
 10
2159.116368873489
 20
951.5342794480588
 30
0.0
 10
2157.716237546051
 20
951.5236622967824
 30
0.0
 10
2156.351622807129
 20
951.5129604900014
 30
0.0
 10
2155.046214150697
 20
951.5023536798681
 30
0.0
 10
2153.821007158677
 20
951.4920137743116
 30
0.0
 10
2152.670369183223
 20
951.4819204146359
 30
0.0
 10
2151.593987204992
 20
951.4720004573957
 30
0.0
 10
2150.609853321574
 20
951.4619096964205
 30
0.0
 10
2149.733079128368
 20
951.451570221117
 30
0.0
 10
2148.958312360628
 20
951.4410978746843
 30
0.0
 10
2148.287720620355
 20
951.4304336480645
 30
0.0
 10
2147.733510281435
 20
951.4197489170241
 30
0.0
 10
2147.302740625245
 20
951.4092204339268
 30
0.0
 10
2146.995021310485
 20
951.3988090798608
 30
0.0
 10
2146.80766038923
 20
951.3890373700322
 30
0.0
 10
2146.787321787671
 20
951.3828123799497
 30
0.0
 10
2146.777940779013
 20
951.3799411557069
 30
0.0
1001
AcDbBlockRepETag
1070
     1
1071
       54
1005
3AF
  0
SPLINE
  5
3B0
330
2B0
100
AcDbEntity
  8
0
  6
Continuous
 62
     7
370
    15
100
AcDbSpline
210
0.0
220
0.0
230
1.0
 70
     8
 71
     3
 72
     8
 73
     4
 74
     0
 42
0.0000000001
 43
0.0000000001
 40
0.0
 40
0.0
 40
0.0
 40
0.0
 40
1.0
 40
1.0
 40
1.0
 40
1.0
 10
2164.699999263479
 20
951.5865839780706
 30
0.0
 10
2164.012592683882
 20
951.5778039292877
 30
0.0
 10
2163.317163198901
 20
951.5687090932193
 30
0.0
 10
2162.620836624089
 20
951.5593798450364
 30
0.0
1001
AcDbBlockRepETag
1070
     1
1071
       55
1005
3B0
  0
LINE
  5
3B1
330
2B0
100
AcDbEntity
  8
0
  6
Continuous
 62
     7
370
    15
100
AcDbLine
 10
2182.950676817971
 20
951.0549119285288
 30
0.0
 11
2164.699999263479
 21
951.0549119285307
 31
0.0
1001
AcDbBlockRepETag
1070
     1
1071
       56
1005
3B1
  0
LINE
  5
3B2
330
2B0
100
AcDbEntity
  8
0
  6
Continuous
 62
     7
370
    15
100
AcDbLine
 10
2164.699999263479
 20
951.5593798450298
 30
0.0
 11
2164.699999263479
 21
951.0549119285307
 31
0.0
1001
AcDbBlockRepETag
1070
     1
1071
       57
1005
3B2
  0
LINE
  5
3B3
330
2B0
100
AcDbEntity
  8
0
  6
Continuous
 62
     7
370
    15
100
AcDbLine
 10
2162.62083662409
 20
951.5593798450291
 30
0.0
 11
2146.979999263402
 21
951.5593798450298
 31
0.0
1001
AcDbBlockRepETag
1070
     1
1071
       58
1005
3B3
  0
LINE
  5
3B4
330
2B0
100
AcDbEntity
  8
0
  6
Continuous
 62
     7
370
    15
100
AcDbLine
 10
2182.419999263556
 20
951.559379845028
 30
0.0
 11
2164.699999263479
 21
951.5593798450298
 31
0.0
1001
AcDbBlockRepETag
1070
     1
1071
       59
1005
3B4
  0
LINE
  5
3B5
330
2B0
100
AcDbEntity
  8
0
  6
Continuous
 62
     7
370
    15
100
AcDbLine
 10
2182.950676817972
 20
945.229773982556
 30
0.0
 11
2182.507446194282
 21
945.2297739825562
 31
0.0
1001
AcDbBlockRepETag
1070
     1
1071
       60
1005
3B5
  0
SPLINE
  5
3B6
330
2B0
100
AcDbEntity
  8
0
  6
Continuous
 62
     7
370
    15
100
AcDbSpline
210
0.0
220
0.0
230
1.0
 70
     8
 71
     3
 72
    22
 73
    18
 74
     0
 42
0.0000000001
 43
0.0000000001
 40
0.0
 40
0.0
 40
0.0
 40
0.0
 40
0.125
 40
0.125
 40
0.25
 40
0.25
 40
0.375
 40
0.375
 40
0.5
 40
0.5
 40
0.625
 40
0.625
 40
0.75
 40
0.75
 40
0.875
 40
0.875
 40
0.9475755390846302
 40
0.9475755390846302
 40
0.9475755390846302
 40
0.9475755390846302
 10
2164.699999263479
 20
950.9100478424279
 30
0.0
 10
2163.532133774231
 20
950.8956122247324
 30
0.0
 10
2162.341614699984
 20
950.8803192623201
 30
0.0
 10
2159.982557900475
 20
950.8487811673962
 30
0.0
 10
2158.814463899593
 20
950.8325410632078
 30
0.0
 10
2156.571148756396
 20
950.8000546216486
 30
0.0
 10
2155.496358039574
 20
950.7838145174602
 30
0.0
 10
2153.499758600062
 20
950.7522764225363
 30
0.0
 10
2152.578200603537
 20
950.736983460124
 30
0.0
 10
2150.926589389616
 20
950.7081122247331
 30
0.0
 10
2150.164499165077
 20
950.6928192623206
 30
0.0
 10
2148.824888484315
 20
950.6612811673967
 30
0.0
 10
2148.247744822963
 20
950.6450410632083
 30
0.0
 10
2147.318533265975
 20
950.6125546216491
 30
0.0
 10
2146.966643658414
 20
950.5963145174607
 30
0.0
 10
2146.599499935185
 20
950.5713898930356
 30
0.0
 10
2146.504927123587
 20
950.5623948049937
 30
0.0
 10
2146.449321708987
 20
950.5536348269716
 30
0.0
1001
AcDbBlockRepETag
1070
     1
1071
       61
1005
3B6
  0
SPLINE
  5
3B7
330
2B0
100
AcDbEntity
  8
0
  6
Continuous
 62
     7
370
    15
100
AcDbSpline
210
0.0
220
0.0
230
1.0
 70
     8
 71
     3
 72
    43
 73
    39
 74
     0
 42
0.0000000001
 43
0.0000000001
 40
0.0317695460719654
 40
0.0317695460719654
 40
0.0317695460719654
 40
0.0317695460719654
 40
0.0333249678128004
 40
0.0610329082963123
 40
0.0890095999090706
 40
0.1171484662690071
 40
0.1453391469535544
 40
0.1729692100036681
 40
0.2004372005351036
 40
0.227642350912143
 40
0.2544896702021758
 40
0.2818284110787415
 40
0.3095363515622535
 40
0.3375130431750116
 40
0.3656519095349482
 40
0.3938425902194958
 40
0.4214726532696096
 40
0.4489406438010452
 40
0.4761457941780846
 40
0.5029931134681172
 40
0.5303318543446832
 40
0.5580397948281951
 40
0.5860164864409533
 40
0.6141553528008897
 40
0.6423460334854373
 40
0.6699760965355512
 40
0.6974440870669869
 40
0.7246492374440266
 40
0.7514965567340586
 40
0.7788352976106245
 40
0.8065432380941363
 40
0.8345199297068946
 40
0.8626587960668311
 40
0.8908494767513788
 40
0.9184795398014925
 40
0.9459475303329281
 40
0.9731526807099674
 40
0.9744974496775826
 40
0.9744974496775826
 40
0.9744974496775826
 40
0.9744974496775826
 10
2182.950676817971
 20
949.7663087186644
 30
0.0
 10
2182.947962226799
 20
949.7659283355668
 30
0.0
 10
2182.8958178418
 20
949.7587641842818
 30
0.0
 10
2182.758602798735
 20
949.7444428229863
 30
0.0
 10
2182.405772362933
 20
949.7231327210165
 30
0.0
 10
2181.914695067019
 20
949.7014282346835
 30
0.0
 10
2181.289331126002
 20
949.6797395328401
 30
0.0
 10
2180.540917955218
 20
949.6583099596596
 30
0.0
 10
2179.681798361442
 20
949.6373969933266
 30
0.0
 10
2178.719793130408
 20
949.6170332521099
 30
0.0
 10
2177.656734033881
 20
949.5974305700746
 30
0.0
 10
2176.491379585348
 20
949.5777001186706
 30
0.0
 10
2175.22025364148
 20
949.5569469097368
 30
0.0
 10
2173.855140161425
 20
949.5356316144297
 30
0.0
 10
2172.410083736917
 20
949.5139285327303
 30
0.0
 10
2170.910285350466
 20
949.4922394546669
 30
0.0
 10
2169.374543744989
 20
949.4708099803002
 30
0.0
 10
2167.821724635289
 20
949.4498969878669
 30
0.0
 10
2166.260565637343
 20
949.4295332535452
 30
0.0
 10
2164.69052455615
 20
949.4099305696854
 30
0.0
 10
2163.110754808824
 20
949.390200118778
 30
0.0
 10
2161.521228841746
 20
949.3694469097084
 30
0.0
 10
2159.941023472832
 20
949.3481316144382
 30
0.0
 10
2158.389151461653
 20
949.3264285327288
 30
0.0
 10
2156.893300973158
 20
949.3047394546684
 30
0.0
 10
2155.469894610236
 20
949.2833099803005
 30
0.0
 10
2154.132983911861
 20
949.2623969878682
 30
0.0
 10
2152.887180253467
 20
949.2420332535438
 30
0.0
 10
2151.729864890019
 20
949.2224305696938
 30
0.0
 10
2150.661088535118
 20
949.2027001187489
 30
0.0
 10
2149.684282332172
 20
949.1819469098222
 30
0.0
 10
2148.814658946649
 20
949.1606316140106
 30
0.0
 10
2148.064995607429
 20
949.1389285343379
 30
0.0
 10
2147.449495552095
 20
949.1172394487049
 30
0.0
 10
2146.971675224182
 20
949.0958100020101
 30
0.0
 10
2146.635884717853
 20
949.0748969076502
 30
0.0
 10
2146.492764243328
 20
949.0609039439966
 30
0.0
 10
2146.45121272771
 20
949.0539070277057
 30
0.0
 10
2146.449321708986
 20
949.0535777402115
 30
0.0
1001
AcDbBlockRepETag
1070
     1
1071
       62
1005
3B7
  0
SPLINE
  5
3B8
330
2B0
100
AcDbEntity
  8
0
  6
Continuous
 62
     7
370
    15
100
AcDbSpline
210
0.0
220
0.0
230
1.0
 70
     8
 71
     3
 72
    43
 73
    39
 74
     0
 42
0.0000000001
 43
0.0000000001
 40
0.0317361612972807
 40
0.0317361612972807
 40
0.0317361612972807
 40
0.0317361612972807
 40
0.0332913185388608
 40
0.0610002235161774
 40
0.0889778889777769
 40
0.1171177348317429
 40
0.14530939681394
 40
0.1729404216469999
 40
0.200409368319752
 40
0.227615465688828
 40
0.2544637195150508
 40
0.2818034120338437
 40
0.3095123170111603
 40
0.3374899824727598
 40
0.3656298283267259
 40
0.393821490308923
 40
0.4214525151419831
 40
0.4489214618147353
 40
0.4761275591838114
 40
0.5029758130100338
 40
0.5303155055288272
 40
0.5580244105061438
 40
0.5860020759677434
 40
0.6141419218217093
 40
0.6423335838039064
 40
0.6699646086369664
 40
0.6974335553097184
 40
0.7246396526787946
 40
0.7514879065050169
 40
0.7788275990238103
 40
0.8065365040011267
 40
0.8345141694627264
 40
0.8626540153166923
 40
0.8908456772988893
 40
0.9184767021319494
 40
0.9459456488047013
 40
0.9731517461737777
 40
0.9744965619517371
 40
0.9744965619517371
 40
0.9744965619517371
 40
0.9744965619517371
 10
2182.950676817972
 20
948.2663084830601
 30
0.0
 10
2182.947962162764
 20
948.2659281783741
 30
0.0
 10
2182.89580760103
 20
948.2587641149995
 30
0.0
 10
2182.758607065451
 20
948.2444428182866
 30
0.0
 10
2182.405771207616
 20
948.2231327222891
 30
0.0
 10
2181.91469537819
 20
948.2014282343408
 30
0.0
 10
2181.289331044386
 20
948.17973953293
 30
0.0
 10
2180.540917976766
 20
948.158309959636
 30
0.0
 10
2179.681798355741
 20
948.1373969933327
 30
0.0
 10
2178.719793131907
 20
948.1170332521081
 30
0.0
 10
2177.656734033474
 20
948.0974305700751
 30
0.0
 10
2176.49137958546
 20
948.0777001186705
 30
0.0
 10
2175.220253641449
 20
948.0569469097369
 30
0.0
 10
2173.855140161433
 20
948.0356316144298
 30
0.0
 10
2172.410083736915
 20
948.0139285327302
 30
0.0
 10
2170.910285350467
 20
947.9922394546671
 30
0.0
 10
2169.374543744989
 20
947.9708099803003
 30
0.0
 10
2167.821724635289
 20
947.9498969878669
 30
0.0
 10
2166.260565637343
 20
947.9295332535453
 30
0.0
 10
2164.69052455615
 20
947.9099305696854
 30
0.0
 10
2163.110754808824
 20
947.890200118778
 30
0.0
 10
2161.521228841746
 20
947.8694469097083
 30
0.0
 10
2159.941023472832
 20
947.8481316144383
 30
0.0
 10
2158.389151461653
 20
947.8264285327288
 30
0.0
 10
2156.893300973158
 20
947.8047394546683
 30
0.0
 10
2155.469894610236
 20
947.7833099803005
 30
0.0
 10
2154.13298391186
 20
947.7623969878681
 30
0.0
 10
2152.887180253467
 20
947.7420332535437
 30
0.0
 10
2151.729864890019
 20
947.7224305696939
 30
0.0
 10
2150.661088535118
 20
947.7027001187488
 30
0.0
 10
2149.684282332172
 20
947.6819469098222
 30
0.0
 10
2148.814658946649
 20
947.6606316140108
 30
0.0
 10
2148.064995607429
 20
947.6389285343378
 30
0.0
 10
2147.449495552095
 20
947.6172394487051
 30
0.0
 10
2146.971675224182
 20
947.59581000201
 30
0.0
 10
2146.635884717853
 20
947.5748969076501
 30
0.0
 10
2146.492764243328
 20
947.5609039439966
 30
0.0
 10
2146.45121272771
 20
947.5539070277058
 30
0.0
 10
2146.449321708987
 20
947.5535777402116
 30
0.0
1001
AcDbBlockRepETag
1070
     1
1071
       63
1005
3B8
  0
SPLINE
  5
3B9
330
2B0
100
AcDbEntity
  8
0
  6
Continuous
 62
     7
370
    15
100
AcDbSpline
210
0.0
220
0.0
230
1.0
 70
     8
 71
     3
 72
    43
 73
    39
 74
     0
 42
0.0000000001
 43
0.0000000001
 40
0.0315761470619119
 40
0.0315761470619119
 40
0.0315761470619119
 40
0.0315761470619119
 40
0.0331300280451444
 40
0.0608435561142469
 40
0.088825889508971
 40
0.1169704303550463
 40
0.1451667959746117
 40
0.1728024309055464
 40
0.2002759606342451
 40
0.2274865972041803
 40
0.2543393305268593
 40
0.2816835845361911
 40
0.3093971126052926
 40
0.3373794460000155
 40
0.3655239868460896
 40
0.393720352465658
 40
0.4213559873965926
 40
0.4488295171252912
 40
0.4760401536952263
 40
0.5028928870179062
 40
0.5302371410272392
 40
0.5579506690963415
 40
0.5859330024910654
 40
0.6140775433371406
 40
0.6422739089567059
 40
0.6699095438876405
 40
0.6973830736163391
 40
0.724593710186274
 40
0.7514464435089529
 40
0.7787906975182849
 40
0.8065042255873862
 40
0.8344865589821091
 40
0.8626310998281836
 40
0.8908274654477517
 40
0.9184631003786861
 40
0.9459366301073849
 40
0.97314726667732
 40
0.9744923068309391
 40
0.9744923068309391
 40
0.9744923068309391
 40
0.9744923068309391
 10
2182.950676817972
 20
946.7663073477293
 30
0.0
 10
2182.94796185442
 20
946.7659274208942
 30
0.0
 10
2182.895758195375
 20
946.7587637812059
 30
0.0
 10
2182.758627652725
 20
946.7444427956099
 30
0.0
 10
2182.405765633109
 20
946.7231327284293
 30
0.0
 10
2181.914696879617
 20
946.701428232687
 30
0.0
 10
2181.289330650582
 20
946.6797395333637
 30
0.0
 10
2180.540918080742
 20
946.6583099595215
 30
0.0
 10
2179.681798328235
 20
946.6373969933631
 30
0.0
 10
2178.719793139134
 20
946.6170332521002
 30
0.0
 10
2177.65673403151
 20
946.5974305700774
 30
0.0
 10
2176.491379585998
 20
946.5777001186699
 30
0.0
 10
2175.220253641303
 20
946.5569469097371
 30
0.0
 10
2173.855140161473
 20
946.5356316144296
 30
0.0
 10
2172.410083736904
 20
946.5139285327303
 30
0.0
 10
2170.91028535047
 20
946.492239454667
 30
0.0
 10
2169.374543744988
 20
946.4708099803003
 30
0.0
 10
2167.821724635289
 20
946.449896987867
 30
0.0
 10
2166.260565637342
 20
946.4295332535453
 30
0.0
 10
2164.69052455615
 20
946.4099305696855
 30
0.0
 10
2163.110754808824
 20
946.3902001187779
 30
0.0
 10
2161.521228841746
 20
946.3694469097083
 30
0.0
 10
2159.941023472832
 20
946.3481316144383
 30
0.0
 10
2158.389151461653
 20
946.3264285327289
 30
0.0
 10
2156.893300973158
 20
946.3047394546684
 30
0.0
 10
2155.469894610236
 20
946.2833099803006
 30
0.0
 10
2154.13298391186
 20
946.2623969878682
 30
0.0
 10
2152.887180253467
 20
946.2420332535439
 30
0.0
 10
2151.729864890019
 20
946.2224305696937
 30
0.0
 10
2150.661088535118
 20
946.202700118749
 30
0.0
 10
2149.684282332172
 20
946.1819469098223
 30
0.0
 10
2148.814658946649
 20
946.1606316140107
 30
0.0
 10
2148.064995607428
 20
946.1389285343379
 30
0.0
 10
2147.449495552095
 20
946.117239448705
 30
0.0
 10
2146.971675224182
 20
946.0958100020102
 30
0.0
 10
2146.635884717853
 20
946.0748969076503
 30
0.0
 10
2146.492764243328
 20
946.0609039439965
 30
0.0
 10
2146.45121272771
 20
946.0539070277057
 30
0.0
 10
2146.449321708987
 20
946.0535777402117
 30
0.0
1001
AcDbBlockRepETag
1070
     1
1071
       64
1005
3B9
  0
SPLINE
  5
3BA
330
2B0
100
AcDbEntity
  8
0
  6
Continuous
 62
     7
370
    15
100
AcDbSpline
210
0.0
220
0.0
230
1.0
 70
     8
 71
     3
 72
     9
 73
     5
 74
     0
 42
0.0000000001
 43
0.0000000001
 40
0.3924506010406769
 40
0.3924506010406769
 40
0.3924506010406769
 40
0.3924506010406769
 40
0.688249517153229
 40
1.0
 40
1.0
 40
1.0
 40
1.0
 10
2182.950676817972
 20
945.2664883866683
 30
0.0
 10
2182.911493347173
 20
945.2606735085332
 30
0.0
 10
2182.809031678145
 20
945.2485167462784
 30
0.0
 10
2182.609719045692
 20
945.2361299777608
 30
0.0
 10
2182.507446194282
 20
945.2297739825562
 30
0.0
1001
AcDbBlockRepETag
1070
     1
1071
       65
1005
3BA
  0
LINE
  5
3BB
330
2B0
100
AcDbEntity
  8
0
  6
Continuous
 62
     7
370
    15
100
AcDbLine
 10
2164.699999263479
 20
951.0549119285307
 30
0.0
 11
2164.699999263479
 21
950.9100478424279
 31
0.0
1001
AcDbBlockRepETag
1070
     1
1071
       66
1005
3BB
  0
SPLINE
  5
3BC
330
2B0
100
AcDbEntity
  8
0
  6
Continuous
 62
     7
370
    15
100
AcDbSpline
210
0.0
220
0.0
230
1.0
 70
     8
 71
     3
 72
    43
 73
    39
 74
     0
 42
0.0000000001
 43
0.0000000001
 40
0.0
 40
0.0
 40
0.0
 40
0.0
 40
0.0039168847815959
 40
0.0321357633012494
 40
0.0611620671031367
 40
0.0901883706477835
 40
0.1186091190066411
 40
0.1470298673449444
 40
0.1762739549872682
 40
0.2055180428476066
 40
0.2339772427508934
 40
0.2624364430406432
 40
0.291716468556971
 40
0.3209964946299921
 40
0.3495741961861914
 40
0.3781518975783968
 40
0.4075524936084558
 40
0.4369530896944927
 40
0.4656518193978333
 40
0.4943505493605307
 40
0.5238820562570174
 40
0.5534139599966394
 40
0.5821504954079171
 40
0.6108870305238647
 40
0.6404462228588147
 40
0.6700054150894333
 40
0.6989437595923819
 40
0.7278821042149917
 40
0.7576611709822374
 40
0.7874402381069282
 40
0.8163774188015691
 40
0.8453149638694233
 40
0.8750809772772358
 40
0.9048469904289376
 40
0.9284158185093001
 40
0.9519846465703299
 40
0.975992323256114
 40
0.9999999999999998
 40
0.9999999999999998
 40
0.9999999999999998
 40
0.9999999999999998
 10
2146.952370563873
 20
944.9107640978301
 30
0.0
 10
2146.950615514718
 20
944.9111697349103
 30
0.0
 10
2146.936216356364
 20
944.9144977514135
 30
0.0
 10
2147.02611053973
 20
944.9208603477385
 30
0.0
 10
2147.233124489193
 20
944.9301591719967
 30
0.0
 10
2147.577394760494
 20
944.9395973824644
 30
0.0
 10
2148.037167263698
 20
944.9490562778226
 30
0.0
 10
2148.614770071069
 20
944.9585489542911
 30
0.0
 10
2149.313432984812
 20
944.9680802174194
 30
0.0
 10
2150.123632460253
 20
944.9774861993965
 30
0.0
 10
2151.030475492432
 20
944.9866403638575
 30
0.0
 10
2152.033143357625
 20
944.9954709885977
 30
0.0
 10
2153.136522710024
 20
945.0043819474482
 30
0.0
 10
2154.324625323272
 20
945.0136245577002
 30
0.0
 10
2155.577257454975
 20
945.0229390011386
 30
0.0
 10
2156.895625870587
 20
945.0323727994378
 30
0.0
 10
2158.28349345455
 20
945.0419313808676
 30
0.0
 10
2159.720473229426
 20
945.051473850237
 30
0.0
 10
2161.182380496055
 20
945.0608328752712
 30
0.0
 10
2162.672142908824
 20
945.0700720647169
 30
0.0
 10
2164.192200270864
 20
945.0790657950193
 30
0.0
 10
2165.71783875505
 20
945.0879469704807
 30
0.0
 10
2167.223664806655
 20
945.097010565205
 30
0.0
 10
2168.71394440845
 20
945.1062620267213
 30
0.0
 10
2170.191321905662
 20
945.1157293328028
 30
0.0
 10
2171.634293047349
 20
945.1252782466498
 30
0.0
 10
2173.019266424735
 20
945.1347509704172
 30
0.0
 10
2174.351263962484
 20
945.1441742597282
 30
0.0
 10
2175.62815535157
 20
945.153544925378
 30
0.0
 10
2176.827584970315
 20
945.1627077445404
 30
0.0
 10
2177.930524376471
 20
945.1715022504691
 30
0.0
 10
2178.943304420451
 20
945.1803909964745
 30
0.0
 10
2179.865910499299
 20
945.1896815900733
 30
0.0
 10
2180.631941744689
 20
945.1985240635034
 30
0.0
 10
2181.252555577854
 20
945.2067772196032
 30
0.0
 10
2181.750730436568
 20
945.2144277785968
 30
0.0
 10
2182.179476682547
 20
945.2221155668093
 30
0.0
 10
2182.398123023613
 20
945.2272211773051
 30
0.0
 10
2182.507446194279
 20
945.2297739825562
 30
0.0
1001
AcDbBlockRepETag
1070
     1
1071
       67
1005
3BC
  0
LINE
  5
3BD
330
2B0
100
AcDbEntity
  8
0
  6
Continuous
 62
     7
370
    15
100
AcDbLine
 10
2182.010676817971
 20
944.6524237133663
 30
0.0
 11
2147.389321708986
 21
944.6524237133681
 31
0.0
1001
AcDbBlockRepETag
1070
     1
1071
       68
1005
3BD
  0
LINE
  5
3BE
330
2B0
100
AcDbEntity
  8
0
  6
Continuous
 62
     7
370
    15
100
AcDbLine
 10
2164.699999263479
 20
951.5865839780706
 30
0.0
 11
2164.699999263479
 21
951.5593798450298
 31
0.0
1001
AcDbBlockRepETag
1070
     1
1071
       69
1005
3BE
  0
LINE
  5
3BF
330
2B0
100
AcDbEntity
  8
0
  6
Continuous
 62
     8
370
    15
100
AcDbLine
 10
2186.899999263479
 20
954.7709615530965
 30
0.0
 11
2142.499999263479
 21
954.7709615530987
 31
0.0
1001
AcDbBlockRepETag
1070
     1
1071
       70
1005
3BF
  0
ENDBLK
  5
2B2
330
2B0
100
AcDbEntity
  8
0
100
AcDbBlockEnd
  0
BLOCK
  5
2FC
330
2FB
100
AcDbEntity
  8
0
100
AcDbBlockBegin
  2
2
 70
     0
 10
0.0
 20
0.0
 30
0.0
  3
2
  1

  0
SPLINE
  5
2FE
330
2FB
100
AcDbEntity
  8
0
  6
Continuous
 62
     7
370
    15
100
AcDbSpline
210
0.0
220
0.0
230
1.0
 70
     8
 71
     3
 72
    12
 73
     8
 74
     0
 42
0.0000000001
 43
0.0000000001
 40
0.0
 40
0.0
 40
0.0
 40
0.0
 40
0.25
 40
0.25
 40
0.5000000000000001
 40
0.5000000000000001
 40
1.0
 40
1.0
 40
1.0
 40
1.0
 10
2157.199999263479
 20
914.7000002902828
 30
0.0
 10
2157.199999263479
 20
914.8387568268285
 30
0.0
 10
2157.227324445815
 20
914.9749159180764
 30
0.0
 10
2157.33272576979
 20
915.2291994237531
 30
0.0
 10
2157.410722683962
 20
915.3456475379135
 30
0.0
 10
2157.701161306898
 20
915.6360874008722
 30
0.0
 10
2157.972890715861
 20
915.7500002902827
 30
0.0
 10
2158.249999263478
 20
915.7500002902827
 30
0.0
  0
SPLINE
  5
2FF
330
2FB
100
AcDbEntity
  8
0
  6
Continuous
 62
     7
370
    15
100
AcDbSpline
210
0.0
220
0.0
230
1.0
 70
     8
 71
     3
 72
    12
 73
     8
 74
     0
 42
0.0000000001
 43
0.0000000001
 40
0.0
 40
0.0
 40
0.0
 40
0.0
 40
0.2500000000000003
 40
0.2500000000000003
 40
0.5000000000000007
 40
0.5000000000000007
 40
1.0
 40
1.0
 40
1.0
 40
1.0
 10
2158.249999263478
 20
913.6500002902828
 30
0.0
 10
2158.111441583106
 20
913.6500002902828
 30
0.0
 10
2157.975490117831
 20
913.6772322626368
 30
0.0
 10
2157.721372905493
 20
913.782414390728
 30
0.0
 10
2157.604959829714
 20
913.860253903142
 30
0.0
 10
2157.314280128398
 20
914.1505194775572
 30
0.0
 10
2157.199999263479
 20
914.4224803500568
 30
0.0
 10
2157.199999263479
 20
914.7000002902828
 30
0.0
  0
LINE
  5
300
330
2FB
100
AcDbEntity
  8
0
  6
Continuous
 62
     7
370
    15
100
AcDbLine
 10
2171.149999263478
 20
913.6500002902828
 30
0.0
 11
2158.249999263478
 21
913.6500002902828
 31
0.0
  0
SPLINE
  5
301
330
2FB
100
AcDbEntity
  8
0
  6
Continuous
 62
     7
370
    15
100
AcDbSpline
210
0.0
220
0.0
230
1.0
 70
     8
 71
     3
 72
    12
 73
     8
 74
     0
 42
0.0000000001
 43
0.0000000001
 40
0.0
 40
0.0
 40
0.0
 40
0.0
 40
0.25
 40
0.25
 40
0.5000000000000001
 40
0.5000000000000001
 40
1.0
 40
1.0
 40
1.0
 40
1.0
 10
2172.199999263479
 20
914.7000002902828
 30
0.0
 10
2172.199999263479
 20
914.5612437537373
 30
0.0
 10
2172.172674081142
 20
914.4250846624892
 30
0.0
 10
2172.067272757167
 20
914.1708011568125
 30
0.0
 10
2171.989275842996
 20
914.0543530426521
 30
0.0
 10
2171.698837220059
 20
913.7639131796934
 30
0.0
 10
2171.427107811096
 20
913.6500002902828
 30
0.0
 10
2171.149999263478
 20
913.6500002902828
 30
0.0
  0
SPLINE
  5
302
330
2FB
100
AcDbEntity
  8
0
  6
Continuous
 62
     7
370
    15
100
AcDbSpline
210
0.0
220
0.0
230
1.0
 70
     8
 71
     3
 72
    12
 73
     8
 74
     0
 42
0.0000000001
 43
0.0000000001
 40
0.0
 40
0.0
 40
0.0
 40
0.0
 40
0.2500000000000003
 40
0.2500000000000003
 40
0.5000000000000007
 40
0.5000000000000007
 40
1.0
 40
1.0
 40
1.0
 40
1.0
 10
2171.149999263478
 20
915.7500002902827
 30
0.0
 10
2171.288556943851
 20
915.7500002902827
 30
0.0
 10
2171.424508409127
 20
915.7227683179286
 30
0.0
 10
2171.678625621465
 20
915.6175861898375
 30
0.0
 10
2171.795038697243
 20
915.5397466774235
 30
0.0
 10
2172.08571839856
 20
915.2494811030084
 30
0.0
 10
2172.199999263479
 20
914.9775202305088
 30
0.0
 10
2172.199999263479
 20
914.7000002902828
 30
0.0
  0
LINE
  5
303
330
2FB
100
AcDbEntity
  8
0
  6
Continuous
 62
     7
370
    15
100
AcDbLine
 10
2171.149999263478
 20
915.7500002902827
 30
0.0
 11
2158.249999263478
 21
915.7500002902827
 31
0.0
  0
CIRCLE
  5
304
330
2FB
100
AcDbEntity
  8
0
  6
Continuous
 62
     7
370
    15
100
AcDbCircle
 10
2164.699999263479
 20
914.7000002902828
 30
0.0
 40
21.40830658571359
  0
CIRCLE
  5
305
330
2FB
100
AcDbEntity
  8
0
  6
Continuous
 62
     7
370
    15
100
AcDbCircle
 10
2164.699999263479
 20
914.7000002902828
 30
0.0
 40
22.20000000000049
  0
INSERT
  5
306
330
2FB
100
AcDbEntity
  8
0
  6
Continuous
 62
     7
370
     0
100
AcDbBlockReference
  2
SW_CENTERMARKSYMBOL_0
 10
2164.699999263479
 20
914.7000002902828
 30
0.0
  0
ENDBLK
  5
2FD
330
2FB
100
AcDbEntity
  8
0
100
AcDbBlockEnd
  0
BLOCK
  5
309
330
308
100
AcDbEntity
  8
0
100
AcDbBlockBegin
  2
3
 70
     0
 10
0.0
 20
0.0
 30
0.0
  3
3
  1

  0
SPLINE
  5
33F
330
308
100
AcDbEntity
  8
0
  6
Continuous
 62
     7
370
    15
100
AcDbSpline
210
0.0
220
0.0
230
1.0
 70
     8
 71
     3
 72
    82
 73
    78
 74
     0
 42
0.0000000001
 43
0.0000000001
 40
0.0
 40
0.0
 40
0.0
 40
0.0
 40
0.0111663105364283
 40
0.0241872427319957
 40
0.037216279029127
 40
0.0502686131854216
 40
0.0633577553622453
 40
0.0764947138825584
 40
0.0896874175596019
 40
0.1029404285674274
 40
0.1162549649937408
 40
0.1296292132683403
 40
0.1430588709749334
 40
0.1565378304384044
 40
0.1700589017901648
 40
0.1836144837748037
 40
0.1971971167414447
 40
0.2107998855482202
 40
0.2244166707123484
 40
0.238042267719734
 40
0.2516724052180445
 40
0.2653032365881248
 40
0.2789319186079843
 40
0.292556743749971
 40
0.3061765402212855
 40
0.3197905707052365
 40
0.333398443493997
 40
0.3470000372587721
 40
0.360595439037822
 40
0.3741848941924728
 40
0.387768766731914
 40
0.4013475083490531
 40
0.4149216346103909
 40
0.4284917069184115
 40
0.4420583190636224
 40
0.4556220873765807
 40
0.469183643663082
 40
0.4827436302522538
 40
0.4963026966060062
 40
0.5098614970301196
 40
0.5234206371512656
 40
0.5369806092097173
 40
0.5505420741038215
 40
0.5641056926436863
 40
0.5776721236564509
 40
0.5912420212232267
 40
0.604816030593801
 40
0.6183947822684717
 40
0.6319788836277473
 40
0.6455689073526817
 40
0.6591653757110868
 40
0.6727687395897713
 40
0.6863793509386486
 40
0.6999974270778344
 40
0.7136230051396378
 40
0.7272558848365599
 40
0.7408955578670405
 40
0.7545411227501022
 40
0.7681911849439697
 40
0.7818437440494725
 40
0.7954950291649184
 40
0.8091411274659073
 40
0.822777196742833
 40
0.8363973868494857
 40
0.8499948863412745
 40
0.8635620907931851
 40
0.8770909254916654
 40
0.8905733395598581
 40
0.9040019597954882
 40
0.9173708538859068
 40
0.9306763136238734
 40
0.9439175427034886
 40
0.9570971323515134
 40
0.970221234970743
 40
0.9832993937438445
 40
0.9963440399764166
 40
1.0
 40
1.0
 40
1.0
 40
1.0
 10
2249.632638922506
 20
938.2797883184794
 30
0.0
 10
2249.63120074205
 20
938.4412471652254
 30
0.0
 10
2249.628085512568
 20
938.7909816907635
 30
0.0
 10
2249.57528118253
 20
939.327988144752
 30
0.0
 10
2249.484435865332
 20
939.8894943175331
 30
0.0
 10
2249.353330899531
 20
940.4478331607592
 30
0.0
 10
2249.183455906478
 20
941.0022148768502
 30
0.0
 10
2248.974599243712
 20
941.5518156608438
 30
0.0
 10
2248.727040026335
 20
942.0957639260727
 30
0.0
 10
2248.440994283104
 20
942.6331308042499
 30
0.0
 10
2248.116799921616
 20
943.1629318649086
 30
0.0
 10
2247.754897174337
 20
943.6841377688272
 30
0.0
 10
2247.355854308588
 20
944.1956920618631
 30
0.0
 10
2246.920369040434
 20
944.6965327178533
 30
0.0
 10
2246.449264637231
 20
945.1856139181197
 30
0.0
 10
2245.943477882202
 20
945.6619250415364
 30
0.0
 10
2245.404043173246
 20
946.1245049281606
 30
0.0
 10
2244.832075322213
 20
946.5724507231975
 30
0.0
 10
2244.228753471714
 20
947.004921671194
 30
0.0
 10
2243.595307543879
 20
947.421138904092
 30
0.0
 10
2242.933015226514
 20
947.8203780552359
 30
0.0
 10
2242.243192731493
 20
948.201967934635
 30
0.0
 10
2241.52718277218
 20
948.5652903830057
 30
0.0
 10
2240.786342732287
 20
948.9097784468471
 30
0.0
 10
2240.022045847826
 20
949.2349089450035
 30
0.0
 10
2239.235689086962
 20
949.5401948935082
 30
0.0
 10
2238.428693018487
 20
949.8251833291744
 30
0.0
 10
2237.602501675691
 20
950.0894538652993
 30
0.0
 10
2236.758582252251
 20
950.332617853336
 30
0.0
 10
2235.898424538793
 20
950.5543180189629
 30
0.0
 10
2235.023540059378
 20
950.7542284500258
 30
0.0
 10
2234.135460900544
 20
950.9320548297372
 30
0.0
 10
2233.235738246384
 20
951.0875348263526
 30
0.0
 10
2232.325940645139
 20
951.2204385677337
 30
0.0
 10
2231.407652038776
 20
951.3305691444426
 30
0.0
 10
2230.482469589317
 20
951.4177630978728
 30
0.0
 10
2229.552001335751
 20
951.4818908603983
 30
0.0
 10
2228.617863714237
 20
951.5228571228922
 30
0.0
 10
2227.681678972801
 20
951.5406011115494
 30
0.0
 10
2226.745073706031
 20
951.5350967681758
 30
0.0
 10
2225.809678792025
 20
951.5063530558833
 30
0.0
 10
2224.877122724467
 20
951.4544142124002
 30
0.0
 10
2223.949027581303
 20
951.3793594237167
 30
0.0
 10
2223.027003695672
 20
951.2813019755126
 30
0.0
 10
2222.112650865057
 20
951.1603889464227
 30
0.0
 10
2221.207555797467
 20
951.0168006705116
 30
0.0
 10
2220.313289672541
 20
950.8507500968185
 30
0.0
 10
2219.431405851913
 20
950.6624820608756
 30
0.0
 10
2218.563437774592
 20
950.4522724897825
 30
0.0
 10
2217.710897075737
 20
950.2204275711745
 30
0.0
 10
2216.875271969242
 20
949.9672829277848
 30
0.0
 10
2216.058025935124
 20
949.6932028538495
 30
0.0
 10
2215.260596750667
 20
949.3985796878826
 30
0.0
 10
2214.484395897692
 20
949.0838334186253
 30
0.0
 10
2213.730808364446
 20
948.7494116470847
 30
0.0
 10
2213.001192835764
 20
948.3957900562323
 30
0.0
 10
2212.296882224864
 20
948.023473568463
 30
0.0
 10
2211.619184437867
 20
947.6329983928581
 30
0.0
 10
2210.969383176549
 20
947.224935173136
 30
0.0
 10
2210.348754277163
 20
946.7999042508109
 30
0.0
 10
2209.758551114143
 20
946.3585762156816
 30
0.0
 10
2209.200000963533
 20
945.9016794037703
 30
0.0
 10
2208.674287389838
 20
945.429995994599
 30
0.0
 10
2208.182553732227
 20
944.9443774314584
 30
0.0
 10
2207.72589209818
 20
944.445751460609
 30
0.0
 10
2207.305327800928
 20
943.9351258760323
 30
0.0
 10
2206.921800679875
 20
943.4135875907111
 30
0.0
 10
2206.576143836892
 20
942.8822953836277
 30
0.0
 10
2206.269066254823
 20
942.3424654032624
 30
0.0
 10
2206.00112831945
 20
941.7953496036268
 30
0.0
 10
2205.77276671789
 20
941.2422092854299
 30
0.0
 10
2205.58417446629
 20
940.6842855811639
 30
0.0
 10
2205.435766111559
 20
940.1227759964248
 30
0.0
 10
2205.326523839833
 20
939.5588020954601
 30
0.0
 10
2205.260246554721
 20
938.9934412083269
 30
0.0
 10
2205.23151771578
 20
938.5629998654241
 30
0.0
 10
2205.237766211306
 20
938.3215848260261
 30
0.0
 10
2205.239134080801
 20
938.2687362216348
 30
0.0
1001
AcDbBlockRepETag
1070
     1
1071
        0
1005
33F
  0
LINE
  5
340
330
308
100
AcDbEntity
  8
0
  6
Continuous
 62
     7
370
    15
100
AcDbLine
 10
2249.635082319958
 20
937.3832152780806
 30
0.0
 11
2249.635082319958
 21
938.299032516597
 31
0.0
1001
AcDbBlockRepETag
1070
     1
1071
        1
1005
340
  0
LINE
  5
341
330
308
100
AcDbEntity
  8
0
  6
Continuous
 62
     7
370
    15
100
AcDbLine
 10
2205.235082319957
 20
938.2990325165987
 30
0.0
 11
2205.235082319957
 21
937.3832152780826
 31
0.0
1001
AcDbBlockRepETag
1070
     1
1071
        2
1005
341
  0
SPLINE
  5
342
330
308
100
AcDbEntity
  8
0
  6
Continuous
 62
     7
370
    15
100
AcDbSpline
210
0.0
220
0.0
230
1.0
 70
     8
 71
     3
 72
     9
 73
     5
 74
     0
 42
0.0000000001
 43
0.0000000001
 40
0.0
 40
0.0
 40
0.0
 40
0.0
 40
0.4999990626396889
 40
1.0
 40
1.0
 40
1.0
 40
1.0
 10
2235.412399406369
 20
921.9096123421103
 30
0.0
 10
2235.473517313809
 20
921.9284293112284
 30
0.0
 10
2235.595753357847
 20
921.9660633200181
 30
0.0
 10
2235.71824221284
 20
922.0037735290297
 30
0.0
 10
2235.779486755153
 20
922.0226286688836
 30
0.0
1001
AcDbBlockRepETag
1070
     1
1071
        3
1005
342
  0
SPLINE
  5
343
330
308
100
AcDbEntity
  8
0
  6
Continuous
 62
     7
370
    15
100
AcDbSpline
210
0.0
220
0.0
230
1.0
 70
     8
 71
     3
 72
     9
 73
     5
 74
     0
 42
0.0000000001
 43
0.0000000001
 40
0.0
 40
0.0
 40
0.0
 40
0.0
 40
0.4999991125247589
 40
1.0
 40
1.0
 40
1.0
 40
1.0
 10
2235.414197449582
 20
923.1349770559409
 30
0.0
 10
2235.475276540517
 20
923.1537820670689
 30
0.0
 10
2235.597434939212
 20
923.1913921560808
 30
0.0
 10
2235.719839361834
 20
923.2290763777161
 30
0.0
 10
2235.781041681776
 20
923.2479185219776
 30
0.0
1001
AcDbBlockRepETag
1070
     1
1071
        4
1005
343
  0
SPLINE
  5
344
330
308
100
AcDbEntity
  8
0
  6
Continuous
 62
     7
370
    15
100
AcDbSpline
210
0.0
220
0.0
230
1.0
 70
     8
 71
     3
 72
     9
 73
     5
 74
     0
 42
0.0000000001
 43
0.0000000001
 40
0.0
 40
0.0
 40
0.0
 40
0.0
 40
0.4999990688254364
 40
1.0
 40
1.0
 40
1.0
 40
1.0
 10
2235.412942426647
 20
924.3594019210021
 30
0.0
 10
2235.474057952048
 20
924.3782181546567
 30
0.0
 10
2235.596289230486
 20
924.4158506920507
 30
0.0
 10
2235.718772485649
 20
924.4535591793065
 30
0.0
 10
2235.780014227283
 20
924.4724134580476
 30
0.0
1001
AcDbBlockRepETag
1070
     1
1071
        5
1005
344
  0
SPLINE
  5
345
330
308
100
AcDbEntity
  8
0
  6
Continuous
 62
     7
370
    15
100
AcDbSpline
210
0.0
220
0.0
230
1.0
 70
     8
 71
     3
 72
     9
 73
     5
 74
     0
 42
0.0000000001
 43
0.0000000001
 40
0.0
 40
0.0
 40
0.0
 40
0.0
 40
0.5000010023954319
 40
1.0
 40
1.0
 40
1.0
 40
1.0
 10
2218.552048041933
 20
924.4461428567099
 30
0.0
 10
2218.613151764373
 20
924.4273311449715
 30
0.0
 10
2218.735358964252
 20
924.3897077969215
 30
0.0
 10
2218.857826272822
 20
924.352002775541
 30
0.0
 10
2218.919059804346
 20
924.333150302646
 30
0.0
1001
AcDbBlockRepETag
1070
     1
1071
        6
1005
345
  0
SPLINE
  5
346
330
308
100
AcDbEntity
  8
0
  6
Continuous
 62
     7
370
    15
100
AcDbSpline
210
0.0
220
0.0
230
1.0
 70
     8
 71
     3
 72
     9
 73
     5
 74
     0
 42
0.0000000001
 43
0.0000000001
 40
0.0
 40
0.0
 40
0.0
 40
0.0
 40
0.5000010527447206
 40
1.0
 40
1.0
 40
1.0
 40
1.0
 10
2218.553669885594
 20
923.2208324016204
 30
0.0
 10
2218.614712448464
 20
923.2020395063175
 30
0.0
 10
2218.736797317157
 20
923.1644537948481
 30
0.0
 10
2218.859148812033
 20
923.1267844248623
 30
0.0
 10
2218.920324430666
 20
923.1079497795258
 30
0.0
1001
AcDbBlockRepETag
1070
     1
1071
        7
1005
346
  0
SPLINE
  5
347
330
308
100
AcDbEntity
  8
0
  6
Continuous
 62
     7
370
    15
100
AcDbSpline
210
0.0
220
0.0
230
1.0
 70
     8
 71
     3
 72
     9
 73
     5
 74
     0
 42
0.0000000001
 43
0.0000000001
 40
0.0
 40
0.0
 40
0.0
 40
0.0
 40
0.5000009961492339
 40
1.0
 40
1.0
 40
1.0
 40
1.0
 10
2218.55220293589
 20
921.9964727361487
 30
0.0
 10
2218.613311776547
 20
921.9776594478654
 30
0.0
 10
2218.735529214368
 20
921.9400329462621
 30
0.0
 10
2218.858005944419
 20
921.9023250245298
 30
0.0
 10
2218.91924418744
 20
921.8834711012263
 30
0.0
1001
AcDbBlockRepETag
1070
     1
1071
        8
1005
347
  0
SPLINE
  5
348
330
308
100
AcDbEntity
  8
0
  6
Continuous
 62
     7
370
    15
100
AcDbSpline
210
0.0
220
0.0
230
1.0
 70
     8
 71
     3
 72
    12
 73
     8
 74
     0
 42
0.0000000001
 43
0.0000000001
 40
0.0
 40
0.0
 40
0.0
 40
0.0
 40
0.25
 40
0.25
 40
0.5000000000000001
 40
0.5000000000000001
 40
1.0
 40
1.0
 40
1.0
 40
1.0
 10
2222.131781461058
 20
943.5259298946258
 30
0.0
 10
2222.229897148983
 20
943.5825708756279
 30
0.0
 10
2222.345497987452
 20
943.6281872792065
 30
0.0
 10
2222.599833569589
 20
943.6935513828187
 30
0.0
 10
2222.737326967691
 20
943.7126436886876
 30
0.0
 10
2223.148070084112
 20
943.7252903311192
 30
0.0
 10
2223.420760368405
 20
943.6726991549326
 30
0.0
 10
2223.61670570155
 20
943.5716440991452
 30
0.0
1001
AcDbBlockRepETag
1070
     1
1071
        9
1005
348
  0
SPLINE
  5
349
330
308
100
AcDbEntity
  8
0
  6
Continuous
 62
     7
370
    15
100
AcDbSpline
210
0.0
220
0.0
230
1.0
 70
     8
 71
     3
 72
    12
 73
     8
 74
     0
 42
0.0000000001
 43
0.0000000001
 40
0.0
 40
0.0
 40
0.0
 40
0.0
 40
0.2500000000000003
 40
0.2500000000000003
 40
0.5000000000000007
 40
0.5000000000000007
 40
1.0
 40
1.0
 40
1.0
 40
1.0
 10
2222.131781461058
 20
942.7144155817314
 30
0.0
 10
2222.033806385681
 20
942.7649443519197
 30
0.0
 10
2221.956930094989
 20
942.82563832977
 30
0.0
 10
2221.851617086961
 20
942.9612427931051
 30
0.0
 10
2221.824341458732
 20
943.0354689693078
 30
0.0
 10
2221.824048626792
 20
943.2599565569207
 30
0.0
 10
2221.93554522941
 20
943.4126451294293
 30
0.0
 10
2222.131781461058
 20
943.5259298946258
 30
0.0
1001
AcDbBlockRepETag
1070
     1
1071
       10
1005
349
  0
ARC
  5
34A
330
308
100
AcDbEntity
  8
0
  6
Continuous
 62
     7
370
    15
100
AcDbCircle
 10
2169.666238493849
 20
841.2982055591124
 30
0.0
 40
114.1835402069671
100
AcDbArc
 50
57.35921125489093
 51
62.64616527780602
1001
AcDbBlockRepETag
1070
     1
1071
       11
1005
34A
  0
SPLINE
  5
34B
330
308
100
AcDbEntity
  8
0
  6
Continuous
 62
     7
370
    15
100
AcDbSpline
210
0.0
220
0.0
230
1.0
 70
     8
 71
     3
 72
    12
 73
     8
 74
     0
 42
0.0000000001
 43
0.0000000001
 40
0.0
 40
0.0
 40
0.0
 40
0.0
 40
0.25
 40
0.25
 40
0.5000000000000001
 40
0.5000000000000001
 40
1.0
 40
1.0
 40
1.0
 40
1.0
 10
2232.738383178856
 20
937.4028690559555
 30
0.0
 10
2232.640267490931
 20
937.3462280749533
 30
0.0
 10
2232.524666652462
 20
937.3029915924549
 30
0.0
 10
2232.270331070325
 20
937.2468070752203
 30
0.0
 10
2232.132837672224
 20
937.234507509509
 30
0.0
 10
2231.722094555802
 20
937.2471531395763
 30
0.0
 10
2231.44940427151
 20
937.323404650132
 30
0.0
 10
2231.253458938365
 20
937.4485832604747
 30
0.0
1001
AcDbBlockRepETag
1070
     1
1071
       12
1005
34B
  0
SPLINE
  5
34C
330
308
100
AcDbEntity
  8
0
  6
Continuous
 62
     7
370
    15
100
AcDbSpline
210
0.0
220
0.0
230
1.0
 70
     8
 71
     3
 72
    12
 73
     8
 74
     0
 42
0.0000000001
 43
0.0000000001
 40
0.0
 40
0.0
 40
0.0
 40
0.0
 40
0.2500000000000003
 40
0.2500000000000003
 40
0.5000000000000007
 40
0.5000000000000007
 40
1.0
 40
1.0
 40
1.0
 40
1.0
 10
2232.738383178856
 20
938.3058117778887
 30
0.0
 10
2232.836358254233
 20
938.2432209338658
 30
0.0
 10
2232.913234544925
 20
938.17069062952
 30
0.0
 10
2233.018547552953
 20
938.0129601967565
 30
0.0
 10
2233.045823181182
 20
937.9285969842159
 30
0.0
 10
2233.046116013122
 20
937.6787961361968
 30
0.0
 10
2232.934619410504
 20
937.516153821152
 30
0.0
 10
2232.738383178856
 20
937.4028690559555
 30
0.0
1001
AcDbBlockRepETag
1070
     1
1071
       13
1005
34C
  0
ARC
  5
34D
330
308
100
AcDbEntity
  8
0
  6
Continuous
 62
     7
370
    15
100
AcDbCircle
 10
2171.151162734335
 20
842.1554340765174
 30
0.0
 40
114.1835402069771
100
AcDbArc
 50
57.35921125489093
 51
62.64616527780602
1001
AcDbBlockRepETag
1070
     1
1071
       14
1005
34D
  0
LWPOLYLINE
  5
34E
330
308
100
AcDbEntity
  8
0
  6
Continuous
 62
     7
370
    15
100
AcDbPolyline
 90
      139
 70
   128
 43
0.0
 10
2242.573041080436
 20
930.3587037677306
 10
2241.868355090163
 20
929.9700100287449
 10
2241.133753938019
 20
929.6002347409665
 10
2240.37076019707
 20
929.2501443201468
 10
2239.580955288357
 20
928.9204643821438
 10
2238.765976203163
 20
928.6118782389735
 10
2237.927512110095
 20
928.3250254825407
 10
2237.067300854024
 20
928.0605006589873
 10
2236.187125354138
 20
927.8188520364048
 10
2235.28880990857
 20
927.600580468465
 10
2234.374216413258
 20
927.4061383563237
 10
2233.445240502887
 20
927.2359287109512
 10
2232.503807621892
 20
927.0903043178295
 10
2231.55186903368
 20
926.969567005751
 10
2230.591397776345
 20
926.8739670212324
 10
2229.624384573236
 20
926.8037025098406
 10
2228.652833706886
 20
926.7589191055051
 10
2227.678758864827
 20
926.7397096286703
 10
2226.70417896592
 20
926.7461138939101
 10
2225.731113975826
 20
926.7781186274069
 10
2224.761580720334
 20
926.8356574944633
 10
2223.797588705167
 20
926.9186112369906
 10
2222.841135950986
 20
927.02680792069
 10
2221.894204852181
 20
927.1600232914122
 10
2220.958758068056
 20
927.3179812399582
 10
2220.03673445492
 20
927.500354374359
 10
2219.13004504751
 20
927.7067646984434
 10
2218.240569098082
 20
927.9367843952949
 10
2217.370150181368
 20
928.189936713966
 10
2216.520592373492
 20
928.4656969576184
 10
2215.693656512744
 20
928.7634935710368
 10
2214.891056549974
 20
929.0827093252643
 10
2214.114455996167
 20
929.4226825969037
 10
2213.365464474563
 20
929.7827087394338
 10
2212.645634384467
 20
930.1620415436959
 10
2211.956457683662
 20
930.5598947845261
 10
2211.299362796104
 20
930.9754438503283
 10
2210.675711651288
 20
931.4078274522064
 10
2210.086796861449
 20
931.8561494091179
 10
2209.533839042419
 20
932.3194805053452
 10
2209.017984283719
 20
932.7968604164379
 10
2208.540301773111
 20
933.2872996996311
 10
2208.101781580543
 20
933.7897818446169
 10
2207.703332606078
 20
934.3032653804179
 10
2207.345780696063
 20
934.8266860339936
 10
2207.029866931431
 20
935.3589589361098
 10
2206.756246091702
 20
935.898980869895
 10
2206.52548529785
 20
936.4456325574272
 10
2206.338062836858
 20
936.9977809796061
 10
2206.194367170398
 20
937.5542817245102
 10
2206.094696129682
 20
938.1139813593646
 10
2206.039256298161
 20
938.6757198212061
 10
2206.028162583354
 20
939.2383328212913
 10
2206.061437978677
 20
939.8006542582631
 10
2206.139013515793
 20
940.361518635073
 10
2206.260728407555
 20
940.9197634746524
 10
2206.426330381263
 20
941.4742317293237
 10
2206.635476201537
 20
942.0237741789582
 10
2206.887732381728
 20
942.5672518129102
 10
2207.18257608238
 20
943.1035381907909
 10
2207.519396194901
 20
943.6315217771875
 10
2207.897494608171
 20
944.1501082454909
 10
2208.316087655491
 20
944.6582227460536
 10
2208.774307738849
 20
945.1548121339813
 10
2209.271205127149
 20
945.6388471519344
 10
2209.805749924674
 20
946.1093245634236
 10
2210.376834205702
 20
946.5652692321683
 10
2210.983274310854
 20
947.0057361432164
 10
2211.623813300403
 20
947.4298123616332
 10
2212.297123559479
 20
947.8366189246965
 10
2213.001809549751
 20
948.2253126636823
 10
2213.736410701896
 20
948.5950879514607
 10
2214.499404442845
 20
948.9451783722804
 10
2215.289209351558
 20
949.2748583102834
 10
2216.104188436752
 20
949.5834444534537
 10
2216.94265252982
 20
949.8702972098865
 10
2217.802863785891
 20
950.1348220334399
 10
2218.683039285777
 20
950.3764706560223
 10
2219.581354731345
 20
950.5947422239621
 10
2220.495948226657
 20
950.7891843361035
 10
2221.424924137028
 20
950.9593939814759
 10
2222.366357018023
 20
951.1050183745977
 10
2223.318295606235
 20
951.2257556866762
 10
2224.27876686357
 20
951.3213556711948
 10
2225.245780066679
 20
951.3916201825866
 10
2226.217330933029
 20
951.4364035869219
 10
2227.191405775087
 20
951.4556130637568
 10
2228.165985673995
 20
951.4492087985171
 10
2229.139050664089
 20
951.4172040650203
 10
2230.108583919582
 20
951.3596651979637
 10
2231.072575934748
 20
951.2767114554364
 10
2232.029028688929
 20
951.168514771737
 10
2232.975959787734
 20
951.0352994010149
 10
2233.911406571859
 20
950.8773414524688
 10
2234.833430184995
 20
950.6949683180682
 10
2235.740119592405
 20
950.4885579939836
 10
2236.629595541834
 20
950.2585382971323
 10
2237.500014458547
 20
950.0053859784612
 10
2238.349572266423
 20
949.7296257348086
 10
2239.176508127171
 20
949.4318291213904
 10
2239.979108089941
 20
949.1126133671629
 10
2240.755708643748
 20
948.7726400955232
 10
2241.504700165352
 20
948.4126139529932
 10
2242.224530255448
 20
948.0332811487313
 10
2242.913706956253
 20
947.6354279079009
 10
2243.570801843811
 20
947.2198788420989
 10
2244.194452988627
 20
946.7874952402207
 10
2244.783367778466
 20
946.3391732833093
 10
2245.336325597496
 20
945.8758421870818
 10
2245.852180356196
 20
945.3984622759891
 10
2246.329862866804
 20
944.9080229927961
 10
2246.768383059372
 20
944.4055408478101
 10
2247.166832033837
 20
943.8920573120093
 10
2247.524383943852
 20
943.3686366584336
 10
2247.840297708483
 20
942.8363637563174
 10
2248.113918548213
 20
942.296341822532
 10
2248.344679342065
 20
941.7496901349998
 10
2248.532101803057
 20
941.1975417128211
 10
2248.675797469517
 20
940.6410409679168
 10
2248.775468510233
 20
940.0813413330624
 10
2248.830908341753
 20
939.5196028712209
 10
2248.842002056561
 20
938.9569898711355
 10
2248.808726661238
 20
938.3946684341641
 10
2248.731151124121
 20
937.833804057354
 10
2248.60943623236
 20
937.2755592177746
 10
2248.443834258652
 20
936.7210909631033
 10
2248.234688438378
 20
936.1715485134689
 10
2247.982432258187
 20
935.6280708795168
 10
2247.687588557534
 20
935.0917845016361
 10
2247.350768445014
 20
934.5638009152395
 10
2246.972670031744
 20
934.0452144469363
 10
2246.554076984424
 20
933.5370999463734
 10
2246.095856901066
 20
933.0405105584459
 10
2245.598959512766
 20
932.5564755404926
 10
2245.064414715241
 20
932.0859981290034
 10
2244.493330434213
 20
931.6300534602589
 10
2243.886890329061
 20
931.1895865492106
 10
2243.246351339513
 20
930.7655103307938
 10
2242.573041080436
 20
930.3587037677306
1001
AcDbBlockRepETag
1070
     1
1071
       15
1005
34E
  0
LINE
  5
34F
330
308
100
AcDbEntity
  8
0
  6
Continuous
 62
     7
370
    15
100
AcDbLine
 10
2205.235134575633
 20
938.2712257636267
 30
0.0
 11
2205.235082319957
 21
938.2990325165987
 31
0.0
1001
AcDbBlockRepETag
1070
     1
1071
       16
1005
34F
  0
LINE
  5
350
330
308
100
AcDbEntity
  8
0
  6
Continuous
 62
     7
370
    15
100
AcDbLine
 10
2249.635082319958
 20
938.299032516597
 30
0.0
 11
2249.635061234517
 21
938.281369086674
 31
0.0
1001
AcDbBlockRepETag
1070
     1
1071
       17
1005
350
  0
LWPOLYLINE
  5
351
330
308
100
AcDbEntity
  8
0
  6
Continuous
 62
     7
370
    15
100
AcDbPolyline
 90
       73
 70
   128
 43
0.0
 10
2249.635082319958
 20
937.3832152780806
 10
2249.634737919759
 20
937.3118291526525
 10
2249.607191673696
 20
936.74100590554
 10
2249.535624756858
 20
936.1714577056908
 10
2249.420179258736
 20
935.6043153383359
 10
2249.261084385679
 20
935.0407048121487
 10
2249.058656005832
 20
934.4817451236586
 10
2248.813296022004
 20
933.9285460355871
 10
2248.525491573733
 20
933.3822058735172
 10
2248.195814070108
 20
932.8438093452691
 10
2247.824918055299
 20
932.3144253873133
 10
2247.413539909011
 20
931.7951050424959
 10
2246.962496384472
 20
931.2868793732913
 10
2246.472682986853
 20
930.790757414722
 10
2245.945072195314
 20
930.3077241710134
 10
2245.380711532243
 20
929.8387386599593
 10
2244.780721483497
 20
929.3847320088804
 10
2244.146293273781
 20
928.9466056059579
 10
2243.47868650158
 20
928.5252293106097
 10
2242.779226638343
 20
928.1214397264657
 10
2242.049302396882
 20
927.7360385403687
 10
2241.290362974216
 20
927.3697909306992
 10
2240.503915174317
 20
927.0234240481849
 10
2239.691520416493
 20
926.6976255722097
 10
2238.854791635339
 20
926.3930423454901
 10
2237.995390078398
 20
926.1102790898295
 10
2237.115022007911
 20
925.8498972054981
 10
2236.215435313191
 20
925.6124136566253
 10
2235.298416040352
 20
925.3982999448144
 10
2234.365784846275
 20
925.2079811730213
 10
2233.419393383869
 20
925.0418352015506
 10
2232.461120625779
 20
924.9001918978494
 10
2231.492869133866
 20
924.7833324815861
 10
2230.51656128184
 20
924.6914889663145
 10
2229.53413543857
 20
924.6248436988329
 10
2228.547542119631
 20
924.5835289971509
 10
2227.558740114734
 20
924.5676268877843
 10
2226.569692598733
 20
924.5771689428995
 10
2225.582363233917
 20
924.6121362176292
 10
2224.598712271351
 20
924.6724592876862
 10
2223.620692658971
 20
924.7580183871985
 10
2222.650246164185
 20
924.8686436464938
 10
2221.689299518681
 20
925.0041154293599
 10
2220.739760593074
 20
925.1641647691116
 10
2219.803514609008
 20
925.3484739025997
 10
2218.882420396219
 20
925.5566769011004
 10
2217.978306702009
 20
925.788360396832
 10
2217.092968560427
 20
926.0430644036595
 10
2216.228163728403
 20
926.3202832303539
 10
2215.385609195882
 20
926.6194664845954
 10
2214.566977776895
 20
926.9400201657266
 10
2213.773894788351
 20
927.2813078440849
 10
2213.00793482311
 20
927.6426519245767
 10
2212.270618623785
 20
928.0233349919773
 10
2211.563410063439
 20
928.4226012352943
 10
2210.887713239205
 20
928.8396579483594
 10
2210.244869684585
 20
929.2736771036734
 10
2209.636155705951
 20
929.7237969963781
 10
2209.062779848562
 20
930.1891239550917
 10
2208.525880497108
 20
930.6687341162101
 10
2208.026523615555
 20
931.1616752581537
 10
2207.565700630768
 20
931.6669686919137
 10
2207.144326464127
 20
932.1836112041497
 10
2206.763237715036
 20
932.7105770489762
 10
2206.423190999931
 20
933.2468199844866
 10
2206.12486145009
 20
933.7912753499695
 10
2205.868841371217
 20
934.3428621796938
 10
2205.655639067483
 20
934.9004853490665
 10
2205.485677832324
 20
935.463037748901
 10
2205.359295108042
 20
936.0294024834795
 10
2205.276741815838
 20
936.5984550880467
 10
2205.238181857631
 20
937.1690657613305
 10
2205.235082319957
 20
937.3832152780826
1001
AcDbBlockRepETag
1070
     1
1071
       18
1005
351
  0
SPLINE
  5
352
330
308
100
AcDbEntity
  8
0
  6
Continuous
 62
     7
370
    15
100
AcDbSpline
210
0.0
220
0.0
230
1.0
 70
     8
 71
     3
 72
    17
 73
    13
 74
     0
 42
0.0000000001
 43
0.0000000001
 40
0.0
 40
0.0
 40
0.0
 40
0.0
 40
0.0943778689584942
 40
0.1978611309814062
 40
0.3003541347223364
 40
0.4014990008647369
 40
0.5044952541538961
 40
0.6088824762648491
 40
0.714282226478238
 40
0.8202929756138949
 40
0.9264989370907029
 40
1.0
 40
1.0
 40
1.0
 40
1.0
 10
2233.226844451924
 20
925.020147948768
 30
0.0
 10
2232.787403237788
 20
924.9311157649353
 30
0.0
 10
2231.86612437667
 20
924.7444617455
 30
0.0
 10
2230.423120349844
 20
924.5520078151772
 30
0.0
 10
2228.929301943217
 20
924.4231147142736
 30
0.0
 10
2227.425973022995
 20
924.3706400748617
 30
0.0
 10
2225.913557682398
 20
924.3921381128558
 30
0.0
 10
2224.391893893989
 20
924.4903822307481
 30
0.0
 10
2222.878547026664
 20
924.6660757680958
 30
0.0
 10
2221.394680693823
 20
924.922132666494
 30
0.0
 10
2220.0948317438
 20
925.2115405197093
 30
0.0
 10
2219.321377129127
 20
925.4451775590109
 30
0.0
 10
2219.005030361466
 20
925.5407362650897
 30
0.0
1001
AcDbBlockRepETag
1070
     1
1071
       19
1005
352
  0
SPLINE
  5
353
330
308
100
AcDbEntity
  8
0
  6
Continuous
 62
     7
370
    15
100
AcDbSpline
210
0.0
220
0.0
230
1.0
 70
     8
 71
     3
 72
    19
 73
    15
 74
     0
 42
0.0000000001
 43
0.0000000001
 40
0.0
 40
0.0
 40
0.0
 40
0.0
 40
0.0392019077279798
 40
0.1301409170372032
 40
0.2192714498833939
 40
0.3078791438168968
 40
0.3956389276531558
 40
0.4822443667057703
 40
0.5704350587011837
 40
0.6598167697775899
 40
0.7500654595174613
 40
0.8408373179750535
 40
0.9317763272842769
 40
1.0
 40
1.0
 40
1.0
 40
1.0
 10
2235.405156654866
 20
924.3681144049753
 30
0.0
 10
2235.207143701518
 20
924.3045644979563
 30
0.0
 10
2234.549788260739
 20
924.0935940718621
 30
0.0
 10
2233.378390950303
 20
923.8137608199135
 30
0.0
 10
2231.910998288817
 20
923.5292525041709
 30
0.0
 10
2230.423597826894
 20
923.3263033481152
 30
0.0
 10
2228.929176649365
 20
923.1985384380505
 30
0.0
 10
2227.42600640871
 20
923.1457642324009
 30
0.0
 10
2225.913551085292
 20
923.1673475833568
 30
0.0
 10
2224.391885999724
 20
923.2655540398067
 30
0.0
 10
2222.878585793153
 20
923.4413120054846
 30
0.0
 10
2221.394532616818
 20
923.6971476202624
 30
0.0
 10
2220.067229942481
 20
923.9935653417697
 30
0.0
 10
2219.267473669634
 20
924.235559518401
 30
0.0
 10
2218.924665232901
 20
924.3392881770008
 30
0.0
1001
AcDbBlockRepETag
1070
     1
1071
       20
1005
353
  0
SPLINE
  5
354
330
308
100
AcDbEntity
  8
0
  6
Continuous
 62
     7
370
    15
100
AcDbSpline
210
0.0
220
0.0
230
1.0
 70
     8
 71
     3
 72
    19
 73
    15
 74
     0
 42
0.0000000001
 43
0.0000000001
 40
0.0
 40
0.0
 40
0.0
 40
0.0
 40
0.0392840392686692
 40
0.1302232603626945
 40
0.2193540007819934
 40
0.3079619010709826
 40
0.3957218892880585
 40
0.4823275300331655
 40
0.570518427412921
 40
0.6599003466473922
 40
0.7501492465644066
 40
0.840921316417531
 40
0.9318605375115657
 40
0.9999999999999998
 40
0.9999999999999998
 40
0.9999999999999998
 40
0.9999999999999998
 10
2235.406407027981
 20
923.1436936473116
 30
0.0
 10
2235.207981284276
 20
923.0800088471927
 30
0.0
 10
2234.550216762953
 20
922.8688991328796
 30
0.0
 10
2233.378394323409
 20
922.5889456060254
 30
0.0
 10
2231.910997398022
 20
922.3044423411741
 30
0.0
 10
2230.423598063298
 20
922.1014918521198
 30
0.0
 10
2228.92917658448
 20
921.973727290088
 30
0.0
 10
2227.426006436563
 20
921.9209530075428
 30
0.0
 10
2225.913551038427
 20
921.9425363215471
 30
0.0
 10
2224.391886161617
 20
922.0407430084478
 30
0.0
 10
2222.87858518564
 20
922.2165000776248
 30
0.0
 10
2221.394534898499
 20
922.4723390719391
 30
0.0
 10
2220.067670365668
 20
922.7686451405238
 30
0.0
 10
2219.268333720408
 20
923.0105060014137
 30
0.0
 10
2218.925947373421
 20
923.1141042251788
 30
0.0
1001
AcDbBlockRepETag
1070
     1
1071
       21
1005
354
  0
SPLINE
  5
355
330
308
100
AcDbEntity
  8
0
  6
Continuous
 62
     7
370
    15
100
AcDbSpline
210
0.0
220
0.0
230
1.0
 70
     8
 71
     3
 72
    19
 73
    15
 74
     0
 42
0.0000000001
 43
0.0000000001
 40
0.0
 40
0.0
 40
0.0
 40
0.0
 40
0.0391682674175085
 40
0.1301116222819994
 40
0.2192464142647164
 40
0.3078583423506887
 40
0.3956223198217097
 40
0.4822318973482766
 40
0.5704268035695613
 40
0.6598127857851414
 40
0.7500657880930936
 40
0.8408419841185827
 40
0.9317853389830641
 40
1.0
 40
1.0
 40
1.0
 40
1.0
 10
2235.404615417841
 20
921.9183229545691
 30
0.0
 10
2235.206781146483
 20
921.854831435791
 30
0.0
 10
2234.549602780258
 20
921.6439213023065
 30
0.0
 10
2233.378389488798
 20
921.36414011576
 30
0.0
 10
2231.910998674666
 20
921.0796296113144
 30
0.0
 10
2230.42359772493
 20
920.876681033534
 30
0.0
 10
2228.929176675758
 20
920.7489159701067
 30
0.0
 10
2227.426006403024
 20
920.6961418072561
 30
0.0
 10
2225.913551081146
 20
920.7177251381457
 30
0.0
 10
2224.391886022532
 20
920.8159316321182
 30
0.0
 10
2222.878585705032
 20
920.9916894663731
 30
0.0
 10
2221.394532948465
 20
921.2475255727493
 30
0.0
 10
2220.067294000856
 20
921.543927054939
 30
0.0
 10
2219.267598761605
 20
921.7859018412296
 30
0.0
 10
2218.92485171641
 20
921.8896115282975
 30
0.0
1001
AcDbBlockRepETag
1070
     1
1071
       22
1005
355
  0
SPLINE
  5
356
330
308
100
AcDbEntity
  8
0
  6
Continuous
 62
     7
370
    15
100
AcDbSpline
210
0.0
220
0.0
230
1.0
 70
     8
 71
     3
 72
    17
 73
    13
 74
     0
 42
0.0000000001
 43
0.0000000001
 40
0.0
 40
0.0
 40
0.0
 40
0.0
 40
0.0306904844938366
 40
0.1460240302594985
 40
0.2602539537219052
 40
0.3729814036778346
 40
0.4877722515359791
 40
0.6041133074341208
 40
0.7215828048405349
 40
0.8397332471673395
 40
0.9581012492669282
 40
1.0
 40
1.0
 40
1.0
 40
1.0
 10
2232.50451482831
 20
924.9185804626222
 30
0.0
 10
2232.370221808398
 20
924.8922645460186
 30
0.0
 10
2231.731261286052
 20
924.767054525199
 30
0.0
 10
2230.554874876662
 20
924.6206631583817
 30
0.0
 10
2228.996153300922
 20
924.4834999058296
 30
0.0
 10
2227.425482713568
 20
924.4302757620234
 30
0.0
 10
2225.845825119422
 20
924.4531798765569
 30
0.0
 10
2224.256493880995
 20
924.5567405986488
 30
0.0
 10
2222.67538252243
 20
924.7405433929564
 30
0.0
 10
2221.126964867119
 20
925.0105600280601
 30
0.0
 10
2219.935444357732
 20
925.270295171256
 30
0.0
 10
2219.287238254126
 20
925.4638889777858
 30
0.0
 10
2219.117776868788
 20
925.514500464572
 30
0.0
1001
AcDbBlockRepETag
1070
     1
1071
       23
1005
356
  0
SPLINE
  5
357
330
308
100
AcDbEntity
  8
0
  6
Continuous
 62
     7
370
    15
100
AcDbSpline
210
0.0
220
0.0
230
1.0
 70
     8
 71
     3
 72
    32
 73
    28
 74
     0
 42
0.0000000001
 43
0.0000000001
 40
0.0
 40
0.0
 40
0.0
 40
0.0
 40
0.0059880905849003
 40
0.0479810457048387
 40
0.0894216647939548
 40
0.1316208257158571
 40
0.1743898707335991
 40
0.217573750955428
 40
0.2610079586625109
 40
0.3045221452183711
 40
0.3471709812492036
 40
0.3895696475912562
 40
0.4315626027111945
 40
0.4730032218003105
 40
0.5152023827222127
 40
0.5579714277399548
 40
0.6011553079617837
 40
0.644589515668867
 40
0.6881037022247271
 40
0.7307525382555597
 40
0.7731512045976123
 40
0.8151441597175509
 40
0.8565847788066662
 40
0.8987839397285693
 40
0.9415529847463112
 40
0.9847368649681401
 40
1.0
 40
1.0
 40
1.0
 40
1.0
 10
2242.516668086249
 20
927.9907659899629
 30
0.0
 10
2242.476523452518
 20
927.9535114546026
 30
0.0
 10
2242.154854720469
 20
927.6550003451786
 30
0.0
 10
2241.448111044459
 20
927.1409391943626
 30
0.0
 10
2240.393655582121
 20
926.4535369178329
 30
0.0
 10
2239.225958952779
 20
925.821330506176
 30
0.0
 10
2237.955473864615
 20
925.2402429064032
 30
0.0
 10
2236.590186076687
 20
924.72087556075
 30
0.0
 10
2235.145176796951
 20
924.2703884852064
 30
0.0
 10
2233.645365783134
 20
923.8972740073256
 30
0.0
 10
2232.109627494274
 20
923.604258951129
 30
0.0
 10
2230.556807508315
 20
923.3921416386836
 30
0.0
 10
2228.995648742679
 20
923.2596673797193
 30
0.0
 10
2227.425607596946
 20
923.2051849472442
 30
0.0
 10
2225.845837878829
 20
923.2284975813142
 30
0.0
 10
2224.256311859457
 20
923.3316953964594
 30
0.0
 10
2222.676106672419
 20
923.5165472331587
 30
0.0
 10
2221.124233981293
 20
923.7827047159674
 30
0.0
 10
2219.628386019696
 20
924.1259069270281
 30
0.0
 10
2218.204970422526
 20
924.5404829931935
 30
0.0
 10
2216.86809373666
 20
925.0193689750496
 30
0.0
 10
2215.62216499793
 20
925.5580590228515
 30
0.0
 10
2214.465312398766
 20
926.1558830328256
 30
0.0
 10
2213.394775098009
 20
926.8119847078896
 30
0.0
 10
2212.424674247682
 20
927.530872053739
 30
0.0
 10
2211.724541092886
 20
928.1277342102248
 30
0.0
 10
2211.394791363022
 20
928.4960254623664
 30
0.0
 10
2211.308678930561
 20
928.5922028135638
 30
0.0
1001
AcDbBlockRepETag
1070
     1
1071
       24
1005
357
  0
SPLINE
  5
358
330
308
100
AcDbEntity
  8
0
  6
Continuous
 62
     7
370
    15
100
AcDbSpline
210
0.0
220
0.0
230
1.0
 70
     8
 71
     3
 72
    38
 73
    34
 74
     0
 42
0.0000000001
 43
0.0000000001
 40
0.0
 40
0.0
 40
0.0
 40
0.0
 40
0.0074116396998123
 40
0.0422182400515748
 40
0.0763326544227902
 40
0.1102469603450909
 40
0.1438367415667349
 40
0.1769847142425594
 40
0.2107394376016357
 40
0.244950006043448
 40
0.279492397375755
 40
0.3142350233769353
 40
0.3490416237286942
 40
0.3831560380999098
 40
0.4170703440222106
 40
0.4506601252438546
 40
0.4838080979196768
 40
0.517562821278753
 40
0.5517733897205637
 40
0.5863157810528694
 40
0.6210584070540483
 40
0.6558650074058108
 40
0.6899794217770264
 40
0.723893727699327
 40
0.757483508920971
 40
0.7906314815967943
 40
0.8243862049558716
 40
0.8585967733976836
 40
0.8931391647299905
 40
0.9278817907311706
 40
0.9626883910829294
 40
0.9968028054541447
 40
1.0
 40
1.0
 40
1.0
 40
1.0
 10
2244.732163036436
 20
929.3589163685483
 30
0.0
 10
2244.697953825115
 20
929.2938005312713
 30
0.0
 10
2244.503091047914
 20
928.9228871894644
 30
0.0
 10
2244.01726317648
 20
928.2787796144642
 30
0.0
 10
2243.277889074447
 20
927.4378553732448
 30
0.0
 10
2242.416381947064
 20
926.649448938166
 30
0.0
 10
2241.45500743991
 20
925.9135145400808
 30
0.0
 10
2240.391781421103
 20
925.2294359262027
 30
0.0
 10
2239.226472414083
 20
924.5963247086573
 30
0.0
 10
2237.955334036737
 20
924.0154846773096
 30
0.0
 10
2236.590223938494
 20
923.4960499949304
 30
0.0
 10
2235.145166599312
 20
923.0455811318401
 30
0.0
 10
2233.64536845785
 20
922.6724617759046
 30
0.0
 10
2232.109626788025
 20
922.379448000902
 30
0.0
 10
2230.556807695329
 20
922.1673303501175
 30
0.0
 10
2228.995648692864
 20
922.0348561802801
 30
0.0
 10
2227.425607612965
 20
921.9803737251556
 30
0.0
 10
2225.845837864916
 20
922.003686361821
 30
0.0
 10
2224.256311899448
 20
922.1068841898473
 30
0.0
 10
2222.676106524751
 20
922.2917359716101
 30
0.0
 10
2221.124234535247
 20
922.5578936627828
 30
0.0
 10
2219.628383966187
 20
922.9010950986948
 30
0.0
 10
2218.204977897682
 20
923.31567399776
 30
0.0
 10
2216.868066114878
 20
923.7945495451384
 30
0.0
 10
2215.62226644445
 20
924.3332779655425
 30
0.0
 10
2214.46493632658
 20
924.9309600069963
 30
0.0
 10
2213.396216116331
 20
925.5876019114738
 30
0.0
 10
2212.419196125045
 20
926.3044321647097
 30
0.0
 10
2211.550381780114
 20
927.0752013143241
 30
0.0
 10
2210.79767455966
 20
927.8912766475267
 30
0.0
 10
2210.193491710592
 20
928.740930473266
 30
0.0
 10
2209.829392443089
 20
929.346436201818
 30
0.0
 10
2209.70739164668
 20
929.6691706026685
 30
0.0
 10
2209.696937520145
 20
929.696825391516
 30
0.0
1001
AcDbBlockRepETag
1070
     1
1071
       25
1005
358
  0
SPLINE
  5
359
330
308
100
AcDbEntity
  8
0
  6
Continuous
 62
     7
370
    15
100
AcDbSpline
210
0.0
220
0.0
230
1.0
 70
     8
 71
     3
 72
    41
 73
    37
 74
     0
 42
0.0000000001
 43
0.0000000001
 40
0.0
 40
0.0
 40
0.0
 40
0.0
 40
0.0058794256646805
 40
0.0364587448549308
 40
0.0672153256537804
 40
0.0980285409822913
 40
0.128228985300407
 40
0.1582522797485799
 40
0.1879882824365781
 40
0.2173331655748712
 40
0.2472151864762555
 40
0.2775007530427962
 40
0.3080800722330465
 40
0.338836653031896
 40
0.369649868360407
 40
0.3998503126785228
 40
0.4298736071266956
 40
0.4596096098146938
 40
0.488954492952988
 40
0.5188365138543734
 40
0.5491220804209151
 40
0.5797013996111668
 40
0.6104579804100175
 40
0.6412711957385252
 40
0.6714716400566411
 40
0.7014949345048142
 40
0.7312309371928125
 40
0.7605758203311046
 40
0.79045784123249
 40
0.8207434077990306
 40
0.851322726989281
 40
0.8820793077881305
 40
0.9128925231166414
 40
0.9430929674347572
 40
0.97311626188293
 40
1.0
 40
1.0
 40
1.0
 40
1.0
 10
2245.50974734128
 20
929.9638229863388
 30
0.0
 10
2245.496926060281
 20
929.9032962405124
 30
0.0
 10
2245.417420367157
 20
929.52796550094
 30
0.0
 10
2245.133601292955
 20
928.8480704822054
 30
0.0
 10
2244.651731937525
 20
927.9336960188095
 30
0.0
 10
2244.023901723374
 20
927.0526578399893
 30
0.0
 10
2243.27613631503
 20
926.2133901785054
 30
0.0
 10
2242.41684562458
 20
925.424546182888
 30
0.0
 10
2241.454885592809
 20
924.6887273768429
 30
0.0
 10
2240.39181453421
 20
924.0046181713104
 30
0.0
 10
2239.226463342131
 20
923.371515281779
 30
0.0
 10
2237.955336507249
 20
922.7906729717622
 30
0.0
 10
2236.590223269542
 20
922.2712389091636
 30
0.0
 10
2235.145166779487
 20
921.8207698784423
 30
0.0
 10
2233.645368410592
 20
921.4476505674054
 30
0.0
 10
2232.109626800505
 20
921.1546367806105
 30
0.0
 10
2230.556807692022
 20
920.9425191329398
 30
0.0
 10
2228.995648693755
 20
920.8100449622834
 30
0.0
 10
2227.42560761264
 20
920.755562507362
 30
0.0
 10
2225.845837865322
 20
920.7788751440242
 30
0.0
 10
2224.256311898133
 20
920.8820729718526
 30
0.0
 10
2222.676106529662
 20
921.0669247544215
 30
0.0
 10
2221.124234516809
 20
921.3330824425458
 30
0.0
 10
2219.628384034539
 20
921.6762838897958
 30
0.0
 10
2218.204977648867
 20
922.0908627474253
 30
0.0
 10
2216.868067034285
 20
922.5697384474244
 30
0.0
 10
2215.62226306774
 20
923.1084663065688
 30
0.0
 10
2214.464948844373
 20
923.7061504245357
 30
0.0
 10
2213.396168151149
 20
924.3627844273083
 30
0.0
 10
2212.41937846773
 20
925.0796447687594
 30
0.0
 10
2211.549692567253
 20
925.8503000553456
 30
0.0
 10
2210.800264430193
 20
926.6668037793335
 30
0.0
 10
2210.183889888913
 20
927.5148648402739
 30
0.0
 10
2209.709265370912
 20
928.3840927264137
 30
0.0
 10
2209.37272350156
 20
929.2349844040836
 30
0.0
 10
2209.261887619966
 20
929.8008414818022
 30
0.0
 10
2209.209527082429
 20
930.0681608763188
 30
0.0
1001
AcDbBlockRepETag
1070
     1
1071
       26
1005
359
  0
SPLINE
  5
35A
330
308
100
AcDbEntity
  8
0
  6
Continuous
 62
     7
370
    15
100
AcDbSpline
210
0.0
220
0.0
230
1.0
 70
     8
 71
     3
 72
    30
 73
    26
 74
     0
 42
0.0000000001
 43
0.0000000001
 40
0.0
 40
0.0
 40
0.0
 40
0.0
 40
0.0037215698302086
 40
0.0490291393845395
 40
0.095166032621874
 40
0.1419259875768581
 40
0.1891394872731101
 40
0.2366266732751849
 40
0.2842013011961663
 40
0.3308298300973131
 40
0.3771848452135813
 40
0.423096290957119
 40
0.468403860511451
 40
0.514540753748785
 40
0.5613007087037692
 40
0.6085142084000211
 40
0.6560013944020959
 40
0.7035760223230777
 40
0.7502045512242246
 40
0.7965595663404929
 40
0.8424710120840305
 40
0.8877785816383624
 40
0.9339154748756968
 40
0.9806754298306808
 40
1.0
 40
1.0
 40
1.0
 40
1.0
 10
2241.511371110062
 20
927.4892564535566
 30
0.0
 10
2241.485475963056
 20
927.4693312924339
 30
0.0
 10
2241.144325096652
 20
927.2068309104685
 30
0.0
 10
2240.384692607259
 20
926.7435292982991
 30
0.0
 10
2239.228414526616
 20
926.1062306436825
 30
0.0
 10
2237.954805152727
 20
925.5265363577532
 30
0.0
 10
2236.590367146732
 20
925.0067900413457
 30
0.0
 10
2235.145128027839
 20
924.5564054653989
 30
0.0
 10
2233.64537857467
 20
924.1832635338466
 30
0.0
 10
2232.109624116754
 20
923.8902556882194
 30
0.0
 10
2230.556808402553
 20
923.6781364715447
 30
0.0
 10
2228.995648504954
 20
923.5456627144008
 30
0.0
 10
2227.425607671665
 20
923.4911801536592
 30
0.0
 10
2225.845837819527
 20
923.5144928053669
 30
0.0
 10
2224.256312023207
 20
923.6176906814641
 30
0.0
 10
2222.676106070183
 20
923.8025422526655
 30
0.0
 10
2221.12423623983
 20
924.0687007437866
 30
0.0
 10
2219.628377647473
 20
924.411899203406
 30
0.0
 10
2218.205000898942
 20
924.8264889798806
 30
0.0
 10
2216.867981121911
 20
925.3053244622497
 30
0.0
 10
2215.622578598129
 20
925.8442002210063
 30
0.0
 10
2214.463779142326
 20
926.4413371493644
 30
0.0
 10
2213.400650168546
 20
927.1000533596634
 30
0.0
 10
2212.601053223136
 20
927.66787237053
 30
0.0
 10
2212.202360467991
 20
928.0301372711035
 30
0.0
 10
2212.085773928126
 20
928.1360715042366
 30
0.0
1001
AcDbBlockRepETag
1070
     1
1071
       27
1005
35A
  0
SPLINE
  5
35B
330
308
100
AcDbEntity
  8
0
  6
Continuous
 62
     7
370
    15
100
AcDbSpline
210
0.0
220
0.0
230
1.0
 70
     8
 71
     3
 72
    36
 73
    32
 74
     0
 42
0.0000000001
 43
0.0000000001
 40
0.0
 40
0.0
 40
0.0
 40
0.0
 40
0.023579775738191
 40
0.0590422851934549
 40
0.0942967785390328
 40
0.1292139229815846
 40
0.1636717999847775
 40
0.1987604045627616
 40
0.2343228677971112
 40
0.2702302665259881
 40
0.3063458125723279
 40
0.3425278610357308
 40
0.3779903704909946
 40
0.4132448638365725
 40
0.4481620082791242
 40
0.4826198852823172
 40
0.5177084898603014
 40
0.5532709530946508
 40
0.5891783518235278
 40
0.6252938978698677
 40
0.6614759463332706
 40
0.6969384557885345
 40
0.7321929491341124
 40
0.7671100935766643
 40
0.8015679705798566
 40
0.8366565751578413
 40
0.8722190383921908
 40
0.9081264371210677
 40
0.9442419831674076
 40
0.9804240316308106
 40
1.0
 40
1.0
 40
1.0
 40
1.0
 10
2244.40820964942
 20
929.1412472802372
 30
0.0
 10
2244.276488959208
 20
928.9474007558149
 30
0.0
 10
2243.946668580775
 20
928.4620211701147
 30
0.0
 10
2243.272748097867
 20
927.724972993394
 30
0.0
 10
2242.417741948459
 20
926.9351472507356
 30
0.0
 10
2241.454650053104
 20
926.1995877965588
 30
0.0
 10
2240.391878544365
 20
925.515409953059
 30
0.0
 10
2239.226445805358
 20
924.882325748949
 30
0.0
 10
2237.955341282934
 20
924.3014783263214
 30
0.0
 10
2236.59022197641
 20
923.782045654314
 30
0.0
 10
2235.145167127777
 20
923.331576247482
 30
0.0
 10
2233.64536831924
 20
922.958457037183
 30
0.0
 10
2232.109626824627
 20
922.6654432239302
 30
0.0
 10
2230.556807685631
 20
922.4533255832456
 30
0.0
 10
2228.995648695469
 20
922.3208514107517
 30
0.0
 10
2227.425607612049
 20
922.2663689562873
 30
0.0
 10
2225.845837865966
 20
922.2896815929367
 30
0.0
 10
2224.256311896127
 20
922.3928794203443
 30
0.0
 10
2222.676106537126
 20
922.5777312046332
 30
0.0
 10
2221.124234488795
 20
922.8438888862516
 30
0.0
 10
2219.628384138391
 20
923.1870903576997
 30
0.0
 10
2218.204977270826
 20
923.6016691268947
 30
0.0
 10
2216.868068431206
 20
924.0805451526259
 30
0.0
 10
2215.622257937273
 20
924.6192718138962
 30
0.0
 10
2214.464967863521
 20
925.2169603636817
 30
0.0
 10
2213.396095274342
 20
925.8735775021614
 30
0.0
 10
2212.419655513538
 20
926.5905020596868
 30
0.0
 10
2211.548645398654
 20
927.3609143329698
 30
0.0
 10
2210.804199398981
 20
928.1783323542621
 30
0.0
 10
2210.262901095223
 20
928.8984697310599
 30
0.0
 10
2210.024868700337
 20
929.3532757372647
 30
0.0
 10
2209.941298392463
 20
929.5129526500629
 30
0.0
1001
AcDbBlockRepETag
1070
     1
1071
       28
1005
35B
  0
SPLINE
  5
35C
330
308
100
AcDbEntity
  8
0
  6
Continuous
 62
     7
370
    15
100
AcDbSpline
210
0.0
220
0.0
230
1.0
 70
     8
 71
     3
 72
    40
 73
    36
 74
     0
 42
0.0000000001
 43
0.0000000001
 40
0.0
 40
0.0
 40
0.0
 40
0.0
 40
0.0246900593471146
 40
0.0562075695002676
 40
0.0877831153426053
 40
0.1187307299897297
 40
0.1494968120126309
 40
0.1799684945693678
 40
0.2100393811319232
 40
0.2406606944474584
 40
0.2716955372993882
 40
0.3030314003252064
 40
0.3345489104783607
 40
0.3661244563206951
 40
0.3970720709678197
 40
0.427838152990721
 40
0.4583098355474579
 40
0.4883807221100111
 40
0.5190020354255463
 40
0.5500368782774748
 40
0.5813727413032917
 40
0.6128902514564447
 40
0.6444657972987823
 40
0.6754134119459068
 40
0.706179493968808
 40
0.7366511765255448
 40
0.7667220630880991
 40
0.7973433764036353
 40
0.8283782192555648
 40
0.8597140822813829
 40
0.8912315924345369
 40
0.9228071382768712
 40
0.9537547529239956
 40
0.9845208349468968
 40
0.9999999999999998
 40
0.9999999999999998
 40
0.9999999999999998
 40
0.9999999999999998
 10
2245.395045273418
 20
929.8712524041942
 30
0.0
 10
2245.309879111365
 20
929.6261272268864
 30
0.0
 10
2245.115996103417
 20
929.0680933134769
 30
0.0
 10
2244.646908612173
 20
928.2201703005858
 30
0.0
 10
2244.025166816656
 20
927.3385274224439
 30
0.0
 10
2243.275802295522
 20
926.4994185842073
 30
0.0
 10
2242.416933986585
 20
925.710532637826
 30
0.0
 10
2241.454862372675
 20
924.9747249140744
 30
0.0
 10
2240.391820844502
 20
924.2906127755919
 30
0.0
 10
2239.226461613309
 20
923.6575106845021
 30
0.0
 10
2237.955336978048
 20
923.0766681560195
 30
0.0
 10
2236.590223142062
 20
922.5572341528421
 30
0.0
 10
2235.145166813822
 20
922.1067651060494
 30
0.0
 10
2233.645368401587
 20
921.733645799317
 30
0.0
 10
2232.109626802882
 20
921.4406320113914
 30
0.0
 10
2230.556807691392
 20
921.2285143640192
 30
0.0
 10
2228.995648693922
 20
921.0960401932842
 30
0.0
 10
2227.425607612589
 20
921.041557738383
 30
0.0
 10
2225.845837865357
 20
921.0648703750422
 30
0.0
 10
2224.256311898042
 20
921.1680682028623
 30
0.0
 10
2222.676106529992
 20
921.3529199854686
 30
0.0
 10
2221.124234515573
 20
921.6190776734499
 30
0.0
 10
2219.628384039121
 20
921.9622791212319
 30
0.0
 10
2218.204977632189
 20
922.3768579769169
 30
0.0
 10
2216.868067095914
 20
922.8557336840786
 30
0.0
 10
2215.622262841399
 20
923.394461516883
 30
0.0
 10
2214.464949683446
 20
923.9921457323005
 30
0.0
 10
2213.396164936028
 20
924.6487793642469
 30
0.0
 10
2212.419390690218
 20
925.3656411177347
 30
0.0
 10
2211.549646369097
 20
926.1362910607415
 30
0.0
 10
2210.800438030034
 20
926.9528148890623
 30
0.0
 10
2210.183246275767
 20
927.8008012017243
 30
0.0
 10
2209.711608263583
 20
928.6703022555341
 30
0.0
 10
2209.411360886851
 20
929.4052976010457
 30
0.0
 10
2209.31969140571
 20
929.8536916859948
 30
0.0
 10
2209.289007884297
 20
930.0037777270176
 30
0.0
1001
AcDbBlockRepETag
1070
     1
1071
       29
1005
35C
  0
SPLINE
  5
35D
330
308
100
AcDbEntity
  8
0
  6
Continuous
 62
     7
370
    15
100
AcDbSpline
210
0.0
220
0.0
230
1.0
 70
     8
 71
     3
 72
    19
 73
    15
 74
     0
 42
0.0000000001
 43
0.0000000001
 40
0.0
 40
0.0
 40
0.0
 40
0.0
 40
0.0328963711472946
 40
0.1235718338309767
 40
0.2151267964906919
 40
0.3072124831948286
 40
0.3994677345716168
 40
0.4898883399045657
 40
0.5797785557403881
 40
0.6688086155272287
 40
0.7566676572300515
 40
0.8368579862327404
 40
0.9180469910821351
 40
1.0
 40
1.0
 40
1.0
 40
1.0
 10
2245.702567741536
 20
930.1194391581628
 30
0.0
 10
2245.696150833716
 20
930.0055758429126
 30
0.0
 10
2245.672046379667
 20
929.5778600134513
 30
0.0
 10
2245.48598865374
 20
928.8384265710728
 30
0.0
 10
2245.142939694547
 20
927.9086033164835
 30
0.0
 10
2244.649216484411
 20
926.9950557164042
 30
0.0
 10
2244.024562472528
 20
926.1137946713422
 30
0.0
 10
2243.275958299639
 20
925.2745906534762
 30
0.0
 10
2242.416905882836
 20
924.4857110291398
 30
0.0
 10
2241.454821401703
 20
923.749970829648
 30
0.0
 10
2240.429027473983
 20
923.0894211849749
 30
0.0
 10
2239.349108558048
 20
922.4988676687065
 30
0.0
 10
2238.226273545724
 20
921.9668580280227
 30
0.0
 10
2237.418178534442
 20
921.6553683361066
 30
0.0
 10
2237.012238849521
 20
921.4988941274711
 30
0.0
1001
AcDbBlockRepETag
1070
     1
1071
       30
1005
35D
  0
SPLINE
  5
35E
330
308
100
AcDbEntity
  8
0
  6
Continuous
 62
     7
370
    15
100
AcDbSpline
210
0.0
220
0.0
230
1.0
 70
     8
 71
     3
 72
    31
 73
    27
 74
     0
 42
0.0000000001
 43
0.0000000001
 40
0.0
 40
0.0
 40
0.0
 40
0.0
 40
0.0076214755551492
 40
0.0512235235878879
 40
0.0960810921760817
 40
0.1409386608496831
 40
0.184725366219379
 40
0.2285120719847849
 40
0.2735693760873103
 40
0.3186272856679746
 40
0.3624716725940266
 40
0.4063160590694827
 40
0.4514156038617374
 40
0.49651514849481
 40
0.5406674429599505
 40
0.5848197376076624
 40
0.6302547528923322
 40
0.6756897687223688
 40
0.7198402875224538
 40
0.7639913622601253
 40
0.8094064615551502
 40
0.8548215604594178
 40
0.8907813866165914
 40
0.9267412127442684
 40
0.9633706063278102
 40
1.0
 40
1.0
 40
1.0
 40
1.0
 10
2210.002460071982
 20
927.8907735721567
 30
0.0
 10
2210.019297952076
 20
927.8421100447959
 30
0.0
 10
2210.132464430397
 20
927.5150451183792
 30
0.0
 10
2210.462081567193
 20
926.917133758879
 30
0.0
 10
2210.999074386483
 20
926.105930677191
 30
0.0
 10
2211.666281718242
 20
925.3246387933439
 30
0.0
 10
2212.437329541907
 20
924.5841701428318
 30
0.0
 10
2213.314862516593
 20
923.8819727681155
 30
0.0
 10
2214.302737389487
 20
923.2186384387505
 30
0.0
 10
2215.386064485082
 20
922.6057324031126
 30
0.0
 10
2216.545131581636
 20
922.0528812645557
 30
0.0
 10
2217.780299998826
 20
921.5568062595895
 30
0.0
 10
2219.096866101615
 20
921.1184312704148
 30
0.0
 10
2220.477097492848
 20
920.7449655958072
 30
0.0
 10
2221.897961028149
 20
920.4422440285666
 30
0.0
 10
2223.362063238782
 20
920.2076931475049
 30
0.0
 10
2224.870891659661
 20
920.0439082980617
 30
0.0
 10
2226.399483897595
 20
919.9546035591518
 30
0.0
 10
2227.922041454807
 20
919.94028972289
 30
0.0
 10
2229.442262170276
 20
919.9983106420596
 30
0.0
 10
2230.964127204217
 20
920.1312276876604
 30
0.0
 10
2232.371341115436
 20
920.3254211046703
 30
0.0
 10
2233.646554085026
 20
920.5616507533845
 30
0.0
 10
2234.79826316674
 20
920.8260512520466
 30
0.0
 10
2235.927064069266
 20
921.1339396221639
 30
0.0
 10
2236.65051392247
 20
921.3772426256012
 30
0.0
 10
2237.01223884951
 20
921.4988941274674
 30
0.0
1001
AcDbBlockRepETag
1070
     1
1071
       31
1005
35E
  0
LWPOLYLINE
  5
35F
330
308
100
AcDbEntity
  8
0
  6
Continuous
 62
     7
370
    15
100
AcDbPolyline
 90
       22
 70
   128
 43
0.0
 10
2245.733840836617
 20
930.1269260442584
 10
2245.730408833702
 20
930.0755131615998
 10
2245.671779087257
 20
929.5590150619648
 10
2245.56942219459
 20
929.0447930282493
 10
2245.423583582541
 20
928.5340800393392
 10
2245.234612936489
 20
928.0281006602875
 10
2245.002963361909
 20
927.5280681061065
 10
2244.72919029792
 20
927.0351813327742
 10
2244.413950185486
 20
926.5506221624317
 10
2244.057998893428
 20
926.0755524496598
 10
2243.662189906038
 20
925.6111112956387
 10
2243.227472276625
 20
925.1584123168585
 10
2242.754888351927
 20
924.7185409749405
 10
2242.245571272809
 20
924.2925519739651
 10
2241.700742257275
 20
923.8814667315478
 10
2241.121707672279
 20
923.4862709297306
 10
2240.509855901381
 20
923.1079121515561
 10
2239.866654015738
 20
922.7472976089954
 10
2239.193644256429
 20
922.4052919676747
 10
2238.492440336539
 20
922.0827152736186
 10
2237.764723571862
 20
921.78034098698
 10
2237.012238849521
 20
921.4988941274711
1001
AcDbBlockRepETag
1070
     1
1071
       32
1005
35F
  0
LINE
  5
362
330
308
100
AcDbEntity
  8
0
  6
Continuous
 62
     7
370
    15
100
AcDbLine
 10
2223.61670570155
 20
943.5716440991452
 30
0.0
 11
2223.61670570155
 21
942.3574144566261
 31
0.0
1001
AcDbBlockRepETag
1070
     1
1071
       33
1005
362
  0
ARC
  5
363
330
308
100
AcDbEntity
  8
0
  6
Continuous
 62
     7
370
    15
100
AcDbCircle
 10
2166.720247514262
 20
833.2746709289565
 30
0.0
 40
123.0294756949778
100
AcDbArc
 50
57.71872630996115
 51
62.45390925833666
1001
AcDbBlockRepETag
1070
     1
1071
       34
1005
363
  0
SPLINE
  5
364
330
308
100
AcDbEntity
  8
0
  6
Continuous
 62
     7
370
    15
100
AcDbSpline
210
0.0
220
0.0
230
1.0
 70
     8
 71
     3
 72
    11
 73
     7
 74
     0
 42
0.0000000001
 43
0.0000000001
 40
0.0
 40
0.0
 40
0.0
 40
0.0
 40
0.3176032269001836
 40
0.6352124990870949
 40
0.9526464878964935
 40
1.0
 40
1.0
 40
1.0
 40
1.0
 10
2223.61670570155
 20
942.3574144566261
 30
0.0
 10
2223.524720306302
 20
942.3964418107136
 30
0.0
 10
2223.340747764949
 20
942.4744972617384
 30
0.0
 10
2222.993088588977
 20
942.5116864601136
 30
0.0
 10
2222.72862545346
 20
942.5087827930504
 30
0.0
 10
2222.604628637852
 20
942.4751734201626
 30
0.0
 10
2222.588532459409
 20
942.4708105463199
 30
0.0
1001
AcDbBlockRepETag
1070
     1
1071
       35
1005
364
  0
LWPOLYLINE
  5
365
330
308
100
AcDbEntity
  8
0
  6
Continuous
 62
     8
370
    15
100
AcDbPolyline
 90
       54
 70
   128
 43
0.0
 10
2243.132852862299
 20
929.2369024753648
 10
2242.41798337453
 20
928.8422091246971
 10
2241.673366723601
 20
928.4662914215092
 10
2240.900481276947
 20
928.1098957156034
 10
2240.100861527079
 20
927.7737295976649
 10
2239.276095044997
 20
927.4584604944035
 10
2238.427819328205
 20
927.164714343441
 10
2237.55771854962
 20
926.89307435057
 10
2236.667520213796
 20
926.6440798318518
 10
2235.758991727129
 20
926.4182251428556
 10
2234.833936888832
 20
926.21595869716
 10
2233.894192309659
 20
926.0376820760704
 10
2232.941623765485
 20
925.883749231316
 10
2231.978122492981
 20
925.7544657823112
 10
2231.005601434736
 20
925.6500884093771
 10
2230.025991441292
 20
925.5708243441258
 10
2229.041237437614
 20
925.5168309580222
 10
2228.053294561624
 20
925.4882154499361
 10
2227.064124282451
 20
925.4850346333103
 10
2226.075690506124
 20
925.5072948233618
 10
2225.089955676413
 20
925.5549518245436
 10
2224.108876878576
 20
925.6279110182914
 10
2223.134401953756
 20
925.7260275508791
 10
2222.168465631713
 20
925.8491066210137
 10
2221.212985689602
 20
925.9969038665941
 10
2220.269859144407
 20
926.1691258498697
 10
2219.340958486583
 20
926.3654306400347
 10
2218.428127962402
 20
926.5854284920989
 10
2217.533179912374
 20
926.8286826206908
 10
2216.657891173013
 20
927.0947100672552
 10
2215.803999549089
 20
927.3829826589212
 10
2214.973200363384
 20
927.6929280571421
 10
2214.167143090776
 20
928.0239308940195
 10
2213.38742808337
 20
928.37533399406
 10
2212.635603393136
 20
928.7464396789358
 10
2211.913161698408
 20
929.1365111526607
 10
2211.221537340296
 20
929.5447739644302
 10
2210.562103474945
 20
929.9704175462224
 10
2209.936169347253
 20
930.4125968221052
 10
2209.344977691491
 20
930.8704338860561
 10
2208.78970226397
 20
931.3430197449642
 10
2208.271445512652
 20
931.8294161233511
 10
2207.791236388344
 20
932.3286573262308
 10
2207.350028301812
 20
932.8397521564067
 10
2206.948697230873
 20
933.3616858824026
 10
2206.588039981218
 20
933.8934222531184
 10
2206.268772604432
 20
934.4339055552094
 10
2205.99152897634
 20
934.9820627091093
 10
2205.756859538501
 20
935.5368053995286
 10
2205.565230205364
 20
936.0970322362048
 10
2205.417021439231
 20
936.661630940611
 10
2205.312527494887
 20
937.2294805542813
 10
2205.251955835388
 20
937.7994536643702
 10
2205.235134575633
 20
938.2712257636267
1001
AcDbBlockRepETag
1070
     1
1071
       36
1005
365
  0
LWPOLYLINE
  5
366
330
308
100
AcDbEntity
  8
0
  6
Continuous
 62
     8
370
    15
100
AcDbPolyline
 90
       19
 70
   128
 43
0.0
 10
2249.635061234517
 20
938.281369086674
 10
2249.626472849266
 20
937.9421461860223
 10
2249.576903964484
 20
937.37181890347
 10
2249.483374542372
 20
936.8033325177197
 10
2249.346070276939
 20
936.2378157058685
 10
2249.165263773096
 20
935.6763912491997
 10
2248.941314005418
 20
935.1201738040041
 10
2248.67466560544
 20
934.5702676885332
 10
2248.365847978878
 20
934.0277646904777
 10
2248.015474254544
 20
933.4937418993233
 10
2247.624240067036
 20
932.969259567891
 10
2247.192922175618
 20
932.4553590073008
 10
2246.72237692204
 20
931.9530605195474
 10
2246.213538530346
 20
931.4633613717829
 10
2245.667417252062
 20
930.9872338163367
 10
2245.085097360436
 20
930.5256231603975
 10
2244.46773499771
 20
930.0794458891941
 10
2243.81655587971
 20
929.6495878463984
 10
2243.132852862299
 20
929.2369024753648
1001
AcDbBlockRepETag
1070
     1
1071
       37
1005
366
  0
LINE
  5
367
330
308
100
AcDbEntity
  8
0
  6
Continuous
 62
     8
370
    15
100
AcDbLine
 10
2232.738383178856
 20
937.4028690559555
 30
0.0
 11
2232.738383178856
 21
938.3058117778887
 31
0.0
1001
AcDbBlockRepETag
1070
     1
1071
       38
1005
367
  0
LINE
  5
368
330
308
100
AcDbEntity
  8
0
  6
Continuous
 62
     8
370
    15
100
AcDbLine
 10
2222.131781461058
 20
943.5259298946258
 30
0.0
 11
2222.131781461058
 21
942.7144155817314
 31
0.0
1001
AcDbBlockRepETag
1070
     1
1071
       39
1005
368
  0
ENDBLK
  5
30A
330
308
100
AcDbEntity
  8
0
100
AcDbBlockEnd
  0
ENDSEC
  0
SECTION
  2
ENTITIES
  0
INSERT
  5
2FA
330
1F
100
AcDbEntity
  8
0
100
AcDbBlockReference
  2
1
 10
0.0
 20
0.0
 30
0.0
  0
INSERT
  5
307
330
1F
100
AcDbEntity
  8
0
100
AcDbBlockReference
  2
2
 10
0.0
 20
0.0
 30
0.0
  0
INSERT
  5
335
330
1F
100
AcDbEntity
  8
0
100
AcDbBlockReference
  2
3
 10
0.0
 20
0.0
 30
0.0
  0
ENDSEC
  0
SECTION
  2
OBJECTS
  0
DICTIONARY
  5
C
330
0
100
AcDbDictionary
281
     1
  3
ACAD_COLOR
350
6B
  3
ACAD_GROUP
350
D
  3
ACAD_LAYOUT
350
1A
  3
ACAD_MATERIAL
350
6A
  3
ACAD_MLEADERSTYLE
350
12D
  3
ACAD_MLINESTYLE
350
17
  3
ACAD_PLOTSETTINGS
350
19
  3
ACAD_PLOTSTYLENAME
350
E
  3
ACAD_SCALELIST
350
10C
  3
ACAD_TABLESTYLE
350
7E
  3
ACAD_VISUALSTYLE
350
EF
  3
ACDB_RECOMPOSE_DATA
350
15D
  3
AcDbVariableDictionary
350
5E
  3
DWGPROPS
350
3D8
  0
DICTIONARY
  5
13C
330
10
100
AcDbDictionary
280
     1
281
     1
  3
ADSK_XREC_LAYER_RECONCILED
360
336
  0
DICTIONARY
  5
3C0
330
2B0
100
AcDbDictionary
280
     1
281
     1
  0
DICTIONARY
  5
36A
330
308
100
AcDbDictionary
280
     1
281
     1
  0
DICTIONARY
  5
6B
102
{ACAD_REACTORS
330
C
102
}
330
C
100
AcDbDictionary
281
     1
  0
DICTIONARY
  5
D
102
{ACAD_REACTORS
330
C
102
}
330
C
100
AcDbDictionary
281
     1
  0
DICTIONARY
  5
1A
102
{ACAD_REACTORS
330
C
102
}
330
C
100
AcDbDictionary
281
     1
  3
Layout1
350
D3
  3
Layout2
350
D7
  3
Model
350
22
  0
DICTIONARY
  5
6A
102
{ACAD_REACTORS
330
C
102
}
330
C
100
AcDbDictionary
281
     1
  3
ByBlock
350
ED
  3
ByLayer
350
EC
  3
Global
350
EE
  0
DICTIONARY
  5
12D
102
{ACAD_REACTORS
330
C
102
}
330
C
100
AcDbDictionary
281
     1
  3
Annotative
350
13B
  3
Standard
350
12E
  0
DICTIONARY
  5
17
102
{ACAD_REACTORS
330
C
102
}
330
C
100
AcDbDictionary
281
     1
  3
Standard
350
18
  0
DICTIONARY
  5
19
102
{ACAD_REACTORS
330
C
102
}
330
C
100
AcDbDictionary
281
     1
  0
ACDBDICTIONARYWDFLT
  5
E
102
{ACAD_REACTORS
330
C
102
}
330
C
100
AcDbDictionary
281
     1
  3
Normal
350
F
100
AcDbDictionaryWithDefault
340
F
  0
DICTIONARY
  5
10C
102
{ACAD_REACTORS
330
C
102
}
330
C
100
AcDbDictionary
281
     1
  3
A0
350
10D
  3
A1
350
188
  3
A2
350
189
  3
A3
350
18A
  3
A4
350
18B
  3
A5
350
18C
  3
A6
350
18D
  3
A7
350
18E
  3
A8
350
18F
  3
A9
350
190
  3
B0
350
191
  3
B1
350
192
  3
B2
350
193
  3
B3
350
194
  3
B4
350
195
  3
B5
350
196
  3
B6
350
197
  3
B7
350
198
  3
B8
350
199
  3
B9
350
19A
  3
C0
350
19B
  3
C1
350
19C
  3
C2
350
19D
  3
C3
350
19E
  3
C4
350
19F
  3
C5
350
1A0
  3
C6
350
1A1
  3
C7
350
1A2
  3
C8
350
1A3
  3
C9
350
1A4
  3
D0
350
1A5
  3
D1
350
1A6
  3
D2
350
1A7
  0
DICTIONARY
  5
7E
102
{ACAD_REACTORS
330
C
102
}
330
C
100
AcDbDictionary
281
     1
  3
Standard
350
7F
  0
DICTIONARY
  5
EF
102
{ACAD_REACTORS
330
C
102
}
330
C
100
AcDbDictionary
281
     1
  3
2dWireframe
350
F5
  3
3D Hidden
350
F7
  3
3dWireframe
350
F6
  3
Basic
350
F4
  3
Brighten
350
FB
  3
ColorChange
350
FF
  3
Conceptual
350
F8
  3
Dim
350
FA
  3
Facepattern
350
FE
  3
Flat
350
F0
  3
FlatWithEdges
350
F1
  3
Gouraud
350
F2
  3
GouraudWithEdges
350
F3
  3
Linepattern
350
FD
  3
Realistic
350
F9
  3
Thicken
350
FC
  0
XRECORD
  5
15D
102
{ACAD_REACTORS
330
C
102
}
330
C
100
AcDbXrecord
280
     1
 90
        1
330
7F
  0
DICTIONARY
  5
5E
102
{ACAD_REACTORS
330
C
102
}
330
C
100
AcDbDictionary
281
     1
  3
CANNOSCALE
350
146
  3
CMLEADERSTYLE
350
145
  3
CTABLESTYLE
350
84
  3
DIMASSOC
350
5F
  3
HIDETEXT
350
63
  3
INDEXCTL
350
3D4
  3
LIGHTINGUNITS
350
3D2
  3
MSLTSCALE
350
3D1
  3
PSOLHEIGHT
350
3D6
  3
PSOLWIDTH
350
3D5
  3
SORTENTS
350
3D3
  0
XRECORD
  5
3D8
102
{ACAD_REACTORS
330
C
102
}
330
C
100
AcDbXrecord
280
     1
  1
DWGPROPS COOKIE
  2

  3

  4

  6

  7

  8
orhan kara
  9

300
=
301
=
302
=
303
=
304
=
305
=
306
=
307
=
308
=
309
=
 40
0.0031021180555556
 41
2458559.456592211
 42
2459067.648242327
  1

 90
        0
  0
XRECORD
  5
336
102
{ACAD_REACTORS
330
13C
102
}
330
13C
100
AcDbXrecord
280
     1
290
     1
  0
LAYOUT
  5
D3
102
{ACAD_XDICTIONARY
360
3DC
102
}
102
{ACAD_REACTORS
330
1A
102
}
330
1A
100
AcDbPlotSettings
  1

  2
C:\Documents and Settings\basas\Application Data\Autodesk\AutoCAD 2005\R16.1\enu\plotters\Default Windows System Printer.pc3
  4

  6

 40
0.0
 41
0.0
 42
0.0
 43
0.0
 44
0.0
 45
0.0
 46
0.0
 47
0.0
 48
0.0
 49
0.0
140
0.0
141
0.0
142
1.0
143
1.0
 70
   688
 72
     0
 73
     0
 74
     5
  7

 75
    16
147
1.0
148
0.0
149
0.0
100
AcDbLayout
  1
Layout1
 70
     1
 71
     1
 10
0.0
 20
0.0
 11
12.0
 21
9.0
 12
0.0
 22
0.0
 32
0.0
 14
0.0
 24
0.0
 34
0.0
 15
0.0
 25
0.0
 35
0.0
146
0.0
 13
0.0
 23
0.0
 33
0.0
 16
1.0
 26
0.0
 36
0.0
 17
0.0
 27
1.0
 37
0.0
 76
     0
330
D2
  0
LAYOUT
  5
D7
102
{ACAD_XDICTIONARY
360
3DE
102
}
102
{ACAD_REACTORS
330
1A
102
}
330
1A
100
AcDbPlotSettings
  1

  2
C:\Documents and Settings\basas\Application Data\Autodesk\AutoCAD 2005\R16.1\enu\plotters\Default Windows System Printer.pc3
  4

  6

 40
0.0
 41
0.0
 42
0.0
 43
0.0
 44
0.0
 45
0.0
 46
0.0
 47
0.0
 48
0.0
 49
0.0
140
0.0
141
0.0
142
1.0
143
1.0
 70
   688
 72
     0
 73
     0
 74
     5
  7

 75
    16
147
1.0
148
0.0
149
0.0
100
AcDbLayout
  1
Layout2
 70
     1
 71
     2
 10
0.0
 20
0.0
 11
12.0
 21
9.0
 12
0.0
 22
0.0
 32
0.0
 14
0.0
 24
0.0
 34
0.0
 15
0.0
 25
0.0
 35
0.0
146
0.0
 13
0.0
 23
0.0
 33
0.0
 16
1.0
 26
0.0
 36
0.0
 17
0.0
 27
1.0
 37
0.0
 76
     0
330
D6
  0
LAYOUT
  5
22
102
{ACAD_XDICTIONARY
360
3D9
102
}
102
{ACAD_REACTORS
330
1A
102
}
330
1A
100
AcDbPlotSettings
  1

  2
none_device
  4
ISO_A4_(210.00_x_297.00_MM)
  6

 40
7.5
 41
20.0
 42
7.5
 43
20.0
 44
210.0
 45
297.0
 46
11.54999923706054
 47
-13.65000009536743
 48
0.0
 49
0.0
140
0.0
141
0.0
142
1.0
143
8.704084754739808
 70
 11952
 72
     1
 73
     0
 74
     0
  7

 75
     0
147
0.1148885871608098
148
0.0
149
0.0
100
AcDbLayout
  1
Model
 70
     1
 71
     0
 10
0.0
 20
0.0
 11
12.0
 21
9.0
 12
0.0
 22
0.0
 32
0.0
 14
0.0
 24
0.0
 34
0.0
 15
0.0
 25
0.0
 35
0.0
146
0.0
 13
0.0
 23
0.0
 33
0.0
 16
1.0
 26
0.0
 36
0.0
 17
0.0
 27
1.0
 37
0.0
 76
     0
330
1F
331
EA
1001
ACAD_PSEXT
1000
None
1000
None
1000
Not applicable
1000
The layout will not be plotted unless a new plotter configuration name is selected.
1070
     0
  0
MATERIAL
  5
ED
102
{ACAD_XDICTIONARY
360
3E2
102
}
102
{ACAD_REACTORS
330
6A
102
}
330
6A
100
AcDbMaterial
  1
ByBlock
  0
MATERIAL
  5
EC
102
{ACAD_XDICTIONARY
360
3E0
102
}
102
{ACAD_REACTORS
330
6A
102
}
330
6A
100
AcDbMaterial
  1
ByLayer
  0
MATERIAL
  5
EE
102
{ACAD_XDICTIONARY
360
173
102
}
102
{ACAD_REACTORS
330
6A
102
}
330
6A
100
AcDbMaterial
  1
Global
 43
0.0007999999797903
 43
0.0
 43
0.0
 43
0.0
 43
0.0
 43
0.0007999999797903
 43
0.0
 43
0.0
 43
0.0
 43
0.0
 43
1.0
 43
0.0
 43
0.0
 43
0.0
 43
0.0
 43
1.0
 49
0.0007999999797903
 49
0.0
 49
0.0
 49
0.0
 49
0.0
 49
0.0007999999797903
 49
0.0
 49
0.0
 49
0.0
 49
0.0
 49
1.0
 49
0.0
 49
0.0
 49
0.0
 49
0.0
 49
1.0
142
0.0007999999797903
142
0.0
142
0.0
142
0.0
142
0.0
142
0.0007999999797903
142
0.0
142
0.0
142
0.0
142
0.0
142
1.0
142
0.0
142
0.0
142
0.0
142
0.0
142
1.0
144
0.0007999999797903
144
0.0
144
0.0
144
0.0
144
0.0
144
0.0007999999797903
144
0.0
144
0.0
144
0.0
144
0.0
144
1.0
144
0.0
144
0.0
144
0.0
144
0.0
144
1.0
1001
ACAD
1070
    -1
1070
     3
1070
     0
1000

1071
        0
1070
     0
  0
MLEADERSTYLE
  5
13B
102
{ACAD_REACTORS
330
12D
102
}
330
12D
100
AcDbMLeaderStyle
170
     2
171
     1
172
     0
 90
        2
 40
0.0
 41
0.0
173
     1
 91
-1056964608
340
14
 92
       -2
290
     1
 42
2.0
291
     1
 43
8.0
  3
Standard
 44
4.0
300

342
11
174
     1
178
     1
175
     1
176
     0
 93
-1056964608
 45
4.0
292
     0
297
     0
 46
4.0
 94
-1056964608
 47
1.0
 49
1.0
140
1.0
293
     1
141
0.0
294
     1
177
     0
142
1.0
295
     0
296
     1
143
3.75
1001
ACAD_MLEADERVER
1070
     2
  0
MLEADERSTYLE
  5
12E
102
{ACAD_REACTORS
330
12D
102
}
330
12D
100
AcDbMLeaderStyle
170
     2
171
     1
172
     0
 90
        2
 40
0.0
 41
0.0
173
     1
 91
-1056964608
340
14
 92
       -2
290
     1
 42
2.0
291
     1
 43
8.0
  3
Standard
 44
4.0
300

342
11
174
     1
178
     1
175
     1
176
     0
 93
-1056964608
 45
4.0
292
     0
297
     0
 46
4.0
 94
-1056964608
 47
1.0
 49
1.0
140
1.0
293
     1
141
0.0
294
     1
177
     0
142
1.0
295
     0
296
     0
143
3.75
1001
ACAD_MLEADERVER
1070
     2
  0
MLINESTYLE
  5
18
102
{ACAD_REACTORS
330
17
102
}
330
17
100
AcDbMlineStyle
  2
STANDARD
 70
     0
  3

 62
   256
 51
90.0
 52
90.0
 71
     2
 49
0.5
 62
   256
  6
BYLAYER
 49
-0.5
 62
   256
  6
BYLAYER
  0
ACDBPLACEHOLDER
  5
F
102
{ACAD_REACTORS
330
E
102
}
330
E
  0
SCALE
  5
10D
102
{ACAD_REACTORS
330
10C
102
}
330
10C
100
AcDbScale
 70
     0
300
1:1
140
1.0
141
1.0
290
     1
  0
SCALE
  5
188
102
{ACAD_REACTORS
330
10C
102
}
330
10C
100
AcDbScale
 70
     0
300
1:2
140
1.0
141
2.0
290
     0
  0
SCALE
  5
189
102
{ACAD_REACTORS
330
10C
102
}
330
10C
100
AcDbScale
 70
     0
300
1:4
140
1.0
141
4.0
290
     0
  0
SCALE
  5
18A
102
{ACAD_REACTORS
330
10C
102
}
330
10C
100
AcDbScale
 70
     0
300
1:5
140
1.0
141
5.0
290
     0
  0
SCALE
  5
18B
102
{ACAD_REACTORS
330
10C
102
}
330
10C
100
AcDbScale
 70
     0
300
1:8
140
1.0
141
8.0
290
     0
  0
SCALE
  5
18C
102
{ACAD_REACTORS
330
10C
102
}
330
10C
100
AcDbScale
 70
     0
300
1:10
140
1.0
141
10.0
290
     0
  0
SCALE
  5
18D
102
{ACAD_REACTORS
330
10C
102
}
330
10C
100
AcDbScale
 70
     0
300
1:16
140
1.0
141
16.0
290
     0
  0
SCALE
  5
18E
102
{ACAD_REACTORS
330
10C
102
}
330
10C
100
AcDbScale
 70
     0
300
1:20
140
1.0
141
20.0
290
     0
  0
SCALE
  5
18F
102
{ACAD_REACTORS
330
10C
102
}
330
10C
100
AcDbScale
 70
     0
300
1:30
140
1.0
141
30.0
290
     0
  0
SCALE
  5
190
102
{ACAD_REACTORS
330
10C
102
}
330
10C
100
AcDbScale
 70
     0
300
1:40
140
1.0
141
40.0
290
     0
  0
SCALE
  5
191
102
{ACAD_REACTORS
330
10C
102
}
330
10C
100
AcDbScale
 70
     0
300
1:50
140
1.0
141
50.0
290
     0
  0
SCALE
  5
192
102
{ACAD_REACTORS
330
10C
102
}
330
10C
100
AcDbScale
 70
     0
300
1:100
140
1.0
141
100.0
290
     0
  0
SCALE
  5
193
102
{ACAD_REACTORS
330
10C
102
}
330
10C
100
AcDbScale
 70
     0
300
2:1
140
2.0
141
1.0
290
     0
  0
SCALE
  5
194
102
{ACAD_REACTORS
330
10C
102
}
330
10C
100
AcDbScale
 70
     0
300
4:1
140
4.0
141
1.0
290
     0
  0
SCALE
  5
195
102
{ACAD_REACTORS
330
10C
102
}
330
10C
100
AcDbScale
 70
     0
300
8:1
140
8.0
141
1.0
290
     0
  0
SCALE
  5
196
102
{ACAD_REACTORS
330
10C
102
}
330
10C
100
AcDbScale
 70
     0
300
10:1
140
10.0
141
1.0
290
     0
  0
SCALE
  5
197
102
{ACAD_REACTORS
330
10C
102
}
330
10C
100
AcDbScale
 70
     0
300
100:1
140
100.0
141
1.0
290
     0
  0
SCALE
  5
198
102
{ACAD_REACTORS
330
10C
102
}
330
10C
100
AcDbScale
 70
     0
300
1/128" = 1'-0"
140
0.0078125
141
12.0
290
     0
  0
SCALE
  5
199
102
{ACAD_REACTORS
330
10C
102
}
330
10C
100
AcDbScale
 70
     0
300
1/64" = 1'-0"
140
0.015625
141
12.0
290
     0
  0
SCALE
  5
19A
102
{ACAD_REACTORS
330
10C
102
}
330
10C
100
AcDbScale
 70
     0
300
1/32" = 1'-0"
140
0.03125
141
12.0
290
     0
  0
SCALE
  5
19B
102
{ACAD_REACTORS
330
10C
102
}
330
10C
100
AcDbScale
 70
     0
300
1/16" = 1'-0"
140
0.0625
141
12.0
290
     0
  0
SCALE
  5
19C
102
{ACAD_REACTORS
330
10C
102
}
330
10C
100
AcDbScale
 70
     0
300
3/32" = 1'-0"
140
0.09375
141
12.0
290
     0
  0
SCALE
  5
19D
102
{ACAD_REACTORS
330
10C
102
}
330
10C
100
AcDbScale
 70
     0
300
1/8" = 1'-0"
140
0.125
141
12.0
290
     0
  0
SCALE
  5
19E
102
{ACAD_REACTORS
330
10C
102
}
330
10C
100
AcDbScale
 70
     0
300
3/16" = 1'-0"
140
0.1875
141
12.0
290
     0
  0
SCALE
  5
19F
102
{ACAD_REACTORS
330
10C
102
}
330
10C
100
AcDbScale
 70
     0
300
1/4" = 1'-0"
140
0.25
141
12.0
290
     0
  0
SCALE
  5
1A0
102
{ACAD_REACTORS
330
10C
102
}
330
10C
100
AcDbScale
 70
     0
300
3/8" = 1'-0"
140
0.375
141
12.0
290
     0
  0
SCALE
  5
1A1
102
{ACAD_REACTORS
330
10C
102
}
330
10C
100
AcDbScale
 70
     0
300
1/2" = 1'-0"
140
0.5
141
12.0
290
     0
  0
SCALE
  5
1A2
102
{ACAD_REACTORS
330
10C
102
}
330
10C
100
AcDbScale
 70
     0
300
3/4" = 1'-0"
140
0.75
141
12.0
290
     0
  0
SCALE
  5
1A3
102
{ACAD_REACTORS
330
10C
102
}
330
10C
100
AcDbScale
 70
     0
300
1" = 1'-0"
140
1.0
141
12.0
290
     0
  0
SCALE
  5
1A4
102
{ACAD_REACTORS
330
10C
102
}
330
10C
100
AcDbScale
 70
     0
300
1-1/2" = 1'-0"
140
1.5
141
12.0
290
     0
  0
SCALE
  5
1A5
102
{ACAD_REACTORS
330
10C
102
}
330
10C
100
AcDbScale
 70
     0
300
3" = 1'-0"
140
3.0
141
12.0
290
     0
  0
SCALE
  5
1A6
102
{ACAD_REACTORS
330
10C
102
}
330
10C
100
AcDbScale
 70
     0
300
6" = 1'-0"
140
6.0
141
12.0
290
     0
  0
SCALE
  5
1A7
102
{ACAD_REACTORS
330
10C
102
}
330
10C
100
AcDbScale
 70
     0
300
1'-0" = 1'-0"
140
12.0
141
12.0
290
     0
  0
TABLESTYLE
  5
7F
102
{ACAD_XDICTIONARY
360
162
102
}
102
{ACAD_REACTORS
330
7E
102
}
330
7E
100
AcDbTableStyle
  3
Standard
 70
     0
 71
     0
 40
1.5
 41
1.5
280
     0
281
     0
  7
Standard
140
4.5
170
     2
 62
     0
 63
     7
283
     0
274
    -2
284
     1
 64
     0
275
    -2
285
     1
 65
     0
276
    -2
286
     1
 66
     0
277
    -2
287
     1
 67
     0
278
    -2
288
     1
 68
     0
279
    -2
289
     1
 69
     0
  7
Standard
140
6.0
170
     5
 62
     0
 63
     7
283
     0
274
    -2
284
     1
 64
     0
275
    -2
285
     1
 65
     0
276
    -2
286
     1
 66
     0
277
    -2
287
     1
 67
     0
278
    -2
288
     1
 68
     0
279
    -2
289
     1
 69
     0
  7
Standard
140
4.5
170
     5
 62
     0
 63
     7
283
     0
274
    -2
284
     1
 64
     0
275
    -2
285
     1
 65
     0
276
    -2
286
     1
 66
     0
277
    -2
287
     1
 67
     0
278
    -2
288
     1
 68
     0
279
    -2
289
     1
 69
     0
  0
VISUALSTYLE
  5
F5
102
{ACAD_REACTORS
330
EF
102
}
330
EF
100
AcDbVisualStyle
  2
2dWireframe
 70
     4
 71
     0
 72
     2
 73
     1
 90
        0
 40
-0.6
 41
-30.0
 62
     5
 63
     7
 74
     1
 91
        4
 64
     7
 65
   257
 75
     1
175
     1
 42
1.0
 92
        0
 66
   257
 43
1.0
 76
     1
 77
     6
 78
     2
 67
     7
 79
     5
170
     0
171
     0
290
     0
174
     0
 93
        1
 44
0.0
173
     0
291
     0
 45
0.0
1001
ACAD
1000
AcDbSavedByObjectVersion
1070
     0
  0
VISUALSTYLE
  5
F7
102
{ACAD_REACTORS
330
EF
102
}
330
EF
100
AcDbVisualStyle
  2
3D Hidden
 70
     6
 71
     1
 72
     2
 73
     2
 90
        0
 40
-0.6
 41
-30.0
 62
     5
 63
     7
 74
     2
 91
        2
 64
     7
 65
   257
 75
     2
175
     1
 42
40.0
 92
        0
 66
   257
 43
1.0
 76
     1
 77
     6
 78
     2
 67
     7
 79
     3
170
     0
171
     0
290
     0
174
     0
 93
        1
 44
0.0
173
     0
291
     0
 45
0.0
1001
ACAD
1000
AcDbSavedByObjectVersion
1070
     0
  0
VISUALSTYLE
  5
F6
102
{ACAD_REACTORS
330
EF
102
}
330
EF
100
AcDbVisualStyle
  2
3dWireframe
 70
     5
 71
     0
 72
     2
 73
     1
 90
        0
 40
-0.6
 41
-30.0
 62
     5
 63
     7
 74
     1
 91
        4
 64
     7
 65
   257
 75
     1
175
     1
 42
1.0
 92
        0
 66
   257
 43
1.0
 76
     1
 77
     6
 78
     2
 67
     7
 79
     5
170
     0
171
     0
290
     0
174
     0
 93
        1
 44
0.0
173
     0
291
     0
 45
0.0
1001
ACAD
1000
AcDbSavedByObjectVersion
1070
     0
  0
VISUALSTYLE
  5
F4
102
{ACAD_REACTORS
330
EF
102
}
330
EF
100
AcDbVisualStyle
  2
Basic
 70
     7
 71
     1
 72
     0
 73
     1
 90
        0
 40
-0.6
 41
-30.0
 62
     5
 63
     7
 74
     0
 91
        4
 64
     7
 65
   257
 75
     1
175
     1
 42
1.0
 92
        8
 66
     7
 43
1.0
 76
     1
 77
     6
 78
     2
 67
     7
 79
     5
170
     0
171
     0
290
     0
174
     0
 93
        1
 44
0.0
173
     0
291
     1
 45
0.0
1001
ACAD
1000
AcDbSavedByObjectVersion
1070
     0
  0
VISUALSTYLE
  5
FB
102
{ACAD_REACTORS
330
EF
102
}
330
EF
100
AcDbVisualStyle
  2
Brighten
 70
    12
 71
     2
 72
     2
 73
     1
 90
        0
 40
-0.6
 41
-30.0
 62
     5
 63
     7
 74
     1
 91
        4
 64
     7
 65
   257
 75
     1
175
     1
 42
1.0
 92
        8
 66
     7
 43
1.0
 76
     1
 77
     6
 78
     2
 67
     7
 79
     5
170
     0
171
     0
290
     0
174
     0
 93
        1
 44
50.0
173
     0
291
     1
 45
0.0
1001
ACAD
1000
AcDbSavedByObjectVersion
1070
     0
  0
VISUALSTYLE
  5
FF
102
{ACAD_REACTORS
330
EF
102
}
330
EF
100
AcDbVisualStyle
  2
ColorChange
 70
    16
 71
     2
 72
     2
 73
     3
 90
        0
 40
-0.6
 41
-30.0
 62
     5
 63
     8
 74
     1
 91
        4
 64
     7
 65
   257
 75
     1
175
     1
 42
1.0
 92
        8
 66
     8
 43
1.0
 76
     1
 77
     6
 78
     2
 67
     7
 79
     5
170
     0
171
     0
290
     0
174
     0
 93
        1
 44
0.0
173
     0
291
     1
 45
0.0
1001
ACAD
1000
AcDbSavedByObjectVersion
1070
     0
  0
VISUALSTYLE
  5
F8
102
{ACAD_REACTORS
330
EF
102
}
330
EF
100
AcDbVisualStyle
  2
Conceptual
 70
     9
 71
     3
 72
     2
 73
     1
 90
        0
 40
-0.6
 41
-30.0
 62
     5
 63
     7
 74
     2
 91
        2
 64
     7
 65
   257
 75
     1
175
     1
 42
40.0
 92
        8
 66
     7
 43
1.0
 76
     1
 77
     6
 78
     2
 67
     7
 79
     3
170
     0
171
     0
290
     0
174
     0
 93
        1
 44
0.0
173
     0
291
     0
 45
0.0
1001
ACAD
1000
AcDbSavedByObjectVersion
1070
     0
  0
VISUALSTYLE
  5
FA
102
{ACAD_REACTORS
330
EF
102
}
330
EF
100
AcDbVisualStyle
  2
Dim
 70
    11
 71
     2
 72
     2
 73
     1
 90
        0
 40
-0.6
 41
-30.0
 62
     5
 63
     7
 74
     1
 91
        4
 64
     7
 65
   257
 75
     1
175
     1
 42
1.0
 92
        8
 66
     7
 43
1.0
 76
     1
 77
     6
 78
     2
 67
     7
 79
     5
170
     0
171
     0
290
     0
174
     0
 93
        1
 44
-50.0
173
     0
291
     1
 45
0.0
1001
ACAD
1000
AcDbSavedByObjectVersion
1070
     0
  0
VISUALSTYLE
  5
FE
102
{ACAD_REACTORS
330
EF
102
}
330
EF
100
AcDbVisualStyle
  2
Facepattern
 70
    15
 71
     2
 72
     2
 73
     1
 90
        0
 40
-0.6
 41
-30.0
 62
     5
 63
     7
 74
     1
 91
        4
 64
     7
 65
   257
 75
     1
175
     1
 42
1.0
 92
        8
 66
     7
 43
1.0
 76
     1
 77
     6
 78
     2
 67
     7
 79
     5
170
     0
171
     0
290
     0
174
     0
 93
        1
 44
0.0
173
     0
291
     1
 45
0.0
1001
ACAD
1000
AcDbSavedByObjectVersion
1070
     0
  0
VISUALSTYLE
  5
F0
102
{ACAD_REACTORS
330
EF
102
}
330
EF
100
AcDbVisualStyle
  2
Flat
 70
     0
 71
     2
 72
     1
 73
     1
 90
        2
 40
-0.6
 41
30.0
 62
     5
 63
     7
 74
     0
 91
        4
 64
     7
 65
   257
 75
     1
175
     1
 42
1.0
 92
        8
 66
     7
 43
1.0
 76
     1
 77
     6
 78
     2
 67
     7
 79
     5
170
     0
171
     0
290
     0
174
     0
 93
        1
 44
0.0
173
     0
291
     1
 45
0.0
1001
ACAD
1000
AcDbSavedByObjectVersion
1070
     0
  0
VISUALSTYLE
  5
F1
102
{ACAD_REACTORS
330
EF
102
}
330
EF
100
AcDbVisualStyle
  2
FlatWithEdges
 70
     1
 71
     2
 72
     1
 73
     1
 90
        2
 40
-0.6
 41
30.0
 62
     5
 63
     7
 74
     1
 91
        4
 64
     7
 65
   257
 75
     1
175
     1
 42
1.0
 92
        0
 66
   257
 43
1.0
 76
     1
 77
     6
 78
     2
 67
     7
 79
     5
170
     0
171
     0
290
     0
174
     0
 93
        1
 44
0.0
173
     0
291
     1
 45
0.0
1001
ACAD
1000
AcDbSavedByObjectVersion
1070
     0
  0
VISUALSTYLE
  5
F2
102
{ACAD_REACTORS
330
EF
102
}
330
EF
100
AcDbVisualStyle
  2
Gouraud
 70
     2
 71
     2
 72
     2
 73
     1
 90
        2
 40
-0.6
 41
30.0
 62
     5
 63
     7
 74
     0
 91
        4
 64
     7
 65
   257
 75
     1
175
     1
 42
1.0
 92
        0
 66
     7
 43
1.0
 76
     1
 77
     6
 78
     2
 67
     7
 79
     5
170
     0
171
     0
290
     0
174
     0
 93
        1
 44
0.0
173
     0
291
     1
 45
0.0
1001
ACAD
1000
AcDbSavedByObjectVersion
1070
     0
  0
VISUALSTYLE
  5
F3
102
{ACAD_REACTORS
330
EF
102
}
330
EF
100
AcDbVisualStyle
  2
GouraudWithEdges
 70
     3
 71
     2
 72
     2
 73
     1
 90
        2
 40
-0.6
 41
30.0
 62
     5
 63
     7
 74
     1
 91
        4
 64
     7
 65
   257
 75
     1
175
     1
 42
1.0
 92
        0
 66
   257
 43
1.0
 76
     1
 77
     6
 78
     2
 67
     7
 79
     5
170
     0
171
     0
290
     0
174
     0
 93
        1
 44
0.0
173
     0
291
     1
 45
0.0
1001
ACAD
1000
AcDbSavedByObjectVersion
1070
     0
  0
VISUALSTYLE
  5
FD
102
{ACAD_REACTORS
330
EF
102
}
330
EF
100
AcDbVisualStyle
  2
Linepattern
 70
    14
 71
     2
 72
     2
 73
     1
 90
        0
 40
-0.6
 41
-30.0
 62
     5
 63
     7
 74
     1
 91
        4
 64
     7
 65
   257
 75
     7
175
     7
 42
1.0
 92
        8
 66
     7
 43
1.0
 76
     1
 77
     6
 78
     2
 67
     7
 79
     5
170
     0
171
     0
290
     0
174
     0
 93
        1
 44
0.0
173
     0
291
     1
 45
0.0
1001
ACAD
1000
AcDbSavedByObjectVersion
1070
     0
  0
VISUALSTYLE
  5
F9
102
{ACAD_REACTORS
330
EF
102
}
330
EF
100
AcDbVisualStyle
  2
Realistic
 70
     8
 71
     2
 72
     2
 73
     1
 90
        0
 40
-0.6
 41
-30.0
 62
     5
 63
     7
 74
     1
 91
        0
 64
     7
 65
   257
 75
     1
175
     1
 42
1.0
 92
        8
 66
     8
 43
1.0
 76
     1
 77
     6
 78
     2
 67
     7
 79
     5
170
     0
171
     0
290
     0
174
     0
 93
       13
 44
0.0
173
     0
291
     0
 45
0.0
1001
ACAD
1000
AcDbSavedByObjectVersion
1070
     0
  0
VISUALSTYLE
  5
FC
102
{ACAD_REACTORS
330
EF
102
}
330
EF
100
AcDbVisualStyle
  2
Thicken
 70
    13
 71
     2
 72
     2
 73
     1
 90
        0
 40
-0.6
 41
-30.0
 62
     5
 63
     7
 74
     1
 91
        4
 64
     7
 65
   257
 75
     1
175
     1
 42
1.0
 92
       12
 66
     7
 43
1.0
 76
     1
 77
     6
 78
     2
 67
     7
 79
     5
170
     0
171
     0
290
     0
174
     0
 93
        1
 44
0.0
173
     0
291
     1
 45
0.0
1001
ACAD
1000
AcDbSavedByObjectVersion
1070
     0
  0
DICTIONARYVAR
  5
146
102
{ACAD_REACTORS
330
5E
102
}
330
5E
100
DictionaryVariables
280
     0
  1
1:1
  0
DICTIONARYVAR
  5
145
102
{ACAD_REACTORS
330
5E
102
}
330
5E
100
DictionaryVariables
280
     0
  1
STANDARD
  0
DICTIONARYVAR
  5
84
102
{ACAD_REACTORS
330
5E
102
}
330
5E
100
DictionaryVariables
280
     0
  1
STANDARD
  0
DICTIONARYVAR
  5
5F
102
{ACAD_REACTORS
330
5E
102
}
330
5E
100
DictionaryVariables
280
     0
  1
2
  0
DICTIONARYVAR
  5
63
102
{ACAD_REACTORS
330
5E
102
}
330
5E
100
DictionaryVariables
280
     0
  1
1
  0
DICTIONARYVAR
  5
3D4
102
{ACAD_REACTORS
330
5E
102
}
330
5E
100
DictionaryVariables
280
     0
  1
0
  0
DICTIONARYVAR
  5
3D2
102
{ACAD_REACTORS
330
5E
102
}
330
5E
100
DictionaryVariables
280
     0
  1
2
  0
DICTIONARYVAR
  5
3D1
102
{ACAD_REACTORS
330
5E
102
}
330
5E
100
DictionaryVariables
280
     0
  1
1
  0
DICTIONARYVAR
  5
3D6
102
{ACAD_REACTORS
330
5E
102
}
330
5E
100
DictionaryVariables
280
     0
  1
80.000000
  0
DICTIONARYVAR
  5
3D5
102
{ACAD_REACTORS
330
5E
102
}
330
5E
100
DictionaryVariables
280
     0
  1
5.000000
  0
DICTIONARYVAR
  5
3D3
102
{ACAD_REACTORS
330
5E
102
}
330
5E
100
DictionaryVariables
280
     0
  1
127
  0
DICTIONARY
  5
3DC
330
D3
100
AcDbDictionary
280
     1
281
     1
  3
ACAD_XREC_ROUNDTRIP
360
3DD
  0
DICTIONARY
  5
3DE
330
D7
100
AcDbDictionary
280
     1
281
     1
  3
ACAD_XREC_ROUNDTRIP
360
3DF
  0
DICTIONARY
  5
3D9
330
22
100
AcDbDictionary
280
     1
281
     1
  3
ACAD_XREC_ROUNDTRIP
360
3DA
  0
DICTIONARY
  5
3E2
330
ED
100
AcDbDictionary
280
     1
281
     1
  3
ACAD_XREC_ROUNDTRIP
360
3E3
  0
DICTIONARY
  5
3E0
330
EC
100
AcDbDictionary
280
     1
281
     1
  3
ACAD_XREC_ROUNDTRIP
360
3E1
  0
DICTIONARY
  5
173
330
EE
100
AcDbDictionary
280
     1
281
     1
  3
ACAD_XREC_ROUNDTRIP
360
3E4
  3
BUMPTILE
360
175
  3
DIFFUSETILE
360
174
  3
OPACITYTILE
360
176
  3
REFLECTIONTILE
360
177
  0
DICTIONARY
  5
162
330
7F
100
AcDbDictionary
280
     1
281
     1
  3
ACAD_ROUNDTRIP_2008_TABLESTYLE_CELLSTYLEMAP
360
3D7
  3
ACAD_XREC_ROUNDTRIP
360
3DB
  0
XRECORD
  5
3DD
102
{ACAD_REACTORS
330
3DC
102
}
330
3DC
100
AcDbXrecord
280
     1
102
SHADEPLOT
 70
     0
102
SHADEPLOTRESLEVEL
 70
     2
102
SHADEPLOTCUSTOMDPI
 70
   300
  0
XRECORD
  5
3DF
102
{ACAD_REACTORS
330
3DE
102
}
330
3DE
100
AcDbXrecord
280
     1
102
SHADEPLOT
 70
     0
102
SHADEPLOTRESLEVEL
 70
     2
102
SHADEPLOTCUSTOMDPI
 70
   300
  0
XRECORD
  5
3DA
102
{ACAD_REACTORS
330
3D9
102
}
330
3D9
100
AcDbXrecord
280
     1
102
SHADEPLOT
 70
     0
102
SHADEPLOTRESLEVEL
 70
     2
102
SHADEPLOTCUSTOMDPI
 70
   300
  0
XRECORD
  5
3E3
102
{ACAD_REACTORS
330
3E2
102
}
330
3E2
100
AcDbXrecord
280
     1
102
MATERIAL
148
0.0
149
0.0
149
0.0
 93
        0
 94
       63
282
     0
 72
     1
 77
     1
171
     1
175
     1
179
     1
273
     0
  0
XRECORD
  5
3E1
102
{ACAD_REACTORS
330
3E0
102
}
330
3E0
100
AcDbXrecord
280
     1
102
MATERIAL
148
0.0
149
0.0
149
0.0
 93
        0
 94
       63
282
     0
 72
     1
 77
     1
171
     1
175
     1
179
     1
273
     0
  0
XRECORD
  5
3E4
102
{ACAD_REACTORS
330
173
102
}
330
173
100
AcDbXrecord
280
     1
102
MATERIAL
148
0.0
149
0.0
149
0.0
 93
        0
 94
       63
282
     0
 72
     1
 77
     1
171
     1
175
     1
179
     1
273
     0
  0
XRECORD
  5
175
102
{ACAD_REACTORS
330
173
102
}
330
173
100
AcDbXrecord
280
     1
270
     1
271
     1
  0
XRECORD
  5
174
102
{ACAD_REACTORS
330
173
102
}
330
173
100
AcDbXrecord
280
     1
270
     1
271
     1
  0
XRECORD
  5
176
102
{ACAD_REACTORS
330
173
102
}
330
173
100
AcDbXrecord
280
     1
270
     1
271
     1
  0
XRECORD
  5
177
102
{ACAD_REACTORS
330
173
102
}
330
173
100
AcDbXrecord
280
     1
270
     1
271
     1
  0
CELLSTYLEMAP
  5
3D7
102
{ACAD_REACTORS
330
162
102
}
330
162
100
AcDbCellStyleMap
 90
        3
300
CELLSTYLE
  1
TABLEFORMAT_BEGIN
 90
        5
170
     1
 91
        0
 92
    32768
 62
   257
 93
        1
300
CONTENTFORMAT
  1
CONTENTFORMAT_BEGIN
 90
        0
 91
        0
 92
      512
 93
        0
300

 40
0.0
140
1.0
 94
        5
 62
     0
340
11
144
6.0
309
CONTENTFORMAT_END
171
     1
301
MARGIN
  1
CELLMARGIN_BEGIN
 40
1.5
 40
1.5
 40
1.5
 40
1.5
 40
4.5
 40
4.5
309
CELLMARGIN_END
 94
        6
 95
        1
302
GRIDFORMAT
  1
GRIDFORMAT_BEGIN
 90
        0
 91
        1
 62
     0
 92
       -2
340
14
 93
        0
 40
1.125
309
GRIDFORMAT_END
 95
        2
302
GRIDFORMAT
  1
GRIDFORMAT_BEGIN
 90
        0
 91
        1
 62
     0
 92
       -2
340
14
 93
        0
 40
1.125
309
GRIDFORMAT_END
 95
        4
302
GRIDFORMAT
  1
GRIDFORMAT_BEGIN
 90
        0
 91
        1
 62
     0
 92
       -2
340
14
 93
        0
 40
1.125
309
GRIDFORMAT_END
 95
        8
302
GRIDFORMAT
  1
GRIDFORMAT_BEGIN
 90
        0
 91
        1
 62
     0
 92
       -2
340
14
 93
        0
 40
1.125
309
GRIDFORMAT_END
 95
       16
302
GRIDFORMAT
  1
GRIDFORMAT_BEGIN
 90
        0
 91
        1
 62
     0
 92
       -2
340
14
 93
        0
 40
1.125
309
GRIDFORMAT_END
 95
       32
302
GRIDFORMAT
  1
GRIDFORMAT_BEGIN
 90
        0
 91
        1
 62
     0
 92
       -2
340
14
 93
        0
 40
1.125
309
GRIDFORMAT_END
309
TABLEFORMAT_END
  1
CELLSTYLE_BEGIN
 90
        1
 91
        1
300
_TITLE
309
CELLSTYLE_END
300
CELLSTYLE
  1
TABLEFORMAT_BEGIN
 90
        5
170
     1
 91
        0
 92
        0
 62
   257
 93
        1
300
CONTENTFORMAT
  1
CONTENTFORMAT_BEGIN
 90
        0
 91
        0
 92
      512
 93
        0
300

 40
0.0
140
1.0
 94
        5
 62
     0
340
11
144
4.5
309
CONTENTFORMAT_END
171
     1
301
MARGIN
  1
CELLMARGIN_BEGIN
 40
1.5
 40
1.5
 40
1.5
 40
1.5
 40
4.5
 40
4.5
309
CELLMARGIN_END
 94
        6
 95
        1
302
GRIDFORMAT
  1
GRIDFORMAT_BEGIN
 90
        0
 91
        1
 62
     0
 92
       -2
340
14
 93
        0
 40
1.125
309
GRIDFORMAT_END
 95
        2
302
GRIDFORMAT
  1
GRIDFORMAT_BEGIN
 90
        0
 91
        1
 62
     0
 92
       -2
340
14
 93
        0
 40
1.125
309
GRIDFORMAT_END
 95
        4
302
GRIDFORMAT
  1
GRIDFORMAT_BEGIN
 90
        0
 91
        1
 62
     0
 92
       -2
340
14
 93
        0
 40
1.125
309
GRIDFORMAT_END
 95
        8
302
GRIDFORMAT
  1
GRIDFORMAT_BEGIN
 90
        0
 91
        1
 62
     0
 92
       -2
340
14
 93
        0
 40
1.125
309
GRIDFORMAT_END
 95
       16
302
GRIDFORMAT
  1
GRIDFORMAT_BEGIN
 90
        0
 91
        1
 62
     0
 92
       -2
340
14
 93
        0
 40
1.125
309
GRIDFORMAT_END
 95
       32
302
GRIDFORMAT
  1
GRIDFORMAT_BEGIN
 90
        0
 91
        1
 62
     0
 92
       -2
340
14
 93
        0
 40
1.125
309
GRIDFORMAT_END
309
TABLEFORMAT_END
  1
CELLSTYLE_BEGIN
 90
        2
 91
        1
300
_HEADER
309
CELLSTYLE_END
300
CELLSTYLE
  1
TABLEFORMAT_BEGIN
 90
        5
170
     1
 91
        0
 92
        0
 62
   257
 93
        1
300
CONTENTFORMAT
  1
CONTENTFORMAT_BEGIN
 90
        0
 91
        0
 92
      512
 93
        0
300

 40
0.0
140
1.0
 94
        2
 62
     0
340
11
144
4.5
309
CONTENTFORMAT_END
171
     1
301
MARGIN
  1
CELLMARGIN_BEGIN
 40
1.5
 40
1.5
 40
1.5
 40
1.5
 40
4.5
 40
4.5
309
CELLMARGIN_END
 94
        6
 95
        1
302
GRIDFORMAT
  1
GRIDFORMAT_BEGIN
 90
        0
 91
        1
 62
     0
 92
       -2
340
14
 93
        0
 40
1.125
309
GRIDFORMAT_END
 95
        2
302
GRIDFORMAT
  1
GRIDFORMAT_BEGIN
 90
        0
 91
        1
 62
     0
 92
       -2
340
14
 93
        0
 40
1.125
309
GRIDFORMAT_END
 95
        4
302
GRIDFORMAT
  1
GRIDFORMAT_BEGIN
 90
        0
 91
        1
 62
     0
 92
       -2
340
14
 93
        0
 40
1.125
309
GRIDFORMAT_END
 95
        8
302
GRIDFORMAT
  1
GRIDFORMAT_BEGIN
 90
        0
 91
        1
 62
     0
 92
       -2
340
14
 93
        0
 40
1.125
309
GRIDFORMAT_END
 95
       16
302
GRIDFORMAT
  1
GRIDFORMAT_BEGIN
 90
        0
 91
        1
 62
     0
 92
       -2
340
14
 93
        0
 40
1.125
309
GRIDFORMAT_END
 95
       32
302
GRIDFORMAT
  1
GRIDFORMAT_BEGIN
 90
        0
 91
        1
 62
     0
 92
       -2
340
14
 93
        0
 40
1.125
309
GRIDFORMAT_END
309
TABLEFORMAT_END
  1
CELLSTYLE_BEGIN
 90
        3
 91
        2
300
_DATA
309
CELLSTYLE_END
  0
XRECORD
  5
3DB
102
{ACAD_REACTORS
330
162
102
}
330
162
100
AcDbXrecord
280
     1
102
ACAD_ROUNDTRIP_PRE2007_TABLESTYLE
 90
      512
 91
        0
  1

 92
      512
 93
        0
  2

 94
      512
 95
        0
  3

  0
ENDSEC
  0
EOF
