  0
SECTION
  2
HEADER
  9
$ACADVER
  1
AC1015
  9
$ACADMAINTVER
 70
    20
  9
$DWGCODEPAGE
  3
ANSI_1254
  9
$INSBASE
 10
0.0
 20
0.0
 30
0.0
  9
$EXTMIN
 10
2039.998963988885
 20
1089.321379578951
 30
0.0
  9
$EXTMAX
 10
2126.841603477609
 20
1145.560832008691
 30
0.0
  9
$LIMMIN
 10
0.0
 20
0.0
  9
$LIMMAX
 10
420.0
 20
297.0
  9
$ORTHOMODE
 70
     0
  9
$REGENMODE
 70
     1
  9
$FILLMODE
 70
     1
  9
$QTEXTMODE
 70
     0
  9
$MIRRTEXT
 70
     0
  9
$LTSCALE
 40
1.0
  9
$ATTMODE
 70
     1
  9
$TEXTSIZE
 40
2.5
  9
$TRACEWID
 40
1.0
  9
$TEXTSTYLE
  7
Standard
  9
$CLAYER
  8
0
  9
$CELTYPE
  6
ByLayer
  9
$CECOLOR
 62
   256
  9
$CELTSCALE
 40
1.0
  9
$DISPSILH
 70
     0
  9
$DIMSCALE
 40
1.0
  9
$DIMASZ
 40
2.5
  9
$DIMEXO
 40
0.625
  9
$DIMDLI
 40
3.75
  9
$DIMRND
 40
0.0
  9
$DIMDLE
 40
0.0
  9
$DIMEXE
 40
1.25
  9
$DIMTP
 40
0.0
  9
$DIMTM
 40
0.0
  9
$DIMTXT
 40
2.5
  9
$DIMCEN
 40
2.5
  9
$DIMTSZ
 40
0.0
  9
$DIMTOL
 70
     0
  9
$DIMLIM
 70
     0
  9
$DIMTIH
 70
     0
  9
$DIMTOH
 70
     0
  9
$DIMSE1
 70
     0
  9
$DIMSE2
 70
     0
  9
$DIMTAD
 70
     1
  9
$DIMZIN
 70
     8
  9
$DIMBLK
  1

  9
$DIMASO
 70
     1
  9
$DIMSHO
 70
     1
  9
$DIMPOST
  1

  9
$DIMAPOST
  1

  9
$DIMALT
 70
     0
  9
$DIMALTD
 70
     3
  9
$DIMALTF
 40
0.03937007874016
  9
$DIMLFAC
 40
1.0
  9
$DIMTOFL
 70
     1
  9
$DIMTVP
 40
0.0
  9
$DIMTIX
 70
     0
  9
$DIMSOXD
 70
     0
  9
$DIMSAH
 70
     0
  9
$DIMBLK1
  1

  9
$DIMBLK2
  1

  9
$DIMSTYLE
  2
ISO-25
  9
$DIMCLRD
 70
     0
  9
$DIMCLRE
 70
     0
  9
$DIMCLRT
 70
     0
  9
$DIMTFAC
 40
1.0
  9
$DIMGAP
 40
0.625
  9
$DIMJUST
 70
     0
  9
$DIMSD1
 70
     0
  9
$DIMSD2
 70
     0
  9
$DIMTOLJ
 70
     0
  9
$DIMTZIN
 70
     8
  9
$DIMALTZ
 70
     0
  9
$DIMALTTZ
 70
     0
  9
$DIMUPT
 70
     0
  9
$DIMDEC
 70
     2
  9
$DIMTDEC
 70
     2
  9
$DIMALTU
 70
     2
  9
$DIMALTTD
 70
     3
  9
$DIMTXSTY
  7
Standard
  9
$DIMAUNIT
 70
     0
  9
$DIMADEC
 70
     0
  9
$DIMALTRND
 40
0.0
  9
$DIMAZIN
 70
     0
  9
$DIMDSEP
 70
    44
  9
$DIMATFIT
 70
     3
  9
$DIMFRAC
 70
     0
  9
$DIMLDRBLK
  1

  9
$DIMLUNIT
 70
     2
  9
$DIMLWD
 70
    -2
  9
$DIMLWE
 70
    -2
  9
$DIMTMOVE
 70
     0
  9
$LUNITS
 70
     2
  9
$LUPREC
 70
     4
  9
$SKETCHINC
 40
1.0
  9
$FILLETRAD
 40
0.0
  9
$AUNITS
 70
     0
  9
$AUPREC
 70
     0
  9
$MENU
  1
.
  9
$ELEVATION
 40
0.0
  9
$PELEVATION
 40
0.0
  9
$THICKNESS
 40
0.0
  9
$LIMCHECK
 70
     0
  9
$CHAMFERA
 40
0.0
  9
$CHAMFERB
 40
0.0
  9
$CHAMFERC
 40
0.0
  9
$CHAMFERD
 40
0.0
  9
$SKPOLY
 70
     0
  9
$TDCREATE
 40
2459059.856863403
  9
$TDUCREATE
 40
2459059.731863403
  9
$TDUPDATE
 40
2459067.647357963
  9
$TDUUPDATE
 40
2459067.522357963
  9
$TDINDWG
 40
0.0002535069
  9
$TDUSRTIMER
 40
0.0002535069
  9
$USRTIMER
 70
     1
  9
$ANGBASE
 50
0.0
  9
$ANGDIR
 70
     0
  9
$PDMODE
 70
     0
  9
$PDSIZE
 40
0.0
  9
$PLINEWID
 40
0.0
  9
$SPLFRAME
 70
     0
  9
$SPLINETYPE
 70
     6
  9
$SPLINESEGS
 70
     8
  9
$HANDSEED
  5
383
  9
$SURFTAB1
 70
     6
  9
$SURFTAB2
 70
     6
  9
$SURFTYPE
 70
     6
  9
$SURFU
 70
     6
  9
$SURFV
 70
     6
  9
$UCSBASE
  2

  9
$UCSNAME
  2

  9
$UCSORG
 10
0.0
 20
0.0
 30
0.0
  9
$UCSXDIR
 10
1.0
 20
0.0
 30
0.0
  9
$UCSYDIR
 10
0.0
 20
1.0
 30
0.0
  9
$UCSORTHOREF
  2

  9
$UCSORTHOVIEW
 70
     0
  9
$UCSORGTOP
 10
0.0
 20
0.0
 30
0.0
  9
$UCSORGBOTTOM
 10
0.0
 20
0.0
 30
0.0
  9
$UCSORGLEFT
 10
0.0
 20
0.0
 30
0.0
  9
$UCSORGRIGHT
 10
0.0
 20
0.0
 30
0.0
  9
$UCSORGFRONT
 10
0.0
 20
0.0
 30
0.0
  9
$UCSORGBACK
 10
0.0
 20
0.0
 30
0.0
  9
$PUCSBASE
  2

  9
$PUCSNAME
  2

  9
$PUCSORG
 10
0.0
 20
0.0
 30
0.0
  9
$PUCSXDIR
 10
1.0
 20
0.0
 30
0.0
  9
$PUCSYDIR
 10
0.0
 20
1.0
 30
0.0
  9
$PUCSORTHOREF
  2

  9
$PUCSORTHOVIEW
 70
     0
  9
$PUCSORGTOP
 10
0.0
 20
0.0
 30
0.0
  9
$PUCSORGBOTTOM
 10
0.0
 20
0.0
 30
0.0
  9
$PUCSORGLEFT
 10
0.0
 20
0.0
 30
0.0
  9
$PUCSORGRIGHT
 10
0.0
 20
0.0
 30
0.0
  9
$PUCSORGFRONT
 10
0.0
 20
0.0
 30
0.0
  9
$PUCSORGBACK
 10
0.0
 20
0.0
 30
0.0
  9
$USERI1
 70
     0
  9
$USERI2
 70
     0
  9
$USERI3
 70
     0
  9
$USERI4
 70
     0
  9
$USERI5
 70
     0
  9
$USERR1
 40
0.0
  9
$USERR2
 40
0.0
  9
$USERR3
 40
0.0
  9
$USERR4
 40
0.0
  9
$USERR5
 40
0.0
  9
$WORLDVIEW
 70
     1
  9
$SHADEDGE
 70
     3
  9
$SHADEDIF
 70
    70
  9
$TILEMODE
 70
     1
  9
$MAXACTVP
 70
    64
  9
$PINSBASE
 10
0.0
 20
0.0
 30
0.0
  9
$PLIMCHECK
 70
     0
  9
$PEXTMIN
 10
0.0
 20
0.0
 30
0.0
  9
$PEXTMAX
 10
0.0
 20
0.0
 30
0.0
  9
$PLIMMIN
 10
0.0
 20
0.0
  9
$PLIMMAX
 10
12.0
 20
9.0
  9
$UNITMODE
 70
     0
  9
$VISRETAIN
 70
     1
  9
$PLINEGEN
 70
     0
  9
$PSLTSCALE
 70
     1
  9
$TREEDEPTH
 70
  3020
  9
$CMLSTYLE
  2
Standard
  9
$CMLJUST
 70
     0
  9
$CMLSCALE
 40
20.0
  9
$PROXYGRAPHICS
 70
     1
  9
$MEASUREMENT
 70
     1
  9
$CELWEIGHT
370
    -1
  9
$ENDCAPS
280
     0
  9
$JOINSTYLE
280
     0
  9
$LWDISPLAY
290
     0
  9
$INSUNITS
 70
     4
  9
$HYPERLINKBASE
  1

  9
$STYLESHEET
  1

  9
$XEDIT
290
     1
  9
$CEPSNTYPE
380
     0
  9
$PSTYLEMODE
290
     1
  9
$FINGERPRINTGUID
  2
{27477A7C-E33A-4670-B17B-F6F4AE73AF70}
  9
$VERSIONGUID
  2
{C84E7553-7197-420E-80A3-E665940E625E}
  9
$EXTNAMES
290
     1
  9
$PSVPSCALE
 40
0.0
  9
$OLESTARTUP
290
     0
  0
ENDSEC
  0
SECTION
  2
CLASSES
  0
CLASS
  1
ACDBDICTIONARYWDFLT
  2
AcDbDictionaryWithDefault
  3
ObjectDBX Classes
 90
        0
280
     0
281
     0
  0
CLASS
  1
ACDBPLACEHOLDER
  2
AcDbPlaceHolder
  3
ObjectDBX Classes
 90
        0
280
     0
281
     0
  0
CLASS
  1
LAYOUT
  2
AcDbLayout
  3
ObjectDBX Classes
 90
        0
280
     0
281
     0
  0
CLASS
  1
DICTIONARYVAR
  2
AcDbDictionaryVar
  3
ObjectDBX Classes
 90
        0
280
     0
281
     0
  0
CLASS
  1
TABLESTYLE
  2
AcDbTableStyle
  3
ObjectDBX Classes
 90
     4095
280
     0
281
     0
  0
CLASS
  1
MATERIAL
  2
AcDbMaterial
  3
ObjectDBX Classes
 90
     1153
280
     0
281
     0
  0
CLASS
  1
VISUALSTYLE
  2
AcDbVisualStyle
  3
ObjectDBX Classes
 90
     4095
280
     0
281
     0
  0
CLASS
  1
SCALE
  2
AcDbScale
  3
ObjectDBX Classes
 90
     1153
280
     0
281
     0
  0
CLASS
  1
MLEADERSTYLE
  2
AcDbMLeaderStyle
  3
ACDB_MLEADERSTYLE_CLASS
 90
     4095
280
     0
281
     0
  0
CLASS
  1
CELLSTYLEMAP
  2
AcDbCellStyleMap
  3
ObjectDBX Classes
 90
     1152
280
     0
281
     0
  0
ENDSEC
  0
SECTION
  2
TABLES
  0
TABLE
  2
VPORT
  5
8
330
0
100
AcDbSymbolTable
 70
     1
  0
VPORT
  5
EA
330
8
100
AcDbSymbolTableRecord
100
AcDbViewportTableRecord
  2
*Active
 70
     0
 10
0.0
 20
0.0
 11
1.0
 21
1.0
 12
2084.779567359803
 22
1122.760343350765
 13
0.0
 23
0.0
 14
10.0
 24
10.0
 15
10.0
 25
10.0
 16
0.0
 26
0.0
 36
1.0
 17
0.0
 27
0.0
 37
0.0
 40
101.0473665115237
 41
1.903110047846889
 42
50.0
 43
0.0
 44
0.0
 50
0.0
 51
0.0
 71
     0
 72
  1000
 73
     1
 74
     3
 75
     0
 76
     0
 77
     0
 78
     0
281
     0
 65
     1
110
0.0
120
0.0
130
0.0
111
1.0
121
0.0
131
0.0
112
0.0
122
1.0
132
0.0
 79
     0
146
0.0
  0
ENDTAB
  0
TABLE
  2
LTYPE
  5
5
330
0
100
AcDbSymbolTable
 70
     1
  0
LTYPE
  5
14
330
5
100
AcDbSymbolTableRecord
100
AcDbLinetypeTableRecord
  2
ByBlock
 70
     0
  3

 72
    65
 73
     0
 40
0.0
  0
LTYPE
  5
15
330
5
100
AcDbSymbolTableRecord
100
AcDbLinetypeTableRecord
  2
ByLayer
 70
     0
  3

 72
    65
 73
     0
 40
0.0
  0
LTYPE
  5
16
330
5
100
AcDbSymbolTableRecord
100
AcDbLinetypeTableRecord
  2
Continuous
 70
     0
  3
Solid line
 72
    65
 73
     0
 40
0.0
  0
ENDTAB
  0
TABLE
  2
LAYER
  5
2
330
0
100
AcDbSymbolTable
 70
     1
  0
LAYER
  5
10
102
{ACAD_XDICTIONARY
360
13C
102
}
330
2
100
AcDbSymbolTableRecord
100
AcDbLayerTableRecord
  2
0
 70
     0
 62
     7
  6
Continuous
370
    -3
390
F
  0
ENDTAB
  0
TABLE
  2
STYLE
  5
3
330
0
100
AcDbSymbolTable
 70
     2
  0
STYLE
  5
11
330
3
100
AcDbSymbolTableRecord
100
AcDbTextStyleTableRecord
  2
Standard
 70
     0
 40
0.0
 41
1.0
 50
0.0
 71
     0
 42
2.5
  3
txt
  4

  0
STYLE
  5
132
330
3
100
AcDbSymbolTableRecord
100
AcDbTextStyleTableRecord
  2
Annotative
 70
     0
 40
0.0
 41
1.0
 50
0.0
 71
     0
 42
2.5
  3
txt.shx
  4

1001
AcadAnnotative
1000
AnnotativeData
1002
{
1070
     1
1070
     1
1002
}
  0
ENDTAB
  0
TABLE
  2
VIEW
  5
6
330
0
100
AcDbSymbolTable
 70
     0
  0
ENDTAB
  0
TABLE
  2
UCS
  5
7
330
0
100
AcDbSymbolTable
 70
     0
  0
ENDTAB
  0
TABLE
  2
APPID
  5
9
330
0
100
AcDbSymbolTable
 70
     7
  0
APPID
  5
12
330
9
100
AcDbSymbolTableRecord
100
AcDbRegAppTableRecord
  2
ACAD
 70
     0
  0
APPID
  5
9E
330
9
100
AcDbSymbolTableRecord
100
AcDbRegAppTableRecord
  2
ACAD_PSEXT
 70
     0
  0
APPID
  5
133
330
9
100
AcDbSymbolTableRecord
100
AcDbRegAppTableRecord
  2
AcadAnnoPO
 70
     0
  0
APPID
  5
134
330
9
100
AcDbSymbolTableRecord
100
AcDbRegAppTableRecord
  2
AcadAnnotative
 70
     0
  0
APPID
  5
135
330
9
100
AcDbSymbolTableRecord
100
AcDbRegAppTableRecord
  2
ACAD_DSTYLE_DIMJAG
 70
     0
  0
APPID
  5
136
330
9
100
AcDbSymbolTableRecord
100
AcDbRegAppTableRecord
  2
ACAD_DSTYLE_DIMTALN
 70
     0
  0
APPID
  5
165
330
9
100
AcDbSymbolTableRecord
100
AcDbRegAppTableRecord
  2
ACAD_MLEADERVER
 70
     0
  0
ENDTAB
  0
TABLE
  2
DIMSTYLE
  5
A
330
0
100
AcDbSymbolTable
 70
     2
100
AcDbDimStyleTable
 71
     2
340
27
340
137
  0
DIMSTYLE
105
27
330
A
100
AcDbSymbolTableRecord
100
AcDbDimStyleTableRecord
  2
ISO-25
 70
     0
 41
2.5
 42
0.625
 43
3.75
 44
1.25
 73
     0
 74
     0
 77
     1
 78
     8
140
2.5
141
2.5
143
0.03937007874016
147
0.625
171
     3
172
     1
271
     2
272
     2
274
     3
278
    44
283
     0
284
     8
340
11
  0
DIMSTYLE
105
137
330
A
100
AcDbSymbolTableRecord
100
AcDbDimStyleTableRecord
  2
Annotative
 70
     0
 40
0.0
 41
2.5
 42
0.625
 43
3.75
 44
1.25
 73
     0
 74
     0
 77
     1
 78
     8
140
2.5
141
2.5
143
0.03937007874016
147
0.625
171
     3
172
     1
271
     2
272
     2
274
     3
278
    44
283
     0
284
     8
340
11
1001
AcadAnnotative
1000
AnnotativeData
1002
{
1070
     1
1070
     1
1002
}
1001
ACAD_DSTYLE_DIMJAG
1070
   388
1040
1.5
1001
ACAD_DSTYLE_DIMTALN
1070
   392
1070
     0
  0
ENDTAB
  0
TABLE
  2
BLOCK_RECORD
  5
1
330
0
100
AcDbSymbolTable
 70
     5
  0
BLOCK_RECORD
  5
1F
330
1
100
AcDbSymbolTableRecord
100
AcDbBlockTableRecord
  2
*Model_Space
340
22
  0
BLOCK_RECORD
  5
D2
330
1
100
AcDbSymbolTableRecord
100
AcDbBlockTableRecord
  2
*Paper_Space
340
D3
  0
BLOCK_RECORD
  5
D6
330
1
100
AcDbSymbolTableRecord
100
AcDbBlockTableRecord
  2
*Paper_Space0
340
D7
  0
BLOCK_RECORD
  5
1AD
330
1
100
AcDbSymbolTableRecord
100
AcDbBlockTableRecord
  2
SW_CENTERMARKSYMBOL_0
340
0
102
{BLKREFS
331
32E
102
}
  0
BLOCK_RECORD
  5
2D2
330
1
100
AcDbSymbolTableRecord
100
AcDbBlockTableRecord
  2
1
340
0
310
2800000020000000200000000100080000000000000400000000000000000000000000000000000000000000000080000080000000808000800000008000800080800000C0C0C000C0DCC000F0CAA6000020400000206000002080000020A0000020C0000020E00000400000004020000040400000406000004080000040A0
310
000040C0000040E00000600000006020000060400000606000006080000060A0000060C0000060E00000800000008020000080400000806000008080000080A0000080C0000080E00000A0000000A0200000A0400000A0600000A0800000A0A00000A0C00000A0E00000C0000000C0200000C0400000C0600000C0800000C0
310
A00000C0C00000C0E00000E0000000E0200000E0400000E0600000E0800000E0A00000E0C00000E0E00040000000400020004000400040006000400080004000A0004000C0004000E00040200000402020004020400040206000402080004020A0004020C0004020E000404000004040200040404000404060004040800040
310
40A0004040C0004040E00040600000406020004060400040606000406080004060A0004060C0004060E00040800000408020004080400040806000408080004080A0004080C0004080E00040A0000040A0200040A0400040A0600040A0800040A0A00040A0C00040A0E00040C0000040C0200040C0400040C0600040C08000
310
40C0A00040C0C00040C0E00040E0000040E0200040E0400040E0600040E0800040E0A00040E0C00040E0E00080000000800020008000400080006000800080008000A0008000C0008000E00080200000802020008020400080206000802080008020A0008020C0008020E00080400000804020008040400080406000804080
310
008040A0008040C0008040E00080600000806020008060400080606000806080008060A0008060C0008060E00080800000808020008080400080806000808080008080A0008080C0008080E00080A0000080A0200080A0400080A0600080A0800080A0A00080A0C00080A0E00080C0000080C0200080C0400080C0600080C0
310
800080C0A00080C0C00080C0E00080E0000080E0200080E0400080E0600080E0800080E0A00080E0C00080E0E000C0000000C0002000C0004000C0006000C0008000C000A000C000C000C000E000C0200000C0202000C0204000C0206000C0208000C020A000C020C000C020E000C0400000C0402000C0404000C0406000C0
310
408000C040A000C040C000C040E000C0600000C0602000C0604000C0606000C0608000C060A000C060C000C060E000C0800000C0802000C0804000C0806000C0808000C080A000C080C000C080E000C0A00000C0A02000C0A04000C0A06000C0A08000C0A0A000C0A0C000C0A0E000C0C00000C0C02000C0C04000C0C06000
310
C0C08000C0C0A000F0FBFF00A4A0A000808080000000FF0000FF000000FFFF00FF000000FF00FF00FFFF0000FFFFFF0000000000000000000000000000000000000000000000000000000000000000000000000000000000000000000000000000000000000000000000000000000000000000000000000000000000000000
310
00000000000000000000000000000000000000000000000000000000000000000000000000000000000000000000000000000000000000000000000000000000000000000000000000000000000000000000000000000000000000000000000000000000000000000000000000000000000000000000000000000000000000
310
000000000000000000000000000000000000000000000000000000000000000000000000000000000000000000000000000000000000FFFFFFFFFFFFFFFFFFFFFFFFFFFFFFFFFFFFFFFFFFFFFF000000000000000000FFFFFFFFFFFFFFFFFFFFFFFFFFFFFFFFFFFFFFFFFFFFFFFF0000000000000000FFFFFFFFFFFFFFFFFF
310
FFFFFFFFFFFFFFFFFFFFFFFFFFFFFF0000000000000000FFFFFFFFFFFFFFFFFFFFFFFFFFFFFFFFFFFFFFFFFFFFFFFF0000000000000000FFFFFFFFFFFFFFFFFFFFFFFFFFFFFFFFFFFFFFFFFFFFFFFF0000000000000000FFFFFFFFFFFFFFFFFFFFFFFFFFFFFFFFFFFFFFFFFFFFFFFF0000000000000000FFFFFFFFFFFFFFFF
310
FFFFFFFFFFFFFFFFFFFFFFFFFFFFFFFF0000000000000000FFFFFFFFFFFFFFFFFFFFFFFFFFFFFFFFFFFFFFFFFFFFFFFF0000000000000000FFFFFFFFFFFFFFFFFFFFFFFFFFFFFFFFFFFFFFFFFFFFFFFF0000000000000000FFFFFFFFFFFFFFFFFFFFFFFFFFFFFFFFFFFFFFFFFFFFFFFF0000000000000000FFFFFFFFFFFFFF
310
FFFFFFFFFFFFFFFFFFFFFFFFFFFFFFFFFF0000000000FFFFFFFFFFFFFFFFFFFFFFFFFFFFFFFFFFFFFFFFFFFFFFFFFFFFFFFFFFFF0000FFA4A4A4A4A4A4A4A4A4A4A4A4A4A4A4A4A4A4A4A4A4A4A4A4A4A4A4A4FF000000FFFFFFA4A4A4A4A4A4A4A4A4A4A4A4A4A4A4A4A4A4A4A4A4A4FFFFFF00000000000000FFFFFFFFFF
310
FFFF0000000000000000FFFFFFFFFFFFFF00000000000000000000000000000000FFFFFFFFFFFFFFFFFFFF000000000000000000000000000000000000000000000000000000000000000000000000000000000000000000000000000000000000000000000000000000000000000000000000000000000000000000000000
310
00000000000000000000000000000000000000000000000000000000000000000000000000000000000000000000000000000000000000000000000000000000000000000000000000000000000000000000000000000000000000000000000000000000000000000000000000000000000000000000000000000000000000
310
0000000000000000000000000000000000000000000000000000000000000000000000000000000000000000000000000000000000000000
102
{BLKREFS
331
324
102
}
1001
ACAD
1000
DesignCenter Data
1002
{
1070
     1
1070
     4
1002
}
  0
BLOCK_RECORD
  5
325
330
1
100
AcDbSymbolTableRecord
100
AcDbBlockTableRecord
  2
2
340
0
310
2800000020000000200000000100080000000000000400000000000000000000000000000000000000000000000080000080000000808000800000008000800080800000C0C0C000C0DCC000F0CAA6000020400000206000002080000020A0000020C0000020E00000400000004020000040400000406000004080000040A0
310
000040C0000040E00000600000006020000060400000606000006080000060A0000060C0000060E00000800000008020000080400000806000008080000080A0000080C0000080E00000A0000000A0200000A0400000A0600000A0800000A0A00000A0C00000A0E00000C0000000C0200000C0400000C0600000C0800000C0
310
A00000C0C00000C0E00000E0000000E0200000E0400000E0600000E0800000E0A00000E0C00000E0E00040000000400020004000400040006000400080004000A0004000C0004000E00040200000402020004020400040206000402080004020A0004020C0004020E000404000004040200040404000404060004040800040
310
40A0004040C0004040E00040600000406020004060400040606000406080004060A0004060C0004060E00040800000408020004080400040806000408080004080A0004080C0004080E00040A0000040A0200040A0400040A0600040A0800040A0A00040A0C00040A0E00040C0000040C0200040C0400040C0600040C08000
310
40C0A00040C0C00040C0E00040E0000040E0200040E0400040E0600040E0800040E0A00040E0C00040E0E00080000000800020008000400080006000800080008000A0008000C0008000E00080200000802020008020400080206000802080008020A0008020C0008020E00080400000804020008040400080406000804080
310
008040A0008040C0008040E00080600000806020008060400080606000806080008060A0008060C0008060E00080800000808020008080400080806000808080008080A0008080C0008080E00080A0000080A0200080A0400080A0600080A0800080A0A00080A0C00080A0E00080C0000080C0200080C0400080C0600080C0
310
800080C0A00080C0C00080C0E00080E0000080E0200080E0400080E0600080E0800080E0A00080E0C00080E0E000C0000000C0002000C0004000C0006000C0008000C000A000C000C000C000E000C0200000C0202000C0204000C0206000C0208000C020A000C020C000C020E000C0400000C0402000C0404000C0406000C0
310
408000C040A000C040C000C040E000C0600000C0602000C0604000C0606000C0608000C060A000C060C000C060E000C0800000C0802000C0804000C0806000C0808000C080A000C080C000C080E000C0A00000C0A02000C0A04000C0A06000C0A08000C0A0A000C0A0C000C0A0E000C0C00000C0C02000C0C04000C0C06000
310
C0C08000C0C0A000F0FBFF00A4A0A000808080000000FF0000FF000000FFFF00FF000000FF00FF00FFFF0000FFFFFF00000000000000000000000000000000000000000000000000000000000000000000000000000000000000000000000000FF000000000000000000000000000000000000000000000000000000000000
310
00FF00000000000000000000000000000000000000000000000000000000000000FF000000000000000000000000000000000000000000000000000000000000FFFFFF0000000000000000000000000000000000000000000000000000FFFFFFFFFFFFFFFF000000000000000000000000000000000000000000FFFFFFFFFF
310
0000FF0000FFFFFFFF00000000000000000000000000000000FFFF00FFFF00000000FF00000000FFFFFFFF0000000000000000000000000000FFFFFF000000000000FF000000000000FFFF00000000000000000000000000FF00FF00000000000000FF00000000000000FFFF000000000000000000000000FFFF0000000000
310
000000FF00000000000000FFFF000000000000000000000000FFFF0000000000000000FF0000000000000000FF0000000000000000000000FFFF000000000000000000000000000000000000FFFF00000000000000000000FFFF000000000000000000FF000000000000000000FF00000000000000000000FF000000000000
310
00000000FF000000000000000000FF000000000000000000FFFF000000FFFFFFFFFFFFFFFFFFFFFFFFFFFF00000000FF0000000000FFFFFFFFFFFFFFFFFFFFFFFFFFFFFFFFFFFFFFFFFFFFFFFFFFFFFFFFFFFF0000000000FFFF00000000000000000000FF000000000000000000FFFF000000000000000000FF0000000000
310
0000000000FF000000000000000000FF00000000000000000000FFFF000000000000000000000000000000000000FFFF0000000000000000000000FF000000000000000000FF0000000000000000FFFF0000000000000000000000FFFF0000000000000000FF00000000000000FFFF000000000000000000000000FFFF0000
310
000000000000FF00000000000000FFFF00000000000000000000000000FFFF00000000000000FF000000000000FFFF0000000000000000000000000000FFFFFFFF0000000000FF00000000FFFFFFFF00000000000000000000000000000000FFFFFFFF000000FF0000FFFFFFFF000000000000000000000000000000000000
310
000000FFFFFF00FFFFFFFFFF0000000000000000000000000000000000000000000000000000FFFFFF000000000000000000000000000000000000000000000000000000000000FF00000000000000000000000000000000000000000000000000000000000000FF0000000000000000000000000000000000000000000000
310
0000000000000000FF0000000000000000000000000000000000000000000000000000000000000000000000000000000000000000000000
102
{BLKREFS
331
32F
102
}
1001
ACAD
1000
DesignCenter Data
1002
{
1070
     1
1070
     4
1002
}
  0
BLOCK_RECORD
  5
330
330
1
100
AcDbSymbolTableRecord
100
AcDbBlockTableRecord
  2
3
340
0
310
2800000020000000200000000100080000000000000400000000000000000000000000000000000000000000000080000080000000808000800000008000800080800000C0C0C000C0DCC000F0CAA6000020400000206000002080000020A0000020C0000020E00000400000004020000040400000406000004080000040A0
310
000040C0000040E00000600000006020000060400000606000006080000060A0000060C0000060E00000800000008020000080400000806000008080000080A0000080C0000080E00000A0000000A0200000A0400000A0600000A0800000A0A00000A0C00000A0E00000C0000000C0200000C0400000C0600000C0800000C0
310
A00000C0C00000C0E00000E0000000E0200000E0400000E0600000E0800000E0A00000E0C00000E0E00040000000400020004000400040006000400080004000A0004000C0004000E00040200000402020004020400040206000402080004020A0004020C0004020E000404000004040200040404000404060004040800040
310
40A0004040C0004040E00040600000406020004060400040606000406080004060A0004060C0004060E00040800000408020004080400040806000408080004080A0004080C0004080E00040A0000040A0200040A0400040A0600040A0800040A0A00040A0C00040A0E00040C0000040C0200040C0400040C0600040C08000
310
40C0A00040C0C00040C0E00040E0000040E0200040E0400040E0600040E0800040E0A00040E0C00040E0E00080000000800020008000400080006000800080008000A0008000C0008000E00080200000802020008020400080206000802080008020A0008020C0008020E00080400000804020008040400080406000804080
310
008040A0008040C0008040E00080600000806020008060400080606000806080008060A0008060C0008060E00080800000808020008080400080806000808080008080A0008080C0008080E00080A0000080A0200080A0400080A0600080A0800080A0A00080A0C00080A0E00080C0000080C0200080C0400080C0600080C0
310
800080C0A00080C0C00080C0E00080E0000080E0200080E0400080E0600080E0800080E0A00080E0C00080E0E000C0000000C0002000C0004000C0006000C0008000C000A000C000C000C000E000C0200000C0202000C0204000C0206000C0208000C020A000C020C000C020E000C0400000C0402000C0404000C0406000C0
310
408000C040A000C040C000C040E000C0600000C0602000C0604000C0606000C0608000C060A000C060C000C060E000C0800000C0802000C0804000C0806000C0808000C080A000C080C000C080E000C0A00000C0A02000C0A04000C0A06000C0A08000C0A0A000C0A0C000C0A0E000C0C00000C0C02000C0C04000C0C06000
310
C0C08000C0C0A000F0FBFF00A4A0A000808080000000FF0000FF000000FFFF00FF000000FF00FF00FFFF0000FFFFFF0000000000000000000000000000000000000000000000000000000000000000000000000000000000000000000000000000000000000000000000000000000000000000000000000000000000000000
310
0000000000000000000000000000000000000000000000000000000000FFFFFFFFFFFFFF00000000000000000000000000000000000000000000FFFFFFFFFFFFFFFFFFFFFFFFFF0000000000000000000000000000000000FFFFFFFFFFFFFFFFFFFFFFFFFFFFFFFFFFFF00000000000000000000000000FFFFFFFFFFFFFFFF
310
FFFFFFFFFFFFFFFFFFFFFFFF0000000000000000000000FFFFFFFFFFFFFFFFFFFFFFFFFFFFFFFFFFFFFFFFFFFF000000000000000000FFFFFFFFFFFFFFFFFFFFFFFFFFFFFFFFFFFFFFFFFFFFFFFF0000000000000000FFFFFFFFFFFFFFFFFFFFFFFFFFFFFFFFFFFFFFFFFFFFFFFF0000000000000000FFFFFFFFFFFFFFFFFF
310
FFFFFFFFFFFFFFFFFFFFFFFFFFFFFF0000000000000000FFFFFFFFFFFFFFFFA4A4A4A4A4A4A4A4FFFFFFFFFFFFFFFF0000000000000000FFFFFFFFA4A4A4A400FFFFFFFFFFFF00A4A4A4A4FFFFFFFF0000000000000000FFFFA4A400FFFFFFFF0000000000FFFFFFFFFF00A4A4FFFF00000000000000FFFFA400FFFF000000
310
0000000000000000000000FFFF00A4FFFF0000000000FFFFA4FFFF000000000000000000000000000000000000FFFFA4FFFF00000000FFA4FFFF000000000000000000000000000000000000000000FFA4FF00000000FFFFFF00000000000000000000000000000000000000000000FFFFFFFF0000FFA4FF00000000000000
310
000000000000000000FFFF000000000000FFA4FF0000FFFF000000000000000000000000000000FFFFFFFF00000000000000FFFF0000FFFF00000000000000000000000000FFFFFF00000000000000000000FFFF000000FF0000000000000000000000FFFFFFFFFF00000000000000000000FF00000000FFFF000000000000
310
000000FFFFFFFF0000000000000000000000FFFF0000000000FF000000000000FFFFFFFFFF00000000000000000000000000FF000000000000FFFFFF00000000FFFFFF0000000000000000000000000000FFFF0000000000000000FFFF000000000000000000000000000000000000FFFF0000000000000000000000FFFFFF
310
0000000000000000000000000000FFFFFF0000000000000000000000000000FFFFFFFFFF000000000000FFFFFFFFFF0000000000000000000000000000000000000000FFFFFFFFFFFFFFFF00000000000000000000000000000000000000000000000000000000000000000000000000000000000000000000000000000000
310
0000000000000000000000000000000000000000000000000000000000000000000000000000000000000000000000000000000000000000
102
{BLKREFS
331
368
102
}
1001
ACAD
1000
DesignCenter Data
1002
{
1070
     1
1070
     4
1002
}
  0
ENDTAB
  0
ENDSEC
  0
SECTION
  2
BLOCKS
  0
BLOCK
  5
20
330
1F
100
AcDbEntity
  8
0
100
AcDbBlockBegin
  2
*Model_Space
 70
     0
 10
0.0
 20
0.0
 30
0.0
  3
*Model_Space
  1

  0
ENDBLK
  5
21
330
1F
100
AcDbEntity
  8
0
100
AcDbBlockEnd
  0
BLOCK
  5
D4
330
D2
100
AcDbEntity
 67
     1
  8
0
100
AcDbBlockBegin
  2
*Paper_Space
 70
     0
 10
0.0
 20
0.0
 30
0.0
  3
*Paper_Space
  1

  0
ENDBLK
  5
D5
330
D2
100
AcDbEntity
 67
     1
  8
0
100
AcDbBlockEnd
  0
BLOCK
  5
D8
330
D6
100
AcDbEntity
 67
     1
  8
0
100
AcDbBlockBegin
  2
*Paper_Space0
 70
     0
 10
0.0
 20
0.0
 30
0.0
  3
*Paper_Space0
  1

  0
ENDBLK
  5
D9
330
D6
100
AcDbEntity
 67
     1
  8
0
100
AcDbBlockEnd
  0
BLOCK
  5
1AE
330
1AD
100
AcDbEntity
  8
0
100
AcDbBlockBegin
  2
SW_CENTERMARKSYMBOL_0
 70
     0
 10
0.0
 20
0.0
 30
0.0
  3
SW_CENTERMARKSYMBOL_0
  1

  0
LINE
  5
1AF
330
1AD
100
AcDbEntity
  8
0
  6
Continuous
 62
     0
370
     0
100
AcDbLine
 10
0.0
 20
0.0
 30
0.0
 11
0.0
 21
2.500000000000002
 31
0.0
  0
LINE
  5
1B0
330
1AD
100
AcDbEntity
  8
0
  6
Continuous
 62
     0
370
     0
100
AcDbLine
 10
0.0
 20
0.0
 30
0.0
 11
-2.500000000000002
 21
0.0
 31
0.0
  0
LINE
  5
1B1
330
1AD
100
AcDbEntity
  8
0
  6
Continuous
 62
     0
370
     0
100
AcDbLine
 10
0.0
 20
0.0
 30
0.0
 11
0.0
 21
-2.499999999999974
 31
0.0
  0
LINE
  5
1B2
330
1AD
100
AcDbEntity
  8
0
  6
Continuous
 62
     0
370
     0
100
AcDbLine
 10
0.0
 20
0.0
 30
0.0
 11
2.500000000000002
 21
0.0
 31
0.0
  0
LINE
  5
1B3
330
1AD
100
AcDbEntity
  8
0
  6
Continuous
 62
     0
370
     0
100
AcDbLine
 10
0.0
 20
5.000000000000004
 30
0.0
 11
0.0
 21
16.25000000000001
 31
0.0
  0
LINE
  5
1B4
330
1AD
100
AcDbEntity
  8
0
  6
Continuous
 62
     0
370
     0
100
AcDbLine
 10
-5.000000000000004
 20
0.0
 30
0.0
 11
-16.24999999999998
 21
0.0
 31
0.0
  0
LINE
  5
1B5
330
1AD
100
AcDbEntity
  8
0
  6
Continuous
 62
     0
370
     0
100
AcDbLine
 10
0.0
 20
-4.999999999999976
 30
0.0
 11
0.0
 21
-16.24999999999998
 31
0.0
  0
LINE
  5
1B6
330
1AD
100
AcDbEntity
  8
0
  6
Continuous
 62
     0
370
     0
100
AcDbLine
 10
5.000000000000004
 20
0.0
 30
0.0
 11
16.24999999999998
 21
0.0
 31
0.0
  0
ENDBLK
  5
1B7
330
1AD
100
AcDbEntity
  8
0
100
AcDbBlockEnd
  0
BLOCK
  5
2D3
330
2D2
100
AcDbEntity
  8
0
100
AcDbBlockBegin
  2
1
 70
     0
 10
0.0
 20
0.0
 30
0.0
  3
1
  1

  0
LINE
  5
2D5
330
2D2
100
AcDbEntity
  8
0
  6
Continuous
 62
     7
370
    15
100
AcDbLine
 10
2069.998963988886
 20
1141.647059898617
 30
0.0
 11
2069.998963988886
 21
1142.858641606703
 31
0.0
  0
LINE
  5
2D6
330
2D2
100
AcDbEntity
  8
0
  6
Continuous
 62
     7
370
    15
100
AcDbLine
 10
2042.498963988885
 20
1142.858641606703
 30
0.0
 11
2042.498963988885
 21
1141.647059898617
 31
0.0
  0
ARC
  5
2D7
330
2D2
100
AcDbEntity
  8
0
  6
Continuous
 62
     7
370
    15
100
AcDbCircle
 10
2068.998963988885
 20
1142.858641606703
 30
0.0
 40
0.9999999999999856
100
AcDbArc
 50
0.0
 51
76.83642621089962
  0
ARC
  5
2D8
330
2D2
100
AcDbEntity
  8
0
  6
Continuous
 62
     7
370
    15
100
AcDbCircle
 10
2043.498963988885
 20
1142.858641606703
 30
0.0
 40
0.9999999999999856
100
AcDbArc
 50
103.1635737891004
 51
180.0
  0
ARC
  5
2D9
330
2D2
100
AcDbEntity
  8
0
  6
Continuous
 62
     7
370
    15
100
AcDbCircle
 10
2058.998963988885
 20
1076.584559898616
 30
0.0
 40
69.06250000000127
100
AcDbArc
 50
98.10828775227289
 51
103.1635737890877
  0
ARC
  5
2DA
330
2D2
100
AcDbEntity
  8
0
  6
Continuous
 62
     7
370
    15
100
AcDbCircle
 10
2053.498963988886
 20
1076.584559898616
 30
0.0
 40
69.06250000000127
100
AcDbArc
 50
76.83642621091229
 51
81.89174174588835
  0
SPLINE
  5
2DB
330
2D2
100
AcDbEntity
  8
0
  6
Continuous
 62
     7
370
    15
100
AcDbSpline
210
0.0
220
0.0
230
1.0
 70
     8
 71
     3
 72
     9
 73
     5
 74
     0
 42
0.0000000001
 43
0.0000000001
 40
0.0
 40
0.0
 40
0.0
 40
0.0
 40
0.4923829437754087
 40
1.0
 40
1.0
 40
1.0
 40
1.0
 10
2045.774785802966
 20
1141.047311760113
 30
0.0
 10
2045.664731153438
 20
1140.973303801325
 30
0.0
 10
2045.441216811766
 20
1140.822998109944
 30
0.0
 10
2045.217699045323
 20
1140.672697350662
 30
0.0
 10
2045.104237614706
 20
1140.596402121687
 30
0.0
  0
SPLINE
  5
2DC
330
2D2
100
AcDbEntity
  8
0
  6
Continuous
 62
     7
370
    15
100
AcDbSpline
210
0.0
220
0.0
230
1.0
 70
     8
 71
     3
 72
     9
 73
     5
 74
     0
 42
0.0000000001
 43
0.0000000001
 40
0.0
 40
0.0
 40
0.0
 40
0.0
 40
0.4922791409359252
 40
1.0
 40
1.0
 40
1.0
 40
1.0
 10
2045.774786822027
 20
1139.547311396798
 30
0.0
 10
2045.664775152021
 20
1139.473332308526
 30
0.0
 10
2045.441300986943
 20
1139.323053570061
 30
0.0
 10
2045.217823490949
 20
1139.172779999264
 30
0.0
 10
2045.104359304701
 20
1139.096482972804
 30
0.0
  0
SPLINE
  5
2DD
330
2D2
100
AcDbEntity
  8
0
  6
Continuous
 62
     7
370
    15
100
AcDbSpline
210
0.0
220
0.0
230
1.0
 70
     8
 71
     3
 72
     9
 73
     5
 74
     0
 42
0.0000000001
 43
0.0000000001
 40
0.0
 40
0.0
 40
0.0
 40
0.0
 40
0.4921697567762824
 40
1.0
 40
1.0
 40
1.0
 40
1.0
 10
2045.774788399177
 20
1138.047310164644
 30
0.0
 10
2045.664827348301
 20
1137.973365009502
 30
0.0
 10
2045.441406365272
 20
1137.82312181775
 30
0.0
 10
2045.217981465849
 20
1137.67288359042
 30
0.0
 10
2045.104519544834
 20
1137.596588074893
 30
0.0
  0
SPLINE
  5
2DE
330
2D2
100
AcDbEntity
  8
0
  6
Continuous
 62
     7
370
    15
100
AcDbSpline
210
0.0
220
0.0
230
1.0
 70
     8
 71
     3
 72
     9
 73
     5
 74
     0
 42
0.0000000001
 43
0.0000000001
 40
0.0
 40
0.0
 40
0.0
 40
0.0
 40
0.4924138144776168
 40
1.0
 40
1.0
 40
1.0
 40
1.0
 10
2045.774789453542
 20
1136.547314308276
 30
0.0
 10
2045.664720488802
 20
1136.473296740397
 30
0.0
 10
2045.441191088319
 20
1136.322980957813
 30
0.0
 10
2045.217658426553
 20
1136.172670167407
 30
0.0
 10
2045.104196335428
 20
1136.096374486661
 30
0.0
  0
SPLINE
  5
2DF
330
2D2
100
AcDbEntity
  8
0
  6
Continuous
 62
     7
370
    15
100
AcDbSpline
210
0.0
220
0.0
230
1.0
 70
     8
 71
     3
 72
     9
 73
     5
 74
     0
 42
0.0000000001
 43
0.0000000001
 40
0.0
 40
0.0
 40
0.0
 40
0.0
 40
0.4923839511546336
 40
1.0
 40
1.0
 40
1.0
 40
1.0
 10
2045.77478577279
 20
1135.047311745376
 30
0.0
 10
2045.664729278167
 20
1134.973302552555
 30
0.0
 10
2045.441211646521
 20
1134.822994662446
 30
0.0
 10
2045.217690775305
 20
1134.672691823606
 30
0.0
 10
2045.104227993824
 20
1134.596395690424
 30
0.0
  0
SPLINE
  5
2E0
330
2D2
100
AcDbEntity
  8
0
  6
Continuous
 62
     7
370
    15
100
AcDbSpline
210
0.0
220
0.0
230
1.0
 70
     8
 71
     3
 72
     9
 73
     5
 74
     0
 42
0.0000000001
 43
0.0000000001
 40
0.0
 40
0.0
 40
0.0
 40
0.0
 40
0.4924535170961648
 40
1.0
 40
1.0
 40
1.0
 40
1.0
 10
2045.774786168507
 20
1133.547312084309
 30
0.0
 10
2045.664698634142
 20
1133.473282047854
 30
0.0
 10
2045.441149546677
 20
1133.32295306474
 30
0.0
 10
2045.217597449631
 20
1133.172629165614
 30
0.0
 10
2045.104134369029
 20
1133.096332799316
 30
0.0
  0
SPLINE
  5
2E1
330
2D2
100
AcDbEntity
  8
0
  6
Continuous
 62
     7
370
    15
100
AcDbSpline
210
0.0
220
0.0
230
1.0
 70
     8
 71
     3
 72
     9
 73
     5
 74
     0
 42
0.0000000001
 43
0.0000000001
 40
0.0
 40
0.0
 40
0.0
 40
0.0
 40
0.4923263276034228
 40
0.9999999999999998
 40
0.9999999999999998
 40
0.9999999999999998
 40
0.9999999999999998
 10
2045.774786855737
 20
1132.047312028621
 30
0.0
 10
2045.66475515285
 20
1131.97331948359
 30
0.0
 10
2045.441261716245
 20
1131.823027815477
 30
0.0
 10
2045.217764969686
 20
1131.672741250225
 30
0.0
 10
2045.104301555591
 20
1131.596444717732
 30
0.0
  0
SPLINE
  5
2E2
330
2D2
100
AcDbEntity
  8
0
  6
Continuous
 62
     7
370
    15
100
AcDbSpline
210
0.0
220
0.0
230
1.0
 70
     8
 71
     3
 72
     9
 73
     5
 74
     0
 42
0.0000000001
 43
0.0000000001
 40
0.0
 40
0.0
 40
0.0
 40
0.0
 40
0.5000052534237386
 40
0.9999999999999998
 40
0.9999999999999998
 40
0.9999999999999998
 40
0.9999999999999998
 10
2067.393545052968
 20
1132.346498561287
 30
0.0
 10
2067.280084404838
 20
1132.42279326132
 30
0.0
 10
2067.053165492782
 20
1132.57538105817
 30
0.0
 10
2066.82625043919
 20
1132.727973789704
 30
0.0
 10
2066.712794104475
 20
1132.804269353836
 30
0.0
  0
SPLINE
  5
2E3
330
2D2
100
AcDbEntity
  8
0
  6
Continuous
 62
     7
370
    15
100
AcDbSpline
210
0.0
220
0.0
230
1.0
 70
     8
 71
     3
 72
     9
 73
     5
 74
     0
 42
0.0000000001
 43
0.0000000001
 40
0.0
 40
0.0
 40
0.0
 40
0.0
 40
0.5000055503458114
 40
1.0
 40
1.0
 40
1.0
 40
1.0
 10
2067.393562956663
 20
1133.84648674853
 30
0.0
 10
2067.280099147343
 20
1133.922783534457
 30
0.0
 10
2067.053174047728
 20
1134.075375412436
 30
0.0
 10
2066.826252389043
 20
1134.227972504183
 30
0.0
 10
2066.712792819194
 20
1134.30427020309
 30
0.0
  0
SPLINE
  5
2E4
330
2D2
100
AcDbEntity
  8
0
  6
Continuous
 62
     7
370
    15
100
AcDbSpline
210
0.0
220
0.0
230
1.0
 70
     8
 71
     3
 72
     9
 73
     5
 74
     0
 42
0.0000000001
 43
0.0000000001
 40
0.0
 40
0.0
 40
0.0
 40
0.0
 40
0.5000047255298136
 40
0.9999999999999998
 40
0.9999999999999998
 40
0.9999999999999998
 40
0.9999999999999998
 10
2067.393728173083
 20
1135.346376813346
 30
0.0
 10
2067.280273344046
 20
1135.422667636992
 30
0.0
 10
2067.053365830491
 20
1135.575247842241
 30
0.0
 10
2066.826462474337
 20
1135.727832486212
 30
0.0
 10
2066.713011868499
 20
1135.804124087154
 30
0.0
  0
SPLINE
  5
2E5
330
2D2
100
AcDbEntity
  8
0
  6
Continuous
 62
     7
370
    15
100
AcDbSpline
210
0.0
220
0.0
230
1.0
 70
     8
 71
     3
 72
     9
 73
     5
 74
     0
 42
0.0000000001
 43
0.0000000001
 40
0.0
 40
0.0
 40
0.0
 40
0.0
 40
0.5000055203674343
 40
1.0
 40
1.0
 40
1.0
 40
1.0
 10
2067.393641727333
 20
1136.846434544819
 30
0.0
 10
2067.280178275549
 20
1136.922731116254
 30
0.0
 10
2067.053253877394
 20
1137.075322574403
 30
0.0
 10
2066.826332803079
 20
1137.22791921822
 30
0.0
 10
2066.712873518609
 20
1137.30421669774
 30
0.0
  0
SPLINE
  5
2E6
330
2D2
100
AcDbEntity
  8
0
  6
Continuous
 62
     7
370
    15
100
AcDbSpline
210
0.0
220
0.0
230
1.0
 70
     8
 71
     3
 72
     9
 73
     5
 74
     0
 42
0.0000000001
 43
0.0000000001
 40
0.0
 40
0.0
 40
0.0
 40
0.0
 40
0.5000053851529886
 40
1.0
 40
1.0
 40
1.0
 40
1.0
 10
2067.393706841711
 20
1138.346391102674
 30
0.0
 10
2067.280244844747
 20
1138.422686722976
 30
0.0
 10
2067.053323294834
 20
1138.575276320144
 30
0.0
 10
2066.826405117752
 20
1138.727870975958
 30
0.0
 10
2066.7129472512
 20
1138.80416748212
 30
0.0
  0
SPLINE
  5
2E7
330
2D2
100
AcDbEntity
  8
0
  6
Continuous
 62
     7
370
    15
100
AcDbSpline
210
0.0
220
0.0
230
1.0
 70
     8
 71
     3
 72
     9
 73
     5
 74
     0
 42
0.0000000001
 43
0.0000000001
 40
0.0
 40
0.0
 40
0.0
 40
0.0
 40
0.5000055817113505
 40
1.0
 40
1.0
 40
1.0
 40
1.0
 10
2067.393789137337
 20
1139.846335815649
 30
0.0
 10
2067.28032514919
 20
1139.922632800344
 30
0.0
 10
2067.053399706161
 20
1140.075225066281
 30
0.0
 10
2066.826477207692
 20
1140.227822575695
 30
0.0
 10
2066.713017225073
 20
1140.304120478646
 30
0.0
  0
LINE
  5
2E8
330
2D2
100
AcDbEntity
  8
0
  6
Continuous
 62
     7
370
    15
100
AcDbLine
 10
2045.098963988885
 20
1131.589349489773
 30
0.0
 11
2045.098963988885
 21
1131.347059898617
 31
0.0
  0
LINE
  5
2E9
330
2D2
100
AcDbEntity
  8
0
  6
Continuous
 62
     7
370
    15
100
AcDbLine
 10
2045.098963988885
 20
1133.089391248961
 30
0.0
 11
2045.098963988885
 21
1132.591775210451
 31
0.0
  0
LINE
  5
2EA
330
2D2
100
AcDbEntity
  8
0
  6
Continuous
 62
     7
370
    15
100
AcDbLine
 10
2045.098963988885
 20
1134.58935236172
 30
0.0
 11
2045.098963988885
 21
1134.091774629716
 31
0.0
  0
LINE
  5
2EB
330
2D2
100
AcDbEntity
  8
0
  6
Continuous
 62
     7
370
    15
100
AcDbLine
 10
2045.098963988885
 20
1136.089411381045
 30
0.0
 11
2045.098963988885
 21
1135.591843420209
 31
0.0
  0
LINE
  5
2EC
330
2D2
100
AcDbEntity
  8
0
  6
Continuous
 62
     7
370
    15
100
AcDbLine
 10
2045.098963988885
 20
1137.589436588734
 30
0.0
 11
2045.098963988885
 21
1137.091855885972
 31
0.0
  0
LINE
  5
2ED
330
2D2
100
AcDbEntity
  8
0
  6
Continuous
 62
     7
370
    15
100
AcDbLine
 10
2045.098963988885
 20
1139.089396426275
 30
0.0
 11
2045.098963988885
 21
1138.591817128524
 31
0.0
  0
LINE
  5
2EE
330
2D2
100
AcDbEntity
  8
0
  6
Continuous
 62
     7
370
    15
100
AcDbLine
 10
2045.098963988885
 20
1140.589405412868
 30
0.0
 11
2045.098963988885
 21
1140.091774984707
 31
0.0
  0
LINE
  5
2EF
330
2D2
100
AcDbEntity
  8
0
  6
Continuous
 62
     7
370
    15
100
AcDbLine
 10
2045.098963988885
 20
1141.647059898617
 30
0.0
 11
2045.098963988885
 21
1141.591796589884
 31
0.0
  0
LINE
  5
2F0
330
2D2
100
AcDbEntity
  8
0
  6
Continuous
 62
     7
370
    15
100
AcDbLine
 10
2067.398963988885
 20
1140.841836890564
 30
0.0
 11
2067.398963988885
 21
1141.339397482828
 31
0.0
  0
LINE
  5
2F1
330
2D2
100
AcDbEntity
  8
0
  6
Continuous
 62
     7
370
    15
100
AcDbLine
 10
2067.398963988885
 20
1139.341868478144
 30
0.0
 11
2067.398963988885
 21
1139.839386412157
 31
0.0
  0
LINE
  5
2F2
330
2D2
100
AcDbEntity
  8
0
  6
Continuous
 62
     7
370
    15
100
AcDbLine
 10
2067.398963988885
 20
1137.841781652391
 30
0.0
 11
2067.398963988885
 21
1138.339354378709
 31
0.0
  0
LINE
  5
2F3
330
2D2
100
AcDbEntity
  8
0
  6
Continuous
 62
     7
370
    15
100
AcDbLine
 10
2067.398963988885
 20
1136.341791932489
 30
0.0
 11
2067.398963988885
 21
1136.839373114834
 31
0.0
  0
LINE
  5
2F4
330
2D2
100
AcDbEntity
  8
0
  6
Continuous
 62
     7
370
    15
100
AcDbLine
 10
2067.398963988885
 20
1134.84182858513
 30
0.0
 11
2067.398963988885
 21
1135.3394092789
 31
0.0
  0
LINE
  5
2F5
330
2D2
100
AcDbEntity
  8
0
  6
Continuous
 62
     7
370
    15
100
AcDbLine
 10
2067.398963988885
 20
1133.341866051863
 30
0.0
 11
2067.398963988885
 21
1133.839443236789
 31
0.0
  0
LINE
  5
2F6
330
2D2
100
AcDbEntity
  8
0
  6
Continuous
 62
     7
370
    15
100
AcDbLine
 10
2067.398963988885
 20
1131.841868377711
 30
0.0
 11
2067.398963988885
 21
1132.339406605413
 31
0.0
  0
SPLINE
  5
2F7
330
2D2
100
AcDbEntity
  8
0
  6
Continuous
 62
     7
370
    15
100
AcDbSpline
210
0.0
220
0.0
230
1.0
 70
     8
 71
     3
 72
     9
 73
     5
 74
     0
 42
0.0000000001
 43
0.0000000001
 40
0.0
 40
0.0
 40
0.0
 40
0.0
 40
0.5000033910020018
 40
1.0
 40
1.0
 40
1.0
 40
1.0
 10
2045.10266228735
 20
1141.585960393294
 30
0.0
 10
2045.216107294784
 20
1141.495045591542
 30
0.0
 10
2045.442995770892
 20
1141.313217221201
 30
0.0
 10
2045.669881324474
 20
1141.131385058752
 30
0.0
 10
2045.783323331896
 20
1141.040469594121
 30
0.0
  0
SPLINE
  5
2F8
330
2D2
100
AcDbEntity
  8
0
  6
Continuous
 62
     7
370
    15
100
AcDbSpline
210
0.0
220
0.0
230
1.0
 70
     8
 71
     3
 72
     9
 73
     5
 74
     0
 42
0.0000000001
 43
0.0000000001
 40
0.0
 40
0.0
 40
0.0
 40
0.0
 40
0.5000034305548131
 40
1.0
 40
1.0
 40
1.0
 40
1.0
 10
2045.102717244259
 20
1140.085916788991
 30
0.0
 10
2045.21616275184
 20
1139.99500161114
 30
0.0
 10
2045.443052210288
 20
1139.813172502989
 30
0.0
 10
2045.669938688768
 20
1139.631339558526
 30
0.0
 10
2045.783381149661
 20
1139.540423710083
 30
0.0
  0
SPLINE
  5
2F9
330
2D2
100
AcDbEntity
  8
0
  6
Continuous
 62
     7
370
    15
100
AcDbSpline
210
0.0
220
0.0
230
1.0
 70
     8
 71
     3
 72
     9
 73
     5
 74
     0
 42
0.0000000001
 43
0.0000000001
 40
0.0
 40
0.0
 40
0.0
 40
0.0
 40
0.5000034035583729
 40
1.0
 40
1.0
 40
1.0
 40
1.0
 10
2045.10272209479
 20
1138.585912955671
 30
0.0
 10
2045.216167283796
 20
1138.494998030842
 30
0.0
 10
2045.443056117351
 20
1138.313169418911
 30
0.0
 10
2045.669941925923
 20
1138.131337000875
 30
0.0
 10
2045.783384057989
 20
1138.040421410735
 30
0.0
  0
SPLINE
  5
2FA
330
2D2
100
AcDbEntity
  8
0
  6
Continuous
 62
     7
370
    15
100
AcDbSpline
210
0.0
220
0.0
230
1.0
 70
     8
 71
     3
 72
     9
 73
     5
 74
     0
 42
0.0000000001
 43
0.0000000001
 40
0.0
 40
0.0
 40
0.0
 40
0.0
 40
0.5000033988442173
 40
1.0
 40
1.0
 40
1.0
 40
1.0
 10
2045.102951059725
 20
1137.08573471231
 30
0.0
 10
2045.216396270808
 20
1136.994819813552
 30
0.0
 10
2045.443285150654
 20
1136.812991252049
 30
0.0
 10
2045.67017055248
 20
1136.631158889902
 30
0.0
 10
2045.783612482244
 20
1136.540243326848
 30
0.0
  0
SPLINE
  5
2FB
330
2D2
100
AcDbEntity
  8
0
  6
Continuous
 62
     7
370
    15
100
AcDbSpline
210
0.0
220
0.0
230
1.0
 70
     8
 71
     3
 72
     9
 73
     5
 74
     0
 42
0.0000000001
 43
0.0000000001
 40
0.0
 40
0.0
 40
0.0
 40
0.0
 40
0.5000022421753937
 40
1.0
 40
1.0
 40
1.0
 40
1.0
 10
2045.102662399869
 20
1135.585960303692
 30
0.0
 10
2045.21609241001
 20
1135.495057445326
 30
0.0
 10
2045.442951412979
 20
1135.313252543871
 30
0.0
 10
2045.669806237757
 20
1135.131445135397
 30
0.0
 10
2045.783233141498
 20
1135.040541838804
 30
0.0
  0
SPLINE
  5
2FC
330
2D2
100
AcDbEntity
  8
0
  6
Continuous
 62
     7
370
    15
100
AcDbSpline
210
0.0
220
0.0
230
1.0
 70
     8
 71
     3
 72
     9
 73
     5
 74
     0
 42
0.0000000001
 43
0.0000000001
 40
0.0
 40
0.0
 40
0.0
 40
0.0
 40
0.5000034139591071
 40
1.0
 40
1.0
 40
1.0
 40
1.0
 10
2045.102732789008
 20
1134.085904512792
 30
0.0
 10
2045.216178107451
 20
1133.994989489343
 30
0.0
 10
2045.443067195158
 20
1133.813160683956
 30
0.0
 10
2045.669953250258
 20
1133.631328060837
 30
0.0
 10
2045.783395503228
 20
1133.540412370047
 30
0.0
  0
SPLINE
  5
2FD
330
2D2
100
AcDbEntity
  8
0
  6
Continuous
 62
     7
370
    15
100
AcDbSpline
210
0.0
220
0.0
230
1.0
 70
     8
 71
     3
 72
     9
 73
     5
 74
     0
 42
0.0000000001
 43
0.0000000001
 40
0.0
 40
0.0
 40
0.0
 40
0.0
 40
0.5000034164638781
 40
1.0
 40
1.0
 40
1.0
 40
1.0
 10
2045.102768406184
 20
1132.585876478882
 30
0.0
 10
2045.216213771842
 20
1132.494961429028
 30
0.0
 10
2045.443102952838
 20
1132.313132571743
 30
0.0
 10
2045.669989034022
 20
1132.131299893954
 30
0.0
 10
2045.783431299466
 20
1132.040384176284
 30
0.0
  0
SPLINE
  5
2FE
330
2D2
100
AcDbEntity
  8
0
  6
Continuous
 62
     7
370
    15
100
AcDbSpline
210
0.0
220
0.0
230
1.0
 70
     8
 71
     3
 72
     9
 73
     5
 74
     0
 42
0.0000000001
 43
0.0000000001
 40
0.0
 40
0.0
 40
0.0
 40
0.0
 40
0.4453312019566705
 40
1.0
 40
1.0
 40
1.0
 40
1.0
 10
2066.781707729616
 20
1131.344247416818
 30
0.0
 10
2066.872788549297
 20
1131.417241976758
 30
0.0
 10
2067.077312326839
 20
1131.581152701222
 30
0.0
 10
2067.281838766309
 20
1131.745060057419
 30
0.0
 10
2067.395283200658
 20
1131.835974353672
 30
0.0
  0
SPLINE
  5
2FF
330
2D2
100
AcDbEntity
  8
0
  6
Continuous
 62
     7
370
    15
100
AcDbSpline
210
0.0
220
0.0
230
1.0
 70
     8
 71
     3
 72
     9
 73
     5
 74
     0
 42
0.0000000001
 43
0.0000000001
 40
0.0
 40
0.0
 40
0.0
 40
0.0
 40
0.4937119213536216
 40
0.9999999999999998
 40
0.9999999999999998
 40
0.9999999999999998
 40
0.9999999999999998
 10
2066.723141476273
 20
1132.797311152002
 30
0.0
 10
2066.833766062885
 20
1132.885968619186
 30
0.0
 10
2067.057833138903
 20
1133.06554189532
 30
0.0
 10
2067.281903054904
 20
1133.245111522987
 30
0.0
 10
2067.395346982159
 20
1133.336025484761
 30
0.0
  0
SPLINE
  5
300
330
2D2
100
AcDbEntity
  8
0
  6
Continuous
 62
     7
370
    15
100
AcDbSpline
210
0.0
220
0.0
230
1.0
 70
     8
 71
     3
 72
     9
 73
     5
 74
     0
 42
0.0000000001
 43
0.0000000001
 40
0.0
 40
0.0
 40
0.0
 40
0.0
 40
0.4935793380547841
 40
1.0
 40
1.0
 40
1.0
 40
1.0
 10
2066.723140870732
 20
1134.297311547859
 30
0.0
 10
2066.833708584236
 20
1134.385923498837
 30
0.0
 10
2067.057720622383
 20
1134.565452794628
 30
0.0
 10
2067.281735627473
 20
1134.744978274821
 30
0.0
 10
2067.395181454636
 20
1134.835893687336
 30
0.0
  0
SPLINE
  5
301
330
2D2
100
AcDbEntity
  8
0
  6
Continuous
 62
     7
370
    15
100
AcDbSpline
210
0.0
220
0.0
230
1.0
 70
     8
 71
     3
 72
     9
 73
     5
 74
     0
 42
0.0000000001
 43
0.0000000001
 40
0.0
 40
0.0
 40
0.0
 40
0.0
 40
0.4940247443542208
 40
1.0
 40
1.0
 40
1.0
 40
1.0
 10
2066.723134992914
 20
1135.797316690581
 30
0.0
 10
2066.833894761918
 20
1135.886082256383
 30
0.0
 10
2067.05809359056
 20
1136.065760636497
 30
0.0
 10
2067.282294869293
 20
1136.245435683033
 30
0.0
 10
2067.395735168615
 20
1136.336346810637
 30
0.0
  0
SPLINE
  5
302
330
2D2
100
AcDbEntity
  8
0
  6
Continuous
 62
     7
370
    15
100
AcDbSpline
210
0.0
220
0.0
230
1.0
 70
     8
 71
     3
 72
     9
 73
     5
 74
     0
 42
0.0000000001
 43
0.0000000001
 40
0.0
 40
0.0
 40
0.0
 40
0.0
 40
0.4936908645756359
 40
1.0
 40
1.0
 40
1.0
 40
1.0
 10
2066.723142033243
 20
1137.297311529611
 30
0.0
 10
2066.833758125734
 20
1137.385962201266
 30
0.0
 10
2067.05781755326
 20
1137.565529371768
 30
0.0
 10
2067.281879775604
 20
1137.745092818367
 30
0.0
 10
2067.39532452568
 20
1137.836007431769
 30
0.0
  0
SPLINE
  5
303
330
2D2
100
AcDbEntity
  8
0
  6
Continuous
 62
     7
370
    15
100
AcDbSpline
210
0.0
220
0.0
230
1.0
 70
     8
 71
     3
 72
     9
 73
     5
 74
     0
 42
0.0000000001
 43
0.0000000001
 40
0.0
 40
0.0
 40
0.0
 40
0.0
 40
0.4937032908196525
 40
1.0
 40
1.0
 40
1.0
 40
1.0
 10
2066.723142260467
 20
1138.797311744511
 30
0.0
 10
2066.833763157016
 20
1138.885966259154
 30
0.0
 10
2067.057826675745
 20
1139.065536694053
 30
0.0
 10
2067.281893039624
 20
1139.245103468461
 30
0.0
 10
2067.395337102295
 20
1139.336017535423
 30
0.0
  0
SPLINE
  5
304
330
2D2
100
AcDbEntity
  8
0
  6
Continuous
 62
     7
370
    15
100
AcDbSpline
210
0.0
220
0.0
230
1.0
 70
     8
 71
     3
 72
     9
 73
     5
 74
     0
 42
0.0000000001
 43
0.0000000001
 40
0.0
 40
0.0
 40
0.0
 40
0.0
 40
0.4935778987375028
 40
0.9999999999999998
 40
0.9999999999999998
 40
0.9999999999999998
 40
0.9999999999999998
 10
2066.723141663715
 20
1140.29731219854
 30
0.0
 10
2066.833708879265
 20
1140.385923748915
 30
0.0
 10
2067.057720561782
 20
1140.565452756598
 30
0.0
 10
2067.281735197022
 20
1140.744977936127
 30
0.0
 10
2067.395181159314
 20
1140.835893454773
 30
0.0
  0
LINE
  5
305
330
2D2
100
AcDbEntity
  8
0
  6
Continuous
 62
     7
370
    15
100
AcDbLine
 10
2042.498963988885
 20
1141.647059898617
 30
0.0
 11
2069.998963988886
 21
1141.647059898617
 31
0.0
  0
SPLINE
  5
306
330
2D2
100
AcDbEntity
  8
0
  6
Continuous
 62
     7
370
    15
100
AcDbSpline
210
0.0
220
0.0
230
1.0
 70
     8
 71
     3
 72
    12
 73
     8
 74
     0
 42
0.0000000001
 43
0.0000000001
 40
0.0
 40
0.0
 40
0.0
 40
0.0
 40
0.2171213366318144
 40
0.4342740988275516
 40
0.6505274867954478
 40
0.8650463802558762
 40
1.0
 40
1.0
 40
1.0
 40
1.0
 10
2049.948963988885
 20
1145.046397249569
 30
0.0
 10
2049.869806883865
 20
1145.035986445535
 30
0.0
 10
2049.711481216837
 20
1145.015163330636
 30
0.0
 10
2049.500117651912
 20
1144.987715252773
 30
0.0
 10
2049.343531195003
 20
1144.967504451752
 30
0.0
 10
2049.256283399099
 20
1144.956299953094
 30
0.0
 10
2049.257594577187
 20
1144.956468540325
 30
0.0
 10
2049.258100906648
 20
1144.956533642604
 30
0.0
  0
SPLINE
  5
307
330
2D2
100
AcDbEntity
  8
0
  6
Continuous
 62
     7
370
    15
100
AcDbSpline
210
0.0
220
0.0
230
1.0
 70
     8
 71
     3
 72
    18
 73
    14
 74
     0
 42
0.0000000001
 43
0.0000000001
 40
0.0
 40
0.0
 40
0.0
 40
0.0
 40
0.25
 40
0.25
 40
0.375
 40
0.375
 40
0.5
 40
0.5
 40
0.625
 40
0.625
 40
0.7499999999999999
 40
0.7499999999999999
 40
1.0
 40
1.0
 40
1.0
 40
1.0
 10
2062.548963988885
 20
1145.046397249569
 30
0.0
 10
2061.504499038127
 20
1145.184208920294
 30
0.0
 10
2060.458069832691
 20
1145.2979655416
 30
0.0
 10
2058.88540326484
 20
1145.431582547822
 30
0.0
 10
2058.360687053805
 20
1145.47007156168
 30
0.0
 10
2057.310075609882
 20
1145.532610815642
 30
0.0
 10
2056.784497256848
 20
1145.560541693336
 30
0.0
 10
2055.728826479498
 20
1145.561122324046
 30
0.0
 10
2055.201496997863
 20
1145.533303096891
 30
0.0
 10
2054.148132563783
 20
1145.470837079711
 30
0.0
 10
2053.621940322951
 20
1145.432319193885
 30
0.0
 10
2052.044592597663
 20
1145.298493029279
 30
0.0
 10
2050.995344322261
 20
1145.184461644982
 30
0.0
 10
2049.948963988885
 20
1145.046397249569
 30
0.0
  0
SPLINE
  5
308
330
2D2
100
AcDbEntity
  8
0
  6
Continuous
 62
     7
370
    15
100
AcDbSpline
210
0.0
220
0.0
230
1.0
 70
     8
 71
     3
 72
    13
 73
     9
 74
     0
 42
0.0000000001
 43
0.0000000001
 40
0.0
 40
0.0
 40
0.0
 40
0.0
 40
0.0779493945411565
 40
0.2900037644999433
 40
0.5024297977229733
 40
0.7161666446348911
 40
0.9316324751359591
 40
1.0
 40
1.0
 40
1.0
 40
1.0
 10
2063.239827001356
 20
1144.956533651561
 30
0.0
 10
2063.242250433342
 20
1144.956222539849
 30
0.0
 10
2063.251266595726
 20
1144.955065076494
 30
0.0
 10
2063.18562012991
 20
1144.963491195365
 30
0.0
 10
2063.050662069267
 20
1144.980878693511
 30
0.0
 10
2062.854555987046
 20
1145.006304205636
 30
0.0
 10
2062.676962229982
 20
1145.02952623501
 30
0.0
 10
2062.57381038599
 20
1145.043122330135
 30
0.0
 10
2062.548963988885
 20
1145.046397249569
 30
0.0
  0
SPLINE
  5
309
330
2D2
100
AcDbEntity
  8
0
  6
Continuous
 62
     7
370
    15
100
AcDbSpline
210
0.0
220
0.0
230
1.0
 70
     8
 71
     3
 72
    40
 73
    36
 74
     0
 42
0.0000000001
 43
0.0000000001
 40
0.0
 40
0.0
 40
0.0
 40
0.0
 40
0.0329881684843818
 40
0.0661069803277639
 40
0.0992042763533656
 40
0.1321284881909694
 40
0.1647327587517137
 40
0.1968787467182811
 40
0.2266813886183065
 40
0.2568867818140949
 40
0.287385358883657
 40
0.3180608582827018
 40
0.3487928844411256
 40
0.3789137080287146
 40
0.4088577209668147
 40
0.4385149986592177
 40
0.4677819269590347
 40
0.4975845688590602
 40
0.5277899620548486
 40
0.5582885391244107
 40
0.5889640385234554
 40
0.6196960646818793
 40
0.6498168882694684
 40
0.6797609012075685
 40
0.7094181788999715
 40
0.7386851071997884
 40
0.7684877490998138
 40
0.7986931422956022
 40
0.8291917193651643
 40
0.859867218764209
 40
0.8905992449226328
 40
0.9207200685102218
 40
0.9506640814483219
 40
0.9803213591407249
 40
1.0
 40
1.0
 40
1.0
 40
1.0
 10
2066.478440655573
 20
1131.347059898617
 30
0.0
 10
2066.398352347785
 20
1131.354784938883
 30
0.0
 10
2066.237858557717
 20
1131.370265612964
 30
0.0
 10
2065.880180041162
 20
1131.393788117979
 30
0.0
 10
2065.440960789461
 20
1131.417240462994
 30
0.0
 10
2064.918438060833
 20
1131.440318758471
 30
0.0
 10
2064.323767669012
 20
1131.462782326277
 30
0.0
 10
2063.678771358572
 20
1131.483702669355
 30
0.0
 10
2062.990978010093
 20
1131.5040618892
 30
0.0
 10
2062.264176276956
 20
1131.524817087731
 30
0.0
 10
2061.483641005986
 20
1131.546131808985
 30
0.0
 10
2060.65739500501
 20
1131.567835007994
 30
0.0
 10
2059.7998494719
 20
1131.58952401521
 30
0.0
 10
2058.92175242944
 20
1131.610953470495
 30
0.0
 10
2058.033890673578
 20
1131.63186643785
 30
0.0
 10
2057.141260947778
 20
1131.652230141228
 30
0.0
 10
2056.243546535932
 20
1131.671832926024
 30
0.0
 10
2055.340269487508
 20
1131.691563478911
 30
0.0
 10
2054.431420318407
 20
1131.71231665481
 30
0.0
 10
2053.527899850648
 20
1131.733631926209
 30
0.0
 10
2052.640579952098
 20
1131.75533497642
 30
0.0
 10
2051.78529162052
 20
1131.777024023495
 30
0.0
 10
2050.971424873875
 20
1131.798453468296
 30
0.0
 10
2050.207013805984
 20
1131.819366438478
 30
0.0
 10
2049.494695741902
 20
1131.839730140895
 30
0.0
 10
2048.832968350843
 20
1131.859332926735
 30
0.0
 10
2048.22186656343
 20
1131.879063476332
 30
0.0
 10
2047.663353074792
 20
1131.899816664575
 30
0.0
 10
2047.166131398398
 20
1131.92113188931
 30
0.0
 10
2046.737469896065
 20
1131.942835115074
 30
0.0
 10
2046.38563101486
 20
1131.964523509439
 30
0.0
 10
2046.112104020048
 20
1131.985955339565
 30
0.0
 10
2045.921292235556
 20
1132.006859523917
 30
0.0
 10
2045.811166596172
 20
1132.025054942231
 30
0.0
 10
2045.797265408288
 20
1132.03596811362
 30
0.0
 10
2045.791720634989
 20
1132.040321055386
 30
0.0
  0
SPLINE
  5
30A
330
2D2
100
AcDbEntity
  8
0
  6
Continuous
 62
     7
370
    15
100
AcDbSpline
210
0.0
220
0.0
230
1.0
 70
     8
 71
     3
 72
    43
 73
    39
 74
     0
 42
0.0000000001
 43
0.0000000001
 40
0.0
 40
0.0
 40
0.0
 40
0.0
 40
0.0172900828990318
 40
0.0457150122076143
 40
0.0744158435987293
 40
0.1032831685917007
 40
0.1322036883611454
 40
0.1605490330366408
 40
0.1887279892072706
 40
0.2166371118075711
 40
0.2441788942505031
 40
0.2722248125315913
 40
0.3006497418401737
 40
0.3293505732312886
 40
0.3582178982242601
 40
0.3871384179937047
 40
0.4154837626692003
 40
0.4436627188398301
 40
0.4715718414401306
 40
0.4991136238830626
 40
0.5271595421641509
 40
0.5555844714727334
 40
0.5842853028638484
 40
0.6131526278568199
 40
0.6420731476262645
 40
0.67041849230176
 40
0.6985974484723898
 40
0.7265065710726902
 40
0.7540483535156222
 40
0.7820942717967104
 40
0.8105192011052928
 40
0.8392200324964079
 40
0.8680873574893793
 40
0.8970078772588239
 40
0.9253532219343194
 40
0.9535321781049491
 40
0.9814413007052495
 40
1.0
 40
1.0
 40
1.0
 40
1.0
 10
2066.703568444093
 20
1132.804340381718
 30
0.0
 10
2066.698161988888
 20
1132.808406400637
 30
0.0
 10
2066.683867311001
 20
1132.819156962424
 30
0.0
 10
2066.571164450823
 20
1132.837325517174
 30
0.0
 10
2066.373558281097
 20
1132.85862952649
 30
0.0
 10
2066.091655031394
 20
1132.880335622759
 30
0.0
 10
2065.734387662116
 20
1132.902023853966
 30
0.0
 10
2065.306385971501
 20
1132.923453513068
 30
0.0
 10
2064.815184540343
 20
1132.944366426588
 30
0.0
 10
2064.265129994871
 20
1132.964730144187
 30
0.0
 10
2063.657298214935
 20
1132.98433292522
 30
0.0
 10
2062.990973962347
 20
1133.004063479131
 30
0.0
 10
2062.264177379267
 20
1133.02481665475
 30
0.0
 10
2061.483640707506
 20
1133.046131926226
 30
0.0
 10
2060.657395085402
 20
1133.067834976416
 30
0.0
 10
2059.799849450815
 20
1133.089524023493
 30
0.0
 10
2058.921752435007
 20
1133.110953468309
 30
0.0
 10
2058.033890672104
 20
1133.131866438429
 30
0.0
 10
2057.141260948164
 20
1133.152230141076
 30
0.0
 10
2056.243546535827
 20
1133.171832926065
 30
0.0
 10
2055.340269487537
 20
1133.1915634789
 30
0.0
 10
2054.431420318399
 20
1133.212316654813
 30
0.0
 10
2053.52789985065
 20
1133.233631926209
 30
0.0
 10
2052.640579952096
 20
1133.25533497642
 30
0.0
 10
2051.785291620523
 20
1133.277024023495
 30
0.0
 10
2050.971424873866
 20
1133.298453468296
 30
0.0
 10
2050.207013806019
 20
1133.319366438478
 30
0.0
 10
2049.494695741771
 20
1133.339730140896
 30
0.0
 10
2048.832968351328
 20
1133.359332926731
 30
0.0
 10
2048.221866561572
 20
1133.379063476346
 30
0.0
 10
2047.663353081857
 20
1133.399816664522
 30
0.0
 10
2047.166131371693
 20
1133.421131889511
 30
0.0
 10
2046.737469996415
 20
1133.442835114321
 30
0.0
 10
2046.385630642815
 20
1133.46452351223
 30
0.0
 10
2046.112105374369
 20
1133.485955329404
 30
0.0
 10
2045.921287231179
 20
1133.506859561461
 30
0.0
 10
2045.811123390314
 20
1133.525064583556
 30
0.0
 10
2045.797219109306
 20
1133.535987095339
 30
0.0
 10
2045.791665903677
 20
1133.540349417553
 30
0.0
  0
SPLINE
  5
30B
330
2D2
100
AcDbEntity
  8
0
  6
Continuous
 62
     7
370
    15
100
AcDbSpline
210
0.0
220
0.0
230
1.0
 70
     8
 71
     3
 72
    43
 73
    39
 74
     0
 42
0.0000000001
 43
0.0000000001
 40
0.0
 40
0.0
 40
0.0
 40
0.0
 40
0.0172857993930399
 40
0.0457055501226846
 40
0.0744011526698041
 40
0.1032632184862416
 40
0.1321784693878934
 40
0.1605186499835304
 40
0.1886924723876931
 40
0.2165965103809959
 40
0.2441332751405795
 40
0.2721740838926299
 40
0.3005938346222745
 40
0.329289437169394
 40
0.3581515029858314
 40
0.3870667538874832
 40
0.4154069344831203
 40
0.4435807568872831
 40
0.4714847948805858
 40
0.4990215596401696
 40
0.5270623683922202
 40
0.5554821191218648
 40
0.5841777216689842
 40
0.6130397874854218
 40
0.6419550383870735
 40
0.6702952189827106
 40
0.6984690413868732
 40
0.7263730793801761
 40
0.7539098441397597
 40
0.78195065289181
 40
0.8103704036214548
 40
0.8390660061685741
 40
0.8679280719850117
 40
0.8968433228866635
 40
0.9251835034823004
 40
0.9533573258864633
 40
0.981261363879766
 40
1.0
 40
1.0
 40
1.0
 40
1.0
 10
2066.703566865244
 20
1134.30434118541
 30
0.0
 10
2066.698160663616
 20
1134.30840693847
 30
0.0
 10
2066.683866073367
 20
1134.319157235639
 30
0.0
 10
2066.571164295275
 20
1134.337325518337
 30
0.0
 10
2066.373558323216
 20
1134.358629526175
 30
0.0
 10
2066.09165502005
 20
1134.380335622843
 30
0.0
 10
2065.734387665091
 20
1134.402023853944
 30
0.0
 10
2065.306385970716
 20
1134.423453513074
 30
0.0
 10
2064.815184540551
 20
1134.444366426587
 30
0.0
 10
2064.265129994817
 20
1134.464730144188
 30
0.0
 10
2063.65729821495
 20
1134.484332925219
 30
0.0
 10
2062.990973962342
 20
1134.504063479131
 30
0.0
 10
2062.264177379268
 20
1134.52481665475
 30
0.0
 10
2061.483640707506
 20
1134.546131926225
 30
0.0
 10
2060.657395085402
 20
1134.567834976416
 30
0.0
 10
2059.799849450815
 20
1134.589524023493
 30
0.0
 10
2058.921752435007
 20
1134.610953468309
 30
0.0
 10
2058.033890672104
 20
1134.631866438429
 30
0.0
 10
2057.141260948164
 20
1134.652230141076
 30
0.0
 10
2056.243546535826
 20
1134.671832926065
 30
0.0
 10
2055.340269487537
 20
1134.6915634789
 30
0.0
 10
2054.431420318399
 20
1134.712316654813
 30
0.0
 10
2053.527899850651
 20
1134.733631926209
 30
0.0
 10
2052.640579952093
 20
1134.75533497642
 30
0.0
 10
2051.785291620535
 20
1134.777024023495
 30
0.0
 10
2050.971424873822
 20
1134.798453468296
 30
0.0
 10
2050.207013806182
 20
1134.819366438476
 30
0.0
 10
2049.494695741175
 20
1134.839730140901
 30
0.0
 10
2048.832968353539
 20
1134.859332926715
 30
0.0
 10
2048.221866553102
 20
1134.879063476409
 30
0.0
 10
2047.663353114058
 20
1134.89981666428
 30
0.0
 10
2047.166131249982
 20
1134.921131890424
 30
0.0
 10
2046.737470453773
 20
1134.94283511089
 30
0.0
 10
2046.385628947182
 20
1134.964523524951
 30
0.0
 10
2046.112111546823
 20
1134.985955283098
 30
0.0
 10
2045.921264423226
 20
1135.006859732569
 30
0.0
 10
2045.810925351992
 20
1135.025108755394
 30
0.0
 10
2045.797006883058
 20
1135.036074059745
 30
0.0
 10
2045.791415155532
 20
1135.040479357084
 30
0.0
  0
SPLINE
  5
30C
330
2D2
100
AcDbEntity
  8
0
  6
Continuous
 62
     7
370
    15
100
AcDbSpline
210
0.0
220
0.0
230
1.0
 70
     8
 71
     3
 72
    43
 73
    39
 74
     0
 42
0.0000000001
 43
0.0000000001
 40
0.0
 40
0.0
 40
0.0
 40
0.0
 40
0.0174963502728641
 40
0.0459222536348509
 40
0.0746240685338656
 40
0.1034923827400688
 40
0.1324138935456012
 40
0.1607602095473285
 40
0.1889401313424596
 40
0.2168502103207192
 40
0.2443929365537538
 40
0.2724398159004574
 40
0.3008657192624441
 40
0.3295675341614588
 40
0.358435848367662
 40
0.3873573591731944
 40
0.4157036751749219
 40
0.4438835969700529
 40
0.4717936759483126
 40
0.4993364021813472
 40
0.527383281528051
 40
0.5558091848900377
 40
0.5845109997890524
 40
0.6133793139952556
 40
0.6423008248007881
 40
0.6706471408025154
 40
0.6988270625976466
 40
0.7267371415759061
 40
0.7542798678089407
 40
0.7823267471556443
 40
0.8107526505176309
 40
0.8394544654166457
 40
0.8683227796228489
 40
0.8972442904283813
 40
0.9255906064301086
 40
0.9537705282252398
 40
0.9816806072034994
 40
1.0
 40
1.0
 40
1.0
 40
1.0
 10
2066.703854860263
 20
1135.804194585359
 30
0.0
 10
2066.698402532159
 20
1135.808308832282
 30
0.0
 10
2066.68409193651
 20
1135.819107398142
 30
0.0
 10
2066.571192530153
 20
1135.837325307265
 30
0.0
 10
2066.373550677877
 20
1135.858629583329
 30
0.0
 10
2066.091657079239
 20
1135.88033560745
 30
0.0
 10
2065.734387124995
 20
1135.902023857981
 30
0.0
 10
2065.306386113316
 20
1135.923453512008
 30
0.0
 10
2064.815184502828
 20
1135.944366426869
 30
0.0
 10
2064.26513000473
 20
1135.964730144114
 30
0.0
 10
2063.657298212256
 20
1135.984332925239
 30
0.0
 10
2062.990973963081
 20
1136.004063479126
 30
0.0
 10
2062.264177379066
 20
1136.024816654751
 30
0.0
 10
2061.48364070756
 20
1136.046131926225
 30
0.0
 10
2060.657395085387
 20
1136.067834976416
 30
0.0
 10
2059.799849450818
 20
1136.089524023492
 30
0.0
 10
2058.921752435006
 20
1136.110953468309
 30
0.0
 10
2058.033890672105
 20
1136.131866438429
 30
0.0
 10
2057.141260948164
 20
1136.152230141076
 30
0.0
 10
2056.243546535827
 20
1136.171832926065
 30
0.0
 10
2055.340269487537
 20
1136.1915634789
 30
0.0
 10
2054.431420318399
 20
1136.212316654813
 30
0.0
 10
2053.527899850649
 20
1136.233631926209
 30
0.0
 10
2052.640579952101
 20
1136.25533497642
 30
0.0
 10
2051.785291620507
 20
1136.277024023495
 30
0.0
 10
2050.971424873924
 20
1136.298453468295
 30
0.0
 10
2050.207013805805
 20
1136.319366438479
 30
0.0
 10
2049.49469574256
 20
1136.33973014089
 30
0.0
 10
2048.832968348407
 20
1136.359332926753
 30
0.0
 10
2048.221866572766
 20
1136.379063476262
 30
0.0
 10
2047.6633530393
 20
1136.399816664841
 30
0.0
 10
2047.16613153255
 20
1136.421131888304
 30
0.0
 10
2046.737469391956
 20
1136.442835118856
 30
0.0
 10
2046.385632883824
 20
1136.464523495418
 30
0.0
 10
2046.112097216637
 20
1136.485955390605
 30
0.0
 10
2045.921317374968
 20
1136.506859335318
 30
0.0
 10
2045.811382311461
 20
1136.52500678187
 30
0.0
 10
2045.797496554543
 20
1136.535873295456
 30
0.0
 10
2045.79199403363
 20
1136.540179378201
 30
0.0
  0
SPLINE
  5
30D
330
2D2
100
AcDbEntity
  8
0
  6
Continuous
 62
     7
370
    15
100
AcDbSpline
210
0.0
220
0.0
230
1.0
 70
     8
 71
     3
 72
    43
 73
    39
 74
     0
 42
0.0000000001
 43
0.0000000001
 40
0.0
 40
0.0
 40
0.0
 40
0.0
 40
0.0173632176352023
 40
0.045785660438635
 40
0.0744839811897312
 40
0.1033487809784542
 40
0.1322667708903728
 40
0.1606096360224808
 40
0.1887861272047593
 40
0.2166928084207272
 40
0.2442321816128521
 40
0.2722756465432397
 40
0.3006980893466724
 40
0.3293964100977685
 40
0.3582612098864915
 40
0.38717919979841
 40
0.4155220649305181
 40
0.4436985561127967
 40
0.4716052373287646
 40
0.4991446105208896
 40
0.5271880754512772
 40
0.55561051825471
 40
0.5843088390058063
 40
0.6131736387945291
 40
0.6420916287064478
 40
0.6704344938385559
 40
0.6986109850208342
 40
0.7265176662368021
 40
0.7540570394289271
 40
0.7821005043593146
 40
0.8105229471627472
 40
0.8392212679138435
 40
0.8680860677025664
 40
0.897004057614485
 40
0.9253469227465931
 40
0.9535234139288714
 40
0.9814300951448394
 40
1.0
 40
1.0
 40
1.0
 40
1.0
 10
2066.703672408028
 20
1137.304287460253
 30
0.0
 10
2066.698249272388
 20
1137.308370985293
 30
0.0
 10
2066.683948821161
 20
1137.319138971665
 30
0.0
 10
2066.571174674911
 20
1137.337325440743
 30
0.0
 10
2066.373555512655
 20
1137.358629547186
 30
0.0
 10
2066.091655777044
 20
1137.380335617184
 30
0.0
 10
2065.734387466543
 20
1137.402023855428
 30
0.0
 10
2065.306386023138
 20
1137.423453512682
 30
0.0
 10
2064.815184526683
 20
1137.44436642669
 30
0.0
 10
2064.26512999846
 20
1137.46473014416
 30
0.0
 10
2063.65729821396
 20
1137.484332925227
 30
0.0
 10
2062.990973962614
 20
1137.504063479129
 30
0.0
 10
2062.264177379194
 20
1137.52481665475
 30
0.0
 10
2061.483640707526
 20
1137.546131926225
 30
0.0
 10
2060.657395085396
 20
1137.567834976416
 30
0.0
 10
2059.799849450816
 20
1137.589524023493
 30
0.0
 10
2058.921752435006
 20
1137.610953468309
 30
0.0
 10
2058.033890672104
 20
1137.631866438429
 30
0.0
 10
2057.141260948164
 20
1137.652230141076
 30
0.0
 10
2056.243546535827
 20
1137.671832926065
 30
0.0
 10
2055.340269487537
 20
1137.6915634789
 30
0.0
 10
2054.431420318399
 20
1137.712316654813
 30
0.0
 10
2053.527899850651
 20
1137.733631926209
 30
0.0
 10
2052.640579952096
 20
1137.75533497642
 30
0.0
 10
2051.785291620523
 20
1137.777024023495
 30
0.0
 10
2050.971424873862
 20
1137.798453468296
 30
0.0
 10
2050.207013806031
 20
1137.819366438478
 30
0.0
 10
2049.49469574173
 20
1137.839730140896
 30
0.0
 10
2048.832968351483
 20
1137.85933292673
 30
0.0
 10
2048.221866560977
 20
1137.87906347635
 30
0.0
 10
2047.66335308412
 20
1137.899816664505
 30
0.0
 10
2047.166131363142
 20
1137.921131889575
 30
0.0
 10
2046.737470028547
 20
1137.94283511408
 30
0.0
 10
2046.385630523689
 20
1137.964523513124
 30
0.0
 10
2046.112105808012
 20
1137.985955326151
 30
0.0
 10
2045.921285628813
 20
1138.006859573482
 30
0.0
 10
2045.811109537434
 20
1138.025067674472
 30
0.0
 10
2045.797204264523
 20
1138.035993180685
 30
0.0
 10
2045.791648357415
 20
1138.040358510155
 30
0.0
  0
SPLINE
  5
30E
330
2D2
100
AcDbEntity
  8
0
  6
Continuous
 62
     7
370
    15
100
AcDbSpline
210
0.0
220
0.0
230
1.0
 70
     8
 71
     3
 72
    43
 73
    39
 74
     0
 42
0.0000000001
 43
0.0000000001
 40
0.0
 40
0.0
 40
0.0
 40
0.0
 40
0.0174316319500089
 40
0.0458520012213997
 40
0.0745482283140429
 40
0.1034109222989945
 40
0.1323268025267073
 40
0.160667599932286
 40
0.188842035525687
 40
0.2167466808365046
 40
0.2442840449200836
 40
0.2723254639663963
 40
0.300745833237787
 40
0.3294420603304302
 40
0.3583047543153817
 40
0.3872206345430946
 40
0.4155614319486732
 40
0.4437358675420743
 40
0.4716405128528919
 40
0.4991778769364711
 40
0.5272192959827838
 40
0.5556396652541747
 40
0.5843358923468179
 40
0.6131985863317694
 40
0.6421144665594822
 40
0.6704552639650609
 40
0.6986296995584619
 40
0.7265343448692795
 40
0.7540717089528587
 40
0.7821131279991712
 40
0.810533497270562
 40
0.8392297243632052
 40
0.8680924183481566
 40
0.8970082985758695
 40
0.9253490959814481
 40
0.9535235315748492
 40
0.9814281768856668
 40
1.0
 40
1.0
 40
1.0
 40
1.0
 10
2066.703769462466
 20
1138.804238055977
 30
0.0
 10
2066.698330785259
 20
1138.808337923445
 30
0.0
 10
2066.684024939734
 20
1138.819122176388
 30
0.0
 10
2066.571184186752
 20
1138.837325369637
 30
0.0
 10
2066.373552937073
 20
1138.85862956644
 30
0.0
 10
2066.091656470749
 20
1138.880335611998
 30
0.0
 10
2065.734387284593
 20
1138.902023856788
 30
0.0
 10
2065.306386071177
 20
1138.923453512323
 30
0.0
 10
2064.815184513975
 20
1138.944366426785
 30
0.0
 10
2064.2651300018
 20
1138.964730144135
 30
0.0
 10
2063.657298213052
 20
1138.984332925233
 30
0.0
 10
2062.990973962863
 20
1139.004063479127
 30
0.0
 10
2062.264177379126
 20
1139.024816654751
 30
0.0
 10
2061.483640707544
 20
1139.046131926225
 30
0.0
 10
2060.657395085392
 20
1139.067834976416
 30
0.0
 10
2059.799849450818
 20
1139.089524023493
 30
0.0
 10
2058.921752435006
 20
1139.110953468309
 30
0.0
 10
2058.033890672104
 20
1139.131866438429
 30
0.0
 10
2057.141260948164
 20
1139.152230141076
 30
0.0
 10
2056.243546535827
 20
1139.171832926065
 30
0.0
 10
2055.340269487537
 20
1139.1915634789
 30
0.0
 10
2054.431420318399
 20
1139.212316654813
 30
0.0
 10
2053.527899850651
 20
1139.233631926209
 30
0.0
 10
2052.640579952096
 20
1139.25533497642
 30
0.0
 10
2051.785291620524
 20
1139.277024023495
 30
0.0
 10
2050.971424873861
 20
1139.298453468296
 30
0.0
 10
2050.207013806034
 20
1139.319366438478
 30
0.0
 10
2049.494695741719
 20
1139.339730140896
 30
0.0
 10
2048.832968351523
 20
1139.35933292673
 30
0.0
 10
2048.221866560825
 20
1139.379063476351
 30
0.0
 10
2047.663353084697
 20
1139.399816664501
 30
0.0
 10
2047.166131360961
 20
1139.421131889591
 30
0.0
 10
2046.737470036742
 20
1139.442835114019
 30
0.0
 10
2046.385630493306
 20
1139.464523513352
 30
0.0
 10
2046.112105918613
 20
1139.485955325321
 30
0.0
 10
2045.921285220133
 20
1139.506859576548
 30
0.0
 10
2045.811106002831
 20
1139.525068463102
 30
0.0
 10
2045.797200476819
 20
1139.535994733327
 30
0.0
 10
2045.791643880586
 20
1139.540360830081
 30
0.0
  0
SPLINE
  5
30F
330
2D2
100
AcDbEntity
  8
0
  6
Continuous
 62
     7
370
    15
100
AcDbSpline
210
0.0
220
0.0
230
1.0
 70
     8
 71
     3
 72
    43
 73
    39
 74
     0
 42
0.0000000001
 43
0.0000000001
 40
0.0
 40
0.0
 40
0.0
 40
0.0
 40
0.0174959577232315
 40
0.0459125832508946
 40
0.0746050302617536
 40
0.1034639222366561
 40
0.1323759934482299
 40
0.1607130575918826
 40
0.1888837818377806
 40
0.2167847513398901
 40
0.244318487995793
 40
0.2723562132165376
 40
0.3007728387442007
 40
0.3294652857550597
 40
0.3583241777299621
 40
0.387236248941536
 40
0.4155733130851888
 40
0.4437440373310867
 40
0.4716450068331963
 40
0.4991787434890992
 40
0.527216468709844
 40
0.5556330942375071
 40
0.5843255412483661
 40
0.6131844332232685
 40
0.6420965044348424
 40
0.6704335685784951
 40
0.6986042928243931
 40
0.7265052623265026
 40
0.7540389989824055
 40
0.7820767242031501
 40
0.8104933497308131
 40
0.839185796741672
 40
0.8680446887165746
 40
0.8969567599281484
 40
0.9252938240718012
 40
0.9534645483176991
 40
0.9813655178198088
 40
1.0
 40
1.0
 40
1.0
 40
1.0
 10
2066.70386226839
 20
1140.30419081435
 30
0.0
 10
2066.69840875715
 20
1140.308306308661
 30
0.0
 10
2066.684097749272
 20
1140.319106116146
 30
0.0
 10
2066.571193252786
 20
1140.337325301863
 30
0.0
 10
2066.373550482205
 20
1140.358629584792
 30
0.0
 10
2066.091657131941
 20
1140.380335607056
 30
0.0
 10
2065.734387111172
 20
1140.402023858084
 30
0.0
 10
2065.306386116965
 20
1140.423453511981
 30
0.0
 10
2064.815184501862
 20
1140.444366426876
 30
0.0
 10
2064.265130004983
 20
1140.464730144112
 30
0.0
 10
2063.657298212187
 20
1140.48433292524
 30
0.0
 10
2062.990973963099
 20
1140.504063479125
 30
0.0
 10
2062.264177379061
 20
1140.524816654751
 30
0.0
 10
2061.483640707562
 20
1140.546131926225
 30
0.0
 10
2060.657395085387
 20
1140.567834976416
 30
0.0
 10
2059.799849450819
 20
1140.589524023492
 30
0.0
 10
2058.921752435006
 20
1140.610953468309
 30
0.0
 10
2058.033890672105
 20
1140.631866438429
 30
0.0
 10
2057.141260948164
 20
1140.652230141076
 30
0.0
 10
2056.243546535827
 20
1140.671832926065
 30
0.0
 10
2055.340269487537
 20
1140.6915634789
 30
0.0
 10
2054.431420318399
 20
1140.712316654813
 30
0.0
 10
2053.527899850651
 20
1140.733631926209
 30
0.0
 10
2052.640579952095
 20
1140.75533497642
 30
0.0
 10
2051.785291620528
 20
1140.777024023495
 30
0.0
 10
2050.971424873846
 20
1140.798453468296
 30
0.0
 10
2050.207013806092
 20
1140.819366438477
 30
0.0
 10
2049.494695741506
 20
1140.839730140898
 30
0.0
 10
2048.83296835231
 20
1140.859332926724
 30
0.0
 10
2048.22186655781
 20
1140.879063476374
 30
0.0
 10
2047.663353096157
 20
1140.899816664415
 30
0.0
 10
2047.166131317644
 20
1140.921131889916
 30
0.0
 10
2046.737470199517
 20
1140.942835112798
 30
0.0
 10
2046.385629889826
 20
1140.96452351788
 30
0.0
 10
2046.112108115405
 20
1140.985955308841
 30
0.0
 10
2045.921277102722
 20
1141.006859637446
 30
0.0
 10
2045.811035674375
 20
1141.025084152389
 30
0.0
 10
2045.79712511127
 20
1141.036025622078
 30
0.0
 10
2045.791554817421
 20
1141.040406983267
 30
0.0
  0
SPLINE
  5
310
330
2D2
100
AcDbEntity
  8
0
  6
Continuous
 62
     7
370
    15
100
AcDbSpline
210
0.0
220
0.0
230
1.0
 70
    24
 71
     3
 72
    30
 73
    26
 74
     0
 42
0.0000000001
 43
0.0000000001
 40
0.0
 40
0.0
 40
0.0
 40
0.0
 40
0.125
 40
0.125
 40
0.25
 40
0.25
 40
0.3125
 40
0.3125
 40
0.3750000000000001
 40
0.3750000000000001
 40
0.4375000000000001
 40
0.4375000000000001
 40
0.5000000000000001
 40
0.5000000000000001
 40
0.6250000000000001
 40
0.6250000000000001
 40
0.6875000000000001
 40
0.6875000000000001
 40
0.7500000000000002
 40
0.7500000000000002
 40
0.8125000000000001
 40
0.8125000000000001
 40
0.8750000000000001
 40
0.8750000000000001
 40
1.0
 40
1.0
 40
1.0
 40
1.0
 10
2050.399975076361
 20
1131.347059898617
 30
0.0
 10
2051.144098628608
 20
1131.347059898617
 30
0.0
 10
2051.933391964228
 20
1131.347059898617
 30
0.0
 10
2053.597288730593
 20
1131.347059898617
 30
0.0
 10
2054.441820179607
 20
1131.347059898617
 30
0.0
 10
2055.726874237549
 20
1131.347059898617
 30
0.0
 10
2056.160316677034
 20
1131.347059898617
 30
0.0
 10
2057.024457846057
 20
1131.347059898617
 30
0.0
 10
2057.450852629545
 20
1131.347059898617
 30
0.0
 10
2058.292674123077
 20
1131.347059898617
 30
0.0
 10
2058.708099810071
 20
1131.347059898617
 30
0.0
 10
2059.527889175274
 20
1131.347059898617
 30
0.0
 10
2059.934785107361
 20
1131.347059898617
 30
0.0
 10
2061.118397086708
 20
1131.347059898617
 30
0.0
 10
2061.852642435145
 20
1131.347059898617
 30
0.0
 10
2062.872957137436
 20
1131.347059898617
 30
0.0
 10
2063.201289045514
 20
1131.347059898617
 30
0.0
 10
2063.814829120653
 20
1131.347059898617
 30
0.0
 10
2064.101321454257
 20
1131.347059898617
 30
0.0
 10
2064.633262487367
 20
1131.347059898617
 30
0.0
 10
2064.878890430009
 20
1131.347059898617
 30
0.0
 10
2065.32853047569
 20
1131.347059898617
 30
0.0
 10
2065.532733048304
 20
1131.347059898617
 30
0.0
 10
2066.065750794515
 20
1131.347059898617
 30
0.0
 10
2066.322654462336
 20
1131.347059898617
 30
0.0
 10
2066.478440655573
 20
1131.347059898617
 30
0.0
  0
SPLINE
  5
311
330
2D2
100
AcDbEntity
  8
0
  6
Continuous
 62
     7
370
    15
100
AcDbSpline
210
0.0
220
0.0
230
1.0
 70
     8
 71
     3
 72
    44
 73
    40
 74
     0
 42
0.0000000001
 43
0.0000000001
 40
0.0
 40
0.0
 40
0.0
 40
0.0
 40
0.024011453922165
 40
0.0507392988852515
 40
0.0774671455169652
 40
0.1049714704096541
 40
0.1324757958473148
 40
0.1592040861206623
 40
0.1859323756428927
 40
0.213437182684922
 40
0.2409419875924712
 40
0.2676700638479659
 40
0.2943981393225819
 40
0.3219027443708772
 40
0.3494073508490594
 40
0.3761351808109148
 40
0.4028630108311273
 40
0.4303672881990508
 40
0.4578715642606545
 40
0.4846001896286158
 40
0.5113288150392369
 40
0.5388340067543554
 40
0.566339200715097
 40
0.593066993493849
 40
0.6197947871375302
 40
0.6472990243152541
 40
0.674803261077972
 40
0.7015319671151853
 40
0.7282606715884869
 40
0.7557659640853549
 40
0.783271256768594
 40
0.8099990974731055
 40
0.8367269398071826
 40
0.8642312577540256
 40
0.8917355761972849
 40
0.9205100078005379
 40
0.9492844382767893
 40
0.9790358619409568
 40
1.0
 40
1.0
 40
1.0
 40
1.0
 10
2045.103554497369
 20
1140.589405412868
 30
0.0
 10
2045.107661424435
 20
1140.583715849609
 30
0.0
 10
2045.116339890991
 20
1140.571693068661
 30
0.0
 10
2045.226277847937
 20
1140.552711595823
 30
0.0
 10
2045.41008760921
 20
1140.532518917447
 30
0.0
 10
2045.675601696191
 20
1140.511854883888
 30
0.0
 10
2046.016790408144
 20
1140.491077165887
 30
0.0
 10
2046.427664586034
 20
1140.470529451778
 30
0.0
 10
2046.906670232526
 20
1140.450159355156
 30
0.0
 10
2047.457450571867
 20
1140.429906047753
 30
0.0
 10
2048.071623068066
 20
1140.410173483392
 30
0.0
 10
2048.738100521517
 20
1140.391067558197
 30
0.0
 10
2049.456702086446
 20
1140.371564529434
 30
0.0
 10
2050.231053229083
 20
1140.351238954704
 30
0.0
 10
2051.048786653586
 20
1140.330651246154
 30
0.0
 10
2051.895672603912
 20
1140.310088691802
 30
0.0
 10
2052.772768342015
 20
1140.289514198625
 30
0.0
 10
2053.683334711884
 20
1140.268880807646
 30
0.0
 10
2054.612413512742
 20
1140.248502587587
 30
0.0
 10
2055.544247453361
 20
1140.228845201008
 30
0.0
 10
2056.480994395661
 20
1140.209717424794
 30
0.0
 10
2057.425140924989
 20
1140.190129979451
 30
0.0
 10
2058.360784399212
 20
1140.1699425656
 30
0.0
 10
2059.272409372113
 20
1140.149624806688
 30
0.0
 10
2060.163035244383
 20
1140.129099053688
 30
0.0
 10
2061.034164701
 20
1140.108316740427
 30
0.0
 10
2061.87080476831
 20
1140.08761876163
 30
0.0
 10
2062.659431406506
 20
1140.067367876325
 30
0.0
 10
2063.403579121265
 20
1140.047434994476
 30
0.0
 10
2064.103538403369
 20
1140.028031310819
 30
0.0
 10
2064.746853066578
 20
1140.008669283028
 30
0.0
 10
2065.323513190827
 20
1139.988797849875
 30
0.0
 10
2065.837164758092
 20
1139.968582461025
 30
0.0
 10
2066.286959967522
 20
1139.947904989676
 30
0.0
 10
2066.673610448129
 20
1139.926606045542
 30
0.0
 10
2066.986149108669
 20
1139.905023848645
 30
0.0
 10
2067.21714561332
 20
1139.883124074496
 30
0.0
 10
2067.356273011428
 20
1139.863469916351
 30
0.0
 10
2067.375760964775
 20
1139.851405703389
 30
0.0
 10
2067.383816640994
 20
1139.846418756237
 30
0.0
  0
SPLINE
  5
312
330
2D2
100
AcDbEntity
  8
0
  6
Continuous
 62
     7
370
    15
100
AcDbSpline
210
0.0
220
0.0
230
1.0
 70
     8
 71
     3
 72
    45
 73
    41
 74
     0
 42
0.0000000001
 43
0.0000000001
 40
0.0
 40
0.0
 40
0.0
 40
0.0
 40
0.0006845875939359
 40
0.0274147642495017
 40
0.0549215391196439
 40
0.0824283157642206
 40
0.1091579672913924
 40
0.135887619209488
 40
0.1633937677431188
 40
0.1908999153297324
 40
0.2176304529766152
 40
0.244360988637798
 40
0.271868161172388
 40
0.2993753333962537
 40
0.3261049499117125
 40
0.3528345676122091
 40
0.3803406899296039
 40
0.4078468122049038
 40
0.4345772388641717
 40
0.4613076642673568
 40
0.4888147142264291
 40
0.5163217649506926
 40
0.5430514417102726
 40
0.5697811203915649
 40
0.5972873481137419
 40
0.6247935767008033
 40
0.6515234363723444
 40
0.6782532955783557
 40
0.7057596890996698
 40
0.7332660807709557
 40
0.7599962251316394
 40
0.7867263692008404
 40
0.8142331096936732
 40
0.8417398519165818
 40
0.8684695063378358
 40
0.8951991611065725
 40
0.9227053129562921
 40
0.9502114638114125
 40
0.9769419943257751
 40
1.0
 40
1.0
 40
1.0
 40
1.0
 10
2045.099990556189
 20
1139.089396426275
 30
0.0
 10
2045.099671645457
 20
1139.08923321649
 30
0.0
 10
2045.086900653693
 20
1139.082697372393
 30
0.0
 10
2045.132855468767
 20
1139.069725272168
 30
0.0
 10
2045.246453144726
 20
1139.049602021917
 30
0.0
 10
2045.448811861089
 20
1139.029166829865
 30
0.0
 10
2045.723575997725
 20
1139.008668927953
 30
0.0
 10
2046.07204746443
 20
1138.988086648473
 30
0.0
 10
2046.496829254997
 20
1138.967356269381
 30
0.0
 10
2046.991978953287
 20
1138.946836015392
 30
0.0
 10
2047.548247174619
 20
1138.926837294893
 30
0.0
 10
2048.164925857554
 20
1138.907398201005
 30
0.0
 10
2048.84566711194
 20
1138.888089200121
 30
0.0
 10
2049.57977568721
 20
1138.868275700555
 30
0.0
 10
2050.35428149959
 20
1138.848093758888
 30
0.0
 10
2051.169684413305
 20
1138.827669324932
 30
0.0
 10
2052.02947179744
 20
1138.806898470049
 30
0.0
 10
2052.919689897958
 20
1138.786135522559
 30
0.0
 10
2053.825072439939
 20
1138.765739895303
 30
0.0
 10
2054.747294571061
 20
1138.745591763036
 30
0.0
 10
2055.689251221318
 20
1138.725876224934
 30
0.0
 10
2056.635243728249
 20
1138.706580433007
 30
0.0
 10
2057.569395937853
 20
1138.687050583053
 30
0.0
 10
2058.494363220432
 20
1138.667009603119
 30
0.0
 10
2059.412149491426
 20
1138.646455374845
 30
0.0
 10
2060.307127469918
 20
1138.625711190003
 30
0.0
 10
2061.164646816581
 20
1138.605131618321
 30
0.0
 10
2061.988052693473
 20
1138.584656707375
 30
0.0
 10
2062.77820500669
 20
1138.564252263442
 30
0.0
 10
2063.521289846363
 20
1138.54421596332
 30
0.0
 10
2064.205511018139
 20
1138.525054488346
 30
0.0
 10
2064.834506847665
 20
1138.505825350549
 30
0.0
 10
2065.40790054632
 20
1138.485687923695
 30
0.0
 10
2065.915237968254
 20
1138.465226473969
 30
0.0
 10
2066.348961698948
 20
1138.444718528738
 30
0.0
 10
2066.712435721471
 20
1138.424135403294
 30
0.0
 10
2067.004823317213
 20
1138.403412310445
 30
0.0
 10
2067.217551109217
 20
1138.382919736667
 30
0.0
 10
2067.351526652099
 20
1138.363828834711
 30
0.0
 10
2067.377227270163
 20
1138.351936403133
 30
0.0
 10
2067.389129708807
 20
1138.346428794841
 30
0.0
  0
SPLINE
  5
313
330
2D2
100
AcDbEntity
  8
0
  6
Continuous
 62
     7
370
    15
100
AcDbSpline
210
0.0
220
0.0
230
1.0
 70
     8
 71
     3
 72
    45
 73
    41
 74
     0
 42
0.0000000001
 43
0.0000000001
 40
0.0
 40
0.0
 40
0.0
 40
0.0
 40
0.0151924326377519
 40
0.0419237419624346
 40
0.0686550531338478
 40
0.096162955415124
 40
0.1236708584653598
 40
0.1504024309414931
 40
0.1771340028655622
 40
0.2046421675385807
 40
0.232150330274367
 40
0.2588820369714341
 40
0.2856137430079114
 40
0.3131220891171422
 40
0.3406304368671063
 40
0.3673617260718553
 40
0.3940930155370754
 40
0.4216008504684551
 40
0.4491086843104233
 40
0.4758408274750893
 40
0.5025729685447585
 40
0.5300817876034119
 40
0.5575906079830193
 40
0.584321850713849
 40
0.6110530945050064
 40
0.6385608861695501
 40
0.6660686776452093
 40
0.6928007842221698
 40
0.71953288942058
 40
0.7470416748317611
 40
0.7745504611637961
 40
0.8012817695263741
 40
0.828013079697741
 40
0.8555209782728031
 40
0.8830288775686694
 40
0.9097604891492622
 40
0.9364921001346484
 40
0.9640003093465006
 40
0.9915085165779764
 40
1.0
 40
1.0
 40
1.0
 40
1.0
 10
2045.109098227283
 20
1137.589436588734
 30
0.0
 10
2045.107539606537
 20
1137.585834656797
 30
0.0
 10
2045.103238569598
 20
1137.575895072484
 30
0.0
 10
2045.1833670527
 20
1137.559241907187
 30
0.0
 10
2045.340527235701
 20
1137.539155877666
 30
0.0
 10
2045.581409123192
 20
1137.518564109112
 30
0.0
 10
2045.898161028696
 20
1137.497806703737
 30
0.0
 10
2046.285803119616
 20
1137.47723341592
 30
0.0
 10
2046.742524641518
 20
1137.456786428106
 30
0.0
 10
2047.27199174332
 20
1137.436425677959
 30
0.0
 10
2047.866185242702
 20
1137.416472359161
 30
0.0
 10
2048.514343034038
 20
1137.397343964883
 30
0.0
 10
2049.216185333082
 20
1137.378048549001
 30
0.0
 10
2049.975343239941
 20
1137.35784573799
 30
0.0
 10
2050.779725662766
 20
1137.337344356484
 30
0.0
 10
2051.615300908121
 20
1137.316816114074
 30
0.0
 10
2052.483029139608
 20
1137.296232785496
 30
0.0
 10
2053.38621756902
 20
1137.275531655844
 30
0.0
 10
2054.310060946879
 20
1137.255076531576
 30
0.0
 10
2055.238857782134
 20
1137.235155189557
 30
0.0
 10
2056.174690851784
 20
1137.215887584797
 30
0.0
 10
2057.120123211687
 20
1137.196531513835
 30
0.0
 10
2058.059250053893
 20
1137.176522625465
 30
0.0
 10
2058.976467716165
 20
1137.15629373074
 30
0.0
 10
2059.874738534372
 20
1137.135821423755
 30
0.0
 10
2060.755657109508
 20
1137.115041989797
 30
0.0
 10
2061.60409298598
 20
1137.094298747778
 30
0.0
 10
2062.406299108516
 20
1137.073957108611
 30
0.0
 10
2063.165782525937
 20
1137.053881165
 30
0.0
 10
2063.882934889162
 20
1137.034312193253
 30
0.0
 10
2064.545039098319
 20
1137.015014423761
 30
0.0
 10
2065.141740252788
 20
1136.995338042045
 30
0.0
 10
2065.676715753456
 20
1136.975225550154
 30
0.0
 10
2066.149106260635
 20
1136.954617537716
 30
0.0
 10
2066.550226988459
 20
1136.933853976791
 30
0.0
 10
2066.873805314752
 20
1136.913285987503
 30
0.0
 10
2067.125126370632
 20
1136.892850353446
 30
0.0
 10
2067.295067501413
 20
1136.872526577519
 30
0.0
 10
2067.381686475451
 20
1136.857017845919
 30
0.0
 10
2067.384578987953
 20
1136.848478115609
 30
0.0
 10
2067.385261263869
 20
1136.846463793345
 30
0.0
  0
SPLINE
  5
314
330
2D2
100
AcDbEntity
  8
0
  6
Continuous
 62
     7
370
    15
100
AcDbSpline
210
0.0
220
0.0
230
1.0
 70
     8
 71
     3
 72
    45
 73
    41
 74
     0
 42
0.0000000001
 43
0.0000000001
 40
0.0
 40
0.0
 40
0.0
 40
0.0
 40
0.0014096436267232
 40
0.0289162649256957
 40
0.0564228885776066
 40
0.0831520231683308
 40
0.1098811587353629
 40
0.1373867788535999
 40
0.1648923986852339
 40
0.1916224233842612
 40
0.2183524466242112
 40
0.2458590930555207
 40
0.2733657401866767
 40
0.3000949359359428
 40
0.3268241334172226
 40
0.3543298526281962
 40
0.3818355724633174
 40
0.4085651505723843
 40
0.4352947280002672
 40
0.462800853266095
 40
0.4903069764662578
 40
0.5170364631591963
 40
0.5437659489505303
 40
0.5712720073091644
 40
0.5987780671725336
 40
0.6255072474597582
 40
0.6522364278766326
 40
0.6797420940264
 40
0.7072477589458821
 40
0.7339777556394257
 40
0.7607077515162118
 40
0.7882143565981417
 40
0.8157209639925625
 40
0.8424500993010038
 40
0.8691792355435785
 40
0.8966848554913349
 40
0.9241904751036791
 40
0.9509205108517447
 40
0.977650545100719
 40
1.0
 40
1.0
 40
1.0
 40
1.0
 10
2045.100892335735
 20
1136.089411381045
 30
0.0
 10
2045.100255054078
 20
1136.089075408258
 30
0.0
 10
2045.087182384588
 20
1136.082183540033
 30
0.0
 10
2045.136240388815
 20
1136.068813225433
 30
0.0
 10
2045.254179099048
 20
1136.048677163101
 30
0.0
 10
2045.458037802852
 20
1136.028420612051
 30
0.0
 10
2045.734459412203
 20
1136.007919972072
 30
0.0
 10
2046.089726571718
 20
1135.987138359126
 30
0.0
 10
2046.518073681218
 20
1135.966412285168
 30
0.0
 10
2047.011607346991
 20
1135.946108769255
 30
0.0
 10
2047.569254635297
 20
1135.926089872472
 30
0.0
 10
2048.194680814678
 20
1135.906601354954
 30
0.0
 10
2048.878178842086
 20
1135.88728495862
 30
0.0
 10
2049.607555003685
 20
1135.867519720583
 30
0.0
 10
2050.383011008574
 20
1135.8473616754
 30
0.0
 10
2051.208114923507
 20
1135.826721685001
 30
0.0
 10
2052.069564128847
 20
1135.805949236239
 30
0.0
 10
2052.952493962038
 20
1135.785390815898
 30
0.0
 10
2053.858311112735
 20
1135.764991654304
 30
0.0
 10
2054.790082971418
 20
1135.744699489211
 30
0.0
 10
2055.732382872454
 20
1135.724884566795
 30
0.0
 10
2056.66933032389
 20
1135.705779358829
 30
0.0
 10
2057.603352831067
 20
1135.686358129023
 30
0.0
 10
2058.536675856775
 20
1135.666071248123
 30
0.0
 10
2059.453494923765
 20
1135.645512981534
 30
0.0
 10
2060.33871058569
 20
1135.624960495932
 30
0.0
 10
2061.195536992117
 20
1135.604381398802
 30
0.0
 10
2062.025125255544
 20
1135.583721464217
 30
0.0
 10
2062.813080610402
 20
1135.563317630747
 30
0.0
 10
2063.54678515403
 20
1135.543553707487
 30
0.0
 10
2064.229852703519
 20
1135.524400378049
 30
0.0
 10
2064.862187734822
 20
1135.504908261782
 30
0.0
 10
2065.432404565462
 20
1135.484762529611
 30
0.0
 10
2065.931782742261
 20
1135.464479474205
 30
0.0
 10
2066.363994003495
 20
1135.443969304477
 30
0.0
 10
2066.727550705455
 20
1135.423187133315
 30
0.0
 10
2067.016197627382
 20
1135.402469322809
 30
0.0
 10
2067.223151409924
 20
1135.382191973955
 30
0.0
 10
2067.353680668759
 20
1135.363454479976
 30
0.0
 10
2067.376883250114
 20
1135.351782650331
 30
0.0
 10
2067.387449070064
 20
1135.346467618843
 30
0.0
  0
SPLINE
  5
315
330
2D2
100
AcDbEntity
  8
0
  6
Continuous
 62
     7
370
    15
100
AcDbSpline
210
0.0
220
0.0
230
1.0
 70
     8
 71
     3
 72
    45
 73
    41
 74
     0
 42
0.0000000001
 43
0.0000000001
 40
0.0
 40
0.0
 40
0.0
 40
0.0
 40
0.0159184651544254
 40
0.0426519132069635
 40
0.0701620464171248
 40
0.0976721810405987
 40
0.1244053968080148
 40
0.1511386126177904
 40
0.1786484324166708
 40
0.2061582508919485
 40
0.2328922576227264
 40
0.2596262645433956
 40
0.2871369934802407
 40
0.3146477246480583
 40
0.3413809057485051
 40
0.368114087698483
 40
0.3956238694918863
 40
0.4231336508523457
 40
0.4498677476100159
 40
0.4766018427889677
 40
0.5041126829234593
 40
0.5316235231630522
 40
0.5583567498410855
 40
0.5850899781346307
 40
0.6125998375981566
 40
0.6401096975403747
 40
0.6668434206589997
 40
0.6935771429680174
 40
0.7210875465710361
 40
0.7485979479820806
 40
0.7753313546531814
 40
0.8020647608268255
 40
0.8295748494495027
 40
0.8570849394393718
 40
0.8838181490296953
 40
0.9105513586187147
 40
0.938061172496787
 40
0.9655709850049698
 40
0.9923049733287566
 40
1.0
 40
1.0
 40
1.0
 40
1.0
 10
2045.108275405784
 20
1134.58935236172
 30
0.0
 10
2045.107299671357
 20
1134.585576706792
 30
0.0
 10
2045.104685289904
 20
1134.575460222272
 30
0.0
 10
2045.187142264159
 20
1134.558549698613
 30
0.0
 10
2045.34968429526
 20
1134.538214602546
 30
0.0
 10
2045.594351060525
 20
1134.517620846703
 30
0.0
 10
2045.911543112774
 20
1134.497056212045
 30
0.0
 10
2046.30072722941
 20
1134.47648306746
 30
0.0
 10
2046.765085832519
 20
1134.455855781129
 30
0.0
 10
2047.297848668652
 20
1134.435483998555
 30
0.0
 10
2047.889204305206
 20
1134.415849242087
 30
0.0
 10
2048.538601220721
 20
1134.396725909989
 30
0.0
 10
2049.249683759734
 20
1134.37711774142
 30
0.0
 10
2050.01121781687
 20
1134.356921114522
 30
0.0
 10
2050.809819579308
 20
1134.336595863135
 30
0.0
 10
2051.646157964881
 20
1134.316066841354
 30
0.0
 10
2052.523662001316
 20
1134.295284866241
 30
0.0
 10
2053.428036757953
 20
1134.27459122931
 30
0.0
 10
2054.343826355722
 20
1134.254347907934
 30
0.0
 10
2055.272858395109
 20
1134.234427979204
 30
0.0
 10
2056.217916755117
 20
1134.215034208123
 30
0.0
 10
2057.163189428145
 20
1134.195663915854
 30
0.0
 10
2058.092864338487
 20
1134.175778702251
 30
0.0
 10
2059.009723087629
 20
1134.155555451303
 30
0.0
 10
2059.915620893603
 20
1134.134873623177
 30
0.0
 10
2060.795085865459
 20
1134.114092776921
 30
0.0
 10
2061.63377379502
 20
1134.0935555131
 30
0.0
 10
2062.435096769131
 20
1134.073211350995
 30
0.0
 10
2063.199740372438
 20
1134.052991379886
 30
0.0
 10
2063.914272565636
 20
1134.033331512903
 30
0.0
 10
2064.567407324165
 20
1134.01421776002
 30
0.0
 10
2065.162794001926
 20
1133.99463909688
 30
0.0
 10
2065.699904413995
 20
1133.974284966731
 30
0.0
 10
2066.168838078168
 20
1133.953673520041
 30
0.0
 10
2066.562798995913
 20
1133.933104001845
 30
0.0
 10
2066.884756973581
 20
1133.912535491762
 30
0.0
 10
2067.135028785819
 20
1133.891923141189
 30
0.0
 10
2067.300815877858
 20
1133.87157772745
 30
0.0
 10
2067.38296685936
 20
1133.8565837978
 30
0.0
 10
2067.385126855187
 20
1133.848411404047
 30
0.0
 10
2067.385609623152
 20
1133.84658484038
 30
0.0
  0
SPLINE
  5
316
330
2D2
100
AcDbEntity
  8
0
  6
Continuous
 62
     7
370
    15
100
AcDbSpline
210
0.0
220
0.0
230
1.0
 70
     8
 71
     3
 72
    46
 73
    42
 74
     0
 42
0.0000000001
 43
0.0000000001
 40
0.0
 40
0.0
 40
0.0
 40
0.0
 40
0.0029118204260758
 40
0.0304229456676507
 40
0.057156426421007
 40
0.0838899087109205
 40
0.1114000247324911
 40
0.1389101411353929
 40
0.1656441895701778
 40
0.1923782371103667
 40
0.219888984079778
 40
0.2473997287747306
 40
0.2674873653562464
 40
0.2875750017003069
 40
0.3079848657030622
 40
0.3283947302407046
 40
0.3551291661871321
 40
0.3818636026738602
 40
0.409374733079883
 40
0.4368858627035238
 40
0.4636202441467469
 40
0.4903546237324007
 40
0.5178657561369224
 40
0.5453768876018902
 40
0.5721103444123093
 40
0.5988438025493435
 40
0.6263538826782817
 40
0.6538639629336892
 40
0.6805981481421294
 40
0.7073323322367548
 40
0.7348432400281402
 40
0.7623541473374154
 40
0.789087635367208
 40
0.815821125445767
 40
0.8433312842980425
 40
0.8708414441794431
 40
0.8975749805161788
 40
0.924308516536869
 40
0.9518186787830632
 40
0.9793288393313408
 40
1.0
 40
1.0
 40
1.0
 40
1.0
 10
2045.102892861048
 20
1133.089391248961
 30
0.0
 10
2045.101637328504
 20
1133.088697435746
 30
0.0
 10
2045.088519418472
 20
1133.081448416697
 30
0.0
 10
2045.139829220514
 20
1133.067912098455
 30
0.0
 10
2045.260854375469
 20
1133.047939805955
 30
0.0
 10
2045.466244689613
 20
1133.027679455533
 30
0.0
 10
2045.748894774218
 20
1133.006972614436
 30
0.0
 10
2046.107848031656
 20
1132.986189912862
 30
0.0
 10
2046.535362166574
 20
1132.965670701584
 30
0.0
 10
2047.030347420642
 20
1132.945365280267
 30
0.0
 10
2047.596336751453
 20
1132.92520275819
 30
0.0
 10
2048.173696215008
 20
1132.90721943796
 30
0.0
 10
2048.735674650657
 20
1132.891270432724
 30
0.0
 10
2049.268083424118
 20
1132.876679953567
 30
0.0
 10
2049.831172607143
 20
1132.861679112055
 30
0.0
 10
2050.484099613881
 20
1132.844822589151
 30
0.0
 10
2051.231142996485
 20
1132.826163437501
 30
0.0
 10
2052.084779181615
 20
1132.805588882084
 30
0.0
 10
2052.976612304046
 20
1132.784832186602
 30
0.0
 10
2053.89204046404
 20
1132.764245440107
 30
0.0
 10
2054.815466759429
 20
1132.744162242369
 30
0.0
 10
2055.74885279027
 20
1132.724545830007
 30
0.0
 10
2056.694882868466
 20
1132.705252455408
 30
0.0
 10
2057.637680048358
 20
1132.685625036851
 30
0.0
 10
2058.561526750011
 20
1132.665516793722
 30
0.0
 10
2059.469305707053
 20
1132.645152119845
 30
0.0
 10
2060.362735525387
 20
1132.624399829381
 30
0.0
 10
2061.226512955584
 20
1132.603622980148
 30
0.0
 10
2062.046597737539
 20
1132.583170183815
 30
0.0
 10
2062.82645510605
 20
1132.562958983719
 30
0.0
 10
2063.566614877683
 20
1132.543036956093
 30
0.0
 10
2064.254013578756
 20
1132.523705019204
 30
0.0
 10
2064.877844480496
 20
1132.504362961992
 30
0.0
 10
2065.441774575484
 20
1132.484408658646
 30
0.0
 10
2065.945103407427
 20
1132.463925166458
 30
0.0
 10
2066.378570221525
 20
1132.443210670557
 30
0.0
 10
2066.735625454612
 20
1132.422627324072
 30
0.0
 10
2067.020559428791
 20
1132.402109878245
 30
0.0
 10
2067.228341431954
 20
1132.381641535306
 30
0.0
 10
2067.356159852005
 20
1132.36294902489
 30
0.0
 10
2067.377554634499
 20
1132.35149871477
 30
0.0
 10
2067.386733606251
 20
1132.346586205228
 30
0.0
  0
SPLINE
  5
317
330
2D2
100
AcDbEntity
  8
0
  6
Continuous
 62
     7
370
    15
100
AcDbSpline
210
0.0
220
0.0
230
1.0
 70
     8
 71
     3
 72
    21
 73
    17
 74
     0
 42
0.0000000001
 43
0.0000000001
 40
0.0
 40
0.0
 40
0.0
 40
0.0
 40
0.0508505921801407
 40
0.1348574154402082
 40
0.216489568463784
 40
0.2981217252883226
 40
0.3821253313966553
 40
0.4661289375923289
 40
0.5477634677761554
 40
0.6293979943056004
 40
0.7134043145546941
 40
0.7974106360405759
 40
0.8477879294386122
 40
0.8981652238002059
 40
0.9490826115495893
 40
0.9999999999999998
 40
0.9999999999999998
 40
0.9999999999999998
 40
0.9999999999999998
 10
2045.108745146429
 20
1131.589349489773
 30
0.0
 10
2045.107830110015
 20
1131.585398555169
 30
0.0
 10
2045.105403403841
 20
1131.574920548788
 30
0.0
 10
2045.191745125395
 20
1131.55781488229
 30
0.0
 10
2045.355993031413
 20
1131.53765996866
 30
0.0
 10
2045.599281027421
 20
1131.517260316179
 30
0.0
 10
2045.920502502519
 20
1131.496496039994
 30
0.0
 10
2046.316448196334
 20
1131.475726067037
 30
0.0
 10
2046.779208319472
 20
1131.45530614249
 30
0.0
 10
2047.307731607681
 20
1131.435127814417
 30
0.0
 10
2047.905582867995
 20
1131.415335137157
 30
0.0
 10
2048.481333143762
 20
1131.398431647439
 30
0.0
 10
2049.001241950736
 20
1131.383976986435
 30
0.0
 10
2049.447446846663
 20
1131.371872694267
 30
0.0
 10
2049.912275343576
 20
1131.359572344418
 30
0.0
 10
2050.23740849802
 20
1131.351230713903
 30
0.0
 10
2050.399975076361
 20
1131.347059898617
 30
0.0
  0
SPLINE
  5
318
330
2D2
100
AcDbEntity
  8
0
  6
Continuous
 62
     7
370
    15
100
AcDbSpline
210
0.0
220
0.0
230
1.0
 70
     8
 71
     3
 72
    45
 73
    41
 74
     0
 42
0.0000000001
 43
0.0000000001
 40
0.0
 40
0.0
 40
0.0
 40
0.0
 40
0.0188828883679225
 40
0.0463495025612131
 40
0.0730397062105557
 40
0.0997299110538041
 40
0.1271954759453113
 40
0.1546610408073569
 40
0.1813520480340325
 40
0.2080430540170308
 40
0.2355095385923833
 40
0.2629760238831351
 40
0.289666286435971
 40
0.3163565509172523
 40
0.3438222200653151
 40
0.3712878900892784
 40
0.3979783250300762
 40
0.4246687595171594
 40
0.4521345818710788
 40
0.4796004023889579
 40
0.506291140917683
 40
0.5329818792091029
 40
0.5604480692767813
 40
0.5879142610834018
 40
0.6146045012636857
 40
0.6412947418021034
 40
0.668760334334113
 40
0.6962259258851993
 40
0.7229170435202411
 40
0.7496081591452849
 40
0.7770747651006961
 40
0.804541371042362
 40
0.8312315724600475
 40
0.8579217750303101
 40
0.8853873361144007
 40
0.9128528971201614
 40
0.939543922314839
 40
0.9662349462248785
 40
0.9937014517915891
 40
1.0
 40
1.0
 40
1.0
 40
1.0
 10
2067.39017142801
 20
1131.841868377711
 30
0.0
 10
2067.389902068073
 20
1131.846353923856
 30
0.0
 10
2067.389240903377
 20
1131.857364042038
 30
0.0
 10
2067.295525653064
 20
1131.875078339796
 30
0.0
 10
2067.12442203065
 20
1131.895256050367
 30
0.0
 10
2066.874879775232
 20
1131.915676053151
 30
0.0
 10
2066.547384148032
 20
1131.936445883233
 30
0.0
 10
2066.145416670762
 20
1131.95721018046
 30
0.0
 10
2065.67693675895
 20
1131.977610258319
 30
0.0
 10
2065.142995103435
 20
1131.997763832127
 30
0.0
 10
2064.539974492554
 20
1132.01749338176
 30
0.0
 10
2063.877169160948
 20
1132.036790454554
 30
0.0
 10
2063.166450996236
 20
1132.056307000519
 30
0.0
 10
2062.407736835291
 20
1132.076341675967
 30
0.0
 10
2061.597433338811
 20
1132.096890951198
 30
0.0
 10
2060.748569818732
 20
1132.117633199853
 30
0.0
 10
2059.875830268055
 20
1132.138213382205
 30
0.0
 10
2058.977914691169
 20
1132.158691650795
 30
0.0
 10
2058.051691873082
 20
1132.179101597156
 30
0.0
 10
2057.112459898611
 20
1132.199148030256
 30
0.0
 10
2056.176073853261
 20
1132.218314782245
 30
0.0
 10
2055.240190579374
 20
1132.237536420539
 30
0.0
 10
2054.302506463165
 20
1132.257664886307
 30
0.0
 10
2053.378869523522
 20
1132.278121121225
 30
0.0
 10
2052.48452534297
 20
1132.2986260806
 30
0.0
 10
2051.61631609191
 20
1132.319209511643
 30
0.0
 10
2050.772980503164
 20
1132.339933162905
 30
0.0
 10
2049.969113311833
 20
1132.360437982517
 30
0.0
 10
2049.217627394929
 20
1132.380417886638
 30
0.0
 10
2048.514928005833
 20
1132.39981599958
 30
0.0
 10
2047.860989785134
 20
1132.419133752495
 30
0.0
 10
2047.267551371563
 20
1132.438992740149
 30
0.0
 10
2046.743720098556
 20
1132.459187807015
 30
0.0
 10
2046.285902643216
 20
1132.479624441081
 30
0.0
 10
2045.895101566383
 20
1132.500398139147
 30
0.0
 10
2045.579429562215
 20
1132.521156641244
 30
0.0
 10
2045.340943101206
 20
1132.541540082285
 30
0.0
 10
2045.184720515851
 20
1132.561668775194
 30
0.0
 10
2045.108189782078
 20
1132.576251074683
 30
0.0
 10
2045.109751753042
 20
1132.584283935144
 30
0.0
 10
2045.110043123802
 20
1132.585782388522
 30
0.0
  0
SPLINE
  5
319
330
2D2
100
AcDbEntity
  8
0
  6
Continuous
 62
     7
370
    15
100
AcDbSpline
210
0.0
220
0.0
230
1.0
 70
     8
 71
     3
 72
    45
 73
    41
 74
     0
 42
0.0000000001
 43
0.0000000001
 40
0.0
 40
0.0
 40
0.0
 40
0.0
 40
0.0165495279337986
 40
0.0432389674009635
 40
0.0707038129517342
 40
0.0981686598975959
 40
0.1248578798735698
 40
0.1515470998767643
 40
0.1790116459536388
 40
0.2064761906930925
 40
0.2331661960511333
 40
0.2598562017230658
 40
0.2873216504247606
 40
0.3147871013395025
 40
0.3414762893554796
 40
0.3681654782049178
 40
0.3956299887021933
 40
0.4230944987504401
 40
0.4497846027787494
 40
0.4764747052173263
 40
0.5039402746861895
 40
0.531405844182797
 40
0.5580950753889466
 40
0.584784308194385
 40
0.612248893199755
 40
0.6397134786662445
 40
0.6664032181017231
 40
0.6930929567142279
 40
0.7205581002841677
 40
0.7480232416514211
 40
0.7747126393454711
 40
0.8014020366445029
 40
0.8288668372510365
 40
0.8563316392065505
 40
0.8830208523633091
 40
0.9097100655036971
 40
0.9371746049863906
 40
0.9646391430855189
 40
0.9913291296101258
 40
1.0
 40
1.0
 40
1.0
 40
1.0
 10
2067.389858884789
 20
1133.341866051863
 30
0.0
 10
2067.390544102849
 20
1133.345797356294
 30
0.0
 10
2067.392334372729
 20
1133.356068679128
 30
0.0
 10
2067.307816239134
 20
1133.373155296492
 30
0.0
 10
2067.143247280804
 20
1133.393497441998
 30
0.0
 10
2066.896742585293
 20
1133.414097303872
 30
0.0
 10
2066.577738332516
 20
1133.434663684687
 30
0.0
 10
2066.186812660879
 20
1133.455235493346
 30
0.0
 10
2065.720767316376
 20
1133.475856964011
 30
0.0
 10
2065.186405582871
 20
1133.496222449694
 30
0.0
 10
2064.593563245844
 20
1133.515836302223
 30
0.0
 10
2063.942785173819
 20
1133.53495587861
 30
0.0
 10
2063.230427336189
 20
1133.554583357224
 30
0.0
 10
2062.467746318888
 20
1133.574788620871
 30
0.0
 10
2061.668143478851
 20
1133.595120838399
 30
0.0
 10
2060.830942457523
 20
1133.615652855318
 30
0.0
 10
2059.952716997008
 20
1133.636434423916
 30
0.0
 10
2059.047776069724
 20
1133.657123868574
 30
0.0
 10
2058.131582993696
 20
1133.677360007028
 30
0.0
 10
2057.202303626353
 20
1133.697267504658
 30
0.0
 10
2056.257159197402
 20
1133.716652358046
 30
0.0
 10
2055.311965631864
 20
1133.736030861004
 30
0.0
 10
2054.382531275485
 20
1133.755928871901
 30
0.0
 10
2053.466069401798
 20
1133.77615939242
 30
0.0
 10
2052.560731281452
 20
1133.796845577031
 30
0.0
 10
2051.681981334346
 20
1133.817626978303
 30
0.0
 10
2050.844149811527
 20
1133.838161396932
 30
0.0
 10
2050.043821905728
 20
1133.858498762711
 30
0.0
 10
2049.280319600937
 20
1133.878710184215
 30
0.0
 10
2048.567057692106
 20
1133.898351117173
 30
0.0
 10
2047.915299750651
 20
1133.917467892834
 30
0.0
 10
2047.32139577814
 20
1133.937066726062
 30
0.0
 10
2046.785881315964
 20
1133.95742752008
 30
0.0
 10
2046.318629098232
 20
1133.97804486784
 30
0.0
 10
2045.926414556829
 20
1133.998615840469
 30
0.0
 10
2045.606237940402
 20
1134.019182889168
 30
0.0
 10
2045.357911664004
 20
1134.039788706657
 30
0.0
 10
2045.19374321054
 20
1134.060129313082
 30
0.0
 10
2045.112570239124
 20
1134.075341606833
 30
0.0
 10
2045.111498398515
 20
1134.083747859234
 30
0.0
 10
2045.111235571428
 20
1134.085809164627
 30
0.0
  0
SPLINE
  5
31A
330
2D2
100
AcDbEntity
  8
0
  6
Continuous
 62
     7
370
    15
100
AcDbSpline
210
0.0
220
0.0
230
1.0
 70
     8
 71
     3
 72
    45
 73
    41
 74
     0
 42
0.0000000001
 43
0.0000000001
 40
0.0
 40
0.0
 40
0.0
 40
0.0
 40
0.0035634961761355
 40
0.031027013739143
 40
0.0577142291554037
 40
0.0844014460918497
 40
0.1118639519040258
 40
0.1393264580800521
 40
0.1660142520114332
 40
0.1927020450351543
 40
0.2201651951618429
 40
0.2476283430039091
 40
0.2743156462801765
 40
0.3010029500195006
 40
0.3284655925259216
 40
0.3559282362884601
 40
0.3826154233093691
 40
0.4093026102267562
 40
0.4367650654182121
 40
0.4642275191345244
 40
0.4909154577641611
 40
0.5176033972748013
 40
0.5450667153243214
 40
0.5725300354615185
 40
0.5992172256872896
 40
0.6259044166186004
 40
0.6533668700079863
 40
0.6808293228029791
 40
0.7075174363479095
 40
0.7342055481862603
 40
0.7616690702842208
 40
0.7891325917829004
 40
0.8158198023317565
 40
0.8425070143609902
 40
0.8699695128555147
 40
0.8974320116651988
 40
0.9241198340401771
 40
0.9508076554653142
 40
0.9782708391492437
 40
1.0
 40
1.0
 40
1.0
 40
1.0
 10
2067.394290862095
 20
1134.84182858513
 30
0.0
 10
2067.395775390764
 20
1134.842678932709
 30
0.0
 10
2067.408701037128
 20
1134.850082826157
 30
0.0
 10
2067.356140976996
 20
1134.863786010605
 30
0.0
 10
2067.232955628106
 20
1134.883768556405
 30
0.0
 10
2067.0257637193
 20
1134.904036224911
 30
0.0
 10
2066.741247716147
 20
1134.924746807635
 30
0.0
 10
2066.380509216871
 20
1134.945529456538
 30
0.0
 10
2065.951287361569
 20
1134.966045839883
 30
0.0
 10
2065.454678348041
 20
1134.986342008847
 30
0.0
 10
2064.887125620611
 20
1135.006503041562
 30
0.0
 10
2064.257280047236
 20
1135.026030113508
 30
0.0
 10
2063.576489863431
 20
1135.045172642735
 30
0.0
 10
2062.844854079751
 20
1135.064896379597
 30
0.0
 10
2062.058752277153
 20
1135.085291349689
 30
0.0
 10
2061.230767950505
 20
1135.105941816092
 30
0.0
 10
2060.375281364622
 20
1135.126519499123
 30
0.0
 10
2059.491158193254
 20
1135.147075773848
 30
0.0
 10
2058.575176498007
 20
1135.167644683771
 30
0.0
 10
2057.64240868871
 20
1135.187946152099
 30
0.0
 10
2056.708648776275
 20
1135.207396216696
 30
0.0
 10
2055.771681077454
 20
1135.226500886353
 30
0.0
 10
2054.829078466246
 20
1135.24628665677
 30
0.0
 10
2053.896732922499
 20
1135.266564860321
 30
0.0
 10
2052.99008336466
 20
1135.286953546457
 30
0.0
 10
2052.106064936078
 20
1135.307508023592
 30
0.0
 10
2051.243250128598
 20
1135.328282490043
 30
0.0
 10
2050.416513847912
 20
1135.348931531314
 30
0.0
 10
2049.639194296779
 20
1135.36910322676
 30
0.0
 10
2048.907736368943
 20
1135.388893947092
 30
0.0
 10
2048.221932380183
 20
1135.408218774911
 30
0.0
 10
2047.59401919909
 20
1135.427685869368
 30
0.0
 10
2047.033731024444
 20
1135.447686016643
 30
0.0
 10
2046.537424209238
 20
1135.467977462666
 30
0.0
 10
2046.106037144476
 20
1135.488697552538
 30
0.0
 10
2045.747955360384
 20
1135.509479696055
 30
0.0
 10
2045.467375673976
 20
1135.529987690342
 30
0.0
 10
2045.264047802713
 20
1135.550255379815
 30
0.0
 10
2045.137932809538
 20
1135.568999966463
 30
0.0
 10
2045.11815576685
 20
1135.580725681725
 30
0.0
 10
2045.109419884351
 20
1135.585905145226
 30
0.0
  0
SPLINE
  5
31B
330
2D2
100
AcDbEntity
  8
0
  6
Continuous
 62
     7
370
    15
100
AcDbSpline
210
0.0
220
0.0
230
1.0
 70
     8
 71
     3
 72
    45
 73
    41
 74
     0
 42
0.0000000001
 43
0.0000000001
 40
0.0
 40
0.0
 40
0.0
 40
0.0
 40
0.017273759867409
 40
0.0447456197598318
 40
0.0722174816556418
 40
0.0989130288158323
 40
0.1256085765960371
 40
0.1530796293377152
 40
0.180550681388281
 40
0.2072471488499198
 40
0.2339436145276487
 40
0.261415732716357
 40
0.2888878500295889
 40
0.3155834009166401
 40
0.3422789532042913
 40
0.3697500299678275
 40
0.3972211069491032
 40
0.4239173322918339
 40
0.4506135566004556
 40
0.4780853954339947
 40
0.505557232477159
 40
0.5322527863607675
 40
0.5589483423576534
 40
0.5864194696727888
 40
0.6138905981039927
 40
0.6405861315253666
 40
0.6672816647125713
 40
0.6947527120532105
 40
0.7222237577822652
 40
0.7489199740426699
 40
0.7756161910475362
 40
0.8030880235872395
 40
0.8305598580874365
 40
0.8572554090974904
 40
0.8839509606845533
 40
0.9114220173501506
 40
0.9388930732765111
 40
0.9655895406857288
 40
0.992286006273011
 40
1.0
 40
1.0
 40
1.0
 40
1.0
 10
2067.39011849576
 20
1136.341791932489
 30
0.0
 10
2067.390483676592
 20
1136.345889378862
 30
0.0
 10
2067.391429634089
 20
1136.35650332619
 30
0.0
 10
2067.302160272932
 20
1136.374100632822
 30
0.0
 10
2067.133548599077
 20
1136.39442241882
 30
0.0
 10
2066.885924703328
 20
1136.414845562359
 30
0.0
 10
2066.565319076056
 20
1136.43541128093
 30
0.0
 10
2066.167265773319
 20
1136.456177512121
 30
0.0
 10
2065.697758142123
 20
1136.476795603433
 30
0.0
 10
2065.16549280259
 20
1136.496922251768
 30
0.0
 10
2064.571329327599
 20
1136.516626278973
 30
0.0
 10
2063.911603280265
 20
1136.535928387794
 30
0.0
 10
2063.196635764148
 20
1136.555471803038
 30
0.0
 10
2062.439106663013
 20
1136.575531106059
 30
0.0
 10
2061.638629822173
 20
1136.595861141783
 30
0.0
 10
2060.791683948711
 20
1136.61659943145
 30
0.0
 10
2059.91197945672
 20
1136.637379925719
 30
0.0
 10
2059.014638207598
 20
1136.657861640396
 30
0.0
 10
2058.098087347939
 20
1136.678098239202
 30
0.0
 10
2057.159366047816
 20
1136.698149657378
 30
0.0
 10
2056.214073809067
 20
1136.717518469607
 30
0.0
 10
2055.278105912179
 20
1136.736749674901
 30
0.0
 10
2054.348898703792
 20
1136.756654776232
 30
0.0
 10
2053.424350838424
 20
1136.777095898661
 30
0.0
 10
2052.520173811267
 20
1136.797790484298
 30
0.0
 10
2051.651203250567
 20
1136.818373175575
 30
0.0
 10
2050.814142683722
 20
1136.838906736108
 30
0.0
 10
2050.008017628516
 20
1136.859419428337
 30
0.0
 10
2049.246877550084
 20
1136.879640111511
 30
0.0
 10
2048.54284615283
 20
1136.898958029727
 30
0.0
 10
2047.892293339404
 20
1136.918079496368
 30
0.0
 10
2047.295494696873
 20
1136.938006868914
 30
0.0
 10
2046.763255322601
 20
1136.958354404028
 30
0.0
 10
2046.303657173215
 20
1136.978792336337
 30
0.0
 10
2045.912972499181
 20
1136.999363174953
 30
0.0
 10
2045.593207295349
 20
1137.020123215909
 30
0.0
 10
2045.348598298961
 20
1137.040728070091
 30
0.0
 10
2045.189963111514
 20
1137.060819169008
 30
0.0
 10
2045.110997131183
 20
1137.075709136825
 30
0.0
 10
2045.111178404388
 20
1137.083886276426
 30
0.0
 10
2045.111219041462
 20
1137.08571939359
 30
0.0
  0
SPLINE
  5
31C
330
2D2
100
AcDbEntity
  8
0
  6
Continuous
 62
     7
370
    15
100
AcDbSpline
210
0.0
220
0.0
230
1.0
 70
     8
 71
     3
 72
    45
 73
    41
 74
     0
 42
0.0000000001
 43
0.0000000001
 40
0.0
 40
0.0
 40
0.0
 40
0.0
 40
0.0050597791836218
 40
0.0317487907086467
 40
0.0584378042744299
 40
0.0859021941486839
 40
0.1133665850443484
 40
0.1400556495884231
 40
0.1667447138114717
 40
0.1942091128727058
 40
0.2216735102331973
 40
0.248363107884474
 40
0.2750527059474262
 40
0.3025177253050026
 40
0.3299827465359929
 40
0.3566717416425437
 40
0.3833607372397212
 40
0.4108250477255467
 40
0.4382893573763912
 40
0.4649792568048776
 40
0.4916691543366005
 40
0.5191345111606588
 40
0.546599867131584
 40
0.5732888422368765
 40
0.5999778186206293
 40
0.6274421227394368
 40
0.6549064269294643
 40
0.6815961582463978
 40
0.7082858884046374
 40
0.7357510542359622
 40
0.7632162201445303
 40
0.7899052389482982
 40
0.8165942597563871
 40
0.8440586545182801
 40
0.8715230502541666
 40
0.8982121603808314
 40
0.9249012701430697
 40
0.9523657203810827
 40
0.9798301688739217
 40
1.0
 40
1.0
 40
1.0
 40
1.0
 10
2067.392817025371
 20
1137.841781652391
 30
0.0
 10
2067.394756335388
 20
1137.842987970044
 30
0.0
 10
2067.40692499841
 20
1137.850557297735
 30
0.0
 10
2067.352698040198
 20
1137.864526564402
 30
0.0
 10
2067.227333350304
 20
1137.884490593089
 30
0.0
 10
2067.014646207768
 20
1137.904975115074
 30
0.0
 10
2066.726308849198
 20
1137.925691192824
 30
0.0
 10
2066.365664743639
 20
1137.94627492943
 30
0.0
 10
2065.934943535268
 20
1137.966789118965
 30
0.0
 10
2065.430423374751
 20
1137.987262448057
 30
0.0
 10
2064.859707472237
 20
1138.007419975107
 30
0.0
 10
2064.233175331497
 20
1138.02666738676
 30
0.0
 10
2063.551218695419
 20
1138.045817659622
 30
0.0
 10
2062.810200417654
 20
1138.065830188752
 30
0.0
 10
2062.021885902572
 20
1138.08622190844
 30
0.0
 10
2061.200065783198
 20
1138.106688806294
 30
0.0
 10
2060.343892532582
 20
1138.127266634227
 30
0.0
 10
2059.450008571991
 20
1138.148015028074
 30
0.0
 10
2058.533031523987
 20
1138.168580729928
 30
0.0
 10
2057.608579131475
 20
1138.188636655378
 30
0.0
 10
2056.674667088898
 20
1138.208197371032
 30
0.0
 10
2055.728641793935
 20
1138.227491337924
 30
0.0
 10
2054.786387046239
 20
1138.247175124776
 30
0.0
 10
2053.863602541614
 20
1138.267309802524
 30
0.0
 10
2052.957390884741
 20
1138.287694588107
 30
0.0
 10
2052.066055013288
 20
1138.308453976081
 30
0.0
 10
2051.20486947505
 20
1138.329227304061
 30
0.0
 10
2050.38782471598
 20
1138.349661966849
 30
0.0
 10
2049.611447914546
 20
1138.369854868008
 30
0.0
 10
2048.875233073186
 20
1138.389704858057
 30
0.0
 10
2048.192184865041
 20
1138.409020453949
 30
0.0
 10
2047.573032165581
 20
1138.42842623692
 30
0.0
 10
2047.014106231693
 20
1138.448409436747
 30
0.0
 10
2046.516132459088
 20
1138.468917099235
 30
0.0
 10
2046.088283109446
 20
1138.489642274042
 30
0.0
 10
2045.73701862642
 20
1138.510225172365
 30
0.0
 10
2045.458027583413
 20
1138.530730255962
 30
0.0
 10
2045.256474510348
 20
1138.551176278265
 30
0.0
 10
2045.134958266851
 20
1138.569716007064
 30
0.0
 10
2045.117345867685
 20
1138.581042609064
 30
0.0
 10
2045.109888231718
 20
1138.585838643588
 30
0.0
  0
SPLINE
  5
31D
330
2D2
100
AcDbEntity
  8
0
  6
Continuous
 62
     7
370
    15
100
AcDbSpline
210
0.0
220
0.0
230
1.0
 70
     8
 71
     3
 72
    45
 73
    41
 74
     0
 42
0.0000000001
 43
0.0000000001
 40
0.0
 40
0.0
 40
0.0
 40
0.0
 40
0.0187669970233741
 40
0.0462320616484119
 40
0.0729207592438523
 40
0.0996094580356222
 40
0.1270734732165996
 40
0.1545374883710689
 40
0.1812269882195885
 40
0.2079164868269807
 40
0.2353814200714991
 40
0.2628463540190227
 40
0.2895351102009105
 40
0.3162238683133788
 40
0.3436879874902798
 40
0.3711521075459164
 40
0.3978410337012745
 40
0.4245299594055572
 40
0.4519942288834177
 40
0.4794584965279879
 40
0.5061477307899231
 40
0.5328369648273128
 40
0.5603016069884256
 40
0.587766250891061
 40
0.6144549846955135
 40
0.6411437188607004
 40
0.6686077612355647
 40
0.6960718026324291
 40
0.7227614144576439
 40
0.7494510242751823
 40
0.7769160807760763
 40
0.8043811372366619
 40
0.8310698325686473
 40
0.8577585290556459
 40
0.8852225403897902
 40
0.9126865516485603
 40
0.9393760695433407
 40
0.9660655861560243
 40
0.9935305404844598
 40
1.0
 40
1.0
 40
1.0
 40
1.0
 10
2067.390107816974
 20
1139.341868478144
 30
0.0
 10
2067.389906861621
 20
1139.346326820791
 30
0.0
 10
2067.389411812772
 20
1139.35730984444
 30
0.0
 10
2067.296081872996
 20
1139.374993000083
 30
0.0
 10
2067.125325904494
 20
1139.395169604435
 30
0.0
 10
2066.87610184686
 20
1139.415588588053
 30
0.0
 10
2066.54892499465
 20
1139.436358162926
 30
0.0
 10
2066.147263489017
 20
1139.457122771452
 30
0.0
 10
2065.6790739496
 20
1139.477523889751
 30
0.0
 10
2065.145407737352
 20
1139.497678724351
 30
0.0
 10
2064.54264798122
 20
1139.517411597189
 30
0.0
 10
2063.880084176016
 20
1139.536709003974
 30
0.0
 10
2063.16958441408
 20
1139.556222408979
 30
0.0
 10
2062.411066911085
 20
1139.576255600019
 30
0.0
 10
2061.600938053504
 20
1139.596803704511
 30
0.0
 10
2060.752223940028
 20
1139.617545491673
 30
0.0
 10
2059.879606404922
 20
1139.638125810647
 30
0.0
 10
2058.981786685919
 20
1139.658604860016
 30
0.0
 10
2058.05563285439
 20
1139.679016094572
 30
0.0
 10
2057.116441425757
 20
1139.699064889211
 30
0.0
 10
2056.180067125722
 20
1139.718232914302
 30
0.0
 10
2055.244167760954
 20
1139.737452824767
 30
0.0
 10
2054.306438813799
 20
1139.757579170633
 30
0.0
 10
2053.382728736479
 20
1139.778034168887
 30
0.0
 10
2052.488284698899
 20
1139.798538449272
 30
0.0
 10
2051.619949538852
 20
1139.819121833643
 30
0.0
 10
2050.776460729446
 20
1139.839846037786
 30
0.0
 10
2049.972415227492
 20
1139.860352131465
 30
0.0
 10
2049.22072920837
 20
1139.880333573773
 30
0.0
 10
2048.517808195604
 20
1139.899735056008
 30
0.0
 10
2047.863625453291
 20
1139.9190520258
 30
0.0
 10
2047.269923458161
 20
1139.93890724299
 30
0.0
 10
2046.745814403465
 20
1139.959101279624
 30
0.0
 10
2046.287704284881
 20
1139.979536928837
 30
0.0
 10
2045.896596140704
 20
1140.000310417954
 30
0.0
 10
2045.580601212925
 20
1140.021069275131
 30
0.0
 10
2045.34180511035
 20
1140.041453798339
 30
0.0
 10
2045.18519783114
 20
1140.061583801167
 30
0.0
 10
2045.108355481273
 20
1140.076209894763
 30
0.0
 10
2045.109843985954
 20
1140.08428328208
 30
0.0
 10
2045.110127763384
 20
1140.085822440901
 30
0.0
  0
SPLINE
  5
31E
330
2D2
100
AcDbEntity
  8
0
  6
Continuous
 62
     7
370
    15
100
AcDbSpline
210
0.0
220
0.0
230
1.0
 70
     8
 71
     3
 72
    44
 73
    40
 74
     0
 42
0.0000000001
 43
0.0000000001
 40
0.0
 40
0.0
 40
0.0
 40
0.0
 40
0.0249823377479495
 40
0.0516693640083815
 40
0.0791317176933068
 40
0.1065940725672051
 40
0.1332810269614387
 40
0.1599679811895193
 40
0.1874301973366329
 40
0.2148924119432013
 40
0.2415801050507742
 40
0.268267799042948
 40
0.2957308626618758
 40
0.3231939283075089
 40
0.349880911298927
 40
0.3765678949342688
 40
0.4040301347785286
 40
0.4314923739589602
 40
0.4581802785076218
 40
0.4848681812944052
 40
0.5123314880254774
 40
0.5397947939406996
 40
0.566481785332353
 40
0.5931687781467635
 40
0.6206310479439886
 40
0.6480933179862736
 40
0.6747809666834368
 40
0.7014686143703388
 40
0.728931625414843
 40
0.7563946341757802
 40
0.783081618203679
 40
0.8097686043641822
 40
0.8372309141958924
 40
0.8646932251697041
 40
0.8913801690539253
 40
0.9180671127284817
 40
0.9455293186153644
 40
0.9729915229164893
 40
1.0
 40
1.0
 40
1.0
 40
1.0
 10
2067.396655797053
 20
1140.841836890564
 30
0.0
 10
2067.391052092536
 20
1140.847767757495
 30
0.0
 10
2067.37946231053
 20
1140.860034188501
 30
0.0
 10
2067.265355405347
 20
1140.879438297092
 30
0.0
 10
2067.075126215514
 20
1140.899853247773
 30
0.0
 10
2066.805044305277
 20
1140.92052646327
 30
0.0
 10
2066.462919793517
 20
1140.941107112807
 30
0.0
 10
2066.049781301894
 20
1140.961653435952
 30
0.0
 10
2065.562261781717
 20
1140.98219582053
 30
0.0
 10
2065.007576670661
 20
1141.002460643861
 30
0.0
 10
2064.395874097638
 20
1141.021843399132
 30
0.0
 10
2063.727611966184
 20
1141.040952166945
 30
0.0
 10
2062.99915109705
 20
1141.060807911478
 30
0.0
 10
2062.222032927636
 20
1141.081119799683
 30
0.0
 10
2061.409878788932
 20
1141.101533020362
 30
0.0
 10
2060.561917099361
 20
1141.122096017985
 30
0.0
 10
2059.674758631393
 20
1141.142864807489
 30
0.0
 10
2058.762887469451
 20
1141.163491924483
 30
0.0
 10
2057.841856809607
 20
1141.183631388976
 30
0.0
 10
2056.909748904113
 20
1141.203360476422
 30
0.0
 10
2055.963852787106
 20
1141.222667568367
 30
0.0
 10
2055.020027431663
 20
1141.242188156687
 30
0.0
 10
2054.094026201784
 20
1141.26223157029
 30
0.0
 10
2053.182999076718
 20
1141.282550927075
 30
0.0
 10
2052.285181114183
 20
1141.303284483039
 30
0.0
 10
2051.415935374263
 20
1141.32406553289
 30
0.0
 10
2050.589407631893
 20
1141.344555619938
 30
0.0
 10
2049.802149445957
 20
1141.364798612744
 30
0.0
 10
2049.053580025701
 20
1141.38489117113
 30
0.0
 10
2048.356887494148
 20
1141.404273403018
 30
0.0
 10
2047.723044437146
 20
1141.423470172116
 30
0.0
 10
2047.148389987548
 20
1141.443360247878
 30
0.0
 10
2046.633565550188
 20
1141.463788092898
 30
0.0
 10
2046.188040165032
 20
1141.48447633457
 30
0.0
 10
2045.818487138365
 20
1141.50505794088
 30
0.0
 10
2045.520913623668
 20
1141.525597305722
 30
0.0
 10
2045.299106440694
 20
1141.54611718283
 30
0.0
 10
2045.149773516385
 20
1141.566447145508
 30
0.0
 10
2045.118560344263
 20
1141.579443619169
 30
0.0
 10
2045.103083757179
 20
1141.585887727304
 30
0.0
  0
LINE
  5
31F
330
2D2
100
AcDbEntity
  8
0
  6
Continuous
 62
     7
370
    15
100
AcDbLine
 10
2067.398963988885
 20
1141.339397482828
 30
0.0
 11
2067.398963988885
 21
1141.647059898617
 31
0.0
  0
LINE
  5
320
330
2D2
100
AcDbEntity
  8
0
  6
Continuous
 62
     7
370
    15
100
AcDbLine
 10
2045.098963988885
 20
1131.347059898617
 30
0.0
 11
2050.399975076361
 21
1131.347059898617
 31
0.0
  0
SPLINE
  5
321
330
2D2
100
AcDbEntity
  8
0
  6
Continuous
 62
     7
370
    15
100
AcDbSpline
210
0.0
220
0.0
230
1.0
 70
    24
 71
     3
 72
    11
 73
     7
 74
     0
 42
0.0000000001
 43
0.0000000001
 40
0.0
 40
0.0
 40
0.0
 40
0.0
 40
0.0533644810044419
 40
0.4074158582168792
 40
0.7601727754766518
 40
1.0
 40
1.0
 40
1.0
 40
1.0
 10
2066.77945379407
 20
1131.347059898617
 30
0.0
 10
2066.780992198533
 20
1131.347059898617
 30
0.0
 10
2066.792737283703
 20
1131.347059898617
 30
0.0
 10
2066.741379750212
 20
1131.347059898617
 30
0.0
 10
2066.637222266074
 20
1131.347059898617
 30
0.0
 10
2066.52418745156
 20
1131.347059898617
 30
0.0
 10
2066.478440655573
 20
1131.347059898617
 30
0.0
  0
LINE
  5
322
330
2D2
100
AcDbEntity
  8
0
  6
Continuous
 62
     8
370
    15
100
AcDbLine
 10
2069.998963988886
 20
1142.858641606703
 30
0.0
 11
2042.498963988885
 21
1142.858641606703
 31
0.0
  0
LINE
  5
323
330
2D2
100
AcDbEntity
  8
0
  6
Continuous
 62
     8
370
    15
100
AcDbLine
 10
2069.226695852981
 20
1143.832365488548
 30
0.0
 11
2043.27123212479
 21
1143.832365488548
 31
0.0
  0
ENDBLK
  5
2D4
330
2D2
100
AcDbEntity
  8
0
100
AcDbBlockEnd
  0
BLOCK
  5
326
330
325
100
AcDbEntity
  8
0
100
AcDbBlockBegin
  2
2
 70
     0
 10
0.0
 20
0.0
 30
0.0
  3
2
  1

  0
CIRCLE
  5
328
330
325
100
AcDbEntity
  8
0
  6
Continuous
 62
     7
370
    15
100
AcDbCircle
 10
2056.248963988886
 20
1105.571379578951
 30
0.0
 40
12.97773186409554
  0
SPLINE
  5
329
330
325
100
AcDbEntity
  8
0
  6
Continuous
 62
     7
370
    15
100
AcDbSpline
210
0.0
220
0.0
230
1.0
 70
    24
 71
     3
 72
    18
 73
    14
 74
     0
 42
0.0000000001
 43
0.0000000001
 40
0.0
 40
0.0
 40
0.0
 40
0.0
 40
0.2499999999999999
 40
0.2499999999999999
 40
0.3749999999999998
 40
0.3749999999999998
 40
0.5
 40
0.5
 40
0.625
 40
0.625
 40
0.75
 40
0.75
 40
1.0
 40
1.0
 40
1.0
 40
1.0
 10
2049.948963988885
 20
1106.271379578951
 30
0.0
 10
2050.993428939643
 20
1106.271379578951
 30
0.0
 10
2052.03985814508
 20
1106.271379578951
 30
0.0
 10
2053.61252471293
 20
1106.271379578951
 30
0.0
 10
2054.137240923966
 20
1106.271379578951
 30
0.0
 10
2055.187852367889
 20
1106.271379578951
 30
0.0
 10
2055.713430720922
 20
1106.271379578951
 30
0.0
 10
2056.769101498273
 20
1106.271379578951
 30
0.0
 10
2057.296430979908
 20
1106.271379578951
 30
0.0
 10
2058.349795413988
 20
1106.271379578951
 30
0.0
 10
2058.875987654819
 20
1106.271379578951
 30
0.0
 10
2060.453335380108
 20
1106.271379578951
 30
0.0
 10
2061.50258365551
 20
1106.271379578951
 30
0.0
 10
2062.548963988885
 20
1106.271379578951
 30
0.0
  0
SPLINE
  5
32A
330
325
100
AcDbEntity
  8
0
  6
Continuous
 62
     7
370
    15
100
AcDbSpline
210
0.0
220
0.0
230
1.0
 70
     8
 71
     3
 72
    18
 73
    14
 74
     0
 42
0.0000000001
 43
0.0000000001
 40
0.0
 40
0.0
 40
0.0
 40
0.0
 40
0.125
 40
0.125
 40
0.25
 40
0.25
 40
0.5
 40
0.5
 40
0.625
 40
0.625
 40
0.75
 40
0.75
 40
1.0
 40
1.0
 40
1.0
 40
1.0
 10
2049.948963988885
 20
1104.871379578951
 30
0.0
 10
2049.85690068092
 20
1104.871379578951
 30
0.0
 10
2049.766577835139
 20
1104.889389802597
 30
0.0
 10
2049.597385631513
 20
1104.959197071232
 30
0.0
 10
2049.519811350004
 20
1105.010867560868
 30
0.0
 10
2049.325595190953
 20
1105.204236308189
 30
0.0
 10
2049.249111357307
 20
1105.3875206933
 30
0.0
 10
2049.248890642994
 20
1105.66246612742
 30
0.0
 10
2049.26715378869
 20
1105.754656916534
 30
0.0
 10
2049.337621422519
 20
1105.924531101827
 30
0.0
 10
2049.389227009026
 20
1106.001769065076
 30
0.0
 10
2049.585536217364
 20
1106.197544605474
 30
0.0
 10
2049.764835562962
 20
1106.271379578951
 30
0.0
 10
2049.948963988885
 20
1106.271379578951
 30
0.0
  0
SPLINE
  5
32B
330
325
100
AcDbEntity
  8
0
  6
Continuous
 62
     7
370
    15
100
AcDbSpline
210
0.0
220
0.0
230
1.0
 70
    24
 71
     3
 72
    18
 73
    14
 74
     0
 42
0.0000000001
 43
0.0000000001
 40
0.0
 40
0.0
 40
0.0
 40
0.0
 40
0.25
 40
0.25
 40
0.375
 40
0.375
 40
0.5
 40
0.5
 40
0.625
 40
0.625
 40
0.7499999999999999
 40
0.7499999999999999
 40
1.0
 40
1.0
 40
1.0
 40
1.0
 10
2062.548963988885
 20
1104.871379578951
 30
0.0
 10
2061.504499038127
 20
1104.871379578951
 30
0.0
 10
2060.458069832691
 20
1104.871379578951
 30
0.0
 10
2058.88540326484
 20
1104.871379578951
 30
0.0
 10
2058.360687053805
 20
1104.871379578951
 30
0.0
 10
2057.310075609882
 20
1104.871379578951
 30
0.0
 10
2056.784497256848
 20
1104.871379578951
 30
0.0
 10
2055.728826479498
 20
1104.871379578951
 30
0.0
 10
2055.201496997863
 20
1104.871379578951
 30
0.0
 10
2054.148132563783
 20
1104.871379578951
 30
0.0
 10
2053.621940322951
 20
1104.871379578951
 30
0.0
 10
2052.044592597663
 20
1104.871379578951
 30
0.0
 10
2050.995344322261
 20
1104.871379578951
 30
0.0
 10
2049.948963988885
 20
1104.871379578951
 30
0.0
  0
SPLINE
  5
32C
330
325
100
AcDbEntity
  8
0
  6
Continuous
 62
     7
370
    15
100
AcDbSpline
210
0.0
220
0.0
230
1.0
 70
     8
 71
     3
 72
    18
 73
    14
 74
     0
 42
0.0000000001
 43
0.0000000001
 40
0.0
 40
0.0
 40
0.0
 40
0.0
 40
0.1250000000000004
 40
0.1250000000000004
 40
0.2500000000000008
 40
0.2500000000000008
 40
0.5000000000000007
 40
0.5000000000000007
 40
0.6250000000000006
 40
0.6250000000000006
 40
0.7500000000000004
 40
0.7500000000000004
 40
1.0
 40
1.0
 40
1.0
 40
1.0
 10
2062.548963988885
 20
1106.271379578951
 30
0.0
 10
2062.64102729685
 20
1106.271379578951
 30
0.0
 10
2062.731350142631
 20
1106.253369355306
 30
0.0
 10
2062.900542346258
 20
1106.183562086671
 30
0.0
 10
2062.978116627768
 20
1106.131891597034
 30
0.0
 10
2063.172332786817
 20
1105.938522849713
 30
0.0
 10
2063.248816620463
 20
1105.755238464602
 30
0.0
 10
2063.249037334777
 20
1105.480293030482
 30
0.0
 10
2063.230774189081
 20
1105.388102241368
 30
0.0
 10
2063.160306555252
 20
1105.218228056075
 30
0.0
 10
2063.108700968744
 20
1105.140990092827
 30
0.0
 10
2062.912391760407
 20
1104.945214552428
 30
0.0
 10
2062.733092414809
 20
1104.871379578951
 30
0.0
 10
2062.548963988885
 20
1104.871379578951
 30
0.0
  0
CIRCLE
  5
32D
330
325
100
AcDbEntity
  8
0
  6
Continuous
 62
     7
370
    15
100
AcDbCircle
 10
2056.248963988886
 20
1105.571379578951
 30
0.0
 40
13.74999999999997
  0
INSERT
  5
32E
330
325
100
AcDbEntity
  8
0
  6
Continuous
 62
     7
370
     0
100
AcDbBlockReference
  2
SW_CENTERMARKSYMBOL_0
 10
2056.248963988886
 20
1105.571379578951
 30
0.0
  0
ENDBLK
  5
327
330
325
100
AcDbEntity
  8
0
100
AcDbBlockEnd
  0
BLOCK
  5
331
330
330
100
AcDbEntity
  8
0
100
AcDbBlockBegin
  2
3
 70
     0
 10
0.0
 20
0.0
 30
0.0
  3
3
  1

  0
SPLINE
  5
333
330
330
100
AcDbEntity
  8
0
  6
Continuous
 62
     7
370
    15
100
AcDbSpline
210
0.0
220
0.0
230
1.0
 70
     8
 71
     3
 72
    80
 73
    76
 74
     0
 42
0.0000000001
 43
0.0000000001
 40
0.0
 40
0.0
 40
0.0
 40
0.0
 40
0.003385293046196
 40
0.0165399114729767
 40
0.0296935677120215
 40
0.0428665123044368
 40
0.056079889170364
 40
0.0693524532335803
 40
0.0826996081618505
 40
0.0961326528084667
 40
0.1096583093626132
 40
0.1232785968724981
 40
0.1369910830161584
 40
0.1507894952435551
 40
0.1646646122428487
 40
0.1786053080011606
 40
0.192599601469205
 40
0.2066355813934266
 40
0.2207021199782235
 40
0.2347893431345567
 40
0.2488888718464573
 40
0.2629938786735115
 40
0.2770976687483663
 40
0.2911964992016868
 40
0.305287828367631
 40
0.3193699977709845
 40
0.3334420567543803
 40
0.3475036100373909
 40
0.3615546901982971
 40
0.3755956540354577
 40
0.3896271002512547
 40
0.4036498053278464
 40
0.4176646744384318
 40
0.4316727044955185
 40
0.4456749568136464
 40
0.4596725372623736
 40
0.4736665821550935
 40
0.4876582484370951
 40
0.5016487069939295
 40
0.51563913809829
 40
0.5296304901799253
 40
0.5436237961298107
 40
0.5576202476426674
 40
0.5716210344583797
 40
0.5856273394674762
 40
0.5996403315160621
 40
0.6136611548500554
 40
0.6276909139429127
 40
0.6417306521668804
 40
0.6557813224176338
 40
0.6698437473934901
 40
0.6839185667861323
 40
0.6980061682118285
 40
0.7121065983995493
 40
0.7262194511287302
 40
0.7403437289559643
 40
0.7544776773108942
 40
0.7686185926623905
 40
0.7827621158771901
 40
0.796901433526232
 40
0.8110292047602884
 40
0.8251363917705585
 40
0.8392123128767252
 40
0.8532449033910173
 40
0.86722123689204
 40
0.8811283270034538
 40
0.8949541733706436
 40
0.9086889474891012
 40
0.9223261568902072
 40
0.9358636049036212
 40
0.9493039910417703
 40
0.9626550658597553
 40
0.9759293377897492
 40
0.9891433984707884
 40
1.0
 40
1.0
 40
1.0
 40
1.0
 10
2126.839112684016
 20
1134.048522388807
 30
0.0
 10
2126.839947698131
 20
1134.080058166301
 30
0.0
 10
2126.844027421614
 20
1134.234136103089
 30
0.0
 10
2126.825664082916
 20
1134.510744872418
 30
0.0
 10
2126.783225157401
 20
1134.877049994289
 30
0.0
 10
2126.713198907882
 20
1135.241378059329
 30
0.0
 10
2126.618294444198
 20
1135.603188335835
 30
0.0
 10
2126.497896390858
 20
1135.961982168052
 30
0.0
 10
2126.35226847153
 20
1136.317228171007
 30
0.0
 10
2126.181448544492
 20
1136.668357081886
 30
0.0
 10
2125.985577432353
 20
1137.014750208524
 30
0.0
 10
2125.764842771112
 20
1137.355738656799
 30
0.0
 10
2125.519523725976
 20
1137.690609644682
 30
0.0
 10
2125.250000783163
 20
1138.018620163366
 30
0.0
 10
2124.956764177656
 20
1138.339015443051
 30
0.0
 10
2124.64041085789
 20
1138.651049199211
 30
0.0
 10
2124.301634040827
 20
1138.954002440606
 30
0.0
 10
2123.941207386097
 20
1139.247198342095
 30
0.0
 10
2123.559967164842
 20
1139.530011856672
 30
0.0
 10
2123.158795172777
 20
1139.801873981616
 30
0.0
 10
2122.738604306668
 20
1140.062271532092
 30
0.0
 10
2122.300341609995
 20
1140.310735860085
 30
0.0
 10
2121.844966476645
 20
1140.546848927534
 30
0.0
 10
2121.373444727862
 20
1140.770237575806
 30
0.0
 10
2120.886730263529
 20
1140.980573255442
 30
0.0
 10
2120.385782321562
 20
1141.177557346354
 30
0.0
 10
2119.871567601886
 20
1141.360916859036
 30
0.0
 10
2119.345061256583
 20
1141.530401799228
 30
0.0
 10
2118.807247821379
 20
1141.685783367211
 30
0.0
 10
2118.259121914281
 20
1141.826852838252
 30
0.0
 10
2117.701688613545
 20
1141.953420967921
 30
0.0
 10
2117.135963484534
 20
1142.065317780433
 30
0.0
 10
2116.562972261192
 20
1142.162392619455
 30
0.0
 10
2115.983750208737
 20
1142.244514363381
 30
0.0
 10
2115.399341204778
 20
1142.311571727963
 30
0.0
 10
2114.810796580364
 20
1142.363473597092
 30
0.0
 10
2114.219173762961
 20
1142.400149337207
 30
0.0
 10
2113.625534761857
 20
1142.421549062512
 30
0.0
 10
2113.030944534852
 20
1142.427643827333
 30
0.0
 10
2112.436472641463
 20
1142.418425781305
 30
0.0
 10
2111.843190298027
 20
1142.393908601999
 30
0.0
 10
2111.252166232317
 20
1142.354127551965
 30
0.0
 10
2110.664461481238
 20
1142.299138811692
 30
0.0
 10
2110.081128833229
 20
1142.229018849893
 30
0.0
 10
2109.503213409185
 20
1142.143864080562
 30
0.0
 10
2108.931751136079
 20
1142.043790335647
 30
0.0
 10
2108.367767376139
 20
1141.928932262133
 30
0.0
 10
2107.812275755769
 20
1141.799442669186
 30
0.0
 10
2107.266277241423
 20
1141.655491862408
 30
0.0
 10
2106.730759512717
 20
1141.497267017142
 30
0.0
 10
2106.206696684216
 20
1141.324971662149
 30
0.0
 10
2105.695049424718
 20
1141.138825369373
 30
0.0
 10
2105.196765513559
 20
1140.939063775355
 30
0.0
 10
2104.712780853163
 20
1140.725939094445
 30
0.0
 10
2104.244020919972
 20
1140.499721320786
 30
0.0
 10
2103.791402574543
 20
1140.260700349668
 30
0.0
 10
2103.355836058071
 20
1140.009189268947
 30
0.0
 10
2102.938231751761
 20
1139.74553214314
 30
0.0
 10
2102.539510395336
 20
1139.470118069495
 30
0.0
 10
2102.160589690539
 20
1139.183384351247
 30
0.0
 10
2101.802376478242
 20
1138.885822686977
 30
0.0
 10
2101.465752676306
 20
1138.577980350987
 30
0.0
 10
2101.151574512819
 20
1138.260475211084
 30
0.0
 10
2100.860657082016
 20
1137.934000818143
 30
0.0
 10
2100.593755036471
 20
1137.599326608233
 30
0.0
 10
2100.351540923495
 20
1137.257291549401
 30
0.0
 10
2100.134585056256
 20
1136.908790457142
 30
0.0
 10
2099.943336909304
 20
1136.554753645302
 30
0.0
 10
2099.778124799668
 20
1136.196122099592
 30
0.0
 10
2099.639126720978
 20
1135.833821749112
 30
0.0
 10
2099.52649474874
 20
1135.468739958508
 30
0.0
 10
2099.439958586057
 20
1135.101709555661
 30
0.0
 10
2099.380391039693
 20
1134.733493849662
 30
0.0
 10
2099.346251416204
 20
1134.386341736422
 30
0.0
 10
2099.344339215932
 20
1134.162033877046
 30
0.0
 10
2099.343476755389
 20
1134.060864203032
 30
0.0
  0
LINE
  5
334
330
330
100
AcDbEntity
  8
0
  6
Continuous
 62
     7
370
    15
100
AcDbLine
 10
2126.841603477609
 20
1133.075447155995
 30
0.0
 11
2126.841603477609
 21
1134.064753067581
 31
0.0
  0
LINE
  5
335
330
330
100
AcDbEntity
  8
0
  6
Continuous
 62
     7
370
    15
100
AcDbLine
 10
2099.34160347761
 20
1134.064753067581
 30
0.0
 11
2099.34160347761
 21
1133.075447155995
 31
0.0
  0
SPLINE
  5
336
330
330
100
AcDbEntity
  8
0
  6
Continuous
 62
     7
370
    15
100
AcDbSpline
210
0.0
220
0.0
230
1.0
 70
     8
 71
     3
 72
     9
 73
     5
 74
     0
 42
0.0000000001
 43
0.0000000001
 40
0.0
 40
0.0
 40
0.0
 40
0.0
 40
0.5000033485976069
 40
0.9999999999999998
 40
0.9999999999999998
 40
0.9999999999999998
 40
0.9999999999999998
 10
2108.111894588039
 20
1125.677672864789
 30
0.0
 10
2108.165271069438
 20
1125.66122225267
 30
0.0
 10
2108.272023317294
 20
1125.628321248776
 30
0.0
 10
2108.378273636441
 20
1125.595569362897
 30
0.0
 10
2108.431398440224
 20
1125.57919352963
 30
0.0
  0
SPLINE
  5
337
330
330
100
AcDbEntity
  8
0
  6
Continuous
 62
     7
370
    15
100
AcDbSpline
210
0.0
220
0.0
230
1.0
 70
     8
 71
     3
 72
     9
 73
     5
 74
     0
 42
0.0000000001
 43
0.0000000001
 40
0.0
 40
0.0
 40
0.0
 40
0.0
 40
0.5000033184836025
 40
1.0
 40
1.0
 40
1.0
 40
1.0
 10
2108.112264452885
 20
1124.452747674592
 30
0.0
 10
2108.165624904966
 20
1124.436302000177
 30
0.0
 10
2108.272345100831
 20
1124.403410869646
 30
0.0
 10
2108.378565597998
 20
1124.370668160679
 30
0.0
 10
2108.431675494091
 20
1124.354296914852
 30
0.0
  0
SPLINE
  5
338
330
330
100
AcDbEntity
  8
0
  6
Continuous
 62
     7
370
    15
100
AcDbSpline
210
0.0
220
0.0
230
1.0
 70
     8
 71
     3
 72
     9
 73
     5
 74
     0
 42
0.0000000001
 43
0.0000000001
 40
0.0
 40
0.0
 40
0.0
 40
0.0
 40
0.50000338798809
 40
1.0
 40
1.0
 40
1.0
 40
1.0
 10
2108.112497441966
 20
1123.227864667249
 30
0.0
 10
2108.165883897996
 20
1123.211410979786
 30
0.0
 10
2108.272656086571
 20
1123.178503827837
 30
0.0
 10
2108.378923416934
 20
1123.145746668625
 30
0.0
 10
2108.432056722083
 20
1123.129368200001
 30
0.0
  0
SPLINE
  5
339
330
330
100
AcDbEntity
  8
0
  6
Continuous
 62
     7
370
    15
100
AcDbSpline
210
0.0
220
0.0
230
1.0
 70
     8
 71
     3
 72
     9
 73
     5
 74
     0
 42
0.0000000001
 43
0.0000000001
 40
0.0
 40
0.0
 40
0.0
 40
0.0
 40
0.5000035288407972
 40
1.0
 40
1.0
 40
1.0
 40
1.0
 10
2108.112109768189
 20
1122.003172903186
 30
0.0
 10
2108.165556677696
 20
1121.9867005892
 30
0.0
 10
2108.272449742293
 20
1121.953756193739
 30
0.0
 10
2108.378827677997
 20
1121.920964953502
 30
0.0
 10
2108.432016270457
 20
1121.904569449098
 30
0.0
  0
SPLINE
  5
33A
330
330
100
AcDbEntity
  8
0
  6
Continuous
 62
     7
370
    15
100
AcDbSpline
210
0.0
220
0.0
230
1.0
 70
     8
 71
     3
 72
     9
 73
     5
 74
     0
 42
0.0000000001
 43
0.0000000001
 40
0.0
 40
0.0
 40
0.0
 40
0.0
 40
0.5000035050380874
 40
0.9999999999999998
 40
0.9999999999999998
 40
0.9999999999999998
 40
0.9999999999999998
 10
2108.111775674821
 20
1120.778464638231
 30
0.0
 10
2108.165216459233
 20
1120.761994211185
 30
0.0
 10
2108.272097278814
 20
1120.72905358801
 30
0.0
 10
2108.378464700742
 20
1120.696265601842
 30
0.0
 10
2108.431648038886
 20
1120.679871723681
 30
0.0
  0
SPLINE
  5
33B
330
330
100
AcDbEntity
  8
0
  6
Continuous
 62
     7
370
    15
100
AcDbSpline
210
0.0
220
0.0
230
1.0
 70
     8
 71
     3
 72
     9
 73
     5
 74
     0
 42
0.0000000001
 43
0.0000000001
 40
0.0
 40
0.0
 40
0.0
 40
0.0
 40
0.5000034790441114
 40
1.0
 40
1.0
 40
1.0
 40
1.0
 10
2108.111595662721
 20
1119.553708895595
 30
0.0
 10
2108.165027866546
 20
1119.537241112632
 30
0.0
 10
2108.271891530629
 20
1119.504305775875
 30
0.0
 10
2108.378243689587
 20
1119.471522502647
 30
0.0
 10
2108.431419399062
 20
1119.455130980088
 30
0.0
  0
SPLINE
  5
33C
330
330
100
AcDbEntity
  8
0
  6
Continuous
 62
     7
370
    15
100
AcDbSpline
210
0.0
220
0.0
230
1.0
 70
     8
 71
     3
 72
     9
 73
     5
 74
     0
 42
0.0000000001
 43
0.0000000001
 40
0.0
 40
0.0
 40
0.0
 40
0.0
 40
0.4999957428244862
 40
0.9999999999999998
 40
0.9999999999999998
 40
0.9999999999999998
 40
0.9999999999999998
 10
2118.288260807683
 20
1119.428369828498
 30
0.0
 10
2118.341666987946
 20
1119.444832035455
 30
0.0
 10
2118.448480257919
 20
1119.477756729702
 30
0.0
 10
2118.554732350947
 20
1119.510502983935
 30
0.0
 10
2118.607858849794
 20
1119.526876250458
 30
0.0
  0
SPLINE
  5
33D
330
330
100
AcDbEntity
  8
0
  6
Continuous
 62
     7
370
    15
100
AcDbSpline
210
0.0
220
0.0
230
1.0
 70
     8
 71
     3
 72
     9
 73
     5
 74
     0
 42
0.0000000001
 43
0.0000000001
 40
0.0
 40
0.0
 40
0.0
 40
0.0
 40
0.4999957804398766
 40
1.0
 40
1.0
 40
1.0
 40
1.0
 10
2118.288408444362
 20
1120.653226554612
 30
0.0
 10
2118.341829012194
 20
1120.669693196217
 30
0.0
 10
2118.448671049509
 20
1120.702626757357
 30
0.0
 10
2118.554954435031
 20
1120.735382645146
 30
0.0
 10
2118.608096576262
 20
1120.751760727256
 30
0.0
  0
SPLINE
  5
33E
330
330
100
AcDbEntity
  8
0
  6
Continuous
 62
     7
370
    15
100
AcDbSpline
210
0.0
220
0.0
230
1.0
 70
     8
 71
     3
 72
     9
 73
     5
 74
     0
 42
0.0000000001
 43
0.0000000001
 40
0.0
 40
0.0
 40
0.0
 40
0.0
 40
0.4999958184339912
 40
0.9999999999999998
 40
0.9999999999999998
 40
0.9999999999999998
 40
0.9999999999999998
 10
2118.288453649916
 20
1121.878051707194
 30
0.0
 10
2118.341887662805
 20
1121.894522493388
 30
0.0
 10
2118.448756582342
 20
1121.927464341271
 30
0.0
 10
2118.555069408212
 20
1121.96022929754
 30
0.0
 10
2118.6082262657
 20
1121.976611912683
 30
0.0
  0
SPLINE
  5
33F
330
330
100
AcDbEntity
  8
0
  6
Continuous
 62
     7
370
    15
100
AcDbSpline
210
0.0
220
0.0
230
1.0
 70
     8
 71
     3
 72
     9
 73
     5
 74
     0
 42
0.0000000001
 43
0.0000000001
 40
0.0
 40
0.0
 40
0.0
 40
0.0
 40
0.4999958571949125
 40
1.0
 40
1.0
 40
1.0
 40
1.0
 10
2118.288394998598
 20
1123.102844845603
 30
0.0
 10
2118.341841634296
 20
1123.119319523056
 30
0.0
 10
2118.448735791372
 20
1123.152269150971
 30
0.0
 10
2118.555076472652
 20
1123.185042692304
 30
0.0
 10
2118.60824725384
 20
1123.201429598745
 30
0.0
  0
SPLINE
  5
340
330
330
100
AcDbEntity
  8
0
  6
Continuous
 62
     7
370
    15
100
AcDbSpline
210
0.0
220
0.0
230
1.0
 70
     8
 71
     3
 72
     9
 73
     5
 74
     0
 42
0.0000000001
 43
0.0000000001
 40
0.0
 40
0.0
 40
0.0
 40
0.0
 40
0.4999958963297847
 40
0.9999999999999998
 40
0.9999999999999998
 40
0.9999999999999998
 40
0.9999999999999998
 10
2118.28822830312
 20
1124.327604680684
 30
0.0
 10
2118.341686562604
 20
1124.344082941244
 30
0.0
 10
2118.44860395908
 20
1124.377039732854
 30
0.0
 10
2118.554970531416
 20
1124.409821258394
 30
0.0
 10
2118.608154254077
 20
1124.426212155688
 30
0.0
  0
SPLINE
  5
341
330
330
100
AcDbEntity
  8
0
  6
Continuous
 62
     7
370
    15
100
AcDbSpline
210
0.0
220
0.0
230
1.0
 70
     8
 71
     3
 72
     9
 73
     5
 74
     0
 42
0.0000000001
 43
0.0000000001
 40
0.0
 40
0.0
 40
0.0
 40
0.0
 40
0.4999959349843039
 40
1.0
 40
1.0
 40
1.0
 40
1.0
 10
2118.287955519348
 20
1125.552331819757
 30
0.0
 10
2118.341424132234
 20
1125.568813271311
 30
0.0
 10
2118.448362227416
 20
1125.601776442413
 30
0.0
 10
2118.554752126129
 20
1125.634565165565
 30
0.0
 10
2118.607947507962
 20
1125.650959660428
 30
0.0
  0
LINE
  5
342
330
330
100
AcDbEntity
  8
0
  6
Continuous
 62
     7
370
    15
100
AcDbLine
 10
2101.94160347761
 20
1124.709893098985
 30
0.0
 11
2101.94160347761
 21
1124.665076793571
 31
0.0
  0
LINE
  5
343
330
330
100
AcDbEntity
  8
0
  6
Continuous
 62
     7
370
    15
100
AcDbLine
 10
2101.94160347761
 20
1125.934645047125
 30
0.0
 11
2101.94160347761
 21
1125.528396708412
 31
0.0
  0
LINE
  5
344
330
330
100
AcDbEntity
  8
0
  6
Continuous
 62
     7
370
    15
100
AcDbLine
 10
2101.94160347761
 20
1127.159511936929
 30
0.0
 11
2101.94160347761
 21
1126.75320360501
 31
0.0
  0
LINE
  5
345
330
330
100
AcDbEntity
  8
0
  6
Continuous
 62
     7
370
    15
100
AcDbLine
 10
2101.94160347761
 20
1128.384302757066
 30
0.0
 11
2101.94160347761
 21
1127.977971708924
 31
0.0
  0
LINE
  5
346
330
330
100
AcDbEntity
  8
0
  6
Continuous
 62
     7
370
    15
100
AcDbLine
 10
2124.24160347761
 20
1127.365581993635
 30
0.0
 11
2124.24160347761
 21
1127.771847560468
 31
0.0
  0
LINE
  5
347
330
330
100
AcDbEntity
  8
0
  6
Continuous
 62
     7
370
    15
100
AcDbLine
 10
2124.24160347761
 20
1126.140794562067
 30
0.0
 11
2124.24160347761
 21
1126.547069353146
 31
0.0
  0
LINE
  5
348
330
330
100
AcDbEntity
  8
0
  6
Continuous
 62
     7
370
    15
100
AcDbLine
 10
2124.24160347761
 20
1124.915966654079
 30
0.0
 11
2124.24160347761
 21
1125.322222546201
 31
0.0
  0
LWPOLYLINE
  5
349
330
330
100
AcDbEntity
  8
0
  6
Continuous
 62
     7
370
    15
100
AcDbPolyline
 90
      134
 70
   128
 43
0.0
 10
2122.268245683132
 20
1129.562275573161
 10
2121.82464569985
 20
1129.318011687769
 10
2121.361558884551
 20
1129.086113784655
 10
2120.880018564998
 20
1128.86709931872
 10
2120.381099245936
 20
1128.661456996876
 10
2119.865914211457
 20
1128.469645687555
 10
2119.335613040819
 20
1128.292093396789
 10
2118.791379043296
 20
1128.129196313167
 10
2118.234426617744
 20
1127.981317923778
 10
2117.665998542805
 20
1127.848788203134
 10
2117.087363203781
 20
1127.731902876863
 10
2116.499811762377
 20
1127.630922761833
 10
2115.904655275601
 20
1127.546073184165
 10
2115.303221770296
 20
1127.477543476447
 10
2114.696853279788
 20
1127.425486555252
 10
2114.086902849281
 20
1127.390018579927
 10
2113.474731516692
 20
1127.371218693394
 10
2112.861705275634
 20
1127.369128845551
 10
2112.249192027362
 20
1127.383753699666
 10
2111.638558528437
 20
1127.41506062197
 10
2111.031167340968
 20
1127.462979754478
 10
2110.428373792196
 20
1127.527404170868
 10
2109.831522950237
 20
1127.608190115076
 10
2109.2419466227
 20
1127.705157322071
 10
2108.66096038491
 20
1127.818089420097
 10
2108.089860644342
 20
1127.946734413486
 10
2107.529921747831
 20
1128.090805244952
 10
2106.982393138004
 20
1128.249980436138
 10
2106.448496565286
 20
1128.42390480495
 10
2105.929423361694
 20
1128.612190258112
 10
2105.426331782518
 20
1128.814416657155
 10
2104.94034442179
 20
1129.030132755907
 10
2104.472545707343
 20
1129.258857207403
 10
2104.023979481031
 20
1129.500079637954
 10
2103.595646669503
 20
1129.753261785994
 10
2103.188503050749
 20
1130.017838703152
 10
2102.803457121387
 20
1130.293220014869
 10
2102.441368069445
 20
1130.578791237758
 10
2102.103043857184
 20
1130.873915150757
 10
2101.789239418214
 20
1131.177933217015
 10
2101.500654972943
 20
1131.490167053348
 10
2101.237934466111
 20
1131.809919943977
 10
2101.001664129899
 20
1132.136478395173
 10
2100.792371175815
 20
1132.469113727339
 10
2100.610522618275
 20
1132.80708370098
 10
2100.456524232522
 20
1133.149634172932
 10
2100.330719649168
 20
1133.496000779147
 10
2100.233389587432
 20
1133.845410640288
 10
2100.16475122874
 20
1134.197084086329
 10
2100.124957732111
 20
1134.5502363963
 10
2100.114097892394
 20
1134.904079549305
 10
2100.132195942139
 20
1135.25782398291
 10
2100.179211497519
 20
1135.610680354961
 10
2100.255039648447
 20
1135.961861304918
 10
2100.359511192667
 20
1136.31058321076
 10
2100.492393013315
 20
1136.656067937559
 10
2100.653388599086
 20
1136.997544573796
 10
2100.842138705878
 20
1137.33425115157
 10
2101.058222158396
 20
1137.665436346848
 10
2101.301156789964
 20
1137.990361155956
 10
2101.570400518426
 20
1138.308300544592
 10
2101.865352555743
 20
1138.61854506566
 10
2102.185354748588
 20
1138.92040244232
 10
2102.529693046939
 20
1139.213199112731
 10
2102.897599097409
 20
1139.496281733032
 10
2103.28825195774
 20
1139.769018635205
 10
2103.700779928646
 20
1140.030801236575
 10
2104.134262498916
 20
1140.281045397795
 10
2104.587732399435
 20
1140.519192726291
 10
2105.060177761536
 20
1140.744711822251
 10
2105.550544374881
 20
1140.957099464389
 10
2106.05773803981
 20
1141.155881732828
 10
2106.580627008933
 20
1141.340615066598
 10
2107.118044512499
 20
1141.510887253395
 10
2107.668791361913
 20
1141.666318349393
 10
2108.231638625601
 20
1141.806561527037
 10
2108.805330371231
 20
1141.93130384896
 10
2109.388586468192
 20
1142.040266966266
 10
2109.980105444065
 20
1142.133207739632
 10
2110.578567388717
 20
1142.209918781851
 10
2111.182636899538
 20
1142.270228920593
 10
2111.790966061246
 20
1142.314003580354
 10
2112.402197453607
 20
1142.341145082751
 10
2113.014967180382
 20
1142.351592864482
 10
2113.627907912702
 20
1142.345323612458
 10
2114.23965194012
 20
1142.322351315833
 10
2114.848834222505
 20
1142.282727234782
 10
2115.454095435981
 20
1142.226539786126
 10
2116.05408500611
 20
1142.153914346032
 10
2116.64746412155
 20
1142.065012970255
 10
2117.232908721471
 20
1141.960034032527
 10
2117.809112450049
 20
1141.839211781908
 10
2118.374789571455
 20
1141.702815820083
 10
2118.928677838839
 20
1141.551150499775
 10
2119.469541310894
 20
1141.384554245622
 10
2119.996173109724
 20
1141.203398799006
 10
2120.50739811386
 20
1141.008088388567
 10
2121.002075580417
 20
1140.7990588282
 10
2121.479101690538
 20
1140.576776544591
 10
2121.937412012443
 20
1140.34173753643
 10
2122.375983876593
 20
1140.094466267652
 10
2122.793838657669
 20
1139.835514497145
 10
2123.190043958262
 20
1139.565460047566
 10
2123.563715689423
 20
1139.284905515988
 10
2123.914020043403
 20
1138.994476929276
 10
2124.240175354213
 20
1138.69482234717
 10
2124.54145384182
 20
1138.386610416215
 10
2124.817183236113
 20
1138.070528877747
 10
2125.066748276994
 20
1137.747283033272
 10
2125.289592087273
 20
1137.417594170667
 10
2125.485217415272
 20
1137.082197954701
 10
2125.65318774439
 20
1136.741842785477
 10
2125.793128267142
 20
1136.397288128466
 10
2125.904726721502
 20
1136.049302819836
 10
2125.987734087682
 20
1135.69866335088
 10
2126.041965143789
 20
1135.346152135363
 10
2126.067298879132
 20
1134.992555763646
 10
2126.063678764241
 20
1134.638663247498
 10
2126.031112877008
 20
1134.285264259503
 10
2125.969673884661
 20
1133.93314737099
 10
2125.879498881616
 20
1133.583098292423
 10
2125.760789083566
 20
1133.235898120174
 10
2125.613809378489
 20
1132.892321593591
 10
2125.438887735578
 20
1132.55313536625
 10
2125.236414473417
 20
1132.219096295253
 10
2125.006841389026
 20
1131.890949752387
 10
2124.750680749725
 20
1131.569427960899
 10
2124.468504150065
 20
1131.255248361629
 10
2124.160941236376
 20
1130.949112012116
 10
2123.828678301784
 20
1130.651702022261
 10
2123.472456754817
 20
1130.363682030044
 10
2123.093071465038
 20
1130.085694720692
 10
2122.691368989377
 20
1129.818360392592
 10
2122.268245683132
 20
1129.562275573161
  0
SPLINE
  5
34A
330
330
100
AcDbEntity
  8
0
  6
Continuous
 62
     7
370
    15
100
AcDbSpline
210
0.0
220
0.0
230
1.0
 70
     8
 71
     3
 72
    18
 73
    14
 74
     0
 42
0.0000000001
 43
0.0000000001
 40
0.0
 40
0.0
 40
0.0
 40
0.0
 40
0.2499999999999999
 40
0.2499999999999999
 40
0.3749999999999998
 40
0.3749999999999998
 40
0.5
 40
0.5
 40
0.625
 40
0.625
 40
0.75
 40
0.75
 40
1.0
 40
1.0
 40
1.0
 40
1.0
 10
2109.131805502965
 20
1138.708573227794
 30
0.0
 10
2109.870353752357
 20
1138.394747252139
 30
0.0
 10
2110.610290939554
 20
1138.060477530173
 30
0.0
 10
2111.722334134226
 20
1137.527612397323
 30
0.0
 10
2112.093364525248
 20
1137.3448489624
 30
0.0
 10
2112.836259001638
 20
1136.967050963008
 30
0.0
 10
2113.207899019112
 20
1136.775314449151
 30
0.0
 10
2113.954370984478
 20
1136.3448594648
 30
0.0
 10
2114.327249236862
 20
1136.106885897268
 30
0.0
 10
2115.07209037126
 20
1135.62589221054
 30
0.0
 10
2115.444164472959
 20
1135.379646977879
 30
0.0
 10
2116.5595177458
 20
1134.626492713735
 30
0.0
 10
2117.301448316485
 20
1134.105074032944
 30
0.0
 10
2118.041350945915
 20
1133.565202123311
 30
0.0
  0
SPLINE
  5
34B
330
330
100
AcDbEntity
  8
0
  6
Continuous
 62
     7
370
    15
100
AcDbSpline
210
0.0
220
0.0
230
1.0
 70
     8
 71
     3
 72
    18
 73
    14
 74
     0
 42
0.0000000001
 43
0.0000000001
 40
0.0
 40
0.0
 40
0.0
 40
0.0
 40
0.125
 40
0.125
 40
0.25
 40
0.25
 40
0.5
 40
0.5
 40
0.625
 40
0.625
 40
0.75
 40
0.75
 40
1.0
 40
1.0
 40
1.0
 40
1.0
 10
2108.141856009304
 20
1138.137087549518
 30
0.0
 10
2108.076757419944
 20
1138.164749423115
 30
0.0
 10
2108.025624674466
 20
1138.199303740433
 30
0.0
 10
2107.955348912986
 20
1138.278843927141
 30
0.0
 10
2107.937032166093
 20
1138.323387163336
 30
0.0
 10
2107.936432955514
 20
1138.461096872487
 30
0.0
 10
2108.01195234969
 20
1138.559141538487
 30
0.0
 10
2108.206212062024
 20
1138.671442345836
 30
0.0
 10
2108.284314788337
 20
1138.703532179728
 30
0.0
 10
2108.45426211844
 20
1138.751508940935
 30
0.0
 10
2108.545368266185
 20
1138.767396132441
 30
0.0
 10
2108.822614050816
 20
1138.787902963484
 30
0.0
 10
2109.001607044385
 20
1138.763897518829
 30
0.0
 10
2109.131805502965
 20
1138.708573227794
 30
0.0
  0
SPLINE
  5
34C
330
330
100
AcDbEntity
  8
0
  6
Continuous
 62
     7
370
    15
100
AcDbSpline
210
0.0
220
0.0
230
1.0
 70
     8
 71
     3
 72
    18
 73
    14
 74
     0
 42
0.0000000001
 43
0.0000000001
 40
0.0
 40
0.0
 40
0.0
 40
0.0
 40
0.25
 40
0.25
 40
0.375
 40
0.375
 40
0.5
 40
0.5
 40
0.625
 40
0.625
 40
0.7499999999999999
 40
0.7499999999999999
 40
1.0
 40
1.0
 40
1.0
 40
1.0
 10
2117.051401452254
 20
1132.993716445035
 30
0.0
 10
2116.312853202862
 20
1133.532600127693
 30
0.0
 10
2115.572916015666
 20
1134.052643697494
 30
0.0
 10
2114.460872820993
 20
1134.80371630783
 30
0.0
 10
2114.089842429972
 20
1135.049335444001
 30
0.0
 10
2113.346947953582
 20
1135.529265149802
 30
0.0
 10
2112.975307936107
 20
1135.766615066759
 30
0.0
 10
2112.228835970742
 20
1136.198018268451
 30
0.0
 10
2111.855957718358
 20
1136.39056076733
 30
0.0
 10
2111.111116583959
 20
1136.76954234929
 30
0.0
 10
2110.73904248226
 20
1136.952884730422
 30
0.0
 10
2109.623689209419
 20
1137.487489944368
 30
0.0
 10
2108.881758638734
 20
1137.822686066931
 30
0.0
 10
2108.141856009304
 20
1138.137087549518
 30
0.0
  0
SPLINE
  5
34D
330
330
100
AcDbEntity
  8
0
  6
Continuous
 62
     7
370
    15
100
AcDbSpline
210
0.0
220
0.0
230
1.0
 70
     8
 71
     3
 72
    18
 73
    14
 74
     0
 42
0.0000000001
 43
0.0000000001
 40
0.0
 40
0.0
 40
0.0
 40
0.0
 40
0.1250000000000004
 40
0.1250000000000004
 40
0.2500000000000008
 40
0.2500000000000008
 40
0.5000000000000007
 40
0.5000000000000007
 40
0.6250000000000006
 40
0.6250000000000006
 40
0.7500000000000004
 40
0.7500000000000004
 40
1.0
 40
1.0
 40
1.0
 40
1.0
 10
2118.041350945915
 20
1133.565202123311
 30
0.0
 10
2118.106449535276
 20
1133.517702765484
 30
0.0
 10
2118.157582280753
 20
1133.463813086143
 30
0.0
 10
2118.227858042233
 20
1133.348232164975
 30
0.0
 10
2118.246174789126
 20
1133.287258921597
 30
0.0
 10
2118.246773999706
 20
1133.108541169167
 30
0.0
 10
2118.17125460553
 20
1132.994508954179
 30
0.0
 10
2117.976994893195
 20
1132.882161885848
 30
0.0
 10
2117.898892166882
 20
1132.853896591966
 30
0.0
 10
2117.728944836779
 20
1132.820717038189
 30
0.0
 10
2117.637838689034
 20
1132.815677749399
 30
0.0
 10
2117.360592904403
 20
1132.836620271276
 30
0.0
 10
2117.181599910834
 20
1132.898716795529
 30
0.0
 10
2117.051401452254
 20
1132.993716445035
 30
0.0
  0
LINE
  5
34E
330
330
100
AcDbEntity
  8
0
  6
Continuous
 62
     7
370
    15
100
AcDbLine
 10
2126.841603477609
 20
1134.064753067581
 30
0.0
 11
2126.841581497586
 21
1134.050560121181
 31
0.0
  0
LWPOLYLINE
  5
34F
330
330
100
AcDbEntity
  8
0
  6
Continuous
 62
     7
370
    15
100
AcDbPolyline
 90
       70
 70
   128
 43
0.0
 10
2099.34160347761
 20
1133.075447155995
 10
2099.347251827655
 20
1132.847950584183
 10
2099.379771267364
 20
1132.484422534317
 10
2099.441126902973
 20
1132.122137418402
 10
2099.531189702629
 20
1131.761857127657
 10
2099.649770262866
 20
1131.404339337124
 10
2099.796619206927
 20
1131.050335912265
 10
2099.971427709203
 20
1130.700591327774
 10
2100.173828144702
 20
1130.355841101939
 10
2100.403394862168
 20
1130.016810249836
 10
2100.659645079231
 20
1129.684211758606
 10
2100.942039897709
 20
1129.358745088038
 10
2101.249985436917
 20
1129.041094699589
 10
2101.582834082606
 20
1128.731928616957
 10
2101.939885848911
 20
1128.431897021209
 10
2102.320389850428
 20
1128.141630883447
 10
2102.723545881336
 20
1127.861740637862
 10
2103.148506098247
 20
1127.592814897985
 10
2103.594376803232
 20
1127.335419218819
 10
2104.060220323278
 20
1127.090094907471
 10
2104.545056982234
 20
1126.857357884774
 10
2105.047867161085
 20
1126.637697600299
 10
2105.567593442222
 20
1126.431576003033
 10
2106.103142833211
 20
1126.239426569892
 10
2106.653389065372
 20
1126.061653394116
 10
2107.217174962343
 20
1125.898630335452
 10
2107.793314873633
 20
1125.750700233922
 10
2108.380597168069
 20
1125.618174188826
 10
2108.977786781874
 20
1125.501330904491
 10
2109.583627816022
 20
1125.400416104159
 10
2110.196846177419
 20
1125.31564201322
 10
2110.816152258335
 20
1125.247186912902
 10
2111.440243648472
 20
1125.195194765345
 10
2112.067807873955
 20
1125.159774910841
 10
2112.697525157477
 20
1125.141001837893
 10
2113.328071193822
 20
1125.138915026566
 10
2113.95811993489
 20
1125.153518865456
 10
2114.586346378403
 20
1125.184782642463
 10
2115.211429354403
 20
1125.232640609379
 10
2115.832054303691
 20
1125.296992120157
 10
2116.446916042368
 20
1125.377701842571
 10
2117.054721506659
 20
1125.474600042823
 10
2117.654192472239
 20
1125.587482942494
 10
2118.244068242368
 20
1125.716113147095
 10
2118.823108299148
 20
1125.860220145309
 10
2119.390094912354
 20
1126.019500877883
 10
2119.94383570034
 20
1126.193620374964
 10
2120.483166137638
 20
1126.38221246055
 10
2121.00695200397
 20
1126.584880522557
 10
2121.51409176953
 20
1126.801198346906
 10
2122.003518911524
 20
1127.030711013856
 10
2122.474204157076
 20
1127.272935854708
 10
2122.925157647812
 20
1127.527363466862
 10
2123.355431021545
 20
1127.793458785102
 10
2123.764119406691
 20
1128.070662206845
 10
2124.150363325236
 20
1128.358390768994
 10
2124.513350500227
 20
1128.656039373918
 10
2124.852317564001
 20
1128.962982061983
 10
2125.166551663564
 20
1129.278573327952
 10
2125.455391959729
 20
1129.602149478496
 10
2125.71823101687
 20
1129.933030027951
 10
2125.954516080372
 20
1130.270519129385
 10
2126.163750239082
 20
1130.613907037982
 10
2126.345493470315
 20
1130.962471603643
 10
2126.499363565237
 20
1131.315479789677
 10
2126.62503693265
 20
1131.672189214391
 10
2126.722249279513
 20
1132.03184971233
 10
2126.790796166753
 20
1132.393704911887
 10
2126.830533439201
 20
1132.756993825961
 10
2126.841603477609
 20
1133.075447155995
  0
SPLINE
  5
350
330
330
100
AcDbEntity
  8
0
  6
Continuous
 62
     7
370
    15
100
AcDbSpline
210
0.0
220
0.0
230
1.0
 70
     8
 71
     3
 72
    19
 73
    15
 74
     0
 42
0.0000000001
 43
0.0000000001
 40
0.0
 40
0.0
 40
0.0
 40
0.0
 40
0.0450841417600767
 40
0.1429947109826507
 40
0.2408416720668613
 40
0.3381769369147924
 40
0.4345663455924226
 40
0.5296009137077507
 40
0.6177077469651492
 40
0.7070052512167174
 40
0.7971695075759343
 40
0.8878568070343343
 40
0.9787112189849725
 40
1.0
 40
1.0
 40
1.0
 40
1.0
 10
2118.282262900018
 20
1119.434334988867
 30
0.0
 10
2118.149598135964
 20
1119.391750026152
 30
0.0
 10
2117.728821364952
 20
1119.25668203555
 30
0.0
 10
2116.971238173533
 20
1119.081624265594
 30
0.0
 10
2116.023640347071
 20
1118.910129334412
 30
0.0
 10
2115.051581381647
 20
1118.794991012517
 30
0.0
 10
2114.072069232744
 20
1118.733210830962
 30
0.0
 10
2113.115302812374
 20
1118.724590887196
 30
0.0
 10
2112.18288002901
 20
1118.764424424824
 30
0.0
 10
2111.274192091219
 20
1118.850258511272
 30
0.0
 10
2110.370033310572
 20
1118.982591002785
 30
0.0
 10
2109.485122586846
 20
1119.165323103382
 30
0.0
 10
2108.837292611413
 20
1119.325770392398
 30
0.0
 10
2108.49896191256
 20
1119.437616203324
 30
0.0
 10
2108.434734669086
 20
1119.458848530612
 30
0.0
  0
SPLINE
  5
351
330
330
100
AcDbEntity
  8
0
  6
Continuous
 62
     7
370
    15
100
AcDbSpline
210
0.0
220
0.0
230
1.0
 70
     8
 71
     3
 72
    19
 73
    15
 74
     0
 42
0.0000000001
 43
0.0000000001
 40
0.0
 40
0.0
 40
0.0
 40
0.0
 40
0.0870257780318432
 40
0.1778775167121279
 40
0.2669223840862444
 40
0.3554445539056846
 40
0.4431190609163591
 40
0.5296395951682424
 40
0.6177438359991456
 40
0.7070387127903065
 40
0.7972003161860868
 40
0.8878849472912024
 40
0.9787366859714872
 40
1.0
 40
1.0
 40
1.0
 40
1.0
 10
2118.287637138506
 20
1120.654040733732
 30
0.0
 10
2118.025738421541
 20
1120.577702850456
 30
0.0
 10
2117.490426994771
 20
1120.421671000868
 30
0.0
 10
2116.64195842052
 20
1120.241249849199
 30
0.0
 10
2115.764531824991
 20
1120.100529444309
 30
0.0
 10
2114.876493779057
 20
1120.00626802803
 30
0.0
 10
2113.983907692356
 20
1119.956606341809
 30
0.0
 10
2113.086192581277
 20
1119.950638620535
 30
0.0
 10
2112.182874436981
 20
1119.989237805262
 30
0.0
 10
2111.274193670987
 20
1120.07506920604
 30
0.0
 10
2110.370032667711
 20
1120.20740211325
 30
0.0
 10
2109.485123568237
 20
1120.390135285751
 30
0.0
 10
2108.83736975808
 20
1120.55055940928
 30
0.0
 10
2108.499112855332
 20
1120.66237909848
 30
0.0
 10
2108.43496033904
 20
1120.68358639499
 30
0.0
  0
SPLINE
  5
352
330
330
100
AcDbEntity
  8
0
  6
Continuous
 62
     7
370
    15
100
AcDbSpline
210
0.0
220
0.0
230
1.0
 70
     8
 71
     3
 72
    19
 73
    15
 74
     0
 42
0.0000000001
 43
0.0000000001
 40
0.0
 40
0.0
 40
0.0
 40
0.0
 40
0.0870339526078927
 40
0.1778888611792636
 40
0.2669368354012562
 40
0.3554620938312296
 40
0.4431396598767922
 40
0.5296632129005152
 40
0.6177705277600689
 40
0.707068520122138
 40
0.7972332693296229
 40
0.8879210644953055
 40
0.9787759730666765
 40
1.0
 40
1.0
 40
1.0
 40
1.0
 10
2118.287683951462
 20
1121.878864966607
 30
0.0
 10
2118.025769839304
 20
1121.802522496333
 30
0.0
 10
2117.490443087588
 20
1121.64648597622
 30
0.0
 10
2116.641958484429
 20
1121.466060991129
 30
0.0
 10
2115.764531807993
 20
1121.325340682032
 30
0.0
 10
2114.876493784013
 20
1121.231079241133
 30
0.0
 10
2113.983907689362
 20
1121.181417558909
 30
0.0
 10
2113.086192588345
 20
1121.175449845853
 30
0.0
 10
2112.182874411028
 20
1121.214048993046
 30
0.0
 10
2111.274193769341
 20
1121.299880538454
 30
0.0
 10
2110.370032296035
 20
1121.432212897868
 30
0.0
 10
2109.485124964877
 20
1121.614948131503
 30
0.0
 10
2108.837494078469
 20
1121.775334848772
 30
0.0
 10
2108.499356081777
 20
1121.887112448675
 30
0.0
 10
2108.435323978719
 20
1121.908279412656
 30
0.0
  0
SPLINE
  5
353
330
330
100
AcDbEntity
  8
0
  6
Continuous
 62
     7
370
    15
100
AcDbSpline
210
0.0
220
0.0
230
1.0
 70
     8
 71
     3
 72
    19
 73
    15
 74
     0
 42
0.0000000001
 43
0.0000000001
 40
0.0
 40
0.0
 40
0.0
 40
0.0
 40
0.0870284058381647
 40
0.1778843212320778
 40
0.2669332822527937
 40
0.3554595216889355
 40
0.443138059346834
 40
0.5296625711945212
 40
0.617770862428738
 40
0.7070698443601446
 40
0.7972355927420654
 40
0.8879243928783974
 40
0.9787803082723106
 40
0.9999999999999998
 40
0.9999999999999998
 40
0.9999999999999998
 40
0.9999999999999998
 10
2118.287624629346
 20
1123.103659691563
 30
0.0
 10
2118.025730026215
 20
1123.027323034001
 30
0.0
 10
2117.490422694505
 20
1122.871292432441
 30
0.0
 10
2116.641958403493
 20
1122.690872305198
 30
0.0
 10
2115.764531829348
 20
1122.550151874434
 30
0.0
 10
2114.876493778417
 20
1122.455890465749
 30
0.0
 10
2113.98390769064
 20
1122.406228774729
 30
0.0
 10
2113.086192588712
 20
1122.40026106506
 30
0.0
 10
2112.182874408184
 20
1122.438860207299
 30
0.0
 10
2111.274193780543
 20
1122.524691769411
 30
0.0
 10
2110.370032253589
 20
1122.657024066201
 30
0.0
 10
2109.485125124408
 20
1122.839759535288
 30
0.0
 10
2108.837508272825
 20
1123.000141981505
 30
0.0
 10
2108.499383852348
 20
1123.111914775806
 30
0.0
 10
2108.435365497664
 20
1123.133077134855
 30
0.0
  0
SPLINE
  5
354
330
330
100
AcDbEntity
  8
0
  6
Continuous
 62
     7
370
    15
100
AcDbSpline
210
0.0
220
0.0
230
1.0
 70
     8
 71
     3
 72
    19
 73
    15
 74
     0
 42
0.0000000001
 43
0.0000000001
 40
0.0
 40
0.0
 40
0.0
 40
0.0
 40
0.0870077948233253
 40
0.1778616427735163
 40
0.2669085774681024
 40
0.3554328024727438
 40
0.4431093449887579
 40
0.5296318879546388
 40
0.6177381742678464
 40
0.7070351241838492
 40
0.7971988208269302
 40
0.8878855573222798
 40
0.9787394052724708
 40
1.0
 40
1.0
 40
1.0
 40
1.0
 10
2118.287454886858
 20
1124.328423717191
 30
0.0
 10
2118.025616106299
 20
1124.252103691908
 30
0.0
 10
2117.490364342399
 20
1124.096090025534
 30
0.0
 10
2116.641958171819
 20
1123.915683798387
 30
0.0
 10
2115.764531890644
 20
1123.77496301971
 30
0.0
 10
2114.876493761725
 20
1123.680701702216
 30
0.0
 10
2113.983907696774
 20
1123.631039989697
 30
0.0
 10
2113.086192580578
 20
1123.625072276127
 30
0.0
 10
2112.182874435245
 20
1123.663671455925
 30
0.0
 10
2111.274193678784
 20
1123.749502868832
 30
0.0
 10
2110.370032637915
 20
1123.881835731946
 30
0.0
 10
2109.485123680292
 20
1124.064569069866
 30
0.0
 10
2108.837379736918
 20
1124.224990190989
 30
0.0
 10
2108.499132378389
 20
1124.336806501821
 30
0.0
 10
2108.43498952725
 20
1124.358010560922
 30
0.0
  0
SPLINE
  5
355
330
330
100
AcDbEntity
  8
0
  6
Continuous
 62
     7
370
    15
100
AcDbSpline
210
0.0
220
0.0
230
1.0
 70
     8
 71
     3
 72
    19
 73
    15
 74
     0
 42
0.0000000001
 43
0.0000000001
 40
0.0
 40
0.0
 40
0.0
 40
0.0
 40
0.0869772937515458
 40
0.177831174041375
 40
0.2668781404324243
 40
0.3554023969474691
 40
0.4430789706721522
 40
0.5296015444359331
 40
0.6177078621107779
 40
0.7070048438122375
 40
0.7971685725492957
 40
0.8878553413247997
 40
0.9787092216146289
 40
1.0
 40
1.0
 40
1.0
 40
1.0
 10
2118.287176712007
 20
1125.553157596202
 30
0.0
 10
2118.025429413865
 20
1125.476864827851
 30
0.0
 10
2117.490268714754
 20
1125.320878914959
 30
0.0
 10
2116.641957792074
 20
1125.140495467653
 30
0.0
 10
2115.764531991001
 20
1124.999774118456
 30
0.0
 10
2114.876493734831
 20
1124.905512951142
 30
0.0
 10
2113.983907705115
 20
1124.855851200838
 30
0.0
 10
2113.086192573598
 20
1124.84988349028
 30
0.0
 10
2112.182874455251
 20
1124.88848269585
 30
0.0
 10
2111.274193604562
 20
1124.97431400048
 30
0.0
 10
2110.370032917963
 20
1125.106647276109
 30
0.0
 10
2109.485122628078
 20
1125.289379061255
 30
0.0
 10
2108.837286015669
 20
1125.449828380215
 30
0.0
 10
2108.498949017995
 20
1125.561676420558
 30
0.0
 10
2108.434715392228
 20
1125.58291088565
 30
0.0
  0
SPLINE
  5
356
330
330
100
AcDbEntity
  8
0
  6
Continuous
 62
     7
370
    15
100
AcDbSpline
210
0.0
220
0.0
230
1.0
 70
     8
 71
     3
 72
    30
 73
    26
 74
     0
 42
0.0000000001
 43
0.0000000001
 40
0.0
 40
0.0
 40
0.0
 40
0.0
 40
0.0410580994200306
 40
0.0821753752485876
 40
0.123233469473547
 40
0.1688677993146669
 40
0.2146653849854005
 40
0.2604620984996403
 40
0.3060952347774961
 40
0.3517235993027551
 40
0.3975235664507559
 40
0.4433234933600897
 40
0.4889518028080675
 40
0.5334394051875682
 40
0.5780860178592975
 40
0.622732647135265
 40
0.6672202722378363
 40
0.7117312304911723
 40
0.7564069120719779
 40
0.8010780748799767
 40
0.8455828482496755
 40
0.8864069654478356
 40
0.9273604273773624
 40
0.9683138873495023
 40
1.0
 40
1.0
 40
1.0
 40
1.0
 10
2102.243373506155
 20
1123.177688927319
 30
0.0
 10
2102.322780103038
 20
1123.022700054624
 30
0.0
 10
2102.481707744313
 20
1122.712498926151
 30
0.0
 10
2102.796399603179
 20
1122.262185791859
 30
0.0
 10
2103.178130135095
 20
1121.809742987321
 30
0.0
 10
2103.640012277976
 20
1121.360996486661
 30
0.0
 10
2104.183859015542
 20
1120.92096499052
 30
0.0
 10
2104.789306795401
 20
1120.508594486576
 30
0.0
 10
2105.4516647809
 20
1120.127380442679
 30
0.0
 10
2106.169406616941
 20
1119.781122024085
 30
0.0
 10
2106.937059404866
 20
1119.47150779244
 30
0.0
 10
2107.747536907077
 20
1119.200708479647
 30
0.0
 10
2108.587303329106
 20
1118.973312014249
 30
0.0
 10
2109.450855023111
 20
1118.79077718381
 30
0.0
 10
2110.331349704622
 20
1118.651683219064
 30
0.0
 10
2111.228816001058
 20
1118.555300581292
 30
0.0
 10
2112.136249923913
 20
1118.502691015002
 30
0.0
 10
2113.048384917687
 20
1118.495631828877
 30
0.0
 10
2113.959464898516
 20
1118.533351149536
 30
0.0
 10
2114.861745519725
 20
1118.615414506154
 30
0.0
 10
2115.722888870958
 20
1118.738548303458
 30
0.0
 10
2116.538824162601
 20
1118.898574501105
 30
0.0
 10
2117.306877119108
 20
1119.090718752475
 30
0.0
 10
2117.995547911828
 20
1119.296664257566
 30
0.0
 10
2118.409958067585
 20
1119.453279372996
 30
0.0
 10
2118.590727948308
 20
1119.521596462582
 30
0.0
  0
SPLINE
  5
357
330
330
100
AcDbEntity
  8
0
  6
Continuous
 62
     7
370
    15
100
AcDbSpline
210
0.0
220
0.0
230
1.0
 70
     8
 71
     3
 72
    34
 73
    30
 74
     0
 42
0.0000000001
 43
0.0000000001
 40
0.0
 40
0.0
 40
0.0
 40
0.0
 40
0.0044997745461127
 40
0.0424911105676298
 40
0.0815862451265903
 40
0.1206813807730991
 40
0.1586716527647576
 40
0.1966619274877015
 40
0.2357558934203602
 40
0.2748498605822593
 40
0.312840392542462
 40
0.3508309238410181
 40
0.3899251254201596
 40
0.4290193243698989
 40
0.4670102609522022
 40
0.5050011971202279
 40
0.5440958918419724
 40
0.5831905890226334
 40
0.6211808292653455
 40
0.6591710700019266
 40
0.6982649280988146
 40
0.7373587847821019
 40
0.7753502701957068
 40
0.8133417527349591
 40
0.8524370486480046
 40
0.891532344709641
 40
0.9295225280963011
 40
0.967512713108341
 40
1.0
 40
1.0
 40
1.0
 40
1.0
 10
2103.628514517702
 20
1127.325015549249
 30
0.0
 10
2103.646733605334
 20
1127.306040844331
 30
0.0
 10
2103.81877539522
 20
1127.126863804155
 30
0.0
 10
2104.212132422879
 20
1126.805256260153
 30
0.0
 10
2104.810830287644
 20
1126.367015444688
 30
0.0
 10
2105.476124077195
 20
1125.962671383012
 30
0.0
 10
2106.187390714369
 20
1125.594768631529
 30
0.0
 10
2106.947042889327
 20
1125.261767899115
 30
0.0
 10
2107.758060940492
 20
1124.96389361394
 30
0.0
 10
2108.607567032498
 20
1124.706695543836
 30
0.0
 10
2109.480822983975
 20
1124.493926118125
 30
0.0
 10
2110.379146016237
 20
1124.323563004703
 30
0.0
 10
2111.305661146756
 20
1124.196681028505
 30
0.0
 10
2112.245064481891
 20
1124.115966037553
 30
0.0
 10
2113.181499188709
 20
1124.082308580114
 30
0.0
 10
2114.117312595935
 20
1124.093322992377
 30
0.0
 10
2115.054804448252
 20
1124.149961119705
 30
0.0
 10
2115.978128612827
 20
1124.252075758957
 30
0.0
 10
2116.872046219401
 20
1124.397307885381
 30
0.0
 10
2117.739718193741
 20
1124.584558186701
 30
0.0
 10
2118.582399453562
 20
1124.815767201613
 30
0.0
 10
2119.3855084401
 20
1125.087616626933
 30
0.0
 10
2120.136132787823
 20
1125.395009905273
 30
0.0
 10
2120.837918602947
 20
1125.737580947498
 30
0.0
 10
2121.490694677994
 20
1126.117056146806
 30
0.0
 10
2122.083455610277
 20
1126.5265414821
 30
0.0
 10
2122.604485004854
 20
1126.959351438122
 30
0.0
 10
2123.040555899445
 20
1127.387395063367
 30
0.0
 10
2123.267967119484
 20
1127.681022525955
 30
0.0
 10
2123.372794567861
 20
1127.816373005458
 30
0.0
  0
SPLINE
  5
358
330
330
100
AcDbEntity
  8
0
  6
Continuous
 62
     7
370
    15
100
AcDbSpline
210
0.0
220
0.0
230
1.0
 70
     8
 71
     3
 72
    41
 73
    37
 74
     0
 42
0.0000000001
 43
0.0000000001
 40
0.0
 40
0.0
 40
0.0
 40
0.0
 40
0.0233340948923201
 40
0.0526344604809912
 40
0.0819348263551665
 40
0.1120863695100342
 40
0.14223791147079
 40
0.171539213091299
 40
0.2008405124154665
 40
0.2309931342795833
 40
0.2611457575916077
 40
0.290446072239869
 40
0.3197463880503632
 40
0.349897883780129
 40
0.3800493793028574
 40
0.4093506408193094
 40
0.4386519008247223
 40
0.4688044858075935
 40
0.4989570717998197
 40
0.5282574583875301
 40
0.5575578469578674
 40
0.5877094598730505
 40
0.6178610735783126
 40
0.6471617925255519
 40
0.6764625108203806
 40
0.7066144642268674
 40
0.7367664154626488
 40
0.7660671990513288
 40
0.7953679817698057
 40
0.82552004329835
 40
0.8556721065759099
 40
0.8849724729770803
 40
0.9142728396159915
 40
0.9444243841018273
 40
0.9745759273418677
 40
1.0
 40
1.0
 40
1.0
 40
1.0
 10
2102.188889029188
 20
1128.241151387356
 30
0.0
 10
2102.241480234041
 20
1128.097971282022
 30
0.0
 10
2102.360109634763
 20
1127.775001497648
 30
0.0
 10
2102.635545871462
 20
1127.285749283651
 30
0.0
 10
2102.997350703799
 20
1126.770260052843
 30
0.0
 10
2103.437649472934
 20
1126.26992497696
 30
0.0
 10
2103.946888584237
 20
1125.793031448588
 30
0.0
 10
2104.516503476359
 20
1125.347302419744
 30
0.0
 10
2105.145608079506
 20
1124.930726780043
 30
0.0
 10
2105.837914189528
 20
1124.542721681285
 30
0.0
 10
2106.582502436111
 20
1124.189514813911
 30
0.0
 10
2107.366251192599
 20
1123.876621595626
 30
0.0
 10
2108.18972157663
 20
1123.601928896142
 30
0.0
 10
2109.056380754317
 20
1123.366084256625
 30
0.0
 10
2109.952143312544
 20
1123.173589342435
 30
0.0
 10
2110.86166799937
 20
1123.027109396372
 30
0.0
 10
2111.786687347349
 20
1122.924670474942
 30
0.0
 10
2112.730056279474
 20
1122.867797798708
 30
0.0
 10
2113.676028546577
 20
1122.857591664788
 30
0.0
 10
2114.608747035553
 20
1122.892819035049
 30
0.0
 10
2115.530916143855
 20
1122.97199986737
 30
0.0
 10
2116.444484345532
 20
1123.09688185355
 30
0.0
 10
2117.333878660347
 20
1123.265956357136
 30
0.0
 10
2118.184559724196
 20
1123.475821243649
 30
0.0
 10
2118.999898718279
 20
1123.72559914757
 30
0.0
 10
2119.780690279023
 20
1124.017320096377
 30
0.0
 10
2120.5132602706
 20
1124.346596185636
 30
0.0
 10
2121.185999941165
 20
1124.70746643985
 30
0.0
 10
2121.802557283935
 20
1125.098958732114
 30
0.0
 10
2122.362478523208
 20
1125.52261217399
 30
0.0
 10
2122.855589115044
 20
1125.971907515282
 30
0.0
 10
2123.274344107988
 20
1126.438953037946
 30
0.0
 10
2123.622964515662
 20
1126.924246893452
 30
0.0
 10
2123.897233280785
 20
1127.429812673593
 30
0.0
 10
2124.09249157935
 20
1127.92437065528
 30
0.0
 10
2124.156744037402
 20
1128.250712863763
 30
0.0
 10
2124.186137488749
 20
1128.40000402115
 30
0.0
  0
SPLINE
  5
359
330
330
100
AcDbEntity
  8
0
  6
Continuous
 62
     7
370
    15
100
AcDbSpline
210
0.0
220
0.0
230
1.0
 70
     8
 71
     3
 72
    46
 73
    42
 74
     0
 42
0.0000000001
 43
0.0000000001
 40
0.0
 40
0.0
 40
0.0
 40
0.0
 40
0.0227373906075931
 40
0.0486097274918125
 40
0.0744820660525223
 40
0.1011060333557132
 40
0.1277300012630437
 40
0.1536027082497408
 40
0.1794754145770907
 40
0.2060997749182198
 40
0.2327241332599029
 40
0.258596751761002
 40
0.2844693693893995
 40
0.3110936649681814
 40
0.3377179620034609
 40
0.3635902839213061
 40
0.3894626059646448
 40
0.4160865219076147
 40
0.4427104366597387
 40
0.4685835488123339
 40
0.4944566601743543
 40
0.5210814849501019
 40
0.5477063119642091
 40
0.5735785903451575
 40
0.5994508696302935
 40
0.6260747408523525
 40
0.6526986117497513
 40
0.6785717617048959
 40
0.7044449102090058
 40
0.7310697873179621
 40
0.7576946649355819
 40
0.7835669984766272
 40
0.8094393336567213
 40
0.8360632949641285
 40
0.8626872568287945
 40
0.8885599980107299
 40
0.9144327384918209
 40
0.9410571381856151
 40
0.9676815358390282
 40
0.9935541158447149
 40
1.0
 40
1.0
 40
1.0
 40
1.0
 10
2101.947118080905
 20
1128.437679739108
 30
0.0
 10
2101.948557801896
 20
1128.276301984619
 30
0.0
 10
2101.951635747218
 20
1127.931296315132
 30
0.0
 10
2102.052512601922
 20
1127.404830200686
 30
0.0
 10
2102.227363296223
 20
1126.857185017385
 30
0.0
 10
2102.484100322768
 20
1126.314655596423
 30
0.0
 10
2102.816734329257
 20
1125.786496876713
 30
0.0
 10
2103.219445247352
 20
1125.281340464313
 30
0.0
 10
2103.690637970724
 20
1124.797185984725
 30
0.0
 10
2104.233951102303
 20
1124.333557125639
 30
0.0
 10
2104.841132953915
 20
1123.898595139886
 30
0.0
 10
2105.50120929718
 20
1123.499117324253
 30
0.0
 10
2106.213964460545
 20
1123.132180369164
 30
0.0
 10
2106.983025868993
 20
1122.797612507689
 30
0.0
 10
2107.796122811548
 20
1122.501718196257
 30
0.0
 10
2108.639094058279
 20
1122.248875947551
 30
0.0
 10
2109.512962763087
 20
1122.037025912399
 30
0.0
 10
2110.421006369232
 20
1121.867076057801
 30
0.0
 10
2111.348319427013
 20
1121.742448796024
 30
0.0
 10
2112.279162568787
 20
1121.664672673014
 30
0.0
 10
2113.215668436723
 20
1121.632004787648
 30
0.0
 10
2114.160349822162
 20
1121.645197616802
 30
0.0
 10
2115.097301344559
 20
1121.704110875391
 30
0.0
 10
2116.010976394674
 20
1121.807298236403
 30
0.0
 10
2116.904373855769
 20
1121.953466211181
 30
0.0
 10
2117.779029180177
 20
1122.144503430047
 30
0.0
 10
2118.619899645932
 20
1122.377767637008
 30
0.0
 10
2119.413381449998
 20
1122.648828409331
 30
0.0
 10
2120.162999687333
 20
1122.957000866144
 30
0.0
 10
2120.869080599768
 20
1123.304587548873
 30
0.0
 10
2121.519075136878
 20
1123.685607382897
 30
0.0
 10
2122.102849083296
 20
1124.092496926773
 30
0.0
 10
2122.62406615642
 20
1124.525469626568
 30
0.0
 10
2123.081851279279
 20
1124.986500046013
 30
0.0
 10
2123.467575869795
 20
1125.468166003636
 30
0.0
 10
2123.775892244812
 20
1125.962156795695
 30
0.0
 10
2124.009608720108
 20
1126.469224344129
 30
0.0
 10
2124.168857538188
 20
1126.991192244992
 30
0.0
 10
2124.241849301649
 20
1127.5190587846
 30
0.0
 10
2124.254035622908
 20
1127.91481941803
 30
0.0
 10
2124.218422115941
 20
1128.130127285383
 30
0.0
 10
2124.211319038916
 20
1128.173070216204
 30
0.0
  0
SPLINE
  5
35A
330
330
100
AcDbEntity
  8
0
  6
Continuous
 62
     7
370
    15
100
AcDbSpline
210
0.0
220
0.0
230
1.0
 70
     8
 71
     3
 72
    47
 73
    43
 74
     0
 42
0.0000000001
 43
0.0000000001
 40
0.0
 40
0.0
 40
0.0
 40
0.0
 40
0.0007862297949498
 40
0.0262038312256021
 40
0.0523599082124312
 40
0.0785159873203776
 40
0.1039328035949055
 40
0.1293496206771329
 40
0.1555047971586777
 40
0.1816599732285971
 40
0.2070776600725992
 40
0.2324953454156204
 40
0.2586515281246282
 40
0.2848077109335621
 40
0.3102245705413969
 40
0.3356414316851945
 40
0.3617966820123182
 40
0.387951932794563
 40
0.4133692643978278
 40
0.4387865952313512
 40
0.4649423629040712
 40
0.4910981284927518
 40
0.5165151592306407
 40
0.5419321894955682
 40
0.5680876576978495
 40
0.5942431272000011
 40
0.6196599705615396
 40
0.6450768139218381
 40
0.6712320209081755
 40
0.6973872265920775
 40
0.7228048103415739
 40
0.7482223945795833
 40
0.7743784522981989
 40
0.8005345120985685
 40
0.8259513305175282
 40
0.851368149703733
 40
0.877523327848611
 40
0.9036785055356101
 40
0.9290961990962259
 40
0.9545138911184313
 40
0.9806700813439308
 40
1.0
 40
1.0
 40
1.0
 40
1.0
 10
2101.965343224609
 20
1127.580301293022
 30
0.0
 10
2101.964354526768
 20
1127.574649683611
 30
0.0
 10
2101.931402746621
 20
1127.386290224182
 30
0.0
 10
2101.937016827772
 20
1127.007047885437
 30
0.0
 10
2101.991280231691
 20
1126.44640952557
 30
0.0
 10
2102.134889224328
 20
1125.889867608606
 30
0.0
 10
2102.352615071122
 20
1125.347297597217
 30
0.0
 10
2102.645521281771
 20
1124.816746851394
 30
0.0
 10
2103.016134770504
 20
1124.297350325316
 30
0.0
 10
2103.45944432837
 20
1123.798025051716
 30
0.0
 10
2103.967037176273
 20
1123.32686626495
 30
0.0
 10
2104.537977422204
 20
1122.881727883812
 30
0.0
 10
2105.175915813897
 20
1122.462612883227
 30
0.0
 10
2105.870925407513
 20
1122.076288436366
 30
0.0
 10
2106.610632267578
 20
1121.728080899138
 30
0.0
 10
2107.395305496884
 20
1121.416019080163
 30
0.0
 10
2108.228497168483
 20
1121.14054052075
 30
0.0
 10
2109.096754419913
 20
1120.906804016071
 30
0.0
 10
2109.985115899759
 20
1120.718163041187
 30
0.0
 10
2110.895048571051
 20
1120.572637569037
 30
0.0
 10
2111.829581975158
 20
1120.471360575396
 30
0.0
 10
2112.773223213056
 20
1120.41671000139
 30
0.0
 10
2113.710082571623
 20
1120.408716095979
 30
0.0
 10
2114.642635986374
 20
1120.4450010345
 30
0.0
 10
2115.573064835492
 20
1120.527010265761
 30
0.0
 10
2116.485594533054
 20
1120.654111160553
 30
0.0
 10
2117.365216071203
 20
1120.823549540259
 30
0.0
 10
2118.215174157862
 20
1121.034304551762
 30
0.0
 10
2119.036556694946
 20
1121.288364814524
 30
0.0
 10
2119.815088880818
 20
1121.581967773765
 30
0.0
 10
2120.538328053801
 20
1121.909845220977
 30
0.0
 10
2121.209893434877
 20
1122.271428989906
 30
0.0
 10
2121.829626116044
 20
1122.667997187617
 30
0.0
 10
2122.386339019644
 20
1123.09302001532
 30
0.0
 10
2122.871567569312
 20
1123.539096905657
 30
0.0
 10
2123.288897821959
 20
1124.006569671995
 30
0.0
 10
2123.637061592139
 20
1124.497374359586
 30
0.0
 10
2123.909000763376
 20
1125.003505021183
 30
0.0
 10
2124.102081651546
 20
1125.516356758421
 30
0.0
 10
2124.216061444637
 20
1126.03676303351
 30
0.0
 10
2124.257485518854
 20
1126.520413425445
 30
0.0
 10
2124.223576058875
 20
1126.829826824077
 30
0.0
 10
2124.209165789034
 20
1126.961316106711
 30
0.0
  0
SPLINE
  5
35B
330
330
100
AcDbEntity
  8
0
  6
Continuous
 62
     7
370
    15
100
AcDbSpline
210
0.0
220
0.0
230
1.0
 70
     8
 71
     3
 72
    48
 73
    44
 74
     0
 42
0.0000000001
 43
0.0000000001
 40
0.0
 40
0.0
 40
0.0
 40
0.0
 40
0.0140400295875985
 40
0.0331613784249716
 40
0.0522827270363117
 40
0.0717108029941942
 40
0.0911388794612337
 40
0.1165872926494951
 40
0.1420357063520665
 40
0.1682234521960988
 40
0.1944111972953844
 40
0.219859558602242
 40
0.245307918140886
 40
0.2714956658872822
 40
0.2976834127393205
 40
0.3231308938915455
 40
0.3485783763065707
 40
0.3747651223956331
 40
0.400951868605081
 40
0.4264000431167561
 40
0.451848216568195
 40
0.4780357505061566
 40
0.5042232839851991
 40
0.5296707948550333
 40
0.5551183076750809
 40
0.581305128700604
 40
0.6074919507057477
 40
0.6329395075587867
 40
0.6583870641109832
 40
0.6845738883671653
 40
0.7107607110071069
 40
0.7362087852218663
 40
0.76165685985266
 40
0.7878442855176122
 40
0.8140317129740981
 40
0.8394792087528388
 40
0.8649267050046058
 40
0.8911134505846753
 40
0.9173001953743916
 40
0.942748554266932
 40
0.9681969113554622
 40
0.994384655641684
 40
1.0
 40
1.0
 40
1.0
 40
1.0
 10
2101.973030451274
 20
1126.34317218838
 30
0.0
 10
2101.960640767569
 20
1126.242083675822
 30
0.0
 10
2101.931377368421
 20
1126.003321043704
 30
0.0
 10
2101.948103421277
 20
1125.625922959708
 30
0.0
 10
2102.000478218065
 20
1125.210815433244
 30
0.0
 10
2102.099957687014
 20
1124.795949448972
 30
0.0
 10
2102.258190326484
 20
1124.340572456805
 30
0.0
 10
2102.492666164452
 20
1123.850771087825
 30
0.0
 10
2102.823181074024
 20
1123.32786751612
 30
0.0
 10
2103.230691270836
 20
1122.818066987504
 30
0.0
 10
2103.709299284235
 20
1122.330189337072
 30
0.0
 10
2104.250085879167
 20
1121.872087137092
 30
0.0
 10
2104.852247784435
 20
1121.441666327377
 30
0.0
 10
2105.519451261434
 20
1121.038734224704
 30
0.0
 10
2106.241242396335
 20
1120.669681527532
 30
0.0
 10
2107.004837170942
 20
1120.339840264465
 30
0.0
 10
2107.810662198169
 20
1120.047286459477
 30
0.0
 10
2108.662227183788
 20
1119.792536018286
 30
0.0
 10
2109.545734527852
 20
1119.580413906242
 30
0.0
 10
2110.446009835052
 20
1119.413907364254
 30
0.0
 10
2111.364662066556
 20
1119.291048869081
 30
0.0
 10
2112.304629586496
 20
1119.213140934315
 30
0.0
 10
2113.250275817509
 20
1119.182067854428
 30
0.0
 10
2114.185710090875
 20
1119.196987790167
 30
0.0
 10
2115.113529058565
 20
1119.255917874586
 30
0.0
 10
2116.035799858333
 20
1119.360677672431
 30
0.0
 10
2116.93683888089
 20
1119.510067810999
 30
0.0
 10
2117.801874088355
 20
1119.701017973723
 30
0.0
 10
2118.634219482982
 20
1119.932572351178
 30
0.0
 10
2119.434809354815
 20
1120.206754642549
 30
0.0
 10
2120.18967549455
 20
1120.519433117372
 30
0.0
 10
2120.886808590956
 20
1120.865100408217
 30
0.0
 10
2121.529841361218
 20
1121.24287200548
 30
0.0
 10
2122.118463770201
 20
1121.654061051117
 30
0.0
 10
2122.641988047957
 20
1122.092270117017
 30
0.0
 10
2123.092535891638
 20
1122.549791413243
 30
0.0
 10
2123.473633753479
 20
1123.027080944157
 30
0.0
 10
2123.783966888093
 20
1123.526037560249
 30
0.0
 10
2124.01671946415
 20
1124.038481669818
 30
0.0
 10
2124.171300986992
 20
1124.555783589477
 30
0.0
 10
2124.242276865219
 20
1125.0786389431
 30
0.0
 10
2124.254924974945
 20
1125.469575679751
 30
0.0
 10
2124.218189889655
 20
1125.684917967598
 30
0.0
 10
2124.211703722344
 20
1125.722940095408
 30
0.0
  0
SPLINE
  5
35C
330
330
100
AcDbEntity
  8
0
  6
Continuous
 62
     7
370
    15
100
AcDbSpline
210
0.0
220
0.0
230
1.0
 70
     8
 71
     3
 72
    13
 73
     9
 74
     0
 42
0.0000000001
 43
0.0000000001
 40
0.0
 40
0.0
 40
0.0
 40
0.0
 40
0.0254322990326581
 40
0.3110955234109721
 40
0.4824033465960884
 40
0.6537111730577781
 40
0.8268555853369687
 40
1.0
 40
1.0
 40
1.0
 40
1.0
 10
2101.969488021464
 20
1125.148812318871
 30
0.0
 10
2101.966531743939
 20
1125.132074360039
 30
0.0
 10
2101.93036966898
 20
1124.927330618349
 30
0.0
 10
2101.937196829947
 20
1124.607322016228
 30
0.0
 10
2101.970049285709
 20
1124.192392273826
 30
0.0
 10
2102.03079995374
 20
1123.852774974156
 30
0.0
 10
2102.118162487224
 20
1123.513812779506
 30
0.0
 10
2102.201636499653
 20
1123.289730211896
 30
0.0
 10
2102.243373506155
 20
1123.177688927319
 30
0.0
  0
SPLINE
  5
35D
330
330
100
AcDbEntity
  8
0
  6
Continuous
 62
     7
370
    15
100
AcDbSpline
210
0.0
220
0.0
230
1.0
 70
     8
 71
     3
 72
    46
 73
    42
 74
     0
 42
0.0000000001
 43
0.0000000001
 40
0.0
 40
0.0
 40
0.0
 40
0.0
 40
0.0001017398978622
 40
0.0266620968568902
 40
0.0538000906818126
 40
0.0811376856109546
 40
0.1075143742033974
 40
0.1340741875659554
 40
0.1612115638631336
 40
0.1885485142333264
 40
0.214926063701659
 40
0.2414867736348369
 40
0.2686251461367935
 40
0.2959631362025019
 40
0.3223397887196179
 40
0.3488995724823374
 40
0.376036926881933
 40
0.4033738520113441
 40
0.4297512928644948
 40
0.4563118796776982
 40
0.4834501240819004
 40
0.5107879855729511
 40
0.537164689677778
 40
0.5637245394394604
 40
0.5908619944456463
 40
0.6181990266575822
 40
0.6445759092436077
 40
0.6711359200276088
 40
0.6982735194554408
 40
0.7256107084471858
 40
0.7519878803733028
 40
0.7785482049087916
 40
0.8056861657586003
 40
0.8330237261970436
 40
0.8594004178286363
 40
0.8859602340867986
 40
0.9130976135468443
 40
0.9404345675024568
 40
0.9668121098941298
 40
0.9933728134215174
 40
1.0
 40
1.0
 40
1.0
 40
1.0
 10
2124.241456468357
 20
1124.915963162939
 30
0.0
 10
2124.241505452562
 20
1124.915298156568
 30
0.0
 10
2124.254342320599
 20
1124.741025677055
 30
0.0
 10
2124.209077156136
 20
1124.388560254711
 30
0.0
 10
2124.097399115029
 20
1123.862755349672
 30
0.0
 10
2123.896526189654
 20
1123.346094796139
 30
0.0
 10
2123.623130389635
 20
1122.844922334746
 30
0.0
 10
2123.27634192722
 20
1122.359936549651
 30
0.0
 10
2122.852702143291
 20
1121.887939154992
 30
0.0
 10
2122.359272179402
 20
1121.439463599365
 30
0.0
 10
2121.803740251523
 20
1121.019427974913
 30
0.0
 10
2121.18884304926
 20
1120.628084184065
 30
0.0
 10
2120.508593470338
 20
1120.263313624647
 30
0.0
 10
2119.776170099073
 20
1119.934911061711
 30
0.0
 10
2119.001702590299
 20
1119.645785112842
 30
0.0
 10
2118.187971590001
 20
1119.395712938201
 30
0.0
 10
2117.327975807134
 20
1119.183754351688
 30
0.0
 10
2116.439214360031
 20
1119.015434213832
 30
0.0
 10
2115.533170249975
 20
1118.891788402336
 30
0.0
 10
2114.61232236143
 20
1118.812014040929
 30
0.0
 10
2113.669482761817
 20
1118.776631471147
 30
0.0
 10
2112.724552469633
 20
1118.787286044761
 30
0.0
 10
2111.789111965471
 20
1118.844032366432
 30
0.0
 10
2110.865066748905
 20
1118.945613086665
 30
0.0
 10
2109.945814436599
 20
1119.093865880265
 30
0.0
 10
2109.051391095598
 20
1119.286715272062
 30
0.0
 10
2108.192101948691
 20
1119.520774912876
 30
0.0
 10
2107.369062680475
 20
1119.794525818214
 30
0.0
 10
2106.577031364429
 20
1120.110941208579
 30
0.0
 10
2105.833928033224
 20
1120.464267222899
 30
0.0
 10
2105.147654058814
 20
1120.849127888795
 30
0.0
 10
2104.518426456621
 20
1121.264718511931
 30
0.0
 10
2103.942955306093
 20
1121.715377604493
 30
0.0
 10
2103.435011364283
 20
1122.192051975603
 30
0.0
 10
2102.999242748675
 20
1122.68836974864
 30
0.0
 10
2102.634751059621
 20
1123.202717509708
 30
0.0
 10
2102.341138758502
 20
1123.73935427959
 30
0.0
 10
2102.124250963294
 20
1124.287211821812
 30
0.0
 10
2101.993102897897
 20
1124.839320853938
 30
0.0
 10
2101.935478853498
 20
1125.252278679602
 30
0.0
 10
2101.946817074893
 20
1125.482358620125
 30
0.0
 10
2101.949081169068
 20
1125.528302568021
 30
0.0
  0
SPLINE
  5
35E
330
330
100
AcDbEntity
  8
0
  6
Continuous
 62
     7
370
    15
100
AcDbSpline
210
0.0
220
0.0
230
1.0
 70
     8
 71
     3
 72
    45
 73
    41
 74
     0
 42
0.0000000001
 43
0.0000000001
 40
0.0
 40
0.0
 40
0.0
 40
0.0
 40
0.0251205598639536
 40
0.0514972258048747
 40
0.0780570308780509
 40
0.1051944248246902
 40
0.1325313924860007
 40
0.1589085265342952
 40
0.1854687961571172
 40
0.2126066840726998
 40
0.239944174449855
 40
0.2663210376833138
 40
0.292881050008409
 40
0.3200186888032861
 40
0.347355915126994
 40
0.3737325725489431
 40
0.4002923533208705
 40
0.4274296987679664
 40
0.454766621726568
 40
0.4811440385171629
 40
0.5077046192495907
 40
0.5348428426403203
 40
0.5621806815439934
 40
0.588557305878803
 40
0.6151170571552092
 40
0.6422543711498639
 40
0.6695912558559196
 40
0.6959687744582134
 40
0.7225294459576236
 40
0.7496677889747097
 40
0.7770057463570821
 40
0.80338240823183
 40
0.8299422084173357
 40
0.8570795954577153
 40
0.8844165558067105
 40
0.9107937213802498
 40
0.9373540234920071
 40
0.9644919477653189
 40
0.9918294761801359
 40
1.0
 40
1.0
 40
1.0
 40
1.0
 10
2124.238539873403
 20
1126.140858212311
 30
0.0
 10
2124.233119368758
 20
1125.976408717758
 30
0.0
 10
2124.222007317387
 20
1125.639286742757
 30
0.0
 10
2124.107208313811
 20
1125.132315582074
 30
0.0
 10
2123.919545068403
 20
1124.619730986347
 30
0.0
 10
2123.650294056095
 20
1124.112415135082
 30
0.0
 10
2123.305695979539
 20
1123.621464775565
 30
0.0
 10
2122.891067874544
 20
1123.152478792947
 30
0.0
 10
2122.409202848637
 20
1122.705997782605
 30
0.0
 10
2121.854857794548
 20
1122.279249214684
 30
0.0
 10
2121.238290666832
 20
1121.881965088928
 30
0.0
 10
2120.568449041087
 20
1121.518294279861
 30
0.0
 10
2119.848164323519
 20
1121.189498368907
 30
0.0
 10
2119.070866437726
 20
1120.893759916897
 30
0.0
 10
2118.252014186252
 20
1120.638351093517
 30
0.0
 10
2117.402540986856
 20
1120.425424878872
 30
0.0
 10
2116.525120101644
 20
1120.254448526386
 30
0.0
 10
2115.612555998978
 20
1120.125163829377
 30
0.0
 10
2114.683757258588
 20
1120.041372154082
 30
0.0
 10
2113.750404015416
 20
1120.003099981684
 30
0.0
 10
2112.814727511555
 20
1120.009106420189
 30
0.0
 10
2111.869759455308
 20
1120.061693754491
 30
0.0
 10
2110.935766218726
 20
1120.160980835133
 30
0.0
 10
2110.023857202259
 20
1120.304635675781
 30
0.0
 10
2109.135581455451
 20
1120.49127136125
 30
0.0
 10
2108.264895838391
 20
1120.723306817445
 30
0.0
 10
2107.431088223442
 20
1120.996828655602
 30
0.0
 10
2106.643446465464
 20
1121.30753184162
 30
0.0
 10
2105.902660604403
 20
1121.653864197395
 30
0.0
 10
2105.204362106232
 20
1122.039074893939
 30
0.0
 10
2104.564742856691
 20
1122.456430331896
 30
0.0
 10
2103.990231392558
 20
1122.900809178826
 30
0.0
 10
2103.480557042002
 20
1123.370357529174
 30
0.0
 10
2103.033522164622
 20
1123.869226690648
 30
0.0
 10
2102.66019906035
 20
1124.387310791122
 30
0.0
 10
2102.363924102196
 20
1124.917860147546
 30
0.0
 10
2102.141632595074
 20
1125.459373280617
 30
0.0
 10
2102.0007176733
 20
1126.016104435646
 30
0.0
 10
2101.937417698306
 20
1126.450287745294
 30
0.0
 10
2101.947473105815
 20
1126.696479566641
 30
0.0
 10
2101.949786889349
 20
1126.753129143679
 30
0.0
  0
SPLINE
  5
35F
330
330
100
AcDbEntity
  8
0
  6
Continuous
 62
     7
370
    15
100
AcDbSpline
210
0.0
220
0.0
230
1.0
 70
     8
 71
     3
 72
    45
 73
    41
 74
     0
 42
0.0000000001
 43
0.0000000001
 40
0.0
 40
0.0
 40
0.0
 40
0.0
 40
0.011472213192371
 40
0.0386103590441468
 40
0.0659481173260656
 40
0.09232471163226
 40
0.1188844319817475
 40
0.146021713588041
 40
0.1733585660469259
 40
0.199736060095065
 40
0.2262967083455716
 40
0.2534350280152138
 40
0.2807729610285779
 40
0.3071495786643487
 40
0.3337093327589258
 40
0.3608466690276764
 40
0.3881835775754881
 40
0.4145607669024091
 40
0.4411210944238094
 40
0.4682590509807081
 40
0.4955966147359228
 40
0.5219733130253993
 40
0.5485331605835384
 40
0.5756706277921184
 40
0.6030076774502527
 40
0.629384273098551
 40
0.6559439912153056
 40
0.6830812733785649
 40
0.7104181338143613
 40
0.7367954563268643
 40
0.7633559408413577
 40
0.7904940642088682
 40
0.8178317985813338
 40
0.8442083961689913
 40
0.8707681195128802
 40
0.8979054039010458
 40
0.9252422593930845
 40
0.9516197569459061
 40
0.9781804094610155
 40
1.0
 40
1.0
 40
1.0
 40
1.0
 10
2124.232080390582
 20
1127.365550774914
 30
0.0
 10
2124.23429777755
 20
1127.290462319895
 30
0.0
 10
2124.241760514296
 20
1127.037748030184
 30
0.0
 10
2124.16994527511
 20
1126.607323807808
 30
0.0
 10
2124.019165645205
 20
1126.085677118757
 30
0.0
 10
2123.787367388069
 20
1125.57743920295
 30
0.0
 10
2123.482836003791
 20
1125.083453638287
 30
0.0
 10
2123.099967734179
 20
1124.60038370668
 30
0.0
 10
2122.645570175144
 20
1124.138964072969
 30
0.0
 10
2122.12672203721
 20
1123.704288245795
 30
0.0
 10
2121.546180758545
 20
1123.296771126767
 30
0.0
 10
2120.898140012905
 20
1122.913796040837
 30
0.0
 10
2120.195023485119
 20
1122.565252502674
 30
0.0
 10
2119.446682919681
 20
1122.254991999976
 30
0.0
 10
2118.655913334174
 20
1121.982689795993
 30
0.0
 10
2117.815809578878
 20
1121.747261276358
 30
0.0
 10
2116.943367674508
 20
1121.554697600202
 30
0.0
 10
2116.049955897404
 20
1121.406348188261
 30
0.0
 10
2115.138113486374
 20
1121.301483997924
 30
0.0
 10
2114.200628325227
 20
1121.240398349444
 30
0.0
 10
2113.257195335904
 20
1121.225394656467
 30
0.0
 10
2112.319442726191
 20
1121.255910177271
 30
0.0
 10
2111.389398448353
 20
1121.331786019424
 30
0.0
 10
2110.460324208758
 20
1121.454425044591
 30
0.0
 10
2109.552380981743
 20
1121.622376610521
 30
0.0
 10
2108.676124239124
 20
1121.832522958016
 30
0.0
 10
2107.832790904019
 20
1122.083375119371
 30
0.0
 10
2107.016904640137
 20
1122.377778287626
 30
0.0
 10
2106.246809243119
 20
1122.710410420628
 30
0.0
 10
2105.530811595087
 20
1123.076367834165
 30
0.0
 10
2104.869246800753
 20
1123.473898904765
 30
0.0
 10
2104.258540524335
 20
1123.907993890496
 30
0.0
 10
2103.713165578238
 20
1124.370002887784
 30
0.0
 10
2103.238249425371
 20
1124.853685213607
 30
0.0
 10
2102.833122180493
 20
1125.357406823364
 30
0.0
 10
2102.496666462451
 20
1125.885400234426
 30
0.0
 10
2102.237023401521
 20
1126.426822417822
 30
0.0
 10
2102.058556586452
 20
1126.974770096004
 30
0.0
 10
2101.955926388574
 20
1127.491115624687
 30
0.0
 10
2101.950454959574
 20
1127.826712393416
 30
0.0
 10
2101.947987333681
 20
1127.97806723617
 30
0.0
  0
SPLINE
  5
360
330
330
100
AcDbEntity
  8
0
  6
Continuous
 62
     7
370
    15
100
AcDbSpline
210
0.0
220
0.0
230
1.0
 70
     8
 71
     3
 72
    43
 73
    39
 74
     0
 42
0.0000000001
 43
0.0000000001
 40
0.0
 40
0.0
 40
0.0
 40
0.0
 40
0.0187317889353182
 40
0.0466460223049501
 40
0.075167327380096
 40
0.1038983896697408
 40
0.1316200909801008
 40
0.159534252913192
 40
0.1880554327052233
 40
0.2167863692647188
 40
0.2445088173328572
 40
0.2724237660755253
 40
0.3009458103753392
 40
0.3296776422794541
 40
0.3573993841113923
 40
0.385313590099065
 40
0.4138348110156951
 40
0.4425657812507227
 40
0.4702884644593003
 40
0.4982036446107567
 40
0.526725954336124
 40
0.5554580574551043
 40
0.5831797988976584
 40
0.611094013876072
 40
0.6396152605008288
 40
0.668346256036307
 40
0.6960686954475848
 40
0.7239836155482862
 40
0.7525056340277594
 40
0.7812374442430139
 40
0.8089591814218499
 40
0.8368734076866999
 40
0.8653947036892107
 40
0.8941257561534532
 40
0.9218474846769787
 40
0.9497616744442423
 40
0.9782828848736288
 40
1.0
 40
1.0
 40
1.0
 40
1.0
 10
2124.229769438138
 20
1128.435090509769
 30
0.0
 10
2124.224534905188
 20
1128.318457054734
 30
0.0
 10
2124.211499837282
 20
1128.028015668498
 30
0.0
 10
2124.101476452429
 20
1127.563773699697
 30
0.0
 10
2123.909292916008
 20
1127.045365443986
 30
0.0
 10
2123.636169351065
 20
1126.539931294473
 30
0.0
 10
2123.291104890787
 20
1126.05322743235
 30
0.0
 10
2122.87560459632
 20
1125.585938338008
 30
0.0
 10
2122.385161684416
 20
1125.135050888784
 30
0.0
 10
2121.828495259496
 20
1124.710737081148
 30
0.0
 10
2121.213936942958
 20
1124.317533125767
 30
0.0
 10
2120.544269410244
 20
1123.9556236267
 30
0.0
 10
2119.813221232246
 20
1123.62433081879
 30
0.0
 10
2119.035143212986
 20
1123.331358226888
 30
0.0
 10
2118.220603471179
 20
1123.079435452878
 30
0.0
 10
2117.37233738847
 20
1122.868133854383
 30
0.0
 10
2116.483222185333
 20
1122.696860907917
 30
0.0
 10
2115.571518252679
 20
1122.570306876867
 30
0.0
 10
2114.648843192769
 20
1122.488956297583
 30
0.0
 10
2113.717564318262
 20
1122.451972547275
 30
0.0
 10
2112.770560456535
 20
1122.45991797183
 30
0.0
 10
2111.828014872703
 20
1122.514963964226
 30
0.0
 10
2110.901296323123
 20
1122.615398226134
 30
0.0
 10
2109.992137620767
 20
1122.759882614245
 30
0.0
 10
2109.09419298219
 20
1122.95055564564
 30
0.0
 10
2108.227187541273
 20
1123.184411568223
 30
0.0
 10
2107.40095101041
 20
1123.457604560004
 30
0.0
 10
2106.616389018792
 20
1123.768554021235
 30
0.0
 10
2105.868683485591
 20
1124.12053381448
 30
0.0
 10
2105.174943365348
 20
1124.50670358555
 30
0.0
 10
2104.542364277703
 20
1124.922341403572
 30
0.0
 10
2103.970943386695
 20
1125.366365788601
 30
0.0
 10
2103.457831102756
 20
1125.842600015867
 30
0.0
 10
2103.015810782566
 20
1126.341568661931
 30
0.0
 10
2102.647727148335
 20
1126.856594455426
 30
0.0
 10
2102.355900146092
 20
1127.386359855647
 30
0.0
 10
2102.146306582737
 20
1127.889116075138
 30
0.0
 10
2102.071872804751
 20
1128.218195148459
 30
0.0
 10
2102.039696435258
 20
1128.360450051304
 30
0.0
  0
SPLINE
  5
361
330
330
100
AcDbEntity
  8
0
  6
Continuous
 62
     7
370
    15
100
AcDbSpline
210
0.0
220
0.0
230
1.0
 70
     8
 71
     3
 72
    37
 73
    33
 74
     0
 42
0.0000000001
 43
0.0000000001
 40
0.0
 40
0.0
 40
0.0
 40
0.0
 40
0.0062698398619586
 40
0.0410633938319989
 40
0.0761128235222665
 40
0.109931973987701
 40
0.1439859373568402
 40
0.17878051950965
 40
0.2138310334835562
 40
0.247649295616673
 40
0.281702376770402
 40
0.3164960286553647
 40
0.3515455653498382
 40
0.3853639080997956
 40
0.419417040396323
 40
0.4542106985473755
 40
0.4892602488970852
 40
0.5230792502629879
 40
0.5571330816676469
 40
0.5919275179681503
 40
0.6269778721930358
 40
0.6607961271245652
 40
0.6948491716905389
 40
0.7296427247285339
 40
0.7646921560094616
 40
0.7985115375638184
 40
0.8325657522759792
 40
0.8673606094451105
 40
0.9024113994686263
 40
0.9362296247088423
 40
0.9702826491255787
 40
1.0
 40
1.0
 40
1.0
 40
1.0
 10
2123.810266980218
 20
1128.107971345398
 30
0.0
 10
2123.796410963577
 20
1128.077012256329
 30
0.0
 10
2123.705663020919
 20
1127.874250256805
 30
0.0
 10
2123.462596310382
 20
1127.510779652429
 30
0.0
 10
2123.082088512748
 20
1127.028960468863
 30
0.0
 10
2122.626692969589
 20
1126.572001350357
 30
0.0
 10
2122.107756467661
 20
1126.138997407064
 30
0.0
 10
2121.517568393832
 20
1125.727746239813
 30
0.0
 10
2120.867806479917
 20
1125.347339210445
 30
0.0
 10
2120.167620307968
 20
1125.002764249489
 30
0.0
 10
2119.41987171715
 20
1124.694241477246
 30
0.0
 10
2118.617840880041
 20
1124.420260010132
 30
0.0
 10
2117.777588508581
 20
1124.187621256806
 30
0.0
 10
2116.910228921725
 20
1123.998186407665
 30
0.0
 10
2116.018391145938
 20
1123.851353227315
 30
0.0
 10
2115.094858751396
 20
1123.747048253804
 30
0.0
 10
2114.158866376946
 20
1123.688597807416
 30
0.0
 10
2113.222090443075
 20
1123.675546824068
 30
0.0
 10
2112.286695386574
 20
1123.707210858214
 30
0.0
 10
2111.345795763767
 20
1123.785883814822
 30
0.0
 10
2110.419649568592
 20
1123.910758436422
 30
0.0
 10
2109.519184829823
 20
1124.079301340461
 30
0.0
 10
2108.64583703477
 20
1124.290060186589
 30
0.0
 10
2107.793761819902
 20
1124.545622642172
 30
0.0
 10
2106.981930652481
 20
1124.841546762463
 30
0.0
 10
2106.219298830552
 20
1125.173291583786
 30
0.0
 10
2105.506379584294
 20
1125.539253068111
 30
0.0
 10
2104.839262875287
 20
1125.942931976126
 30
0.0
 10
2104.232878732942
 20
1126.377612570452
 30
0.0
 10
2103.69564219362
 20
1126.837757129267
 30
0.0
 10
2103.241604176566
 20
1127.29556673232
 30
0.0
 10
2103.000748627007
 20
1127.611140435286
 30
0.0
 10
2102.888508596372
 20
1127.758199542511
 30
0.0
  0
SPLINE
  5
362
330
330
100
AcDbEntity
  8
0
  6
Continuous
 62
     7
370
    15
100
AcDbSpline
210
0.0
220
0.0
230
1.0
 70
     8
 71
     3
 72
    23
 73
    19
 74
     0
 42
0.0000000001
 43
0.0000000001
 40
0.0
 40
0.0
 40
0.0
 40
0.0
 40
0.0021783528962093
 40
0.0742893088343664
 40
0.1438644898276535
 40
0.213922726508805
 40
0.2855044539624785
 40
0.3576126003811569
 40
0.4271898575843916
 40
0.4972502090537368
 40
0.5688342800337257
 40
0.6409448921820936
 40
0.7105202084141756
 40
0.7805786183795945
 40
0.8521606105200699
 40
0.9242690387523358
 40
0.9938448196294189
 40
1.0
 40
1.0
 40
1.0
 40
1.0
 10
2120.525031052168
 20
1126.406810060625
 30
0.0
 10
2120.518117000971
 20
1126.403093193123
 30
0.0
 10
2120.282324129397
 20
1126.276335256756
 30
0.0
 10
2119.775417376674
 20
1126.06271582007
 30
0.0
 10
2119.00613924204
 20
1125.77034355123
 30
0.0
 10
2118.19123492844
 20
1125.520928592875
 30
0.0
 10
2117.331748739754
 20
1125.308565277626
 30
0.0
 10
2116.443003029162
 20
1125.140123207767
 30
0.0
 10
2115.537071440674
 20
1125.016274903856
 30
0.0
 10
2114.616277498986
 20
1124.936317070994
 30
0.0
 10
2113.673467653112
 20
1124.900736089017
 30
0.0
 10
2112.728556105242
 20
1124.911214310028
 30
0.0
 10
2111.793032295179
 20
1124.96770084333
 30
0.0
 10
2110.869152807833
 20
1125.069329298993
 30
0.0
 10
2109.948982715739
 20
1125.216473997907
 30
0.0
 10
2109.057570835406
 20
1125.412560600151
 30
0.0
 10
2108.449635312464
 20
1125.567210546578
 30
0.0
 10
2108.155285600698
 20
1125.665709967233
 30
0.0
 10
2108.131361758479
 20
1125.673715698186
 30
0.0
  0
ARC
  5
363
330
330
100
AcDbEntity
  8
0
  6
Continuous
 62
     7
370
    15
100
AcDbCircle
 10
2105.838184659886
 20
1124.681331805294
 30
0.0
 40
3.896615086902396
100
AcDbArc
 50
180.2390141823347
 51
202.6986543297719
  0
LINE
  5
364
330
330
100
AcDbEntity
  8
0
  6
Continuous
 62
     7
370
    15
100
AcDbLine
 10
2116.371372072332
 20
1133.480732019497
 30
0.0
 11
2117.495595969045
 21
1132.831731378292
 31
0.0
  0
LWPOLYLINE
  5
365
330
330
100
AcDbEntity
  8
0
  6
Continuous
 62
     8
370
    15
100
AcDbPolyline
 90
       70
 70
   128
 43
0.0
 10
2126.841581497586
 20
1134.050560121181
 10
2126.830533439201
 20
1133.746299737547
 10
2126.790796166753
 20
1133.383010823473
 10
2126.722249279513
 20
1133.021155623916
 10
2126.62503693265
 20
1132.661495125977
 10
2126.499363565237
 20
1132.304785701263
 10
2126.345493470315
 20
1131.951777515229
 10
2126.163750239082
 20
1131.603212949569
 10
2125.954516080372
 20
1131.259825040971
 10
2125.71823101687
 20
1130.922335939536
 10
2125.455391959729
 20
1130.591455390082
 10
2125.166551663564
 20
1130.267879239538
 10
2124.852317564001
 20
1129.952287973569
 10
2124.513350500227
 20
1129.645345285505
 10
2124.150363325236
 20
1129.34769668058
 10
2123.764119406691
 20
1129.059968118431
 10
2123.355431021545
 20
1128.782764696688
 10
2122.925157647812
 20
1128.516669378448
 10
2122.474204157076
 20
1128.262241766294
 10
2122.003518911523
 20
1128.020016925442
 10
2121.51409176953
 20
1127.790504258492
 10
2121.00695200397
 20
1127.574186434143
 10
2120.483166137638
 20
1127.371518372136
 10
2119.94383570034
 20
1127.18292628655
 10
2119.390094912353
 20
1127.008806789469
 10
2118.823108299148
 20
1126.849526056895
 10
2118.244068242368
 20
1126.705419058681
 10
2117.654192472239
 20
1126.57678885408
 10
2117.054721506658
 20
1126.463905954409
 10
2116.446916042368
 20
1126.367007754157
 10
2115.83205430369
 20
1126.286298031743
 10
2115.211429354403
 20
1126.221946520965
 10
2114.586346378403
 20
1126.174088554049
 10
2113.95811993489
 20
1126.142824777042
 10
2113.328071193822
 20
1126.128220938152
 10
2112.697525157477
 20
1126.130307749479
 10
2112.067807873954
 20
1126.149080822427
 10
2111.440243648472
 20
1126.184500676931
 10
2110.816152258335
 20
1126.236492824489
 10
2110.196846177418
 20
1126.304947924806
 10
2109.583627816022
 20
1126.389722015745
 10
2108.977786781873
 20
1126.490636816077
 10
2108.380597168069
 20
1126.607480100412
 10
2107.793314873633
 20
1126.740006145508
 10
2107.217174962343
 20
1126.887936247038
 10
2106.653389065372
 20
1127.050959305702
 10
2106.103142833211
 20
1127.228732481478
 10
2105.567593442222
 20
1127.420881914619
 10
2105.047867161085
 20
1127.627003511886
 10
2104.545056982234
 20
1127.84666379636
 10
2104.060220323278
 20
1128.079400819057
 10
2103.594376803232
 20
1128.324725130405
 10
2103.148506098247
 20
1128.582120809571
 10
2102.723545881336
 20
1128.851046549449
 10
2102.320389850428
 20
1129.130936795033
 10
2101.939885848911
 20
1129.421202932795
 10
2101.582834082606
 20
1129.721234528543
 10
2101.249985436916
 20
1130.030400611175
 10
2100.942039897709
 20
1130.348050999624
 10
2100.659645079231
 20
1130.673517670192
 10
2100.403394862168
 20
1131.006116161422
 10
2100.173828144702
 20
1131.345147013525
 10
2099.971427709203
 20
1131.68989723936
 10
2099.796619206927
 20
1132.039641823851
 10
2099.649770262866
 20
1132.39364524871
 10
2099.531189702629
 20
1132.751163039243
 10
2099.441126902973
 20
1133.111443329988
 10
2099.379771267364
 20
1133.473728445903
 10
2099.347251827655
 20
1133.837256495769
 10
2099.341604726472
 20
1134.061369958401
  0
LINE
  5
366
330
330
100
AcDbEntity
  8
0
  6
Continuous
 62
     8
370
    15
100
AcDbLine
 10
2118.041350945915
 20
1132.928197871556
 30
0.0
 11
2118.041350945915
 21
1133.565202123311
 31
0.0
  0
LINE
  5
367
330
330
100
AcDbEntity
  8
0
  6
Continuous
 62
     8
370
    15
100
AcDbLine
 10
2109.131805502965
 20
1138.708573227794
 30
0.0
 11
2109.131805502965
 21
1137.704504988744
 31
0.0
  0
ENDBLK
  5
332
330
330
100
AcDbEntity
  8
0
100
AcDbBlockEnd
  0
ENDSEC
  0
SECTION
  2
ENTITIES
  0
INSERT
  5
324
330
1F
100
AcDbEntity
  8
0
100
AcDbBlockReference
  2
1
 10
0.0
 20
0.0
 30
0.0
  0
INSERT
  5
32F
330
1F
100
AcDbEntity
  8
0
100
AcDbBlockReference
  2
2
 10
0.0
 20
0.0
 30
0.0
  0
INSERT
  5
368
330
1F
100
AcDbEntity
  8
0
100
AcDbBlockReference
  2
3
 10
0.0
 20
0.0
 30
0.0
  0
ENDSEC
  0
SECTION
  2
OBJECTS
  0
DICTIONARY
  5
C
330
0
100
AcDbDictionary
281
     1
  3
ACAD_COLOR
350
6B
  3
ACAD_GROUP
350
D
  3
ACAD_LAYOUT
350
1A
  3
ACAD_MATERIAL
350
6A
  3
ACAD_MLEADERSTYLE
350
12D
  3
ACAD_MLINESTYLE
350
17
  3
ACAD_PLOTSETTINGS
350
19
  3
ACAD_PLOTSTYLENAME
350
E
  3
ACAD_SCALELIST
350
10C
  3
ACAD_TABLESTYLE
350
7E
  3
ACAD_VISUALSTYLE
350
EF
  3
ACDB_RECOMPOSE_DATA
350
15D
  3
AcDbVariableDictionary
350
5E
  3
DWGPROPS
350
376
  0
DICTIONARY
  5
13C
330
10
100
AcDbDictionary
280
     1
281
     1
  3
ADSK_XREC_LAYER_RECONCILED
360
369
  0
DICTIONARY
  5
6B
102
{ACAD_REACTORS
330
C
102
}
330
C
100
AcDbDictionary
281
     1
  0
DICTIONARY
  5
D
102
{ACAD_REACTORS
330
C
102
}
330
C
100
AcDbDictionary
281
     1
  0
DICTIONARY
  5
1A
102
{ACAD_REACTORS
330
C
102
}
330
C
100
AcDbDictionary
281
     1
  3
Layout1
350
D3
  3
Layout2
350
D7
  3
Model
350
22
  0
DICTIONARY
  5
6A
102
{ACAD_REACTORS
330
C
102
}
330
C
100
AcDbDictionary
281
     1
  3
ByBlock
350
ED
  3
ByLayer
350
EC
  3
Global
350
EE
  0
DICTIONARY
  5
12D
102
{ACAD_REACTORS
330
C
102
}
330
C
100
AcDbDictionary
281
     1
  3
Annotative
350
13B
  3
Standard
350
12E
  0
DICTIONARY
  5
17
102
{ACAD_REACTORS
330
C
102
}
330
C
100
AcDbDictionary
281
     1
  3
Standard
350
18
  0
DICTIONARY
  5
19
102
{ACAD_REACTORS
330
C
102
}
330
C
100
AcDbDictionary
281
     1
  0
ACDBDICTIONARYWDFLT
  5
E
102
{ACAD_REACTORS
330
C
102
}
330
C
100
AcDbDictionary
281
     1
  3
Normal
350
F
100
AcDbDictionaryWithDefault
340
F
  0
DICTIONARY
  5
10C
102
{ACAD_REACTORS
330
C
102
}
330
C
100
AcDbDictionary
281
     1
  3
A0
350
10D
  3
A1
350
188
  3
A2
350
189
  3
A3
350
18A
  3
A4
350
18B
  3
A5
350
18C
  3
A6
350
18D
  3
A7
350
18E
  3
A8
350
18F
  3
A9
350
190
  3
B0
350
191
  3
B1
350
192
  3
B2
350
193
  3
B3
350
194
  3
B4
350
195
  3
B5
350
196
  3
B6
350
197
  3
B7
350
198
  3
B8
350
199
  3
B9
350
19A
  3
C0
350
19B
  3
C1
350
19C
  3
C2
350
19D
  3
C3
350
19E
  3
C4
350
19F
  3
C5
350
1A0
  3
C6
350
1A1
  3
C7
350
1A2
  3
C8
350
1A3
  3
C9
350
1A4
  3
D0
350
1A5
  3
D1
350
1A6
  3
D2
350
1A7
  0
DICTIONARY
  5
7E
102
{ACAD_REACTORS
330
C
102
}
330
C
100
AcDbDictionary
281
     1
  3
Standard
350
7F
  0
DICTIONARY
  5
EF
102
{ACAD_REACTORS
330
C
102
}
330
C
100
AcDbDictionary
281
     1
  3
2dWireframe
350
F5
  3
3D Hidden
350
F7
  3
3dWireframe
350
F6
  3
Basic
350
F4
  3
Brighten
350
FB
  3
ColorChange
350
FF
  3
Conceptual
350
F8
  3
Dim
350
FA
  3
Facepattern
350
FE
  3
Flat
350
F0
  3
FlatWithEdges
350
F1
  3
Gouraud
350
F2
  3
GouraudWithEdges
350
F3
  3
Linepattern
350
FD
  3
Realistic
350
F9
  3
Thicken
350
FC
  0
XRECORD
  5
15D
102
{ACAD_REACTORS
330
C
102
}
330
C
100
AcDbXrecord
280
     1
 90
        1
330
7F
  0
DICTIONARY
  5
5E
102
{ACAD_REACTORS
330
C
102
}
330
C
100
AcDbDictionary
281
     1
  3
CANNOSCALE
350
146
  3
CMLEADERSTYLE
350
145
  3
CTABLESTYLE
350
84
  3
DIMASSOC
350
5F
  3
HIDETEXT
350
63
  3
INDEXCTL
350
372
  3
LIGHTINGUNITS
350
370
  3
MSLTSCALE
350
36F
  3
PSOLHEIGHT
350
374
  3
PSOLWIDTH
350
373
  3
SORTENTS
350
371
  0
XRECORD
  5
376
102
{ACAD_REACTORS
330
C
102
}
330
C
100
AcDbXrecord
280
     1
  1
DWGPROPS COOKIE
  2

  3

  4

  6

  7

  8
orhan kara
  9

300
=
301
=
302
=
303
=
304
=
305
=
306
=
307
=
308
=
309
=
 40
0.0002535069444444
 41
2459059.856863403
 42
2459067.647357963
  1

 90
        0
  0
XRECORD
  5
369
102
{ACAD_REACTORS
330
13C
102
}
330
13C
100
AcDbXrecord
280
     1
290
     1
  0
LAYOUT
  5
D3
102
{ACAD_XDICTIONARY
360
37A
102
}
102
{ACAD_REACTORS
330
1A
102
}
330
1A
100
AcDbPlotSettings
  1

  2
C:\Documents and Settings\basas\Application Data\Autodesk\AutoCAD 2005\R16.1\enu\plotters\Default Windows System Printer.pc3
  4

  6

 40
0.0
 41
0.0
 42
0.0
 43
0.0
 44
0.0
 45
0.0
 46
0.0
 47
0.0
 48
0.0
 49
0.0
140
0.0
141
0.0
142
1.0
143
1.0
 70
   688
 72
     0
 73
     0
 74
     5
  7

 75
    16
147
1.0
148
0.0
149
0.0
100
AcDbLayout
  1
Layout1
 70
     1
 71
     1
 10
0.0
 20
0.0
 11
12.0
 21
9.0
 12
0.0
 22
0.0
 32
0.0
 14
0.0
 24
0.0
 34
0.0
 15
0.0
 25
0.0
 35
0.0
146
0.0
 13
0.0
 23
0.0
 33
0.0
 16
1.0
 26
0.0
 36
0.0
 17
0.0
 27
1.0
 37
0.0
 76
     0
330
D2
  0
LAYOUT
  5
D7
102
{ACAD_XDICTIONARY
360
37C
102
}
102
{ACAD_REACTORS
330
1A
102
}
330
1A
100
AcDbPlotSettings
  1

  2
C:\Documents and Settings\basas\Application Data\Autodesk\AutoCAD 2005\R16.1\enu\plotters\Default Windows System Printer.pc3
  4

  6

 40
0.0
 41
0.0
 42
0.0
 43
0.0
 44
0.0
 45
0.0
 46
0.0
 47
0.0
 48
0.0
 49
0.0
140
0.0
141
0.0
142
1.0
143
1.0
 70
   688
 72
     0
 73
     0
 74
     5
  7

 75
    16
147
1.0
148
0.0
149
0.0
100
AcDbLayout
  1
Layout2
 70
     1
 71
     2
 10
0.0
 20
0.0
 11
12.0
 21
9.0
 12
0.0
 22
0.0
 32
0.0
 14
0.0
 24
0.0
 34
0.0
 15
0.0
 25
0.0
 35
0.0
146
0.0
 13
0.0
 23
0.0
 33
0.0
 16
1.0
 26
0.0
 36
0.0
 17
0.0
 27
1.0
 37
0.0
 76
     0
330
D6
  0
LAYOUT
  5
22
102
{ACAD_XDICTIONARY
360
377
102
}
102
{ACAD_REACTORS
330
1A
102
}
330
1A
100
AcDbPlotSettings
  1

  2
none_device
  4
ISO_A4_(210.00_x_297.00_MM)
  6

 40
7.5
 41
20.0
 42
7.5
 43
20.0
 44
210.0
 45
297.0
 46
11.54999923706054
 47
-13.65000009536743
 48
0.0
 49
0.0
140
0.0
141
0.0
142
1.0
143
8.704084754739808
 70
 11952
 72
     1
 73
     0
 74
     0
  7

 75
     0
147
0.1148885871608098
148
0.0
149
0.0
100
AcDbLayout
  1
Model
 70
     1
 71
     0
 10
0.0
 20
0.0
 11
12.0
 21
9.0
 12
0.0
 22
0.0
 32
0.0
 14
0.0
 24
0.0
 34
0.0
 15
0.0
 25
0.0
 35
0.0
146
0.0
 13
0.0
 23
0.0
 33
0.0
 16
1.0
 26
0.0
 36
0.0
 17
0.0
 27
1.0
 37
0.0
 76
     0
330
1F
331
EA
1001
ACAD_PSEXT
1000
None
1000
None
1000
Not applicable
1000
The layout will not be plotted unless a new plotter configuration name is selected.
1070
     0
  0
MATERIAL
  5
ED
102
{ACAD_XDICTIONARY
360
380
102
}
102
{ACAD_REACTORS
330
6A
102
}
330
6A
100
AcDbMaterial
  1
ByBlock
  0
MATERIAL
  5
EC
102
{ACAD_XDICTIONARY
360
37E
102
}
102
{ACAD_REACTORS
330
6A
102
}
330
6A
100
AcDbMaterial
  1
ByLayer
  0
MATERIAL
  5
EE
102
{ACAD_XDICTIONARY
360
173
102
}
102
{ACAD_REACTORS
330
6A
102
}
330
6A
100
AcDbMaterial
  1
Global
 43
0.0007999999797903
 43
0.0
 43
0.0
 43
0.0
 43
0.0
 43
0.0007999999797903
 43
0.0
 43
0.0
 43
0.0
 43
0.0
 43
1.0
 43
0.0
 43
0.0
 43
0.0
 43
0.0
 43
1.0
 49
0.0007999999797903
 49
0.0
 49
0.0
 49
0.0
 49
0.0
 49
0.0007999999797903
 49
0.0
 49
0.0
 49
0.0
 49
0.0
 49
1.0
 49
0.0
 49
0.0
 49
0.0
 49
0.0
 49
1.0
142
0.0007999999797903
142
0.0
142
0.0
142
0.0
142
0.0
142
0.0007999999797903
142
0.0
142
0.0
142
0.0
142
0.0
142
1.0
142
0.0
142
0.0
142
0.0
142
0.0
142
1.0
144
0.0007999999797903
144
0.0
144
0.0
144
0.0
144
0.0
144
0.0007999999797903
144
0.0
144
0.0
144
0.0
144
0.0
144
1.0
144
0.0
144
0.0
144
0.0
144
0.0
144
1.0
1001
ACAD
1070
    -1
1070
     3
1070
     0
1000

1071
        0
1070
     0
  0
MLEADERSTYLE
  5
13B
102
{ACAD_REACTORS
330
12D
102
}
330
12D
100
AcDbMLeaderStyle
170
     2
171
     1
172
     0
 90
        2
 40
0.0
 41
0.0
173
     1
 91
-1056964608
340
14
 92
       -2
290
     1
 42
2.0
291
     1
 43
8.0
  3
Standard
 44
4.0
300

342
11
174
     1
178
     1
175
     1
176
     0
 93
-1056964608
 45
4.0
292
     0
297
     0
 46
4.0
 94
-1056964608
 47
1.0
 49
1.0
140
1.0
293
     1
141
0.0
294
     1
177
     0
142
1.0
295
     0
296
     1
143
3.75
1001
ACAD_MLEADERVER
1070
     2
  0
MLEADERSTYLE
  5
12E
102
{ACAD_REACTORS
330
12D
102
}
330
12D
100
AcDbMLeaderStyle
170
     2
171
     1
172
     0
 90
        2
 40
0.0
 41
0.0
173
     1
 91
-1056964608
340
14
 92
       -2
290
     1
 42
2.0
291
     1
 43
8.0
  3
Standard
 44
4.0
300

342
11
174
     1
178
     1
175
     1
176
     0
 93
-1056964608
 45
4.0
292
     0
297
     0
 46
4.0
 94
-1056964608
 47
1.0
 49
1.0
140
1.0
293
     1
141
0.0
294
     1
177
     0
142
1.0
295
     0
296
     0
143
3.75
1001
ACAD_MLEADERVER
1070
     2
  0
MLINESTYLE
  5
18
102
{ACAD_REACTORS
330
17
102
}
330
17
100
AcDbMlineStyle
  2
STANDARD
 70
     0
  3

 62
   256
 51
90.0
 52
90.0
 71
     2
 49
0.5
 62
   256
  6
BYLAYER
 49
-0.5
 62
   256
  6
BYLAYER
  0
ACDBPLACEHOLDER
  5
F
102
{ACAD_REACTORS
330
E
102
}
330
E
  0
SCALE
  5
10D
102
{ACAD_REACTORS
330
10C
102
}
330
10C
100
AcDbScale
 70
     0
300
1:1
140
1.0
141
1.0
290
     1
  0
SCALE
  5
188
102
{ACAD_REACTORS
330
10C
102
}
330
10C
100
AcDbScale
 70
     0
300
1:2
140
1.0
141
2.0
290
     0
  0
SCALE
  5
189
102
{ACAD_REACTORS
330
10C
102
}
330
10C
100
AcDbScale
 70
     0
300
1:4
140
1.0
141
4.0
290
     0
  0
SCALE
  5
18A
102
{ACAD_REACTORS
330
10C
102
}
330
10C
100
AcDbScale
 70
     0
300
1:5
140
1.0
141
5.0
290
     0
  0
SCALE
  5
18B
102
{ACAD_REACTORS
330
10C
102
}
330
10C
100
AcDbScale
 70
     0
300
1:8
140
1.0
141
8.0
290
     0
  0
SCALE
  5
18C
102
{ACAD_REACTORS
330
10C
102
}
330
10C
100
AcDbScale
 70
     0
300
1:10
140
1.0
141
10.0
290
     0
  0
SCALE
  5
18D
102
{ACAD_REACTORS
330
10C
102
}
330
10C
100
AcDbScale
 70
     0
300
1:16
140
1.0
141
16.0
290
     0
  0
SCALE
  5
18E
102
{ACAD_REACTORS
330
10C
102
}
330
10C
100
AcDbScale
 70
     0
300
1:20
140
1.0
141
20.0
290
     0
  0
SCALE
  5
18F
102
{ACAD_REACTORS
330
10C
102
}
330
10C
100
AcDbScale
 70
     0
300
1:30
140
1.0
141
30.0
290
     0
  0
SCALE
  5
190
102
{ACAD_REACTORS
330
10C
102
}
330
10C
100
AcDbScale
 70
     0
300
1:40
140
1.0
141
40.0
290
     0
  0
SCALE
  5
191
102
{ACAD_REACTORS
330
10C
102
}
330
10C
100
AcDbScale
 70
     0
300
1:50
140
1.0
141
50.0
290
     0
  0
SCALE
  5
192
102
{ACAD_REACTORS
330
10C
102
}
330
10C
100
AcDbScale
 70
     0
300
1:100
140
1.0
141
100.0
290
     0
  0
SCALE
  5
193
102
{ACAD_REACTORS
330
10C
102
}
330
10C
100
AcDbScale
 70
     0
300
2:1
140
2.0
141
1.0
290
     0
  0
SCALE
  5
194
102
{ACAD_REACTORS
330
10C
102
}
330
10C
100
AcDbScale
 70
     0
300
4:1
140
4.0
141
1.0
290
     0
  0
SCALE
  5
195
102
{ACAD_REACTORS
330
10C
102
}
330
10C
100
AcDbScale
 70
     0
300
8:1
140
8.0
141
1.0
290
     0
  0
SCALE
  5
196
102
{ACAD_REACTORS
330
10C
102
}
330
10C
100
AcDbScale
 70
     0
300
10:1
140
10.0
141
1.0
290
     0
  0
SCALE
  5
197
102
{ACAD_REACTORS
330
10C
102
}
330
10C
100
AcDbScale
 70
     0
300
100:1
140
100.0
141
1.0
290
     0
  0
SCALE
  5
198
102
{ACAD_REACTORS
330
10C
102
}
330
10C
100
AcDbScale
 70
     0
300
1/128" = 1'-0"
140
0.0078125
141
12.0
290
     0
  0
SCALE
  5
199
102
{ACAD_REACTORS
330
10C
102
}
330
10C
100
AcDbScale
 70
     0
300
1/64" = 1'-0"
140
0.015625
141
12.0
290
     0
  0
SCALE
  5
19A
102
{ACAD_REACTORS
330
10C
102
}
330
10C
100
AcDbScale
 70
     0
300
1/32" = 1'-0"
140
0.03125
141
12.0
290
     0
  0
SCALE
  5
19B
102
{ACAD_REACTORS
330
10C
102
}
330
10C
100
AcDbScale
 70
     0
300
1/16" = 1'-0"
140
0.0625
141
12.0
290
     0
  0
SCALE
  5
19C
102
{ACAD_REACTORS
330
10C
102
}
330
10C
100
AcDbScale
 70
     0
300
3/32" = 1'-0"
140
0.09375
141
12.0
290
     0
  0
SCALE
  5
19D
102
{ACAD_REACTORS
330
10C
102
}
330
10C
100
AcDbScale
 70
     0
300
1/8" = 1'-0"
140
0.125
141
12.0
290
     0
  0
SCALE
  5
19E
102
{ACAD_REACTORS
330
10C
102
}
330
10C
100
AcDbScale
 70
     0
300
3/16" = 1'-0"
140
0.1875
141
12.0
290
     0
  0
SCALE
  5
19F
102
{ACAD_REACTORS
330
10C
102
}
330
10C
100
AcDbScale
 70
     0
300
1/4" = 1'-0"
140
0.25
141
12.0
290
     0
  0
SCALE
  5
1A0
102
{ACAD_REACTORS
330
10C
102
}
330
10C
100
AcDbScale
 70
     0
300
3/8" = 1'-0"
140
0.375
141
12.0
290
     0
  0
SCALE
  5
1A1
102
{ACAD_REACTORS
330
10C
102
}
330
10C
100
AcDbScale
 70
     0
300
1/2" = 1'-0"
140
0.5
141
12.0
290
     0
  0
SCALE
  5
1A2
102
{ACAD_REACTORS
330
10C
102
}
330
10C
100
AcDbScale
 70
     0
300
3/4" = 1'-0"
140
0.75
141
12.0
290
     0
  0
SCALE
  5
1A3
102
{ACAD_REACTORS
330
10C
102
}
330
10C
100
AcDbScale
 70
     0
300
1" = 1'-0"
140
1.0
141
12.0
290
     0
  0
SCALE
  5
1A4
102
{ACAD_REACTORS
330
10C
102
}
330
10C
100
AcDbScale
 70
     0
300
1-1/2" = 1'-0"
140
1.5
141
12.0
290
     0
  0
SCALE
  5
1A5
102
{ACAD_REACTORS
330
10C
102
}
330
10C
100
AcDbScale
 70
     0
300
3" = 1'-0"
140
3.0
141
12.0
290
     0
  0
SCALE
  5
1A6
102
{ACAD_REACTORS
330
10C
102
}
330
10C
100
AcDbScale
 70
     0
300
6" = 1'-0"
140
6.0
141
12.0
290
     0
  0
SCALE
  5
1A7
102
{ACAD_REACTORS
330
10C
102
}
330
10C
100
AcDbScale
 70
     0
300
1'-0" = 1'-0"
140
12.0
141
12.0
290
     0
  0
TABLESTYLE
  5
7F
102
{ACAD_XDICTIONARY
360
162
102
}
102
{ACAD_REACTORS
330
7E
102
}
330
7E
100
AcDbTableStyle
  3
Standard
 70
     0
 71
     0
 40
1.5
 41
1.5
280
     0
281
     0
  7
Standard
140
4.5
170
     2
 62
     0
 63
     7
283
     0
274
    -2
284
     1
 64
     0
275
    -2
285
     1
 65
     0
276
    -2
286
     1
 66
     0
277
    -2
287
     1
 67
     0
278
    -2
288
     1
 68
     0
279
    -2
289
     1
 69
     0
  7
Standard
140
6.0
170
     5
 62
     0
 63
     7
283
     0
274
    -2
284
     1
 64
     0
275
    -2
285
     1
 65
     0
276
    -2
286
     1
 66
     0
277
    -2
287
     1
 67
     0
278
    -2
288
     1
 68
     0
279
    -2
289
     1
 69
     0
  7
Standard
140
4.5
170
     5
 62
     0
 63
     7
283
     0
274
    -2
284
     1
 64
     0
275
    -2
285
     1
 65
     0
276
    -2
286
     1
 66
     0
277
    -2
287
     1
 67
     0
278
    -2
288
     1
 68
     0
279
    -2
289
     1
 69
     0
  0
VISUALSTYLE
  5
F5
102
{ACAD_REACTORS
330
EF
102
}
330
EF
100
AcDbVisualStyle
  2
2dWireframe
 70
     4
 71
     0
 72
     2
 73
     1
 90
        0
 40
-0.6
 41
-30.0
 62
     5
 63
     7
 74
     1
 91
        4
 64
     7
 65
   257
 75
     1
175
     1
 42
1.0
 92
        0
 66
   257
 43
1.0
 76
     1
 77
     6
 78
     2
 67
     7
 79
     5
170
     0
171
     0
290
     0
174
     0
 93
        1
 44
0.0
173
     0
291
     0
 45
0.0
1001
ACAD
1000
AcDbSavedByObjectVersion
1070
     0
  0
VISUALSTYLE
  5
F7
102
{ACAD_REACTORS
330
EF
102
}
330
EF
100
AcDbVisualStyle
  2
3D Hidden
 70
     6
 71
     1
 72
     2
 73
     2
 90
        0
 40
-0.6
 41
-30.0
 62
     5
 63
     7
 74
     2
 91
        2
 64
     7
 65
   257
 75
     2
175
     1
 42
40.0
 92
        0
 66
   257
 43
1.0
 76
     1
 77
     6
 78
     2
 67
     7
 79
     3
170
     0
171
     0
290
     0
174
     0
 93
        1
 44
0.0
173
     0
291
     0
 45
0.0
1001
ACAD
1000
AcDbSavedByObjectVersion
1070
     0
  0
VISUALSTYLE
  5
F6
102
{ACAD_REACTORS
330
EF
102
}
330
EF
100
AcDbVisualStyle
  2
3dWireframe
 70
     5
 71
     0
 72
     2
 73
     1
 90
        0
 40
-0.6
 41
-30.0
 62
     5
 63
     7
 74
     1
 91
        4
 64
     7
 65
   257
 75
     1
175
     1
 42
1.0
 92
        0
 66
   257
 43
1.0
 76
     1
 77
     6
 78
     2
 67
     7
 79
     5
170
     0
171
     0
290
     0
174
     0
 93
        1
 44
0.0
173
     0
291
     0
 45
0.0
1001
ACAD
1000
AcDbSavedByObjectVersion
1070
     0
  0
VISUALSTYLE
  5
F4
102
{ACAD_REACTORS
330
EF
102
}
330
EF
100
AcDbVisualStyle
  2
Basic
 70
     7
 71
     1
 72
     0
 73
     1
 90
        0
 40
-0.6
 41
-30.0
 62
     5
 63
     7
 74
     0
 91
        4
 64
     7
 65
   257
 75
     1
175
     1
 42
1.0
 92
        8
 66
     7
 43
1.0
 76
     1
 77
     6
 78
     2
 67
     7
 79
     5
170
     0
171
     0
290
     0
174
     0
 93
        1
 44
0.0
173
     0
291
     1
 45
0.0
1001
ACAD
1000
AcDbSavedByObjectVersion
1070
     0
  0
VISUALSTYLE
  5
FB
102
{ACAD_REACTORS
330
EF
102
}
330
EF
100
AcDbVisualStyle
  2
Brighten
 70
    12
 71
     2
 72
     2
 73
     1
 90
        0
 40
-0.6
 41
-30.0
 62
     5
 63
     7
 74
     1
 91
        4
 64
     7
 65
   257
 75
     1
175
     1
 42
1.0
 92
        8
 66
     7
 43
1.0
 76
     1
 77
     6
 78
     2
 67
     7
 79
     5
170
     0
171
     0
290
     0
174
     0
 93
        1
 44
50.0
173
     0
291
     1
 45
0.0
1001
ACAD
1000
AcDbSavedByObjectVersion
1070
     0
  0
VISUALSTYLE
  5
FF
102
{ACAD_REACTORS
330
EF
102
}
330
EF
100
AcDbVisualStyle
  2
ColorChange
 70
    16
 71
     2
 72
     2
 73
     3
 90
        0
 40
-0.6
 41
-30.0
 62
     5
 63
     8
 74
     1
 91
        4
 64
     7
 65
   257
 75
     1
175
     1
 42
1.0
 92
        8
 66
     8
 43
1.0
 76
     1
 77
     6
 78
     2
 67
     7
 79
     5
170
     0
171
     0
290
     0
174
     0
 93
        1
 44
0.0
173
     0
291
     1
 45
0.0
1001
ACAD
1000
AcDbSavedByObjectVersion
1070
     0
  0
VISUALSTYLE
  5
F8
102
{ACAD_REACTORS
330
EF
102
}
330
EF
100
AcDbVisualStyle
  2
Conceptual
 70
     9
 71
     3
 72
     2
 73
     1
 90
        0
 40
-0.6
 41
-30.0
 62
     5
 63
     7
 74
     2
 91
        2
 64
     7
 65
   257
 75
     1
175
     1
 42
40.0
 92
        8
 66
     7
 43
1.0
 76
     1
 77
     6
 78
     2
 67
     7
 79
     3
170
     0
171
     0
290
     0
174
     0
 93
        1
 44
0.0
173
     0
291
     0
 45
0.0
1001
ACAD
1000
AcDbSavedByObjectVersion
1070
     0
  0
VISUALSTYLE
  5
FA
102
{ACAD_REACTORS
330
EF
102
}
330
EF
100
AcDbVisualStyle
  2
Dim
 70
    11
 71
     2
 72
     2
 73
     1
 90
        0
 40
-0.6
 41
-30.0
 62
     5
 63
     7
 74
     1
 91
        4
 64
     7
 65
   257
 75
     1
175
     1
 42
1.0
 92
        8
 66
     7
 43
1.0
 76
     1
 77
     6
 78
     2
 67
     7
 79
     5
170
     0
171
     0
290
     0
174
     0
 93
        1
 44
-50.0
173
     0
291
     1
 45
0.0
1001
ACAD
1000
AcDbSavedByObjectVersion
1070
     0
  0
VISUALSTYLE
  5
FE
102
{ACAD_REACTORS
330
EF
102
}
330
EF
100
AcDbVisualStyle
  2
Facepattern
 70
    15
 71
     2
 72
     2
 73
     1
 90
        0
 40
-0.6
 41
-30.0
 62
     5
 63
     7
 74
     1
 91
        4
 64
     7
 65
   257
 75
     1
175
     1
 42
1.0
 92
        8
 66
     7
 43
1.0
 76
     1
 77
     6
 78
     2
 67
     7
 79
     5
170
     0
171
     0
290
     0
174
     0
 93
        1
 44
0.0
173
     0
291
     1
 45
0.0
1001
ACAD
1000
AcDbSavedByObjectVersion
1070
     0
  0
VISUALSTYLE
  5
F0
102
{ACAD_REACTORS
330
EF
102
}
330
EF
100
AcDbVisualStyle
  2
Flat
 70
     0
 71
     2
 72
     1
 73
     1
 90
        2
 40
-0.6
 41
30.0
 62
     5
 63
     7
 74
     0
 91
        4
 64
     7
 65
   257
 75
     1
175
     1
 42
1.0
 92
        8
 66
     7
 43
1.0
 76
     1
 77
     6
 78
     2
 67
     7
 79
     5
170
     0
171
     0
290
     0
174
     0
 93
        1
 44
0.0
173
     0
291
     1
 45
0.0
1001
ACAD
1000
AcDbSavedByObjectVersion
1070
     0
  0
VISUALSTYLE
  5
F1
102
{ACAD_REACTORS
330
EF
102
}
330
EF
100
AcDbVisualStyle
  2
FlatWithEdges
 70
     1
 71
     2
 72
     1
 73
     1
 90
        2
 40
-0.6
 41
30.0
 62
     5
 63
     7
 74
     1
 91
        4
 64
     7
 65
   257
 75
     1
175
     1
 42
1.0
 92
        0
 66
   257
 43
1.0
 76
     1
 77
     6
 78
     2
 67
     7
 79
     5
170
     0
171
     0
290
     0
174
     0
 93
        1
 44
0.0
173
     0
291
     1
 45
0.0
1001
ACAD
1000
AcDbSavedByObjectVersion
1070
     0
  0
VISUALSTYLE
  5
F2
102
{ACAD_REACTORS
330
EF
102
}
330
EF
100
AcDbVisualStyle
  2
Gouraud
 70
     2
 71
     2
 72
     2
 73
     1
 90
        2
 40
-0.6
 41
30.0
 62
     5
 63
     7
 74
     0
 91
        4
 64
     7
 65
   257
 75
     1
175
     1
 42
1.0
 92
        0
 66
     7
 43
1.0
 76
     1
 77
     6
 78
     2
 67
     7
 79
     5
170
     0
171
     0
290
     0
174
     0
 93
        1
 44
0.0
173
     0
291
     1
 45
0.0
1001
ACAD
1000
AcDbSavedByObjectVersion
1070
     0
  0
VISUALSTYLE
  5
F3
102
{ACAD_REACTORS
330
EF
102
}
330
EF
100
AcDbVisualStyle
  2
GouraudWithEdges
 70
     3
 71
     2
 72
     2
 73
     1
 90
        2
 40
-0.6
 41
30.0
 62
     5
 63
     7
 74
     1
 91
        4
 64
     7
 65
   257
 75
     1
175
     1
 42
1.0
 92
        0
 66
   257
 43
1.0
 76
     1
 77
     6
 78
     2
 67
     7
 79
     5
170
     0
171
     0
290
     0
174
     0
 93
        1
 44
0.0
173
     0
291
     1
 45
0.0
1001
ACAD
1000
AcDbSavedByObjectVersion
1070
     0
  0
VISUALSTYLE
  5
FD
102
{ACAD_REACTORS
330
EF
102
}
330
EF
100
AcDbVisualStyle
  2
Linepattern
 70
    14
 71
     2
 72
     2
 73
     1
 90
        0
 40
-0.6
 41
-30.0
 62
     5
 63
     7
 74
     1
 91
        4
 64
     7
 65
   257
 75
     7
175
     7
 42
1.0
 92
        8
 66
     7
 43
1.0
 76
     1
 77
     6
 78
     2
 67
     7
 79
     5
170
     0
171
     0
290
     0
174
     0
 93
        1
 44
0.0
173
     0
291
     1
 45
0.0
1001
ACAD
1000
AcDbSavedByObjectVersion
1070
     0
  0
VISUALSTYLE
  5
F9
102
{ACAD_REACTORS
330
EF
102
}
330
EF
100
AcDbVisualStyle
  2
Realistic
 70
     8
 71
     2
 72
     2
 73
     1
 90
        0
 40
-0.6
 41
-30.0
 62
     5
 63
     7
 74
     1
 91
        0
 64
     7
 65
   257
 75
     1
175
     1
 42
1.0
 92
        8
 66
     8
 43
1.0
 76
     1
 77
     6
 78
     2
 67
     7
 79
     5
170
     0
171
     0
290
     0
174
     0
 93
       13
 44
0.0
173
     0
291
     0
 45
0.0
1001
ACAD
1000
AcDbSavedByObjectVersion
1070
     0
  0
VISUALSTYLE
  5
FC
102
{ACAD_REACTORS
330
EF
102
}
330
EF
100
AcDbVisualStyle
  2
Thicken
 70
    13
 71
     2
 72
     2
 73
     1
 90
        0
 40
-0.6
 41
-30.0
 62
     5
 63
     7
 74
     1
 91
        4
 64
     7
 65
   257
 75
     1
175
     1
 42
1.0
 92
       12
 66
     7
 43
1.0
 76
     1
 77
     6
 78
     2
 67
     7
 79
     5
170
     0
171
     0
290
     0
174
     0
 93
        1
 44
0.0
173
     0
291
     1
 45
0.0
1001
ACAD
1000
AcDbSavedByObjectVersion
1070
     0
  0
DICTIONARYVAR
  5
146
102
{ACAD_REACTORS
330
5E
102
}
330
5E
100
DictionaryVariables
280
     0
  1
1:1
  0
DICTIONARYVAR
  5
145
102
{ACAD_REACTORS
330
5E
102
}
330
5E
100
DictionaryVariables
280
     0
  1
STANDARD
  0
DICTIONARYVAR
  5
84
102
{ACAD_REACTORS
330
5E
102
}
330
5E
100
DictionaryVariables
280
     0
  1
STANDARD
  0
DICTIONARYVAR
  5
5F
102
{ACAD_REACTORS
330
5E
102
}
330
5E
100
DictionaryVariables
280
     0
  1
2
  0
DICTIONARYVAR
  5
63
102
{ACAD_REACTORS
330
5E
102
}
330
5E
100
DictionaryVariables
280
     0
  1
1
  0
DICTIONARYVAR
  5
372
102
{ACAD_REACTORS
330
5E
102
}
330
5E
100
DictionaryVariables
280
     0
  1
0
  0
DICTIONARYVAR
  5
370
102
{ACAD_REACTORS
330
5E
102
}
330
5E
100
DictionaryVariables
280
     0
  1
2
  0
DICTIONARYVAR
  5
36F
102
{ACAD_REACTORS
330
5E
102
}
330
5E
100
DictionaryVariables
280
     0
  1
1
  0
DICTIONARYVAR
  5
374
102
{ACAD_REACTORS
330
5E
102
}
330
5E
100
DictionaryVariables
280
     0
  1
80.000000
  0
DICTIONARYVAR
  5
373
102
{ACAD_REACTORS
330
5E
102
}
330
5E
100
DictionaryVariables
280
     0
  1
5.000000
  0
DICTIONARYVAR
  5
371
102
{ACAD_REACTORS
330
5E
102
}
330
5E
100
DictionaryVariables
280
     0
  1
127
  0
DICTIONARY
  5
37A
330
D3
100
AcDbDictionary
280
     1
281
     1
  3
ACAD_XREC_ROUNDTRIP
360
37B
  0
DICTIONARY
  5
37C
330
D7
100
AcDbDictionary
280
     1
281
     1
  3
ACAD_XREC_ROUNDTRIP
360
37D
  0
DICTIONARY
  5
377
330
22
100
AcDbDictionary
280
     1
281
     1
  3
ACAD_XREC_ROUNDTRIP
360
378
  0
DICTIONARY
  5
380
330
ED
100
AcDbDictionary
280
     1
281
     1
  3
ACAD_XREC_ROUNDTRIP
360
381
  0
DICTIONARY
  5
37E
330
EC
100
AcDbDictionary
280
     1
281
     1
  3
ACAD_XREC_ROUNDTRIP
360
37F
  0
DICTIONARY
  5
173
330
EE
100
AcDbDictionary
280
     1
281
     1
  3
ACAD_XREC_ROUNDTRIP
360
382
  3
BUMPTILE
360
175
  3
DIFFUSETILE
360
174
  3
OPACITYTILE
360
176
  3
REFLECTIONTILE
360
177
  0
DICTIONARY
  5
162
330
7F
100
AcDbDictionary
280
     1
281
     1
  3
ACAD_ROUNDTRIP_2008_TABLESTYLE_CELLSTYLEMAP
360
375
  3
ACAD_XREC_ROUNDTRIP
360
379
  0
XRECORD
  5
37B
102
{ACAD_REACTORS
330
37A
102
}
330
37A
100
AcDbXrecord
280
     1
102
SHADEPLOT
 70
     0
102
SHADEPLOTRESLEVEL
 70
     2
102
SHADEPLOTCUSTOMDPI
 70
   300
  0
XRECORD
  5
37D
102
{ACAD_REACTORS
330
37C
102
}
330
37C
100
AcDbXrecord
280
     1
102
SHADEPLOT
 70
     0
102
SHADEPLOTRESLEVEL
 70
     2
102
SHADEPLOTCUSTOMDPI
 70
   300
  0
XRECORD
  5
378
102
{ACAD_REACTORS
330
377
102
}
330
377
100
AcDbXrecord
280
     1
102
SHADEPLOT
 70
     0
102
SHADEPLOTRESLEVEL
 70
     2
102
SHADEPLOTCUSTOMDPI
 70
   300
  0
XRECORD
  5
381
102
{ACAD_REACTORS
330
380
102
}
330
380
100
AcDbXrecord
280
     1
102
MATERIAL
148
0.0
149
0.0
149
0.0
 93
        0
 94
       63
282
     0
 72
     1
 77
     1
171
     1
175
     1
179
     1
273
     0
  0
XRECORD
  5
37F
102
{ACAD_REACTORS
330
37E
102
}
330
37E
100
AcDbXrecord
280
     1
102
MATERIAL
148
0.0
149
0.0
149
0.0
 93
        0
 94
       63
282
     0
 72
     1
 77
     1
171
     1
175
     1
179
     1
273
     0
  0
XRECORD
  5
382
102
{ACAD_REACTORS
330
173
102
}
330
173
100
AcDbXrecord
280
     1
102
MATERIAL
148
0.0
149
0.0
149
0.0
 93
        0
 94
       63
282
     0
 72
     1
 77
     1
171
     1
175
     1
179
     1
273
     0
  0
XRECORD
  5
175
102
{ACAD_REACTORS
330
173
102
}
330
173
100
AcDbXrecord
280
     1
270
     1
271
     1
  0
XRECORD
  5
174
102
{ACAD_REACTORS
330
173
102
}
330
173
100
AcDbXrecord
280
     1
270
     1
271
     1
  0
XRECORD
  5
176
102
{ACAD_REACTORS
330
173
102
}
330
173
100
AcDbXrecord
280
     1
270
     1
271
     1
  0
XRECORD
  5
177
102
{ACAD_REACTORS
330
173
102
}
330
173
100
AcDbXrecord
280
     1
270
     1
271
     1
  0
CELLSTYLEMAP
  5
375
102
{ACAD_REACTORS
330
162
102
}
330
162
100
AcDbCellStyleMap
 90
        3
300
CELLSTYLE
  1
TABLEFORMAT_BEGIN
 90
        5
170
     1
 91
        0
 92
    32768
 62
   257
 93
        1
300
CONTENTFORMAT
  1
CONTENTFORMAT_BEGIN
 90
        0
 91
        0
 92
      512
 93
        0
300

 40
0.0
140
1.0
 94
        5
 62
     0
340
11
144
6.0
309
CONTENTFORMAT_END
171
     1
301
MARGIN
  1
CELLMARGIN_BEGIN
 40
1.5
 40
1.5
 40
1.5
 40
1.5
 40
4.5
 40
4.5
309
CELLMARGIN_END
 94
        6
 95
        1
302
GRIDFORMAT
  1
GRIDFORMAT_BEGIN
 90
        0
 91
        1
 62
     0
 92
       -2
340
14
 93
        0
 40
1.125
309
GRIDFORMAT_END
 95
        2
302
GRIDFORMAT
  1
GRIDFORMAT_BEGIN
 90
        0
 91
        1
 62
     0
 92
       -2
340
14
 93
        0
 40
1.125
309
GRIDFORMAT_END
 95
        4
302
GRIDFORMAT
  1
GRIDFORMAT_BEGIN
 90
        0
 91
        1
 62
     0
 92
       -2
340
14
 93
        0
 40
1.125
309
GRIDFORMAT_END
 95
        8
302
GRIDFORMAT
  1
GRIDFORMAT_BEGIN
 90
        0
 91
        1
 62
     0
 92
       -2
340
14
 93
        0
 40
1.125
309
GRIDFORMAT_END
 95
       16
302
GRIDFORMAT
  1
GRIDFORMAT_BEGIN
 90
        0
 91
        1
 62
     0
 92
       -2
340
14
 93
        0
 40
1.125
309
GRIDFORMAT_END
 95
       32
302
GRIDFORMAT
  1
GRIDFORMAT_BEGIN
 90
        0
 91
        1
 62
     0
 92
       -2
340
14
 93
        0
 40
1.125
309
GRIDFORMAT_END
309
TABLEFORMAT_END
  1
CELLSTYLE_BEGIN
 90
        1
 91
        1
300
_TITLE
309
CELLSTYLE_END
300
CELLSTYLE
  1
TABLEFORMAT_BEGIN
 90
        5
170
     1
 91
        0
 92
        0
 62
   257
 93
        1
300
CONTENTFORMAT
  1
CONTENTFORMAT_BEGIN
 90
        0
 91
        0
 92
      512
 93
        0
300

 40
0.0
140
1.0
 94
        5
 62
     0
340
11
144
4.5
309
CONTENTFORMAT_END
171
     1
301
MARGIN
  1
CELLMARGIN_BEGIN
 40
1.5
 40
1.5
 40
1.5
 40
1.5
 40
4.5
 40
4.5
309
CELLMARGIN_END
 94
        6
 95
        1
302
GRIDFORMAT
  1
GRIDFORMAT_BEGIN
 90
        0
 91
        1
 62
     0
 92
       -2
340
14
 93
        0
 40
1.125
309
GRIDFORMAT_END
 95
        2
302
GRIDFORMAT
  1
GRIDFORMAT_BEGIN
 90
        0
 91
        1
 62
     0
 92
       -2
340
14
 93
        0
 40
1.125
309
GRIDFORMAT_END
 95
        4
302
GRIDFORMAT
  1
GRIDFORMAT_BEGIN
 90
        0
 91
        1
 62
     0
 92
       -2
340
14
 93
        0
 40
1.125
309
GRIDFORMAT_END
 95
        8
302
GRIDFORMAT
  1
GRIDFORMAT_BEGIN
 90
        0
 91
        1
 62
     0
 92
       -2
340
14
 93
        0
 40
1.125
309
GRIDFORMAT_END
 95
       16
302
GRIDFORMAT
  1
GRIDFORMAT_BEGIN
 90
        0
 91
        1
 62
     0
 92
       -2
340
14
 93
        0
 40
1.125
309
GRIDFORMAT_END
 95
       32
302
GRIDFORMAT
  1
GRIDFORMAT_BEGIN
 90
        0
 91
        1
 62
     0
 92
       -2
340
14
 93
        0
 40
1.125
309
GRIDFORMAT_END
309
TABLEFORMAT_END
  1
CELLSTYLE_BEGIN
 90
        2
 91
        1
300
_HEADER
309
CELLSTYLE_END
300
CELLSTYLE
  1
TABLEFORMAT_BEGIN
 90
        5
170
     1
 91
        0
 92
        0
 62
   257
 93
        1
300
CONTENTFORMAT
  1
CONTENTFORMAT_BEGIN
 90
        0
 91
        0
 92
      512
 93
        0
300

 40
0.0
140
1.0
 94
        2
 62
     0
340
11
144
4.5
309
CONTENTFORMAT_END
171
     1
301
MARGIN
  1
CELLMARGIN_BEGIN
 40
1.5
 40
1.5
 40
1.5
 40
1.5
 40
4.5
 40
4.5
309
CELLMARGIN_END
 94
        6
 95
        1
302
GRIDFORMAT
  1
GRIDFORMAT_BEGIN
 90
        0
 91
        1
 62
     0
 92
       -2
340
14
 93
        0
 40
1.125
309
GRIDFORMAT_END
 95
        2
302
GRIDFORMAT
  1
GRIDFORMAT_BEGIN
 90
        0
 91
        1
 62
     0
 92
       -2
340
14
 93
        0
 40
1.125
309
GRIDFORMAT_END
 95
        4
302
GRIDFORMAT
  1
GRIDFORMAT_BEGIN
 90
        0
 91
        1
 62
     0
 92
       -2
340
14
 93
        0
 40
1.125
309
GRIDFORMAT_END
 95
        8
302
GRIDFORMAT
  1
GRIDFORMAT_BEGIN
 90
        0
 91
        1
 62
     0
 92
       -2
340
14
 93
        0
 40
1.125
309
GRIDFORMAT_END
 95
       16
302
GRIDFORMAT
  1
GRIDFORMAT_BEGIN
 90
        0
 91
        1
 62
     0
 92
       -2
340
14
 93
        0
 40
1.125
309
GRIDFORMAT_END
 95
       32
302
GRIDFORMAT
  1
GRIDFORMAT_BEGIN
 90
        0
 91
        1
 62
     0
 92
       -2
340
14
 93
        0
 40
1.125
309
GRIDFORMAT_END
309
TABLEFORMAT_END
  1
CELLSTYLE_BEGIN
 90
        3
 91
        2
300
_DATA
309
CELLSTYLE_END
  0
XRECORD
  5
379
102
{ACAD_REACTORS
330
162
102
}
330
162
100
AcDbXrecord
280
     1
102
ACAD_ROUNDTRIP_PRE2007_TABLESTYLE
 90
      512
 91
        0
  1

 92
      512
 93
        0
  2

 94
      512
 95
        0
  3

  0
ENDSEC
  0
EOF
