  0
SECTION
  2
HEADER
  9
$ACADVER
  1
AC1015
  9
$ACADMAINTVER
 70
    20
  9
$DWGCODEPAGE
  3
ANSI_1254
  9
$INSBASE
 10
0.0
 20
0.0
 30
0.0
  9
$EXTMIN
 10
2146.546671660515
 20
1164.626578936093
 30
0.0
  9
$EXTMAX
 10
2217.415256378123
 20
1222.202515874965
 30
0.0
  9
$LIMMIN
 10
0.0
 20
0.0
  9
$LIMMAX
 10
420.0
 20
297.0
  9
$ORTHOMODE
 70
     0
  9
$REGENMODE
 70
     1
  9
$FILLMODE
 70
     1
  9
$QTEXTMODE
 70
     0
  9
$MIRRTEXT
 70
     0
  9
$LTSCALE
 40
1.0
  9
$ATTMODE
 70
     1
  9
$TEXTSIZE
 40
2.5
  9
$TRACEWID
 40
1.0
  9
$TEXTSTYLE
  7
Standard
  9
$CLAYER
  8
0
  9
$CELTYPE
  6
ByLayer
  9
$CECOLOR
 62
   256
  9
$CELTSCALE
 40
1.0
  9
$DISPSILH
 70
     0
  9
$DIMSCALE
 40
1.0
  9
$DIMASZ
 40
2.5
  9
$DIMEXO
 40
0.625
  9
$DIMDLI
 40
3.75
  9
$DIMRND
 40
0.0
  9
$DIMDLE
 40
0.0
  9
$DIMEXE
 40
1.25
  9
$DIMTP
 40
0.0
  9
$DIMTM
 40
0.0
  9
$DIMTXT
 40
2.5
  9
$DIMCEN
 40
2.5
  9
$DIMTSZ
 40
0.0
  9
$DIMTOL
 70
     0
  9
$DIMLIM
 70
     0
  9
$DIMTIH
 70
     0
  9
$DIMTOH
 70
     0
  9
$DIMSE1
 70
     0
  9
$DIMSE2
 70
     0
  9
$DIMTAD
 70
     1
  9
$DIMZIN
 70
     8
  9
$DIMBLK
  1

  9
$DIMASO
 70
     1
  9
$DIMSHO
 70
     1
  9
$DIMPOST
  1

  9
$DIMAPOST
  1

  9
$DIMALT
 70
     0
  9
$DIMALTD
 70
     3
  9
$DIMALTF
 40
0.03937007874016
  9
$DIMLFAC
 40
1.0
  9
$DIMTOFL
 70
     1
  9
$DIMTVP
 40
0.0
  9
$DIMTIX
 70
     0
  9
$DIMSOXD
 70
     0
  9
$DIMSAH
 70
     0
  9
$DIMBLK1
  1

  9
$DIMBLK2
  1

  9
$DIMSTYLE
  2
ISO-25
  9
$DIMCLRD
 70
     0
  9
$DIMCLRE
 70
     0
  9
$DIMCLRT
 70
     0
  9
$DIMTFAC
 40
1.0
  9
$DIMGAP
 40
0.625
  9
$DIMJUST
 70
     0
  9
$DIMSD1
 70
     0
  9
$DIMSD2
 70
     0
  9
$DIMTOLJ
 70
     0
  9
$DIMTZIN
 70
     8
  9
$DIMALTZ
 70
     0
  9
$DIMALTTZ
 70
     0
  9
$DIMUPT
 70
     0
  9
$DIMDEC
 70
     2
  9
$DIMTDEC
 70
     2
  9
$DIMALTU
 70
     2
  9
$DIMALTTD
 70
     3
  9
$DIMTXSTY
  7
Standard
  9
$DIMAUNIT
 70
     0
  9
$DIMADEC
 70
     0
  9
$DIMALTRND
 40
0.0
  9
$DIMAZIN
 70
     0
  9
$DIMDSEP
 70
    44
  9
$DIMATFIT
 70
     3
  9
$DIMFRAC
 70
     0
  9
$DIMLDRBLK
  1

  9
$DIMLUNIT
 70
     2
  9
$DIMLWD
 70
    -2
  9
$DIMLWE
 70
    -2
  9
$DIMTMOVE
 70
     0
  9
$LUNITS
 70
     2
  9
$LUPREC
 70
     4
  9
$SKETCHINC
 40
1.0
  9
$FILLETRAD
 40
0.0
  9
$AUNITS
 70
     0
  9
$AUPREC
 70
     0
  9
$MENU
  1
.
  9
$ELEVATION
 40
0.0
  9
$PELEVATION
 40
0.0
  9
$THICKNESS
 40
0.0
  9
$LIMCHECK
 70
     0
  9
$CHAMFERA
 40
0.0
  9
$CHAMFERB
 40
0.0
  9
$CHAMFERC
 40
0.0
  9
$CHAMFERD
 40
0.0
  9
$SKPOLY
 70
     0
  9
$TDCREATE
 40
2459059.855028449
  9
$TDUCREATE
 40
2459059.730028449
  9
$TDUPDATE
 40
2459067.646765070
  9
$TDUUPDATE
 40
2459067.521765069
  9
$TDINDWG
 40
0.0004688657
  9
$TDUSRTIMER
 40
0.0004688657
  9
$USRTIMER
 70
     1
  9
$ANGBASE
 50
0.0
  9
$ANGDIR
 70
     0
  9
$PDMODE
 70
     0
  9
$PDSIZE
 40
0.0
  9
$PLINEWID
 40
0.0
  9
$SPLFRAME
 70
     0
  9
$SPLINETYPE
 70
     6
  9
$SPLINESEGS
 70
     8
  9
$HANDSEED
  5
3B0
  9
$SURFTAB1
 70
     6
  9
$SURFTAB2
 70
     6
  9
$SURFTYPE
 70
     6
  9
$SURFU
 70
     6
  9
$SURFV
 70
     6
  9
$UCSBASE
  2

  9
$UCSNAME
  2

  9
$UCSORG
 10
0.0
 20
0.0
 30
0.0
  9
$UCSXDIR
 10
1.0
 20
0.0
 30
0.0
  9
$UCSYDIR
 10
0.0
 20
1.0
 30
0.0
  9
$UCSORTHOREF
  2

  9
$UCSORTHOVIEW
 70
     0
  9
$UCSORGTOP
 10
0.0
 20
0.0
 30
0.0
  9
$UCSORGBOTTOM
 10
0.0
 20
0.0
 30
0.0
  9
$UCSORGLEFT
 10
0.0
 20
0.0
 30
0.0
  9
$UCSORGRIGHT
 10
0.0
 20
0.0
 30
0.0
  9
$UCSORGFRONT
 10
0.0
 20
0.0
 30
0.0
  9
$UCSORGBACK
 10
0.0
 20
0.0
 30
0.0
  9
$PUCSBASE
  2

  9
$PUCSNAME
  2

  9
$PUCSORG
 10
0.0
 20
0.0
 30
0.0
  9
$PUCSXDIR
 10
1.0
 20
0.0
 30
0.0
  9
$PUCSYDIR
 10
0.0
 20
1.0
 30
0.0
  9
$PUCSORTHOREF
  2

  9
$PUCSORTHOVIEW
 70
     0
  9
$PUCSORGTOP
 10
0.0
 20
0.0
 30
0.0
  9
$PUCSORGBOTTOM
 10
0.0
 20
0.0
 30
0.0
  9
$PUCSORGLEFT
 10
0.0
 20
0.0
 30
0.0
  9
$PUCSORGRIGHT
 10
0.0
 20
0.0
 30
0.0
  9
$PUCSORGFRONT
 10
0.0
 20
0.0
 30
0.0
  9
$PUCSORGBACK
 10
0.0
 20
0.0
 30
0.0
  9
$USERI1
 70
     0
  9
$USERI2
 70
     0
  9
$USERI3
 70
     0
  9
$USERI4
 70
     0
  9
$USERI5
 70
     0
  9
$USERR1
 40
0.0
  9
$USERR2
 40
0.0
  9
$USERR3
 40
0.0
  9
$USERR4
 40
0.0
  9
$USERR5
 40
0.0
  9
$WORLDVIEW
 70
     1
  9
$SHADEDGE
 70
     3
  9
$SHADEDIF
 70
    70
  9
$TILEMODE
 70
     1
  9
$MAXACTVP
 70
    64
  9
$PINSBASE
 10
0.0
 20
0.0
 30
0.0
  9
$PLIMCHECK
 70
     0
  9
$PEXTMIN
 10
0.0
 20
0.0
 30
0.0
  9
$PEXTMAX
 10
0.0
 20
0.0
 30
0.0
  9
$PLIMMIN
 10
0.0
 20
0.0
  9
$PLIMMAX
 10
12.0
 20
9.0
  9
$UNITMODE
 70
     0
  9
$VISRETAIN
 70
     1
  9
$PLINEGEN
 70
     0
  9
$PSLTSCALE
 70
     1
  9
$TREEDEPTH
 70
  3020
  9
$CMLSTYLE
  2
Standard
  9
$CMLJUST
 70
     0
  9
$CMLSCALE
 40
20.0
  9
$PROXYGRAPHICS
 70
     1
  9
$MEASUREMENT
 70
     1
  9
$CELWEIGHT
370
    -1
  9
$ENDCAPS
280
     0
  9
$JOINSTYLE
280
     0
  9
$LWDISPLAY
290
     0
  9
$INSUNITS
 70
     4
  9
$HYPERLINKBASE
  1

  9
$STYLESHEET
  1

  9
$XEDIT
290
     1
  9
$CEPSNTYPE
380
     0
  9
$PSTYLEMODE
290
     1
  9
$FINGERPRINTGUID
  2
{BE2FEBF0-F140-4EAC-AAF6-02681313D52F}
  9
$VERSIONGUID
  2
{CEAD7897-07EF-402B-A9FF-4B5CCE28FE5B}
  9
$EXTNAMES
290
     1
  9
$PSVPSCALE
 40
0.0
  9
$OLESTARTUP
290
     0
  0
ENDSEC
  0
SECTION
  2
CLASSES
  0
CLASS
  1
ACDBDICTIONARYWDFLT
  2
AcDbDictionaryWithDefault
  3
ObjectDBX Classes
 90
        0
280
     0
281
     0
  0
CLASS
  1
ACDBPLACEHOLDER
  2
AcDbPlaceHolder
  3
ObjectDBX Classes
 90
        0
280
     0
281
     0
  0
CLASS
  1
LAYOUT
  2
AcDbLayout
  3
ObjectDBX Classes
 90
        0
280
     0
281
     0
  0
CLASS
  1
DICTIONARYVAR
  2
AcDbDictionaryVar
  3
ObjectDBX Classes
 90
        0
280
     0
281
     0
  0
CLASS
  1
TABLESTYLE
  2
AcDbTableStyle
  3
ObjectDBX Classes
 90
     4095
280
     0
281
     0
  0
CLASS
  1
MATERIAL
  2
AcDbMaterial
  3
ObjectDBX Classes
 90
     1153
280
     0
281
     0
  0
CLASS
  1
VISUALSTYLE
  2
AcDbVisualStyle
  3
ObjectDBX Classes
 90
     4095
280
     0
281
     0
  0
CLASS
  1
SCALE
  2
AcDbScale
  3
ObjectDBX Classes
 90
     1153
280
     0
281
     0
  0
CLASS
  1
MLEADERSTYLE
  2
AcDbMLeaderStyle
  3
ACDB_MLEADERSTYLE_CLASS
 90
     4095
280
     0
281
     0
  0
CLASS
  1
CELLSTYLEMAP
  2
AcDbCellStyleMap
  3
ObjectDBX Classes
 90
     1152
280
     0
281
     0
  0
ENDSEC
  0
SECTION
  2
TABLES
  0
TABLE
  2
VPORT
  5
8
330
0
100
AcDbSymbolTable
 70
     1
  0
VPORT
  5
EA
330
8
100
AcDbSymbolTableRecord
100
AcDbViewportTableRecord
  2
*Active
 70
     0
 10
0.0
 20
0.0
 11
1.0
 21
1.0
 12
2192.556008562077
 22
1192.420130711307
 13
0.0
 23
0.0
 14
10.0
 24
10.0
 15
10.0
 25
10.0
 16
0.0
 26
0.0
 36
1.0
 17
0.0
 27
0.0
 37
0.0
 40
116.000956486178
 41
1.903110047846889
 42
50.0
 43
0.0
 44
0.0
 50
0.0
 51
0.0
 71
     0
 72
  1000
 73
     1
 74
     3
 75
     0
 76
     0
 77
     0
 78
     0
281
     0
 65
     1
110
0.0
120
0.0
130
0.0
111
1.0
121
0.0
131
0.0
112
0.0
122
1.0
132
0.0
 79
     0
146
0.0
  0
ENDTAB
  0
TABLE
  2
LTYPE
  5
5
330
0
100
AcDbSymbolTable
 70
     1
  0
LTYPE
  5
14
330
5
100
AcDbSymbolTableRecord
100
AcDbLinetypeTableRecord
  2
ByBlock
 70
     0
  3

 72
    65
 73
     0
 40
0.0
  0
LTYPE
  5
15
330
5
100
AcDbSymbolTableRecord
100
AcDbLinetypeTableRecord
  2
ByLayer
 70
     0
  3

 72
    65
 73
     0
 40
0.0
  0
LTYPE
  5
16
330
5
100
AcDbSymbolTableRecord
100
AcDbLinetypeTableRecord
  2
Continuous
 70
     0
  3
Solid line
 72
    65
 73
     0
 40
0.0
  0
ENDTAB
  0
TABLE
  2
LAYER
  5
2
330
0
100
AcDbSymbolTable
 70
     1
  0
LAYER
  5
10
102
{ACAD_XDICTIONARY
360
13C
102
}
330
2
100
AcDbSymbolTableRecord
100
AcDbLayerTableRecord
  2
0
 70
     0
 62
     7
  6
Continuous
370
    -3
390
F
  0
ENDTAB
  0
TABLE
  2
STYLE
  5
3
330
0
100
AcDbSymbolTable
 70
     2
  0
STYLE
  5
11
330
3
100
AcDbSymbolTableRecord
100
AcDbTextStyleTableRecord
  2
Standard
 70
     0
 40
0.0
 41
1.0
 50
0.0
 71
     0
 42
2.5
  3
txt
  4

  0
STYLE
  5
132
330
3
100
AcDbSymbolTableRecord
100
AcDbTextStyleTableRecord
  2
Annotative
 70
     0
 40
0.0
 41
1.0
 50
0.0
 71
     0
 42
2.5
  3
txt.shx
  4

1001
AcadAnnotative
1000
AnnotativeData
1002
{
1070
     1
1070
     1
1002
}
  0
ENDTAB
  0
TABLE
  2
VIEW
  5
6
330
0
100
AcDbSymbolTable
 70
     0
  0
ENDTAB
  0
TABLE
  2
UCS
  5
7
330
0
100
AcDbSymbolTable
 70
     0
  0
ENDTAB
  0
TABLE
  2
APPID
  5
9
330
0
100
AcDbSymbolTable
 70
     7
  0
APPID
  5
12
330
9
100
AcDbSymbolTableRecord
100
AcDbRegAppTableRecord
  2
ACAD
 70
     0
  0
APPID
  5
9E
330
9
100
AcDbSymbolTableRecord
100
AcDbRegAppTableRecord
  2
ACAD_PSEXT
 70
     0
  0
APPID
  5
133
330
9
100
AcDbSymbolTableRecord
100
AcDbRegAppTableRecord
  2
AcadAnnoPO
 70
     0
  0
APPID
  5
134
330
9
100
AcDbSymbolTableRecord
100
AcDbRegAppTableRecord
  2
AcadAnnotative
 70
     0
  0
APPID
  5
135
330
9
100
AcDbSymbolTableRecord
100
AcDbRegAppTableRecord
  2
ACAD_DSTYLE_DIMJAG
 70
     0
  0
APPID
  5
136
330
9
100
AcDbSymbolTableRecord
100
AcDbRegAppTableRecord
  2
ACAD_DSTYLE_DIMTALN
 70
     0
  0
APPID
  5
165
330
9
100
AcDbSymbolTableRecord
100
AcDbRegAppTableRecord
  2
ACAD_MLEADERVER
 70
     0
  0
ENDTAB
  0
TABLE
  2
DIMSTYLE
  5
A
330
0
100
AcDbSymbolTable
 70
     2
100
AcDbDimStyleTable
 71
     2
340
27
340
137
  0
DIMSTYLE
105
27
330
A
100
AcDbSymbolTableRecord
100
AcDbDimStyleTableRecord
  2
ISO-25
 70
     0
 41
2.5
 42
0.625
 43
3.75
 44
1.25
 73
     0
 74
     0
 77
     1
 78
     8
140
2.5
141
2.5
143
0.03937007874016
147
0.625
171
     3
172
     1
271
     2
272
     2
274
     3
278
    44
283
     0
284
     8
340
11
  0
DIMSTYLE
105
137
330
A
100
AcDbSymbolTableRecord
100
AcDbDimStyleTableRecord
  2
Annotative
 70
     0
 40
0.0
 41
2.5
 42
0.625
 43
3.75
 44
1.25
 73
     0
 74
     0
 77
     1
 78
     8
140
2.5
141
2.5
143
0.03937007874016
147
0.625
171
     3
172
     1
271
     2
272
     2
274
     3
278
    44
283
     0
284
     8
340
11
1001
AcadAnnotative
1000
AnnotativeData
1002
{
1070
     1
1070
     1
1002
}
1001
ACAD_DSTYLE_DIMJAG
1070
   388
1040
1.5
1001
ACAD_DSTYLE_DIMTALN
1070
   392
1070
     0
  0
ENDTAB
  0
TABLE
  2
BLOCK_RECORD
  5
1
330
0
100
AcDbSymbolTable
 70
     5
  0
BLOCK_RECORD
  5
1F
330
1
100
AcDbSymbolTableRecord
100
AcDbBlockTableRecord
  2
*Model_Space
340
22
  0
BLOCK_RECORD
  5
D2
330
1
100
AcDbSymbolTableRecord
100
AcDbBlockTableRecord
  2
*Paper_Space
340
D3
  0
BLOCK_RECORD
  5
D6
330
1
100
AcDbSymbolTableRecord
100
AcDbBlockTableRecord
  2
*Paper_Space0
340
D7
  0
BLOCK_RECORD
  5
1AD
330
1
100
AcDbSymbolTableRecord
100
AcDbBlockTableRecord
  2
SW_CENTERMARKSYMBOL_0
340
0
102
{BLKREFS
331
353
102
}
  0
BLOCK_RECORD
  5
2F0
330
1
100
AcDbSymbolTableRecord
100
AcDbBlockTableRecord
  2
1
340
0
310
2800000020000000200000000100080000000000000400000000000000000000000000000000000000000000000080000080000000808000800000008000800080800000C0C0C000C0DCC000F0CAA6000020400000206000002080000020A0000020C0000020E00000400000004020000040400000406000004080000040A0
310
000040C0000040E00000600000006020000060400000606000006080000060A0000060C0000060E00000800000008020000080400000806000008080000080A0000080C0000080E00000A0000000A0200000A0400000A0600000A0800000A0A00000A0C00000A0E00000C0000000C0200000C0400000C0600000C0800000C0
310
A00000C0C00000C0E00000E0000000E0200000E0400000E0600000E0800000E0A00000E0C00000E0E00040000000400020004000400040006000400080004000A0004000C0004000E00040200000402020004020400040206000402080004020A0004020C0004020E000404000004040200040404000404060004040800040
310
40A0004040C0004040E00040600000406020004060400040606000406080004060A0004060C0004060E00040800000408020004080400040806000408080004080A0004080C0004080E00040A0000040A0200040A0400040A0600040A0800040A0A00040A0C00040A0E00040C0000040C0200040C0400040C0600040C08000
310
40C0A00040C0C00040C0E00040E0000040E0200040E0400040E0600040E0800040E0A00040E0C00040E0E00080000000800020008000400080006000800080008000A0008000C0008000E00080200000802020008020400080206000802080008020A0008020C0008020E00080400000804020008040400080406000804080
310
008040A0008040C0008040E00080600000806020008060400080606000806080008060A0008060C0008060E00080800000808020008080400080806000808080008080A0008080C0008080E00080A0000080A0200080A0400080A0600080A0800080A0A00080A0C00080A0E00080C0000080C0200080C0400080C0600080C0
310
800080C0A00080C0C00080C0E00080E0000080E0200080E0400080E0600080E0800080E0A00080E0C00080E0E000C0000000C0002000C0004000C0006000C0008000C000A000C000C000C000E000C0200000C0202000C0204000C0206000C0208000C020A000C020C000C020E000C0400000C0402000C0404000C0406000C0
310
408000C040A000C040C000C040E000C0600000C0602000C0604000C0606000C0608000C060A000C060C000C060E000C0800000C0802000C0804000C0806000C0808000C080A000C080C000C080E000C0A00000C0A02000C0A04000C0A06000C0A08000C0A0A000C0A0C000C0A0E000C0C00000C0C02000C0C04000C0C06000
310
C0C08000C0C0A000F0FBFF00A4A0A000808080000000FF0000FF000000FFFF00FF000000FF00FF00FFFF0000FFFFFF0000000000000000000000000000000000000000000000000000000000000000000000000000000000000000000000000000000000000000000000000000000000000000000000000000000000000000
310
00000000000000000000000000000000000000000000000000000000000000000000000000000000000000000000000000000000000000000000000000000000000000000000000000000000000000000000000000000000000000000000000000000000000000000000000000000000000000000000000000000000000000
310
00000000000000000000000000000000000000000000FFFFFFFFFFFFFFFFFFFFFFFFFFFFFFFFFFFFFFFFFFFFFFFF0000000000000000FFFFFFFFFFFFFFFFFFFFFFFFFFFFFFFFFFFFFFFFFFFFFFFF000000000000000000FFFFFFFFFFFFFFFFFFFFFFFFFFFFFFFFFFFFFFFFFFFFFF0000000000000000FFFFFFFFFFFFFFFFFF
310
FFFFFFFFFFFFFFFFFFFFFFFFFFFF000000000000000000FFFFFFFFFFFFFFFFFFFFFFFFFFFFFFFFFFFFFFFFFFFFFFFF0000000000000000FFFFFFFFFFFFFFFFFFFFFFFFFFFFFFFFFFFFFFFFFFFFFFFF0000000000000000FFFFFFFFFFFFFFFFFFFFFFFFFFFFFFFFFFFFFFFFFFFFFFFF0000000000000000FFFFFFFFFFFFFFFF
310
FFFFFFFFFFFFFFFFFFFFFFFFFFFFFFFF0000000000000000FFFFFFFFFFFFFFFFFFFFFFFFFFFFFFFFFFFFFFFFFFFFFFFF0000000000000000FFFFFFFFFFFFFFFFFFFFFFFFFFFFFFFFFFFFFFFFFFFFFFFF0000000000000000FFFFFFFFFFFFFFFFFFFFFFFFFFFFFFFFFFFFFFFFFFFFFFFF0000000000000000FFFFFFFFFFFFFF
310
FFFFFFFFFFFFFFFFFFFFFFFFFFFFFFFFFF0000000000000000FFFFFFFFFFFFFFFFFFFFFFFFFFFFFFFFFFFFFFFFFFFFFFFF0000000000FFFFFFFFFFFFFFFFFFFFFFFFFFFFFFFFFFFFFFFFFFFFFFFFFFFFFFFFFFFF0000FFA4A4A4A4A4A4A4A4A4A4A4A4A4A4A4A4A4A4A4A4A4A4A4A4A4A4A4A4FF000000FFFFFFFFFFFFFFFF
310
FFFFFFFFFFFFFFFFFFFFFFFFFFFFFFFFFFFFFFFF000000000000FFFFFFFF00000000000000000000000000000000FFFFFFFF000000000000000000000000FFFFFFFFFFFFFFFFFFFFFFFFFFFFFFFF00000000000000000000000000000000000000000000000000000000000000000000000000000000000000000000000000
310
00000000000000000000000000000000000000000000000000000000000000000000000000000000000000000000000000000000000000000000000000000000000000000000000000000000000000000000000000000000000000000000000000000000000000000000000000000000000000000000000000000000000000
310
0000000000000000000000000000000000000000000000000000000000000000000000000000000000000000000000000000000000000000
102
{BLKREFS
331
349
102
}
1001
ACAD
1000
DesignCenter Data
1002
{
1070
     1
1070
     4
1002
}
  0
BLOCK_RECORD
  5
34A
330
1
100
AcDbSymbolTableRecord
100
AcDbBlockTableRecord
  2
2
340
0
310
2800000020000000200000000100080000000000000400000000000000000000000000000000000000000000000080000080000000808000800000008000800080800000C0C0C000C0DCC000F0CAA6000020400000206000002080000020A0000020C0000020E00000400000004020000040400000406000004080000040A0
310
000040C0000040E00000600000006020000060400000606000006080000060A0000060C0000060E00000800000008020000080400000806000008080000080A0000080C0000080E00000A0000000A0200000A0400000A0600000A0800000A0A00000A0C00000A0E00000C0000000C0200000C0400000C0600000C0800000C0
310
A00000C0C00000C0E00000E0000000E0200000E0400000E0600000E0800000E0A00000E0C00000E0E00040000000400020004000400040006000400080004000A0004000C0004000E00040200000402020004020400040206000402080004020A0004020C0004020E000404000004040200040404000404060004040800040
310
40A0004040C0004040E00040600000406020004060400040606000406080004060A0004060C0004060E00040800000408020004080400040806000408080004080A0004080C0004080E00040A0000040A0200040A0400040A0600040A0800040A0A00040A0C00040A0E00040C0000040C0200040C0400040C0600040C08000
310
40C0A00040C0C00040C0E00040E0000040E0200040E0400040E0600040E0800040E0A00040E0C00040E0E00080000000800020008000400080006000800080008000A0008000C0008000E00080200000802020008020400080206000802080008020A0008020C0008020E00080400000804020008040400080406000804080
310
008040A0008040C0008040E00080600000806020008060400080606000806080008060A0008060C0008060E00080800000808020008080400080806000808080008080A0008080C0008080E00080A0000080A0200080A0400080A0600080A0800080A0A00080A0C00080A0E00080C0000080C0200080C0400080C0600080C0
310
800080C0A00080C0C00080C0E00080E0000080E0200080E0400080E0600080E0800080E0A00080E0C00080E0E000C0000000C0002000C0004000C0006000C0008000C000A000C000C000C000E000C0200000C0202000C0204000C0206000C0208000C020A000C020C000C020E000C0400000C0402000C0404000C0406000C0
310
408000C040A000C040C000C040E000C0600000C0602000C0604000C0606000C0608000C060A000C060C000C060E000C0800000C0802000C0804000C0806000C0808000C080A000C080C000C080E000C0A00000C0A02000C0A04000C0A06000C0A08000C0A0A000C0A0C000C0A0E000C0C00000C0C02000C0C04000C0C06000
310
C0C08000C0C0A000F0FBFF00A4A0A000808080000000FF0000FF000000FFFF00FF000000FF00FF00FFFF0000FFFFFF00000000000000000000000000000000000000000000000000000000000000000000000000000000000000000000000000FF000000000000000000000000000000000000000000000000000000000000
310
00FF00000000000000000000000000000000000000000000000000000000000000FF0000000000000000000000000000000000000000000000000000000000FFFFFF0000000000000000000000000000000000000000000000000000FFFFFFFFFFFFFFFFFF000000000000000000000000000000000000000000FFFF00FFFF
310
0000FFFFFF00FFFFFF00000000000000000000000000000000FFFF00FFFF00000000FF0000FFFFFF00FFFF0000000000000000000000000000FFFFFF000000000000FF0000000000FFFFFF00000000000000000000000000FF00FF00000000000000FF000000000000FF00FF000000000000000000000000FFFF0000000000
310
000000FF00000000000000FFFF000000000000000000000000FFFF0000000000000000FF00000000000000FFFF0000000000000000000000FF00FF0000000000000000000000000000000000FFFF00000000000000000000FFFF000000000000000000FF0000000000000000FFFF00000000000000000000FFFF0000000000
310
00000000FF0000000000000000FFFF000000000000000000FFFF00000000FFFFFFFFFFFFFFFFFFFFFFFF00000000FFFF0000000000FFFFFFFFFFFFFFFFFFFFFFFFFFFFFFFFFFFFFFFFFFFFFFFFFFFFFFFFFFFF0000000000FFFF00000000000000000000FF000000000000000000FFFF000000000000000000FFFF00000000
310
0000000000FF0000000000000000FFFF00000000000000000000FFFF000000000000000000000000000000000000FFFF0000000000000000000000FFFF0000000000000000FF00000000000000FF00FF0000000000000000000000FFFF0000000000000000FF00000000000000FFFF000000000000000000000000FF00FF00
310
000000000000FF000000000000FF00FF00000000000000000000000000FFFFFF000000000000FF0000000000FFFFFF0000000000000000000000000000FFFF00FFFF00000000FF000000FFFF00FFFF00000000000000000000000000000000FFFFFFFFFF0000FFFFFFFFFFFFFF000000000000000000000000000000000000
310
000000FFFFFFFFFFFFFFFF0000000000000000000000000000000000000000000000000000FFFFFF00000000000000000000000000000000000000000000000000000000000000FF00000000000000000000000000000000000000000000000000000000000000FF0000000000000000000000000000000000000000000000
310
0000000000000000FF0000000000000000000000000000000000000000000000000000000000000000000000000000000000000000000000
102
{BLKREFS
331
354
102
}
1001
ACAD
1000
DesignCenter Data
1002
{
1070
     1
1070
     4
1002
}
  0
BLOCK_RECORD
  5
355
330
1
100
AcDbSymbolTableRecord
100
AcDbBlockTableRecord
  2
3
340
0
310
2800000020000000200000000100080000000000000400000000000000000000000000000000000000000000000080000080000000808000800000008000800080800000C0C0C000C0DCC000F0CAA6000020400000206000002080000020A0000020C0000020E00000400000004020000040400000406000004080000040A0
310
000040C0000040E00000600000006020000060400000606000006080000060A0000060C0000060E00000800000008020000080400000806000008080000080A0000080C0000080E00000A0000000A0200000A0400000A0600000A0800000A0A00000A0C00000A0E00000C0000000C0200000C0400000C0600000C0800000C0
310
A00000C0C00000C0E00000E0000000E0200000E0400000E0600000E0800000E0A00000E0C00000E0E00040000000400020004000400040006000400080004000A0004000C0004000E00040200000402020004020400040206000402080004020A0004020C0004020E000404000004040200040404000404060004040800040
310
40A0004040C0004040E00040600000406020004060400040606000406080004060A0004060C0004060E00040800000408020004080400040806000408080004080A0004080C0004080E00040A0000040A0200040A0400040A0600040A0800040A0A00040A0C00040A0E00040C0000040C0200040C0400040C0600040C08000
310
40C0A00040C0C00040C0E00040E0000040E0200040E0400040E0600040E0800040E0A00040E0C00040E0E00080000000800020008000400080006000800080008000A0008000C0008000E00080200000802020008020400080206000802080008020A0008020C0008020E00080400000804020008040400080406000804080
310
008040A0008040C0008040E00080600000806020008060400080606000806080008060A0008060C0008060E00080800000808020008080400080806000808080008080A0008080C0008080E00080A0000080A0200080A0400080A0600080A0800080A0A00080A0C00080A0E00080C0000080C0200080C0400080C0600080C0
310
800080C0A00080C0C00080C0E00080E0000080E0200080E0400080E0600080E0800080E0A00080E0C00080E0E000C0000000C0002000C0004000C0006000C0008000C000A000C000C000C000E000C0200000C0202000C0204000C0206000C0208000C020A000C020C000C020E000C0400000C0402000C0404000C0406000C0
310
408000C040A000C040C000C040E000C0600000C0602000C0604000C0606000C0608000C060A000C060C000C060E000C0800000C0802000C0804000C0806000C0808000C080A000C080C000C080E000C0A00000C0A02000C0A04000C0A06000C0A08000C0A0A000C0A0C000C0A0E000C0C00000C0C02000C0C04000C0C06000
310
C0C08000C0C0A000F0FBFF00A4A0A000808080000000FF0000FF000000FFFF00FF000000FF00FF00FFFF0000FFFFFF0000000000000000000000000000000000000000000000000000000000000000000000000000000000000000000000000000000000000000000000000000000000000000000000000000000000FFFFFF
310
FFFFFFFFFF000000000000000000000000000000000000000000FFFFFFFFFFFFFFFFFFFFFFFFFFFF00000000000000000000000000000000FFFFFFFFFFFFFFFFFFFFFFFFFFFFFFFFFFFFFF000000000000000000000000FFFFFFFFFFFFFFFFFFFFFFFFFFFFFFFFFFFFFFFFFF00000000000000000000FFFFFFFFFFFFFFFFFF
310
FFFFFFFFFFFFFFFFFFFFFFFFFFFF0000000000000000FFFFFFFFFFFFFFFFFFFFFFFFFFFFFFFFFFFFFFFFFFFFFFFF0000000000000000FFFFFFFFFFFFFFFFFFFFFFFFFFFFFFFFFFFFFFFFFFFFFFFF0000000000000000FFFFFFFFFFFFFFFFFFFFFFFFFFFFFFFFFFFFFFFFFFFFFFFF0000000000000000FFFFFFFFFFFFFFFFFF
310
FFFFFFFFFFFFFFFFFFFFFFFFFFFFFF0000000000000000FFFFFFFFFFFFFFFFFFFFFFFFFFFFFFFFFFFFFFFFFFFFFFFF0000000000000000FFFFFFFFFFFFFF00A4A4A4A4A4A4A4A400FFFFFFFFFFFFFF0000000000000000FFFFFFFFA4A4A4A40000000000000000A4A4A4A4FFFFFFFF0000000000000000FFFFA4A4A4FFFFFF
310
FFFFFFFFFFFFFFFFFFFFFFA4A4A4FFFF00000000000000FFFFA400FFFFFF000000000000000000000000FFFFFF00A4FFFF0000000000FFFFA4FFFF000000000000000000000000000000000000FFFFA4FFFF00000000FFA4FFFF0000000000000000000000000000000000000000FFFFA4FF000000FFFFFFFF000000000000
310
00000000000000000000000000000000FFFFFFFF0000FFA4FF000000000000000000000000000000000000000000000000FFA4FF0000FFFFFF000000000000000000000000000000FFFF00000000000000FFFFFF0000FFFF0000000000000000000000000000FFFFFFFF0000000000000000FFFF000000FF00000000000000
310
0000000000FFFF00FFFF000000000000000000FF00000000FFFF000000000000000000FFFF00FFFF00000000000000000000FFFF0000000000FF00000000000000FFFFFFFFFF000000000000000000000000FF00000000000000FF000000000000FFFFFF000000000000000000000000FFFF0000000000000000FFFFFF0000
310
00000000000000000000000000000000FFFFFF00000000000000000000FFFFFF0000000000000000000000000000FFFFFF0000000000000000000000000000FFFFFFFFFF000000000000FFFFFFFFFF0000000000000000000000000000000000000000FFFFFFFFFFFFFFFF0000000000000000000000000000000000000000
310
0000000000000000000000000000000000000000000000000000000000000000000000000000000000000000000000000000000000000000
102
{BLKREFS
331
395
102
}
1001
ACAD
1000
DesignCenter Data
1002
{
1070
     1
1070
     4
1002
}
  0
ENDTAB
  0
ENDSEC
  0
SECTION
  2
BLOCKS
  0
BLOCK
  5
20
330
1F
100
AcDbEntity
  8
0
100
AcDbBlockBegin
  2
*Model_Space
 70
     0
 10
0.0
 20
0.0
 30
0.0
  3
*Model_Space
  1

  0
ENDBLK
  5
21
330
1F
100
AcDbEntity
  8
0
100
AcDbBlockEnd
  0
BLOCK
  5
D4
330
D2
100
AcDbEntity
 67
     1
  8
0
100
AcDbBlockBegin
  2
*Paper_Space
 70
     0
 10
0.0
 20
0.0
 30
0.0
  3
*Paper_Space
  1

  0
ENDBLK
  5
D5
330
D2
100
AcDbEntity
 67
     1
  8
0
100
AcDbBlockEnd
  0
BLOCK
  5
D8
330
D6
100
AcDbEntity
 67
     1
  8
0
100
AcDbBlockBegin
  2
*Paper_Space0
 70
     0
 10
0.0
 20
0.0
 30
0.0
  3
*Paper_Space0
  1

  0
ENDBLK
  5
D9
330
D6
100
AcDbEntity
 67
     1
  8
0
100
AcDbBlockEnd
  0
BLOCK
  5
1AE
330
1AD
100
AcDbEntity
  8
0
100
AcDbBlockBegin
  2
SW_CENTERMARKSYMBOL_0
 70
     0
 10
0.0
 20
0.0
 30
0.0
  3
SW_CENTERMARKSYMBOL_0
  1

  0
LINE
  5
1AF
330
1AD
100
AcDbEntity
  8
0
  6
Continuous
 62
     0
370
     0
100
AcDbLine
 10
0.0
 20
0.0
 30
0.0
 11
0.0
 21
2.500000000000002
 31
0.0
  0
LINE
  5
1B0
330
1AD
100
AcDbEntity
  8
0
  6
Continuous
 62
     0
370
     0
100
AcDbLine
 10
0.0
 20
0.0
 30
0.0
 11
-2.500000000000002
 21
0.0
 31
0.0
  0
LINE
  5
1B1
330
1AD
100
AcDbEntity
  8
0
  6
Continuous
 62
     0
370
     0
100
AcDbLine
 10
0.0
 20
0.0
 30
0.0
 11
0.0
 21
-2.500000000000002
 31
0.0
  0
LINE
  5
1B2
330
1AD
100
AcDbEntity
  8
0
  6
Continuous
 62
     0
370
     0
100
AcDbLine
 10
0.0
 20
0.0
 30
0.0
 11
2.500000000000002
 21
0.0
 31
0.0
  0
LINE
  5
1B3
330
1AD
100
AcDbEntity
  8
0
  6
Continuous
 62
     0
370
     0
100
AcDbLine
 10
0.0
 20
5.000000000000004
 30
0.0
 11
0.0
 21
14.75000000000001
 31
0.0
  0
LINE
  5
1B4
330
1AD
100
AcDbEntity
  8
0
  6
Continuous
 62
     0
370
     0
100
AcDbLine
 10
-5.000000000000004
 20
0.0
 30
0.0
 11
-14.75
 21
0.0
 31
0.0
  0
LINE
  5
1B5
330
1AD
100
AcDbEntity
  8
0
  6
Continuous
 62
     0
370
     0
100
AcDbLine
 10
0.0
 20
-4.999999999999976
 30
0.0
 11
0.0
 21
-14.74999999999998
 31
0.0
  0
LINE
  5
1B6
330
1AD
100
AcDbEntity
  8
0
  6
Continuous
 62
     0
370
     0
100
AcDbLine
 10
5.000000000000004
 20
0.0
 30
0.0
 11
14.74999999999998
 21
0.0
 31
0.0
  0
ENDBLK
  5
1B7
330
1AD
100
AcDbEntity
  8
0
100
AcDbBlockEnd
  0
BLOCK
  5
2F1
330
2F0
100
AcDbEntity
  8
0
100
AcDbBlockBegin
  2
1
 70
     0
 10
0.0
 20
0.0
 30
0.0
  3
1
  1

  0
LINE
  5
2F3
330
2F0
100
AcDbEntity
  8
0
  6
Continuous
 62
     7
370
    15
100
AcDbLine
 10
2173.546671660516
 20
1218.225214954787
 30
0.0
 11
2173.546671660516
 21
1219.436796662873
 31
0.0
  0
LINE
  5
2F4
330
2F0
100
AcDbEntity
  8
0
  6
Continuous
 62
     7
370
    15
100
AcDbLine
 10
2149.046671660515
 20
1219.436796662873
 30
0.0
 11
2149.046671660515
 21
1218.225214954787
 31
0.0
  0
ARC
  5
2F5
330
2F0
100
AcDbEntity
  8
0
  6
Continuous
 62
     7
370
    15
100
AcDbCircle
 10
2172.546671660516
 20
1219.436796662873
 30
0.0
 40
1.0
100
AcDbArc
 50
0.0
 51
76.33002415696799
  0
ARC
  5
2F6
330
2F0
100
AcDbEntity
  8
0
  6
Continuous
 62
     7
370
    15
100
AcDbCircle
 10
2150.046671660515
 20
1219.436796662873
 30
0.0
 40
0.9999999999999973
100
AcDbArc
 50
103.669975843032
 51
180.0
  0
ARC
  5
2F7
330
2F0
100
AcDbEntity
  8
0
  6
Continuous
 62
     7
370
    15
100
AcDbCircle
 10
2161.296671660515
 20
1184.67160931266
 30
0.0
 40
37.53743396125987
100
AcDbArc
 50
98.81132695395111
 51
107.8181347366254
  0
ARC
  5
2F8
330
2F0
100
AcDbEntity
  8
0
  6
Continuous
 62
     7
370
    15
100
AcDbCircle
 10
2161.296671660515
 20
1184.67160931266
 30
0.0
 40
37.53743396125987
100
AcDbArc
 50
72.18186526337456
 51
81.18878562211866
  0
SPLINE
  5
2F9
330
2F0
100
AcDbEntity
  8
0
  6
Continuous
 62
     7
370
    15
100
AcDbSpline
210
0.0
220
0.0
230
1.0
 70
     8
 71
     3
 72
     9
 73
     5
 74
     0
 42
0.0000000001
 43
0.0000000001
 40
0.0
 40
0.0
 40
0.0
 40
0.0
 40
0.4929011452294156
 40
0.9999999999999998
 40
0.9999999999999998
 40
0.9999999999999998
 40
0.9999999999999998
 10
2151.826695847228
 20
1217.975215109229
 30
0.0
 10
2151.707542636555
 20
1217.887924549531
 30
0.0
 10
2151.465804081421
 20
1217.710829080099
 30
0.0
 10
2151.224060730623
 20
1217.533740309188
 30
0.0
 10
2151.101472954286
 20
1217.443938796266
 30
0.0
  0
SPLINE
  5
2FA
330
2F0
100
AcDbEntity
  8
0
  6
Continuous
 62
     7
370
    15
100
AcDbSpline
210
0.0
220
0.0
230
1.0
 70
     8
 71
     3
 72
     9
 73
     5
 74
     0
 42
0.0000000001
 43
0.0000000001
 40
0.0
 40
0.0
 40
0.0
 40
0.0
 40
0.4928710333120804
 40
1.0
 40
1.0
 40
1.0
 40
1.0
 10
2151.8266956828
 20
1216.475214922963
 30
0.0
 10
2151.70755583976
 20
1216.387934135679
 30
0.0
 10
2151.465829637594
 20
1216.210847674142
 30
0.0
 10
2151.224098671579
 20
1216.033768015687
 30
0.0
 10
2151.101509896567
 20
1215.943965791473
 30
0.0
  0
SPLINE
  5
2FB
330
2F0
100
AcDbEntity
  8
0
  6
Continuous
 62
     7
370
    15
100
AcDbSpline
210
0.0
220
0.0
230
1.0
 70
     8
 71
     3
 72
     9
 73
     5
 74
     0
 42
0.0000000001
 43
0.0000000001
 40
0.0
 40
0.0
 40
0.0
 40
0.0
 40
0.4930118074679388
 40
1.0
 40
1.0
 40
1.0
 40
1.0
 10
2151.826696326483
 20
1214.975214582078
 30
0.0
 10
2151.707488733677
 20
1214.887884247164
 30
0.0
 10
2151.465694133628
 20
1214.710747850853
 30
0.0
 10
2151.22389541496
 20
1214.533618316556
 30
0.0
 10
2151.101306319626
 20
1214.443815734118
 30
0.0
  0
SPLINE
  5
2FC
330
2F0
100
AcDbEntity
  8
0
  6
Continuous
 62
     7
370
    15
100
AcDbSpline
210
0.0
220
0.0
230
1.0
 70
     8
 71
     3
 72
     9
 73
     5
 74
     0
 42
0.0000000001
 43
0.0000000001
 40
0.0
 40
0.0
 40
0.0
 40
0.0
 40
0.4927363843878851
 40
0.9999999999999998
 40
0.9999999999999998
 40
0.9999999999999998
 40
0.9999999999999998
 10
2151.826697271863
 20
1213.475214223349
 30
0.0
 10
2151.7076216282
 20
1213.387980350609
 30
0.0
 10
2151.465959661609
 20
1213.210940709324
 30
0.0
 10
2151.224292413422
 20
1213.033907879342
 30
0.0
 10
2151.101703411332
 20
1212.944105565924
 30
0.0
  0
SPLINE
  5
2FD
330
2F0
100
AcDbEntity
  8
0
  6
Continuous
 62
     7
370
    15
100
AcDbSpline
210
0.0
220
0.0
230
1.0
 70
     8
 71
     3
 72
     9
 73
     5
 74
     0
 42
0.0000000001
 43
0.0000000001
 40
0.0
 40
0.0
 40
0.0
 40
0.0
 40
0.492807763940427
 40
0.9999999999999998
 40
0.9999999999999998
 40
0.9999999999999998
 40
0.9999999999999998
 10
2151.826696639933
 20
1211.975215062965
 30
0.0
 10
2151.707586010766
 20
1211.887955635478
 30
0.0
 10
2151.465888054924
 20
1211.710889781667
 30
0.0
 10
2151.224185230548
 20
1211.533830833277
 30
0.0
 10
2151.101595434591
 20
1211.444027909329
 30
0.0
  0
SPLINE
  5
2FE
330
2F0
100
AcDbEntity
  8
0
  6
Continuous
 62
     7
370
    15
100
AcDbSpline
210
0.0
220
0.0
230
1.0
 70
     8
 71
     3
 72
     9
 73
     5
 74
     0
 42
0.0000000001
 43
0.0000000001
 40
0.0
 40
0.0
 40
0.0
 40
0.0
 40
0.4937044934026738
 40
1.0
 40
1.0
 40
1.0
 40
1.0
 10
2151.826729805598
 20
1210.475191085508
 30
0.0
 10
2151.707199555363
 20
1210.387624917472
 30
0.0
 10
2151.465090658581
 20
1210.210259369445
 30
0.0
 10
2151.222979062347
 20
1210.032899805139
 30
0.0
 10
2151.100399049079
 20
1209.943103454678
 30
0.0
  0
SPLINE
  5
2FF
330
2F0
100
AcDbEntity
  8
0
  6
Continuous
 62
     7
370
    15
100
AcDbSpline
210
0.0
220
0.0
230
1.0
 70
     8
 71
     3
 72
     9
 73
     5
 74
     0
 42
0.0000000001
 43
0.0000000001
 40
0.0
 40
0.0
 40
0.0
 40
0.0
 40
0.4928435104938888
 40
1.0
 40
1.0
 40
1.0
 40
1.0
 10
2151.826696739433
 20
1208.97521551773
 30
0.0
 10
2151.707571088461
 20
1208.887945097741
 30
0.0
 10
2151.465860183404
 20
1208.710869782491
 30
0.0
 10
2151.2241442494
 20
1208.533801161708
 30
0.0
 10
2151.101556444853
 20
1208.44399966159
 30
0.0
  0
SPLINE
  5
300
330
2F0
100
AcDbEntity
  8
0
  6
Continuous
 62
     7
370
    15
100
AcDbSpline
210
0.0
220
0.0
230
1.0
 70
     8
 71
     3
 72
     9
 73
     5
 74
     0
 42
0.0000000001
 43
0.0000000001
 40
0.0
 40
0.0
 40
0.0
 40
0.0
 40
0.4927950140061563
 40
1.0
 40
1.0
 40
1.0
 40
1.0
 10
2151.826697180707
 20
1207.475215274614
 30
0.0
 10
2151.707592077986
 20
1207.387959891798
 30
0.0
 10
2151.46589908326
 20
1207.210897664431
 30
0.0
 10
2151.224201251659
 20
1207.033842400517
 30
0.0
 10
2151.101610906367
 20
1206.944039087864
 30
0.0
  0
SPLINE
  5
301
330
2F0
100
AcDbEntity
  8
0
  6
Continuous
 62
     7
370
    15
100
AcDbSpline
210
0.0
220
0.0
230
1.0
 70
     8
 71
     3
 72
     9
 73
     5
 74
     0
 42
0.0000000001
 43
0.0000000001
 40
0.0
 40
0.0
 40
0.0
 40
0.0
 40
0.500006268306719
 40
1.0
 40
1.0
 40
1.0
 40
1.0
 10
2171.491746316188
 20
1207.694029044644
 30
0.0
 10
2171.369157090834
 20
1207.783831568892
 30
0.0
 10
2171.123981713794
 20
1207.963434365778
 30
0.0
 10
2170.878811358547
 20
1208.14304410531
 30
0.0
 10
2170.756227717726
 20
1208.232847849228
 30
0.0
  0
SPLINE
  5
302
330
2F0
100
AcDbEntity
  8
0
  6
Continuous
 62
     7
370
    15
100
AcDbSpline
210
0.0
220
0.0
230
1.0
 70
     8
 71
     3
 72
     9
 73
     5
 74
     0
 42
0.0000000001
 43
0.0000000001
 40
0.0
 40
0.0
 40
0.0
 40
0.0
 40
0.500005154322543
 40
1.0
 40
1.0
 40
1.0
 40
1.0
 10
2171.49200706055
 20
1209.193838005068
 30
0.0
 10
2171.369429586334
 20
1209.283631959321
 30
0.0
 10
2171.124277165094
 20
1209.463218016539
 30
0.0
 10
2170.879130538489
 20
1209.642809782309
 30
0.0
 10
2170.756558488751
 20
1209.73260473952
 30
0.0
  0
SPLINE
  5
303
330
2F0
100
AcDbEntity
  8
0
  6
Continuous
 62
     7
370
    15
100
AcDbSpline
210
0.0
220
0.0
230
1.0
 70
     8
 71
     3
 72
     9
 73
     5
 74
     0
 42
0.0000000001
 43
0.0000000001
 40
0.0
 40
0.0
 40
0.0
 40
0.0
 40
0.5000062601829967
 40
1.0
 40
1.0
 40
1.0
 40
1.0
 10
2171.491845861615
 20
1210.693956714556
 30
0.0
 10
2171.369256795883
 20
1210.78375916896
 30
0.0
 10
2171.124081734103
 20
1210.963361829076
 30
0.0
 10
2170.878911425617
 20
1211.142971422991
 30
0.0
 10
2170.756327806184
 20
1211.23277509556
 30
0.0
  0
SPLINE
  5
304
330
2F0
100
AcDbEntity
  8
0
  6
Continuous
 62
     7
370
    15
100
AcDbSpline
210
0.0
220
0.0
230
1.0
 70
     8
 71
     3
 72
     9
 73
     5
 74
     0
 42
0.0000000001
 43
0.0000000001
 40
0.0
 40
0.0
 40
0.0
 40
0.0
 40
0.500006308098026
 40
1.0
 40
1.0
 40
1.0
 40
1.0
 10
2171.491645306443
 20
1212.19410170426
 30
0.0
 10
2171.369055608235
 20
1212.283904529499
 30
0.0
 10
2171.123879305012
 20
1212.463507914064
 30
0.0
 10
2170.87870824977
 20
1212.643118285217
 30
0.0
 10
2170.756124268711
 20
1212.732922337793
 30
0.0
  0
SPLINE
  5
305
330
2F0
100
AcDbEntity
  8
0
  6
Continuous
 62
     7
370
    15
100
AcDbSpline
210
0.0
220
0.0
230
1.0
 70
     8
 71
     3
 72
     9
 73
     5
 74
     0
 42
0.0000000001
 43
0.0000000001
 40
0.0
 40
0.0
 40
0.0
 40
0.0
 40
0.5000060848745297
 40
0.9999999999999998
 40
0.9999999999999998
 40
0.9999999999999998
 40
0.9999999999999998
 10
2171.491873685311
 20
1213.693936366242
 30
0.0
 10
2171.369286410756
 20
1213.783737526078
 30
0.0
 10
2171.124114845322
 20
1213.963337660062
 30
0.0
 10
2170.878948202705
 20
1214.142944533606
 30
0.0
 10
2170.756366373205
 20
1214.232746877494
 30
0.0
  0
SPLINE
  5
306
330
2F0
100
AcDbEntity
  8
0
  6
Continuous
 62
     7
370
    15
100
AcDbSpline
210
0.0
220
0.0
230
1.0
 70
     8
 71
     3
 72
     9
 73
     5
 74
     0
 42
0.0000000001
 43
0.0000000001
 40
0.0
 40
0.0
 40
0.0
 40
0.0
 40
0.5000063974176287
 40
1.0
 40
1.0
 40
1.0
 40
1.0
 10
2171.492072047033
 20
1215.193789575566
 30
0.0
 10
2171.369481868446
 20
1215.283593004111
 30
0.0
 10
2171.124304648275
 20
1215.463197563187
 30
0.0
 10
2170.879131330133
 20
1215.642809208518
 30
0.0
 10
2170.756546239538
 20
1215.732613882133
 30
0.0
  0
SPLINE
  5
307
330
2F0
100
AcDbEntity
  8
0
  6
Continuous
 62
     7
370
    15
100
AcDbSpline
210
0.0
220
0.0
230
1.0
 70
     8
 71
     3
 72
     9
 73
     5
 74
     0
 42
0.0000000001
 43
0.0000000001
 40
0.0
 40
0.0
 40
0.0
 40
0.0
 40
0.5000062506262691
 40
1.0
 40
1.0
 40
1.0
 40
1.0
 10
2171.491838733428
 20
1216.693961918281
 30
0.0
 10
2171.369249757781
 20
1216.783764303492
 30
0.0
 10
2171.12407487148
 20
1216.963366828657
 30
0.0
 10
2170.878904772212
 20
1217.142976277019
 30
0.0
 10
2170.756321255045
 20
1217.232779878529
 30
0.0
  0
LINE
  5
308
330
2F0
100
AcDbEntity
  8
0
  6
Continuous
 62
     7
370
    15
100
AcDbLine
 10
2151.490372006207
 20
1218.221600717825
 30
0.0
 11
2151.837076750836
 21
1217.9676102209
 31
0.0
  0
SPLINE
  5
309
330
2F0
100
AcDbEntity
  8
0
  6
Continuous
 62
     7
370
    15
100
AcDbSpline
210
0.0
220
0.0
230
1.0
 70
     8
 71
     3
 72
     9
 73
     5
 74
     0
 42
0.0000000001
 43
0.0000000001
 40
0.0
 40
0.0
 40
0.0
 40
0.0
 40
0.5000060594978489
 40
1.0
 40
1.0
 40
1.0
 40
1.0
 10
2151.101484442482
 20
1217.006482707462
 30
0.0
 10
2151.224071468937
 20
1216.916681734597
 30
0.0
 10
2151.469242550618
 20
1216.737081965434
 30
0.0
 10
2151.714408632748
 20
1216.557475484856
 30
0.0
 10
2151.836990188229
 20
1216.467673332892
 30
0.0
  0
SPLINE
  5
30A
330
2F0
100
AcDbEntity
  8
0
  6
Continuous
 62
     7
370
    15
100
AcDbSpline
210
0.0
220
0.0
230
1.0
 70
     8
 71
     3
 72
     9
 73
     5
 74
     0
 42
0.0000000001
 43
0.0000000001
 40
0.0
 40
0.0
 40
0.0
 40
0.0
 40
0.500006130963811
 40
0.9999999999999998
 40
0.9999999999999998
 40
0.9999999999999998
 40
0.9999999999999998
 10
2151.101410938431
 20
1215.50653666257
 30
0.0
 10
2151.223998633962
 20
1215.416735167527
 30
0.0
 10
2151.469171018737
 20
1215.237134379693
 30
0.0
 10
2151.714338710581
 20
1215.057526801131
 30
0.0
 10
2151.836921053389
 20
1214.967724113018
 30
0.0
  0
SPLINE
  5
30B
330
2F0
100
AcDbEntity
  8
0
  6
Continuous
 62
     7
370
    15
100
AcDbSpline
210
0.0
220
0.0
230
1.0
 70
     8
 71
     3
 72
     9
 73
     5
 74
     0
 42
0.0000000001
 43
0.0000000001
 40
0.0
 40
0.0
 40
0.0
 40
0.0
 40
0.5000061952061922
 40
1.0
 40
1.0
 40
1.0
 40
1.0
 10
2151.101353727318
 20
1214.006578944741
 30
0.0
 10
2151.22394201376
 20
1213.916776982127
 30
0.0
 10
2151.469115548843
 20
1213.737175282237
 30
0.0
 10
2151.71428464554
 20
1213.557566720334
 30
0.0
 10
2151.836867675015
 20
1213.467763552094
 30
0.0
  0
SPLINE
  5
30C
330
2F0
100
AcDbEntity
  8
0
  6
Continuous
 62
     7
370
    15
100
AcDbSpline
210
0.0
220
0.0
230
1.0
 70
     8
 71
     3
 72
     9
 73
     5
 74
     0
 42
0.0000000001
 43
0.0000000001
 40
0.0
 40
0.0
 40
0.0
 40
0.0
 40
0.5000062520481668
 40
1.0
 40
1.0
 40
1.0
 40
1.0
 10
2151.101311183549
 20
1212.506610552692
 30
0.0
 10
2151.223899988728
 20
1212.416808177635
 30
0.0
 10
2151.469074533402
 20
1212.237205673289
 30
0.0
 10
2151.714244844486
 20
1212.057596243865
 30
0.0
 10
2151.836828467212
 20
1211.96779265208
 30
0.0
  0
SPLINE
  5
30D
330
2F0
100
AcDbEntity
  8
0
  6
Continuous
 62
     7
370
    15
100
AcDbSpline
210
0.0
220
0.0
230
1.0
 70
     8
 71
     3
 72
     9
 73
     5
 74
     0
 42
0.0000000001
 43
0.0000000001
 40
0.0
 40
0.0
 40
0.0
 40
0.0
 40
0.5000063013533508
 40
0.9999999999999998
 40
0.9999999999999998
 40
0.9999999999999998
 40
0.9999999999999998
 10
2151.101281763368
 20
1211.006632494297
 30
0.0
 10
2151.223871019178
 20
1210.916829762263
 30
0.0
 10
2151.469046440923
 20
1210.737226561682
 30
0.0
 10
2151.71421778682
 20
1210.557616381333
 30
0.0
 10
2151.836801914857
 20
1210.467812422945
 30
0.0
  0
SPLINE
  5
30E
330
2F0
100
AcDbEntity
  8
0
  6
Continuous
 62
     7
370
    15
100
AcDbSpline
210
0.0
220
0.0
230
1.0
 70
     8
 71
     3
 72
     9
 73
     5
 74
     0
 42
0.0000000001
 43
0.0000000001
 40
0.0
 40
0.0
 40
0.0
 40
0.0
 40
0.500006343026631
 40
0.9999999999999998
 40
0.9999999999999998
 40
0.9999999999999998
 40
0.9999999999999998
 10
2151.101263989742
 20
1209.506645783429
 30
0.0
 10
2151.223853630556
 20
1209.416842750031
 30
0.0
 10
2151.469029801868
 20
1209.237238961697
 30
0.0
 10
2151.714202011019
 20
1209.057628147379
 30
0.0
 10
2151.836786560461
 20
1208.967823879496
 30
0.0
  0
SPLINE
  5
30F
330
2F0
100
AcDbEntity
  8
0
  6
Continuous
 62
     7
370
    15
100
AcDbSpline
210
0.0
220
0.0
230
1.0
 70
     8
 71
     3
 72
     9
 73
     5
 74
     0
 42
0.0000000001
 43
0.0000000001
 40
0.0
 40
0.0
 40
0.0
 40
0.0
 40
0.500006377014552
 40
1.0
 40
1.0
 40
1.0
 40
1.0
 10
2151.101256438944
 20
1208.006651436764
 30
0.0
 10
2151.223846400359
 20
1207.916848157571
 30
0.0
 10
2151.469023196197
 20
1207.737243889863
 30
0.0
 10
2151.714196102806
 20
1207.557632558489
 30
0.0
 10
2151.83678099264
 20
1207.467828038186
 30
0.0
  0
SPLINE
  5
310
330
2F0
100
AcDbEntity
  8
0
  6
Continuous
 62
     7
370
    15
100
AcDbSpline
210
0.0
220
0.0
230
1.0
 70
     8
 71
     3
 72
     9
 73
     5
 74
     0
 42
0.0000000001
 43
0.0000000001
 40
0.0
 40
0.0
 40
0.0
 40
0.0
 40
0.1937694123998838
 40
1.0
 40
1.0
 40
1.0
 40
1.0
 10
2171.03592920186
 20
1206.922487658765
 30
0.0
 10
2171.065392081522
 20
1206.944071762085
 30
0.0
 10
2171.217443322723
 20
1207.055462425103
 30
0.0
 10
2171.369496962118
 20
1207.166848697696
 30
0.0
 10
2171.492087257154
 20
1207.256651717699
 30
0.0
  0
SPLINE
  5
311
330
2F0
100
AcDbEntity
  8
0
  6
Continuous
 62
     7
370
    15
100
AcDbSpline
210
0.0
220
0.0
230
1.0
 70
     8
 71
     3
 72
     9
 73
     5
 74
     0
 42
0.0000000001
 43
0.0000000001
 40
0.0
 40
0.0
 40
0.0
 40
0.0
 40
0.4930421175660573
 40
1.0
 40
1.0
 40
1.0
 40
1.0
 10
2170.766646293974
 20
1208.225215363151
 30
0.0
 10
2170.885869166018
 20
1208.312556888466
 30
0.0
 10
2171.127679891302
 20
1208.489705091841
 30
0.0
 10
2171.369494483639
 20
1208.666846345939
 30
0.0
 10
2171.492084297311
 20
1208.756649501007
 30
0.0
  0
SPLINE
  5
312
330
2F0
100
AcDbEntity
  8
0
  6
Continuous
 62
     7
370
    15
100
AcDbSpline
210
0.0
220
0.0
230
1.0
 70
     8
 71
     3
 72
     9
 73
     5
 74
     0
 42
0.0000000001
 43
0.0000000001
 40
0.0
 40
0.0
 40
0.0
 40
0.0
 40
0.4930352441540637
 40
0.9999999999999998
 40
0.9999999999999998
 40
0.9999999999999998
 40
0.9999999999999998
 10
2170.766645865644
 20
1209.725214904631
 30
0.0
 10
2170.885865071144
 20
1209.81255374177
 30
0.0
 10
2171.127671730838
 20
1209.989698962469
 30
0.0
 10
2171.36948234914
 20
1210.166837275362
 30
0.0
 10
2171.492071810208
 20
1210.256640156909
 30
0.0
  0
SPLINE
  5
313
330
2F0
100
AcDbEntity
  8
0
  6
Continuous
 62
     7
370
    15
100
AcDbSpline
210
0.0
220
0.0
230
1.0
 70
     8
 71
     3
 72
     9
 73
     5
 74
     0
 42
0.0000000001
 43
0.0000000001
 40
0.0
 40
0.0
 40
0.0
 40
0.0
 40
0.4930199754652305
 40
0.9999999999999998
 40
0.9999999999999998
 40
0.9999999999999998
 40
0.9999999999999998
 10
2170.766646966625
 20
1211.225215443195
 30
0.0
 10
2170.885858417918
 20
1211.312548600649
 30
0.0
 10
2171.127656838319
 20
1211.489687787296
 30
0.0
 10
2171.369459350666
 20
1211.666820116114
 30
0.0
 10
2171.492048394308
 20
1211.756622668524
 30
0.0
  0
SPLINE
  5
314
330
2F0
100
AcDbEntity
  8
0
  6
Continuous
 62
     7
370
    15
100
AcDbSpline
210
0.0
220
0.0
230
1.0
 70
     8
 71
     3
 72
     9
 73
     5
 74
     0
 42
0.0000000001
 43
0.0000000001
 40
0.0
 40
0.0
 40
0.0
 40
0.0
 40
0.4929978694912882
 40
1.0
 40
1.0
 40
1.0
 40
1.0
 10
2170.766645932098
 20
1212.72521432809
 30
0.0
 10
2170.885846282012
 20
1212.812539359333
 30
0.0
 10
2171.12763302652
 20
1212.989670005624
 30
0.0
 10
2171.369424041211
 20
1213.166793852466
 30
0.0
 10
2171.492012600798
 20
1213.256596020179
 30
0.0
  0
SPLINE
  5
315
330
2F0
100
AcDbEntity
  8
0
  6
Continuous
 62
     7
370
    15
100
AcDbSpline
210
0.0
220
0.0
230
1.0
 70
     8
 71
     3
 72
     9
 73
     5
 74
     0
 42
0.0000000001
 43
0.0000000001
 40
0.0
 40
0.0
 40
0.0
 40
0.0
 40
0.4929645818175295
 40
1.0
 40
1.0
 40
1.0
 40
1.0
 10
2170.766647488717
 20
1214.225215097207
 30
0.0
 10
2170.885831314913
 20
1214.312528039068
 30
0.0
 10
2171.127600867114
 20
1214.489646122358
 30
0.0
 10
2171.369374915393
 20
1214.666757472912
 30
0.0
 10
2171.491962921068
 20
1214.756559200604
 30
0.0
  0
SPLINE
  5
316
330
2F0
100
AcDbEntity
  8
0
  6
Continuous
 62
     7
370
    15
100
AcDbSpline
210
0.0
220
0.0
230
1.0
 70
     8
 71
     3
 72
     9
 73
     5
 74
     0
 42
0.0000000001
 43
0.0000000001
 40
0.0
 40
0.0
 40
0.0
 40
0.0
 40
0.4929223870753562
 40
0.9999999999999998
 40
0.9999999999999998
 40
0.9999999999999998
 40
0.9999999999999998
 10
2170.766646827044
 20
1215.725214355899
 30
0.0
 10
2170.885809787765
 20
1215.812512041773
 30
0.0
 10
2171.127557705582
 20
1215.9896143365
 30
0.0
 10
2171.369310395508
 20
1216.166709973327
 30
0.0
 10
2171.491897772434
 20
1216.256511206109
 30
0.0
  0
SPLINE
  5
317
330
2F0
100
AcDbEntity
  8
0
  6
Continuous
 62
     7
370
    15
100
AcDbSpline
210
0.0
220
0.0
230
1.0
 70
     8
 71
     3
 72
     9
 73
     5
 74
     0
 42
0.0000000001
 43
0.0000000001
 40
0.0
 40
0.0
 40
0.0
 40
0.0
 40
0.492867593920588
 40
1.0
 40
1.0
 40
1.0
 40
1.0
 10
2170.766647591098
 20
1217.225214969198
 30
0.0
 10
2170.885783579459
 20
1217.312492945852
 30
0.0
 10
2171.127503647547
 20
1217.489574940549
 30
0.0
 10
2171.369228815958
 20
1217.666650360138
 30
0.0
 10
2171.491815482224
 20
1217.756451043731
 30
0.0
  0
LINE
  5
318
330
2F0
100
AcDbEntity
  8
0
  6
Continuous
 62
     7
370
    15
100
AcDbLine
 10
2171.496671660515
 20
1217.763450875184
 30
0.0
 11
2171.496671660515
 21
1218.186950983499
 31
0.0
  0
LINE
  5
319
330
2F0
100
AcDbEntity
  8
0
  6
Continuous
 62
     7
370
    15
100
AcDbLine
 10
2171.496671660515
 20
1216.263450875184
 30
0.0
 11
2171.496671660515
 21
1216.686979034391
 31
0.0
  0
LINE
  5
31A
330
2F0
100
AcDbEntity
  8
0
  6
Continuous
 62
     7
370
    15
100
AcDbLine
 10
2171.496671660515
 20
1214.763450875184
 30
0.0
 11
2171.496671660515
 21
1215.186979034391
 31
0.0
  0
LINE
  5
31B
330
2F0
100
AcDbEntity
  8
0
  6
Continuous
 62
     7
370
    15
100
AcDbLine
 10
2171.496671660515
 20
1213.263450875184
 30
0.0
 11
2171.496671660515
 21
1213.686979034391
 31
0.0
  0
LINE
  5
31C
330
2F0
100
AcDbEntity
  8
0
  6
Continuous
 62
     7
370
    15
100
AcDbLine
 10
2171.496671660515
 20
1211.763450875184
 30
0.0
 11
2171.496671660515
 21
1212.186979034391
 31
0.0
  0
LINE
  5
31D
330
2F0
100
AcDbEntity
  8
0
  6
Continuous
 62
     7
370
    15
100
AcDbLine
 10
2171.496671660515
 20
1210.263450875183
 30
0.0
 11
2171.496671660515
 21
1210.686979034391
 31
0.0
  0
LINE
  5
31E
330
2F0
100
AcDbEntity
  8
0
  6
Continuous
 62
     7
370
    15
100
AcDbLine
 10
2171.496671660515
 20
1208.763450875183
 30
0.0
 11
2171.496671660515
 21
1209.186979034391
 31
0.0
  0
LINE
  5
31F
330
2F0
100
AcDbEntity
  8
0
  6
Continuous
 62
     7
370
    15
100
AcDbLine
 10
2171.496671660515
 20
1207.263450875184
 30
0.0
 11
2171.496671660515
 21
1207.686979034391
 31
0.0
  0
LINE
  5
320
330
2F0
100
AcDbEntity
  8
0
  6
Continuous
 62
     7
370
    15
100
AcDbLine
 10
2151.096671660515
 20
1206.936932436771
 30
0.0
 11
2151.096671660515
 21
1206.925214954787
 31
0.0
  0
LINE
  5
321
330
2F0
100
AcDbEntity
  8
0
  6
Continuous
 62
     7
370
    15
100
AcDbLine
 10
2151.096671660515
 20
1208.436979034391
 30
0.0
 11
2151.096671660515
 21
1208.013450875184
 31
0.0
  0
LINE
  5
322
330
2F0
100
AcDbEntity
  8
0
  6
Continuous
 62
     7
370
    15
100
AcDbLine
 10
2151.096671660515
 20
1209.936979034391
 30
0.0
 11
2151.096671660515
 21
1209.513450875183
 31
0.0
  0
LINE
  5
323
330
2F0
100
AcDbEntity
  8
0
  6
Continuous
 62
     7
370
    15
100
AcDbLine
 10
2151.096671660515
 20
1211.436979034391
 30
0.0
 11
2151.096671660515
 21
1211.013450875183
 31
0.0
  0
LINE
  5
324
330
2F0
100
AcDbEntity
  8
0
  6
Continuous
 62
     7
370
    15
100
AcDbLine
 10
2151.096671660515
 20
1212.936979034391
 30
0.0
 11
2151.096671660515
 21
1212.513450875184
 31
0.0
  0
LINE
  5
325
330
2F0
100
AcDbEntity
  8
0
  6
Continuous
 62
     7
370
    15
100
AcDbLine
 10
2151.096671660515
 20
1214.436979034391
 30
0.0
 11
2151.096671660515
 21
1214.013450875184
 31
0.0
  0
LINE
  5
326
330
2F0
100
AcDbEntity
  8
0
  6
Continuous
 62
     7
370
    15
100
AcDbLine
 10
2151.096671660515
 20
1215.936979034391
 30
0.0
 11
2151.096671660515
 21
1215.513450875184
 31
0.0
  0
LINE
  5
327
330
2F0
100
AcDbEntity
  8
0
  6
Continuous
 62
     7
370
    15
100
AcDbLine
 10
2151.096671660515
 20
1217.436979034391
 30
0.0
 11
2151.096671660515
 21
1217.013450875184
 31
0.0
  0
LINE
  5
328
330
2F0
100
AcDbEntity
  8
0
  6
Continuous
 62
     7
370
    15
100
AcDbLine
 10
2149.046671660515
 20
1218.225214954787
 30
0.0
 11
2173.546671660515
 21
1218.225214954787
 31
0.0
  0
LINE
  5
329
330
2F0
100
AcDbEntity
  8
0
  6
Continuous
 62
     7
370
    15
100
AcDbLine
 10
2172.783000662534
 20
1220.408469757491
 30
0.0
 11
2149.810342658497
 21
1220.408469757491
 31
0.0
  0
SPLINE
  5
32A
330
2F0
100
AcDbEntity
  8
0
  6
Continuous
 62
     7
370
    15
100
AcDbSpline
210
0.0
220
0.0
230
1.0
 70
     8
 71
     3
 72
    13
 73
     9
 74
     0
 42
0.0000000001
 43
0.0000000001
 40
0.0
 40
0.0
 40
0.0
 40
0.0
 40
0.1955404464248779
 40
0.3911088837915139
 40
0.5858539550242338
 40
0.7788966033790663
 40
0.9003988253693945
 40
1.0
 40
1.0
 40
1.0
 40
1.0
 10
2156.246671660515
 20
1221.861210660294
 30
0.0
 10
2156.167399627705
 20
1221.85044345368
 30
0.0
 10
2156.008844214564
 20
1221.828907499165
 30
0.0
 10
2155.798311731746
 20
1221.800280257545
 30
0.0
 10
2155.638251722431
 20
1221.778502282376
 30
0.0
 10
2155.562380924651
 20
1221.768174051455
 30
0.0
 10
2155.53800553203
 20
1221.76485568609
 30
0.0
 10
2155.557958376974
 20
1221.767571868616
 30
0.0
 10
2155.566946600691
 20
1221.768795436297
 30
0.0
  0
SPLINE
  5
32B
330
2F0
100
AcDbEntity
  8
0
  6
Continuous
 62
     7
370
    15
100
AcDbSpline
210
0.0
220
0.0
230
1.0
 70
     8
 71
     3
 72
    10
 73
     6
 74
     0
 42
0.0000000001
 43
0.0000000001
 40
0.0
 40
0.0
 40
0.0
 40
0.0
 40
0.5
 40
0.5
 40
1.0
 40
1.0
 40
1.0
 40
1.0
 10
2166.346671660515
 20
1221.861210660294
 30
0.0
 10
2164.672099623521
 20
1222.088601879355
 30
0.0
 10
2162.985160545056
 20
1222.202561058806
 30
0.0
 10
2159.606175320595
 20
1222.202470691124
 30
0.0
 10
2157.92124369751
 20
1222.088601879355
 30
0.0
 10
2156.246671660515
 20
1221.861210660294
 30
0.0
  0
SPLINE
  5
32C
330
2F0
100
AcDbEntity
  8
0
  6
Continuous
 62
     7
370
    15
100
AcDbSpline
210
0.0
220
0.0
230
1.0
 70
     8
 71
     3
 72
    12
 73
     8
 74
     0
 42
0.0000000001
 43
0.0000000001
 40
0.0
 40
0.0
 40
0.0
 40
0.0
 40
0.2500000000000004
 40
0.2500000000000004
 40
0.5000000000000009
 40
0.5000000000000009
 40
1.0
 40
1.0
 40
1.0
 40
1.0
 10
2167.046671658303
 20
1221.766035422499
 30
0.0
 10
2167.046664274481
 20
1221.766036427725
 30
0.0
 10
2167.028271254324
 20
1221.76854066328
 30
0.0
 10
2166.957597240991
 20
1221.778160259458
 30
0.0
 10
2166.905315678203
 20
1221.785275544332
 30
0.0
 10
2166.711376752928
 20
1221.811658266818
 30
0.0
 10
2166.530663342427
 20
1221.836226310906
 30
0.0
 10
2166.346671660515
 20
1221.861210660294
 30
0.0
  0
LINE
  5
32D
330
2F0
100
AcDbEntity
  8
0
  6
Continuous
 62
     7
370
    15
100
AcDbLine
 10
2151.110106040135
 20
1206.925214954787
 30
0.0
 11
2151.10085793824
 21
1206.936932436771
 31
0.0
  0
SPLINE
  5
32E
330
2F0
100
AcDbEntity
  8
0
  6
Continuous
 62
     7
370
    15
100
AcDbSpline
210
0.0
220
0.0
230
1.0
 70
     8
 71
     3
 72
    48
 73
    44
 74
     0
 42
0.0000000001
 43
0.0000000001
 40
0.0
 40
0.0
 40
0.0
 40
0.0
 40
0.0206347985398683
 40
0.0473231907016227
 40
0.0742074502227552
 40
0.1015449196139948
 40
0.1280473420343547
 40
0.1547355341261885
 40
0.1816195691215768
 40
0.2089567781374997
 40
0.235430211857575
 40
0.2621371464590001
 40
0.289034245251345
 40
0.3163725103427017
 40
0.3428764151351884
 40
0.3695661252669367
 40
0.3964471310363904
 40
0.4237843209396503
 40
0.4427314305653104
 40
0.4617460190268865
 40
0.4808374407338459
 40
0.4999979087092587
 40
0.5214295637707095
 40
0.5428963001759257
 40
0.5644613541171194
 40
0.5909349370764927
 40
0.6175936836229098
 40
0.644539203540858
 40
0.6718775503460912
 40
0.6921899268836974
 40
0.7125855230969064
 40
0.7344176157730832
 40
0.7563531658021944
 40
0.7793053970891732
 40
0.8058078450828991
 40
0.8324960803017823
 40
0.8593801646703854
 40
0.886717427869174
 40
0.9132145614648321
 40
0.9398973562655251
 40
0.9667942024180876
 40
0.9941322084162081
 40
1.0
 40
1.0
 40
1.0
 40
1.0
 10
2171.490578226595
 20
1207.686979034391
 30
0.0
 10
2171.488886378543
 20
1207.691896648053
 30
0.0
 10
2171.485006348029
 20
1207.703174546826
 30
0.0
 10
2171.394346386005
 20
1207.721499479144
 30
0.0
 10
2171.232009046221
 20
1207.741840963731
 30
0.0
 10
2170.996261564622
 20
1207.76243274217
 30
0.0
 10
2170.692593326654
 20
1207.783098169818
 30
0.0
 10
2170.324672506593
 20
1207.803631479496
 30
0.0
 10
2169.888619646958
 20
1207.824218533911
 30
0.0
 10
2169.391871883646
 20
1207.84442815264
 30
0.0
 10
2168.838608138021
 20
1207.864179048782
 30
0.0
 10
2168.235529397072
 20
1207.883083483299
 30
0.0
 10
2167.576442266723
 20
1207.902879721834
 30
0.0
 10
2166.873761657647
 20
1207.923075991506
 30
0.0
 10
2166.133217493827
 20
1207.943545415739
 30
0.0
 10
2165.362984717615
 20
1207.964070359478
 30
0.0
 10
2164.555770125688
 20
1207.984838783908
 30
0.0
 10
2163.804435946841
 20
1208.003513141465
 30
0.0
 10
2163.122038400472
 20
1208.019991233271
 30
0.0
 10
2162.51926989886
 20
1208.034198441688
 30
0.0
 10
2161.90985945504
 20
1208.048247596447
 30
0.0
 10
2161.272420518226
 20
1208.06248963244
 30
0.0
 10
2160.609572359311
 20
1208.077321226411
 30
0.0
 10
2159.924178898277
 20
1208.093191198566
 30
0.0
 10
2159.191951252636
 20
1208.110578270209
 30
0.0
 10
2158.417019925636
 20
1208.129549557327
 30
0.0
 10
2157.606437363678
 20
1208.150066818438
 30
0.0
 10
2156.813402950302
 20
1208.170847379178
 30
0.0
 10
2156.11231218137
 20
1208.189898845133
 30
0.0
 10
2155.500907157144
 20
1208.207084732527
 30
0.0
 10
2154.9631984046
 20
1208.222655592041
 30
0.0
 10
2154.439675029199
 20
1208.238375489928
 30
0.0
 10
2153.928202896898
 20
1208.254165094224
 30
0.0
 10
2153.419711831153
 20
1208.271443125656
 30
0.0
 10
2152.925936689518
 20
1208.29034851057
 30
0.0
 10
2152.465284509042
 20
1208.310592101687
 30
0.0
 10
2152.062783524039
 20
1208.331281683524
 30
0.0
 10
2151.727536080281
 20
1208.352008440455
 30
0.0
 10
2151.461778223039
 20
1208.372620156383
 30
0.0
 10
2151.264720230015
 20
1208.392908214136
 30
0.0
 10
2151.143152430117
 20
1208.413077109629
 30
0.0
 10
2151.090333869857
 20
1208.427624200419
 30
0.0
 10
2151.100898262223
 20
1208.43557419247
 30
0.0
 10
2151.102765094436
 20
1208.436979034391
 30
0.0
  0
SPLINE
  5
32F
330
2F0
100
AcDbEntity
  8
0
  6
Continuous
 62
     7
370
    15
100
AcDbSpline
210
0.0
220
0.0
230
1.0
 70
     8
 71
     3
 72
    47
 73
    43
 74
     0
 42
0.0000000001
 43
0.0000000001
 40
0.0
 40
0.0
 40
0.0
 40
0.0
 40
0.0206350326562429
 40
0.0473237276166693
 40
0.0742082921587266
 40
0.1015460717128787
 40
0.1280487948219524
 40
0.1547372897101879
 40
0.1816216297239545
 40
0.2089591488998358
 40
0.2354328829797282
 40
0.2621401205902025
 40
0.2890375245491427
 40
0.3163760998124397
 40
0.3428803053104594
 40
0.369570318255833
 40
0.3964516290092958
 40
0.4237891290722967
 40
0.4427364536663065
 40
0.461751257861828
 40
0.4808428961744597
 40
0.5000035815389247
 40
0.5214354797576498
 40
0.5429024597181628
 40
0.5644677583301354
 40
0.5909416416510185
 40
0.6176006906597574
 40
0.6445465162936737
 40
0.6718851732717737
 40
0.6983590956787516
 40
0.72501819485543
 40
0.7519641078544228
 40
0.7793028931529197
 40
0.8058056418356496
 40
0.8324941798514243
 40
0.8593785692389658
 40
0.8867161425983269
 40
0.9132135768226936
 40
0.9398966743585527
 40
0.9667938256748451
 40
0.9941321418419658
 40
1.0
 40
1.0
 40
1.0
 40
1.0
 10
2171.490578226595
 20
1209.186979034391
 30
0.0
 10
2171.488886378543
 20
1209.191896648053
 30
0.0
 10
2171.485006348029
 20
1209.203174546827
 30
0.0
 10
2171.394346386005
 20
1209.221499479144
 30
0.0
 10
2171.232009046221
 20
1209.241840963731
 30
0.0
 10
2170.996261564622
 20
1209.26243274217
 30
0.0
 10
2170.692593326654
 20
1209.283098169819
 30
0.0
 10
2170.324672506593
 20
1209.303631479496
 30
0.0
 10
2169.888619646958
 20
1209.324218533911
 30
0.0
 10
2169.391871883646
 20
1209.34442815264
 30
0.0
 10
2168.838608138021
 20
1209.364179048782
 30
0.0
 10
2168.235529397072
 20
1209.383083483299
 30
0.0
 10
2167.576442266723
 20
1209.402879721834
 30
0.0
 10
2166.873761657647
 20
1209.423075991506
 30
0.0
 10
2166.133217493827
 20
1209.443545415739
 30
0.0
 10
2165.362984717614
 20
1209.464070359478
 30
0.0
 10
2164.555770125691
 20
1209.484838783909
 30
0.0
 10
2163.804435946829
 20
1209.503513141464
 30
0.0
 10
2163.122038400503
 20
1209.519991233274
 30
0.0
 10
2162.519269898743
 20
1209.534198441678
 30
0.0
 10
2161.909859455478
 20
1209.548247596486
 30
0.0
 10
2161.272420516505
 20
1209.562489632285
 30
0.0
 10
2160.609572366594
 20
1209.577321227067
 30
0.0
 10
2159.924178871096
 20
1209.593191196116
 30
0.0
 10
2159.191951364373
 20
1209.61057828028
 30
0.0
 10
2158.417019400198
 20
1209.629549509968
 30
0.0
 10
2157.606439335407
 20
1209.650066996152
 30
0.0
 10
2156.813395463039
 20
1209.670846704341
 30
0.0
 10
2156.05443388757
 20
1209.691474917119
 30
0.0
 10
2155.335565291226
 20
1209.711757631664
 30
0.0
 10
2154.661874093699
 20
1209.731607602641
 30
0.0
 10
2154.028207005745
 20
1209.750912792812
 30
0.0
 10
2153.448139631321
 20
1209.770336896986
 30
0.0
 10
2152.925941037309
 20
1209.790353086604
 30
0.0
 10
2152.465283331638
 20
1209.810590862473
 30
0.0
 10
2152.062783846766
 20
1209.831282023193
 30
0.0
 10
2151.72753599619
 20
1209.852008351949
 30
0.0
 10
2151.461778245445
 20
1209.872620179965
 30
0.0
 10
2151.264720223926
 20
1209.892908207727
 30
0.0
 10
2151.14315243185
 20
1209.913077111453
 30
0.0
 10
2151.090333869785
 20
1209.927624200341
 30
0.0
 10
2151.100898262211
 20
1209.935574192459
 30
0.0
 10
2151.102765094436
 20
1209.936979034391
 30
0.0
  0
SPLINE
  5
330
330
2F0
100
AcDbEntity
  8
0
  6
Continuous
 62
     7
370
    15
100
AcDbSpline
210
0.0
220
0.0
230
1.0
 70
     8
 71
     3
 72
    47
 73
    43
 74
     0
 42
0.0000000001
 43
0.0000000001
 40
0.0
 40
0.0
 40
0.0
 40
0.0
 40
0.0206350326550684
 40
0.0473237276139754
 40
0.074208292154502
 40
0.1015460717070977
 40
0.1280502888374646
 40
0.1547403094246805
 40
0.1816216297705478
 40
0.2089591489448726
 40
0.2354328830232577
 40
0.2621401206322116
 40
0.2890375245896204
 40
0.3163760998513609
 40
0.3428803053478717
 40
0.3695703182917247
 40
0.3964516290436571
 40
0.4237891291051027
 40
0.4427364536980337
 40
0.4617512578924727
 40
0.4808428962040174
 40
0.5000035815673913
 40
0.5214354797848963
 40
0.5429024597441872
 40
0.5644677583549321
 40
0.5909416416743079
 40
0.6176006906815288
 40
0.644546516313911
 40
0.6718851732904546
 40
0.6983590956959251
 40
0.7250181948710858
 40
0.7519641078685444
 40
0.7793028931654849
 40
0.8058056418467058
 40
0.8324941798609611
 40
0.859378569246973
 40
0.8867161426047776
 40
0.9132135768276356
 40
0.9398966743619745
 40
0.9667938256767357
 40
0.9941321418422997
 40
1.0
 40
1.0
 40
1.0
 40
1.0
 10
2171.490578226595
 20
1210.686979034391
 30
0.0
 10
2171.488886378523
 20
1210.691896648054
 30
0.0
 10
2171.485006347964
 20
1210.703174546829
 30
0.0
 10
2171.394346386359
 20
1210.721499479132
 30
0.0
 10
2171.232009044888
 20
1210.741840963777
 30
0.0
 10
2170.996257206516
 20
1210.762433123102
 30
0.0
 10
2170.692575657648
 20
1210.783099329896
 30
0.0
 10
2170.324649282197
 20
1210.803632635641
 30
0.0
 10
2169.888601068872
 20
1210.824219289688
 30
0.0
 10
2169.391871880927
 20
1210.844428152764
 30
0.0
 10
2168.838608138746
 20
1210.864179048749
 30
0.0
 10
2168.235529396876
 20
1210.883083483308
 30
0.0
 10
2167.576442266777
 20
1210.902879721832
 30
0.0
 10
2166.873761657633
 20
1210.923075991506
 30
0.0
 10
2166.133217493831
 20
1210.943545415739
 30
0.0
 10
2165.362984717613
 20
1210.964070359479
 30
0.0
 10
2164.555770125691
 20
1210.984838783909
 30
0.0
 10
2163.804435946829
 20
1211.003513141464
 30
0.0
 10
2163.122038400503
 20
1211.019991233274
 30
0.0
 10
2162.519269898743
 20
1211.034198441678
 30
0.0
 10
2161.909859455478
 20
1211.048247596486
 30
0.0
 10
2161.272420516505
 20
1211.062489632285
 30
0.0
 10
2160.609572366594
 20
1211.077321227067
 30
0.0
 10
2159.924178871096
 20
1211.093191196116
 30
0.0
 10
2159.191951364373
 20
1211.11057828028
 30
0.0
 10
2158.417019400198
 20
1211.129549509968
 30
0.0
 10
2157.606439335407
 20
1211.150066996153
 30
0.0
 10
2156.813395463039
 20
1211.170846704341
 30
0.0
 10
2156.05443388757
 20
1211.191474917119
 30
0.0
 10
2155.335565291226
 20
1211.211757631664
 30
0.0
 10
2154.661874093699
 20
1211.231607602641
 30
0.0
 10
2154.028207005745
 20
1211.250912792811
 30
0.0
 10
2153.448139631321
 20
1211.270336896986
 30
0.0
 10
2152.925941037309
 20
1211.290353086604
 30
0.0
 10
2152.465283331638
 20
1211.310590862473
 30
0.0
 10
2152.062783846766
 20
1211.331282023193
 30
0.0
 10
2151.72753599619
 20
1211.352008351949
 30
0.0
 10
2151.461778245445
 20
1211.372620179965
 30
0.0
 10
2151.264720223926
 20
1211.392908207727
 30
0.0
 10
2151.14315243185
 20
1211.413077111453
 30
0.0
 10
2151.090333869785
 20
1211.427624200341
 30
0.0
 10
2151.100898262211
 20
1211.435574192459
 30
0.0
 10
2151.102765094436
 20
1211.436979034391
 30
0.0
  0
SPLINE
  5
331
330
2F0
100
AcDbEntity
  8
0
  6
Continuous
 62
     7
370
    15
100
AcDbSpline
210
0.0
220
0.0
230
1.0
 70
     8
 71
     3
 72
    48
 73
    44
 74
     0
 42
0.0000000001
 43
0.0000000001
 40
0.0
 40
0.0
 40
0.0
 40
0.0
 40
0.0206347985339024
 40
0.047323190687807
 40
0.0742074502010308
 40
0.1015449195842305
 40
0.1280488360026483
 40
0.1547385537698221
 40
0.1816195691251951
 40
0.2089567781330787
 40
0.2354302118453683
 40
0.2621371464389388
 40
0.2890342452233725
 40
0.3163725103066883
 40
0.3428764150913791
 40
0.369566125215278
 40
0.3964471309768273
 40
0.4237843208720467
 40
0.4427314304921092
 40
0.4617460189480676
 40
0.4808374406493865
 40
0.4999979086191401
 40
0.5214295636742879
 40
0.5428963000731896
 40
0.5644613540080422
 40
0.5909349369596297
 40
0.6175936834982064
 40
0.6445392034082298
 40
0.6718775502054229
 40
0.6921899267370543
 40
0.712585522944266
 40
0.7344176156140219
 40
0.7563531656366819
 40
0.7793053969169094
 40
0.8058078449028405
 40
0.8324960801138734
 40
0.8593801644745719
 40
0.8867174276653202
 40
0.9132205377875123
 40
0.9399094358087431
 40
0.9667942024278543
 40
0.9941322084179343
 40
1.0
 40
1.0
 40
1.0
 40
1.0
 10
2171.490578226595
 20
1212.186979034391
 30
0.0
 10
2171.488886378524
 20
1212.191896648054
 30
0.0
 10
2171.485006347964
 20
1212.203174546829
 30
0.0
 10
2171.394346386358
 20
1212.221499479132
 30
0.0
 10
2171.232009044888
 20
1212.241840963777
 30
0.0
 10
2170.996257206515
 20
1212.262433123102
 30
0.0
 10
2170.692575657647
 20
1212.283099329897
 30
0.0
 10
2170.324649282196
 20
1212.303632635641
 30
0.0
 10
2169.88860106887
 20
1212.324219289688
 30
0.0
 10
2169.391871880925
 20
1212.344428152764
 30
0.0
 10
2168.838608138745
 20
1212.364179048749
 30
0.0
 10
2168.235529396874
 20
1212.383083483308
 30
0.0
 10
2167.576442266774
 20
1212.402879721832
 30
0.0
 10
2166.87376165763
 20
1212.423075991506
 30
0.0
 10
2166.133217493828
 20
1212.443545415739
 30
0.0
 10
2165.362984717611
 20
1212.464070359479
 30
0.0
 10
2164.555770125685
 20
1212.484838783909
 30
0.0
 10
2163.804435946838
 20
1212.503513141465
 30
0.0
 10
2163.122038400469
 20
1212.519991233271
 30
0.0
 10
2162.519269898858
 20
1212.534198441688
 30
0.0
 10
2161.90985945504
 20
1212.548247596447
 30
0.0
 10
2161.272420518226
 20
1212.56248963244
 30
0.0
 10
2160.609572359311
 20
1212.577321226411
 30
0.0
 10
2159.924178898277
 20
1212.593191198566
 30
0.0
 10
2159.191951252636
 20
1212.610578270209
 30
0.0
 10
2158.417019925636
 20
1212.629549557327
 30
0.0
 10
2157.606437363678
 20
1212.650066818438
 30
0.0
 10
2156.813402950302
 20
1212.670847379178
 30
0.0
 10
2156.11231218137
 20
1212.689898845133
 30
0.0
 10
2155.500907157144
 20
1212.707084732526
 30
0.0
 10
2154.963198404599
 20
1212.722655592041
 30
0.0
 10
2154.439675029201
 20
1212.738375489928
 30
0.0
 10
2153.92820289689
 20
1212.754165094225
 30
0.0
 10
2153.419711831184
 20
1212.771443125653
 30
0.0
 10
2152.925936689381
 20
1212.790348510582
 30
0.0
 10
2152.465284509557
 20
1212.810592101644
 30
0.0
 10
2152.062783522086
 20
1212.831281683684
 30
0.0
 10
2151.727511265312
 20
1212.852009974499
 30
0.0
 10
2151.461721126248
 20
1212.872624778478
 30
0.0
 10
2151.264686513099
 20
1212.892912755731
 30
0.0
 10
2151.143142635988
 20
1212.913080033818
 30
0.0
 10
2151.090333835008
 20
1212.927624200398
 30
0.0
 10
2151.100898256989
 20
1212.935574192467
 30
0.0
 10
2151.102765094436
 20
1212.936979034391
 30
0.0
  0
SPLINE
  5
332
330
2F0
100
AcDbEntity
  8
0
  6
Continuous
 62
     7
370
    15
100
AcDbSpline
210
0.0
220
0.0
230
1.0
 70
     8
 71
     3
 72
    48
 73
    44
 74
     0
 42
0.0000000001
 43
0.0000000001
 40
0.0
 40
0.0
 40
0.0
 40
0.0
 40
0.0206347985110159
 40
0.0473231906357982
 40
0.0742074501196891
 40
0.1015449194730589
 40
0.1280488358625555
 40
0.1547385536006068
 40
0.1816195689266479
 40
0.208956777904701
 40
0.2354541164303006
 40
0.2621371464815025
 40
0.2890342452365861
 40
0.3163725102900718
 40
0.3428764150458422
 40
0.3695661251406173
 40
0.3964471308728333
 40
0.4237843207382249
 40
0.4427314303377031
 40
0.461746018773005
 40
0.4808374404535862
 40
0.499997908402525
 40
0.521429563434287
 40
0.5428962998097646
 40
0.5644613537210858
 40
0.5909349366437856
 40
0.6176419986576515
 40
0.6445392037960987
 40
0.6718775505634605
 40
0.6921899270729276
 40
0.7125855232578839
 40
0.7344176159038171
 40
0.7563531659025414
 40
0.7793053971577262
 40
0.8058078451147387
 40
0.8324960802966526
 40
0.8593801646280139
 40
0.8867174277889326
 40
0.9132205378822055
 40
0.9399094358743141
 40
0.9667942024640876
 40
0.9941322084243372
 40
1.0
 40
1.0
 40
1.0
 40
1.0
 10
2171.490578226595
 20
1213.686979034391
 30
0.0
 10
2171.48888637852
 20
1213.691896648054
 30
0.0
 10
2171.485006347954
 20
1213.703174546828
 30
0.0
 10
2171.394346386415
 20
1213.721499479136
 30
0.0
 10
2171.232009044681
 20
1213.74184096376
 30
0.0
 10
2170.996257207304
 20
1213.762433123164
 30
0.0
 10
2170.692575654814
 20
1213.783099329674
 30
0.0
 10
2170.324649292916
 20
1213.80363263648
 30
0.0
 10
2169.888601028287
 20
1213.824219286509
 30
0.0
 10
2169.39172487759
 20
1213.844434151552
 30
0.0
 10
2168.838434839578
 20
1213.86418480851
 30
0.0
 10
2168.235334883243
 20
1213.883089270924
 30
0.0
 10
2167.5764422303
 20
1213.902879737935
 30
0.0
 10
2166.873761667147
 20
1213.92307598731
 30
0.0
 10
2166.133217491305
 20
1213.943545416857
 30
0.0
 10
2165.362984718309
 20
1213.964070359175
 30
0.0
 10
2164.555770125503
 20
1213.984838783992
 30
0.0
 10
2163.804435946892
 20
1214.003513141449
 30
0.0
 10
2163.122038400448
 20
1214.019991233275
 30
0.0
 10
2162.519269898953
 20
1214.034198441685
 30
0.0
 10
2161.909859454718
 20
1214.048247596456
 30
0.0
 10
2161.272420519502
 20
1214.062489632406
 30
0.0
 10
2160.609572353919
 20
1214.077321226558
 30
0.0
 10
2159.9241789184
 20
1214.093191198019
 30
0.0
 10
2159.191951169916
 20
1214.110578272458
 30
0.0
 10
2158.416519076515
 20
1214.129561817684
 30
0.0
 10
2157.605952994927
 20
1214.150079292517
 30
0.0
 10
2156.812949292535
 20
1214.17085970783
 30
0.0
 10
2156.112312098614
 20
1214.189898847199
 30
0.0
 10
2155.500907176536
 20
1214.207084732042
 30
0.0
 10
2154.963198398986
 20
1214.222655592182
 30
0.0
 10
2154.439675030753
 20
1214.238375489889
 30
0.0
 10
2153.928202896455
 20
1214.254165094236
 30
0.0
 10
2153.419711831324
 20
1214.27144312565
 30
0.0
 10
2152.92593668934
 20
1214.290348510583
 30
0.0
 10
2152.465284509569
 20
1214.310592101644
 30
0.0
 10
2152.062783522084
 20
1214.331281683684
 30
0.0
 10
2151.727511265312
 20
1214.352009974499
 30
0.0
 10
2151.461721126247
 20
1214.372624778478
 30
0.0
 10
2151.264686513099
 20
1214.392912755731
 30
0.0
 10
2151.143142635988
 20
1214.413080033818
 30
0.0
 10
2151.090333835008
 20
1214.427624200398
 30
0.0
 10
2151.100898256989
 20
1214.435574192467
 30
0.0
 10
2151.102765094436
 20
1214.436979034391
 30
0.0
  0
SPLINE
  5
333
330
2F0
100
AcDbEntity
  8
0
  6
Continuous
 62
     7
370
    15
100
AcDbSpline
210
0.0
220
0.0
230
1.0
 70
     8
 71
     3
 72
    47
 73
    43
 74
     0
 42
0.0000000001
 43
0.0000000001
 40
0.0
 40
0.0
 40
0.0
 40
0.0
 40
0.0206350326276577
 40
0.0473237275511126
 40
0.0742082920559268
 40
0.1015460715722072
 40
0.128050288667368
 40
0.15474030921913
 40
0.1816216295292892
 40
0.2089591486672989
 40
0.2354567878239303
 40
0.2621401206129667
 40
0.2890375245346468
 40
0.3163760997600717
 40
0.3428803052213751
 40
0.3695703181297731
 40
0.3964516288459991
 40
0.4237891288711295
 40
0.4427364534387735
 40
0.4617512576078344
 40
0.4808428958938977
 40
0.5000035812316957
 40
0.5214354794207314
 40
0.5429024593515065
 40
0.5644677579336044
 40
0.5909416412178123
 40
0.6176490062421733
 40
0.6445465165484236
 40
0.6718851734886516
 40
0.6983590958589553
 40
0.7250181949987035
 40
0.7519641079603668
 40
0.7793028932209919
 40
0.8058056418670084
 40
0.8324941798458107
 40
0.8593785691961095
 40
0.8867161425175996
 40
0.9132195533073874
 40
0.9399087541039078
 40
0.9667938257203623
 40
0.9941321418496102
 40
1.0
 40
1.0
 40
1.0
 40
1.0
 10
2171.490578226595
 20
1215.186979034391
 30
0.0
 10
2171.48888637852
 20
1215.191896648054
 30
0.0
 10
2171.485006347953
 20
1215.203174546828
 30
0.0
 10
2171.394346386414
 20
1215.221499479136
 30
0.0
 10
2171.232009044679
 20
1215.24184096376
 30
0.0
 10
2170.996257207301
 20
1215.262433123164
 30
0.0
 10
2170.69257565481
 20
1215.283099329674
 30
0.0
 10
2170.324649292912
 20
1215.30363263648
 30
0.0
 10
2169.888601028282
 20
1215.324219286509
 30
0.0
 10
2169.391724877584
 20
1215.344434151552
 30
0.0
 10
2168.838434839573
 20
1215.364184808511
 30
0.0
 10
2168.235334883237
 20
1215.383089270924
 30
0.0
 10
2167.576442230293
 20
1215.402879737936
 30
0.0
 10
2166.87376166714
 20
1215.42307598731
 30
0.0
 10
2166.133217491298
 20
1215.443545416857
 30
0.0
 10
2165.3629847183
 20
1215.464070359175
 30
0.0
 10
2164.555770125498
 20
1215.484838783993
 30
0.0
 10
2163.804435946873
 20
1215.503513141448
 30
0.0
 10
2163.122038400476
 20
1215.519991233278
 30
0.0
 10
2162.51926989884
 20
1215.534198441674
 30
0.0
 10
2161.909859455165
 20
1215.548247596495
 30
0.0
 10
2161.272420517792
 20
1215.56248963225
 30
0.0
 10
2160.609572361221
 20
1215.577321227214
 30
0.0
 10
2159.92417889122
 20
1215.593191195569
 30
0.0
 10
2159.191951281727
 20
1215.610578282527
 30
0.0
 10
2158.416518550406
 20
1215.629561770295
 30
0.0
 10
2157.60595497018
 20
1215.650079470427
 30
0.0
 10
2156.812941816736
 20
1215.670859034479
 30
0.0
 10
2156.054433778999
 20
1215.691474920005
 30
0.0
 10
2155.335565320149
 20
1215.711757630895
 30
0.0
 10
2154.661874085853
 20
1215.731607602849
 30
0.0
 10
2154.028207007898
 20
1215.750912792755
 30
0.0
 10
2153.448139630809
 20
1215.770336896997
 30
0.0
 10
2152.925941037331
 20
1215.790353086611
 30
0.0
 10
2152.465283332121
 20
1215.810590862432
 30
0.0
 10
2152.062783844829
 20
1215.83128202335
 30
0.0
 10
2151.727511181202
 20
1215.852009885971
 30
0.0
 10
2151.461721148667
 20
1215.872624802069
 30
0.0
 10
2151.264686507014
 20
1215.892912749325
 30
0.0
 10
2151.143142637723
 20
1215.913080035641
 30
0.0
 10
2151.090333834936
 20
1215.92762420032
 30
0.0
 10
2151.100898256978
 20
1215.935574192456
 30
0.0
 10
2151.102765094436
 20
1215.936979034391
 30
0.0
  0
SPLINE
  5
334
330
2F0
100
AcDbEntity
  8
0
  6
Continuous
 62
     7
370
    15
100
AcDbSpline
210
0.0
220
0.0
230
1.0
 70
     8
 71
     3
 72
    47
 73
    43
 74
     0
 42
0.0000000001
 43
0.0000000001
 40
0.0
 40
0.0
 40
0.0
 40
0.0
 40
0.0206350326276585
 40
0.0473237275511152
 40
0.0742082920559293
 40
0.1015460715722094
 40
0.1280502886673701
 40
0.154740309219132
 40
0.181621629529291
 40
0.2089591486673005
 40
0.2354567878239318
 40
0.2621401206129681
 40
0.2890375245346486
 40
0.3163760997600737
 40
0.3428803052213754
 40
0.3695703181297756
 40
0.396451628846
 40
0.4237891288711306
 40
0.4427364534388929
 40
0.4617512576080744
 40
0.4808428958942596
 40
0.5000035812321804
 40
0.5214354794212159
 40
0.5429024593519899
 40
0.5644677579340892
 40
0.590941641218298
 40
0.6176490062426581
 40
0.6445465165489077
 40
0.6718851734891355
 40
0.698359095859439
 40
0.7250181949991875
 40
0.7519641079608523
 40
0.7793028932214769
 40
0.8058056418674929
 40
0.8324941798462949
 40
0.8593785691965958
 40
0.8867161425180864
 40
0.913219553307875
 40
0.9399087541043941
 40
0.9667938257208458
 40
0.9941321418500949
 40
1.0
 40
1.0
 40
1.0
 40
1.0
 10
2171.490578226595
 20
1216.686979034391
 30
0.0
 10
2171.48888637852
 20
1216.691896648054
 30
0.0
 10
2171.485006347953
 20
1216.703174546828
 30
0.0
 10
2171.394346386414
 20
1216.721499479136
 30
0.0
 10
2171.232009044679
 20
1216.74184096376
 30
0.0
 10
2170.996257207301
 20
1216.762433123164
 30
0.0
 10
2170.69257565481
 20
1216.783099329674
 30
0.0
 10
2170.324649292912
 20
1216.80363263648
 30
0.0
 10
2169.888601028282
 20
1216.824219286509
 30
0.0
 10
2169.391724877584
 20
1216.844434151552
 30
0.0
 10
2168.838434839573
 20
1216.86418480851
 30
0.0
 10
2168.235334883237
 20
1216.883089270924
 30
0.0
 10
2167.576442230293
 20
1216.902879737936
 30
0.0
 10
2166.87376166714
 20
1216.92307598731
 30
0.0
 10
2166.133217491298
 20
1216.943545416857
 30
0.0
 10
2165.3629847183
 20
1216.964070359175
 30
0.0
 10
2164.555770125498
 20
1216.984838783993
 30
0.0
 10
2163.804435946872
 20
1217.003513141448
 30
0.0
 10
2163.122038400473
 20
1217.019991233278
 30
0.0
 10
2162.519269898832
 20
1217.034198441675
 30
0.0
 10
2161.909859455154
 20
1217.048247596496
 30
0.0
 10
2161.272420517779
 20
1217.06248963225
 30
0.0
 10
2160.609572361206
 20
1217.077321227214
 30
0.0
 10
2159.924178891205
 20
1217.09319119557
 30
0.0
 10
2159.191951281711
 20
1217.110578282528
 30
0.0
 10
2158.416518550391
 20
1217.129561770295
 30
0.0
 10
2157.605954970165
 20
1217.150079470427
 30
0.0
 10
2156.812941816722
 20
1217.17085903448
 30
0.0
 10
2156.054433778985
 20
1217.191474920006
 30
0.0
 10
2155.335565320136
 20
1217.211757630895
 30
0.0
 10
2154.661874085842
 20
1217.231607602849
 30
0.0
 10
2154.028207007887
 20
1217.250912792755
 30
0.0
 10
2153.448139630798
 20
1217.270336896997
 30
0.0
 10
2152.925941037322
 20
1217.290353086611
 30
0.0
 10
2152.465283332114
 20
1217.310590862432
 30
0.0
 10
2152.062783844822
 20
1217.33128202335
 30
0.0
 10
2151.727511181197
 20
1217.352009885972
 30
0.0
 10
2151.461721148663
 20
1217.372624802069
 30
0.0
 10
2151.264686507011
 20
1217.392912749325
 30
0.0
 10
2151.143142637721
 20
1217.413080035641
 30
0.0
 10
2151.090333834935
 20
1217.427624200321
 30
0.0
 10
2151.100898256978
 20
1217.435574192456
 30
0.0
 10
2151.102765094436
 20
1217.436979034391
 30
0.0
  0
SPLINE
  5
335
330
2F0
100
AcDbEntity
  8
0
  6
Continuous
 62
     7
370
    15
100
AcDbSpline
210
0.0
220
0.0
230
1.0
 70
     8
 71
     3
 72
    39
 73
    35
 74
     0
 42
0.0000000001
 43
0.0000000001
 40
0.0
 40
0.0
 40
0.0
 40
0.0
 40
0.0214885378050907
 40
0.0530245390932818
 40
0.0848644684858368
 40
0.1168585696698811
 40
0.1494329358569024
 40
0.1818446173878952
 40
0.2139357566964794
 40
0.245558404053191
 40
0.2772144108359307
 40
0.3087542057430407
 40
0.3405964521555654
 40
0.3725913278713157
 40
0.4045846387555454
 40
0.4369982423513658
 40
0.4690925255011005
 40
0.5007191832412987
 40
0.5323709743236089
 40
0.564483923275557
 40
0.5963284713863897
 40
0.6283241058634428
 40
0.6603166106820839
 40
0.6921518600968075
 40
0.7242492777045295
 40
0.7558800130880825
 40
0.7875275798718104
 40
0.8196374413664807
 40
0.8520605056586079
 40
0.8840568831243126
 40
0.916048566113983
 40
0.9478814525844954
 40
0.979405986415324
 40
1.0
 40
1.0
 40
1.0
 40
1.0
 10
2151.846292807806
 20
1217.967533390227
 30
0.0
 10
2151.853580059638
 20
1217.962477913985
 30
0.0
 10
2151.871561886654
 20
1217.950003156512
 30
0.0
 10
2152.001720463924
 20
1217.92922650566
 30
0.0
 10
2152.224112520779
 20
1217.905532681136
 30
0.0
 10
2152.540207492246
 20
1217.881318842374
 30
0.0
 10
2152.943641166699
 20
1217.856963688481
 30
0.0
 10
2153.430696818467
 20
1217.832845329386
 30
0.0
 10
2153.989700439649
 20
1217.809367855528
 30
0.0
 10
2154.614222399292
 20
1217.787028271814
 30
0.0
 10
2155.298277015861
 20
1217.764729696259
 30
0.0
 10
2156.040618367949
 20
1217.741498725666
 30
0.0
 10
2156.835664653016
 20
1217.717788397101
 30
0.0
 10
2157.677476202788
 20
1217.693721424564
 30
0.0
 10
2158.559455765884
 20
1217.669512617608
 30
0.0
 10
2159.469197944159
 20
1217.645534263418
 30
0.0
 10
2160.393297890482
 20
1217.622051081179
 30
0.0
 10
2161.318687468929
 20
1217.599700129236
 30
0.0
 10
2162.24404861407
 20
1217.577277744668
 30
0.0
 10
2163.162468987598
 20
1217.553903096887
 30
0.0
 10
2164.06611004128
 20
1217.530046562115
 30
0.0
 10
2164.941953343977
 20
1217.505977761383
 30
0.0
 10
2165.782515057651
 20
1217.481915388616
 30
0.0
 10
2166.58070506121
 20
1217.458081668842
 30
0.0
 10
2167.325090629703
 20
1217.43473434784
 30
0.0
 10
2168.010278537197
 20
1217.412371869994
 30
0.0
 10
2168.631747236241
 20
1217.38996135477
 30
0.0
 10
2169.187547047356
 20
1217.366450614249
 30
0.0
 10
2169.668045738263
 20
1217.342449096324
 30
0.0
 10
2170.065789468636
 20
1217.318234764149
 30
0.0
 10
2170.377412562014
 20
1217.2941712129
 30
0.0
 10
2170.596858620262
 20
1217.27049532217
 30
0.0
 10
2170.72400108764
 20
1217.249950458282
 30
0.0
 10
2170.739885676967
 20
1217.237705121734
 30
0.0
 10
2170.746162280299
 20
1217.232866525116
 30
0.0
  0
SPLINE
  5
336
330
2F0
100
AcDbEntity
  8
0
  6
Continuous
 62
     7
370
    15
100
AcDbSpline
210
0.0
220
0.0
230
1.0
 70
     8
 71
     3
 72
    39
 73
    35
 74
     0
 42
0.0000000001
 43
0.0000000001
 40
0.0
 40
0.0
 40
0.0
 40
0.0
 40
0.0212544479283647
 40
0.0527764209179553
 40
0.0846036987488701
 40
0.1171681503763342
 40
0.1497313047955335
 40
0.1821305496215713
 40
0.214208135328475
 40
0.2458165912894562
 40
0.2768973502124343
 40
0.3084231300273091
 40
0.3402527394371337
 40
0.3722364706681684
 40
0.4048002788262333
 40
0.4372014550577469
 40
0.469282192961247
 40
0.5008945907608511
 40
0.5325403371740021
 40
0.5640699093782051
 40
0.5959018350570052
 40
0.6278863405687022
 40
0.6598692817560706
 40
0.6922723794294307
 40
0.724356260155097
 40
0.755972667038339
 40
0.7876141991174546
 40
0.8197167395953597
 40
0.8515509662264394
 40
0.883536230253509
 40
0.9155183656365537
 40
0.9473432965854248
 40
0.9794303107531355
 40
1.0
 40
1.0
 40
1.0
 40
1.0
 10
2151.846320270752
 20
1216.467595198341
 30
0.0
 10
2151.85335215389
 20
1216.462594815423
 30
0.0
 10
2151.870812857904
 20
1216.450178481934
 30
0.0
 10
2151.999932440375
 20
1216.429462866448
 30
0.0
 10
2152.222738910528
 20
1216.405630213267
 30
0.0
 10
2152.540681683156
 20
1216.381269499387
 30
0.0
 10
2152.947197046437
 20
1216.356770241456
 30
0.0
 10
2153.434863616289
 20
1216.332656351288
 30
0.0
 10
2153.994398275967
 20
1216.309185028598
 30
0.0
 10
2154.615702295424
 20
1216.286988479721
 30
0.0
 10
2155.295515345738
 20
1216.264820224342
 30
0.0
 10
2156.032863501471
 20
1216.241735707619
 30
0.0
 10
2156.827382326034
 20
1216.2180301936
 30
0.0
 10
2157.673867608052
 20
1216.193819523893
 30
0.0
 10
2158.56116874525
 20
1216.169463505438
 30
0.0
 10
2159.476514255451
 20
1216.145345377814
 30
0.0
 10
2160.400633612688
 20
1216.121867842817
 30
0.0
 10
2161.326025320568
 20
1216.099528275203
 30
0.0
 10
2162.245798242082
 20
1216.077229695354
 30
0.0
 10
2163.158683496748
 20
1216.053998725912
 30
0.0
 10
2164.057127522211
 20
1216.03028839703
 30
0.0
 10
2164.933262608615
 20
1216.006221424599
 30
0.0
 10
2165.779292420341
 20
1215.982012617538
 30
0.0
 10
2166.582380378827
 20
1215.958034263663
 30
0.0
 10
2167.330771847376
 20
1215.934551080285
 30
0.0
 10
2168.015458365121
 20
1215.912200132519
 30
0.0
 10
2168.636416300389
 20
1215.889777732323
 30
0.0
 10
2169.188333341613
 20
1215.866403143539
 30
0.0
 10
2169.666011948098
 20
1215.842546389362
 30
0.0
 10
2170.06220947892
 20
1215.818478409648
 30
0.0
 10
2170.37471077471
 20
1215.794412974888
 30
0.0
 10
2170.596377363998
 20
1215.770590658825
 30
0.0
 10
2170.724560445378
 20
1215.749906345825
 30
0.0
 10
2170.740253017255
 20
1215.737533812288
 30
0.0
 10
2170.74638312617
 20
1215.732700635246
 30
0.0
  0
SPLINE
  5
337
330
2F0
100
AcDbEntity
  8
0
  6
Continuous
 62
     7
370
    15
100
AcDbSpline
210
0.0
220
0.0
230
1.0
 70
     8
 71
     3
 72
    39
 73
    35
 74
     0
 42
0.0000000001
 43
0.0000000001
 40
0.0
 40
0.0
 40
0.0
 40
0.0
 40
0.0210123536608702
 40
0.0525342173589564
 40
0.084943042912953
 40
0.1175119629975861
 40
0.1500782883625979
 40
0.1824794073216258
 40
0.2145576089355249
 40
0.2456060421538471
 40
0.2766852839996662
 40
0.3082109693982384
 40
0.3400419955945253
 40
0.3726102824058701
 40
0.4051772718561752
 40
0.4375803324093418
 40
0.469661695960904
 40
0.50127387451615
 40
0.5323582938854021
 40
0.5638877865575962
 40
0.5957211446073898
 40
0.6277086426296422
 40
0.6602762858958049
 40
0.692681278081913
 40
0.7247657942013123
 40
0.7563819150594177
 40
0.7880313884586063
 40
0.8195646739667662
 40
0.851400348558327
 40
0.8833886209524322
 40
0.9153753288379753
 40
0.9477822426922221
 40
0.9798699020039245
 40
0.9999999999999998
 40
0.9999999999999998
 40
0.9999999999999998
 40
0.9999999999999998
 10
2151.846369192482
 20
1214.96764462913
 30
0.0
 10
2151.853146509404
 20
1214.96270338248
 30
0.0
 10
2151.870090876803
 20
1214.95034948202
 30
0.0
 10
2151.999017827067
 20
1214.929557438946
 30
0.0
 10
2152.223018049964
 20
1214.905581358435
 30
0.0
 10
2152.543573820427
 20
1214.881074572467
 30
0.0
 10
2152.950758734414
 20
1214.85657689284
 30
0.0
 10
2153.43903362456
 20
1214.832466981954
 30
0.0
 10
2153.99584161984
 20
1214.809140602561
 30
0.0
 10
2154.613294263506
 20
1214.787071095437
 30
0.0
 10
2155.288389734025
 20
1214.765049353622
 30
0.0
 10
2156.025114986048
 20
1214.741972090545
 30
0.0
 10
2156.823942279961
 20
1214.718127667532
 30
0.0
 10
2157.675521719204
 20
1214.693770188208
 30
0.0
 10
2158.568360989783
 20
1214.669270057856
 30
0.0
 10
2159.483833113259
 20
1214.645156399862
 30
0.0
 10
2160.407967725919
 20
1214.621685015842
 30
0.0
 10
2161.32784454911
 20
1214.599488483053
 30
0.0
 10
2162.242004672498
 20
1214.577320223441
 30
0.0
 10
2163.149540727827
 20
1214.554235707865
 30
0.0
 10
2164.048142509974
 20
1214.530530193529
 30
0.0
 10
2164.929870268719
 20
1214.506319523929
 30
0.0
 10
2165.781075737189
 20
1214.481963505365
 30
0.0
 10
2166.5885660286
 20
1214.457845378065
 30
0.0
 10
2167.336451097537
 20
1214.434367841901
 30
0.0
 10
2168.020633179219
 20
1214.412028278565
 30
0.0
 10
2168.637336950783
 20
1214.389729682803
 30
0.0
 10
2169.185995589844
 20
1214.366498772749
 30
0.0
 10
2169.66159741423
 20
1214.342788219984
 30
0.0
 10
2170.058615917522
 20
1214.318722088649
 30
0.0
 10
2170.373898859826
 20
1214.294510126095
 30
0.0
 10
2170.596897368609
 20
1214.270543658502
 30
0.0
 10
2170.724863592482
 20
1214.249829169405
 30
0.0
 10
2170.740138498649
 20
1214.237563749156
 30
0.0
 10
2170.746027019602
 20
1214.232835393816
 30
0.0
  0
SPLINE
  5
338
330
2F0
100
AcDbEntity
  8
0
  6
Continuous
 62
     7
370
    15
100
AcDbSpline
210
0.0
220
0.0
230
1.0
 70
     8
 71
     3
 72
    39
 73
    35
 74
     0
 42
0.0000000001
 43
0.0000000001
 40
0.0
 40
0.0
 40
0.0
 40
0.0
 40
0.0207557393467523
 40
0.0528558829689034
 40
0.0852728977855523
 40
0.1178487592147893
 40
0.1504207278156949
 40
0.1828261805153048
 40
0.2143387254657431
 40
0.2453981432455026
 40
0.2764782226049388
 40
0.3080062014023615
 40
0.3404213141222927
 40
0.3729965524304771
 40
0.4055691955156762
 40
0.4379766001455942
 40
0.4700610247858753
 40
0.501115481260157
 40
0.5322007523386702
 40
0.5637325535779715
 40
0.5955697548497245
 40
0.6281443597617685
 40
0.6607176670610905
 40
0.6931270136618075
 40
0.7252146008531534
 40
0.7568329120284085
 40
0.7879233616347708
 40
0.819458970886288
 40
0.8512985044639167
 40
0.8832922079164656
 40
0.9158661691584825
 40
0.9482774477668693
 40
0.9803681881376363
 40
1.0
 40
1.0
 40
1.0
 40
1.0
 10
2151.846436114837
 20
1213.467682690455
 30
0.0
 10
2151.852969509772
 20
1213.462804238176
 30
0.0
 10
2151.869607238367
 20
1213.450380932101
 30
0.0
 10
2151.999172709194
 20
1213.429509102048
 30
0.0
 10
2152.225190201562
 20
1213.405387967635
 30
0.0
 10
2152.546472065807
 20
1213.38087959003
 30
0.0
 10
2152.954324276709
 20
1213.356383624429
 30
0.0
 10
2153.440347943007
 20
1213.332418736374
 30
0.0
 10
2153.993735132885
 20
1213.309234390958
 30
0.0
 10
2154.606793632352
 20
1213.287285926309
 30
0.0
 10
2155.281271371514
 20
1213.265278722101
 30
0.0
 10
2156.021889535857
 20
1213.242066785853
 30
0.0
 10
2156.82551138938
 20
1213.218078810664
 30
0.0
 10
2157.682481422155
 20
1213.193575256637
 30
0.0
 10
2158.57555660253
 20
1213.169076710483
 30
0.0
 10
2159.491150461274
 20
1213.144967030223
 30
0.0
 10
2160.409923678184
 20
1213.121640590143
 30
0.0
 10
2161.324184269071
 20
1213.099571098721
 30
0.0
 10
2162.232837941554
 20
1213.077549352728
 30
0.0
 10
2163.14039694186
 20
1213.054472090789
 30
0.0
 10
2164.044632217851
 20
1213.03062766746
 30
0.0
 10
2164.931738572529
 20
1213.006270188244
 30
0.0
 10
2165.787690679167
 20
1212.981770057782
 30
0.0
 10
2166.594749801862
 20
1212.957656400121
 30
0.0
 10
2167.342125230717
 20
1212.934185014897
 30
0.0
 10
2168.021726037839
 20
1212.911988486499
 30
0.0
 10
2168.634733728909
 20
1212.889820210737
 30
0.0
 10
2169.180820282363
 20
1212.86673575626
 30
0.0
 10
2169.657174303861
 20
1212.843030010684
 30
0.0
 10
2170.057420857518
 20
1212.818820215015
 30
0.0
 10
2170.374739119207
 20
1212.794460880126
 30
0.0
 10
2170.598262031131
 20
1212.770355074509
 30
0.0
 10
2170.725106543636
 20
1212.74976647918
 30
0.0
 10
2170.739965463173
 20
1212.737622075088
 30
0.0
 10
2170.745605314654
 20
1212.733012545086
 30
0.0
  0
SPLINE
  5
339
330
2F0
100
AcDbEntity
  8
0
  6
Continuous
 62
     7
370
    15
100
AcDbSpline
210
0.0
220
0.0
230
1.0
 70
     8
 71
     3
 72
    39
 73
    35
 74
     0
 42
0.0000000001
 43
0.0000000001
 40
0.0
 40
0.0
 40
0.0
 40
0.0
 40
0.0210442937159767
 40
0.0531395491158342
 40
0.085550373497523
 40
0.1181187259332428
 40
0.1506818892367186
 40
0.1825016731130425
 40
0.2140102405643487
 40
0.2450669801169605
 40
0.2761341071148279
 40
0.3082262476555597
 40
0.3406351803897106
 40
0.3732029201334377
 40
0.4057667680193781
 40
0.4381641415191158
 40
0.469668829885923
 40
0.5007205040539337
 40
0.531792834650357
 40
0.5633129530162434
 40
0.5957199841278998
 40
0.628287100905928
 40
0.6608516231080018
 40
0.6932509480513956
 40
0.7253273735292558
 40
0.7563740876287215
 40
0.7874516086498432
 40
0.8189755485046109
 40
0.8508048122506984
 40
0.8833712957905023
 40
0.9159364820410999
 40
0.9483377484711287
 40
0.980417335711575
 40
0.9999999999999998
 40
0.9999999999999998
 40
0.9999999999999998
 40
0.9999999999999998
 10
2151.846787052351
 20
1211.967708097885
 30
0.0
 10
2151.853330161901
 20
1211.962761232426
 30
0.0
 10
2151.869852355328
 20
1211.950269760699
 30
0.0
 10
2152.000656256618
 20
1211.929319517228
 30
0.0
 10
2152.227367797916
 20
1211.905194502917
 30
0.0
 10
2152.549375041183
 20
1211.880684660779
 30
0.0
 10
2152.955487237369
 20
1211.856334793322
 30
0.0
 10
2153.438507762816
 20
1211.832513305042
 30
0.0
 10
2153.987865001937
 20
1211.809463343396
 30
0.0
 10
2154.600300197323
 20
1211.787500585738
 30
0.0
 10
2155.278298772183
 20
1211.765372632969
 30
0.0
 10
2156.023349928489
 20
1211.742018454296
 30
0.0
 10
2156.832135838681
 20
1211.717885437533
 30
0.0
 10
2157.689445254178
 20
1211.693380269441
 30
0.0
 10
2158.582751560471
 20
1211.66888344325
 30
0.0
 10
2159.49310913365
 20
1211.644918783354
 30
0.0
 10
2160.406338237597
 20
1211.621734378719
 30
0.0
 10
2161.315013444931
 20
1211.599785929569
 30
0.0
 10
2162.223671608814
 20
1211.577778721214
 30
0.0
 10
2163.136823020019
 20
1211.5545667861
 30
0.0
 10
2164.046559385863
 20
1211.530578810592
 30
0.0
 10
2164.938691185571
 20
1211.506075256674
 30
0.0
 10
2165.79430452707
 20
1211.48157671041
 30
0.0
 10
2166.600928249836
 20
1211.457467030479
 30
0.0
 10
2167.343448036577
 20
1211.434140589216
 30
0.0
 10
2168.018957672203
 20
1211.412071102058
 30
0.0
 10
2168.628895631055
 20
1211.39004934017
 30
0.0
 10
2169.175637505851
 20
1211.366972138603
 30
0.0
 10
2169.655650503642
 20
1211.34312748541
 30
0.0
 10
2170.058405003733
 20
1211.318770884944
 30
0.0
 10
2170.376902924083
 20
1211.294267465354
 30
0.0
 10
2170.599683045858
 20
1211.270165980114
 30
0.0
 10
2170.725842753083
 20
1211.249593385429
 30
0.0
 10
2170.740312176971
 20
1211.237463259442
 30
0.0
 10
2170.7457968367
 20
1211.23286531456
 30
0.0
  0
SPLINE
  5
33A
330
2F0
100
AcDbEntity
  8
0
  6
Continuous
 62
     7
370
    15
100
AcDbSpline
210
0.0
220
0.0
230
1.0
 70
     8
 71
     3
 72
    39
 73
    35
 74
     0
 42
0.0000000001
 43
0.0000000001
 40
0.0
 40
0.0
 40
0.0
 40
0.0
 40
0.0213199067284898
 40
0.0534095867038488
 40
0.0858135268551347
 40
0.1183736735516063
 40
0.1503474959836697
 40
0.1821610665665435
 40
0.2136649762961926
 40
0.2447184859541546
 40
0.276340742582721
 40
0.3084273179365113
 40
0.3408293769276397
 40
0.3733889213699052
 40
0.4059432780833098
 40
0.4377544564138465
 40
0.4692545024867252
 40
0.5003028428561351
 40
0.5313615678615525
 40
0.5634450291986204
 40
0.5958451970538016
 40
0.6284041289697758
 40
0.660959170080502
 40
0.6933477818274186
 40
0.7248439498648828
 40
0.7558872262196064
 40
0.7869511534162862
 40
0.8184627472798407
 40
0.8508610140268132
 40
0.8834193231455662
 40
0.9159750383900586
 40
0.9483656010528736
 40
0.9804333515771512
 40
1.0
 40
1.0
 40
1.0
 40
1.0
 10
2151.846628951451
 20
1210.467729330192
 30
0.0
 10
2151.853393062064
 20
1210.462715074425
 30
0.0
 10
2151.870338180862
 20
1210.45015360633
 30
0.0
 10
2152.002076178558
 20
1210.429130486341
 30
0.0
 10
2152.229568831074
 20
1210.405000896919
 30
0.0
 10
2152.55036427313
 20
1210.380635347071
 30
0.0
 10
2152.953951151164
 20
1210.356432217612
 30
0.0
 10
2153.433296389682
 20
1210.332749391334
 30
0.0
 10
2153.982002296197
 20
1210.30969215116
 30
0.0
 10
2154.597525970897
 20
1210.287582819492
 30
0.0
 10
2155.279630321113
 20
1210.265328191231
 30
0.0
 10
2156.029547176324
 20
1210.241828803839
 30
0.0
 10
2156.838765073214
 20
1210.21769199062
 30
0.0
 10
2157.69640929827
 20
1210.193185335743
 30
0.0
 10
2158.584680508599
 20
1210.168834617004
 30
0.0
 10
2159.489533804038
 20
1210.145013351337
 30
0.0
 10
2160.397172066129
 20
1210.121963331241
 30
0.0
 10
2161.305843170687
 20
1210.100000588973
 30
0.0
 10
2162.220088295321
 20
1210.07787263207
 30
0.0
 10
2163.138781051404
 20
1210.054518454544
 30
0.0
 10
2164.053747170461
 20
1210.030385437462
 30
0.0
 10
2164.945643551906
 20
1210.005880269477
 30
0.0
 10
2165.800913566207
 20
1209.981383443179
 30
0.0
 10
2166.602383849114
 20
1209.957418783601
 30
0.0
 10
2167.340483914061
 20
1209.934234377834
 30
0.0
 10
2168.012488834948
 20
1209.91228593282
 30
0.0
 10
2168.623050742849
 20
1209.890278708992
 30
0.0
 10
2169.173808942028
 20
1209.867066832997
 30
0.0
 10
2169.65680635259
 20
1209.843078629792
 30
0.0
 10
2170.061283160371
 20
1209.818575934463
 30
0.0
 10
2170.379041002891
 20
1209.794074187101
 30
0.0
 10
2170.601176193743
 20
1209.769976354875
 30
0.0
 10
2170.726382285091
 20
1209.749413957501
 30
0.0
 10
2170.740984370748
 20
1209.737286421167
 30
0.0
 10
2170.746517772553
 20
1209.732690739906
 30
0.0
  0
SPLINE
  5
33B
330
2F0
100
AcDbEntity
  8
0
  6
Continuous
 62
     7
370
    15
100
AcDbSpline
210
0.0
220
0.0
230
1.0
 70
     8
 71
     3
 72
    39
 73
    35
 74
     0
 42
0.0000000001
 43
0.0000000001
 40
0.0
 40
0.0
 40
0.0
 40
0.0
 40
0.0215965187881137
 40
0.0536998047891819
 40
0.0861162294496893
 40
0.1181060546611802
 40
0.1500911863579767
 40
0.1819175540541452
 40
0.2134356322554318
 40
0.245064034308723
 40
0.2767008882455002
 40
0.3088010780120591
 40
0.3412156308788755
 40
0.3737864414505705
 40
0.4057707357289685
 40
0.4375947256735936
 40
0.469108953347002
 40
0.5001726334367908
 40
0.531805246769279
 40
0.5639023308974655
 40
0.5963150019880203
 40
0.6288852101082637
 40
0.6614502288005943
 40
0.6932718257093883
 40
0.7247821884606279
 40
0.7558406975688547
 40
0.7869095947141935
 40
0.819003563805775
 40
0.8514143431410095
 40
0.8839839385343502
 40
0.9165496418481529
 40
0.9489488612903478
 40
0.9804553447360655
 40
0.9999999999999998
 40
0.9999999999999998
 40
0.9999999999999998
 40
0.9999999999999998
 10
2151.846481148627
 20
1208.967742251875
 30
0.0
 10
2151.853467352598
 20
1208.962663329309
 30
0.0
 10
2151.870838568446
 20
1208.950034574042
 30
0.0
 10
2152.003504344274
 20
1208.928941431645
 30
0.0
 10
2152.230406091347
 20
1208.90495169921
 30
0.0
 10
2152.549157868117
 20
1208.88073345263
 30
0.0
 10
2152.949495442153
 20
1208.856673866828
 30
0.0
 10
2153.428092767269
 20
1208.83298610249
 30
0.0
 10
2153.979389542729
 20
1208.809782439479
 30
0.0
 10
2154.598625827644
 20
1208.787543523398
 30
0.0
 10
2155.285323327257
 20
1208.765144989781
 30
0.0
 10
2156.035749733972
 20
1208.741639638981
 30
0.0
 10
2156.845395368214
 20
1208.71749841964
 30
0.0
 10
2157.698280474993
 20
1208.693135999014
 30
0.0
 10
2158.581166620571
 20
1208.668932045174
 30
0.0
 10
2159.480386517948
 20
1208.645249436961
 30
0.0
 10
2160.388006583576
 20
1208.622192139186
 30
0.0
 10
2161.302188818293
 20
1208.600082822744
 30
0.0
 10
2162.22204872377
 20
1208.577828190338
 30
0.0
 10
2163.146095608443
 20
1208.554328804083
 30
0.0
 10
2164.060935575482
 20
1208.53019199055
 30
0.0
 10
2164.952591760444
 20
1208.50568533578
 30
0.0
 10
2165.802478762257
 20
1208.48133461693
 30
0.0
 10
2166.599167834815
 20
1208.457513351589
 30
0.0
 10
2167.333391077241
 20
1208.43446333032
 30
0.0
 10
2168.00601355219
 20
1208.412500592356
 30
0.0
 10
2168.620955797555
 20
1208.390372619259
 30
0.0
 10
2169.175117344978
 20
1208.367018504324
 30
0.0
 10
2169.660347088738
 20
1208.342885249454
 30
0.0
 10
2170.064150911826
 20
1208.318380974638
 30
0.0
 10
2170.381194662619
 20
1208.293880818019
 30
0.0
 10
2170.601286386744
 20
1208.269928411603
 30
0.0
 10
2170.725584345681
 20
1208.249515001302
 30
0.0
 10
2170.740473054378
 20
1208.237524427963
 30
0.0
 10
2170.746173116828
 20
1208.232933901125
 30
0.0
  0
SPLINE
  5
33C
330
2F0
100
AcDbEntity
  8
0
  6
Continuous
 62
     7
370
    15
100
AcDbSpline
210
0.0
220
0.0
230
1.0
 70
     8
 71
     3
 72
    31
 73
    27
 74
     0
 42
0.0000000001
 43
0.0000000001
 40
0.0
 40
0.0
 40
0.0
 40
0.0
 40
0.0296235533797355
 40
0.0731407829337691
 40
0.116294294380415
 40
0.1596525475370527
 40
0.2030065595988052
 40
0.2461474701007735
 40
0.2896436526599288
 40
0.3325074200052607
 40
0.3753939960906503
 40
0.4189070417378296
 40
0.4628445179801046
 40
0.5062037779831633
 40
0.5495566763595916
 40
0.5926943847643075
 40
0.6354142351695991
 40
0.6756015246001606
 40
0.7157157063833691
 40
0.7564002353824462
 40
0.7974934887395816
 40
0.8388209834408119
 40
0.8794643138270449
 40
0.9199869827207761
 40
0.9602196009494914
 40
1.0
 40
1.0
 40
1.0
 40
1.0
 10
2151.846342299493
 20
1207.467747878655
 30
0.0
 10
2151.853550974083
 20
1207.462606693047
 30
0.0
 10
2151.871349247528
 20
1207.449913065928
 30
0.0
 10
2152.004061463578
 20
1207.428894150749
 30
0.0
 10
2152.22957227499
 20
1207.405048963379
 30
0.0
 10
2152.545531596452
 20
1207.380977116634
 30
0.0
 10
2152.945048421406
 20
1207.356915560461
 30
0.0
 10
2153.425743707102
 20
1207.333081622157
 30
0.0
 10
2153.980315758391
 20
1207.309734361283
 30
0.0
 10
2154.603820134296
 20
1207.287371862405
 30
0.0
 10
2155.291022030453
 20
1207.264961371907
 30
0.0
 10
2156.041954119499
 20
1207.241450552128
 30
0.0
 10
2156.847182621503
 20
1207.217449328417
 30
0.0
 10
2157.694882136427
 20
1207.193233911221
 30
0.0
 10
2158.572173601653
 20
1207.169174390138
 30
0.0
 10
2159.471236596253
 20
1207.145483577926
 30
0.0
 10
2160.365204831785
 20
1207.122775141465
 30
0.0
 10
2161.245673025014
 20
1207.101410391294
 30
0.0
 10
2162.112011113284
 20
1207.080542683832
 30
0.0
 10
2162.977966845582
 20
1207.058644752819
 30
0.0
 10
2163.838068136468
 20
1207.036145176862
 30
0.0
 10
2164.67571822196
 20
1207.01337731835
 30
0.0
 10
2165.480607949332
 20
1206.990658449332
 30
0.0
 10
2166.24193660751
 20
1206.968287992439
 30
0.0
 10
2166.96031474899
 20
1206.946347684787
 30
0.0
 10
2167.39683808584
 20
1206.932232606159
 30
0.0
 10
2167.613866178585
 20
1206.925214954787
 30
0.0
  0
SPLINE
  5
33D
330
2F0
100
AcDbEntity
  8
0
  6
Continuous
 62
     7
370
    15
100
AcDbSpline
210
0.0
220
0.0
230
1.0
 70
    24
 71
     3
 72
    36
 73
    32
 74
     0
 42
0.0000000001
 43
0.0000000001
 40
0.0
 40
0.0
 40
0.0
 40
0.0
 40
0.0625000000000001
 40
0.0625000000000001
 40
0.1250000000000001
 40
0.1250000000000001
 40
0.1875000000000001
 40
0.1875000000000001
 40
0.2187500000000001
 40
0.2187500000000001
 40
0.2500000000000001
 40
0.2500000000000001
 40
0.3750000000000002
 40
0.3750000000000002
 40
0.4375000000000001
 40
0.4375000000000001
 40
0.5000000000000001
 40
0.5000000000000001
 40
0.5625000000000001
 40
0.5625000000000001
 40
0.625
 40
0.625
 40
0.6875
 40
0.6875
 40
0.75
 40
0.75
 40
0.8125
 40
0.8125
 40
0.8749999999999998
 40
0.8749999999999998
 40
1.0
 40
1.0
 40
1.0
 40
1.0
 10
2167.613866178585
 20
1206.925214954787
 30
0.0
 10
2167.277705562851
 20
1206.925214954787
 30
0.0
 10
2166.920811065005
 20
1206.925214954787
 30
0.0
 10
2166.166185432784
 20
1206.925214954787
 30
0.0
 10
2165.766289957335
 20
1206.925214954787
 30
0.0
 10
2164.945668338419
 20
1206.925214954787
 30
0.0
 10
2164.523030727653
 20
1206.925214954787
 30
0.0
 10
2163.870760788634
 20
1206.925214954787
 30
0.0
 10
2163.650273457884
 20
1206.925214954787
 30
0.0
 10
2163.203055396182
 20
1206.925214954787
 30
0.0
 10
2162.975379512575
 20
1206.925214954787
 30
0.0
 10
2161.835806186503
 20
1206.925214954787
 30
0.0
 10
2160.918371300464
 20
1206.925214954787
 30
0.0
 10
2159.533879357238
 20
1206.925214954787
 30
0.0
 10
2159.076010179419
 20
1206.925214954787
 30
0.0
 10
2158.183748549952
 20
1206.925214954787
 30
0.0
 10
2157.746758012594
 20
1206.925214954787
 30
0.0
 10
2156.891238600731
 20
1206.925214954787
 30
0.0
 10
2156.470294058612
 20
1206.925214954787
 30
0.0
 10
2155.671579043469
 20
1206.925214954787
 30
0.0
 10
2155.291173778597
 20
1206.925214954787
 30
0.0
 10
2154.567789414196
 20
1206.925214954787
 30
0.0
 10
2154.223826025233
 20
1206.925214954787
 30
0.0
 10
2153.579001771423
 20
1206.925214954787
 30
0.0
 10
2153.282978737701
 20
1206.925214954787
 30
0.0
 10
2152.74191861586
 20
1206.925214954787
 30
0.0
 10
2152.49688457564
 20
1206.925214954787
 30
0.0
 10
2152.058938972956
 20
1206.925214954787
 30
0.0
 10
2151.866839276878
 20
1206.925214954787
 30
0.0
 10
2151.387061702897
 20
1206.925214954787
 30
0.0
 10
2151.186551108761
 20
1206.925214954787
 30
0.0
 10
2151.110106040136
 20
1206.925214954787
 30
0.0
  0
SPLINE
  5
33E
330
2F0
100
AcDbEntity
  8
0
  6
Continuous
 62
     7
370
    15
100
AcDbSpline
210
0.0
220
0.0
230
1.0
 70
     8
 71
     3
 72
    32
 73
    28
 74
     0
 42
0.0000000001
 43
0.0000000001
 40
0.0
 40
0.0
 40
0.0
 40
0.0
 40
0.0347983772121797
 40
0.0696536873765541
 40
0.1046686210562038
 40
0.1462827250929404
 40
0.1881694449057447
 40
0.2229678338245761
 40
0.2578231840112426
 40
0.2928381715121881
 40
0.335823094200322
 40
0.3791086653683368
 40
0.4228598679253175
 40
0.467248900027535
 40
0.5102338861786955
 40
0.5535195388030246
 40
0.5972708832122985
 40
0.6416601236648463
 40
0.6846919142541604
 40
0.7280253659190472
 40
0.7716768161175024
 40
0.8160640887775116
 40
0.85908725042565
 40
0.9024118685316034
 40
0.9460840399258865
 40
0.9904725186626066
 40
1.0
 40
1.0
 40
1.0
 40
1.0
 10
2157.664704501445
 20
1218.225214954788
 30
0.0
 10
2157.880185683691
 20
1218.219722755359
 30
0.0
 10
2158.311500592778
 20
1218.208729370819
 30
0.0
 10
2158.977637238505
 20
1218.192322724891
 30
0.0
 10
2159.697149942557
 20
1218.175048010841
 30
0.0
 10
2160.471805609187
 20
1218.156962463507
 30
0.0
 10
2161.25005550767
 20
1218.139514483631
 30
0.0
 10
2161.983766115026
 20
1218.123111628573
 30
0.0
 10
2162.669165745283
 20
1218.107237924895
 30
0.0
 10
2163.401391519907
 20
1218.089851895173
 30
0.0
 10
2164.176324048741
 20
1218.07088032174
 30
0.0
 10
2164.986903950852
 20
1218.05036293459
 30
0.0
 10
2165.779947867513
 20
1218.029583199437
 30
0.0
 10
2166.538909430986
 20
1218.008954993963
 30
0.0
 10
2167.257778030465
 20
1217.988672277509
 30
0.0
 10
2167.931469227153
 20
1217.968822307043
 30
0.0
 10
2168.565136315335
 20
1217.949517116733
 30
0.0
 10
2169.145203689697
 20
1217.930093012597
 30
0.0
 10
2169.667402283725
 20
1217.910076822968
 30
0.0
 10
2170.128059989392
 20
1217.889839047102
 30
0.0
 10
2170.530559474265
 20
1217.869147886381
 30
0.0
 10
2170.865807324841
 20
1217.848421557626
 30
0.0
 10
2171.131565075586
 20
1217.82780972961
 30
0.0
 10
2171.328623097105
 20
1217.807521701847
 30
0.0
 10
2171.450190889181
 20
1217.787352798121
 30
0.0
 10
2171.503009451246
 20
1217.772805709233
 30
0.0
 10
2171.49244505882
 20
1217.764855717116
 30
0.0
 10
2171.490578226595
 20
1217.763450875184
 30
0.0
  0
SPLINE
  5
33F
330
2F0
100
AcDbEntity
  8
0
  6
Continuous
 62
     7
370
    15
100
AcDbSpline
210
0.0
220
0.0
230
1.0
 70
     8
 71
     3
 72
    47
 73
    43
 74
     0
 42
0.0000000001
 43
0.0000000001
 40
0.0
 40
0.0
 40
0.0
 40
0.0
 40
0.0206350326574155
 40
0.047323727619361
 40
0.0742082921629465
 40
0.1015460717186516
 40
0.1280487948292319
 40
0.1547372897189855
 40
0.1816216297342804
 40
0.2089591489117146
 40
0.2354328829931109
 40
0.2621401206051035
 40
0.2890375245655739
 40
0.3163760998304252
 40
0.3428788113136883
 40
0.3695672985663401
 40
0.3964516289749857
 40
0.4237891290395408
 40
0.4427364536346359
 40
0.4617512578312453
 40
0.4808428961449691
 40
0.50000358151053
 40
0.5214354797304737
 40
0.5429024596922063
 40
0.5644677583054062
 40
0.5909416416277943
 40
0.6176006906380485
 40
0.6445465162734966
 40
0.6718851732531506
 40
0.6983590956616332
 40
0.7250181948398275
 40
0.7519641078403517
 40
0.7793028931404033
 40
0.8058056418246401
 40
0.8324941798419313
 40
0.8593785692310015
 40
0.8867161425919167
 40
0.9132135768177898
 40
0.9398966743551657
 40
0.966793825672987
 40
0.9941321418416613
 40
1.0
 40
1.0
 40
1.0
 40
1.0
 10
2151.102765094436
 20
1217.013450875184
 30
0.0
 10
2151.104456942487
 20
1217.008533261521
 30
0.0
 10
2151.108336973002
 20
1216.997255362748
 30
0.0
 10
2151.198996935026
 20
1216.97893043043
 30
0.0
 10
2151.36133427481
 20
1216.958588945843
 30
0.0
 10
2151.597081756408
 20
1216.937997167404
 30
0.0
 10
2151.900749994377
 20
1216.917331739756
 30
0.0
 10
2152.26867081444
 20
1216.896798430078
 30
0.0
 10
2152.704723674066
 20
1216.876211375663
 30
0.0
 10
2153.201471437413
 20
1216.856001756934
 30
0.0
 10
2153.75473518291
 20
1216.836250860795
 30
0.0
 10
2154.357813924335
 20
1216.817346426267
 30
0.0
 10
2155.016901052879
 20
1216.797550187773
 30
0.0
 10
2155.719568666341
 20
1216.777354291659
 30
0.0
 10
2156.460083936837
 20
1216.756885644541
 30
0.0
 10
2157.230313925128
 20
1216.736360712973
 30
0.0
 10
2158.037542209274
 20
1216.715591895793
 30
0.0
 10
2158.788907370184
 20
1216.696916768216
 30
0.0
 10
2159.471304921439
 20
1216.680438676277
 30
0.0
 10
2160.074073422043
 20
1216.666231467903
 30
0.0
 10
2160.68348386562
 20
1216.652182313086
 30
0.0
 10
2161.320922804507
 20
1216.63794027729
 30
0.0
 10
2161.983770954444
 20
1216.623108682507
 30
0.0
 10
2162.669164449934
 20
1216.607238713458
 30
0.0
 10
2163.401391956659
 20
1216.589851629295
 30
0.0
 10
2164.176323920833
 20
1216.570880399606
 30
0.0
 10
2164.986903985624
 20
1216.550362913422
 30
0.0
 10
2165.779947857993
 20
1216.529583205233
 30
0.0
 10
2166.538909433462
 20
1216.508954992455
 30
0.0
 10
2167.257778029807
 20
1216.48867227791
 30
0.0
 10
2167.931469227333
 20
1216.468822306934
 30
0.0
 10
2168.565136315286
 20
1216.449517116763
 30
0.0
 10
2169.14520368971
 20
1216.430093012589
 30
0.0
 10
2169.667402283723
 20
1216.41007682297
 30
0.0
 10
2170.128059989393
 20
1216.389839047102
 30
0.0
 10
2170.530559474265
 20
1216.369147886381
 30
0.0
 10
2170.865807324841
 20
1216.348421557626
 30
0.0
 10
2171.131565075587
 20
1216.32780972961
 30
0.0
 10
2171.328623097105
 20
1216.307521701847
 30
0.0
 10
2171.450190889181
 20
1216.287352798121
 30
0.0
 10
2171.503009451247
 20
1216.272805709233
 30
0.0
 10
2171.49244505882
 20
1216.264855717116
 30
0.0
 10
2171.490578226595
 20
1216.263450875184
 30
0.0
  0
SPLINE
  5
340
330
2F0
100
AcDbEntity
  8
0
  6
Continuous
 62
     7
370
    15
100
AcDbSpline
210
0.0
220
0.0
230
1.0
 70
     8
 71
     3
 72
    48
 73
    44
 74
     0
 42
0.0000000001
 43
0.0000000001
 40
0.0
 40
0.0
 40
0.0
 40
0.0
 40
0.0206347985755166
 40
0.0473231907833772
 40
0.0742074503509534
 40
0.1015449197894201
 40
0.1280473422555648
 40
0.1547355343935051
 40
0.1816195694353376
 40
0.2089567784984871
 40
0.2354302122642968
 40
0.2621371469118601
 40
0.2890342457506717
 40
0.3163725108892575
 40
0.3428749217282166
 40
0.3695631062291413
 40
0.3964471316644331
 40
0.4237843216149199
 40
0.4427314312733119
 40
0.4617460197677381
 40
0.4808374415076796
 40
0.499997909516193
 40
0.5214295646146687
 40
0.5428963010569693
 40
0.5644613550354193
 40
0.5847736979148004
 40
0.6051692570113244
 40
0.6270012913163329
 40
0.6489367641079324
 40
0.6718888953573191
 40
0.6983625174480788
 40
0.7250213142079204
 40
0.7519669215365045
 40
0.7793053967079078
 40
0.8058078447474182
 40
0.8324960800124062
 40
0.8593801644274552
 40
0.8867174276734706
 40
0.9132145613149045
 40
0.9398973561616939
 40
0.9667942023607224
 40
0.9941322084060713
 40
1.0
 40
1.0
 40
1.0
 40
1.0
 10
2151.102765094436
 20
1215.513450875184
 30
0.0
 10
2151.104456942487
 20
1215.508533261521
 30
0.0
 10
2151.108336973002
 20
1215.497255362748
 30
0.0
 10
2151.198996935026
 20
1215.47893043043
 30
0.0
 10
2151.36133427481
 20
1215.458588945843
 30
0.0
 10
2151.597081756408
 20
1215.437997167404
 30
0.0
 10
2151.900749994377
 20
1215.417331739756
 30
0.0
 10
2152.268670814439
 20
1215.396798430078
 30
0.0
 10
2152.704723674066
 20
1215.376211375663
 30
0.0
 10
2153.201471437413
 20
1215.356001756934
 30
0.0
 10
2153.754735182911
 20
1215.336250860795
 30
0.0
 10
2154.357813924334
 20
1215.317346426267
 30
0.0
 10
2155.016901052883
 20
1215.297550187773
 30
0.0
 10
2155.719568666327
 20
1215.277354291659
 30
0.0
 10
2156.460083936889
 20
1215.25688564454
 30
0.0
 10
2157.23031392493
 20
1215.236360712976
 30
0.0
 10
2158.037542210026
 20
1215.215591895781
 30
0.0
 10
2158.788907367698
 20
1215.196916768256
 30
0.0
 10
2159.47130492762
 20
1215.180438676178
 30
0.0
 10
2160.074073398559
 20
1215.166231468279
 30
0.0
 10
2160.683483953854
 20
1215.152182311674
 30
0.0
 10
2161.320922457338
 20
1215.137940282847
 30
0.0
 10
2161.983772423023
 20
1215.123108659001
 30
0.0
 10
2162.669158968992
 20
1215.107238801186
 30
0.0
 10
2163.336504368359
 20
1215.091392570548
 30
0.0
 10
2163.983733896941
 20
1215.07560878102
 30
0.0
 10
2164.62249389276
 20
1215.059630045534
 30
0.0
 10
2165.2631057898
 20
1215.043167236133
 30
0.0
 10
2165.910200005742
 20
1215.02605696771
 30
0.0
 10
2166.578073836878
 20
1215.007849726297
 30
0.0
 10
2167.257783443103
 20
1214.988672197073
 30
0.0
 10
2167.931467755742
 20
1214.968822328909
 30
0.0
 10
2168.565136718216
 20
1214.949517110746
 30
0.0
 10
2169.145203584802
 20
1214.930093014156
 30
0.0
 10
2169.667402311671
 20
1214.910076822553
 30
0.0
 10
2170.128059981824
 20
1214.889839047215
 30
0.0
 10
2170.53055947634
 20
1214.86914788635
 30
0.0
 10
2170.8658073243
 20
1214.848421557634
 30
0.0
 10
2171.131565075731
 20
1214.827809729607
 30
0.0
 10
2171.328623097066
 20
1214.807521701848
 30
0.0
 10
2171.450190889192
 20
1214.787352798121
 30
0.0
 10
2171.503009451246
 20
1214.772805709233
 30
0.0
 10
2171.49244505882
 20
1214.764855717116
 30
0.0
 10
2171.490578226595
 20
1214.763450875184
 30
0.0
  0
SPLINE
  5
341
330
2F0
100
AcDbEntity
  8
0
  6
Continuous
 62
     7
370
    15
100
AcDbSpline
210
0.0
220
0.0
230
1.0
 70
     8
 71
     3
 72
    48
 73
    44
 74
     0
 42
0.0000000001
 43
0.0000000001
 40
0.0
 40
0.0
 40
0.0
 40
0.0
 40
0.0206347985755168
 40
0.0473231907833791
 40
0.074207450350955
 40
0.1015449197894215
 40
0.128047342255566
 40
0.154735534393506
 40
0.1816195694353384
 40
0.2089567784984877
 40
0.2354302122642972
 40
0.2621371469118605
 40
0.2890342457506722
 40
0.3163725108892582
 40
0.3428749217282176
 40
0.3695631062291424
 40
0.3964471316644324
 40
0.4237843216149194
 40
0.4427314312733116
 40
0.4617460197677378
 40
0.4808374415076796
 40
0.4999979095161932
 40
0.5214295646146685
 40
0.5428963010569689
 40
0.5644613550354189
 40
0.5847736979147998
 40
0.6051692570113238
 40
0.627001291316332
 40
0.6489367641079314
 40
0.671888895357318
 40
0.6983625174480773
 40
0.7250213142079208
 40
0.7519669215365045
 40
0.7793053967079081
 40
0.8058078447474187
 40
0.8324960800124069
 40
0.8593801644274563
 40
0.8867174276734719
 40
0.9132145613149059
 40
0.9398973561616935
 40
0.9667942023607222
 40
0.9941322084060711
 40
1.0
 40
1.0
 40
1.0
 40
1.0
 10
2151.102765094436
 20
1214.013450875184
 30
0.0
 10
2151.104456942487
 20
1214.008533261521
 30
0.0
 10
2151.108336973002
 20
1213.997255362748
 30
0.0
 10
2151.198996935026
 20
1213.97893043043
 30
0.0
 10
2151.36133427481
 20
1213.958588945843
 30
0.0
 10
2151.597081756408
 20
1213.937997167404
 30
0.0
 10
2151.900749994377
 20
1213.917331739756
 30
0.0
 10
2152.26867081444
 20
1213.896798430078
 30
0.0
 10
2152.704723674066
 20
1213.876211375663
 30
0.0
 10
2153.201471437413
 20
1213.856001756934
 30
0.0
 10
2153.754735182911
 20
1213.836250860795
 30
0.0
 10
2154.357813924334
 20
1213.817346426267
 30
0.0
 10
2155.016901052883
 20
1213.797550187773
 30
0.0
 10
2155.719568666327
 20
1213.777354291659
 30
0.0
 10
2156.460083936889
 20
1213.75688564454
 30
0.0
 10
2157.23031392493
 20
1213.736360712976
 30
0.0
 10
2158.037542210026
 20
1213.715591895781
 30
0.0
 10
2158.788907367698
 20
1213.696916768256
 30
0.0
 10
2159.47130492762
 20
1213.680438676178
 30
0.0
 10
2160.074073398559
 20
1213.666231468279
 30
0.0
 10
2160.683483953854
 20
1213.652182311674
 30
0.0
 10
2161.320922457338
 20
1213.637940282847
 30
0.0
 10
2161.983772423023
 20
1213.623108659001
 30
0.0
 10
2162.669158968992
 20
1213.607238801186
 30
0.0
 10
2163.336504368359
 20
1213.591392570548
 30
0.0
 10
2163.983733896941
 20
1213.57560878102
 30
0.0
 10
2164.62249389276
 20
1213.559630045534
 30
0.0
 10
2165.2631057898
 20
1213.543167236133
 30
0.0
 10
2165.910200005742
 20
1213.526056967711
 30
0.0
 10
2166.578073836878
 20
1213.507849726297
 30
0.0
 10
2167.257783443103
 20
1213.488672197073
 30
0.0
 10
2167.931467755742
 20
1213.468822328909
 30
0.0
 10
2168.565136718216
 20
1213.449517110746
 30
0.0
 10
2169.145203584802
 20
1213.430093014156
 30
0.0
 10
2169.667402311671
 20
1213.410076822553
 30
0.0
 10
2170.128059981824
 20
1213.389839047215
 30
0.0
 10
2170.53055947634
 20
1213.369147886351
 30
0.0
 10
2170.8658073243
 20
1213.348421557634
 30
0.0
 10
2171.131565075731
 20
1213.327809729608
 30
0.0
 10
2171.328623097066
 20
1213.307521701848
 30
0.0
 10
2171.450190889192
 20
1213.287352798121
 30
0.0
 10
2171.503009451246
 20
1213.272805709233
 30
0.0
 10
2171.49244505882
 20
1213.264855717116
 30
0.0
 10
2171.490578226595
 20
1213.263450875184
 30
0.0
  0
SPLINE
  5
342
330
2F0
100
AcDbEntity
  8
0
  6
Continuous
 62
     7
370
    15
100
AcDbSpline
210
0.0
220
0.0
230
1.0
 70
     8
 71
     3
 72
    47
 73
    43
 74
     0
 42
0.0000000001
 43
0.0000000001
 40
0.0
 40
0.0
 40
0.0
 40
0.0
 40
0.0206350326562438
 40
0.0473237276166702
 40
0.0742082921587274
 40
0.1015460717128796
 40
0.1280487948219533
 40
0.1547372897101887
 40
0.1816216297239553
 40
0.2089591488998366
 40
0.235432882979729
 40
0.2621401205902033
 40
0.2890375245491436
 40
0.3163760998124405
 40
0.3428803053104602
 40
0.3695703182558337
 40
0.3964516290092966
 40
0.4237891290722975
 40
0.4427364536663073
 40
0.4617512578618288
 40
0.4808428961744605
 40
0.5000035815389254
 40
0.5214354797576504
 40
0.5429024597181636
 40
0.5644677583301362
 40
0.5909416416510193
 40
0.6176006906597581
 40
0.6445465162936744
 40
0.6718851732717744
 40
0.6983590956787521
 40
0.7250181948554304
 40
0.7519641078544232
 40
0.7793028931529201
 40
0.80580564183565
 40
0.8324941798514245
 40
0.8593785692389671
 40
0.886716142598328
 40
0.9132135768226946
 40
0.9398966743585527
 40
0.9667938256748451
 40
0.9941321418419658
 40
1.0
 40
1.0
 40
1.0
 40
1.0
 10
2151.102765094436
 20
1212.513450875184
 30
0.0
 10
2151.104456942487
 20
1212.508533261521
 30
0.0
 10
2151.108336973002
 20
1212.497255362748
 30
0.0
 10
2151.198996935026
 20
1212.47893043043
 30
0.0
 10
2151.36133427481
 20
1212.458588945843
 30
0.0
 10
2151.597081756408
 20
1212.437997167404
 30
0.0
 10
2151.900749994377
 20
1212.417331739756
 30
0.0
 10
2152.268670814438
 20
1212.396798430078
 30
0.0
 10
2152.704723674073
 20
1212.376211375663
 30
0.0
 10
2153.201471437385
 20
1212.356001756935
 30
0.0
 10
2153.75473518301
 20
1212.336250860793
 30
0.0
 10
2154.357813923958
 20
1212.317346426276
 30
0.0
 10
2155.016901054308
 20
1212.29755018774
 30
0.0
 10
2155.719581663384
 20
1212.277353918069
 30
0.0
 10
2156.460125827204
 20
1212.256884493835
 30
0.0
 10
2157.230358603417
 20
1212.236359550096
 30
0.0
 10
2158.03757319534
 20
1212.215591125666
 30
0.0
 10
2158.788907374202
 20
1212.196916768111
 30
0.0
 10
2159.471304920528
 20
1212.180438676301
 30
0.0
 10
2160.074073422288
 20
1212.166231467897
 30
0.0
 10
2160.683483865553
 20
1212.152182313088
 30
0.0
 10
2161.320922804526
 20
1212.13794027729
 30
0.0
 10
2161.983770954437
 20
1212.123108682507
 30
0.0
 10
2162.669164449935
 20
1212.107238713458
 30
0.0
 10
2163.401391956658
 20
1212.089851629295
 30
0.0
 10
2164.176323920832
 20
1212.070880399606
 30
0.0
 10
2164.986903985623
 20
1212.050362913422
 30
0.0
 10
2165.779947857991
 20
1212.029583205233
 30
0.0
 10
2166.538909433461
 20
1212.008954992455
 30
0.0
 10
2167.257778029805
 20
1211.98867227791
 30
0.0
 10
2167.931469227332
 20
1211.968822306934
 30
0.0
 10
2168.565136315286
 20
1211.949517116763
 30
0.0
 10
2169.14520368971
 20
1211.930093012589
 30
0.0
 10
2169.667402283722
 20
1211.91007682297
 30
0.0
 10
2170.128059989393
 20
1211.889839047102
 30
0.0
 10
2170.530559474265
 20
1211.869147886381
 30
0.0
 10
2170.865807324841
 20
1211.848421557626
 30
0.0
 10
2171.131565075586
 20
1211.82780972961
 30
0.0
 10
2171.328623097105
 20
1211.807521701847
 30
0.0
 10
2171.450190889181
 20
1211.787352798121
 30
0.0
 10
2171.503009451246
 20
1211.772805709233
 30
0.0
 10
2171.49244505882
 20
1211.764855717116
 30
0.0
 10
2171.490578226595
 20
1211.763450875184
 30
0.0
  0
SPLINE
  5
343
330
2F0
100
AcDbEntity
  8
0
  6
Continuous
 62
     7
370
    15
100
AcDbSpline
210
0.0
220
0.0
230
1.0
 70
     8
 71
     3
 72
    48
 73
    44
 74
     0
 42
0.0000000001
 43
0.0000000001
 40
0.0
 40
0.0
 40
0.0
 40
0.0
 40
0.0206347985398696
 40
0.047323190701624
 40
0.0742074502227555
 40
0.1015449196139957
 40
0.1280473420343555
 40
0.1547355341261888
 40
0.1816195691215773
 40
0.2089567781375006
 40
0.2354302118575764
 40
0.2621371464590016
 40
0.2890342452513455
 40
0.3163725103427027
 40
0.342876415135189
 40
0.3695661252669373
 40
0.3964471310363904
 40
0.4237843209396514
 40
0.4427314305653109
 40
0.4617460190268871
 40
0.480837440733846
 40
0.4999979087092594
 40
0.5214295637707102
 40
0.5428963001759265
 40
0.5644613541171202
 40
0.5909349370764935
 40
0.6175936836229106
 40
0.6445392035408588
 40
0.671877550346092
 40
0.6921899268836983
 40
0.7125855230969073
 40
0.7344176157730839
 40
0.756353165802195
 40
0.779305397089174
 40
0.8058078450828997
 40
0.8324960803017829
 40
0.859380164670387
 40
0.8867174278691754
 40
0.9132145614648337
 40
0.9398973562655257
 40
0.9667942024180881
 40
0.9941322084162086
 40
1.0
 40
1.0
 40
1.0
 40
1.0
 10
2151.102765094436
 20
1211.013450875183
 30
0.0
 10
2151.104456942487
 20
1211.008533261521
 30
0.0
 10
2151.108336973002
 20
1210.997255362748
 30
0.0
 10
2151.198996935026
 20
1210.978930430431
 30
0.0
 10
2151.36133427481
 20
1210.958588945843
 30
0.0
 10
2151.597081756408
 20
1210.937997167404
 30
0.0
 10
2151.900749994377
 20
1210.917331739756
 30
0.0
 10
2152.268670814438
 20
1210.896798430078
 30
0.0
 10
2152.704723674073
 20
1210.876211375663
 30
0.0
 10
2153.201471437385
 20
1210.856001756935
 30
0.0
 10
2153.75473518301
 20
1210.836250860793
 30
0.0
 10
2154.357813923958
 20
1210.817346426276
 30
0.0
 10
2155.016901054308
 20
1210.797550187741
 30
0.0
 10
2155.719581663384
 20
1210.777353918069
 30
0.0
 10
2156.460125827204
 20
1210.756884493836
 30
0.0
 10
2157.230358603416
 20
1210.736359550096
 30
0.0
 10
2158.037573195343
 20
1210.715591125666
 30
0.0
 10
2158.78890737419
 20
1210.69691676811
 30
0.0
 10
2159.471304920559
 20
1210.680438676303
 30
0.0
 10
2160.074073422171
 20
1210.666231467886
 30
0.0
 10
2160.68348386599
 20
1210.652182313127
 30
0.0
 10
2161.320922802804
 20
1210.637940277134
 30
0.0
 10
2161.98377096172
 20
1210.623108683164
 30
0.0
 10
2162.669164422753
 20
1210.607238711008
 30
0.0
 10
2163.401392068395
 20
1210.589851639366
 30
0.0
 10
2164.176323395395
 20
1210.570880352248
 30
0.0
 10
2164.986905957352
 20
1210.550363091136
 30
0.0
 10
2165.779940370729
 20
1210.529582530396
 30
0.0
 10
2166.48103113966
 20
1210.510531064442
 30
0.0
 10
2167.092436163887
 20
1210.493345177048
 30
0.0
 10
2167.630144916431
 20
1210.477774317533
 30
0.0
 10
2168.153668291832
 20
1210.462054419647
 30
0.0
 10
2168.665140424133
 20
1210.44626481535
 30
0.0
 10
2169.173631489878
 20
1210.428986783919
 30
0.0
 10
2169.667406631512
 20
1210.410081399004
 30
0.0
 10
2170.128058811989
 20
1210.389837807888
 30
0.0
 10
2170.530559796993
 20
1210.369148226051
 30
0.0
 10
2170.865807240749
 20
1210.34842146912
 30
0.0
 10
2171.131565097992
 20
1210.327809753192
 30
0.0
 10
2171.328623091016
 20
1210.307521695438
 30
0.0
 10
2171.450190890914
 20
1210.287352799945
 30
0.0
 10
2171.503009451173
 20
1210.272805709156
 30
0.0
 10
2171.492445058808
 20
1210.264855717104
 30
0.0
 10
2171.490578226595
 20
1210.263450875183
 30
0.0
  0
SPLINE
  5
344
330
2F0
100
AcDbEntity
  8
0
  6
Continuous
 62
     7
370
    15
100
AcDbSpline
210
0.0
220
0.0
230
1.0
 70
     8
 71
     3
 72
    48
 73
    44
 74
     0
 42
0.0000000001
 43
0.0000000001
 40
0.0
 40
0.0
 40
0.0
 40
0.0
 40
0.0206347985180731
 40
0.0473231906516363
 40
0.0742074501443697
 40
0.1015449195067331
 40
0.1280488359049482
 40
0.154738553651779
 40
0.1816195689866636
 40
0.2089567779737104
 40
0.2354302116658221
 40
0.2621371462390365
 40
0.2890342450029688
 40
0.3163725100654483
 40
0.3428764148299392
 40
0.3695661249334949
 40
0.3964471306745535
 40
0.4237843205489369
 40
0.4427314301544854
 40
0.4617460185958766
 40
0.4808374402825685
 40
0.4999979082376396
 40
0.5214295632764526
 40
0.5428962996589926
 40
0.5644613535774075
 40
0.5909349365088161
 40
0.6176419985314671
 40
0.6445392036787631
 40
0.6718775504551188
 40
0.6921899269712686
 40
0.7125855231629341
 40
0.7344176158160493
 40
0.7563531658219898
 40
0.7793053970847235
 40
0.8058078450504545
 40
0.8324960802411464
 40
0.8593801645813526
 40
0.8867174277512642
 40
0.9132205378532555
 40
0.9399094358541439
 40
0.9667942024527633
 40
0.9941322084220061
 40
1.0
 40
1.0
 40
1.0
 40
1.0
 10
2151.102765094436
 20
1209.513450875183
 30
0.0
 10
2151.104456942508
 20
1209.508533261521
 30
0.0
 10
2151.108336973067
 20
1209.497255362746
 30
0.0
 10
2151.198996934672
 20
1209.478930430442
 30
0.0
 10
2151.361334276143
 20
1209.458588945798
 30
0.0
 10
2151.597086114515
 20
1209.437996786472
 30
0.0
 10
2151.900767663383
 20
1209.417330579678
 30
0.0
 10
2152.268694038834
 20
1209.396797273934
 30
0.0
 10
2152.704742252159
 20
1209.376210619886
 30
0.0
 10
2153.201471440104
 20
1209.356001756811
 30
0.0
 10
2153.754735182284
 20
1209.336250860826
 30
0.0
 10
2154.357813924155
 20
1209.317346426266
 30
0.0
 10
2155.016901054254
 20
1209.297550187743
 30
0.0
 10
2155.719581663397
 20
1209.277353918068
 30
0.0
 10
2156.460125827201
 20
1209.256884493836
 30
0.0
 10
2157.230358603416
 20
1209.236359550096
 30
0.0
 10
2158.037573195346
 20
1209.215591125666
 30
0.0
 10
2158.78890737418
 20
1209.19691676811
 30
0.0
 10
2159.471304920578
 20
1209.180438676303
 30
0.0
 10
2160.074073422078
 20
1209.166231467889
 30
0.0
 10
2160.683483866305
 20
1209.152182313119
 30
0.0
 10
2161.320922801519
 20
1209.137940277169
 30
0.0
 10
2161.983770967099
 20
1209.123108683017
 30
0.0
 10
2162.669164402618
 20
1209.107238711556
 30
0.0
 10
2163.401392151103
 20
1209.089851637117
 30
0.0
 10
2164.176824244503
 20
1209.070868091891
 30
0.0
 10
2164.987390326092
 20
1209.050350617058
 30
0.0
 10
2165.780394028485
 20
1209.029570201745
 30
0.0
 10
2166.481031222406
 20
1209.010531062375
 30
0.0
 10
2167.092436144484
 20
1208.993345177533
 30
0.0
 10
2167.630144922034
 20
1208.977774317393
 30
0.0
 10
2168.153668290268
 20
1208.962054419686
 30
0.0
 10
2168.665140424567
 20
1208.946264815339
 30
0.0
 10
2169.173631489699
 20
1208.928986783925
 30
0.0
 10
2169.667406631683
 20
1208.910081398992
 30
0.0
 10
2170.128058811456
 20
1208.889837807931
 30
0.0
 10
2170.530559798942
 20
1208.869148225891
 30
0.0
 10
2170.865832055714
 20
1208.848419935076
 30
0.0
 10
2171.13162219478
 20
1208.827805131096
 30
0.0
 10
2171.32865680793
 20
1208.807517153843
 30
0.0
 10
2171.450200685042
 20
1208.787349875757
 30
0.0
 10
2171.503009486022
 20
1208.772805709177
 30
0.0
 10
2171.492445064041
 20
1208.764855717108
 30
0.0
 10
2171.490578226595
 20
1208.763450875183
 30
0.0
  0
SPLINE
  5
345
330
2F0
100
AcDbEntity
  8
0
  6
Continuous
 62
     7
370
    15
100
AcDbSpline
210
0.0
220
0.0
230
1.0
 70
     8
 71
     3
 72
    47
 73
    43
 74
     0
 42
0.0000000001
 43
0.0000000001
 40
0.0
 40
0.0
 40
0.0
 40
0.0
 40
0.0206350326276575
 40
0.0473237275511123
 40
0.0742082920559275
 40
0.1015460715722083
 40
0.1280502886673686
 40
0.1547403092191302
 40
0.1816216295292894
 40
0.2089591486672997
 40
0.2354567878239311
 40
0.2621401206129679
 40
0.2890375245346483
 40
0.3163760997600728
 40
0.3428803052213758
 40
0.369570318129776
 40
0.3964516288460007
 40
0.4237891288711312
 40
0.4427364534388939
 40
0.4617512576080742
 40
0.4808428958942589
 40
0.5000035812321802
 40
0.5214354794212163
 40
0.5429024593519908
 40
0.5644677579340897
 40
0.5909416412182982
 40
0.617649006242658
 40
0.6445465165489082
 40
0.6718851734891361
 40
0.6983590958594391
 40
0.7250181949991874
 40
0.7519641079608514
 40
0.7793028932214768
 40
0.8058056418674929
 40
0.8324941798462957
 40
0.8593785691965953
 40
0.8867161425180853
 40
0.9132195533078734
 40
0.9399087541043927
 40
0.966793825720846
 40
0.9941321418500946
 40
1.0
 40
1.0
 40
1.0
 40
1.0
 10
2151.102765094436
 20
1208.013450875184
 30
0.0
 10
2151.10445694251
 20
1208.008533261521
 30
0.0
 10
2151.108336973077
 20
1207.997255362747
 30
0.0
 10
2151.198996934617
 20
1207.978930430438
 30
0.0
 10
2151.361334276352
 20
1207.958588945814
 30
0.0
 10
2151.59708611373
 20
1207.937996786411
 30
0.0
 10
2151.900767666221
 20
1207.9173305799
 30
0.0
 10
2152.268694028119
 20
1207.896797273095
 30
0.0
 10
2152.704742292748
 20
1207.876210623065
 30
0.0
 10
2153.201618443446
 20
1207.855995758022
 30
0.0
 10
2153.754908481458
 20
1207.836245101064
 30
0.0
 10
2154.358008437794
 20
1207.817340638651
 30
0.0
 10
2155.016901090737
 20
1207.797550171639
 30
0.0
 10
2155.719581653891
 20
1207.777353922265
 30
0.0
 10
2156.460125829733
 20
1207.756884492718
 30
0.0
 10
2157.230358602731
 20
1207.736359550399
 30
0.0
 10
2158.037573195533
 20
1207.715591125582
 30
0.0
 10
2158.788907374159
 20
1207.696916768126
 30
0.0
 10
2159.471304920558
 20
1207.680438676297
 30
0.0
 10
2160.074073422199
 20
1207.6662314679
 30
0.0
 10
2160.683483865877
 20
1207.652182313079
 30
0.0
 10
2161.320922803252
 20
1207.637940277324
 30
0.0
 10
2161.983770959825
 20
1207.623108682361
 30
0.0
 10
2162.669164429826
 20
1207.607238714005
 30
0.0
 10
2163.40139203932
 20
1207.589851627047
 30
0.0
 10
2164.17682477064
 20
1207.570868139279
 30
0.0
 10
2164.987388350866
 20
1207.550350439147
 30
0.0
 10
2165.780401504308
 20
1207.529570875095
 30
0.0
 10
2166.538909542046
 20
1207.508954989569
 30
0.0
 10
2167.257778000895
 20
1207.488672278679
 30
0.0
 10
2167.931469235189
 20
1207.468822306725
 30
0.0
 10
2168.565136313144
 20
1207.44951711682
 30
0.0
 10
2169.145203690233
 20
1207.430093012577
 30
0.0
 10
2169.667402283709
 20
1207.410076822963
 30
0.0
 10
2170.128059988918
 20
1207.389839047143
 30
0.0
 10
2170.530559476208
 20
1207.369147886224
 30
0.0
 10
2170.865832139834
 20
1207.348420023603
 30
0.0
 10
2171.131622172368
 20
1207.327805107506
 30
0.0
 10
2171.328656814019
 20
1207.30751716025
 30
0.0
 10
2171.45020068331
 20
1207.287349873933
 30
0.0
 10
2171.503009486096
 20
1207.272805709254
 30
0.0
 10
2171.492445064053
 20
1207.264855717119
 30
0.0
 10
2171.490578226595
 20
1207.263450875184
 30
0.0
  0
SPLINE
  5
346
330
2F0
100
AcDbEntity
  8
0
  6
Continuous
 62
     7
370
    15
100
AcDbSpline
210
0.0
220
0.0
230
1.0
 70
    24
 71
     3
 72
    18
 73
    14
 74
     0
 42
0.0000000001
 43
0.0000000001
 40
0.0
 40
0.0
 40
0.0
 40
0.0
 40
0.0822689753113245
 40
0.1646482818510895
 40
0.2469223190389478
 40
0.3422534990887832
 40
0.4382514321488659
 40
0.5352820651349937
 40
0.6337272971571903
 40
0.7290573622647196
 40
0.8250540892972894
 40
0.9220823820748805
 40
1.0
 40
1.0
 40
1.0
 40
1.0
 10
2167.613866178585
 20
1206.925214954787
 30
0.0
 10
2167.786773712029
 20
1206.925214954787
 30
0.0
 10
2168.132820665855
 20
1206.925214954787
 30
0.0
 10
2168.60825624097
 20
1206.925214954787
 30
0.0
 10
2169.072518622832
 20
1206.925214954787
 30
0.0
 10
2169.51353515065
 20
1206.925214954787
 30
0.0
 10
2169.92206524649
 20
1206.925214954787
 30
0.0
 10
2170.274497266272
 20
1206.925214954787
 30
0.0
 10
2170.562331535851
 20
1206.925214954787
 30
0.0
 10
2170.784721489941
 20
1206.925214954787
 30
0.0
 10
2170.938625487405
 20
1206.925214954787
 30
0.0
 10
2171.027509522941
 20
1206.925214954787
 30
0.0
 10
2171.031952447135
 20
1206.925214954787
 30
0.0
 10
2171.033931242
 20
1206.925214954787
 30
0.0
  0
LINE
  5
347
330
2F0
100
AcDbEntity
  8
0
  6
Continuous
 62
     7
370
    15
100
AcDbLine
 10
2171.496671660515
 20
1218.225214954787
 30
0.0
 11
2171.496671660515
 21
1218.186950983499
 31
0.0
  0
LINE
  5
348
330
2F0
100
AcDbEntity
  8
0
  6
Continuous
 62
     8
370
    15
100
AcDbLine
 10
2173.546671660515
 20
1219.436796662873
 30
0.0
 11
2149.046671660515
 21
1219.436796662873
 31
0.0
  0
ENDBLK
  5
2F2
330
2F0
100
AcDbEntity
  8
0
100
AcDbBlockEnd
  0
BLOCK
  5
34B
330
34A
100
AcDbEntity
  8
0
100
AcDbBlockBegin
  2
2
 70
     0
 10
0.0
 20
0.0
 30
0.0
  3
2
  1

  0
SPLINE
  5
34D
330
34A
100
AcDbEntity
  8
0
  6
Continuous
 62
     7
370
    15
100
AcDbSpline
210
0.0
220
0.0
230
1.0
 70
     8
 71
     3
 72
    18
 73
    14
 74
     0
 42
0.0000000001
 43
0.0000000001
 40
0.0
 40
0.0
 40
0.0
 40
0.0
 40
0.1250000000000001
 40
0.1250000000000001
 40
0.2500000000000002
 40
0.2500000000000002
 40
0.5000000000000002
 40
0.5000000000000002
 40
0.6250000000000002
 40
0.6250000000000002
 40
0.7500000000000002
 40
0.7500000000000002
 40
1.0
 40
1.0
 40
1.0
 40
1.0
 10
2156.246671660515
 20
1178.676578936093
 30
0.0
 10
2156.154664341357
 20
1178.676578936093
 30
0.0
 10
2156.064413779205
 20
1178.694562960902
 30
0.0
 10
2155.895314295215
 20
1178.764278578781
 30
0.0
 10
2155.817781146742
 20
1178.815873674549
 30
0.0
 10
2155.6235595927
 20
1179.009044987381
 30
0.0
 10
2155.546695762085
 20
1179.190738748054
 30
0.0
 10
2155.546659618566
 20
1179.469362822592
 30
0.0
 10
2155.565038189237
 20
1179.560524517694
 30
0.0
 10
2155.635696371683
 20
1179.730371760489
 30
0.0
 10
2155.687974400203
 20
1179.808070668763
 30
0.0
 10
2155.881920119768
 20
1180.001292702303
 30
0.0
 10
2156.062655795851
 20
1180.076578936093
 30
0.0
 10
2156.246671660515
 20
1180.076578936093
 30
0.0
  0
SPLINE
  5
34E
330
34A
100
AcDbEntity
  8
0
  6
Continuous
 62
     7
370
    15
100
AcDbSpline
210
0.0
220
0.0
230
1.0
 70
     8
 71
     3
 72
    18
 73
    14
 74
     0
 42
0.0000000001
 43
0.0000000001
 40
0.0
 40
0.0
 40
0.0
 40
0.0
 40
0.1250000000000005
 40
0.1250000000000005
 40
0.2500000000000011
 40
0.2500000000000011
 40
0.5000000000000011
 40
0.5000000000000011
 40
0.6250000000000011
 40
0.6250000000000011
 40
0.7500000000000011
 40
0.7500000000000011
 40
1.0
 40
1.0
 40
1.0
 40
1.0
 10
2166.346671660515
 20
1180.076578936093
 30
0.0
 10
2166.438678979674
 20
1180.076578936093
 30
0.0
 10
2166.528929541826
 20
1180.058594911284
 30
0.0
 10
2166.698029025816
 20
1179.988879293405
 30
0.0
 10
2166.775562174289
 20
1179.937284197637
 30
0.0
 10
2166.969783728331
 20
1179.744112884805
 30
0.0
 10
2167.046647558946
 20
1179.562419124133
 30
0.0
 10
2167.046683702465
 20
1179.283795049594
 30
0.0
 10
2167.028305131794
 20
1179.192633354492
 30
0.0
 10
2166.957646949348
 20
1179.022786111698
 30
0.0
 10
2166.905368920827
 20
1178.945087203423
 30
0.0
 10
2166.711423201263
 20
1178.751865169883
 30
0.0
 10
2166.53068752518
 20
1178.676578936093
 30
0.0
 10
2166.346671660515
 20
1178.676578936093
 30
0.0
  0
CIRCLE
  5
34F
330
34A
100
AcDbEntity
  8
0
  6
Continuous
 62
     7
370
    15
100
AcDbCircle
 10
2161.296671660515
 20
1179.376578936093
 30
0.0
 40
11.48632900201852
  0
SPLINE
  5
350
330
34A
100
AcDbEntity
  8
0
  6
Continuous
 62
     7
370
    15
100
AcDbSpline
210
0.0
220
0.0
230
1.0
 70
    24
 71
     3
 72
    10
 73
     6
 74
     0
 42
0.0000000001
 43
0.0000000001
 40
0.0
 40
0.0
 40
0.0
 40
0.0
 40
0.5
 40
0.5
 40
1.0
 40
1.0
 40
1.0
 40
1.0
 10
2166.346671660515
 20
1178.676578936093
 30
0.0
 10
2164.672099623521
 20
1178.676578936093
 30
0.0
 10
2162.985160545056
 20
1178.676578936093
 30
0.0
 10
2159.606175320595
 20
1178.676578936093
 30
0.0
 10
2157.92124369751
 20
1178.676578936093
 30
0.0
 10
2156.246671660515
 20
1178.676578936093
 30
0.0
  0
SPLINE
  5
351
330
34A
100
AcDbEntity
  8
0
  6
Continuous
 62
     7
370
    15
100
AcDbSpline
210
0.0
220
0.0
230
1.0
 70
    24
 71
     3
 72
    10
 73
     6
 74
     0
 42
0.0000000001
 43
0.0000000001
 40
0.0
 40
0.0
 40
0.0
 40
0.0
 40
0.5000000000000001
 40
0.5000000000000001
 40
1.0
 40
1.0
 40
1.0
 40
1.0
 10
2156.246671660515
 20
1180.076578936093
 30
0.0
 10
2157.92124369751
 20
1180.076578936093
 30
0.0
 10
2159.608182775975
 20
1180.076578936093
 30
0.0
 10
2162.987168000436
 20
1180.076578936093
 30
0.0
 10
2164.672099623521
 20
1180.076578936093
 30
0.0
 10
2166.346671660515
 20
1180.076578936093
 30
0.0
  0
CIRCLE
  5
352
330
34A
100
AcDbEntity
  8
0
  6
Continuous
 62
     7
370
    15
100
AcDbCircle
 10
2161.296671660515
 20
1179.376578936093
 30
0.0
 40
12.25000000000003
  0
INSERT
  5
353
330
34A
100
AcDbEntity
  8
0
  6
Continuous
 62
     7
370
     0
100
AcDbBlockReference
  2
SW_CENTERMARKSYMBOL_0
 10
2161.296671660515
 20
1179.376578936093
 30
0.0
  0
ENDBLK
  5
34C
330
34A
100
AcDbEntity
  8
0
100
AcDbBlockEnd
  0
BLOCK
  5
356
330
355
100
AcDbEntity
  8
0
100
AcDbBlockBegin
  2
3
 70
     0
 10
0.0
 20
0.0
 30
0.0
  3
3
  1

  0
SPLINE
  5
358
330
355
100
AcDbEntity
  8
0
  6
Continuous
 62
     7
370
    15
100
AcDbSpline
210
0.0
220
0.0
230
1.0
 70
     8
 71
     3
 72
    46
 73
    42
 74
     0
 42
0.0000000001
 43
0.0000000001
 40
0.0
 40
0.0
 40
0.0
 40
0.0
 40
0.0095293292194526
 40
0.036141107413064
 40
0.0629759019831198
 40
0.0900835039147782
 40
0.1175129426558667
 40
0.1453071923469805
 40
0.1735002888527757
 40
0.2021146760504317
 40
0.2311591406770174
 40
0.2575114005610808
 40
0.284023097425711
 40
0.3106724580030592
 40
0.3374369424078319
 40
0.3642930823686139
 40
0.3912180286813276
 40
0.4181906859256087
 40
0.4451924081919556
 40
0.4722073011884511
 40
0.4992222161117507
 40
0.5262231451322098
 40
0.553202618164617
 40
0.5801546954509231
 40
0.6070745914634525
 40
0.6339582316998467
 40
0.6608017651090231
 40
0.6876010087269563
 40
0.7143507471250232
 40
0.7410437440372899
 40
0.7676691925489213
 40
0.7942100431117204
 40
0.8206379627331086
 40
0.8469028664735112
 40
0.8729085227976353
 40
0.8984463550042427
 40
0.9229706868618542
 40
0.9454826746097577
 40
0.9614331519389802
 40
0.9787898042277555
 40
1.0
 40
1.0
 40
1.0
 40
1.0
 10
2217.412563264401
 20
1211.882403095089
 30
0.0
 10
2217.413314777636
 20
1211.922421487367
 30
0.0
 10
2217.416164980404
 20
1212.074195970179
 30
0.0
 10
2217.396735066341
 20
1212.338503753672
 30
0.0
 10
2217.353932514769
 20
1212.675026018915
 30
0.0
 10
2217.285044641581
 20
1213.012287165304
 30
0.0
 10
2217.191613836131
 20
1213.349707794711
 30
0.0
 10
2217.072592296366
 20
1213.68666782897
 30
0.0
 10
2216.927652025697
 20
1214.02246343215
 30
0.0
 10
2216.75632705456
 20
1214.356293737563
 30
0.0
 10
2216.565379825886
 20
1214.675418649959
 30
0.0
 10
2216.358129724686
 20
1214.978951353046
 30
0.0
 10
2216.138008418012
 20
1215.266209316434
 30
0.0
 10
2215.898208066209
 20
1215.54715704335
 30
0.0
 10
2215.639254398802
 20
1215.821166030915
 30
0.0
 10
2215.361736196199
 20
1216.087651998306
 30
0.0
 10
2215.066295966457
 20
1216.346077600821
 30
0.0
 10
2214.753615960018
 20
1216.595956040674
 30
0.0
 10
2214.424405731509
 20
1216.836851111779
 30
0.0
 10
2214.079392592044
 20
1217.06837407979
 30
0.0
 10
2213.719330224082
 20
1217.290169491548
 30
0.0
 10
2213.344978394212
 20
1217.501923152109
 30
0.0
 10
2212.957101756187
 20
1217.703355388781
 30
0.0
 10
2212.556453152362
 20
1217.894222484967
 30
0.0
 10
2212.143796711598
 20
1218.074300445399
 30
0.0
 10
2211.719911752862
 20
1218.243382188682
 30
0.0
 10
2211.285598462982
 20
1218.40127540352
 30
0.0
 10
2210.841685819354
 20
1218.547801067599
 30
0.0
 10
2210.389043170329
 20
1218.682792484694
 30
0.0
 10
2209.928598445313
 20
1218.80609463338
 30
0.0
 10
2209.461369025791
 20
1218.91756353729
 30
0.0
 10
2208.98851825819
 20
1219.017065277421
 30
0.0
 10
2208.511468137273
 20
1219.104473439962
 30
0.0
 10
2208.032148454133
 20
1219.179663354031
 30
0.0
 10
2207.553630395153
 20
1219.242491219583
 30
0.0
 10
2207.082104925489
 20
1219.292734253791
 30
0.0
 10
2206.629481148337
 20
1219.330229096258
 30
0.0
 10
2206.234941221922
 20
1219.354267751203
 30
0.0
 10
2205.884434262315
 20
1219.369247507904
 30
0.0
 10
2205.541572014424
 20
1219.379043159874
 30
0.0
 10
2205.298781353704
 20
1219.380393707131
 30
0.0
 10
2205.165256378124
 20
1219.381136453121
 30
0.0
  0
SPLINE
  5
359
330
355
100
AcDbEntity
  8
0
  6
Continuous
 62
     7
370
    15
100
AcDbSpline
210
0.0
220
0.0
230
1.0
 70
     8
 71
     3
 72
    47
 73
    43
 74
     0
 42
0.0000000001
 43
0.0000000001
 40
0.0
 40
0.0
 40
0.0
 40
0.0
 40
0.029275732100105
 40
0.0410904266556649
 40
0.0607057389504208
 40
0.0810584929379091
 40
0.1028797439079056
 40
0.125641579902478
 40
0.1491319393179194
 40
0.1731819051282641
 40
0.19767199636878
 40
0.2225143183577225
 40
0.2476431569768617
 40
0.273008531960189
 40
0.2985718493025014
 40
0.3243028916433509
 40
0.3501776861424934
 40
0.3761769546889204
 40
0.4022849544213589
 40
0.4284885809232529
 40
0.454776647634107
 40
0.48113928235597
 40
0.5075674011215574
 40
0.5340522350363665
 40
0.5605838821416384
 40
0.5871503609094095
 40
0.6137406405583822
 40
0.6403425604244918
 40
0.6669429271615872
 40
0.6935277943312581
 40
0.7200830640161855
 40
0.7465954396146247
 40
0.7730537081309345
 40
0.7994502593024807
 40
0.8257826793042088
 40
0.852055212600036
 40
0.8782798857072872
 40
0.9044771338434621
 40
0.9306758489463533
 40
0.9569128474449868
 40
0.983231813129333
 40
1.0
 40
1.0
 40
1.0
 40
1.0
 10
2205.165256378124
 20
1219.381136453121
 30
0.0
 10
2204.981094812243
 20
1219.379784503871
 30
0.0
 10
2204.722611871844
 20
1219.377886953664
 30
0.0
 10
2204.341329386686
 20
1219.365211640223
 30
0.0
 10
2204.016572883726
 20
1219.350047135987
 30
0.0
 10
2203.630188461235
 20
1219.324684871479
 30
0.0
 10
2203.225781277226
 20
1219.290193201112
 30
0.0
 10
2202.804160556138
 20
1219.245329668071
 30
0.0
 10
2202.371771122097
 20
1219.189737834914
 30
0.0
 10
2201.932533521971
 20
1219.123090325859
 30
0.0
 10
2201.489600096625
 20
1219.045197049029
 30
0.0
 10
2201.045481959781
 20
1218.955949173063
 30
0.0
 10
2200.602253965347
 20
1218.855303025992
 30
0.0
 10
2200.161676980792
 20
1218.743265106756
 30
0.0
 10
2199.725280866936
 20
1218.619882011869
 30
0.0
 10
2199.294421101155
 20
1218.485232789206
 30
0.0
 10
2198.870318356116
 20
1218.339423150685
 30
0.0
 10
2198.454086855261
 20
1218.182580972624
 30
0.0
 10
2198.046755256367
 20
1218.014852803138
 30
0.0
 10
2197.64928251943
 20
1217.83640121385
 30
0.0
 10
2197.262570385213
 20
1217.647402937635
 30
0.0
 10
2196.887473540744
 20
1217.448047803139
 30
0.0
 10
2196.524808163569
 20
1217.238538525301
 30
0.0
 10
2196.175363722166
 20
1217.019094244819
 30
0.0
 10
2195.839914884158
 20
1216.789957476833
 30
0.0
 10
2195.519216770466
 20
1216.551393208996
 30
0.0
 10
2195.214004406824
 20
1216.303690018657
 30
0.0
 10
2194.924989367963
 20
1216.047158882438
 30
0.0
 10
2194.652866698521
 20
1215.782142434811
 30
0.0
 10
2194.398311562739
 20
1215.509017765719
 30
0.0
 10
2194.161974048181
 20
1215.228197668932
 30
0.0
 10
2193.944472563775
 20
1214.940129313361
 30
0.0
 10
2193.746386705407
 20
1214.64528987369
 30
0.0
 10
2193.56825233652
 20
1214.344179213021
 30
0.0
 10
2193.410556157317
 20
1214.037310423621
 30
0.0
 10
2193.273747297172
 20
1213.72519956277
 30
0.0
 10
2193.158205978363
 20
1213.408356491191
 30
0.0
 10
2193.064393942151
 20
1213.087277577528
 30
0.0
 10
2192.99234651775
 20
1212.762444337439
 30
0.0
 10
2192.943635493398
 20
1212.434317269882
 30
0.0
 10
2192.917712385188
 20
1212.143922923486
 30
0.0
 10
2192.917897058226
 20
1211.963091443259
 30
0.0
 10
2192.91796892726
 20
1211.892717425189
 30
0.0
  0
LINE
  5
35A
330
355
100
AcDbEntity
  8
0
  6
Continuous
 62
     7
370
    15
100
AcDbLine
 10
2217.415256378123
 20
1210.897343780572
 30
0.0
 11
2217.415256378123
 21
1211.886649692158
 31
0.0
  0
LINE
  5
35B
330
355
100
AcDbEntity
  8
0
  6
Continuous
 62
     7
370
    15
100
AcDbLine
 10
2192.915256378123
 20
1211.886649692158
 30
0.0
 11
2192.915256378123
 21
1210.897343780572
 31
0.0
  0
SPLINE
  5
35C
330
355
100
AcDbEntity
  8
0
  6
Continuous
 62
     7
370
    15
100
AcDbSpline
210
0.0
220
0.0
230
1.0
 70
     8
 71
     3
 72
     9
 73
     5
 74
     0
 42
0.0000000001
 43
0.0000000001
 40
0.0
 40
0.0
 40
0.0
 40
0.0
 40
0.5000053785552407
 40
1.0
 40
1.0
 40
1.0
 40
1.0
 10
2202.812958249626
 20
1203.763679852395
 30
0.0
 10
2202.844815465876
 20
1203.758686425747
 30
0.0
 10
2202.908529212999
 20
1203.74869967988
 30
0.0
 10
2202.97145371685
 20
1203.73882756786
 30
0.0
 10
2203.002915630332
 20
1203.733891564948
 30
0.0
  0
SPLINE
  5
35D
330
355
100
AcDbEntity
  8
0
  6
Continuous
 62
     7
370
    15
100
AcDbSpline
210
0.0
220
0.0
230
1.0
 70
     8
 71
     3
 72
     9
 73
     5
 74
     0
 42
0.0000000001
 43
0.0000000001
 40
0.0
 40
0.0
 40
0.0
 40
0.0
 40
0.5000048485072555
 40
1.0
 40
1.0
 40
1.0
 40
1.0
 10
2202.815478048169
 20
1202.538473934267
 30
0.0
 10
2202.847123164512
 20
1202.533513681497
 30
0.0
 10
2202.910412783478
 20
1202.523593272157
 30
0.0
 10
2202.972952813436
 20
1202.513781299672
 30
0.0
 10
2203.00422252519
 20
1202.508875361003
 30
0.0
  0
SPLINE
  5
35E
330
355
100
AcDbEntity
  8
0
  6
Continuous
 62
     7
370
    15
100
AcDbSpline
210
0.0
220
0.0
230
1.0
 70
     8
 71
     3
 72
     9
 73
     5
 74
     0
 42
0.0000000001
 43
0.0000000001
 40
0.0
 40
0.0
 40
0.0
 40
0.0
 40
0.5000052348256574
 40
1.0
 40
1.0
 40
1.0
 40
1.0
 10
2202.81291883896
 20
1201.314063593148
 30
0.0
 10
2202.844728090034
 20
1201.30907768452
 30
0.0
 10
2202.908345926125
 20
1201.299105971666
 30
0.0
 10
2202.97118508216
 20
1201.28924727172
 30
0.0
 10
2203.002604331226
 20
1201.284317973355
 30
0.0
  0
SPLINE
  5
35F
330
355
100
AcDbEntity
  8
0
  6
Continuous
 62
     7
370
    15
100
AcDbSpline
210
0.0
220
0.0
230
1.0
 70
     8
 71
     3
 72
     9
 73
     5
 74
     0
 42
0.0000000001
 43
0.0000000001
 40
0.0
 40
0.0
 40
0.0
 40
0.0
 40
0.500005681368201
 40
1.0
 40
1.0
 40
1.0
 40
1.0
 10
2202.81445598555
 20
1200.089011546489
 30
0.0
 10
2202.846395303002
 20
1200.084005239421
 30
0.0
 10
2202.910273212077
 20
1200.073992739053
 30
0.0
 10
2202.973340051142
 20
1200.064098157936
 30
0.0
 10
2203.004873112369
 20
1200.059150923593
 30
0.0
  0
SPLINE
  5
360
330
355
100
AcDbEntity
  8
0
  6
Continuous
 62
     7
370
    15
100
AcDbSpline
210
0.0
220
0.0
230
1.0
 70
     8
 71
     3
 72
     9
 73
     5
 74
     0
 42
0.0000000001
 43
0.0000000001
 40
0.0
 40
0.0
 40
0.0
 40
0.0
 40
0.5000050968257577
 40
0.9999999999999998
 40
0.9999999999999998
 40
0.9999999999999998
 40
0.9999999999999998
 10
2202.813357579303
 20
1198.864372403884
 30
0.0
 10
2202.845114459478
 20
1198.859394694169
 30
0.0
 10
2202.908627572397
 20
1198.84943937622
 30
0.0
 10
2202.971372276964
 20
1198.839595474462
 30
0.0
 10
2203.002744309449
 20
1198.834673573756
 30
0.0
  0
SPLINE
  5
361
330
355
100
AcDbEntity
  8
0
  6
Continuous
 62
     7
370
    15
100
AcDbSpline
210
0.0
220
0.0
230
1.0
 70
     8
 71
     3
 72
     9
 73
     5
 74
     0
 42
0.0000000001
 43
0.0000000001
 40
0.0
 40
0.0
 40
0.0
 40
0.0
 40
0.5000055219298613
 40
0.9999999999999998
 40
0.9999999999999998
 40
0.9999999999999998
 40
0.9999999999999998
 10
2202.813529807674
 20
1197.639534199968
 30
0.0
 10
2202.845427879225
 20
1197.634534363559
 30
0.0
 10
2202.909223317779
 20
1197.624534801174
 30
0.0
 10
2202.972219106373
 20
1197.614651445381
 30
0.0
 10
2203.003716652812
 20
1197.609709822059
 30
0.0
  0
SPLINE
  5
362
330
355
100
AcDbEntity
  8
0
  6
Continuous
 62
     7
370
    15
100
AcDbSpline
210
0.0
220
0.0
230
1.0
 70
     8
 71
     3
 72
     9
 73
     5
 74
     0
 42
0.0000000001
 43
0.0000000001
 40
0.0
 40
0.0
 40
0.0
 40
0.0
 40
0.5000049683672815
 40
1.0
 40
1.0
 40
1.0
 40
1.0
 10
2202.814222538679
 20
1196.414614458274
 30
0.0
 10
2202.845924641659
 20
1196.409645311792
 30
0.0
 10
2202.909328217593
 20
1196.399707117583
 30
0.0
 10
2202.971973065374
 20
1196.389878816124
 30
0.0
 10
2203.003295178022
 20
1196.384964714225
 30
0.0
  0
SPLINE
  5
363
330
355
100
AcDbEntity
  8
0
  6
Continuous
 62
     7
370
    15
100
AcDbSpline
210
0.0
220
0.0
230
1.0
 70
     8
 71
     3
 72
     9
 73
     5
 74
     0
 42
0.0000000001
 43
0.0000000001
 40
0.0
 40
0.0
 40
0.0
 40
0.0
 40
0.4129349696338638
 40
0.9999999999999998
 40
0.9999999999999998
 40
0.9999999999999998
 40
0.9999999999999998
 10
2207.993981535745
 20
1196.387247507244
 30
0.0
 10
2208.016455260427
 20
1196.390773813382
 30
0.0
 10
2208.070879628269
 20
1196.399313429537
 30
0.0
 10
2208.124462407365
 20
1196.40771316432
 30
0.0
 10
2208.155918983201
 20
1196.412644354875
 30
0.0
  0
SPLINE
  5
364
330
355
100
AcDbEntity
  8
0
  6
Continuous
 62
     7
370
    15
100
AcDbSpline
210
0.0
220
0.0
230
1.0
 70
     8
 71
     3
 72
     9
 73
     5
 74
     0
 42
0.0000000001
 43
0.0000000001
 40
0.0
 40
0.0
 40
0.0
 40
0.0
 40
0.4999912264752054
 40
0.9999999999999998
 40
0.9999999999999998
 40
0.9999999999999998
 40
0.9999999999999998
 10
2207.967881171609
 20
1197.607963811097
 30
0.0
 10
2207.999786124929
 20
1197.612970057185
 30
0.0
 10
2208.063597151264
 20
1197.622982725055
 30
0.0
 10
2208.12639953148
 20
1197.632827847648
 30
0.0
 10
2208.157801272587
 20
1197.637750495322
 30
0.0
  0
SPLINE
  5
365
330
355
100
AcDbEntity
  8
0
  6
Continuous
 62
     7
370
    15
100
AcDbSpline
210
0.0
220
0.0
230
1.0
 70
     8
 71
     3
 72
     9
 73
     5
 74
     0
 42
0.0000000001
 43
0.0000000001
 40
0.0
 40
0.0
 40
0.0
 40
0.0
 40
0.4999904775894289
 40
1.0
 40
1.0
 40
1.0
 40
1.0
 10
2207.966870796757
 20
1198.832616503739
 30
0.0
 10
2207.99857913995
 20
1198.837591926936
 30
0.0
 10
2208.061997034118
 20
1198.847542962844
 30
0.0
 10
2208.124363621347
 20
1198.857320001282
 30
0.0
 10
2208.155547508841
 20
1198.862208613602
 30
0.0
  0
SPLINE
  5
366
330
355
100
AcDbEntity
  8
0
  6
Continuous
 62
     7
370
    15
100
AcDbSpline
210
0.0
220
0.0
230
1.0
 70
     8
 71
     3
 72
     9
 73
     5
 74
     0
 42
0.0000000001
 43
0.0000000001
 40
0.0
 40
0.0
 40
0.0
 40
0.0
 40
0.499991453910429
 40
1.0
 40
1.0
 40
1.0
 40
1.0
 10
2207.967362527883
 20
1200.057504864102
 30
0.0
 10
2207.999317899064
 20
1200.062519029328
 30
0.0
 10
2208.063229733822
 20
1200.072547531186
 30
0.0
 10
2208.126146201573
 20
1200.082410563286
 30
0.0
 10
2208.157604973139
 20
1200.087342163627
 30
0.0
  0
SPLINE
  5
367
330
355
100
AcDbEntity
  8
0
  6
Continuous
 62
     7
370
    15
100
AcDbSpline
210
0.0
220
0.0
230
1.0
 70
     8
 71
     3
 72
     9
 73
     5
 74
     0
 42
0.0000000001
 43
0.0000000001
 40
0.0
 40
0.0
 40
0.0
 40
0.0
 40
0.4999907437518904
 40
0.9999999999999998
 40
0.9999999999999998
 40
0.9999999999999998
 40
0.9999999999999998
 10
2207.967654643938
 20
1201.282361916854
 30
0.0
 10
2207.999437585298
 20
1201.287349021574
 30
0.0
 10
2208.063004644802
 20
1201.297323415666
 30
0.0
 10
2208.125535379216
 20
1201.307126042012
 30
0.0
 10
2208.156801325223
 20
1201.312027445921
 30
0.0
  0
SPLINE
  5
368
330
355
100
AcDbEntity
  8
0
  6
Continuous
 62
     7
370
    15
100
AcDbSpline
210
0.0
220
0.0
230
1.0
 70
     8
 71
     3
 72
     9
 73
     5
 74
     0
 42
0.0000000001
 43
0.0000000001
 40
0.0
 40
0.0
 40
0.0
 40
0.0
 40
0.4999916700178951
 40
1.0
 40
1.0
 40
1.0
 40
1.0
 10
2207.966437709553
 20
1202.506982228538
 30
0.0
 10
2207.998436035005
 20
1202.512003142302
 30
0.0
 10
2208.062433752107
 20
1202.522045137129
 30
0.0
 10
2208.125448868259
 20
1202.531923689438
 30
0.0
 10
2208.15695695125
 20
1202.536863047881
 30
0.0
  0
SPLINE
  5
369
330
355
100
AcDbEntity
  8
0
  6
Continuous
 62
     7
370
    15
100
AcDbSpline
210
0.0
220
0.0
230
1.0
 70
     8
 71
     3
 72
     9
 73
     5
 74
     0
 42
0.0000000001
 43
0.0000000001
 40
0.0
 40
0.0
 40
0.0
 40
0.0
 40
0.4999909937854676
 40
0.9999999999999998
 40
0.9999999999999998
 40
0.9999999999999998
 40
0.9999999999999998
 10
2207.967979860292
 20
1203.732035388014
 30
0.0
 10
2207.999828329101
 20
1203.737032767932
 30
0.0
 10
2208.063526414076
 20
1203.7470277078
 30
0.0
 10
2208.126202426894
 20
1203.756853037174
 30
0.0
 10
2208.157540997778
 20
1203.76176579035
 30
0.0
  0
LINE
  5
36A
330
355
100
AcDbEntity
  8
0
  6
Continuous
 62
     7
370
    15
100
AcDbLine
 10
2215.365256378123
 20
1206.692787950261
 30
0.0
 11
2215.365256378123
 21
1206.981030579237
 31
0.0
  0
LINE
  5
36B
330
355
100
AcDbEntity
  8
0
  6
Continuous
 62
     7
370
    15
100
AcDbLine
 10
2215.365256378123
 20
1205.467976732432
 30
0.0
 11
2215.365256378123
 21
1205.813734936348
 31
0.0
  0
LINE
  5
36C
330
355
100
AcDbEntity
  8
0
  6
Continuous
 62
     7
370
    15
100
AcDbLine
 10
2215.365256378123
 20
1204.243165514603
 30
0.0
 11
2215.365256378123
 21
1204.588928028366
 31
0.0
  0
LINE
  5
36D
330
355
100
AcDbEntity
  8
0
  6
Continuous
 62
     7
370
    15
100
AcDbLine
 10
2215.365256378123
 20
1203.018354296775
 30
0.0
 11
2215.365256378123
 21
1203.364116810538
 31
0.0
  0
LINE
  5
36E
330
355
100
AcDbEntity
  8
0
  6
Continuous
 62
     7
370
    15
100
AcDbLine
 10
2215.365256378123
 20
1201.793543078946
 30
0.0
 11
2215.365256378123
 21
1202.139305592709
 31
0.0
  0
LINE
  5
36F
330
355
100
AcDbEntity
  8
0
  6
Continuous
 62
     7
370
    15
100
AcDbLine
 10
2194.965256378123
 20
1202.751706891777
 30
0.0
 11
2194.965256378123
 21
1202.405948687861
 31
0.0
  0
LINE
  5
370
330
355
100
AcDbEntity
  8
0
  6
Continuous
 62
     7
370
    15
100
AcDbLine
 10
2194.965256378123
 20
1203.976522419452
 30
0.0
 11
2194.965256378123
 21
1203.630759905689
 31
0.0
  0
LINE
  5
371
330
355
100
AcDbEntity
  8
0
  6
Continuous
 62
     7
370
    15
100
AcDbLine
 10
2194.965256378123
 20
1205.20133363728
 30
0.0
 11
2194.965256378123
 21
1204.855571123518
 31
0.0
  0
LINE
  5
372
330
355
100
AcDbEntity
  8
0
  6
Continuous
 62
     7
370
    15
100
AcDbLine
 10
2194.965256378123
 20
1206.426140545262
 30
0.0
 11
2194.965256378123
 21
1206.080382341347
 31
0.0
  0
SPLINE
  5
373
330
355
100
AcDbEntity
  8
0
  6
Continuous
 62
     7
370
    15
100
AcDbSpline
210
0.0
220
0.0
230
1.0
 70
     8
 71
     3
 72
    18
 73
    14
 74
     0
 42
0.0000000001
 43
0.0000000001
 40
0.0
 40
0.0
 40
0.0
 40
0.0
 40
0.1250000000000001
 40
0.1250000000000001
 40
0.2500000000000002
 40
0.2500000000000002
 40
0.5000000000000002
 40
0.5000000000000002
 40
0.6250000000000002
 40
0.6250000000000002
 40
0.7500000000000002
 40
0.7500000000000002
 40
1.0
 40
1.0
 40
1.0
 40
1.0
 10
2201.099392386301
 20
1215.641970309174
 30
0.0
 10
2201.034333387005
 20
1215.669326426874
 30
0.0
 10
2200.983233228397
 20
1215.703496090088
 30
0.0
 10
2200.912958222729
 20
1215.782213576028
 30
0.0
 10
2200.894617249771
 20
1215.826314610747
 30
0.0
 10
2200.893874617089
 20
1215.962876015425
 30
0.0
 10
2200.968000571504
 20
1216.059873643601
 30
0.0
 10
2201.164991986685
 20
1216.173619857008
 30
0.0
 10
2201.242448651425
 20
1216.205373428026
 30
0.0
 10
2201.412511668525
 20
1216.253715839376
 30
0.0
 10
2201.504419241931
 20
1216.269902274641
 30
0.0
 10
2201.778188185608
 20
1216.291150191437
 30
0.0
 10
2201.959223014211
 20
1216.268168587475
 30
0.0
 10
2202.089341879962
 20
1216.21345598745
 30
0.0
  0
SPLINE
  5
374
330
355
100
AcDbEntity
  8
0
  6
Continuous
 62
     7
370
    15
100
AcDbSpline
210
0.0
220
0.0
230
1.0
 70
     8
 71
     3
 72
    10
 73
     6
 74
     0
 42
0.0000000001
 43
0.0000000001
 40
0.0
 40
0.0
 40
0.0
 40
0.0
 40
0.5
 40
0.5
 40
1.0
 40
1.0
 40
1.0
 40
1.0
 10
2208.241170876285
 20
1211.519109344469
 30
0.0
 10
2207.057069633341
 20
1212.388350652514
 30
0.0
 10
2205.864223571509
 20
1213.17001834733
 30
0.0
 10
2203.474920205763
 20
1214.549260031919
 30
0.0
 10
2202.283493629245
 20
1215.144077422385
 30
0.0
 10
2201.099392386301
 20
1215.641970309174
 30
0.0
  0
SPLINE
  5
375
330
355
100
AcDbEntity
  8
0
  6
Continuous
 62
     7
370
    15
100
AcDbSpline
210
0.0
220
0.0
230
1.0
 70
     8
 71
     3
 72
    18
 73
    14
 74
     0
 42
0.0000000001
 43
0.0000000001
 40
0.0
 40
0.0
 40
0.0
 40
0.0
 40
0.1250000000000005
 40
0.1250000000000005
 40
0.2500000000000011
 40
0.2500000000000011
 40
0.5000000000000011
 40
0.5000000000000011
 40
0.6250000000000011
 40
0.6250000000000011
 40
0.7500000000000011
 40
0.7500000000000011
 40
1.0
 40
1.0
 40
1.0
 40
1.0
 10
2209.231120369946
 20
1212.090595022745
 30
0.0
 10
2209.296179369242
 20
1212.042835618738
 30
0.0
 10
2209.34727952785
 20
1211.988641687177
 30
0.0
 10
2209.417554533517
 20
1211.872388586725
 30
0.0
 10
2209.435895506477
 20
1211.81106827538
 30
0.0
 10
2209.436638139158
 20
1211.63135900108
 30
0.0
 10
2209.362512184743
 20
1211.517268114355
 30
0.0
 10
2209.165520769562
 20
1211.403513865297
 30
0.0
 10
2209.088064104821
 20
1211.375846703127
 30
0.0
 10
2208.918001087721
 20
1211.343210361004
 30
0.0
 10
2208.826093514316
 20
1211.338642983828
 30
0.0
 10
2208.552324570638
 20
1211.360481723765
 30
0.0
 10
2208.371289742035
 20
1211.423589899878
 30
0.0
 10
2208.241170876285
 20
1211.519109344469
 30
0.0
  0
SPLINE
  5
376
330
355
100
AcDbEntity
  8
0
  6
Continuous
 62
     7
370
    15
100
AcDbSpline
210
0.0
220
0.0
230
1.0
 70
     8
 71
     3
 72
    10
 73
     6
 74
     0
 42
0.0000000001
 43
0.0000000001
 40
0.0
 40
0.0
 40
0.0
 40
0.0
 40
0.5000000000000001
 40
0.5000000000000001
 40
1.0
 40
1.0
 40
1.0
 40
1.0
 10
2202.089341879962
 20
1216.21345598745
 30
0.0
 10
2203.273443122906
 20
1215.715563100661
 30
0.0
 10
2204.466289184737
 20
1215.120000047667
 30
0.0
 10
2206.855592550483
 20
1213.740610785277
 30
0.0
 10
2208.047019127002
 20
1212.959836330789
 30
0.0
 10
2209.231120369946
 20
1212.090595022745
 30
0.0
  0
LWPOLYLINE
  5
377
330
355
100
AcDbEntity
  8
0
  6
Continuous
 62
     7
370
    15
100
AcDbPolyline
 90
      132
 70
   128
 43
0.0
 10
2213.287317506391
 20
1207.991294343569
 10
2212.888565930028
 20
1207.771884270612
 10
2212.472050494199
 20
1207.563763160105
 10
2212.038729197753
 20
1207.367409697273
 10
2211.589598693559
 20
1207.183275501371
 10
2211.125691996169
 20
1207.011784086951
 10
2210.648076105852
 20
1206.853329889763
 10
2210.157849554462
 20
1206.708277359536
 10
2209.656139878777
 20
1206.576960121739
 10
2209.144101027128
 20
1206.459680210227
 10
2208.622910705282
 20
1206.356707372555
 10
2208.093767667682
 20
1206.268278449549
 10
2207.557888960271
 20
1206.194596830565
 10
2207.016507121247
 20
1206.13583198569
 10
2206.47086734619
 20
1206.092119075948
 10
2205.922224624068
 20
1206.063558642433
 10
2205.371840850723
 20
1206.050216375058
 10
2204.820981926471
 20
1206.052122961465
 10
2204.27091484449
 20
1206.069274016444
 10
2203.722904776695
 20
1206.101630092019
 10
2203.178212163805
 20
1206.149116768179
 10
2202.638089816284
 20
1206.211624824048
 10
2202.103780032839
 20
1206.289010489094
 10
2201.576511743094
 20
1206.381095773807
 10
2201.057497681013
 20
1206.487668879083
 10
2200.54793159557
 20
1206.608484683362
 10
2200.048985505091
 20
1206.743265306425
 10
2199.561807001574
 20
1206.891700748518
 10
2199.087516611188
 20
1207.053449603368
 10
2198.627205217029
 20
1207.228139843427
 10
2198.181931550055
 20
1207.415369675542
 10
2197.75271975397
 20
1207.614708465102
 10
2197.340557029658
 20
1207.825697726503
 10
2196.946391364594
 20
1208.04785217768
 10
2196.571129352438
 20
1208.280660856279
 10
2196.215634107844
 20
1208.523588294877
 10
2195.880723281265
 20
1208.776075752581
 10
2195.567167178337
 20
1209.037542500148
 10
2195.275686988143
 20
1209.307387155678
 10
2195.006953124461
 20
1209.584989067818
 10
2194.76158368379
 20
1209.869709743273
 10
2194.540143023707
 20
1210.160894315366
 10
2194.343140464825
 20
1210.45787305025
 10
2194.171029119344
 20
1210.759962887317
 10
2194.024204848872
 20
1211.066469010262
 10
2193.903005353937
 20
1211.376686445181
 10
2193.807709397262
 20
1211.689901682031
 10
2193.7385361626
 20
1212.005394315731
 10
2193.695644750608
 20
1212.322438703113
 10
2193.679133812909
 20
1212.640305631926
 10
2193.689041325187
 20
1212.958263998048
 10
2193.725344499847
 20
1213.275582487048
 10
2193.787959838424
 20
1213.591531256232
 10
2193.876743323634
 20
1213.905383613307
 10
2193.991490750613
 20
1214.216417687794
 10
2194.131938196605
 20
1214.523918091354
 10
2194.297762627981
 20
1214.827177563204
 10
2194.488582643236
 20
1215.125498596843
 10
2194.703959350221
 20
1215.418195044331
 10
2194.943397375606
 20
1215.704593694462
 10
2195.206346004261
 20
1215.984035821161
 10
2195.492200445913
 20
1216.255878698583
 10
2195.800303226187
 20
1216.519497079398
 10
2196.129945698814
 20
1216.774284632881
 10
2196.480369675545
 20
1217.019655339497
 10
2196.850769170002
 20
1217.255044838756
 10
2197.240292251479
 20
1217.479911727266
 10
2197.648043004407
 20
1217.693738803979
 10
2198.073083588986
 20
1217.896034259766
 10
2198.514436398253
 20
1218.086332808595
 10
2198.971086306601
 20
1218.264196757707
 10
2199.441983004609
 20
1218.429217014318
 10
2199.926043414781
 20
1218.58101402655
 10
2200.422154182661
 20
1218.719238656411
 10
2200.929174237586
 20
1218.843572982822
 10
2201.445937417181
 20
1218.953731032849
 10
2201.971255149574
 20
1219.049459439446
 10
2202.503919187145
 20
1219.130538024211
 10
2203.042704385539
 20
1219.196780303799
 10
2203.586371521534
 20
1219.248033918847
 10
2204.133670143296
 20
1219.284180984396
 10
2204.683341446455
 20
1219.305138361037
 10
2205.2341211694
 20
1219.310857846132
 10
2205.784742501119
 20
1219.301326284683
 10
2206.333938994903
 20
1219.276565599586
 10
2206.880447481217
 20
1219.236632741211
 10
2207.42301097303
 20
1219.181619556411
 10
2207.960381556924
 20
1219.111652577274
 10
2208.491323263336
 20
1219.026892730095
 10
2209.014614909327
 20
1218.927534965238
 10
2209.529052907342
 20
1218.813807808746
 10
2210.033454033499
 20
1218.685972836723
 10
2210.526658149046
 20
1218.544324073703
 10
2211.007530868711
 20
1218.389187316378
 10
2211.474966169829
 20
1218.220919384263
 10
2211.92788893623
 20
1218.039907298993
 10
2212.365257431034
 20
1217.846567394165
 10
2212.786065692691
 20
1217.641344357756
 10
2213.189345848711
 20
1217.424710209326
 10
2213.574170341813
 20
1217.197163214358
 10
2213.939654063332
 20
1216.959226738233
 10
2214.284956388995
 20
1216.711448042471
 10
2214.609283112389
 20
1216.454397026012
 10
2214.911888271656
 20
1216.188664914431
 10
2215.192075865232
 20
1215.914862900101
 10
2215.449201452674
 20
1215.633620736428
 10
2215.682673636891
 20
1215.345585289401
 10
2215.891955424378
 20
1215.05141904978
 10
2216.076565460317
 20
1214.75179860934
 10
2216.236079135709
 20
1214.447413104698
 10
2216.370129563989
 20
1214.138962632269
 10
2216.478408424877
 20
1213.827156638022
 10
2216.560666673522
 20
1213.512712285736
 10
2216.616715113316
 20
1213.1963528075
 10
2216.646424831053
 20
1212.878805840249
 10
2216.649727493429
 20
1212.560801752186
 10
2216.626615504215
 20
1212.243071962902
 10
2216.577142021726
 20
1211.926347261096
 10
2216.501420836559
 20
1211.611356123731
 10
2216.399626109864
 20
1211.298823040516
 10
2216.271991972777
 20
1210.989466847559
 10
2216.118811987901
 20
1210.683999074017
 10
2215.940438474111
 20
1210.383122305558
 10
2215.737281696205
 20
1210.08752856839
 10
2215.509808921282
 20
1209.797897737583
 10
2215.258543344015
 20
1209.514895973327
 10
2214.984062883282
 20
1209.239174188751
 10
2214.686998852939
 20
1208.971366552793
 10
2214.368034509776
 20
1208.712089031599
 10
2214.027903482002
 20
1208.461937971776
 10
2213.667388081883
 20
1208.221488728778
 10
2213.287317506391
 20
1207.991294343569
  0
LWPOLYLINE
  5
378
330
355
100
AcDbEntity
  8
0
  6
Continuous
 62
     7
370
    15
100
AcDbPolyline
 90
       69
 70
   128
 43
0.0
 10
2192.915256378124
 20
1210.897343780572
 10
2192.928327436794
 20
1210.570744776644
 10
2192.967512718509
 20
1210.244842751449
 10
2193.032728599902
 20
1209.920333196334
 10
2193.123835906996
 20
1209.597908631042
 10
2193.240640212205
 20
1209.278257125844
 10
2193.382892249256
 20
1208.962060833162
 10
2193.550288445134
 20
1208.649994531819
 10
2193.74247156792
 20
1208.342724187028
 10
2193.959031489145
 20
1208.040905529191
 10
2194.199506059024
 20
1207.745182654533
 10
2194.463382092705
 20
1207.456186650572
 10
2194.750096465436
 20
1207.174534249345
 10
2195.059037314294
 20
1206.900826511268
 10
2195.389545343941
 20
1206.635647542451
 10
2195.740915233583
 20
1206.379563248174
 10
2196.11239714217
 20
1206.133120125229
 10
2196.503198308588
 20
1205.896844095658
 10
2196.912484743453
 20
1205.671239384416
 10
2197.339383008887
 20
1205.456787443327
 10
2197.782982082477
 20
1205.253945923639
 10
2198.242335301447
 20
1205.063147699379
 10
2198.716462382876
 20
1204.884799943571
 10
2199.20435151568
 20
1204.719283259316
 10
2199.704961519861
 20
1204.566950867558
 10
2200.217224068443
 20
1204.428127853298
 10
2200.740045967331
 20
1204.303110471844
 10
2201.272311488245
 20
1204.19216551659
 10
2201.81288474974
 20
1204.09552974966
 10
2202.360612141235
 20
1204.013409396651
 10
2202.91432478487
 20
1203.945979706535
 10
2203.472841029963
 20
1203.893384577669
 10
2204.034968974698
 20
1203.855736250708
 10
2204.599509009713
 20
1203.833115069079
 10
2205.165256378124
 20
1203.825569307524
 10
2205.731003746533
 20
1203.833115069079
 10
2206.295543781549
 20
1203.855736250708
 10
2206.857671726284
 20
1203.893384577669
 10
2207.416187971377
 20
1203.945979706535
 10
2207.969900615013
 20
1204.013409396651
 10
2208.517628006507
 20
1204.09552974966
 10
2209.058201268002
 20
1204.19216551659
 10
2209.590466788916
 20
1204.303110471844
 10
2210.113288687804
 20
1204.428127853298
 10
2210.625551236386
 20
1204.566950867558
 10
2211.126161240567
 20
1204.719283259316
 10
2211.614050373371
 20
1204.884799943572
 10
2212.0881774548
 20
1205.063147699379
 10
2212.54753067377
 20
1205.253945923639
 10
2212.99112974736
 20
1205.456787443327
 10
2213.418028012794
 20
1205.671239384416
 10
2213.827314447659
 20
1205.896844095658
 10
2214.218115614077
 20
1206.133120125229
 10
2214.589597522664
 20
1206.379563248175
 10
2214.940967412307
 20
1206.635647542451
 10
2215.271475441953
 20
1206.900826511269
 10
2215.580416290811
 20
1207.174534249345
 10
2215.867130663542
 20
1207.456186650572
 10
2216.131006697223
 20
1207.745182654533
 10
2216.371481267101
 20
1208.040905529191
 10
2216.588041188327
 20
1208.342724187029
 10
2216.780224311113
 20
1208.649994531819
 10
2216.94762050699
 20
1208.962060833162
 10
2217.089872544042
 20
1209.278257125844
 10
2217.206676849251
 20
1209.597908631042
 10
2217.297784156345
 20
1209.920333196334
 10
2217.363000037738
 20
1210.24484275145
 10
2217.402185319452
 20
1210.570744776644
 10
2217.415256378123
 20
1210.897343780572
  0
SPLINE
  5
379
330
355
100
AcDbEntity
  8
0
  6
Continuous
 62
     7
370
    15
100
AcDbSpline
210
0.0
220
0.0
230
1.0
 70
     8
 71
     3
 72
    50
 73
    46
 74
     0
 42
0.0000000001
 43
0.0000000001
 40
0.0
 40
0.0
 40
0.0
 40
0.0
 40
0.0008757574908768
 40
0.026545056532877
 40
0.0525886148008197
 40
0.0778300522994126
 40
0.1032598628976079
 40
0.1288705531264453
 40
0.1549129568731767
 40
0.1801322519863367
 40
0.2055279320645734
 40
0.2311968061340941
 40
0.2572399174966522
 40
0.2824814899978821
 40
0.3078999431193105
 40
0.3335223074321253
 40
0.3595649076047763
 40
0.3848063209889155
 40
0.4102360902550246
 40
0.4358467334492632
 40
0.4618890855795599
 40
0.4871085760781951
 40
0.512504480375106
 40
0.5381735949157528
 40
0.5642169530993123
 40
0.5894583554312857
 40
0.6148881173979342
 40
0.6404987514406552
 40
0.6665410853635812
 40
0.684578552022006
 40
0.7026965140672108
 40
0.7208794973823013
 40
0.7391447328484489
 40
0.7596800140381748
 40
0.7803101460025404
 40
0.8005547944574068
 40
0.825774427126457
 40
0.8511704529061827
 40
0.8768396687221937
 40
0.9028831047491623
 40
0.9217686027015023
 40
0.9408036806092139
 40
0.9599142113212334
 40
0.9825049580517269
 40
1.0
 40
1.0
 40
1.0
 40
1.0
 10
2215.330303950393
 20
1202.602703804327
 30
0.0
 10
2215.331495153268
 20
1202.597263861706
 30
0.0
 10
2215.367601664494
 20
1202.432373939654
 30
0.0
 10
2215.372093838582
 20
1202.101461198395
 30
0.0
 10
2215.336399939016
 20
1201.619776411188
 30
0.0
 10
2215.219914885631
 20
1201.143431396442
 30
0.0
 10
2215.035885553429
 20
1200.677395321347
 30
0.0
 10
2214.778971692538
 20
1200.217394913396
 30
0.0
 10
2214.453747753851
 20
1199.773006196087
 30
0.0
 10
2214.063308645929
 20
1199.347298383179
 30
0.0
 10
2213.612530232795
 20
1198.94371073466
 30
0.0
 10
2213.096608752127
 20
1198.559104584473
 30
0.0
 10
2212.524499162951
 20
1198.201553384728
 30
0.0
 10
2211.901864153176
 20
1197.873992492262
 30
0.0
 10
2211.235474161314
 20
1197.579890425387
 30
0.0
 10
2210.518816533452
 20
1197.316779558355
 30
0.0
 10
2209.765227384596
 20
1197.090640343106
 30
0.0
 10
2208.980830526179
 20
1196.902706751644
 30
0.0
 10
2208.174106131898
 20
1196.754100960653
 30
0.0
 10
2207.337452523125
 20
1196.643953474358
 30
0.0
 10
2206.487392356621
 20
1196.575272907449
 30
0.0
 10
2205.630383221863
 20
1196.548068730917
 30
0.0
 10
2204.774249436153
 20
1196.561587439056
 30
0.0
 10
2203.911652322753
 20
1196.61783696724
 30
0.0
 10
2203.05978221545
 20
1196.716526376536
 30
0.0
 10
2202.225671188867
 20
1196.856276752509
 30
0.0
 10
2201.4168205658
 20
1197.034916230277
 30
0.0
 10
2200.626198622943
 20
1197.25453606145
 30
0.0
 10
2199.940899105155
 20
1197.487480819507
 30
0.0
 10
2199.355774777109
 20
1197.72018784164
 30
0.0
 10
2198.86522295245
 20
1197.940587743058
 30
0.0
 10
2198.395223623328
 20
1198.178374450619
 30
0.0
 10
2197.929870902771
 20
1198.442959237755
 30
0.0
 10
2197.474656420564
 20
1198.736349414419
 30
0.0
 10
2197.03950957545
 20
1199.057637150916
 30
0.0
 10
2196.610973502169
 20
1199.421079876302
 30
0.0
 10
2196.201211390516
 20
1199.829959144935
 30
0.0
 10
2195.822800107881
 20
1200.29002730342
 30
0.0
 10
2195.506939459703
 20
1200.772086711339
 30
0.0
 10
2195.281564761
 20
1201.226089319768
 30
0.0
 10
2195.129086499657
 20
1201.644626329954
 30
0.0
 10
2195.032070726636
 20
1202.021872349392
 30
0.0
 10
2194.972773753886
 20
1202.426342248355
 30
0.0
 10
2194.95463721731
 20
1202.821889905654
 30
0.0
 10
2194.985417278344
 20
1203.089132627618
 30
0.0
 10
2194.998850928441
 20
1203.205768043441
 30
0.0
  0
SPLINE
  5
37A
330
355
100
AcDbEntity
  8
0
  6
Continuous
 62
     7
370
    15
100
AcDbSpline
210
0.0
220
0.0
230
1.0
 70
     8
 71
     3
 72
    49
 73
    45
 74
     0
 42
0.0000000001
 43
0.0000000001
 40
0.0
 40
0.0
 40
0.0
 40
0.0
 40
0.0008759597309164
 40
0.0265511866233064
 40
0.0526007591698918
 40
0.0778480257121544
 40
0.1032837088553066
 40
0.1289003133999111
 40
0.1549487311586703
 40
0.1801738502021251
 40
0.2055753949435065
 40
0.2312501967652773
 40
0.2572993223032744
 40
0.2825467238793515
 40
0.3079710469229378
 40
0.3335993282474323
 40
0.3596479424774726
 40
0.3848951848997126
 40
0.4103308267012344
 40
0.4359473842003778
 40
0.4619957503307829
 40
0.4872210648048345
 40
0.5126228338166685
 40
0.5382978761650969
 40
0.5643472485810941
 40
0.5895944799486168
 40
0.6150301144489916
 40
0.6406466627945045
 40
0.6666950107133337
 40
0.6847366427914517
 40
0.702858788845273
 40
0.7210459711844406
 40
0.7393154246692796
 40
0.7598554481028197
 40
0.7804903442150333
 40
0.8007396677974529
 40
0.8259651244747507
 40
0.8513670149974542
 40
0.8770421586446349
 40
0.9030916089220173
 40
0.9283171028422303
 40
0.9537190411671081
 40
0.9793942680594978
 40
1.0
 40
1.0
 40
1.0
 40
1.0
 10
2215.330303950393
 20
1203.827515022156
 30
0.0
 10
2215.331495153268
 20
1203.822075079535
 30
0.0
 10
2215.367601664494
 20
1203.657185157483
 30
0.0
 10
2215.372093838582
 20
1203.326272416223
 30
0.0
 10
2215.336399939016
 20
1202.844587629017
 30
0.0
 10
2215.219914885631
 20
1202.368242614271
 30
0.0
 10
2215.035885553429
 20
1201.902206539175
 30
0.0
 10
2214.778971692538
 20
1201.442206131225
 30
0.0
 10
2214.453747753851
 20
1200.997817413916
 30
0.0
 10
2214.063308645929
 20
1200.572109601008
 30
0.0
 10
2213.612530232795
 20
1200.168521952489
 30
0.0
 10
2213.096608752127
 20
1199.783915802302
 30
0.0
 10
2212.524499162951
 20
1199.426364602556
 30
0.0
 10
2211.901864153176
 20
1199.09880371009
 30
0.0
 10
2211.235474161314
 20
1198.804701643216
 30
0.0
 10
2210.518816533452
 20
1198.541590776184
 30
0.0
 10
2209.765227384596
 20
1198.315451560936
 30
0.0
 10
2208.980830526179
 20
1198.127517969472
 30
0.0
 10
2208.174106131898
 20
1197.978912178481
 30
0.0
 10
2207.337452523125
 20
1197.868764692187
 30
0.0
 10
2206.487392356621
 20
1197.800084125278
 30
0.0
 10
2205.630383221863
 20
1197.772879948746
 30
0.0
 10
2204.774249436153
 20
1197.786398656885
 30
0.0
 10
2203.911652322753
 20
1197.842648185068
 30
0.0
 10
2203.05978221545
 20
1197.941337594365
 30
0.0
 10
2202.225671188868
 20
1198.081087970337
 30
0.0
 10
2201.416820565796
 20
1198.259727448106
 30
0.0
 10
2200.626198622961
 20
1198.479347279276
 30
0.0
 10
2199.940899105095
 20
1198.712292037346
 30
0.0
 10
2199.355774777256
 20
1198.944999059443
 30
0.0
 10
2198.865222951892
 20
1199.165398960985
 30
0.0
 10
2198.395223625425
 20
1199.403185668078
 30
0.0
 10
2197.92987089449
 20
1199.667770457042
 30
0.0
 10
2197.474656455836
 20
1199.961160626034
 30
0.0
 10
2197.039509444698
 20
1200.282448391781
 30
0.0
 10
2196.610974029322
 20
1200.645891001257
 30
0.0
 10
2196.201208868568
 20
1201.054770807077
 30
0.0
 10
2195.822809567575
 20
1201.514836854653
 30
0.0
 10
2195.506903539436
 20
1201.996904257552
 30
0.0
 10
2195.26147815886
 20
1202.491610662659
 30
0.0
 10
2195.08685607805
 20
1202.994541397474
 30
0.0
 10
2194.985796576938
 20
1203.50134493519
 30
0.0
 10
2194.950511955581
 20
1203.980222095845
 30
0.0
 10
2194.984373454083
 20
1204.288770780602
 30
0.0
 10
2194.999449653428
 20
1204.426146315791
 30
0.0
  0
SPLINE
  5
37B
330
355
100
AcDbEntity
  8
0
  6
Continuous
 62
     7
370
    15
100
AcDbSpline
210
0.0
220
0.0
230
1.0
 70
     8
 71
     3
 72
    49
 73
    45
 74
     0
 42
0.0000000001
 43
0.0000000001
 40
0.0
 40
0.0
 40
0.0
 40
0.0
 40
0.0008759597309164
 40
0.0265511866233063
 40
0.0526007591698918
 40
0.0778480257121545
 40
0.1032837088553068
 40
0.1289003133999114
 40
0.1549487311586707
 40
0.1801738502021256
 40
0.2055753949435071
 40
0.2312501967652771
 40
0.2572993223032742
 40
0.2825467238793513
 40
0.3079710469229377
 40
0.3335993282474321
 40
0.3596479424774724
 40
0.3848951848997126
 40
0.4103308267012343
 40
0.4359473842003776
 40
0.4619957503307827
 40
0.4872210648048344
 40
0.5126228338166685
 40
0.5382978761650968
 40
0.5643472485810939
 40
0.5895944799486167
 40
0.6150301144489915
 40
0.6406466627945033
 40
0.6666950107133335
 40
0.6847366427914514
 40
0.7028587888452728
 40
0.7210459711844404
 40
0.7393154246692794
 40
0.7598554481028195
 40
0.780490344215033
 40
0.8007396677974528
 40
0.8259651244747505
 40
0.851367014997454
 40
0.8770421586446348
 40
0.9030916089220172
 40
0.9283171028422302
 40
0.953719041167108
 40
0.9793942680594977
 40
1.0
 40
1.0
 40
1.0
 40
1.0
 10
2215.330303950393
 20
1205.052326239984
 30
0.0
 10
2215.331495153268
 20
1205.046886297363
 30
0.0
 10
2215.367601664494
 20
1204.881996375312
 30
0.0
 10
2215.372093838582
 20
1204.551083634052
 30
0.0
 10
2215.336399939016
 20
1204.069398846846
 30
0.0
 10
2215.219914885631
 20
1203.5930538321
 30
0.0
 10
2215.035885553429
 20
1203.127017757004
 30
0.0
 10
2214.778971692538
 20
1202.667017349053
 30
0.0
 10
2214.453747753851
 20
1202.222628631744
 30
0.0
 10
2214.063308645929
 20
1201.796920818837
 30
0.0
 10
2213.612530232795
 20
1201.393333170317
 30
0.0
 10
2213.096608752127
 20
1201.008727020131
 30
0.0
 10
2212.52449916295
 20
1200.651175820385
 30
0.0
 10
2211.901864153176
 20
1200.323614927919
 30
0.0
 10
2211.235474161314
 20
1200.029512861045
 30
0.0
 10
2210.518816533452
 20
1199.766401994012
 30
0.0
 10
2209.765227384596
 20
1199.540262778764
 30
0.0
 10
2208.980830526179
 20
1199.352329187301
 30
0.0
 10
2208.174106131898
 20
1199.20372339631
 30
0.0
 10
2207.337452523125
 20
1199.093575910015
 30
0.0
 10
2206.487392356621
 20
1199.024895343107
 30
0.0
 10
2205.630383221863
 20
1198.997691166575
 30
0.0
 10
2204.774249436153
 20
1199.011209874713
 30
0.0
 10
2203.911652322753
 20
1199.067459402897
 30
0.0
 10
2203.05978221545
 20
1199.166148812194
 30
0.0
 10
2202.225671188868
 20
1199.305899188165
 30
0.0
 10
2201.416820565796
 20
1199.484538665935
 30
0.0
 10
2200.626198622961
 20
1199.704158497105
 30
0.0
 10
2199.940899105095
 20
1199.937103255175
 30
0.0
 10
2199.355774777256
 20
1200.169810277271
 30
0.0
 10
2198.865222951892
 20
1200.390210178813
 30
0.0
 10
2198.395223625425
 20
1200.627996885907
 30
0.0
 10
2197.92987089449
 20
1200.892581674871
 30
0.0
 10
2197.474656455836
 20
1201.185971843863
 30
0.0
 10
2197.039509444698
 20
1201.507259609609
 30
0.0
 10
2196.610974029322
 20
1201.870702219086
 30
0.0
 10
2196.201208868568
 20
1202.279582024905
 30
0.0
 10
2195.822809567575
 20
1202.739648072482
 30
0.0
 10
2195.506903539436
 20
1203.22171547538
 30
0.0
 10
2195.26147815886
 20
1203.716421880487
 30
0.0
 10
2195.08685607805
 20
1204.219352615302
 30
0.0
 10
2194.985796576938
 20
1204.726156153019
 30
0.0
 10
2194.950511955581
 20
1205.205033313674
 30
0.0
 10
2194.984373454083
 20
1205.513581998431
 30
0.0
 10
2194.999449653428
 20
1205.650957533619
 30
0.0
  0
SPLINE
  5
37C
330
355
100
AcDbEntity
  8
0
  6
Continuous
 62
     7
370
    15
100
AcDbSpline
210
0.0
220
0.0
230
1.0
 70
     8
 71
     3
 72
    50
 73
    46
 74
     0
 42
0.0000000001
 43
0.0000000001
 40
0.0
 40
0.0
 40
0.0
 40
0.0
 40
0.0066896443199388
 40
0.0292938398633095
 40
0.0520245973718474
 40
0.0772810617030521
 40
0.1027260112768791
 40
0.1283519481633265
 40
0.1544098555770704
 40
0.1796441643409491
 40
0.2051010177377623
 40
0.2307391191698133
 40
0.2567977346206435
 40
0.2820543340348555
 40
0.3074879193705376
 40
0.3331255372908227
 40
0.3591836412474236
 40
0.3844400814498179
 40
0.4098849896669535
 40
0.435510879490801
 40
0.4615687352573825
 40
0.4868032395230542
 40
0.5122142626103625
 40
0.5378986585900121
 40
0.5639575210087827
 40
0.5892139501524315
 40
0.6146588510657597
 40
0.6402847317326433
 40
0.6663425692810135
 40
0.6843907740755535
 40
0.7025195221777065
 40
0.7207133302584659
 40
0.7389894394569571
 40
0.7595369457916697
 40
0.78017935936796
 40
0.8004360599471796
 40
0.8256707064679037
 40
0.851081851110349
 40
0.8767663484256548
 40
0.9028252887341771
 40
0.9217220296760075
 40
0.9407684396217399
 40
0.9598903472906428
 40
0.9824945428340143
 40
0.9999999999999998
 40
0.9999999999999998
 40
0.9999999999999998
 40
0.9999999999999998
 10
2215.328517402782
 20
1206.265742435436
 30
0.0
 10
2215.33567433566
 20
1206.224076551702
 30
0.0
 10
2215.367014424255
 20
1206.041622348232
 30
0.0
 10
2215.371114266801
 20
1205.715028257826
 30
0.0
 10
2215.330680033385
 20
1205.273523597388
 30
0.0
 10
2215.22010359853
 20
1204.817874167845
 30
0.0
 10
2215.035834447424
 20
1204.351826502474
 30
0.0
 10
2214.778985716986
 20
1203.891829257077
 30
0.0
 10
2214.453744038674
 20
1203.447439622633
 30
0.0
 10
2214.063075439623
 20
1203.021476660205
 30
0.0
 10
2213.612237981744
 20
1202.617906298781
 30
0.0
 10
2213.09626687098
 20
1202.233324601725
 30
0.0
 10
2212.524499084243
 20
1201.875986981431
 30
0.0
 10
2211.901864174139
 20
1201.548426160872
 30
0.0
 10
2211.235474155629
 20
1201.254324074773
 30
0.0
 10
2210.518816535007
 20
1200.991213212963
 30
0.0
 10
2209.765227384187
 20
1200.765073996299
 30
0.0
 10
2208.980830526284
 20
1200.577140405207
 30
0.0
 10
2208.174106131865
 20
1200.428534614117
 30
0.0
 10
2207.33745252313
 20
1200.318387127849
 30
0.0
 10
2206.487392356615
 20
1200.249706560934
 30
0.0
 10
2205.63038322186
 20
1200.222502384403
 30
0.0
 10
2204.77424943615
 20
1200.236021092542
 30
0.0
 10
2203.91165232275
 20
1200.292270620726
 30
0.0
 10
2203.059782215447
 20
1200.390960030023
 30
0.0
 10
2202.225671188864
 20
1200.530710405995
 30
0.0
 10
2201.416820565798
 20
1200.709349883763
 30
0.0
 10
2200.62619862294
 20
1200.928969714937
 30
0.0
 10
2199.940899105152
 20
1201.161914472994
 30
0.0
 10
2199.355774777107
 20
1201.394621495127
 30
0.0
 10
2198.865222952449
 20
1201.615021396544
 30
0.0
 10
2198.395223623327
 20
1201.852808104105
 30
0.0
 10
2197.929870902771
 20
1202.11739289124
 30
0.0
 10
2197.474656420564
 20
1202.410783067905
 30
0.0
 10
2197.03950957545
 20
1202.732070804402
 30
0.0
 10
2196.610973502169
 20
1203.095513529788
 30
0.0
 10
2196.201211390516
 20
1203.504392798421
 30
0.0
 10
2195.822800107881
 20
1203.964460956906
 30
0.0
 10
2195.506939459702
 20
1204.446520364825
 30
0.0
 10
2195.281564761
 20
1204.900522973254
 30
0.0
 10
2195.129086499657
 20
1205.31905998344
 30
0.0
 10
2195.032070726636
 20
1205.696306002878
 30
0.0
 10
2194.972773753886
 20
1206.100775901841
 30
0.0
 10
2194.95463721731
 20
1206.49632355914
 30
0.0
 10
2194.985417278344
 20
1206.763566281104
 30
0.0
 10
2194.998850928441
 20
1206.880201696926
 30
0.0
  0
SPLINE
  5
37D
330
355
100
AcDbEntity
  8
0
  6
Continuous
 62
     7
370
    15
100
AcDbSpline
210
0.0
220
0.0
230
1.0
 70
     8
 71
     3
 72
    45
 73
    41
 74
     0
 42
0.0000000001
 43
0.0000000001
 40
0.0
 40
0.0
 40
0.0
 40
0.0
 40
0.0276777250267659
 40
0.0553152518553655
 40
0.0831590334424099
 40
0.1112008649877787
 40
0.1397153912413517
 40
0.1673286737783389
 40
0.1951854814256746
 40
0.2232406243336733
 40
0.2517559253747917
 40
0.2793936000213997
 40
0.3072249460025532
 40
0.3352795598155383
 40
0.3637943011411184
 40
0.3914318015661562
 40
0.419275537897593
 40
0.4473173179435171
 40
0.4758317876808714
 40
0.5034452841506566
 40
0.531251940819144
 40
0.5593577427103033
 40
0.5878733140023548
 40
0.6155108023260806
 40
0.6433545306651395
 40
0.671396300690822
 40
0.6999107504924393
 40
0.719660456455965
 40
0.7394982989771603
 40
0.7594073350304606
 40
0.7794064311697479
 40
0.8018910612485846
 40
0.8244795459842308
 40
0.8466459544876345
 40
0.8742596066236185
 40
0.9020663963068976
 40
0.9301723090871702
 40
0.9586879656120576
 40
0.9793662037812737
 40
1.0
 40
1.0
 40
1.0
 40
1.0
 10
2215.36380016587
 20
1206.989116857757
 30
0.0
 10
2215.354969366177
 20
1206.830716481025
 30
0.0
 10
2215.337320592347
 20
1206.514145782946
 30
0.0
 10
2215.219352644211
 20
1206.042709432172
 30
0.0
 10
2215.036037797893
 20
1205.576631208774
 30
0.0
 10
2214.778929982362
 20
1205.116642259605
 30
0.0
 10
2214.453758545535
 20
1204.67225037594
 30
0.0
 10
2214.063071568749
 20
1204.24628800199
 30
0.0
 10
2213.612239030558
 20
1203.842717483031
 30
0.0
 10
2213.096266583678
 20
1203.458135828759
 30
0.0
 10
2212.524499159095
 20
1203.100798196868
 30
0.0
 10
2211.901864154211
 20
1202.773237379344
 30
0.0
 10
2211.235474161042
 20
1202.479135292432
 30
0.0
 10
2210.518816533536
 20
1202.216024430843
 30
0.0
 10
2209.765227384584
 20
1201.989885214118
 30
0.0
 10
2208.980830526192
 20
1201.801951623041
 30
0.0
 10
2208.174106131904
 20
1201.653345831946
 30
0.0
 10
2207.337452523134
 20
1201.543198345679
 30
0.0
 10
2206.487392356629
 20
1201.474517778763
 30
0.0
 10
2205.630383221871
 20
1201.447313602232
 30
0.0
 10
2204.774249436162
 20
1201.46083231037
 30
0.0
 10
2203.911652322763
 20
1201.517081838553
 30
0.0
 10
2203.059782215456
 20
1201.61577124785
 30
0.0
 10
2202.225671188882
 20
1201.755521623822
 30
0.0
 10
2201.416820565781
 20
1201.934161101587
 30
0.0
 10
2200.626198623055
 20
1202.153780932769
 30
0.0
 10
2199.940899104814
 20
1202.386725690798
 30
0.0
 10
2199.355774777978
 20
1202.619432713006
 30
0.0
 10
2198.86522294917
 20
1202.839832614165
 30
0.0
 10
2198.395223635666
 20
1203.077619322703
 30
0.0
 10
2197.929870854069
 20
1203.342204106027
 30
0.0
 10
2197.47465662802
 20
1203.635594298692
 30
0.0
 10
2197.039508806401
 20
1203.956881974193
 30
0.0
 10
2196.610976602728
 20
1204.320324941288
 30
0.0
 10
2196.201196557152
 20
1204.729203089708
 30
0.0
 10
2195.822855747045
 20
1205.18927565014
 30
0.0
 10
2195.506728187164
 20
1205.671318385875
 30
0.0
 10
2195.282272534264
 20
1206.125378400929
 30
0.0
 10
2195.12769419666
 20
1206.542511580974
 30
0.0
 10
2195.069244201522
 20
1206.792441140293
 30
0.0
 10
2195.040050643118
 20
1206.917271487489
 30
0.0
  0
SPLINE
  5
37E
330
355
100
AcDbEntity
  8
0
  6
Continuous
 62
     7
370
    15
100
AcDbSpline
210
0.0
220
0.0
230
1.0
 70
     8
 71
     3
 72
    38
 73
    34
 74
     0
 42
0.0000000001
 43
0.0000000001
 40
0.0
 40
0.0
 40
0.0
 40
0.0
 40
0.02279100217831
 40
0.0585663923696929
 40
0.0932110485158519
 40
0.1281612403656942
 40
0.1633602710451136
 40
0.199136633313904
 40
0.2338118927122963
 40
0.2687301394042763
 40
0.3039285062613197
 40
0.3397041662900793
 40
0.3743792071035795
 40
0.4093129991920353
 40
0.4444952643253441
 40
0.4802705836093669
 40
0.5149155081636058
 40
0.5498027787213024
 40
0.5850653680540639
 40
0.6208420693897745
 40
0.6555170950205151
 40
0.6904508770814358
 40
0.7256331296429761
 40
0.761408423914877
 40
0.7861871430393033
 40
0.8110764415825366
 40
0.8360550621915601
 40
0.8611466755498982
 40
0.8893567326704662
 40
0.9176970897243926
 40
0.9455078941648691
 40
0.9801530140237389
 40
1.0
 40
1.0
 40
1.0
 40
1.0
 10
2214.93461936654
 20
1206.643059926953
 30
0.0
 10
2214.881921019446
 20
1206.543681107964
 30
0.0
 10
2214.746501258217
 20
1206.288305812895
 30
0.0
 10
2214.452009286549
 20
1205.897367951422
 30
0.0
 10
2214.063538325476
 20
1205.471017474058
 30
0.0
 10
2213.612112563662
 20
1205.067550849721
 30
0.0
 10
2213.096301227948
 20
1204.682940979135
 30
0.0
 10
2212.524490134293
 20
1204.325610995257
 30
0.0
 10
2211.901866558294
 20
1203.998048176127
 30
0.0
 10
2211.235473509495
 20
1203.703946624366
 30
0.0
 10
2210.518816712078
 20
1203.440835617398
 30
0.0
 10
2209.765227338063
 20
1203.214696440091
 30
0.0
 10
2208.980830538581
 20
1203.026762838697
 30
0.0
 10
2208.174106128539
 20
1202.878157050361
 30
0.0
 10
2207.337452524047
 20
1202.768009563346
 30
0.0
 10
2206.487392356376
 20
1202.699328996632
 30
0.0
 10
2205.630383221944
 20
1202.672124820055
 30
0.0
 10
2204.774249436069
 20
1202.685643528183
 30
0.0
 10
2203.911652323014
 20
1202.741893056454
 30
0.0
 10
2203.059782214494
 20
1202.840582465409
 30
0.0
 10
2202.225671192318
 20
1202.98033284263
 30
0.0
 10
2201.416820552762
 20
1203.158972315725
 30
0.0
 10
2200.626198672329
 20
1203.378592164588
 30
0.0
 10
2199.940898941859
 20
1203.611536862377
 30
0.0
 10
2199.35577518289
 20
1203.844244045766
 30
0.0
 10
2198.86522140956
 20
1204.064643394989
 30
0.0
 10
2198.395229419741
 20
1204.302432182277
 30
0.0
 10
2197.929848020341
 20
1204.567008842725
 30
0.0
 10
2197.474753892134
 20
1204.860433123941
 30
0.0
 10
2197.039148243928
 20
1205.181590850018
 30
0.0
 10
2196.612430274477
 20
1205.545548769057
 30
0.0
 10
2196.258856008995
 20
1205.889233627337
 30
0.0
 10
2196.067505569409
 20
1206.12976016923
 30
0.0
 10
2195.997812364625
 20
1206.21736417775
 30
0.0
  0
SPLINE
  5
37F
330
355
100
AcDbEntity
  8
0
  6
Continuous
 62
     7
370
    15
100
AcDbSpline
210
0.0
220
0.0
230
1.0
 70
     8
 71
     3
 72
    14
 73
    10
 74
     0
 42
0.0000000001
 43
0.0000000001
 40
0.0
 40
0.0
 40
0.0
 40
0.0
 40
0.0693764241621563
 40
0.2552142340082689
 40
0.43834431919416
 40
0.6216199357580358
 40
0.8075658275259707
 40
0.9919575788184504
 40
1.0
 40
1.0
 40
1.0
 40
1.0
 10
2203.005519520528
 20
1203.740068416333
 30
0.0
 10
2203.117990236743
 20
1203.720691833921
 30
0.0
 10
2203.531734935089
 20
1203.649411428543
 30
0.0
 10
2204.262803889603
 20
1203.581162768476
 30
0.0
 10
2205.186887512424
 20
1203.535801419194
 30
0.0
 10
2206.113261777051
 20
1203.544253480782
 30
0.0
 10
2207.02890309178
 20
1203.609094088152
 30
0.0
 10
2207.651152895946
 20
1203.674100053155
 30
0.0
 10
2207.954206888794
 20
1203.730631785583
 30
0.0
 10
2207.966872455516
 20
1203.732994422096
 30
0.0
  0
SPLINE
  5
380
330
355
100
AcDbEntity
  8
0
  6
Continuous
 62
     7
370
    15
100
AcDbSpline
210
0.0
220
0.0
230
1.0
 70
     8
 71
     3
 72
    14
 73
    10
 74
     0
 42
0.0000000001
 43
0.0000000001
 40
0.0
 40
0.0
 40
0.0
 40
0.0
 40
0.070633774922629
 40
0.2565615760433231
 40
0.4397750553813967
 40
0.6231818106474071
 40
0.8059152642181253
 40
0.9904010439623295
 40
1.0
 40
1.0
 40
1.0
 40
1.0
 10
2203.006838624473
 20
1202.515096266574
 30
0.0
 10
2203.121301053139
 20
1202.495422871349
 30
0.0
 10
2203.537060526964
 20
1202.423963611378
 30
0.0
 10
2204.270126848804
 20
1202.355778104205
 30
0.0
 10
2205.194230867581
 20
1202.310863259456
 30
0.0
 10
2206.114995877779
 20
1202.3196771385
 30
0.0
 10
2207.025194766181
 20
1202.383964263401
 30
0.0
 10
2207.644574574378
 20
1202.448451944063
 30
0.0
 10
2207.950125449705
 20
1202.505320748382
 30
0.0
 10
2207.965237248207
 20
1202.508133340265
 30
0.0
  0
SPLINE
  5
381
330
355
100
AcDbEntity
  8
0
  6
Continuous
 62
     7
370
    15
100
AcDbSpline
210
0.0
220
0.0
230
1.0
 70
     8
 71
     3
 72
    14
 73
    10
 74
     0
 42
0.0000000001
 43
0.0000000001
 40
0.0
 40
0.0
 40
0.0
 40
0.0
 40
0.0724068326192704
 40
0.2582069351664532
 40
0.4412897398565973
 40
0.6213160126533913
 40
0.8039199397694835
 40
0.988283711607505
 40
0.9999999999999998
 40
0.9999999999999998
 40
0.9999999999999998
 40
0.9999999999999998
 10
2203.005237132744
 20
1201.290600681709
 30
0.0
 10
2203.122660634131
 20
1201.27046085158
 30
0.0
 10
2203.541399602721
 20
1201.198641057447
 30
0.0
 10
2204.277444787552
 20
1201.130387539294
 30
0.0
 10
2205.196063219518
 20
1201.086190575708
 30
0.0
 10
2206.111177633736
 20
1201.094908200064
 30
0.0
 10
2207.016097563428
 20
1201.158226673151
 30
0.0
 10
2207.638912796939
 20
1201.222946090519
 30
0.0
 10
2207.947851328367
 20
1201.280337882238
 30
0.0
 10
2207.966311200959
 20
1201.283767189544
 30
0.0
  0
SPLINE
  5
382
330
355
100
AcDbEntity
  8
0
  6
Continuous
 62
     7
370
    15
100
AcDbSpline
210
0.0
220
0.0
230
1.0
 70
     8
 71
     3
 72
    14
 73
    10
 74
     0
 42
0.0000000001
 43
0.0000000001
 40
0.0
 40
0.0
 40
0.0
 40
0.0
 40
0.0734649509171358
 40
0.2593430586350516
 40
0.4392541422952612
 40
0.6193437474776392
 40
0.8020202833049268
 40
0.9864661256030581
 40
1.0
 40
1.0
 40
1.0
 40
1.0
 10
2203.007509778101
 20
1200.065466630838
 30
0.0
 10
2203.126608645923
 20
1200.045089178386
 30
0.0
 10
2203.547046749743
 20
1199.973153503208
 30
0.0
 10
2204.279374090185
 20
1199.9055311466
 30
0.0
 10
2205.192409918299
 20
1199.861598404487
 30
0.0
 10
2206.102010829898
 20
1199.86975535776
 30
0.0
 10
2207.006952573345
 20
1199.932566805447
 30
0.0
 10
2207.632841426357
 20
1199.99721840298
 30
0.0
 10
2207.944580569054
 20
1200.055193371201
 30
0.0
 10
2207.965891026874
 20
1200.059156534454
 30
0.0
  0
SPLINE
  5
383
330
355
100
AcDbEntity
  8
0
  6
Continuous
 62
     7
370
    15
100
AcDbSpline
210
0.0
220
0.0
230
1.0
 70
     8
 71
     3
 72
    14
 73
    10
 74
     0
 42
0.0000000001
 43
0.0000000001
 40
0.0
 40
0.0
 40
0.0
 40
0.0
 40
0.0753593922547073
 40
0.2578644097848235
 40
0.437745139674631
 40
0.6177455311775193
 40
0.8003399338880079
 40
0.9880721759045076
 40
1.0
 40
1.0
 40
1.0
 40
1.0
 10
2203.005398242547
 20
1198.841045751784
 30
0.0
 10
2203.127626048839
 20
1198.820171691503
 30
0.0
 10
2203.54586457473
 20
1198.748744931372
 30
0.0
 10
2204.275768616211
 20
1198.681104501412
 30
0.0
 10
2205.183241168855
 20
1198.636959190388
 30
0.0
 10
2206.092848803414
 20
1198.644602631069
 30
0.0
 10
2207.003342447114
 20
1198.707315105015
 30
0.0
 10
2207.632269632222
 20
1198.77201216394
 30
0.0
 10
2207.946705164642
 20
1198.830576068146
 30
0.0
 10
2207.96548975083
 20
1198.834074714426
 30
0.0
  0
SPLINE
  5
384
330
355
100
AcDbEntity
  8
0
  6
Continuous
 62
     7
370
    15
100
AcDbSpline
210
0.0
220
0.0
230
1.0
 70
     8
 71
     3
 72
    14
 73
    10
 74
     0
 42
0.0000000001
 43
0.0000000001
 40
0.0
 40
0.0
 40
0.0
 40
0.0
 40
0.0733086569771769
 40
0.2558340157391918
 40
0.435741989580889
 40
0.6157101366492688
 40
0.8016160644478153
 40
0.9893571314936863
 40
1.0
 40
1.0
 40
1.0
 40
1.0
 10
2203.0062596255
 20
1197.615838400092
 30
0.0
 10
2203.125168591078
 20
1197.595551780254
 30
0.0
 10
2203.540139474814
 20
1197.52475512904
 30
0.0
 10
2204.26659876273
 20
1197.45696785101
 30
0.0
 10
2205.174070295012
 20
1197.412321936226
 30
0.0
 10
2206.089277568707
 20
1197.419494704996
 30
0.0
 10
2207.005230937093
 20
1197.482636585986
 30
0.0
 10
2207.637462931401
 20
1197.547856095839
 30
0.0
 10
2207.949830963956
 20
1197.606139579507
 30
0.0
 10
2207.966588832412
 20
1197.609266362182
 30
0.0
  0
SPLINE
  5
385
330
355
100
AcDbEntity
  8
0
  6
Continuous
 62
     7
370
    15
100
AcDbSpline
210
0.0
220
0.0
230
1.0
 70
     8
 71
     3
 72
     9
 73
     5
 74
     0
 42
0.0000000001
 43
0.0000000001
 40
0.0
 40
0.0
 40
0.0
 40
0.0
 40
0.4867298613524173
 40
1.0
 40
1.0
 40
1.0
 40
1.0
 10
2203.003345790053
 20
1196.386342723619
 30
0.0
 10
2203.267556845064
 20
1196.347800536153
 30
0.0
 10
2203.810385785692
 20
1196.268614543005
 30
0.0
 10
2204.364147354875
 20
1196.232944037267
 30
0.0
 10
2204.648376632267
 20
1196.214635431841
 30
0.0
  0
SPLINE
  5
386
330
355
100
AcDbEntity
  8
0
  6
Continuous
 62
     7
370
    15
100
AcDbSpline
210
0.0
220
0.0
230
1.0
 70
     8
 71
     3
 72
    25
 73
    21
 74
     0
 42
0.0000000001
 43
0.0000000001
 40
0.0
 40
0.0
 40
0.0
 40
0.0
 40
0.0404684094598014
 40
0.0809368170217805
 40
0.1218816399935771
 40
0.1628264618319725
 40
0.2254563823116582
 40
0.288086302680633
 40
0.3525357151266258
 40
0.4169851353491252
 40
0.479616263420148
 40
0.5422474043443661
 40
0.6066618367002751
 40
0.6710770684858849
 40
0.7344744379173271
 40
0.7978718024465904
 40
0.8630566170574468
 40
0.9282414337078416
 40
0.9925488774181145
 40
1.0
 40
1.0
 40
1.0
 40
1.0
 10
2204.648376632267
 20
1196.214635431841
 30
0.0
 10
2204.477142988091
 20
1196.218278769086
 30
0.0
 10
2204.134675707768
 20
1196.225565443405
 30
0.0
 10
2203.621192018543
 20
1196.256752218806
 30
0.0
 10
2203.109249869713
 20
1196.302970535383
 30
0.0
 10
2202.51066863969
 20
1196.376741949139
 30
0.0
 10
2201.833504164941
 20
1196.488757881218
 30
0.0
 10
2201.081600200864
 20
1196.653080586275
 30
0.0
 10
2200.349467624033
 20
1196.855498015422
 30
0.0
 10
2199.649793730603
 20
1197.093112826115
 30
0.0
 10
2198.993792251367
 20
1197.361464166764
 30
0.0
 10
2198.378654396643
 20
1197.660194990179
 30
0.0
 10
2197.803680829554
 20
1197.990733664765
 30
0.0
 10
2197.275941317446
 20
1198.348997700944
 30
0.0
 10
2196.803830497437
 20
1198.729221719357
 30
0.0
 10
2196.385749573947
 20
1199.13205547148
 30
0.0
 10
2196.022167468384
 20
1199.557366039147
 30
0.0
 10
2195.726973788199
 20
1200.001626942804
 30
0.0
 10
2195.547755281963
 20
1200.321018823762
 30
0.0
 10
2195.486795536057
 20
1200.49282880107
 30
0.0
 10
2195.480465719803
 20
1200.510668862095
 30
0.0
  0
SPLINE
  5
387
330
355
100
AcDbEntity
  8
0
  6
Continuous
 62
     7
370
    15
100
AcDbSpline
210
0.0
220
0.0
230
1.0
 70
     8
 71
     3
 72
    24
 73
    20
 74
     0
 42
0.0000000001
 43
0.0000000001
 40
0.0
 40
0.0
 40
0.0
 40
0.0
 40
0.0321405306078972
 40
0.0927622058544826
 40
0.1540360003658672
 40
0.2162030785861331
 40
0.2764037828998171
 40
0.3370255722264124
 40
0.3982995654026957
 40
0.4604669354187221
 40
0.520719600149369
 40
0.5813944547633052
 40
0.6425560119995941
 40
0.7047206261115849
 40
0.7649204357809514
 40
0.8255412858195469
 40
0.8868142645637336
 40
0.9489805677926442
 40
1.0
 40
1.0
 40
1.0
 40
1.0
 10
2199.889534995629
 20
1204.521711152037
 30
0.0
 10
2200.017954977871
 20
1204.472948449868
 30
0.0
 10
2200.388593564209
 20
1204.332212260044
 30
0.0
 10
2201.042726512116
 20
1204.137564506496
 30
0.0
 10
2201.846926521893
 20
1203.936860172351
 30
0.0
 10
2202.675101947503
 20
1203.778636901923
 30
0.0
 10
2203.517478809549
 20
1203.661440372306
 30
0.0
 10
2204.367435091366
 20
1203.585904738422
 30
0.0
 10
2205.232266050528
 20
1203.552063726597
 30
0.0
 10
2206.094935411739
 20
1203.560677078843
 30
0.0
 10
2206.948051648973
 20
1203.61055967004
 30
0.0
 10
2207.784022622475
 20
1203.700533046481
 30
0.0
 10
2208.610106442753
 20
1203.831870649332
 30
0.0
 10
2209.409347318584
 20
1204.002733345883
 30
0.0
 10
2210.175828752006
 20
1204.211346006089
 30
0.0
 10
2210.903942045678
 20
1204.454850903722
 30
0.0
 10
2211.597546080195
 20
1204.736815434964
 30
0.0
 10
2212.216185692452
 20
1205.03317085012
 30
0.0
 10
2212.577166090464
 20
1205.248893160063
 30
0.0
 10
2212.739881072821
 20
1205.346131824681
 30
0.0
  0
SPLINE
  5
388
330
355
100
AcDbEntity
  8
0
  6
Continuous
 62
     7
370
    15
100
AcDbSpline
210
0.0
220
0.0
230
1.0
 70
     8
 71
     3
 72
    42
 73
    38
 74
     0
 42
0.0000000001
 43
0.0000000001
 40
0.0
 40
0.0
 40
0.0
 40
0.0
 40
0.0156697258297032
 40
0.0479978136239289
 40
0.0808708325434323
 40
0.1036393748897965
 40
0.1265095258853847
 40
0.1494617526826835
 40
0.1725178056779689
 40
0.1984393182837553
 40
0.2244805602240342
 40
0.2500352095747837
 40
0.2738741830945756
 40
0.2979019571598625
 40
0.3220249639752364
 40
0.3505409652680513
 40
0.3792166088596383
 40
0.4110511859113969
 40
0.4431084358278927
 40
0.4755105759569399
 40
0.5083851403568522
 40
0.5402471944608519
 40
0.5723325056932095
 40
0.6046751888667938
 40
0.6375482959242993
 40
0.6693823998815346
 40
0.7014391530956008
 40
0.7338407567854626
 40
0.7667147570604706
 40
0.798576981577163
 40
0.8306624810119762
 40
0.863005375827408
 40
0.8958787308316981
 40
0.927740754496226
 40
0.9598405382052252
 40
0.9921686375513331
 40
1.0
 40
1.0
 40
1.0
 40
1.0
 10
2195.539761979491
 20
1206.532442083893
 30
0.0
 10
2195.583790162378
 20
1206.453485986245
 30
0.0
 10
2195.718652542193
 20
1206.211636186155
 30
0.0
 10
2196.019447548498
 20
1205.819990568552
 30
0.0
 10
2196.393776964379
 20
1205.408576011808
 30
0.0
 10
2196.774094525984
 20
1205.05744080865
 30
0.0
 10
2197.13566730914
 20
1204.762628843709
 30
0.0
 10
2197.527726969955
 20
1204.479836056941
 30
0.0
 10
2197.965852107242
 20
1204.199536934505
 30
0.0
 10
2198.452988125843
 20
1203.92457198526
 30
0.0
 10
2198.987074892279
 20
1203.660407648909
 30
0.0
 10
2199.534136676217
 20
1203.423904701827
 30
0.0
 10
2200.089734870974
 20
1203.213846814699
 30
0.0
 10
2200.654399566192
 20
1203.027808929727
 30
0.0
 10
2201.274663576041
 20
1202.851816856669
 30
0.0
 10
2201.951719151975
 20
1202.691605397687
 30
0.0
 10
2202.711557969566
 20
1202.548671081652
 30
0.0
 10
2203.517505689628
 20
1202.436648691953
 30
0.0
 10
2204.367427778141
 20
1202.361088212465
 30
0.0
 10
2205.232268075524
 20
1202.327253950459
 30
0.0
 10
2206.094934799935
 20
1202.335865529708
 30
0.0
 10
2206.948052116631
 20
1202.385748382341
 30
0.0
 10
2207.784021342241
 20
1202.475722446226
 30
0.0
 10
2208.610111163769
 20
1202.607056994227
 30
0.0
 10
2209.409329658491
 20
1202.777931289945
 30
0.0
 10
2210.175892489125
 20
1202.986501710869
 30
0.0
 10
2210.903700985249
 20
1203.230164791158
 30
0.0
 10
2211.598461980095
 20
1203.511528883601
 30
0.0
 10
2212.24550117137
 20
1203.825823437773
 30
0.0
 10
2212.839921266951
 20
1204.169675414125
 30
0.0
 10
2213.377326204047
 20
1204.538227785169
 30
0.0
 10
2213.861960174382
 20
1204.935325449638
 30
0.0
 10
2214.282474993238
 20
1205.35358505664
 30
0.0
 10
2214.638491788527
 20
1205.789397530557
 30
0.0
 10
2214.920311057206
 20
1206.238852657344
 30
0.0
 10
2215.096692252154
 20
1206.583621857391
 30
0.0
 10
2215.155110189575
 20
1206.779947446203
 30
0.0
 10
2215.166502076343
 20
1206.81823224324
 30
0.0
  0
SPLINE
  5
389
330
355
100
AcDbEntity
  8
0
  6
Continuous
 62
     7
370
    15
100
AcDbSpline
210
0.0
220
0.0
230
1.0
 70
     8
 71
     3
 72
    47
 73
    43
 74
     0
 42
0.0000000001
 43
0.0000000001
 40
0.0
 40
0.0
 40
0.0
 40
0.0
 40
0.0216340763388577
 40
0.049467518248336
 40
0.0764438820708874
 40
0.1036215523806005
 40
0.1309925269634003
 40
0.1588248742099457
 40
0.178102141638089
 40
0.1974654372833358
 40
0.2168982234192291
 40
0.2364189152872588
 40
0.2583656839052119
 40
0.2804138228421294
 40
0.3020499821567148
 40
0.3222335433510409
 40
0.3425769548577287
 40
0.3630009963478129
 40
0.3871444208385177
 40
0.4114230084520728
 40
0.4383761460729608
 40
0.4655178124234126
 40
0.4929514843295788
 40
0.5207851400761897
 40
0.5477615414825296
 40
0.5749269662924377
 40
0.6023102982333361
 40
0.6301427201030089
 40
0.6570954571725776
 40
0.6842367029837845
 40
0.7116699207070932
 40
0.7395030988303901
 40
0.7664796445187417
 40
0.7936452286725818
 40
0.8210287398026622
 40
0.8488613715995406
 40
0.8758377472339256
 40
0.9030154253448275
 40
0.9303864097081726
 40
0.9582187764135671
 40
0.9851717222983836
 40
1.0
 40
1.0
 40
1.0
 40
1.0
 10
2194.987261483973
 20
1206.966009666494
 30
0.0
 10
2195.001884142076
 20
1206.831005186104
 30
0.0
 10
2195.035319662746
 20
1206.522309936411
 30
0.0
 10
2195.173876949533
 20
1206.050061881832
 30
0.0
 10
2195.385254604742
 20
1205.551774454484
 30
0.0
 10
2195.66613795796
 20
1205.068089372681
 30
0.0
 10
2196.017065822366
 20
1204.594709419807
 30
0.0
 10
2196.394204046781
 20
1204.18384906027
 30
0.0
 10
2196.773997692529
 20
1203.832610484916
 30
0.0
 10
2197.135693397039
 20
1203.537822773202
 30
0.0
 10
2197.527719961295
 20
1203.255023456255
 30
0.0
 10
2197.965854250544
 20
1202.974726139565
 30
0.0
 10
2198.452987519832
 20
1202.699760647861
 30
0.0
 10
2198.987075051965
 20
1202.435596462588
 30
0.0
 10
2199.534136636945
 20
1202.19909347625
 30
0.0
 10
2200.089734881271
 20
1201.989035598902
 30
0.0
 10
2200.654399563427
 20
1201.802997711353
 30
0.0
 10
2201.274663576935
 20
1201.627005639017
 30
0.0
 10
2201.951719151717
 20
1201.466794179808
 30
0.0
 10
2202.711557969644
 20
1201.323859863839
 30
0.0
 10
2203.517505689605
 20
1201.21183747412
 30
0.0
 10
2204.36742777815
 20
1201.136276994637
 30
0.0
 10
2205.232268075512
 20
1201.102442732632
 30
0.0
 10
2206.09493479997
 20
1201.111054311875
 30
0.0
 10
2206.948052116503
 20
1201.160937164527
 30
0.0
 10
2207.784021342723
 20
1201.250911228342
 30
0.0
 10
2208.610111161945
 20
1201.382245776607
 30
0.0
 10
2209.40932966533
 20
1201.553120071334
 30
0.0
 10
2210.175892464437
 20
1201.761690495866
 30
0.0
 10
2210.903701078622
 20
1202.005353562641
 30
0.0
 10
2211.598461625325
 20
1202.286717706384
 30
0.0
 10
2212.245502498872
 20
1202.60101206798
 30
0.0
 10
2212.83991647034
 20
1202.944864745384
 30
0.0
 10
2213.377344324454
 20
1203.313414493023
 30
0.0
 10
2213.861891481604
 20
1203.710522095356
 30
0.0
 10
2214.28273257119
 20
1204.128744352799
 30
0.0
 10
2214.6375609492
 20
1204.564692869753
 30
0.0
 10
2214.923827942355
 20
1205.013638847139
 30
0.0
 10
2215.144496606
 20
1205.479816465845
 30
0.0
 10
2215.289251073787
 20
1205.954046866257
 30
0.0
 10
2215.361680833562
 20
1206.360725638895
 30
0.0
 10
2215.35777631807
 20
1206.605822291354
 30
0.0
 10
2215.356390594172
 20
1206.692807805766
 30
0.0
  0
SPLINE
  5
38A
330
355
100
AcDbEntity
  8
0
  6
Continuous
 62
     7
370
    15
100
AcDbSpline
210
0.0
220
0.0
230
1.0
 70
     8
 71
     3
 72
    47
 73
    43
 74
     0
 42
0.0000000001
 43
0.0000000001
 40
0.0
 40
0.0
 40
0.0
 40
0.0
 40
0.0120942842509242
 40
0.0390400037012503
 40
0.0663785790949339
 40
0.0928753148780546
 40
0.1195697780063731
 40
0.1464541085417094
 40
0.1737916087350917
 40
0.1927261347158338
 40
0.2117451593693218
 40
0.2308324390026943
 40
0.2500060614424403
 40
0.2715626260405576
 40
0.2932187586373699
 40
0.3144702364307125
 40
0.3409441198778582
 40
0.3676031690137427
 40
0.3945489947761724
 40
0.4218876518846594
 40
0.4483615744179001
 40
0.4750206737217244
 40
0.501966586849231
 40
0.5293053722781157
 40
0.5558021449768004
 40
0.5824845803249853
 40
0.609381048509956
 40
0.6367186219996988
 40
0.6631921511032494
 40
0.6898508373448348
 40
0.7167963043646577
 40
0.7441346206621638
 40
0.7706315350775878
 40
0.797314126936638
 40
0.8242107711248854
 40
0.8515485508094204
 40
0.8780452981943648
 40
0.9047397689851695
 40
0.9316241091271566
 40
0.9589616284334184
 40
0.9854353626395727
 40
1.0
 40
1.0
 40
1.0
 40
1.0
 10
2194.974122162075
 20
1206.080362485842
 30
0.0
 10
2194.972159578458
 20
1206.003434211593
 30
0.0
 10
2194.965824414669
 20
1205.755111942238
 30
0.0
 10
2195.032733512972
 20
1205.333480112194
 30
0.0
 10
2195.171813985806
 20
1204.825210474818
 30
0.0
 10
2195.385804471562
 20
1204.326973948785
 30
0.0
 10
2195.66598894251
 20
1203.843275251772
 30
0.0
 10
2196.017107109175
 20
1203.369899006558
 30
0.0
 10
2196.394196645762
 20
1202.959037697399
 30
0.0
 10
2196.773999364899
 20
1202.607799301806
 30
0.0
 10
2197.135692968576
 20
1202.313011538894
 30
0.0
 10
2197.527719993475
 20
1202.030212269604
 30
0.0
 10
2197.965854565981
 20
1201.749914807276
 30
0.0
 10
2198.452986028415
 20
1201.474949914716
 30
0.0
 10
2198.987080616891
 20
1201.21078344872
 30
0.0
 10
2199.592098808965
 20
1200.949221873029
 30
0.0
 10
2200.273654932076
 20
1200.697245058694
 30
0.0
 10
2201.041578773801
 20
1200.462041207454
 30
0.0
 10
2201.847240790069
 20
1200.262724880192
 30
0.0
 10
2202.675020222903
 20
1200.104125661012
 30
0.0
 10
2203.51750057109
 20
1199.987027376417
 30
0.0
 10
2204.367429169605
 20
1199.911465472306
 30
0.0
 10
2205.232267694521
 20
1199.877631598178
 30
0.0
 10
2206.094934899141
 20
1199.886243072344
 30
0.0
 10
2206.948052090086
 20
1199.93612595248
 30
0.0
 10
2207.784021349883
 20
1200.026100008947
 30
0.0
 10
2208.610111159983
 20
1200.157434559208
 30
0.0
 10
2209.409329665841
 20
1200.328308853393
 30
0.0
 10
2210.175892464301
 20
1200.536879278067
 30
0.0
 10
2210.90370107866
 20
1200.780542344804
 30
0.0
 10
2211.598461625315
 20
1201.061906488558
 30
0.0
 10
2212.245502498875
 20
1201.376200850151
 30
0.0
 10
2212.839916470339
 20
1201.720053527556
 30
0.0
 10
2213.377344324454
 20
1202.088603275194
 30
0.0
 10
2213.861891481604
 20
1202.485710877527
 30
0.0
 10
2214.28273257119
 20
1202.903933134971
 30
0.0
 10
2214.6375609492
 20
1203.339881651924
 30
0.0
 10
2214.923827942355
 20
1203.78882762931
 30
0.0
 10
2215.144496606
 20
1204.255005248016
 30
0.0
 10
2215.289251073787
 20
1204.729235648428
 30
0.0
 10
2215.361680833562
 20
1205.135914421066
 30
0.0
 10
2215.35777631807
 20
1205.381011073526
 30
0.0
 10
2215.356390594172
 20
1205.467996587937
 30
0.0
  0
SPLINE
  5
38B
330
355
100
AcDbEntity
  8
0
  6
Continuous
 62
     7
370
    15
100
AcDbSpline
210
0.0
220
0.0
230
1.0
 70
     8
 71
     3
 72
    48
 73
    44
 74
     0
 42
0.0000000001
 43
0.0000000001
 40
0.0
 40
0.0
 40
0.0
 40
0.0
 40
0.0120941511256369
 40
0.0390395739766297
 40
0.066377848446701
 40
0.0928742925725816
 40
0.119568461867218
 40
0.1464524964789456
 40
0.1737896957605517
 40
0.1927240133234859
 40
0.2117428286290645
 40
0.2308298981632255
 40
0.2500033095533596
 40
0.271559636872131
 40
0.2932155310936236
 40
0.3144667749657991
 40
0.3409403670072471
 40
0.3675991226992614
 40
0.3945446518611878
 40
0.4218830080451631
 40
0.4417075223372929
 40
0.4616890539328883
 40
0.4817497899636093
 40
0.5054637837676786
 40
0.5293105533501218
 40
0.5558070343911603
 40
0.5824891760380561
 40
0.6093853481658166
 40
0.6367226207429752
 40
0.6631958584447285
 40
0.6898542512464382
 40
0.7167994216697064
 40
0.7441374370464521
 40
0.7706340598026698
 40
0.7973163579587082
 40
0.8242127060878077
 40
0.851550184857489
 40
0.8780466405850656
 40
0.9047408175421038
 40
0.9316248617603772
 40
0.9589620801546523
 40
0.9854355229567516
 40
1.0
 40
1.0
 40
1.0
 40
1.0
 10
2194.974122162075
 20
1204.855551268013
 30
0.0
 10
2194.972159578458
 20
1204.778622993764
 30
0.0
 10
2194.965824414669
 20
1204.530300724409
 30
0.0
 10
2195.032733512972
 20
1204.108668894365
 30
0.0
 10
2195.171813985806
 20
1203.600399256989
 30
0.0
 10
2195.385804471562
 20
1203.102162730957
 30
0.0
 10
2195.665988942509
 20
1202.618464033944
 30
0.0
 10
2196.01710710918
 20
1202.14508778873
 30
0.0
 10
2196.394196645745
 20
1201.734226479571
 30
0.0
 10
2196.77399936494
 20
1201.382988083976
 30
0.0
 10
2197.135692968421
 20
1201.088200321073
 30
0.0
 10
2197.527719994055
 20
1200.805401051748
 30
0.0
 10
2197.965854563689
 20
1200.525103589556
 30
0.0
 10
2198.452986038176
 20
1200.250138696425
 30
0.0
 10
2198.987080580707
 20
1199.985972232608
 30
0.0
 10
2199.592098954848
 20
1199.724410648278
 30
0.0
 10
2200.273654234156
 20
1199.472433873983
 30
0.0
 10
2201.041581391661
 20
1199.237229865403
 30
0.0
 10
2201.847230849554
 20
1199.037914134058
 30
0.0
 10
2202.606898850675
 20
1198.892371025052
 30
0.0
 10
2203.307920814717
 20
1198.790449886722
 30
0.0
 10
2203.940290774228
 20
1198.722437168179
 30
0.0
 10
2204.618866521635
 20
1198.674751122779
 30
0.0
 10
2205.341530988278
 20
1198.653270487026
 30
0.0
 10
2206.131911487152
 20
1198.66358484373
 30
0.0
 10
2206.948057670591
 20
1198.711317620372
 30
0.0
 10
2207.784019837488
 20
1198.801288009048
 30
0.0
 10
2208.610111574454
 20
1198.932623555706
 30
0.0
 10
2209.409329557975
 20
1199.103497579787
 30
0.0
 10
2210.175892493021
 20
1199.31206807509
 30
0.0
 10
2210.903701070852
 20
1199.555731122939
 30
0.0
 10
2211.598461627453
 20
1199.837095271835
 30
0.0
 10
2212.245502498319
 20
1200.151389632035
 30
0.0
 10
2212.839916470487
 20
1200.495242309804
 30
0.0
 10
2213.377344324414
 20
1200.863792057345
 30
0.0
 10
2213.861891481615
 20
1201.260899659704
 30
0.0
 10
2214.282732571187
 20
1201.67912191714
 30
0.0
 10
2214.637560949201
 20
1202.115070434096
 30
0.0
 10
2214.923827942355
 20
1202.564016411481
 30
0.0
 10
2215.144496606
 20
1203.030194030188
 30
0.0
 10
2215.289251073787
 20
1203.504424430599
 30
0.0
 10
2215.361680833562
 20
1203.911103203237
 30
0.0
 10
2215.35777631807
 20
1204.156199855697
 30
0.0
 10
2215.356390594172
 20
1204.243185370108
 30
0.0
  0
SPLINE
  5
38C
330
355
100
AcDbEntity
  8
0
  6
Continuous
 62
     7
370
    15
100
AcDbSpline
210
0.0
220
0.0
230
1.0
 70
     8
 71
     3
 72
    48
 73
    44
 74
     0
 42
0.0000000001
 43
0.0000000001
 40
0.0
 40
0.0
 40
0.0
 40
0.0
 40
0.0120941511144475
 40
0.0390395739405111
 40
0.0663778483852896
 40
0.0928742924866564
 40
0.119568461756596
 40
0.1464524963434521
 40
0.1737896955997655
 40
0.1927240131450851
 40
0.2117428284329684
 40
0.2308298979493689
 40
0.2500033093216624
 40
0.2715596366204904
 40
0.2932155308219475
 40
0.3144667746744623
 40
0.340940366691417
 40
0.3675991223587673
 40
0.3945446514957641
 40
0.4218830076544469
 40
0.4417075219282358
 40
0.4616890535053442
 40
0.4817497895175055
 40
0.5054637832996357
 40
0.5293105528600163
 40
0.555807033876541
 40
0.5825012541960641
 40
0.6093853477626978
 40
0.6367226203145647
 40
0.6631958579918256
 40
0.6899025665763582
 40
0.7167994219313161
 40
0.7441374372827691
 40
0.7706340600144724
 40
0.7973163581458253
 40
0.8242127062500417
 40
0.8515501849944305
 40
0.8780466406974937
 40
0.904740817629835
 40
0.9316248618232359
 40
0.9589620801922187
 40
0.9854355229698249
 40
1.0
 40
1.0
 40
1.0
 40
1.0
 10
2194.974122162075
 20
1203.630740050184
 30
0.0
 10
2194.972159578458
 20
1203.553811775935
 30
0.0
 10
2194.965824414669
 20
1203.30548950658
 30
0.0
 10
2195.032733512972
 20
1202.883857676537
 30
0.0
 10
2195.171813985806
 20
1202.375588039161
 30
0.0
 10
2195.385804471562
 20
1201.877351513128
 30
0.0
 10
2195.665988942509
 20
1201.393652816115
 30
0.0
 10
2196.01710710918
 20
1200.920276570901
 30
0.0
 10
2196.394196645745
 20
1200.509415261743
 30
0.0
 10
2196.773999364938
 20
1200.158176866149
 30
0.0
 10
2197.135692968417
 20
1199.863389103247
 30
0.0
 10
2197.527719994049
 20
1199.580589833924
 30
0.0
 10
2197.965854563681
 20
1199.300292371733
 30
0.0
 10
2198.452986038167
 20
1199.025327478601
 30
0.0
 10
2198.987080580696
 20
1198.761161014784
 30
0.0
 10
2199.592098954838
 20
1198.499599430454
 30
0.0
 10
2200.273654234146
 20
1198.247622656158
 30
0.0
 10
2201.041581391646
 20
1198.012418647578
 30
0.0
 10
2201.847230849552
 20
1197.813102916234
 30
0.0
 10
2202.606898850629
 20
1197.66755980722
 30
0.0
 10
2203.307920814794
 20
1197.565638668909
 30
0.0
 10
2203.940290773873
 20
1197.497625950296
 30
0.0
 10
2204.618866523002
 20
1197.449939905175
 30
0.0
 10
2205.341530982047
 20
1197.428459268188
 30
0.0
 10
2206.131911511452
 20
1197.438773629849
 30
0.0
 10
2206.948185551834
 20
1197.486513871121
 30
0.0
 10
2207.784145369386
 20
1197.576493503462
 30
0.0
 10
2208.610231053247
 20
1197.707837889466
 30
0.0
 10
2209.409329677703
 20
1197.878686402688
 30
0.0
 10
2210.176352420107
 20
1198.08738195157
 30
0.0
 10
2210.904130755397
 20
1198.331078491889
 30
0.0
 10
2211.598848252147
 20
1198.612471905166
 30
0.0
 10
2212.245502596144
 20
1198.926578448269
 30
0.0
 10
2212.839916444417
 20
1199.270431082894
 30
0.0
 10
2213.377344331469
 20
1199.63898084197
 30
0.0
 10
2213.861891479673
 20
1200.036088441196
 30
0.0
 10
2214.282732571685
 20
1200.454310699481
 30
0.0
 10
2214.637560949062
 20
1200.890259216214
 30
0.0
 10
2214.923827942388
 20
1201.339205193659
 30
0.0
 10
2215.144496605987
 20
1201.805382812349
 30
0.0
 10
2215.289251073787
 20
1202.279613212765
 30
0.0
 10
2215.361680833561
 20
1202.686291985404
 30
0.0
 10
2215.35777631807
 20
1202.931388637866
 30
0.0
 10
2215.356390594172
 20
1203.01837415228
 30
0.0
  0
SPLINE
  5
38D
330
355
100
AcDbEntity
  8
0
  6
Continuous
 62
     7
370
    15
100
AcDbSpline
210
0.0
220
0.0
230
1.0
 70
     8
 71
     3
 72
    47
 73
    43
 74
     0
 42
0.0000000001
 43
0.0000000001
 40
0.0
 40
0.0
 40
0.0
 40
0.0
 40
0.0120942842397331
 40
0.0390400036651299
 40
0.0663785790335198
 40
0.0928753147921261
 40
0.1195697778957479
 40
0.1464541084062107
 40
0.1737916085743008
 40
0.1927261345375255
 40
0.2117451591734173
 40
0.2308324387891306
 40
0.2500060612111375
 40
0.271562625789311
 40
0.2932187583660874
 40
0.314470236139769
 40
0.3409441195624209
 40
0.3676031686736408
 40
0.3945489944111408
 40
0.4218876514943345
 40
0.4483615740030812
 40
0.4750206732822415
 40
0.5019665863848175
 40
0.5293053717884093
 40
0.5558021444625802
 40
0.5824966586163468
 40
0.6093810481072366
 40
0.6367186215716868
 40
0.6631921506507448
 40
0.6898991532069843
 40
0.7167963046266729
 40
0.7441346208988854
 40
0.7706315352897947
 40
0.7973141271241584
 40
0.824210771287522
 40
0.8515485509467641
 40
0.8780452983071945
 40
0.9047397690733022
 40
0.9316241091904158
 40
0.9589616284713857
 40
0.9854353626530462
 40
1.0
 40
1.0
 40
1.0
 40
1.0
 10
2194.974122162075
 20
1202.405928832356
 30
0.0
 10
2194.972159578458
 20
1202.329000558107
 30
0.0
 10
2194.965824414669
 20
1202.080678288752
 30
0.0
 10
2195.032733512972
 20
1201.659046458708
 30
0.0
 10
2195.171813985806
 20
1201.150776821332
 30
0.0
 10
2195.385804471562
 20
1200.652540295299
 30
0.0
 10
2195.66598894251
 20
1200.168841598286
 30
0.0
 10
2196.017107109175
 20
1199.695465353072
 30
0.0
 10
2196.394196645762
 20
1199.284604043913
 30
0.0
 10
2196.773999364899
 20
1198.93336564832
 30
0.0
 10
2197.135692968576
 20
1198.638577885408
 30
0.0
 10
2197.527719993475
 20
1198.355778616118
 30
0.0
 10
2197.965854565981
 20
1198.07548115379
 30
0.0
 10
2198.452986028415
 20
1197.800516261231
 30
0.0
 10
2198.987080616891
 20
1197.536349795234
 30
0.0
 10
2199.592098808965
 20
1197.274788219543
 30
0.0
 10
2200.273654932073
 20
1197.022811405207
 30
0.0
 10
2201.041578773811
 20
1196.78760755397
 30
0.0
 10
2201.84724079003
 20
1196.5882912267
 30
0.0
 10
2202.675020223046
 20
1196.429692007548
 30
0.0
 10
2203.517500570573
 20
1196.312593722849
 30
0.0
 10
2204.367429171565
 20
1196.23703181913
 30
0.0
 10
2205.232267687074
 20
1196.203197943512
 30
0.0
 10
2206.094934927007
 20
1196.211809423277
 30
0.0
 10
2206.948179968947
 20
1196.261699766157
 30
0.0
 10
2207.784146881188
 20
1196.351683067441
 30
0.0
 10
2208.610230638906
 20
1196.483026457361
 30
0.0
 10
2209.409329785565
 20
1196.653875240636
 30
0.0
 10
2210.176352391341
 20
1196.862570718863
 30
0.0
 10
2210.904130763205
 20
1197.106267278096
 30
0.0
 10
2211.598848250021
 20
1197.387660686237
 30
0.0
 10
2212.24550259671
 20
1197.701767230733
 30
0.0
 10
2212.839916444277
 20
1198.045619864994
 30
0.0
 10
2213.377344331517
 20
1198.414169624167
 30
0.0
 10
2213.861891479669
 20
1198.811277223367
 30
0.0
 10
2214.282732571694
 20
1199.22949948166
 30
0.0
 10
2214.637560949066
 20
1199.665447998391
 30
0.0
 10
2214.923827942392
 20
1200.114393975837
 30
0.0
 10
2215.14449660599
 20
1200.580571594527
 30
0.0
 10
2215.289251073789
 20
1201.054801994943
 30
0.0
 10
2215.361680833562
 20
1201.46148076758
 30
0.0
 10
2215.35777631807
 20
1201.70657742004
 30
0.0
 10
2215.356390594172
 20
1201.793562934451
 30
0.0
  0
SPLINE
  5
38E
330
355
100
AcDbEntity
  8
0
  6
Continuous
 62
     7
370
    15
100
AcDbSpline
210
0.0
220
0.0
230
1.0
 70
     8
 71
     3
 72
    13
 73
     9
 74
     0
 42
0.0000000001
 43
0.0000000001
 40
0.0
 40
0.0
 40
0.0
 40
0.0
 40
0.1519637698223472
 40
0.3043786770507541
 40
0.4581472899749639
 40
0.6123676462340861
 40
0.8479130148703781
 40
1.0
 40
1.0
 40
1.0
 40
1.0
 10
2204.648376632267
 20
1196.214635431841
 30
0.0
 10
2204.819041820743
 20
1196.207525560825
 30
0.0
 10
2205.160878854319
 20
1196.193284711599
 30
0.0
 10
2205.676969916681
 20
1196.192431115531
 30
0.0
 10
2206.194955229589
 20
1196.20623162412
 30
0.0
 10
2206.803589170074
 20
1196.2429209861
 30
0.0
 10
2207.40714486807
 20
1196.298965993772
 30
0.0
 10
2207.828123513239
 20
1196.365663750258
 30
0.0
 10
2207.993293866864
 20
1196.391832517132
 30
0.0
  0
ARC
  5
38F
330
355
100
AcDbEntity
  8
0
  6
Continuous
 62
     7
370
    15
100
AcDbCircle
 10
2201.630248770851
 20
1214.412609333515
 30
0.0
 40
0.96730793088044
100
AcDbArc
 50
61.66610089455791
 51
84.24584477141765
  0
LINE
  5
390
330
355
100
AcDbEntity
  8
0
  6
Continuous
 62
     7
370
    15
100
AcDbLine
 10
2202.089341879962
 20
1215.264030586662
 30
0.0
 11
2202.696264425552
 21
1214.913661658906
 31
0.0
  0
LINE
  5
391
330
355
100
AcDbEntity
  8
0
  6
Continuous
 62
     7
370
    15
100
AcDbLine
 10
2206.555619659718
 20
1212.685703305649
 30
0.0
 11
2208.871703510141
 21
1211.348656558639
 31
0.0
  0
LINE
  5
392
330
355
100
AcDbEntity
  8
0
  6
Continuous
 62
     7
370
    15
100
AcDbLine
 10
2202.089341879962
 20
1216.21345598745
 30
0.0
 11
2202.089341879962
 21
1215.264030586662
 31
0.0
  0
LWPOLYLINE
  5
393
330
355
100
AcDbEntity
  8
0
  6
Continuous
 62
     8
370
    15
100
AcDbPolyline
 90
       70
 70
   128
 43
0.0
 10
2217.415254740167
 20
1211.882992679605
 10
2217.402185319452
 20
1211.56005068823
 10
2217.363000037738
 20
1211.234148663036
 10
2217.297784156345
 20
1210.90963910792
 10
2217.206676849251
 20
1210.587214542628
 10
2217.089872544042
 20
1210.267563037431
 10
2216.94762050699
 20
1209.951366744748
 10
2216.780224311113
 20
1209.639300443405
 10
2216.588041188327
 20
1209.332030098615
 10
2216.371481267101
 20
1209.030211440777
 10
2216.131006697223
 20
1208.734488566119
 10
2215.867130663542
 20
1208.445492562158
 10
2215.580416290811
 20
1208.163840160931
 10
2215.271475441953
 20
1207.890132422855
 10
2214.940967412307
 20
1207.624953454037
 10
2214.589597522664
 20
1207.368869159761
 10
2214.218115614077
 20
1207.122426036815
 10
2213.827314447659
 20
1206.886150007244
 10
2213.418028012794
 20
1206.660545296002
 10
2212.99112974736
 20
1206.446093354913
 10
2212.547530673769
 20
1206.243251835225
 10
2212.0881774548
 20
1206.052453610965
 10
2211.614050373371
 20
1205.874105855158
 10
2211.126161240567
 20
1205.708589170902
 10
2210.625551236386
 20
1205.556256779144
 10
2210.113288687804
 20
1205.417433764884
 10
2209.590466788916
 20
1205.29241638343
 10
2209.058201268002
 20
1205.181471428176
 10
2208.517628006506
 20
1205.084835661246
 10
2207.969900615012
 20
1205.002715308237
 10
2207.416187971376
 20
1204.935285618121
 10
2206.857671726284
 20
1204.882690489254
 10
2206.295543781549
 20
1204.845042162294
 10
2205.731003746533
 20
1204.822420980665
 10
2205.165256378123
 20
1204.81487521911
 10
2204.599509009713
 20
1204.822420980665
 10
2204.034968974698
 20
1204.845042162294
 10
2203.472841029963
 20
1204.882690489254
 10
2202.91432478487
 20
1204.935285618121
 10
2202.360612141234
 20
1205.002715308237
 10
2201.81288474974
 20
1205.084835661246
 10
2201.272311488245
 20
1205.181471428176
 10
2200.740045967331
 20
1205.29241638343
 10
2200.217224068443
 20
1205.417433764884
 10
2199.704961519861
 20
1205.556256779144
 10
2199.20435151568
 20
1205.708589170902
 10
2198.716462382876
 20
1205.874105855158
 10
2198.242335301447
 20
1206.052453610965
 10
2197.782982082477
 20
1206.243251835225
 10
2197.339383008887
 20
1206.446093354913
 10
2196.912484743453
 20
1206.660545296002
 10
2196.503198308588
 20
1206.886150007244
 10
2196.11239714217
 20
1207.122426036815
 10
2195.740915233583
 20
1207.368869159761
 10
2195.389545343941
 20
1207.624953454037
 10
2195.059037314294
 20
1207.890132422855
 10
2194.750096465436
 20
1208.163840160931
 10
2194.463382092705
 20
1208.445492562158
 10
2194.199506059024
 20
1208.734488566119
 10
2193.959031489145
 20
1209.030211440777
 10
2193.74247156792
 20
1209.332030098615
 10
2193.550288445134
 20
1209.639300443405
 10
2193.382892249256
 20
1209.951366744748
 10
2193.240640212205
 20
1210.267563037431
 10
2193.123835906996
 20
1210.587214542628
 10
2193.032728599902
 20
1210.90963910792
 10
2192.967512718509
 20
1211.234148663036
 10
2192.928327436794
 20
1211.56005068823
 10
2192.915256378124
 20
1211.886649692158
 10
2192.915259723642
 20
1211.891876145719
  0
LINE
  5
394
330
355
100
AcDbEntity
  8
0
  6
Continuous
 62
     8
370
    15
100
AcDbLine
 10
2209.231120369946
 20
1211.441394878283
 30
0.0
 11
2209.231120369946
 21
1212.090595022745
 31
0.0
  0
ENDBLK
  5
357
330
355
100
AcDbEntity
  8
0
100
AcDbBlockEnd
  0
ENDSEC
  0
SECTION
  2
ENTITIES
  0
INSERT
  5
349
330
1F
100
AcDbEntity
  8
0
100
AcDbBlockReference
  2
1
 10
0.0
 20
0.0
 30
0.0
  0
INSERT
  5
354
330
1F
100
AcDbEntity
  8
0
100
AcDbBlockReference
  2
2
 10
0.0
 20
0.0
 30
0.0
  0
INSERT
  5
395
330
1F
100
AcDbEntity
  8
0
100
AcDbBlockReference
  2
3
 10
0.0
 20
0.0
 30
0.0
  0
ENDSEC
  0
SECTION
  2
OBJECTS
  0
DICTIONARY
  5
C
330
0
100
AcDbDictionary
281
     1
  3
ACAD_COLOR
350
6B
  3
ACAD_GROUP
350
D
  3
ACAD_LAYOUT
350
1A
  3
ACAD_MATERIAL
350
6A
  3
ACAD_MLEADERSTYLE
350
12D
  3
ACAD_MLINESTYLE
350
17
  3
ACAD_PLOTSETTINGS
350
19
  3
ACAD_PLOTSTYLENAME
350
E
  3
ACAD_SCALELIST
350
10C
  3
ACAD_TABLESTYLE
350
7E
  3
ACAD_VISUALSTYLE
350
EF
  3
ACDB_RECOMPOSE_DATA
350
15D
  3
AcDbVariableDictionary
350
5E
  3
DWGPROPS
350
3A3
  0
DICTIONARY
  5
13C
330
10
100
AcDbDictionary
280
     1
281
     1
  3
ADSK_XREC_LAYER_RECONCILED
360
396
  0
DICTIONARY
  5
6B
102
{ACAD_REACTORS
330
C
102
}
330
C
100
AcDbDictionary
281
     1
  0
DICTIONARY
  5
D
102
{ACAD_REACTORS
330
C
102
}
330
C
100
AcDbDictionary
281
     1
  0
DICTIONARY
  5
1A
102
{ACAD_REACTORS
330
C
102
}
330
C
100
AcDbDictionary
281
     1
  3
Layout1
350
D3
  3
Layout2
350
D7
  3
Model
350
22
  0
DICTIONARY
  5
6A
102
{ACAD_REACTORS
330
C
102
}
330
C
100
AcDbDictionary
281
     1
  3
ByBlock
350
ED
  3
ByLayer
350
EC
  3
Global
350
EE
  0
DICTIONARY
  5
12D
102
{ACAD_REACTORS
330
C
102
}
330
C
100
AcDbDictionary
281
     1
  3
Annotative
350
13B
  3
Standard
350
12E
  0
DICTIONARY
  5
17
102
{ACAD_REACTORS
330
C
102
}
330
C
100
AcDbDictionary
281
     1
  3
Standard
350
18
  0
DICTIONARY
  5
19
102
{ACAD_REACTORS
330
C
102
}
330
C
100
AcDbDictionary
281
     1
  0
ACDBDICTIONARYWDFLT
  5
E
102
{ACAD_REACTORS
330
C
102
}
330
C
100
AcDbDictionary
281
     1
  3
Normal
350
F
100
AcDbDictionaryWithDefault
340
F
  0
DICTIONARY
  5
10C
102
{ACAD_REACTORS
330
C
102
}
330
C
100
AcDbDictionary
281
     1
  3
A0
350
10D
  3
A1
350
188
  3
A2
350
189
  3
A3
350
18A
  3
A4
350
18B
  3
A5
350
18C
  3
A6
350
18D
  3
A7
350
18E
  3
A8
350
18F
  3
A9
350
190
  3
B0
350
191
  3
B1
350
192
  3
B2
350
193
  3
B3
350
194
  3
B4
350
195
  3
B5
350
196
  3
B6
350
197
  3
B7
350
198
  3
B8
350
199
  3
B9
350
19A
  3
C0
350
19B
  3
C1
350
19C
  3
C2
350
19D
  3
C3
350
19E
  3
C4
350
19F
  3
C5
350
1A0
  3
C6
350
1A1
  3
C7
350
1A2
  3
C8
350
1A3
  3
C9
350
1A4
  3
D0
350
1A5
  3
D1
350
1A6
  3
D2
350
1A7
  0
DICTIONARY
  5
7E
102
{ACAD_REACTORS
330
C
102
}
330
C
100
AcDbDictionary
281
     1
  3
Standard
350
7F
  0
DICTIONARY
  5
EF
102
{ACAD_REACTORS
330
C
102
}
330
C
100
AcDbDictionary
281
     1
  3
2dWireframe
350
F5
  3
3D Hidden
350
F7
  3
3dWireframe
350
F6
  3
Basic
350
F4
  3
Brighten
350
FB
  3
ColorChange
350
FF
  3
Conceptual
350
F8
  3
Dim
350
FA
  3
Facepattern
350
FE
  3
Flat
350
F0
  3
FlatWithEdges
350
F1
  3
Gouraud
350
F2
  3
GouraudWithEdges
350
F3
  3
Linepattern
350
FD
  3
Realistic
350
F9
  3
Thicken
350
FC
  0
XRECORD
  5
15D
102
{ACAD_REACTORS
330
C
102
}
330
C
100
AcDbXrecord
280
     1
 90
        1
330
7F
  0
DICTIONARY
  5
5E
102
{ACAD_REACTORS
330
C
102
}
330
C
100
AcDbDictionary
281
     1
  3
CANNOSCALE
350
146
  3
CMLEADERSTYLE
350
145
  3
CTABLESTYLE
350
84
  3
DIMASSOC
350
5F
  3
HIDETEXT
350
63
  3
INDEXCTL
350
39F
  3
LIGHTINGUNITS
350
39D
  3
MSLTSCALE
350
39C
  3
PSOLHEIGHT
350
3A1
  3
PSOLWIDTH
350
3A0
  3
SORTENTS
350
39E
  0
XRECORD
  5
3A3
102
{ACAD_REACTORS
330
C
102
}
330
C
100
AcDbXrecord
280
     1
  1
DWGPROPS COOKIE
  2

  3

  4

  6

  7

  8
orhan kara
  9

300
=
301
=
302
=
303
=
304
=
305
=
306
=
307
=
308
=
309
=
 40
0.0004688657407407
 41
2459059.855028449
 42
2459067.64676507
  1

 90
        0
  0
XRECORD
  5
396
102
{ACAD_REACTORS
330
13C
102
}
330
13C
100
AcDbXrecord
280
     1
290
     1
  0
LAYOUT
  5
D3
102
{ACAD_XDICTIONARY
360
3A7
102
}
102
{ACAD_REACTORS
330
1A
102
}
330
1A
100
AcDbPlotSettings
  1

  2
C:\Documents and Settings\basas\Application Data\Autodesk\AutoCAD 2005\R16.1\enu\plotters\Default Windows System Printer.pc3
  4

  6

 40
0.0
 41
0.0
 42
0.0
 43
0.0
 44
0.0
 45
0.0
 46
0.0
 47
0.0
 48
0.0
 49
0.0
140
0.0
141
0.0
142
1.0
143
1.0
 70
   688
 72
     0
 73
     0
 74
     5
  7

 75
    16
147
1.0
148
0.0
149
0.0
100
AcDbLayout
  1
Layout1
 70
     1
 71
     1
 10
0.0
 20
0.0
 11
12.0
 21
9.0
 12
0.0
 22
0.0
 32
0.0
 14
0.0
 24
0.0
 34
0.0
 15
0.0
 25
0.0
 35
0.0
146
0.0
 13
0.0
 23
0.0
 33
0.0
 16
1.0
 26
0.0
 36
0.0
 17
0.0
 27
1.0
 37
0.0
 76
     0
330
D2
  0
LAYOUT
  5
D7
102
{ACAD_XDICTIONARY
360
3A9
102
}
102
{ACAD_REACTORS
330
1A
102
}
330
1A
100
AcDbPlotSettings
  1

  2
C:\Documents and Settings\basas\Application Data\Autodesk\AutoCAD 2005\R16.1\enu\plotters\Default Windows System Printer.pc3
  4

  6

 40
0.0
 41
0.0
 42
0.0
 43
0.0
 44
0.0
 45
0.0
 46
0.0
 47
0.0
 48
0.0
 49
0.0
140
0.0
141
0.0
142
1.0
143
1.0
 70
   688
 72
     0
 73
     0
 74
     5
  7

 75
    16
147
1.0
148
0.0
149
0.0
100
AcDbLayout
  1
Layout2
 70
     1
 71
     2
 10
0.0
 20
0.0
 11
12.0
 21
9.0
 12
0.0
 22
0.0
 32
0.0
 14
0.0
 24
0.0
 34
0.0
 15
0.0
 25
0.0
 35
0.0
146
0.0
 13
0.0
 23
0.0
 33
0.0
 16
1.0
 26
0.0
 36
0.0
 17
0.0
 27
1.0
 37
0.0
 76
     0
330
D6
  0
LAYOUT
  5
22
102
{ACAD_XDICTIONARY
360
3A4
102
}
102
{ACAD_REACTORS
330
1A
102
}
330
1A
100
AcDbPlotSettings
  1

  2
none_device
  4
ISO_A4_(210.00_x_297.00_MM)
  6

 40
7.5
 41
20.0
 42
7.5
 43
20.0
 44
210.0
 45
297.0
 46
11.54999923706054
 47
-13.65000009536743
 48
0.0
 49
0.0
140
0.0
141
0.0
142
1.0
143
8.704084754739808
 70
 11952
 72
     1
 73
     0
 74
     0
  7

 75
     0
147
0.1148885871608098
148
0.0
149
0.0
100
AcDbLayout
  1
Model
 70
     1
 71
     0
 10
0.0
 20
0.0
 11
12.0
 21
9.0
 12
0.0
 22
0.0
 32
0.0
 14
0.0
 24
0.0
 34
0.0
 15
0.0
 25
0.0
 35
0.0
146
0.0
 13
0.0
 23
0.0
 33
0.0
 16
1.0
 26
0.0
 36
0.0
 17
0.0
 27
1.0
 37
0.0
 76
     0
330
1F
331
EA
1001
ACAD_PSEXT
1000
None
1000
None
1000
Not applicable
1000
The layout will not be plotted unless a new plotter configuration name is selected.
1070
     0
  0
MATERIAL
  5
ED
102
{ACAD_XDICTIONARY
360
3AD
102
}
102
{ACAD_REACTORS
330
6A
102
}
330
6A
100
AcDbMaterial
  1
ByBlock
  0
MATERIAL
  5
EC
102
{ACAD_XDICTIONARY
360
3AB
102
}
102
{ACAD_REACTORS
330
6A
102
}
330
6A
100
AcDbMaterial
  1
ByLayer
  0
MATERIAL
  5
EE
102
{ACAD_XDICTIONARY
360
173
102
}
102
{ACAD_REACTORS
330
6A
102
}
330
6A
100
AcDbMaterial
  1
Global
 43
0.0007999999797903
 43
0.0
 43
0.0
 43
0.0
 43
0.0
 43
0.0007999999797903
 43
0.0
 43
0.0
 43
0.0
 43
0.0
 43
1.0
 43
0.0
 43
0.0
 43
0.0
 43
0.0
 43
1.0
 49
0.0007999999797903
 49
0.0
 49
0.0
 49
0.0
 49
0.0
 49
0.0007999999797903
 49
0.0
 49
0.0
 49
0.0
 49
0.0
 49
1.0
 49
0.0
 49
0.0
 49
0.0
 49
0.0
 49
1.0
142
0.0007999999797903
142
0.0
142
0.0
142
0.0
142
0.0
142
0.0007999999797903
142
0.0
142
0.0
142
0.0
142
0.0
142
1.0
142
0.0
142
0.0
142
0.0
142
0.0
142
1.0
144
0.0007999999797903
144
0.0
144
0.0
144
0.0
144
0.0
144
0.0007999999797903
144
0.0
144
0.0
144
0.0
144
0.0
144
1.0
144
0.0
144
0.0
144
0.0
144
0.0
144
1.0
1001
ACAD
1070
    -1
1070
     3
1070
     0
1000

1071
        0
1070
     0
  0
MLEADERSTYLE
  5
13B
102
{ACAD_REACTORS
330
12D
102
}
330
12D
100
AcDbMLeaderStyle
170
     2
171
     1
172
     0
 90
        2
 40
0.0
 41
0.0
173
     1
 91
-1056964608
340
14
 92
       -2
290
     1
 42
2.0
291
     1
 43
8.0
  3
Standard
 44
4.0
300

342
11
174
     1
178
     1
175
     1
176
     0
 93
-1056964608
 45
4.0
292
     0
297
     0
 46
4.0
 94
-1056964608
 47
1.0
 49
1.0
140
1.0
293
     1
141
0.0
294
     1
177
     0
142
1.0
295
     0
296
     1
143
3.75
1001
ACAD_MLEADERVER
1070
     2
  0
MLEADERSTYLE
  5
12E
102
{ACAD_REACTORS
330
12D
102
}
330
12D
100
AcDbMLeaderStyle
170
     2
171
     1
172
     0
 90
        2
 40
0.0
 41
0.0
173
     1
 91
-1056964608
340
14
 92
       -2
290
     1
 42
2.0
291
     1
 43
8.0
  3
Standard
 44
4.0
300

342
11
174
     1
178
     1
175
     1
176
     0
 93
-1056964608
 45
4.0
292
     0
297
     0
 46
4.0
 94
-1056964608
 47
1.0
 49
1.0
140
1.0
293
     1
141
0.0
294
     1
177
     0
142
1.0
295
     0
296
     0
143
3.75
1001
ACAD_MLEADERVER
1070
     2
  0
MLINESTYLE
  5
18
102
{ACAD_REACTORS
330
17
102
}
330
17
100
AcDbMlineStyle
  2
STANDARD
 70
     0
  3

 62
   256
 51
90.0
 52
90.0
 71
     2
 49
0.5
 62
   256
  6
BYLAYER
 49
-0.5
 62
   256
  6
BYLAYER
  0
ACDBPLACEHOLDER
  5
F
102
{ACAD_REACTORS
330
E
102
}
330
E
  0
SCALE
  5
10D
102
{ACAD_REACTORS
330
10C
102
}
330
10C
100
AcDbScale
 70
     0
300
1:1
140
1.0
141
1.0
290
     1
  0
SCALE
  5
188
102
{ACAD_REACTORS
330
10C
102
}
330
10C
100
AcDbScale
 70
     0
300
1:2
140
1.0
141
2.0
290
     0
  0
SCALE
  5
189
102
{ACAD_REACTORS
330
10C
102
}
330
10C
100
AcDbScale
 70
     0
300
1:4
140
1.0
141
4.0
290
     0
  0
SCALE
  5
18A
102
{ACAD_REACTORS
330
10C
102
}
330
10C
100
AcDbScale
 70
     0
300
1:5
140
1.0
141
5.0
290
     0
  0
SCALE
  5
18B
102
{ACAD_REACTORS
330
10C
102
}
330
10C
100
AcDbScale
 70
     0
300
1:8
140
1.0
141
8.0
290
     0
  0
SCALE
  5
18C
102
{ACAD_REACTORS
330
10C
102
}
330
10C
100
AcDbScale
 70
     0
300
1:10
140
1.0
141
10.0
290
     0
  0
SCALE
  5
18D
102
{ACAD_REACTORS
330
10C
102
}
330
10C
100
AcDbScale
 70
     0
300
1:16
140
1.0
141
16.0
290
     0
  0
SCALE
  5
18E
102
{ACAD_REACTORS
330
10C
102
}
330
10C
100
AcDbScale
 70
     0
300
1:20
140
1.0
141
20.0
290
     0
  0
SCALE
  5
18F
102
{ACAD_REACTORS
330
10C
102
}
330
10C
100
AcDbScale
 70
     0
300
1:30
140
1.0
141
30.0
290
     0
  0
SCALE
  5
190
102
{ACAD_REACTORS
330
10C
102
}
330
10C
100
AcDbScale
 70
     0
300
1:40
140
1.0
141
40.0
290
     0
  0
SCALE
  5
191
102
{ACAD_REACTORS
330
10C
102
}
330
10C
100
AcDbScale
 70
     0
300
1:50
140
1.0
141
50.0
290
     0
  0
SCALE
  5
192
102
{ACAD_REACTORS
330
10C
102
}
330
10C
100
AcDbScale
 70
     0
300
1:100
140
1.0
141
100.0
290
     0
  0
SCALE
  5
193
102
{ACAD_REACTORS
330
10C
102
}
330
10C
100
AcDbScale
 70
     0
300
2:1
140
2.0
141
1.0
290
     0
  0
SCALE
  5
194
102
{ACAD_REACTORS
330
10C
102
}
330
10C
100
AcDbScale
 70
     0
300
4:1
140
4.0
141
1.0
290
     0
  0
SCALE
  5
195
102
{ACAD_REACTORS
330
10C
102
}
330
10C
100
AcDbScale
 70
     0
300
8:1
140
8.0
141
1.0
290
     0
  0
SCALE
  5
196
102
{ACAD_REACTORS
330
10C
102
}
330
10C
100
AcDbScale
 70
     0
300
10:1
140
10.0
141
1.0
290
     0
  0
SCALE
  5
197
102
{ACAD_REACTORS
330
10C
102
}
330
10C
100
AcDbScale
 70
     0
300
100:1
140
100.0
141
1.0
290
     0
  0
SCALE
  5
198
102
{ACAD_REACTORS
330
10C
102
}
330
10C
100
AcDbScale
 70
     0
300
1/128" = 1'-0"
140
0.0078125
141
12.0
290
     0
  0
SCALE
  5
199
102
{ACAD_REACTORS
330
10C
102
}
330
10C
100
AcDbScale
 70
     0
300
1/64" = 1'-0"
140
0.015625
141
12.0
290
     0
  0
SCALE
  5
19A
102
{ACAD_REACTORS
330
10C
102
}
330
10C
100
AcDbScale
 70
     0
300
1/32" = 1'-0"
140
0.03125
141
12.0
290
     0
  0
SCALE
  5
19B
102
{ACAD_REACTORS
330
10C
102
}
330
10C
100
AcDbScale
 70
     0
300
1/16" = 1'-0"
140
0.0625
141
12.0
290
     0
  0
SCALE
  5
19C
102
{ACAD_REACTORS
330
10C
102
}
330
10C
100
AcDbScale
 70
     0
300
3/32" = 1'-0"
140
0.09375
141
12.0
290
     0
  0
SCALE
  5
19D
102
{ACAD_REACTORS
330
10C
102
}
330
10C
100
AcDbScale
 70
     0
300
1/8" = 1'-0"
140
0.125
141
12.0
290
     0
  0
SCALE
  5
19E
102
{ACAD_REACTORS
330
10C
102
}
330
10C
100
AcDbScale
 70
     0
300
3/16" = 1'-0"
140
0.1875
141
12.0
290
     0
  0
SCALE
  5
19F
102
{ACAD_REACTORS
330
10C
102
}
330
10C
100
AcDbScale
 70
     0
300
1/4" = 1'-0"
140
0.25
141
12.0
290
     0
  0
SCALE
  5
1A0
102
{ACAD_REACTORS
330
10C
102
}
330
10C
100
AcDbScale
 70
     0
300
3/8" = 1'-0"
140
0.375
141
12.0
290
     0
  0
SCALE
  5
1A1
102
{ACAD_REACTORS
330
10C
102
}
330
10C
100
AcDbScale
 70
     0
300
1/2" = 1'-0"
140
0.5
141
12.0
290
     0
  0
SCALE
  5
1A2
102
{ACAD_REACTORS
330
10C
102
}
330
10C
100
AcDbScale
 70
     0
300
3/4" = 1'-0"
140
0.75
141
12.0
290
     0
  0
SCALE
  5
1A3
102
{ACAD_REACTORS
330
10C
102
}
330
10C
100
AcDbScale
 70
     0
300
1" = 1'-0"
140
1.0
141
12.0
290
     0
  0
SCALE
  5
1A4
102
{ACAD_REACTORS
330
10C
102
}
330
10C
100
AcDbScale
 70
     0
300
1-1/2" = 1'-0"
140
1.5
141
12.0
290
     0
  0
SCALE
  5
1A5
102
{ACAD_REACTORS
330
10C
102
}
330
10C
100
AcDbScale
 70
     0
300
3" = 1'-0"
140
3.0
141
12.0
290
     0
  0
SCALE
  5
1A6
102
{ACAD_REACTORS
330
10C
102
}
330
10C
100
AcDbScale
 70
     0
300
6" = 1'-0"
140
6.0
141
12.0
290
     0
  0
SCALE
  5
1A7
102
{ACAD_REACTORS
330
10C
102
}
330
10C
100
AcDbScale
 70
     0
300
1'-0" = 1'-0"
140
12.0
141
12.0
290
     0
  0
TABLESTYLE
  5
7F
102
{ACAD_XDICTIONARY
360
162
102
}
102
{ACAD_REACTORS
330
7E
102
}
330
7E
100
AcDbTableStyle
  3
Standard
 70
     0
 71
     0
 40
1.5
 41
1.5
280
     0
281
     0
  7
Standard
140
4.5
170
     2
 62
     0
 63
     7
283
     0
274
    -2
284
     1
 64
     0
275
    -2
285
     1
 65
     0
276
    -2
286
     1
 66
     0
277
    -2
287
     1
 67
     0
278
    -2
288
     1
 68
     0
279
    -2
289
     1
 69
     0
  7
Standard
140
6.0
170
     5
 62
     0
 63
     7
283
     0
274
    -2
284
     1
 64
     0
275
    -2
285
     1
 65
     0
276
    -2
286
     1
 66
     0
277
    -2
287
     1
 67
     0
278
    -2
288
     1
 68
     0
279
    -2
289
     1
 69
     0
  7
Standard
140
4.5
170
     5
 62
     0
 63
     7
283
     0
274
    -2
284
     1
 64
     0
275
    -2
285
     1
 65
     0
276
    -2
286
     1
 66
     0
277
    -2
287
     1
 67
     0
278
    -2
288
     1
 68
     0
279
    -2
289
     1
 69
     0
  0
VISUALSTYLE
  5
F5
102
{ACAD_REACTORS
330
EF
102
}
330
EF
100
AcDbVisualStyle
  2
2dWireframe
 70
     4
 71
     0
 72
     2
 73
     1
 90
        0
 40
-0.6
 41
-30.0
 62
     5
 63
     7
 74
     1
 91
        4
 64
     7
 65
   257
 75
     1
175
     1
 42
1.0
 92
        0
 66
   257
 43
1.0
 76
     1
 77
     6
 78
     2
 67
     7
 79
     5
170
     0
171
     0
290
     0
174
     0
 93
        1
 44
0.0
173
     0
291
     0
 45
0.0
1001
ACAD
1000
AcDbSavedByObjectVersion
1070
     0
  0
VISUALSTYLE
  5
F7
102
{ACAD_REACTORS
330
EF
102
}
330
EF
100
AcDbVisualStyle
  2
3D Hidden
 70
     6
 71
     1
 72
     2
 73
     2
 90
        0
 40
-0.6
 41
-30.0
 62
     5
 63
     7
 74
     2
 91
        2
 64
     7
 65
   257
 75
     2
175
     1
 42
40.0
 92
        0
 66
   257
 43
1.0
 76
     1
 77
     6
 78
     2
 67
     7
 79
     3
170
     0
171
     0
290
     0
174
     0
 93
        1
 44
0.0
173
     0
291
     0
 45
0.0
1001
ACAD
1000
AcDbSavedByObjectVersion
1070
     0
  0
VISUALSTYLE
  5
F6
102
{ACAD_REACTORS
330
EF
102
}
330
EF
100
AcDbVisualStyle
  2
3dWireframe
 70
     5
 71
     0
 72
     2
 73
     1
 90
        0
 40
-0.6
 41
-30.0
 62
     5
 63
     7
 74
     1
 91
        4
 64
     7
 65
   257
 75
     1
175
     1
 42
1.0
 92
        0
 66
   257
 43
1.0
 76
     1
 77
     6
 78
     2
 67
     7
 79
     5
170
     0
171
     0
290
     0
174
     0
 93
        1
 44
0.0
173
     0
291
     0
 45
0.0
1001
ACAD
1000
AcDbSavedByObjectVersion
1070
     0
  0
VISUALSTYLE
  5
F4
102
{ACAD_REACTORS
330
EF
102
}
330
EF
100
AcDbVisualStyle
  2
Basic
 70
     7
 71
     1
 72
     0
 73
     1
 90
        0
 40
-0.6
 41
-30.0
 62
     5
 63
     7
 74
     0
 91
        4
 64
     7
 65
   257
 75
     1
175
     1
 42
1.0
 92
        8
 66
     7
 43
1.0
 76
     1
 77
     6
 78
     2
 67
     7
 79
     5
170
     0
171
     0
290
     0
174
     0
 93
        1
 44
0.0
173
     0
291
     1
 45
0.0
1001
ACAD
1000
AcDbSavedByObjectVersion
1070
     0
  0
VISUALSTYLE
  5
FB
102
{ACAD_REACTORS
330
EF
102
}
330
EF
100
AcDbVisualStyle
  2
Brighten
 70
    12
 71
     2
 72
     2
 73
     1
 90
        0
 40
-0.6
 41
-30.0
 62
     5
 63
     7
 74
     1
 91
        4
 64
     7
 65
   257
 75
     1
175
     1
 42
1.0
 92
        8
 66
     7
 43
1.0
 76
     1
 77
     6
 78
     2
 67
     7
 79
     5
170
     0
171
     0
290
     0
174
     0
 93
        1
 44
50.0
173
     0
291
     1
 45
0.0
1001
ACAD
1000
AcDbSavedByObjectVersion
1070
     0
  0
VISUALSTYLE
  5
FF
102
{ACAD_REACTORS
330
EF
102
}
330
EF
100
AcDbVisualStyle
  2
ColorChange
 70
    16
 71
     2
 72
     2
 73
     3
 90
        0
 40
-0.6
 41
-30.0
 62
     5
 63
     8
 74
     1
 91
        4
 64
     7
 65
   257
 75
     1
175
     1
 42
1.0
 92
        8
 66
     8
 43
1.0
 76
     1
 77
     6
 78
     2
 67
     7
 79
     5
170
     0
171
     0
290
     0
174
     0
 93
        1
 44
0.0
173
     0
291
     1
 45
0.0
1001
ACAD
1000
AcDbSavedByObjectVersion
1070
     0
  0
VISUALSTYLE
  5
F8
102
{ACAD_REACTORS
330
EF
102
}
330
EF
100
AcDbVisualStyle
  2
Conceptual
 70
     9
 71
     3
 72
     2
 73
     1
 90
        0
 40
-0.6
 41
-30.0
 62
     5
 63
     7
 74
     2
 91
        2
 64
     7
 65
   257
 75
     1
175
     1
 42
40.0
 92
        8
 66
     7
 43
1.0
 76
     1
 77
     6
 78
     2
 67
     7
 79
     3
170
     0
171
     0
290
     0
174
     0
 93
        1
 44
0.0
173
     0
291
     0
 45
0.0
1001
ACAD
1000
AcDbSavedByObjectVersion
1070
     0
  0
VISUALSTYLE
  5
FA
102
{ACAD_REACTORS
330
EF
102
}
330
EF
100
AcDbVisualStyle
  2
Dim
 70
    11
 71
     2
 72
     2
 73
     1
 90
        0
 40
-0.6
 41
-30.0
 62
     5
 63
     7
 74
     1
 91
        4
 64
     7
 65
   257
 75
     1
175
     1
 42
1.0
 92
        8
 66
     7
 43
1.0
 76
     1
 77
     6
 78
     2
 67
     7
 79
     5
170
     0
171
     0
290
     0
174
     0
 93
        1
 44
-50.0
173
     0
291
     1
 45
0.0
1001
ACAD
1000
AcDbSavedByObjectVersion
1070
     0
  0
VISUALSTYLE
  5
FE
102
{ACAD_REACTORS
330
EF
102
}
330
EF
100
AcDbVisualStyle
  2
Facepattern
 70
    15
 71
     2
 72
     2
 73
     1
 90
        0
 40
-0.6
 41
-30.0
 62
     5
 63
     7
 74
     1
 91
        4
 64
     7
 65
   257
 75
     1
175
     1
 42
1.0
 92
        8
 66
     7
 43
1.0
 76
     1
 77
     6
 78
     2
 67
     7
 79
     5
170
     0
171
     0
290
     0
174
     0
 93
        1
 44
0.0
173
     0
291
     1
 45
0.0
1001
ACAD
1000
AcDbSavedByObjectVersion
1070
     0
  0
VISUALSTYLE
  5
F0
102
{ACAD_REACTORS
330
EF
102
}
330
EF
100
AcDbVisualStyle
  2
Flat
 70
     0
 71
     2
 72
     1
 73
     1
 90
        2
 40
-0.6
 41
30.0
 62
     5
 63
     7
 74
     0
 91
        4
 64
     7
 65
   257
 75
     1
175
     1
 42
1.0
 92
        8
 66
     7
 43
1.0
 76
     1
 77
     6
 78
     2
 67
     7
 79
     5
170
     0
171
     0
290
     0
174
     0
 93
        1
 44
0.0
173
     0
291
     1
 45
0.0
1001
ACAD
1000
AcDbSavedByObjectVersion
1070
     0
  0
VISUALSTYLE
  5
F1
102
{ACAD_REACTORS
330
EF
102
}
330
EF
100
AcDbVisualStyle
  2
FlatWithEdges
 70
     1
 71
     2
 72
     1
 73
     1
 90
        2
 40
-0.6
 41
30.0
 62
     5
 63
     7
 74
     1
 91
        4
 64
     7
 65
   257
 75
     1
175
     1
 42
1.0
 92
        0
 66
   257
 43
1.0
 76
     1
 77
     6
 78
     2
 67
     7
 79
     5
170
     0
171
     0
290
     0
174
     0
 93
        1
 44
0.0
173
     0
291
     1
 45
0.0
1001
ACAD
1000
AcDbSavedByObjectVersion
1070
     0
  0
VISUALSTYLE
  5
F2
102
{ACAD_REACTORS
330
EF
102
}
330
EF
100
AcDbVisualStyle
  2
Gouraud
 70
     2
 71
     2
 72
     2
 73
     1
 90
        2
 40
-0.6
 41
30.0
 62
     5
 63
     7
 74
     0
 91
        4
 64
     7
 65
   257
 75
     1
175
     1
 42
1.0
 92
        0
 66
     7
 43
1.0
 76
     1
 77
     6
 78
     2
 67
     7
 79
     5
170
     0
171
     0
290
     0
174
     0
 93
        1
 44
0.0
173
     0
291
     1
 45
0.0
1001
ACAD
1000
AcDbSavedByObjectVersion
1070
     0
  0
VISUALSTYLE
  5
F3
102
{ACAD_REACTORS
330
EF
102
}
330
EF
100
AcDbVisualStyle
  2
GouraudWithEdges
 70
     3
 71
     2
 72
     2
 73
     1
 90
        2
 40
-0.6
 41
30.0
 62
     5
 63
     7
 74
     1
 91
        4
 64
     7
 65
   257
 75
     1
175
     1
 42
1.0
 92
        0
 66
   257
 43
1.0
 76
     1
 77
     6
 78
     2
 67
     7
 79
     5
170
     0
171
     0
290
     0
174
     0
 93
        1
 44
0.0
173
     0
291
     1
 45
0.0
1001
ACAD
1000
AcDbSavedByObjectVersion
1070
     0
  0
VISUALSTYLE
  5
FD
102
{ACAD_REACTORS
330
EF
102
}
330
EF
100
AcDbVisualStyle
  2
Linepattern
 70
    14
 71
     2
 72
     2
 73
     1
 90
        0
 40
-0.6
 41
-30.0
 62
     5
 63
     7
 74
     1
 91
        4
 64
     7
 65
   257
 75
     7
175
     7
 42
1.0
 92
        8
 66
     7
 43
1.0
 76
     1
 77
     6
 78
     2
 67
     7
 79
     5
170
     0
171
     0
290
     0
174
     0
 93
        1
 44
0.0
173
     0
291
     1
 45
0.0
1001
ACAD
1000
AcDbSavedByObjectVersion
1070
     0
  0
VISUALSTYLE
  5
F9
102
{ACAD_REACTORS
330
EF
102
}
330
EF
100
AcDbVisualStyle
  2
Realistic
 70
     8
 71
     2
 72
     2
 73
     1
 90
        0
 40
-0.6
 41
-30.0
 62
     5
 63
     7
 74
     1
 91
        0
 64
     7
 65
   257
 75
     1
175
     1
 42
1.0
 92
        8
 66
     8
 43
1.0
 76
     1
 77
     6
 78
     2
 67
     7
 79
     5
170
     0
171
     0
290
     0
174
     0
 93
       13
 44
0.0
173
     0
291
     0
 45
0.0
1001
ACAD
1000
AcDbSavedByObjectVersion
1070
     0
  0
VISUALSTYLE
  5
FC
102
{ACAD_REACTORS
330
EF
102
}
330
EF
100
AcDbVisualStyle
  2
Thicken
 70
    13
 71
     2
 72
     2
 73
     1
 90
        0
 40
-0.6
 41
-30.0
 62
     5
 63
     7
 74
     1
 91
        4
 64
     7
 65
   257
 75
     1
175
     1
 42
1.0
 92
       12
 66
     7
 43
1.0
 76
     1
 77
     6
 78
     2
 67
     7
 79
     5
170
     0
171
     0
290
     0
174
     0
 93
        1
 44
0.0
173
     0
291
     1
 45
0.0
1001
ACAD
1000
AcDbSavedByObjectVersion
1070
     0
  0
DICTIONARYVAR
  5
146
102
{ACAD_REACTORS
330
5E
102
}
330
5E
100
DictionaryVariables
280
     0
  1
1:1
  0
DICTIONARYVAR
  5
145
102
{ACAD_REACTORS
330
5E
102
}
330
5E
100
DictionaryVariables
280
     0
  1
STANDARD
  0
DICTIONARYVAR
  5
84
102
{ACAD_REACTORS
330
5E
102
}
330
5E
100
DictionaryVariables
280
     0
  1
STANDARD
  0
DICTIONARYVAR
  5
5F
102
{ACAD_REACTORS
330
5E
102
}
330
5E
100
DictionaryVariables
280
     0
  1
2
  0
DICTIONARYVAR
  5
63
102
{ACAD_REACTORS
330
5E
102
}
330
5E
100
DictionaryVariables
280
     0
  1
1
  0
DICTIONARYVAR
  5
39F
102
{ACAD_REACTORS
330
5E
102
}
330
5E
100
DictionaryVariables
280
     0
  1
0
  0
DICTIONARYVAR
  5
39D
102
{ACAD_REACTORS
330
5E
102
}
330
5E
100
DictionaryVariables
280
     0
  1
2
  0
DICTIONARYVAR
  5
39C
102
{ACAD_REACTORS
330
5E
102
}
330
5E
100
DictionaryVariables
280
     0
  1
1
  0
DICTIONARYVAR
  5
3A1
102
{ACAD_REACTORS
330
5E
102
}
330
5E
100
DictionaryVariables
280
     0
  1
80.000000
  0
DICTIONARYVAR
  5
3A0
102
{ACAD_REACTORS
330
5E
102
}
330
5E
100
DictionaryVariables
280
     0
  1
5.000000
  0
DICTIONARYVAR
  5
39E
102
{ACAD_REACTORS
330
5E
102
}
330
5E
100
DictionaryVariables
280
     0
  1
127
  0
DICTIONARY
  5
3A7
330
D3
100
AcDbDictionary
280
     1
281
     1
  3
ACAD_XREC_ROUNDTRIP
360
3A8
  0
DICTIONARY
  5
3A9
330
D7
100
AcDbDictionary
280
     1
281
     1
  3
ACAD_XREC_ROUNDTRIP
360
3AA
  0
DICTIONARY
  5
3A4
330
22
100
AcDbDictionary
280
     1
281
     1
  3
ACAD_XREC_ROUNDTRIP
360
3A5
  0
DICTIONARY
  5
3AD
330
ED
100
AcDbDictionary
280
     1
281
     1
  3
ACAD_XREC_ROUNDTRIP
360
3AE
  0
DICTIONARY
  5
3AB
330
EC
100
AcDbDictionary
280
     1
281
     1
  3
ACAD_XREC_ROUNDTRIP
360
3AC
  0
DICTIONARY
  5
173
330
EE
100
AcDbDictionary
280
     1
281
     1
  3
ACAD_XREC_ROUNDTRIP
360
3AF
  3
BUMPTILE
360
175
  3
DIFFUSETILE
360
174
  3
OPACITYTILE
360
176
  3
REFLECTIONTILE
360
177
  0
DICTIONARY
  5
162
330
7F
100
AcDbDictionary
280
     1
281
     1
  3
ACAD_ROUNDTRIP_2008_TABLESTYLE_CELLSTYLEMAP
360
3A2
  3
ACAD_XREC_ROUNDTRIP
360
3A6
  0
XRECORD
  5
3A8
102
{ACAD_REACTORS
330
3A7
102
}
330
3A7
100
AcDbXrecord
280
     1
102
SHADEPLOT
 70
     0
102
SHADEPLOTRESLEVEL
 70
     2
102
SHADEPLOTCUSTOMDPI
 70
   300
  0
XRECORD
  5
3AA
102
{ACAD_REACTORS
330
3A9
102
}
330
3A9
100
AcDbXrecord
280
     1
102
SHADEPLOT
 70
     0
102
SHADEPLOTRESLEVEL
 70
     2
102
SHADEPLOTCUSTOMDPI
 70
   300
  0
XRECORD
  5
3A5
102
{ACAD_REACTORS
330
3A4
102
}
330
3A4
100
AcDbXrecord
280
     1
102
SHADEPLOT
 70
     0
102
SHADEPLOTRESLEVEL
 70
     2
102
SHADEPLOTCUSTOMDPI
 70
   300
  0
XRECORD
  5
3AE
102
{ACAD_REACTORS
330
3AD
102
}
330
3AD
100
AcDbXrecord
280
     1
102
MATERIAL
148
0.0
149
0.0
149
0.0
 93
        0
 94
       63
282
     0
 72
     1
 77
     1
171
     1
175
     1
179
     1
273
     0
  0
XRECORD
  5
3AC
102
{ACAD_REACTORS
330
3AB
102
}
330
3AB
100
AcDbXrecord
280
     1
102
MATERIAL
148
0.0
149
0.0
149
0.0
 93
        0
 94
       63
282
     0
 72
     1
 77
     1
171
     1
175
     1
179
     1
273
     0
  0
XRECORD
  5
3AF
102
{ACAD_REACTORS
330
173
102
}
330
173
100
AcDbXrecord
280
     1
102
MATERIAL
148
0.0
149
0.0
149
0.0
 93
        0
 94
       63
282
     0
 72
     1
 77
     1
171
     1
175
     1
179
     1
273
     0
  0
XRECORD
  5
175
102
{ACAD_REACTORS
330
173
102
}
330
173
100
AcDbXrecord
280
     1
270
     1
271
     1
  0
XRECORD
  5
174
102
{ACAD_REACTORS
330
173
102
}
330
173
100
AcDbXrecord
280
     1
270
     1
271
     1
  0
XRECORD
  5
176
102
{ACAD_REACTORS
330
173
102
}
330
173
100
AcDbXrecord
280
     1
270
     1
271
     1
  0
XRECORD
  5
177
102
{ACAD_REACTORS
330
173
102
}
330
173
100
AcDbXrecord
280
     1
270
     1
271
     1
  0
CELLSTYLEMAP
  5
3A2
102
{ACAD_REACTORS
330
162
102
}
330
162
100
AcDbCellStyleMap
 90
        3
300
CELLSTYLE
  1
TABLEFORMAT_BEGIN
 90
        5
170
     1
 91
        0
 92
    32768
 62
   257
 93
        1
300
CONTENTFORMAT
  1
CONTENTFORMAT_BEGIN
 90
        0
 91
        0
 92
      512
 93
        0
300

 40
0.0
140
1.0
 94
        5
 62
     0
340
11
144
6.0
309
CONTENTFORMAT_END
171
     1
301
MARGIN
  1
CELLMARGIN_BEGIN
 40
1.5
 40
1.5
 40
1.5
 40
1.5
 40
4.5
 40
4.5
309
CELLMARGIN_END
 94
        6
 95
        1
302
GRIDFORMAT
  1
GRIDFORMAT_BEGIN
 90
        0
 91
        1
 62
     0
 92
       -2
340
14
 93
        0
 40
1.125
309
GRIDFORMAT_END
 95
        2
302
GRIDFORMAT
  1
GRIDFORMAT_BEGIN
 90
        0
 91
        1
 62
     0
 92
       -2
340
14
 93
        0
 40
1.125
309
GRIDFORMAT_END
 95
        4
302
GRIDFORMAT
  1
GRIDFORMAT_BEGIN
 90
        0
 91
        1
 62
     0
 92
       -2
340
14
 93
        0
 40
1.125
309
GRIDFORMAT_END
 95
        8
302
GRIDFORMAT
  1
GRIDFORMAT_BEGIN
 90
        0
 91
        1
 62
     0
 92
       -2
340
14
 93
        0
 40
1.125
309
GRIDFORMAT_END
 95
       16
302
GRIDFORMAT
  1
GRIDFORMAT_BEGIN
 90
        0
 91
        1
 62
     0
 92
       -2
340
14
 93
        0
 40
1.125
309
GRIDFORMAT_END
 95
       32
302
GRIDFORMAT
  1
GRIDFORMAT_BEGIN
 90
        0
 91
        1
 62
     0
 92
       -2
340
14
 93
        0
 40
1.125
309
GRIDFORMAT_END
309
TABLEFORMAT_END
  1
CELLSTYLE_BEGIN
 90
        1
 91
        1
300
_TITLE
309
CELLSTYLE_END
300
CELLSTYLE
  1
TABLEFORMAT_BEGIN
 90
        5
170
     1
 91
        0
 92
        0
 62
   257
 93
        1
300
CONTENTFORMAT
  1
CONTENTFORMAT_BEGIN
 90
        0
 91
        0
 92
      512
 93
        0
300

 40
0.0
140
1.0
 94
        5
 62
     0
340
11
144
4.5
309
CONTENTFORMAT_END
171
     1
301
MARGIN
  1
CELLMARGIN_BEGIN
 40
1.5
 40
1.5
 40
1.5
 40
1.5
 40
4.5
 40
4.5
309
CELLMARGIN_END
 94
        6
 95
        1
302
GRIDFORMAT
  1
GRIDFORMAT_BEGIN
 90
        0
 91
        1
 62
     0
 92
       -2
340
14
 93
        0
 40
1.125
309
GRIDFORMAT_END
 95
        2
302
GRIDFORMAT
  1
GRIDFORMAT_BEGIN
 90
        0
 91
        1
 62
     0
 92
       -2
340
14
 93
        0
 40
1.125
309
GRIDFORMAT_END
 95
        4
302
GRIDFORMAT
  1
GRIDFORMAT_BEGIN
 90
        0
 91
        1
 62
     0
 92
       -2
340
14
 93
        0
 40
1.125
309
GRIDFORMAT_END
 95
        8
302
GRIDFORMAT
  1
GRIDFORMAT_BEGIN
 90
        0
 91
        1
 62
     0
 92
       -2
340
14
 93
        0
 40
1.125
309
GRIDFORMAT_END
 95
       16
302
GRIDFORMAT
  1
GRIDFORMAT_BEGIN
 90
        0
 91
        1
 62
     0
 92
       -2
340
14
 93
        0
 40
1.125
309
GRIDFORMAT_END
 95
       32
302
GRIDFORMAT
  1
GRIDFORMAT_BEGIN
 90
        0
 91
        1
 62
     0
 92
       -2
340
14
 93
        0
 40
1.125
309
GRIDFORMAT_END
309
TABLEFORMAT_END
  1
CELLSTYLE_BEGIN
 90
        2
 91
        1
300
_HEADER
309
CELLSTYLE_END
300
CELLSTYLE
  1
TABLEFORMAT_BEGIN
 90
        5
170
     1
 91
        0
 92
        0
 62
   257
 93
        1
300
CONTENTFORMAT
  1
CONTENTFORMAT_BEGIN
 90
        0
 91
        0
 92
      512
 93
        0
300

 40
0.0
140
1.0
 94
        2
 62
     0
340
11
144
4.5
309
CONTENTFORMAT_END
171
     1
301
MARGIN
  1
CELLMARGIN_BEGIN
 40
1.5
 40
1.5
 40
1.5
 40
1.5
 40
4.5
 40
4.5
309
CELLMARGIN_END
 94
        6
 95
        1
302
GRIDFORMAT
  1
GRIDFORMAT_BEGIN
 90
        0
 91
        1
 62
     0
 92
       -2
340
14
 93
        0
 40
1.125
309
GRIDFORMAT_END
 95
        2
302
GRIDFORMAT
  1
GRIDFORMAT_BEGIN
 90
        0
 91
        1
 62
     0
 92
       -2
340
14
 93
        0
 40
1.125
309
GRIDFORMAT_END
 95
        4
302
GRIDFORMAT
  1
GRIDFORMAT_BEGIN
 90
        0
 91
        1
 62
     0
 92
       -2
340
14
 93
        0
 40
1.125
309
GRIDFORMAT_END
 95
        8
302
GRIDFORMAT
  1
GRIDFORMAT_BEGIN
 90
        0
 91
        1
 62
     0
 92
       -2
340
14
 93
        0
 40
1.125
309
GRIDFORMAT_END
 95
       16
302
GRIDFORMAT
  1
GRIDFORMAT_BEGIN
 90
        0
 91
        1
 62
     0
 92
       -2
340
14
 93
        0
 40
1.125
309
GRIDFORMAT_END
 95
       32
302
GRIDFORMAT
  1
GRIDFORMAT_BEGIN
 90
        0
 91
        1
 62
     0
 92
       -2
340
14
 93
        0
 40
1.125
309
GRIDFORMAT_END
309
TABLEFORMAT_END
  1
CELLSTYLE_BEGIN
 90
        3
 91
        2
300
_DATA
309
CELLSTYLE_END
  0
XRECORD
  5
3A6
102
{ACAD_REACTORS
330
162
102
}
330
162
100
AcDbXrecord
280
     1
102
ACAD_ROUNDTRIP_PRE2007_TABLESTYLE
 90
      512
 91
        0
  1

 92
      512
 93
        0
  2

 94
      512
 95
        0
  3

  0
ENDSEC
  0
EOF
