  0
SECTION
  2
HEADER
  9
$ACADVER
  1
AC1015
  9
$ACADMAINTVER
 70
    20
  9
$DWGCODEPAGE
  3
ANSI_1254
  9
$INSBASE
 10
0.0
 20
0.0
 30
0.0
  9
$EXTMIN
 10
1812.391862516062
 20
1239.211984491993
 30
0.0
  9
$EXTMAX
 10
1874.233540523625
 20
1294.822765349873
 30
0.0
  9
$LIMMIN
 10
0.0
 20
0.0
  9
$LIMMAX
 10
420.0
 20
297.0
  9
$ORTHOMODE
 70
     1
  9
$REGENMODE
 70
     1
  9
$FILLMODE
 70
     1
  9
$QTEXTMODE
 70
     0
  9
$MIRRTEXT
 70
     0
  9
$LTSCALE
 40
1.0
  9
$ATTMODE
 70
     1
  9
$TEXTSIZE
 40
2.5
  9
$TRACEWID
 40
1.0
  9
$TEXTSTYLE
  7
Standard
  9
$CLAYER
  8
0
  9
$CELTYPE
  6
ByLayer
  9
$CECOLOR
 62
   256
  9
$CELTSCALE
 40
1.0
  9
$DISPSILH
 70
     0
  9
$DIMSCALE
 40
1.0
  9
$DIMASZ
 40
2.5
  9
$DIMEXO
 40
0.625
  9
$DIMDLI
 40
3.75
  9
$DIMRND
 40
0.0
  9
$DIMDLE
 40
0.0
  9
$DIMEXE
 40
1.25
  9
$DIMTP
 40
0.0
  9
$DIMTM
 40
0.0
  9
$DIMTXT
 40
2.5
  9
$DIMCEN
 40
2.5
  9
$DIMTSZ
 40
0.0
  9
$DIMTOL
 70
     0
  9
$DIMLIM
 70
     0
  9
$DIMTIH
 70
     0
  9
$DIMTOH
 70
     0
  9
$DIMSE1
 70
     0
  9
$DIMSE2
 70
     0
  9
$DIMTAD
 70
     1
  9
$DIMZIN
 70
     8
  9
$DIMBLK
  1

  9
$DIMASO
 70
     1
  9
$DIMSHO
 70
     1
  9
$DIMPOST
  1

  9
$DIMAPOST
  1

  9
$DIMALT
 70
     0
  9
$DIMALTD
 70
     3
  9
$DIMALTF
 40
0.03937007874016
  9
$DIMLFAC
 40
1.0
  9
$DIMTOFL
 70
     1
  9
$DIMTVP
 40
0.0
  9
$DIMTIX
 70
     0
  9
$DIMSOXD
 70
     0
  9
$DIMSAH
 70
     0
  9
$DIMBLK1
  1

  9
$DIMBLK2
  1

  9
$DIMSTYLE
  2
ISO-25
  9
$DIMCLRD
 70
     0
  9
$DIMCLRE
 70
     0
  9
$DIMCLRT
 70
     0
  9
$DIMTFAC
 40
1.0
  9
$DIMGAP
 40
0.625
  9
$DIMJUST
 70
     0
  9
$DIMSD1
 70
     0
  9
$DIMSD2
 70
     0
  9
$DIMTOLJ
 70
     0
  9
$DIMTZIN
 70
     8
  9
$DIMALTZ
 70
     0
  9
$DIMALTTZ
 70
     0
  9
$DIMUPT
 70
     0
  9
$DIMDEC
 70
     2
  9
$DIMTDEC
 70
     2
  9
$DIMALTU
 70
     2
  9
$DIMALTTD
 70
     3
  9
$DIMTXSTY
  7
Standard
  9
$DIMAUNIT
 70
     0
  9
$DIMADEC
 70
     0
  9
$DIMALTRND
 40
0.0
  9
$DIMAZIN
 70
     0
  9
$DIMDSEP
 70
    44
  9
$DIMATFIT
 70
     3
  9
$DIMFRAC
 70
     0
  9
$DIMLDRBLK
  1

  9
$DIMLUNIT
 70
     2
  9
$DIMLWD
 70
    -2
  9
$DIMLWE
 70
    -2
  9
$DIMTMOVE
 70
     0
  9
$LUNITS
 70
     2
  9
$LUPREC
 70
     4
  9
$SKETCHINC
 40
1.0
  9
$FILLETRAD
 40
0.0
  9
$AUNITS
 70
     0
  9
$AUPREC
 70
     0
  9
$MENU
  1
.
  9
$ELEVATION
 40
0.0
  9
$PELEVATION
 40
0.0
  9
$THICKNESS
 40
0.0
  9
$LIMCHECK
 70
     0
  9
$CHAMFERA
 40
0.0
  9
$CHAMFERB
 40
0.0
  9
$CHAMFERC
 40
0.0
  9
$CHAMFERD
 40
0.0
  9
$SKPOLY
 70
     0
  9
$TDCREATE
 40
2458559.420189745
  9
$TDUCREATE
 40
2458559.295189745
  9
$TDUPDATE
 40
2459067.646244363
  9
$TDUUPDATE
 40
2459067.521244363
  9
$TDINDWG
 40
0.0037010301
  9
$TDUSRTIMER
 40
0.0037010301
  9
$USRTIMER
 70
     1
  9
$ANGBASE
 50
0.0
  9
$ANGDIR
 70
     0
  9
$PDMODE
 70
     0
  9
$PDSIZE
 40
0.0
  9
$PLINEWID
 40
0.0
  9
$SPLFRAME
 70
     0
  9
$SPLINETYPE
 70
     6
  9
$SPLINESEGS
 70
     8
  9
$HANDSEED
  5
4F5
  9
$SURFTAB1
 70
     6
  9
$SURFTAB2
 70
     6
  9
$SURFTYPE
 70
     6
  9
$SURFU
 70
     6
  9
$SURFV
 70
     6
  9
$UCSBASE
  2

  9
$UCSNAME
  2

  9
$UCSORG
 10
0.0
 20
0.0
 30
0.0
  9
$UCSXDIR
 10
1.0
 20
0.0
 30
0.0
  9
$UCSYDIR
 10
0.0
 20
1.0
 30
0.0
  9
$UCSORTHOREF
  2

  9
$UCSORTHOVIEW
 70
     0
  9
$UCSORGTOP
 10
0.0
 20
0.0
 30
0.0
  9
$UCSORGBOTTOM
 10
0.0
 20
0.0
 30
0.0
  9
$UCSORGLEFT
 10
0.0
 20
0.0
 30
0.0
  9
$UCSORGRIGHT
 10
0.0
 20
0.0
 30
0.0
  9
$UCSORGFRONT
 10
0.0
 20
0.0
 30
0.0
  9
$UCSORGBACK
 10
0.0
 20
0.0
 30
0.0
  9
$PUCSBASE
  2

  9
$PUCSNAME
  2

  9
$PUCSORG
 10
0.0
 20
0.0
 30
0.0
  9
$PUCSXDIR
 10
1.0
 20
0.0
 30
0.0
  9
$PUCSYDIR
 10
0.0
 20
1.0
 30
0.0
  9
$PUCSORTHOREF
  2

  9
$PUCSORTHOVIEW
 70
     0
  9
$PUCSORGTOP
 10
0.0
 20
0.0
 30
0.0
  9
$PUCSORGBOTTOM
 10
0.0
 20
0.0
 30
0.0
  9
$PUCSORGLEFT
 10
0.0
 20
0.0
 30
0.0
  9
$PUCSORGRIGHT
 10
0.0
 20
0.0
 30
0.0
  9
$PUCSORGFRONT
 10
0.0
 20
0.0
 30
0.0
  9
$PUCSORGBACK
 10
0.0
 20
0.0
 30
0.0
  9
$USERI1
 70
     0
  9
$USERI2
 70
     0
  9
$USERI3
 70
     0
  9
$USERI4
 70
     0
  9
$USERI5
 70
     0
  9
$USERR1
 40
0.0
  9
$USERR2
 40
0.0
  9
$USERR3
 40
0.0
  9
$USERR4
 40
0.0
  9
$USERR5
 40
0.0
  9
$WORLDVIEW
 70
     1
  9
$SHADEDGE
 70
     3
  9
$SHADEDIF
 70
    70
  9
$TILEMODE
 70
     1
  9
$MAXACTVP
 70
    64
  9
$PINSBASE
 10
0.0
 20
0.0
 30
0.0
  9
$PLIMCHECK
 70
     0
  9
$PEXTMIN
 10
0.0
 20
0.0
 30
0.0
  9
$PEXTMAX
 10
0.0
 20
0.0
 30
0.0
  9
$PLIMMIN
 10
0.0
 20
0.0
  9
$PLIMMAX
 10
12.0
 20
9.0
  9
$UNITMODE
 70
     0
  9
$VISRETAIN
 70
     1
  9
$PLINEGEN
 70
     0
  9
$PSLTSCALE
 70
     1
  9
$TREEDEPTH
 70
  3020
  9
$CMLSTYLE
  2
Standard
  9
$CMLJUST
 70
     0
  9
$CMLSCALE
 40
20.0
  9
$PROXYGRAPHICS
 70
     1
  9
$MEASUREMENT
 70
     1
  9
$CELWEIGHT
370
    -1
  9
$ENDCAPS
280
     0
  9
$JOINSTYLE
280
     0
  9
$LWDISPLAY
290
     0
  9
$INSUNITS
 70
     4
  9
$HYPERLINKBASE
  1

  9
$STYLESHEET
  1

  9
$XEDIT
290
     1
  9
$CEPSNTYPE
380
     0
  9
$PSTYLEMODE
290
     1
  9
$FINGERPRINTGUID
  2
{36ADBB54-DB29-4F38-AD5F-DAE1AD91FFAF}
  9
$VERSIONGUID
  2
{A0868526-1110-4619-B3AA-F53602E67B17}
  9
$EXTNAMES
290
     1
  9
$PSVPSCALE
 40
0.0
  9
$OLESTARTUP
290
     0
  0
ENDSEC
  0
SECTION
  2
CLASSES
  0
CLASS
  1
ACDBDICTIONARYWDFLT
  2
AcDbDictionaryWithDefault
  3
ObjectDBX Classes
 90
        0
280
     0
281
     0
  0
CLASS
  1
ACDBPLACEHOLDER
  2
AcDbPlaceHolder
  3
ObjectDBX Classes
 90
        0
280
     0
281
     0
  0
CLASS
  1
LAYOUT
  2
AcDbLayout
  3
ObjectDBX Classes
 90
        0
280
     0
281
     0
  0
CLASS
  1
DICTIONARYVAR
  2
AcDbDictionaryVar
  3
ObjectDBX Classes
 90
        0
280
     0
281
     0
  0
CLASS
  1
TABLESTYLE
  2
AcDbTableStyle
  3
ObjectDBX Classes
 90
     4095
280
     0
281
     0
  0
CLASS
  1
MATERIAL
  2
AcDbMaterial
  3
ObjectDBX Classes
 90
     1153
280
     0
281
     0
  0
CLASS
  1
VISUALSTYLE
  2
AcDbVisualStyle
  3
ObjectDBX Classes
 90
     4095
280
     0
281
     0
  0
CLASS
  1
SCALE
  2
AcDbScale
  3
ObjectDBX Classes
 90
     1153
280
     0
281
     0
  0
CLASS
  1
MLEADERSTYLE
  2
AcDbMLeaderStyle
  3
ACDB_MLEADERSTYLE_CLASS
 90
     4095
280
     0
281
     0
  0
CLASS
  1
CELLSTYLEMAP
  2
AcDbCellStyleMap
  3
ObjectDBX Classes
 90
     1152
280
     0
281
     0
  0
CLASS
  1
ACAD_EVALUATION_GRAPH
  2
AcDbEvalGraph
  3
ObjectDBX Classes
 90
    33921
280
     0
281
     0
  0
CLASS
  1
ACAECUSTOBJ
  2
AcAeEditorObj
  3
AcAeEditorObj
 90
    33792
280
     0
281
     0
  0
CLASS
  1
SORTENTSTABLE
  2
AcDbSortentsTable
  3
ObjectDBX Classes
 90
        0
280
     0
281
     0
  0
CLASS
  1
ACDB_DYNAMICBLOCKPURGEPREVENTER_VERSION
  2
AcDbDynamicBlockPurgePreventer
  3
ObjectDBX Classes
 90
    33921
280
     0
281
     0
  0
CLASS
  1
ACDB_BLOCKREPRESENTATION_DATA
  2
AcDbBlockRepresentationData
  3
ObjectDBX Classes
 90
    33921
280
     0
281
     0
  0
ENDSEC
  0
SECTION
  2
TABLES
  0
TABLE
  2
VPORT
  5
8
330
0
100
AcDbSymbolTable
 70
     1
  0
VPORT
  5
EA
330
8
100
AcDbSymbolTableRecord
100
AcDbViewportTableRecord
  2
*Active
 70
     0
 10
0.0
 20
0.0
 11
1.0
 21
1.0
 12
1850.513380151575
 22
1270.013856127438
 13
0.0
 23
0.0
 14
10.0
 24
10.0
 15
10.0
 25
10.0
 16
0.0
 26
0.0
 36
1.0
 17
0.0
 27
0.0
 37
0.0
 40
100.0254247320115
 41
1.903110047846889
 42
50.0
 43
0.0
 44
0.0
 50
0.0
 51
0.0
 71
     0
 72
  1000
 73
     1
 74
     3
 75
     0
 76
     0
 77
     0
 78
     0
281
     0
 65
     1
110
0.0
120
0.0
130
0.0
111
1.0
121
0.0
131
0.0
112
0.0
122
1.0
132
0.0
 79
     0
146
0.0
  0
ENDTAB
  0
TABLE
  2
LTYPE
  5
5
330
0
100
AcDbSymbolTable
 70
     1
  0
LTYPE
  5
14
330
5
100
AcDbSymbolTableRecord
100
AcDbLinetypeTableRecord
  2
ByBlock
 70
     0
  3

 72
    65
 73
     0
 40
0.0
  0
LTYPE
  5
15
330
5
100
AcDbSymbolTableRecord
100
AcDbLinetypeTableRecord
  2
ByLayer
 70
     0
  3

 72
    65
 73
     0
 40
0.0
  0
LTYPE
  5
16
330
5
100
AcDbSymbolTableRecord
100
AcDbLinetypeTableRecord
  2
Continuous
 70
     0
  3
Solid line
 72
    65
 73
     0
 40
0.0
  0
ENDTAB
  0
TABLE
  2
LAYER
  5
2
330
0
100
AcDbSymbolTable
 70
     1
  0
LAYER
  5
10
102
{ACAD_XDICTIONARY
360
13C
102
}
330
2
100
AcDbSymbolTableRecord
100
AcDbLayerTableRecord
  2
0
 70
     0
 62
     7
  6
Continuous
370
    -3
390
F
  0
ENDTAB
  0
TABLE
  2
STYLE
  5
3
330
0
100
AcDbSymbolTable
 70
     2
  0
STYLE
  5
11
330
3
100
AcDbSymbolTableRecord
100
AcDbTextStyleTableRecord
  2
Standard
 70
     0
 40
0.0
 41
1.0
 50
0.0
 71
     0
 42
2.5
  3
txt
  4

  0
STYLE
  5
132
330
3
100
AcDbSymbolTableRecord
100
AcDbTextStyleTableRecord
  2
Annotative
 70
     0
 40
0.0
 41
1.0
 50
0.0
 71
     0
 42
2.5
  3
txt.shx
  4

1001
AcadAnnotative
1000
AnnotativeData
1002
{
1070
     1
1070
     1
1002
}
  0
ENDTAB
  0
TABLE
  2
VIEW
  5
6
330
0
100
AcDbSymbolTable
 70
     0
  0
ENDTAB
  0
TABLE
  2
UCS
  5
7
330
0
100
AcDbSymbolTable
 70
     0
  0
ENDTAB
  0
TABLE
  2
APPID
  5
9
330
0
100
AcDbSymbolTable
 70
    13
  0
APPID
  5
12
330
9
100
AcDbSymbolTableRecord
100
AcDbRegAppTableRecord
  2
ACAD
 70
     0
  0
APPID
  5
9E
330
9
100
AcDbSymbolTableRecord
100
AcDbRegAppTableRecord
  2
ACAD_PSEXT
 70
     0
  0
APPID
  5
133
330
9
100
AcDbSymbolTableRecord
100
AcDbRegAppTableRecord
  2
AcadAnnoPO
 70
     0
  0
APPID
  5
134
330
9
100
AcDbSymbolTableRecord
100
AcDbRegAppTableRecord
  2
AcadAnnotative
 70
     0
  0
APPID
  5
135
330
9
100
AcDbSymbolTableRecord
100
AcDbRegAppTableRecord
  2
ACAD_DSTYLE_DIMJAG
 70
     0
  0
APPID
  5
136
330
9
100
AcDbSymbolTableRecord
100
AcDbRegAppTableRecord
  2
ACAD_DSTYLE_DIMTALN
 70
     0
  0
APPID
  5
165
330
9
100
AcDbSymbolTableRecord
100
AcDbRegAppTableRecord
  2
ACAD_MLEADERVER
 70
     0
  0
APPID
  5
3FB
330
9
100
AcDbSymbolTableRecord
100
AcDbRegAppTableRecord
  2
ACAUTHENVIRON
 70
     0
  0
APPID
  5
400
330
9
100
AcDbSymbolTableRecord
100
AcDbRegAppTableRecord
  2
ACAD_EXEMPT_FROM_CAD_STANDARDS
 70
     0
  0
APPID
  5
41A
330
9
100
AcDbSymbolTableRecord
100
AcDbRegAppTableRecord
  2
AcDbDynamicBlockTrueName
 70
     0
  0
APPID
  5
41B
330
9
100
AcDbSymbolTableRecord
100
AcDbRegAppTableRecord
  2
AcDbDynamicBlockGUID
 70
     0
  0
APPID
  5
41D
330
9
100
AcDbSymbolTableRecord
100
AcDbRegAppTableRecord
  2
AcDbBlockRepETag
 70
     0
  0
APPID
  5
47C
330
9
100
AcDbSymbolTableRecord
100
AcDbRegAppTableRecord
  2
AcDbBlockRepBTag
 70
     0
  0
ENDTAB
  0
TABLE
  2
DIMSTYLE
  5
A
330
0
100
AcDbSymbolTable
 70
     2
100
AcDbDimStyleTable
 71
     2
340
27
340
137
  0
DIMSTYLE
105
27
330
A
100
AcDbSymbolTableRecord
100
AcDbDimStyleTableRecord
  2
ISO-25
 70
     0
 41
2.5
 42
0.625
 43
3.75
 44
1.25
 73
     0
 74
     0
 77
     1
 78
     8
140
2.5
141
2.5
143
0.03937007874016
147
0.625
171
     3
172
     1
271
     2
272
     2
274
     3
278
    44
283
     0
284
     8
340
11
  0
DIMSTYLE
105
137
330
A
100
AcDbSymbolTableRecord
100
AcDbDimStyleTableRecord
  2
Annotative
 70
     0
 40
0.0
 41
2.5
 42
0.625
 43
3.75
 44
1.25
 73
     0
 74
     0
 77
     1
 78
     8
140
2.5
141
2.5
143
0.03937007874016
147
0.625
171
     3
172
     1
271
     2
272
     2
274
     3
278
    44
283
     0
284
     8
340
11
1001
AcadAnnotative
1000
AnnotativeData
1002
{
1070
     1
1070
     1
1002
}
1001
ACAD_DSTYLE_DIMJAG
1070
   388
1040
1.5
1001
ACAD_DSTYLE_DIMTALN
1070
   392
1070
     0
  0
ENDTAB
  0
TABLE
  2
BLOCK_RECORD
  5
1
330
0
100
AcDbSymbolTable
 70
     6
  0
BLOCK_RECORD
  5
1F
330
1
100
AcDbSymbolTableRecord
100
AcDbBlockTableRecord
  2
*Model_Space
340
22
  0
BLOCK_RECORD
  5
D2
330
1
100
AcDbSymbolTableRecord
100
AcDbBlockTableRecord
  2
*Paper_Space
340
D3
  0
BLOCK_RECORD
  5
D6
330
1
100
AcDbSymbolTableRecord
100
AcDbBlockTableRecord
  2
*Paper_Space0
340
D7
  0
BLOCK_RECORD
  5
1AD
330
1
100
AcDbSymbolTableRecord
100
AcDbBlockTableRecord
  2
SW_CENTERMARKSYMBOL_0
340
0
102
{BLKREFS
331
359
102
}
  0
BLOCK_RECORD
  5
2F4
102
{ACAD_XDICTIONARY
360
477
102
}
330
1
100
AcDbSymbolTableRecord
100
AcDbBlockTableRecord
  2
1
340
0
310
2800000020000000200000000100080000000000000400000000000000000000000000000000000000000000000080000080000000808000800000008000800080800000C0C0C000C0DCC000F0CAA6000020400000206000002080000020A0000020C0000020E00000400000004020000040400000406000004080000040A0
310
000040C0000040E00000600000006020000060400000606000006080000060A0000060C0000060E00000800000008020000080400000806000008080000080A0000080C0000080E00000A0000000A0200000A0400000A0600000A0800000A0A00000A0C00000A0E00000C0000000C0200000C0400000C0600000C0800000C0
310
A00000C0C00000C0E00000E0000000E0200000E0400000E0600000E0800000E0A00000E0C00000E0E00040000000400020004000400040006000400080004000A0004000C0004000E00040200000402020004020400040206000402080004020A0004020C0004020E000404000004040200040404000404060004040800040
310
40A0004040C0004040E00040600000406020004060400040606000406080004060A0004060C0004060E00040800000408020004080400040806000408080004080A0004080C0004080E00040A0000040A0200040A0400040A0600040A0800040A0A00040A0C00040A0E00040C0000040C0200040C0400040C0600040C08000
310
40C0A00040C0C00040C0E00040E0000040E0200040E0400040E0600040E0800040E0A00040E0C00040E0E00080000000800020008000400080006000800080008000A0008000C0008000E00080200000802020008020400080206000802080008020A0008020C0008020E00080400000804020008040400080406000804080
310
008040A0008040C0008040E00080600000806020008060400080606000806080008060A0008060C0008060E00080800000808020008080400080806000808080008080A0008080C0008080E00080A0000080A0200080A0400080A0600080A0800080A0A00080A0C00080A0E00080C0000080C0200080C0400080C0600080C0
310
800080C0A00080C0C00080C0E00080E0000080E0200080E0400080E0600080E0800080E0A00080E0C00080E0E000C0000000C0002000C0004000C0006000C0008000C000A000C000C000C000E000C0200000C0202000C0204000C0206000C0208000C020A000C020C000C020E000C0400000C0402000C0404000C0406000C0
310
408000C040A000C040C000C040E000C0600000C0602000C0604000C0606000C0608000C060A000C060C000C060E000C0800000C0802000C0804000C0806000C0808000C080A000C080C000C080E000C0A00000C0A02000C0A04000C0A06000C0A08000C0A0A000C0A0C000C0A0E000C0C00000C0C02000C0C04000C0C06000
310
C0C08000C0C0A000F0FBFF00A4A0A000808080000000FF0000FF000000FFFF00FF000000FF00FF00FFFF0000FFFFFF0000000000000000000000000000000000000000000000000000000000000000000000000000000000000000000000000000000000000000000000000000000000000000000000000000000000000000
310
000000000000000000000000000000000000000000000000000000000000000000000000000000000000000000000000000000000000000000000000000000000000000000000000000000000000000000000000000000000000000000000000000000000000000000000000000000000000000000FFFFFFFFFFFFFFFFFFFF
310
FFFFFFFFFFFFFFFFFFFFFFFFFF00000000000000000000FFFFFFFFFFFFFFFFFFFFFFFFFFFFFFFFFFFFFFFFFFFFFF0000000000000000FFFFFFFFFFFFFFFFFFFFFFFFFFFFFFFFFFFFFFFFFFFFFF000000000000000000FFFFFFFFFFFFFFFFFFFFFFFFFFFFFFFFFFFFFFFFFFFFFFFF0000000000000000FFFFFFFFFFFFFFFFFF
310
FFFFFFFFFFFFFFFFFFFFFFFFFFFFFF0000000000000000FFFFFFFFFFFFFFFFFFFFFFFFFFFFFFFFFFFFFFFFFFFFFFFF0000000000000000FFFFFFFFFFFFFFFFFFFFFFFFFFFFFFFFFFFFFFFFFFFFFFFF0000000000000000FFFFFFFFFFFFFFFFFFFFFFFFFFFFFFFFFFFFFFFFFFFFFFFF0000000000000000FFFFFFFFFFFFFFFF
310
FFFFFFFFFFFFFFFFFFFFFFFFFFFFFFFF0000000000000000FFFFFFFFFFFFFFFFFFFFFFFFFFFFFFFFFFFFFFFFFFFFFFFF0000000000000000FFFFFFFFFFFFFFFFFFFFFFFFFFFFFFFFFFFFFFFFFFFFFFFF0000000000000000FFFFFFFFFFFFFFFFFFFFFFFFFFFFFFFFFFFFFFFFFFFFFFFF000000000000000000FFFFFFFFFFFF
310
FFFFFFFFFFFFFFFFFFFFFFFFFFFFFFFFFF0000000000000000FFFFFFFFFFFFFFFFFFFFFFFFFFFFFFFFFFFFFFFFFFFFFFFF0000000000FFFFFFFFFFFFFFFFFFFFFFFFFFFFFFFFFFFFFFFFFFFFFFFFFFFFFFFFFFFF0000FF00000000000000000000000000000000000000000000000000000000FF0000FFA4A4A4A4A4A4A4A4
310
A4A4A4A4A4A4A4A4A4A4A4A4A4A4A4A4A4A4A4A4FF000000FFFFFFFFFFFFFFFFFFFFFFFFFFFFFFFFFFFFFFFFFFFFFFFFFFFFFFFF00000000000000FFFFFFFFFF000000000000000000000000FFFFFFFFFF0000000000000000000000000000FFFFFFFFFFFFFFFFFFFFFFFFFFFF000000000000000000000000000000000000
310
00000000000000000000000000000000000000000000000000000000000000000000000000000000000000000000000000000000000000000000000000000000000000000000000000000000000000000000000000000000000000000000000000000000000000000000000000000000000000000000000000000000000000
310
0000000000000000000000000000000000000000000000000000000000000000000000000000000000000000000000000000000000000000
102
{BLKREFS
331
34D
102
}
1001
AcDbDynamicBlockGUID
1000
{5956E2F5-FB40-4FC9-BD74-21FAC1F7F9CE}
1001
AcDbBlockRepETag
1070
     1
1071
       86
1001
ACAD
1000
DesignCenter Data
1002
{
1070
     1
1070
     4
1002
}
  0
BLOCK_RECORD
  5
34E
330
1
100
AcDbSymbolTableRecord
100
AcDbBlockTableRecord
  2
2
340
0
310
2800000020000000200000000100080000000000000400000000000000000000000000000000000000000000000080000080000000808000800000008000800080800000C0C0C000C0DCC000F0CAA6000020400000206000002080000020A0000020C0000020E00000400000004020000040400000406000004080000040A0
310
000040C0000040E00000600000006020000060400000606000006080000060A0000060C0000060E00000800000008020000080400000806000008080000080A0000080C0000080E00000A0000000A0200000A0400000A0600000A0800000A0A00000A0C00000A0E00000C0000000C0200000C0400000C0600000C0800000C0
310
A00000C0C00000C0E00000E0000000E0200000E0400000E0600000E0800000E0A00000E0C00000E0E00040000000400020004000400040006000400080004000A0004000C0004000E00040200000402020004020400040206000402080004020A0004020C0004020E000404000004040200040404000404060004040800040
310
40A0004040C0004040E00040600000406020004060400040606000406080004060A0004060C0004060E00040800000408020004080400040806000408080004080A0004080C0004080E00040A0000040A0200040A0400040A0600040A0800040A0A00040A0C00040A0E00040C0000040C0200040C0400040C0600040C08000
310
40C0A00040C0C00040C0E00040E0000040E0200040E0400040E0600040E0800040E0A00040E0C00040E0E00080000000800020008000400080006000800080008000A0008000C0008000E00080200000802020008020400080206000802080008020A0008020C0008020E00080400000804020008040400080406000804080
310
008040A0008040C0008040E00080600000806020008060400080606000806080008060A0008060C0008060E00080800000808020008080400080806000808080008080A0008080C0008080E00080A0000080A0200080A0400080A0600080A0800080A0A00080A0C00080A0E00080C0000080C0200080C0400080C0600080C0
310
800080C0A00080C0C00080C0E00080E0000080E0200080E0400080E0600080E0800080E0A00080E0C00080E0E000C0000000C0002000C0004000C0006000C0008000C000A000C000C000C000E000C0200000C0202000C0204000C0206000C0208000C020A000C020C000C020E000C0400000C0402000C0404000C0406000C0
310
408000C040A000C040C000C040E000C0600000C0602000C0604000C0606000C0608000C060A000C060C000C060E000C0800000C0802000C0804000C0806000C0808000C080A000C080C000C080E000C0A00000C0A02000C0A04000C0A06000C0A08000C0A0A000C0A0C000C0A0E000C0C00000C0C02000C0C04000C0C06000
310
C0C08000C0C0A000F0FBFF00A4A0A000808080000000FF0000FF000000FFFF00FF000000FF00FF00FFFF0000FFFFFF00000000000000000000000000000000000000000000000000000000000000000000000000000000000000000000000000FF000000000000000000000000000000000000000000000000000000000000
310
00FF00000000000000000000000000000000000000000000000000000000000000FF0000000000000000000000000000000000000000000000000000000000FFFFFF0000000000000000000000000000000000000000000000000000FFFFFFFFFFFFFFFFFF000000000000000000000000000000000000000000FFFF00FFFF
310
0000FFFFFF00FFFFFF00000000000000000000000000000000FFFF00FFFF00000000FF0000FFFFFF00FFFF0000000000000000000000000000FFFFFF000000000000FF0000000000FFFFFF00000000000000000000000000FF00FF00000000000000FF000000000000FF00FF000000000000000000000000FFFF0000000000
310
000000FF00000000000000FFFF000000000000000000000000FFFF00000000000000000000000000000000FFFF0000000000000000000000FF00FF0000000000000000000000000000000000FFFF00000000000000000000FFFF000000000000000000FF0000000000000000FFFF00000000000000000000FFFF0000000000
310
00000000FF0000000000000000FFFF000000000000000000FFFF00000000FFFFFFFFFFFFFFFFFFFFFFFF00000000FFFF0000000000FFFFFFFFFFFFFFFFFFFFFFFFFFFFFFFFFFFFFFFFFFFFFFFFFFFFFFFFFFFF0000000000FFFF00000000000000000000FF000000000000000000FFFF000000000000000000FFFF00000000
310
0000000000FF0000000000000000FFFF00000000000000000000FFFF000000000000000000000000000000000000FFFF0000000000000000000000FFFF00000000000000000000000000000000FF00FF0000000000000000000000FFFF0000000000000000FF00000000000000FFFF000000000000000000000000FF00FF00
310
000000000000FF000000000000FF00FF00000000000000000000000000FFFFFF000000000000FF0000000000FFFFFF0000000000000000000000000000FFFF00FFFF00000000FF000000FFFF00FFFF00000000000000000000000000000000FFFFFFFFFF0000FFFFFFFFFFFFFF000000000000000000000000000000000000
310
000000FFFFFFFFFFFFFFFF0000000000000000000000000000000000000000000000000000FFFFFF00000000000000000000000000000000000000000000000000000000000000FF00000000000000000000000000000000000000000000000000000000000000FF0000000000000000000000000000000000000000000000
310
0000000000000000FF0000000000000000000000000000000000000000000000000000000000000000000000000000000000000000000000
102
{BLKREFS
331
35A
102
}
1001
ACAD
1000
DesignCenter Data
1002
{
1070
     1
1070
     4
1002
}
  0
BLOCK_RECORD
  5
35B
330
1
100
AcDbSymbolTableRecord
100
AcDbBlockTableRecord
  2
3
340
0
310
2800000020000000200000000100080000000000000400000000000000000000000000000000000000000000000080000080000000808000800000008000800080800000C0C0C000C0DCC000F0CAA6000020400000206000002080000020A0000020C0000020E00000400000004020000040400000406000004080000040A0
310
000040C0000040E00000600000006020000060400000606000006080000060A0000060C0000060E00000800000008020000080400000806000008080000080A0000080C0000080E00000A0000000A0200000A0400000A0600000A0800000A0A00000A0C00000A0E00000C0000000C0200000C0400000C0600000C0800000C0
310
A00000C0C00000C0E00000E0000000E0200000E0400000E0600000E0800000E0A00000E0C00000E0E00040000000400020004000400040006000400080004000A0004000C0004000E00040200000402020004020400040206000402080004020A0004020C0004020E000404000004040200040404000404060004040800040
310
40A0004040C0004040E00040600000406020004060400040606000406080004060A0004060C0004060E00040800000408020004080400040806000408080004080A0004080C0004080E00040A0000040A0200040A0400040A0600040A0800040A0A00040A0C00040A0E00040C0000040C0200040C0400040C0600040C08000
310
40C0A00040C0C00040C0E00040E0000040E0200040E0400040E0600040E0800040E0A00040E0C00040E0E00080000000800020008000400080006000800080008000A0008000C0008000E00080200000802020008020400080206000802080008020A0008020C0008020E00080400000804020008040400080406000804080
310
008040A0008040C0008040E00080600000806020008060400080606000806080008060A0008060C0008060E00080800000808020008080400080806000808080008080A0008080C0008080E00080A0000080A0200080A0400080A0600080A0800080A0A00080A0C00080A0E00080C0000080C0200080C0400080C0600080C0
310
800080C0A00080C0C00080C0E00080E0000080E0200080E0400080E0600080E0800080E0A00080E0C00080E0E000C0000000C0002000C0004000C0006000C0008000C000A000C000C000C000E000C0200000C0202000C0204000C0206000C0208000C020A000C020C000C020E000C0400000C0402000C0404000C0406000C0
310
408000C040A000C040C000C040E000C0600000C0602000C0604000C0606000C0608000C060A000C060C000C060E000C0800000C0802000C0804000C0806000C0808000C080A000C080C000C080E000C0A00000C0A02000C0A04000C0A06000C0A08000C0A0A000C0A0C000C0A0E000C0C00000C0C02000C0C04000C0C06000
310
C0C08000C0C0A000F0FBFF00A4A0A000808080000000FF0000FF000000FFFF00FF000000FF00FF00FFFF0000FFFFFF000000000000000000000000000000000000000000000000000000000000000000000000000000000000000000000000000000000000000000000000000000000000000000000000000000FFFFFFFFFF
310
FFFFFFFFFFFF000000000000000000000000000000000000FFFFFFFFFFFFFF0000000000FFFFFFFFFF0000000000000000000000000000FFFFFFFFFFFFFFFFFFFFFFFFFFFFFFFF00FFFFFF0000000000000000000000FFFFFFFFFFFFFFFFFFFFFFFFFFFFFF00FFFFFFFFFFFF000000000000000000FFFFFFFFFFFFFFFFFFFF
310
FF000000FFFFFFFFFFFFFFFFFFFF0000000000000000FFFFFFFFFFFF00FFFFFFFFFFFFFFFFFFFFFFFFFFFFFFFFFF0000000000000000FFFFFFFFFFFFFFFF00FFFFFFFFFFFFFF00FFFFFFFFFFFFFF0000000000000000FFFFFFFFFFFFFFFFFFFFFFFFFFFFFFFFFFFFFFFFFFFFFFFF0000000000000000FFFFFFFFFFFF00FFFF
310
FFFFFFFFFFFFFFFFFFFFFFFFFFFFFF0000000000000000FFFFFFFFFFFFFFFF00FFFFFFFFFFFFFFFFFFFFFFFFFFFFFF0000000000000000FFFFFFFFFFFFFFFFFFFF0000000000FFFFFFFFFFFFFFFFFF0000000000000000FFFFFFFFFF00A4A4A4A4A4A4A4A4A4A4A4A4A4FFFFFFFFFF0000000000000000FFFFFFA4A4A40000
310
FFFFFFFFFFFFFFFF0000A4A4A4FFFFFF00000000000000FFFFA4A400FFFFFFFF0000000000000000FFFFFFFF00A4A4FFFF0000000000FFFFA400FFFFFF0000000000000000000000000000FFFFFF00A4FFFF00000000FFA400FFFF000000000000000000000000000000000000FFFF00A4FF00000000FF00FF000000000000
310
00000000000000000000000000000000FF00FF000000FFA4FF0000000000000000000000000000000000000000000000FFFFA4FF0000FF00FF000000000000000000000000000000FFFFFF000000000000FFA4FF0000FFFFFF00000000000000000000000000FFFF0000FF00000000000000FFFF000000FF00000000000000
310
0000000000FFFF0000FFFF0000000000000000FFFF000000FFFF000000000000000000FFFF0000FFFF000000000000000000FFFF00000000FFFF00000000000000FFFF0000FFFF0000000000000000000000FFFF0000000000FFFF0000000000FF00A4FFFF000000000000000000000000FFFF00000000000000FFFF000000
310
00FFFFFF00000000000000000000000000FFFF000000000000000000FFFFFF00000000000000000000000000000000FFFFFF000000000000000000000000FFFFFFFF0000000000000000000000FFFFFF00000000000000000000000000000000FFFFFFFFFFFFFFFFFFFFFFFFFF000000000000000000000000000000000000
310
0000000000000000000000000000000000000000000000000000000000000000000000000000000000000000000000000000000000000000
102
{BLKREFS
331
39B
102
}
1001
ACAD
1000
DesignCenter Data
1002
{
1070
     1
1070
     4
1002
}
  0
ENDTAB
  0
ENDSEC
  0
SECTION
  2
BLOCKS
  0
BLOCK
  5
20
330
1F
100
AcDbEntity
  8
0
100
AcDbBlockBegin
  2
*Model_Space
 70
     0
 10
0.0
 20
0.0
 30
0.0
  3
*Model_Space
  1

  0
ENDBLK
  5
21
330
1F
100
AcDbEntity
  8
0
100
AcDbBlockEnd
  0
BLOCK
  5
D4
330
D2
100
AcDbEntity
 67
     1
  8
0
100
AcDbBlockBegin
  2
*Paper_Space
 70
     0
 10
0.0
 20
0.0
 30
0.0
  3
*Paper_Space
  1

  0
ENDBLK
  5
D5
330
D2
100
AcDbEntity
 67
     1
  8
0
100
AcDbBlockEnd
  0
BLOCK
  5
D8
330
D6
100
AcDbEntity
 67
     1
  8
0
100
AcDbBlockBegin
  2
*Paper_Space0
 70
     0
 10
0.0
 20
0.0
 30
0.0
  3
*Paper_Space0
  1

  0
ENDBLK
  5
D9
330
D6
100
AcDbEntity
 67
     1
  8
0
100
AcDbBlockEnd
  0
BLOCK
  5
1AE
330
1AD
100
AcDbEntity
  8
0
100
AcDbBlockBegin
  2
SW_CENTERMARKSYMBOL_0
 70
     0
 10
0.0
 20
0.0
 30
0.0
  3
SW_CENTERMARKSYMBOL_0
  1

  0
LINE
  5
1AF
330
1AD
100
AcDbEntity
  8
0
  6
Continuous
 62
     0
370
     0
100
AcDbLine
 10
0.0
 20
0.0
 30
0.0
 11
0.0
 21
2.500000000000002
 31
0.0
  0
LINE
  5
1B0
330
1AD
100
AcDbEntity
  8
0
  6
Continuous
 62
     0
370
     0
100
AcDbLine
 10
0.0
 20
0.0
 30
0.0
 11
-2.500000000000002
 21
0.0
 31
0.0
  0
LINE
  5
1B1
330
1AD
100
AcDbEntity
  8
0
  6
Continuous
 62
     0
370
     0
100
AcDbLine
 10
0.0
 20
0.0
 30
0.0
 11
0.0
 21
-2.500000000000002
 31
0.0
  0
LINE
  5
1B2
330
1AD
100
AcDbEntity
  8
0
  6
Continuous
 62
     0
370
     0
100
AcDbLine
 10
0.0
 20
0.0
 30
0.0
 11
2.500000000000002
 21
0.0
 31
0.0
  0
LINE
  5
1B3
330
1AD
100
AcDbEntity
  8
0
  6
Continuous
 62
     0
370
     0
100
AcDbLine
 10
0.0
 20
5.000000000000004
 30
0.0
 11
0.0
 21
13.75000000000001
 31
0.0
  0
LINE
  5
1B4
330
1AD
100
AcDbEntity
  8
0
  6
Continuous
 62
     0
370
     0
100
AcDbLine
 10
-5.000000000000004
 20
0.0
 30
0.0
 11
-13.75000000000001
 21
0.0
 31
0.0
  0
LINE
  5
1B5
330
1AD
100
AcDbEntity
  8
0
  6
Continuous
 62
     0
370
     0
100
AcDbLine
 10
0.0
 20
-4.999999999999976
 30
0.0
 11
0.0
 21
-13.74999999999998
 31
0.0
  0
LINE
  5
1B6
330
1AD
100
AcDbEntity
  8
0
  6
Continuous
 62
     0
370
     0
100
AcDbLine
 10
5.000000000000004
 20
0.0
 30
0.0
 11
13.75000000000001
 21
0.0
 31
0.0
  0
ENDBLK
  5
1B7
330
1AD
100
AcDbEntity
  8
0
100
AcDbBlockEnd
  0
BLOCK
  5
2F5
330
2F4
100
AcDbEntity
  8
0
100
AcDbBlockBegin
  2
1
 70
     0
 10
0.0
 20
0.0
 30
0.0
  3
1
  1

  0
LINE
  5
421
330
2F4
100
AcDbEntity
  8
0
  6
Continuous
 62
     7
370
    15
100
AcDbLine
 10
1837.241862516062
 20
1286.904616490502
 30
0.0
 11
1837.241862516062
 21
1288.116198198588
 31
0.0
1001
AcDbBlockRepETag
1070
     1
1071
        0
1005
421
  0
LINE
  5
422
330
2F4
100
AcDbEntity
  8
0
  6
Continuous
 62
     7
370
    15
100
AcDbLine
 10
1815.041862516062
 20
1288.116198198588
 30
0.0
 11
1815.041862516062
 21
1286.904616490502
 31
0.0
1001
AcDbBlockRepETag
1070
     1
1071
        1
1005
422
  0
ARC
  5
423
330
2F4
100
AcDbEntity
  8
0
  6
Continuous
 62
     7
370
    15
100
AcDbCircle
 10
1836.241862516062
 20
1288.116198198588
 30
0.0
 40
1.0
100
AcDbArc
 50
0.0
 51
76.33002415696799
1001
AcDbBlockRepETag
1070
     1
1071
        2
1005
423
  0
ARC
  5
424
330
2F4
100
AcDbEntity
  8
0
  6
Continuous
 62
     7
370
    15
100
AcDbCircle
 10
1816.041862516062
 20
1288.116198198588
 30
0.0
 40
1.0
100
AcDbArc
 50
103.6699758430319
 51
180.0
1001
AcDbBlockRepETag
1070
     1
1071
        3
1005
424
  0
ARC
  5
425
330
2F4
100
AcDbEntity
  8
0
  6
Continuous
 62
     7
370
    15
100
AcDbCircle
 10
1824.66864381539
 20
1265.753922492144
 30
0.0
 40
24.96052665438751
100
AcDbArc
 50
99.63299484499252
 51
110.7986580828768
1001
AcDbBlockRepETag
1070
     1
1071
        4
1005
425
  0
ARC
  5
426
330
2F4
100
AcDbEntity
  8
0
  6
Continuous
 62
     7
370
    15
100
AcDbCircle
 10
1827.615090227368
 20
1265.753952656121
 30
0.0
 40
24.96049525653516
100
AcDbArc
 50
69.20133666665233
 51
80.36698160594239
1001
AcDbBlockRepETag
1070
     1
1071
        5
1005
426
  0
LINE
  5
427
330
2F4
100
AcDbEntity
  8
0
  6
Continuous
 62
     7
370
    15
100
AcDbLine
 10
1835.341862516062
 20
1276.139027589761
 30
0.0
 11
1835.341862516062
 21
1276.570204843612
 31
0.0
1001
AcDbBlockRepETag
1070
     1
1071
        6
1005
427
  0
LINE
  5
428
330
2F4
100
AcDbEntity
  8
0
  6
Continuous
 62
     7
370
    15
100
AcDbLine
 10
1816.941862516062
 20
1286.320204777456
 30
0.0
 11
1816.941862516062
 21
1285.889028482147
 31
0.0
1001
AcDbBlockRepETag
1070
     1
1071
        7
1005
428
  0
SPLINE
  5
429
330
2F4
100
AcDbEntity
  8
0
  6
Continuous
 62
     7
370
    15
100
AcDbSpline
210
0.0
220
0.0
230
1.0
 70
     8
 71
     3
 72
     9
 73
     5
 74
     0
 42
0.0000000001
 43
0.0000000001
 40
0.0
 40
0.0
 40
0.0
 40
0.0
 40
0.4928820081617965
 40
0.9424664695002087
 40
0.9424664695002087
 40
0.9424664695002087
 40
0.9424664695002087
 10
1817.671934390732
 20
1286.855098641871
 30
0.0
 10
1817.544667469301
 20
1286.761851545858
 30
0.0
 10
1817.301313473538
 20
1286.583548706812
 30
0.0
 10
1817.057952898673
 20
1286.405255617746
 30
0.0
 10
1816.941862516062
 20
1286.320204777456
 30
0.0
1001
AcDbBlockRepETag
1070
     1
1071
        8
1005
429
  0
SPLINE
  5
42A
330
2F4
100
AcDbEntity
  8
0
  6
Continuous
 62
     7
370
    15
100
AcDbSpline
210
0.0
220
0.0
230
1.0
 70
     8
 71
     3
 72
     9
 73
     5
 74
     0
 42
0.0000000001
 43
0.0000000001
 40
0.0
 40
0.0
 40
0.0
 40
0.0
 40
0.4924481396278514
 40
0.9424224026232279
 40
0.9424224026232279
 40
0.9424224026232279
 40
0.9424224026232279
 10
1817.671276449239
 20
1285.35461654378
 30
0.0
 10
1817.544230211202
 20
1285.261531138785
 30
0.0
 10
1817.301095531101
 20
1285.083388987429
 30
0.0
 10
1817.057954270348
 20
1284.905256581563
 30
0.0
 10
1816.941862516062
 20
1284.820204740373
 30
0.0
1001
AcDbBlockRepETag
1070
     1
1071
        9
1005
42A
  0
SPLINE
  5
42B
330
2F4
100
AcDbEntity
  8
0
  6
Continuous
 62
     7
370
    15
100
AcDbSpline
210
0.0
220
0.0
230
1.0
 70
     8
 71
     3
 72
     9
 73
     5
 74
     0
 42
0.0000000001
 43
0.0000000001
 40
0.0
 40
0.0
 40
0.0
 40
0.0
 40
0.492445201578791
 40
0.9424282715980149
 40
0.9424282715980149
 40
0.9424282715980149
 40
0.9424282715980149
 10
1817.671276500056
 20
1283.85461653864
 30
0.0
 10
1817.544231808543
 20
1283.761532263075
 30
0.0
 10
1817.301097123395
 20
1283.583390100956
 30
0.0
 10
1817.057955833882
 20
1283.405257678975
 30
0.0
 10
1816.941862516062
 20
1283.320204694941
 30
0.0
1001
AcDbBlockRepETag
1070
     1
1071
       10
1005
42B
  0
SPLINE
  5
42C
330
2F4
100
AcDbEntity
  8
0
  6
Continuous
 62
     7
370
    15
100
AcDbSpline
210
0.0
220
0.0
230
1.0
 70
     8
 71
     3
 72
     9
 73
     5
 74
     0
 42
0.0000000001
 43
0.0000000001
 40
0.0
 40
0.0
 40
0.0
 40
0.0
 40
0.4924426415100691
 40
0.9424339476863199
 40
0.9424339476863199
 40
0.9424339476863199
 40
0.9424339476863199
 10
1817.671276469362
 20
1282.354616478798
 30
0.0
 10
1817.544233218015
 20
1282.261533254199
 30
0.0
 10
1817.301098560692
 20
1282.083391104379
 30
0.0
 10
1817.057957263911
 20
1281.90525867996
 30
0.0
 10
1816.941862516062
 20
1281.820204649877
 30
0.0
1001
AcDbBlockRepETag
1070
     1
1071
       11
1005
42C
  0
SPLINE
  5
42D
330
2F4
100
AcDbEntity
  8
0
  6
Continuous
 62
     7
370
    15
100
AcDbSpline
210
0.0
220
0.0
230
1.0
 70
     8
 71
     3
 72
     9
 73
     5
 74
     0
 42
0.0000000001
 43
0.0000000001
 40
0.0
 40
0.0
 40
0.0
 40
0.0
 40
0.4924410349781578
 40
0.9424383211375529
 40
0.9424383211375529
 40
0.9424383211375529
 40
0.9424383211375529
 10
1817.671276365248
 20
1280.854616379226
 30
0.0
 10
1817.544234147097
 20
1280.761533907555
 30
0.0
 10
1817.301099545625
 20
1280.583391790838
 30
0.0
 10
1817.057958262509
 20
1280.405259376219
 30
0.0
 10
1816.941862516062
 20
1280.320204614607
 30
0.0
1001
AcDbBlockRepETag
1070
     1
1071
       12
1005
42D
  0
SPLINE
  5
42E
330
2F4
100
AcDbEntity
  8
0
  6
Continuous
 62
     7
370
    15
100
AcDbSpline
210
0.0
220
0.0
230
1.0
 70
     8
 71
     3
 72
     9
 73
     5
 74
     0
 42
0.0000000001
 43
0.0000000001
 40
0.0
 40
0.0
 40
0.0
 40
0.0
 40
0.492440911447366
 40
0.9424403876777244
 40
0.9424403876777244
 40
0.9424403876777244
 40
0.9424403876777244
 10
1817.671276213038
 20
1279.354616266863
 30
0.0
 10
1817.544234343692
 20
1279.261534047511
 30
0.0
 10
1817.301099815641
 20
1279.083391978375
 30
0.0
 10
1817.057958560679
 20
1278.905259580314
 30
0.0
 10
1816.941862516062
 20
1278.820204598353
 30
0.0
1001
AcDbBlockRepETag
1070
     1
1071
       13
1005
42E
  0
SPLINE
  5
42F
330
2F4
100
AcDbEntity
  8
0
  6
Continuous
 62
     7
370
    15
100
AcDbSpline
210
0.0
220
0.0
230
1.0
 70
     8
 71
     3
 72
     9
 73
     5
 74
     0
 42
0.0000000001
 43
0.0000000001
 40
0.0
 40
0.0
 40
0.0
 40
0.0
 40
0.4924645662922884
 40
0.9424029307746064
 40
0.9424029307746064
 40
0.9424029307746064
 40
0.9424029307746064
 10
1817.671275859562
 20
1277.854616325587
 30
0.0
 10
1817.544222906344
 20
1277.761526002729
 30
0.0
 10
1817.301088509127
 20
1277.583384062998
 30
0.0
 10
1817.057947358892
 20
1277.405251688833
 30
0.0
 10
1816.941862516062
 20
1277.320204886362
 30
0.0
1001
AcDbBlockRepETag
1070
     1
1071
       14
1005
42F
  0
SPLINE
  5
430
330
2F4
100
AcDbEntity
  8
0
  6
Continuous
 62
     7
370
    15
100
AcDbSpline
210
0.0
220
0.0
230
1.0
 70
     8
 71
     3
 72
     9
 73
     5
 74
     0
 42
0.0000000001
 43
0.0000000001
 40
0.0
 40
0.0
 40
0.0
 40
0.0
 40
0.4924581702968536
 40
0.9424157602060256
 40
0.9424157602060256
 40
0.9424157602060256
 40
0.9424157602060256
 10
1817.671275838196
 20
1276.35461623221
 30
0.0
 10
1817.544226282912
 20
1276.261528390109
 30
0.0
 10
1817.301091920548
 20
1276.083386458935
 30
0.0
 10
1817.057950749869
 20
1275.905254078496
 30
0.0
 10
1816.941862516062
 20
1275.820204796451
 30
0.0
1001
AcDbBlockRepETag
1070
     1
1071
       15
1005
430
  0
SPLINE
  5
431
330
2F4
100
AcDbEntity
  8
0
  6
Continuous
 62
     7
370
    15
100
AcDbSpline
210
0.0
220
0.0
230
1.0
 70
     8
 71
     3
 72
     9
 73
     5
 74
     0
 42
0.0000000001
 43
0.0000000001
 40
0.0567354502222289
 40
0.0567354502222289
 40
0.0567354502222289
 40
0.0567354502222289
 40
0.5000092095098752
 40
1.0
 40
1.0
 40
1.0
 40
1.0
 10
1835.341862516062
 20
1276.570204843612
 30
0.0
 10
1835.225775748764
 20
1276.655253070801
 30
0.0
 10
1834.978749239686
 20
1276.836231993742
 30
0.0
 10
1834.731729625335
 20
1277.017220638654
 30
0.0
 10
1834.600793365432
 20
1277.113156244058
 30
0.0
1001
AcDbBlockRepETag
1070
     1
1071
       16
1005
431
  0
SPLINE
  5
432
330
2F4
100
AcDbEntity
  8
0
  6
Continuous
 62
     7
370
    15
100
AcDbSpline
210
0.0
220
0.0
230
1.0
 70
     8
 71
     3
 72
     9
 73
     5
 74
     0
 42
0.0000000001
 43
0.0000000001
 40
0.0567489986330882
 40
0.0567489986330882
 40
0.0567489986330882
 40
0.0567489986330882
 40
0.5000099959334861
 40
1.0
 40
1.0
 40
1.0
 40
1.0
 10
1835.341862516063
 20
1278.070204925746
 30
0.0
 10
1835.225773072463
 20
1278.155255058427
 30
0.0
 10
1834.978737244323
 20
1278.336240691679
 30
0.0
 10
1834.731707184649
 20
1278.517236877432
 30
0.0
 10
1834.600763713227
 20
1278.613177707093
 30
0.0
1001
AcDbBlockRepETag
1070
     1
1071
       17
1005
432
  0
SPLINE
  5
433
330
2F4
100
AcDbEntity
  8
0
  6
Continuous
 62
     7
370
    15
100
AcDbSpline
210
0.0
220
0.0
230
1.0
 70
     8
 71
     3
 72
     9
 73
     5
 74
     0
 42
0.0000000001
 43
0.0000000001
 40
0.05670409699289
 40
0.05670409699289
 40
0.05670409699289
 40
0.05670409699289
 40
0.50000933170332
 40
1.0
 40
1.0
 40
1.0
 40
1.0
 10
1835.341862516063
 20
1279.570204610609
 30
0.0
 10
1835.225766526619
 20
1279.655259568827
 30
0.0
 10
1834.978729718692
 20
1279.83624598652
 30
0.0
 10
1834.731699728498
 20
1280.017242255863
 30
0.0
 10
1834.600762352969
 20
1280.113178690421
 30
0.0
1001
AcDbBlockRepETag
1070
     1
1071
       18
1005
433
  0
SPLINE
  5
434
330
2F4
100
AcDbEntity
  8
0
  6
Continuous
 62
     7
370
    15
100
AcDbSpline
210
0.0
220
0.0
230
1.0
 70
     8
 71
     3
 72
     9
 73
     5
 74
     0
 42
0.0000000001
 43
0.0000000001
 40
0.0567074927902347
 40
0.0567074927902347
 40
0.0567074927902347
 40
0.0567074927902347
 40
0.500009357996688
 40
1.0
 40
1.0
 40
1.0
 40
1.0
 10
1835.341862516062
 20
1281.070204637476
 30
0.0
 10
1835.225767206719
 20
1281.155259096553
 30
0.0
 10
1834.978730855198
 20
1281.33624517776
 30
0.0
 10
1834.731701276437
 20
1281.51724113833
 30
0.0
 10
1834.600763654506
 20
1281.613177749545
 30
0.0
1001
AcDbBlockRepETag
1070
     1
1071
       19
1005
434
  0
SPLINE
  5
435
330
2F4
100
AcDbEntity
  8
0
  6
Continuous
 62
     7
370
    15
100
AcDbSpline
210
0.0
220
0.0
230
1.0
 70
     8
 71
     3
 72
     9
 73
     5
 74
     0
 42
0.0000000001
 43
0.0000000001
 40
0.0567128156436073
 40
0.0567128156436073
 40
0.0567128156436073
 40
0.0567128156436073
 40
0.5000093764578652
 40
1.0
 40
1.0
 40
1.0
 40
1.0
 10
1835.341862516062
 20
1282.570204678819
 30
0.0
 10
1835.225768456431
 20
1282.655258223217
 30
0.0
 10
1834.978733200085
 20
1282.836243503515
 30
0.0
 10
1834.731704676646
 20
1283.017238682578
 30
0.0
 10
1834.600766880061
 20
1283.113175417369
 30
0.0
1001
AcDbBlockRepETag
1070
     1
1071
       20
1005
435
  0
SPLINE
  5
436
330
2F4
100
AcDbEntity
  8
0
  6
Continuous
 62
     7
370
    15
100
AcDbSpline
210
0.0
220
0.0
230
1.0
 70
     8
 71
     3
 72
     9
 73
     5
 74
     0
 42
0.0000000001
 43
0.0000000001
 40
0.0567189620070457
 40
0.0567189620070457
 40
0.0567189620070457
 40
0.0567189620070457
 40
0.5000093862768109
 40
1.0
 40
1.0
 40
1.0
 40
1.0
 10
1835.341862516062
 20
1284.070204725225
 30
0.0
 10
1835.225769992178
 20
1284.155257146683
 30
0.0
 10
1834.978736192097
 20
1284.336241364176
 30
0.0
 10
1834.73170909442
 20
1284.517235490691
 30
0.0
 10
1834.600771202955
 20
1284.613172290808
 30
0.0
1001
AcDbBlockRepETag
1070
     1
1071
       21
1005
436
  0
SPLINE
  5
437
330
2F4
100
AcDbEntity
  8
0
  6
Continuous
 62
     7
370
    15
100
AcDbSpline
210
0.0
220
0.0
230
1.0
 70
     8
 71
     3
 72
     9
 73
     5
 74
     0
 42
0.0000000001
 43
0.0000000001
 40
0.0567247211313462
 40
0.0567247211313462
 40
0.0567247211313462
 40
0.0567247211313462
 40
0.5000093866769695
 40
0.9999999999999998
 40
0.9999999999999998
 40
0.9999999999999998
 40
0.9999999999999998
 10
1835.341862516063
 20
1285.57020476739
 30
0.0
 10
1835.225771501942
 20
1285.655256085644
 30
0.0
 10
1834.978739212705
 20
1285.836239201841
 30
0.0
 10
1834.731713609209
 20
1286.017232227372
 30
0.0
 10
1834.600775710416
 20
1286.113169029565
 30
0.0
1001
AcDbBlockRepETag
1070
     1
1071
       22
1005
437
  0
LINE
  5
438
330
2F4
100
AcDbEntity
  8
0
  6
Continuous
 62
     7
370
    15
100
AcDbLine
 10
1817.60598179637
 20
1286.903434398208
 30
0.0
 11
1817.678569803389
 21
1286.85023563849
 31
0.0
1001
AcDbBlockRepETag
1070
     1
1071
       23
1005
438
  0
SPLINE
  5
439
330
2F4
100
AcDbEntity
  8
0
  6
Continuous
 62
     7
370
    15
100
AcDbSpline
210
0.0
220
0.0
230
1.0
 70
     8
 71
     3
 72
     9
 73
     5
 74
     0
 42
0.0000000001
 43
0.0000000001
 40
0.0566904716164712
 40
0.0566904716164712
 40
0.0566904716164712
 40
0.0566904716164712
 40
0.5000091230680664
 40
1.0
 40
1.0
 40
1.0
 40
1.0
 10
1816.941862516062
 20
1285.889028482147
 30
0.0
 10
1817.05796039063
 20
1285.803972127944
 30
0.0
 10
1817.304997284809
 20
1285.62298561493
 30
0.0
 10
1817.552027044866
 20
1285.441989470424
 30
0.0
 10
1817.68296246176
 20
1285.34605444773
 30
0.0
1001
AcDbBlockRepETag
1070
     1
1071
       24
1005
439
  0
SPLINE
  5
43A
330
2F4
100
AcDbEntity
  8
0
  6
Continuous
 62
     7
370
    15
100
AcDbSpline
210
0.0
220
0.0
230
1.0
 70
     8
 71
     3
 72
     9
 73
     5
 74
     0
 42
0.0000000001
 43
0.0000000001
 40
0.0566901207633534
 40
0.0566901207633534
 40
0.0566901207633534
 40
0.0566901207633534
 40
0.5000091801662915
 40
0.9999999999999998
 40
0.9999999999999998
 40
0.9999999999999998
 40
0.9999999999999998
 10
1816.941862516062
 20
1284.389028485549
 30
0.0
 10
1817.057960948156
 20
1284.303971728866
 30
0.0
 10
1817.304998897196
 20
1284.122984455461
 30
0.0
 10
1817.552029786847
 20
1283.941987490235
 30
0.0
 10
1817.682965738817
 20
1283.846052079165
 30
0.0
1001
AcDbBlockRepETag
1070
     1
1071
       25
1005
43A
  0
SPLINE
  5
43B
330
2F4
100
AcDbEntity
  8
0
  6
Continuous
 62
     7
370
    15
100
AcDbSpline
210
0.0
220
0.0
230
1.0
 70
     8
 71
     3
 72
     9
 73
     5
 74
     0
 42
0.0000000001
 43
0.0000000001
 40
0.0567038620069454
 40
0.0567038620069454
 40
0.0567038620069454
 40
0.0567038620069454
 40
0.5000092268250928
 40
0.9999999999999998
 40
0.9999999999999998
 40
0.9999999999999998
 40
0.9999999999999998
 10
1816.941862516062
 20
1282.889028371547
 30
0.0
 10
1817.057957719026
 20
1282.80397397951
 30
0.0
 10
1817.304992834926
 20
1282.622988780516
 30
0.0
 10
1817.552020991649
 20
1282.441993840666
 30
0.0
 10
1817.682957390201
 20
1282.346058114576
 30
0.0
1001
AcDbBlockRepETag
1070
     1
1071
       26
1005
43B
  0
SPLINE
  5
43C
330
2F4
100
AcDbEntity
  8
0
  6
Continuous
 62
     7
370
    15
100
AcDbSpline
210
0.0
220
0.0
230
1.0
 70
     8
 71
     3
 72
     9
 73
     5
 74
     0
 42
0.0000000001
 43
0.0000000001
 40
0.0567309198662721
 40
0.0567309198662721
 40
0.0567309198662721
 40
0.0567309198662721
 40
0.5000092591104268
 40
1.0
 40
1.0
 40
1.0
 40
1.0
 10
1816.941862516062
 20
1281.389028168826
 30
0.0
 10
1817.057950874414
 20
1281.303978782212
 30
0.0
 10
1817.304979406197
 20
1281.122998389992
 30
0.0
 10
1817.552001097213
 20
1280.942008223318
 30
0.0
 10
1817.682937816021
 20
1280.846072281565
 30
0.0
1001
AcDbBlockRepETag
1070
     1
1071
       27
1005
43C
  0
SPLINE
  5
43D
330
2F4
100
AcDbEntity
  8
0
  6
Continuous
 62
     7
370
    15
100
AcDbSpline
210
0.0
220
0.0
230
1.0
 70
     8
 71
     3
 72
     9
 73
     5
 74
     0
 42
0.0000000001
 43
0.0000000001
 40
0.0567699181660863
 40
0.0567699181660863
 40
0.0567699181660863
 40
0.0567699181660863
 40
0.5000092730308917
 40
0.9999999999999998
 40
0.9999999999999998
 40
0.9999999999999998
 40
0.9999999999999998
 10
1816.941862516062
 20
1279.88902792846
 30
0.0
 10
1817.05794074339
 20
1279.80398594671
 30
0.0
 10
1817.304959235546
 20
1279.623012876507
 30
0.0
 10
1817.551971014368
 20
1279.442030017877
 30
0.0
 10
1817.682907888883
 20
1279.346093986152
 30
0.0
1001
AcDbBlockRepETag
1070
     1
1071
       28
1005
43D
  0
SPLINE
  5
43E
330
2F4
100
AcDbEntity
  8
0
  6
Continuous
 62
     7
370
    15
100
AcDbSpline
210
0.0
220
0.0
230
1.0
 70
     8
 71
     3
 72
     9
 73
     5
 74
     0
 42
0.0000000001
 43
0.0000000001
 40
0.056810633769965
 40
0.056810633769965
 40
0.056810633769965
 40
0.056810633769965
 40
0.5000091807220003
 40
1.0
 40
1.0
 40
1.0
 40
1.0
 10
1816.941862516062
 20
1278.389027742884
 30
0.0
 10
1817.057929304846
 20
1278.303994116235
 30
0.0
 10
1817.304935533984
 20
1278.123029981162
 30
0.0
 10
1817.551935038772
 20
1277.94205615593
 30
0.0
 10
1817.682871083199
 20
1277.846120753787
 30
0.0
1001
AcDbBlockRepETag
1070
     1
1071
       29
1005
43E
  0
SPLINE
  5
43F
330
2F4
100
AcDbEntity
  8
0
  6
Continuous
 62
     7
370
    15
100
AcDbSpline
210
0.0
220
0.0
230
1.0
 70
     8
 71
     3
 72
     9
 73
     5
 74
     0
 42
0.0000000001
 43
0.0000000001
 40
0.0568512461240431
 40
0.0568512461240431
 40
0.0568512461240431
 40
0.0568512461240431
 40
0.5000091645513475
 40
1.0
 40
1.0
 40
1.0
 40
1.0
 10
1816.941862516062
 20
1276.889027626125
 30
0.0
 10
1817.057918507046
 20
1276.804001890073
 30
0.0
 10
1817.304913769203
 20
1276.623045750812
 30
0.0
 10
1817.55190239842
 20
1276.442079939228
 30
0.0
 10
1817.682838319781
 20
1276.346144651237
 30
0.0
1001
AcDbBlockRepETag
1070
     1
1071
       30
1005
43F
  0
SPLINE
  5
440
330
2F4
100
AcDbEntity
  8
0
  6
Continuous
 62
     7
370
    15
100
AcDbSpline
210
0.0
220
0.0
230
1.0
 70
     8
 71
     3
 72
     9
 73
     5
 74
     0
 42
0.0000000001
 43
0.0000000001
 40
0.0320657230796565
 40
0.0320657230796565
 40
0.0320657230796565
 40
0.0320657230796565
 40
0.4999908525308896
 40
0.9431253130859793
 40
0.9431253130859793
 40
0.9431253130859793
 40
0.9431253130859793
 10
1834.626097790651
 20
1275.614616490502
 30
0.0
 10
1834.748636321552
 20
1275.704399075714
 30
0.0
 10
1834.987221495731
 20
1275.879207268896
 30
0.0
 10
1835.225812819972
 20
1276.054006453522
 30
0.0
 10
1835.341862516063
 20
1276.139027589761
 30
0.0
1001
AcDbBlockRepETag
1070
     1
1071
       31
1005
440
  0
SPLINE
  5
441
330
2F4
100
AcDbEntity
  8
0
  6
Continuous
 62
     7
370
    15
100
AcDbSpline
210
0.0
220
0.0
230
1.0
 70
     8
 71
     3
 72
     9
 73
     5
 74
     0
 42
0.0000000001
 43
0.0000000001
 40
0.0
 40
0.0
 40
0.0
 40
0.0
 40
0.4925106090595489
 40
0.9423201020211525
 40
0.9423201020211525
 40
0.9423201020211525
 40
0.9423201020211525
 10
1834.612449182587
 20
1277.104616273934
 30
0.0
 10
1834.7395252303
 20
1277.197723468026
 30
0.0
 10
1834.982659717238
 20
1277.375865378112
 30
0.0
 10
1835.225800771764
 20
1277.553997763595
 30
0.0
 10
1835.341862516062
 20
1277.639027686427
 30
0.0
1001
AcDbBlockRepETag
1070
     1
1071
       32
1005
441
  0
SPLINE
  5
442
330
2F4
100
AcDbEntity
  8
0
  6
Continuous
 62
     7
370
    15
100
AcDbSpline
210
0.0
220
0.0
230
1.0
 70
     8
 71
     3
 72
     9
 73
     5
 74
     0
 42
0.0000000001
 43
0.0000000001
 40
0.0
 40
0.0
 40
0.0
 40
0.0
 40
0.492488699523762
 40
0.9423545884873963
 40
0.9423545884873963
 40
0.9423545884873963
 40
0.9423545884873963
 10
1834.612448905841
 20
1278.604616219548
 30
0.0
 10
1834.739514705785
 20
1278.69771592367
 30
0.0
 10
1834.982649298991
 20
1278.875857946933
 30
0.0
 10
1835.225790431675
 20
1279.053990345531
 30
0.0
 10
1835.341862516062
 20
1279.139027820862
 30
0.0
1001
AcDbBlockRepETag
1070
     1
1071
       33
1005
442
  0
SPLINE
  5
443
330
2F4
100
AcDbEntity
  8
0
  6
Continuous
 62
     7
370
    15
100
AcDbSpline
210
0.0
220
0.0
230
1.0
 70
     8
 71
     3
 72
     9
 73
     5
 74
     0
 42
0.0000000001
 43
0.0000000001
 40
0.0
 40
0.0
 40
0.0
 40
0.0
 40
0.4924661033580043
 40
0.9423969533105996
 40
0.9423969533105996
 40
0.9423969533105996
 40
0.9423969533105996
 10
1834.612448739114
 20
1280.1046163226
 30
0.0
 10
1834.739502993326
 20
1280.197707592479
 30
0.0
 10
1834.982637579156
 20
1280.375849658535
 30
0.0
 10
1835.22577882995
 20
1280.553982102938
 30
0.0
 10
1835.341862516062
 20
1280.639028056509
 30
0.0
1001
AcDbBlockRepETag
1070
     1
1071
       34
1005
443
  0
SPLINE
  5
444
330
2F4
100
AcDbEntity
  8
0
  6
Continuous
 62
     7
370
    15
100
AcDbSpline
210
0.0
220
0.0
230
1.0
 70
     8
 71
     3
 72
     9
 73
     5
 74
     0
 42
0.0000000001
 43
0.0000000001
 40
0.0
 40
0.0
 40
0.0
 40
0.0
 40
0.4924498787808792
 40
0.9424288481291497
 40
0.9424288481291497
 40
0.9424288481291497
 40
0.9424288481291497
 10
1834.612448606863
 20
1281.604616432533
 30
0.0
 10
1834.739494366511
 20
1281.697701499501
 30
0.0
 10
1834.982628935294
 20
1281.875843593186
 30
0.0
 10
1835.225770290927
 20
1282.053976089458
 30
0.0
 10
1835.341862516063
 20
1282.139028285544
 30
0.0
1001
AcDbBlockRepETag
1070
     1
1071
       35
1005
444
  0
SPLINE
  5
445
330
2F4
100
AcDbEntity
  8
0
  6
Continuous
 62
     7
370
    15
100
AcDbSpline
210
0.0
220
0.0
230
1.0
 70
     8
 71
     3
 72
     9
 73
     5
 74
     0
 42
0.0000000001
 43
0.0000000001
 40
0.0
 40
0.0
 40
0.0
 40
0.0
 40
0.4924407343982692
 40
0.9424486504233119
 40
0.9424486504233119
 40
0.9424486504233119
 40
0.9424486504233119
 10
1834.612448537291
 20
1283.104616514938
 30
0.0
 10
1834.739489252155
 20
1283.197697900904
 30
0.0
 10
1834.982623789793
 20
1283.37584000097
 30
0.0
 10
1835.225765222649
 20
1283.553972544955
 30
0.0
 10
1835.341862516063
 20
1283.639028449097
 30
0.0
1001
AcDbBlockRepETag
1070
     1
1071
       36
1005
445
  0
SPLINE
  5
446
330
2F4
100
AcDbEntity
  8
0
  6
Continuous
 62
     7
370
    15
100
AcDbSpline
210
0.0
220
0.0
230
1.0
 70
     8
 71
     3
 72
     9
 73
     5
 74
     0
 42
0.0000000001
 43
0.0000000001
 40
0.0
 40
0.0
 40
0.0
 40
0.0
 40
0.4924390749400134
 40
0.9424553130047684
 40
0.9424553130047684
 40
0.9424553130047684
 40
0.9424553130047684
 10
1834.612448547529
 20
1284.604616548442
 30
0.0
 10
1834.73948791168
 20
1284.697696952627
 30
0.0
 10
1834.982622402418
 20
1284.875839033393
 30
0.0
 10
1835.225763875142
 20
1285.053971612388
 30
0.0
 10
1835.341862516063
 20
1285.139028506321
 30
0.0
1001
AcDbBlockRepETag
1070
     1
1071
       37
1005
446
  0
SPLINE
  5
447
330
2F4
100
AcDbEntity
  8
0
  6
Continuous
 62
     7
370
    15
100
AcDbSpline
210
0.0
220
0.0
230
1.0
 70
     8
 71
     3
 72
    15
 73
    11
 74
     0
 42
0.0000000001
 43
0.0000000001
 40
0.0
 40
0.0
 40
0.0
 40
0.0
 40
0.116900952920103
 40
0.239384879936348
 40
0.3535357688005877
 40
0.4648341326794943
 40
0.5794885728487938
 40
0.7035749491751392
 40
0.8423404487461629
 40
0.9343666736883653
 40
0.9343666736883653
 40
0.9343666736883653
 40
0.9343666736883653
 10
1834.612414978384
 20
1286.104641185316
 30
0.0
 10
1834.636885277627
 20
1286.122636916862
 30
0.0
 10
1834.686994532513
 20
1286.159487822931
 30
0.0
 10
1834.77384238214
 20
1286.223996774078
 30
0.0
 10
1834.868404180955
 20
1286.294027747213
 30
0.0
 10
1834.967489652665
 20
1286.366942193302
 30
0.0
 10
1835.07021455388
 20
1286.441930165543
 30
0.0
 10
1835.175662489733
 20
1286.518450388081
 30
0.0
 10
1835.267207566716
 20
1286.584726402044
 30
0.0
 10
1835.320858950742
 20
1286.623821529049
 30
0.0
 10
1835.341862516062
 20
1286.639145164851
 30
0.0
1001
AcDbBlockRepETag
1070
     1
1071
       38
1005
447
  0
LINE
  5
448
330
2F4
100
AcDbEntity
  8
0
  6
Continuous
 62
     7
370
    15
100
AcDbLine
 10
1837.241862516062
 20
1286.904616490502
 30
0.0
 11
1815.041862516062
 21
1286.904616490502
 31
0.0
1001
AcDbBlockRepETag
1070
     1
1071
       39
1005
448
  0
LINE
  5
449
330
2F4
100
AcDbEntity
  8
0
  6
Continuous
 62
     7
370
    15
100
AcDbLine
 10
1836.478191518079
 20
1289.087871293206
 30
0.0
 11
1815.805533514043
 21
1289.087871293206
 31
0.0
1001
AcDbBlockRepETag
1070
     1
1071
       40
1005
449
  0
LINE
  5
44A
330
2F4
100
AcDbEntity
  8
0
  6
Continuous
 62
     7
370
    15
100
AcDbLine
 10
1820.491862516062
 20
1290.362506426469
 30
0.0
 11
1820.511672236186
 21
1290.36564395489
 31
0.0
1001
AcDbBlockRepETag
1070
     1
1071
       41
1005
44A
  0
SPLINE
  5
44B
330
2F4
100
AcDbEntity
  8
0
  6
Continuous
 62
     7
370
    15
100
AcDbSpline
210
0.0
220
0.0
230
1.0
 70
     8
 71
     3
 72
    12
 73
     8
 74
     0
 42
0.0000000001
 43
0.0000000001
 40
0.0
 40
0.0
 40
0.0
 40
0.0
 40
0.2499999999999995
 40
0.2499999999999995
 40
0.499999999999999
 40
0.499999999999999
 40
1.0
 40
1.0
 40
1.0
 40
1.0
 10
1821.191862516062
 20
1290.473189587835
 30
0.0
 10
1821.099992728506
 20
1290.458688881249
 30
0.0
 10
1821.009888768145
 20
1290.444456573099
 30
0.0
 10
1820.840901772418
 20
1290.417747859771
 30
0.0
 10
1820.763396490111
 20
1290.405489208951
 30
0.0
 10
1820.568990960589
 20
1290.374727820011
 30
0.0
 10
1820.491862516062
 20
1290.362506426469
 30
0.0
 10
1820.491862516062
 20
1290.362506426469
 30
0.0
1001
AcDbBlockRepETag
1070
     1
1071
       42
1005
44B
  0
ARC
  5
44C
330
2F4
100
AcDbEntity
  8
0
  6
Continuous
 62
     7
370
    15
100
AcDbCircle
 10
1826.141862516062
 20
1259.112273092023
 30
0.0
 40
31.74916665768297
100
AcDbArc
 50
81.03044589964859
 51
98.9695541003514
1001
AcDbBlockRepETag
1070
     1
1071
       43
1005
44C
  0
SPLINE
  5
44D
330
2F4
100
AcDbEntity
  8
0
  6
Continuous
 62
     7
370
    15
100
AcDbSpline
210
0.0
220
0.0
230
1.0
 70
     8
 71
     3
 72
    12
 73
     8
 74
     0
 42
0.0000000001
 43
0.0000000001
 40
0.0
 40
0.0
 40
0.0
 40
0.0
 40
0.2499999999999999
 40
0.2499999999999999
 40
0.4999999999999999
 40
0.4999999999999999
 40
1.0
 40
1.0
 40
1.0
 40
1.0
 10
1831.791862516062
 20
1290.362506426469
 30
0.0
 10
1831.791862516062
 20
1290.362506426469
 30
0.0
 10
1831.773404098631
 20
1290.365430584422
 30
0.0
 10
1831.702570330768
 20
1290.376647506787
 30
0.0
 10
1831.650175460287
 20
1290.384943110582
 30
0.0
 10
1831.456103512752
 20
1290.415651770864
 30
0.0
 10
1831.27556360963
 20
1290.44419424858
 30
0.0
 10
1831.091862516062
 20
1290.473189587835
 30
0.0
1001
AcDbBlockRepETag
1070
     1
1071
       44
1005
44D
  0
SPLINE
  5
44E
330
2F4
100
AcDbEntity
  8
0
  6
Continuous
 62
     7
370
    15
100
AcDbSpline
210
0.0
220
0.0
230
1.0
 70
     8
 71
     3
 72
    14
 73
    10
 74
     0
 42
0.0000000001
 43
0.0000000001
 40
0.0
 40
0.0
 40
0.0
 40
0.0
 40
0.1181686132866106
 40
0.2376856184062863
 40
0.3580670380021024
 40
0.4788072731201733
 40
0.599391612386699
 40
0.7193093134719582
 40
0.8201094026218376
 40
0.8201094026218376
 40
0.8201094026218376
 40
0.8201094026218376
 10
1819.257063338379
 20
1275.614616490502
 30
0.0
 10
1819.0761973576
 20
1275.621649107009
 30
0.0
 10
1818.71240158058
 20
1275.635794587413
 30
0.0
 10
1818.241308157542
 20
1275.657785073127
 30
0.0
 10
1817.8294390647
 20
1275.680208045517
 30
0.0
 10
1817.488146481149
 20
1275.702843603422
 30
0.0
 10
1817.220978509104
 20
1275.725393829419
 30
0.0
 10
1817.03892747099
 20
1275.746444702392
 30
0.0
 10
1816.967175423534
 20
1275.759856190096
 30
0.0
 10
1816.941862516062
 20
1275.765884122529
 30
0.0
1001
AcDbBlockRepETag
1070
     1
1071
       45
1005
44E
  0
SPLINE
  5
44F
330
2F4
100
AcDbEntity
  8
0
  6
Continuous
 62
     7
370
    15
100
AcDbSpline
210
0.0
220
0.0
230
1.0
 70
     8
 71
     3
 72
    41
 73
    37
 74
     0
 42
0.0000000001
 43
0.0000000001
 40
0.0330037288337634
 40
0.0330037288337634
 40
0.0330037288337634
 40
0.0330037288337634
 40
0.0547800567298717
 40
0.0826216905840643
 40
0.1106248828960196
 40
0.1386796934429943
 40
0.1661765286544357
 40
0.1935119074489373
 40
0.2205854535103399
 40
0.2473025561851168
 40
0.2745087004751522
 40
0.3020826129149885
 40
0.3299242467691809
 40
0.3579274390811363
 40
0.3859822496281109
 40
0.4134790848395525
 40
0.440814463634054
 40
0.4678880096954567
 40
0.4946051123702336
 40
0.5218112566602687
 40
0.5493851691001043
 40
0.5772268029542964
 40
0.6052299952662512
 40
0.6332848058132275
 40
0.6607816410246694
 40
0.6881170198191714
 40
0.7151905658805746
 40
0.7419076685553505
 40
0.7691138128453864
 40
0.796687725285223
 40
0.824529359139416
 40
0.8525325514513719
 40
0.8805873619983449
 40
0.908084197209787
 40
0.9354195760042889
 40
0.9566739750401531
 40
0.9566739750401531
 40
0.9566739750401531
 40
0.9566739750401531
 10
1835.341862516061
 20
1276.553929419089
 30
0.0
 10
1835.320081358914
 20
1276.559339203805
 30
0.0
 10
1835.250460073433
 20
1276.571825113679
 30
0.0
 10
1835.086779613824
 20
1276.59165887063
 30
0.0
 10
1834.838071500393
 20
1276.613361936284
 30
0.0
 10
1834.522326245827
 20
1276.635050962763
 30
0.0
 10
1834.144207064177
 20
1276.656480397258
 30
0.0
 10
1833.710218446246
 20
1276.677393357533
 30
0.0
 10
1833.224240991178
 20
1276.697757047099
 30
0.0
 10
1832.687212934241
 20
1276.717359874262
 30
0.0
 10
1832.098506411165
 20
1276.737090469652
 30
0.0
 10
1831.456373421654
 20
1276.757843631722
 30
0.0
 10
1830.766760382661
 20
1276.779158893153
 30
0.0
 10
1830.036763072418
 20
1276.800861930218
 30
0.0
 10
1829.279111861547
 20
1276.822550964355
 30
0.0
 10
1828.503303277852
 20
1276.843980396838
 30
0.0
 10
1827.718867329291
 20
1276.864893357644
 30
0.0
 10
1826.930219043554
 20
1276.885257047069
 30
0.0
 10
1826.137076112381
 20
1276.90485987427
 30
0.0
 10
1825.339018515712
 20
1276.92459046965
 30
0.0
 10
1824.536040185631
 20
1276.945343631723
 30
0.0
 10
1823.737769611683
 20
1276.966658893153
 30
0.0
 10
1822.953812530448
 20
1276.988361930218
 30
0.0
 10
1822.198155671733
 20
1277.010050964357
 30
0.0
 10
1821.479095211795
 20
1277.031480396832
 30
0.0
 10
1820.803729325158
 20
1277.05239335767
 30
0.0
 10
1820.17438821575
 20
1277.072757046976
 30
0.0
 10
1819.589743252572
 20
1277.092359874614
 30
0.0
 10
1819.049825455419
 20
1277.112090468332
 30
0.0
 10
1818.556376922565
 20
1277.132843636732
 30
0.0
 10
1818.117059984887
 20
1277.154158874219
 30
0.0
 10
1817.738392984308
 20
1277.175862001368
 30
0.0
 10
1817.427315516741
 20
1277.19755070057
 30
0.0
 10
1817.186469377576
 20
1277.218981357068
 30
0.0
 10
1817.027063166483
 20
1277.238404329611
 30
0.0
 10
1816.963765689761
 20
1277.250632010582
 30
0.0
 10
1816.941862516062
 20
1277.255907833208
 30
0.0
1001
AcDbBlockRepETag
1070
     1
1071
       46
1005
44F
  0
SPLINE
  5
450
330
2F4
100
AcDbEntity
  8
0
  6
Continuous
 62
     7
370
    15
100
AcDbSpline
210
0.0
220
0.0
230
1.0
 70
     8
 71
     3
 72
    41
 73
    37
 74
     0
 42
0.0000000001
 43
0.0000000001
 40
0.0330027199041731
 40
0.0330027199041731
 40
0.0330027199041731
 40
0.0330027199041731
 40
0.0547783820942428
 40
0.0826191648249645
 40
0.1106215010745795
 40
0.1386754539812336
 40
0.1661714486097572
 40
0.1935059917570908
 40
0.2205787101755968
 40
0.2472949961040092
 40
0.2745003086975966
 40
0.3020733781982499
 40
0.3299141609289705
 40
0.3579164971785844
 40
0.3859704500852416
 40
0.4134664447137653
 40
0.440800987861099
 40
0.467873706279605
 40
0.4945899922080185
 40
0.5217953048016069
 40
0.5493683743022612
 40
0.5772091570329829
 40
0.6052114932825978
 40
0.6332654461892521
 40
0.6607614408177757
 40
0.6880959839651093
 40
0.7151687023836152
 40
0.7418849883120278
 40
0.7690903009056152
 40
0.7966633704062686
 40
0.8245041531369892
 40
0.852506489386603
 40
0.8805604422932603
 40
0.9080564369217839
 40
0.9353909800691175
 40
0.9566443192753551
 40
0.9566443192753551
 40
0.9566443192753551
 40
0.9566443192753551
 10
1835.341862516061
 20
1278.053929419089
 30
0.0
 10
1835.320081358914
 20
1278.059339203805
 30
0.0
 10
1835.250460073433
 20
1278.071825113678
 30
0.0
 10
1835.086779613824
 20
1278.09165887063
 30
0.0
 10
1834.838071500393
 20
1278.113361936284
 30
0.0
 10
1834.522326245827
 20
1278.135050962764
 30
0.0
 10
1834.144207064177
 20
1278.156480397258
 30
0.0
 10
1833.710218446246
 20
1278.177393357533
 30
0.0
 10
1833.224240991178
 20
1278.197757047099
 30
0.0
 10
1832.687212934241
 20
1278.217359874262
 30
0.0
 10
1832.098506411165
 20
1278.237090469652
 30
0.0
 10
1831.456373421654
 20
1278.257843631722
 30
0.0
 10
1830.766760382661
 20
1278.279158893153
 30
0.0
 10
1830.036763072418
 20
1278.300861930218
 30
0.0
 10
1829.279111861547
 20
1278.322550964355
 30
0.0
 10
1828.503303277852
 20
1278.343980396839
 30
0.0
 10
1827.718867329291
 20
1278.364893357644
 30
0.0
 10
1826.930219043554
 20
1278.385257047069
 30
0.0
 10
1826.137076112381
 20
1278.40485987427
 30
0.0
 10
1825.339018515712
 20
1278.42459046965
 30
0.0
 10
1824.53604018563
 20
1278.445343631723
 30
0.0
 10
1823.737769611683
 20
1278.466658893153
 30
0.0
 10
1822.953812530448
 20
1278.488361930218
 30
0.0
 10
1822.198155671732
 20
1278.510050964356
 30
0.0
 10
1821.479095211798
 20
1278.531480396831
 30
0.0
 10
1820.803729325148
 20
1278.552393357669
 30
0.0
 10
1820.174388215787
 20
1278.572757046977
 30
0.0
 10
1819.589743252437
 20
1278.592359874614
 30
0.0
 10
1819.049825455936
 20
1278.612090468334
 30
0.0
 10
1818.556376920599
 20
1278.632843636728
 30
0.0
 10
1818.117059992317
 20
1278.654158874236
 30
0.0
 10
1817.738392956386
 20
1278.675862001303
 30
0.0
 10
1817.427315620258
 20
1278.697550700812
 30
0.0
 10
1817.186469000755
 20
1278.718981356185
 30
0.0
 10
1817.027065292339
 20
1278.738404227895
 30
0.0
 10
1816.963764657177
 20
1278.750631799257
 30
0.0
 10
1816.941862516062
 20
1278.755907524854
 30
0.0
1001
AcDbBlockRepETag
1070
     1
1071
       47
1005
450
  0
SPLINE
  5
451
330
2F4
100
AcDbEntity
  8
0
  6
Continuous
 62
     7
370
    15
100
AcDbSpline
210
0.0
220
0.0
230
1.0
 70
     8
 71
     3
 72
    41
 73
    37
 74
     0
 42
0.0000000001
 43
0.0000000001
 40
0.0330027752545274
 40
0.0330027752545274
 40
0.0330027752545274
 40
0.0330027752545274
 40
0.0547784739655451
 40
0.0826193033893028
 40
0.1106216866029024
 40
0.1386756865601139
 40
0.1661717273034147
 40
0.1935063162947481
 40
0.2205790801181356
 40
0.2472954108536415
 40
0.2745007690744912
 40
0.3020738848191885
 40
0.3299147142429471
 40
0.3579170974565478
 40
0.3859710974137562
 40
0.4134671381570571
 40
0.4408017271483905
 40
0.467874490971778
 40
0.4945908217072831
 40
0.5217961799281327
 40
0.5493692956728302
 40
0.5772101250965887
 40
0.6052125083101895
 40
0.633266508267398
 40
0.6607625490106978
 40
0.6880971380020311
 40
0.7151699018254185
 40
0.7418862325609246
 40
0.7690915907817742
 40
0.7966647065264717
 40
0.82450553595023
 40
0.8525079191638308
 40
0.8805619191210393
 40
0.9080579598643401
 40
0.9353925488556736
 40
0.95664594618622
 40
0.95664594618622
 40
0.95664594618622
 40
0.95664594618622
 10
1835.341862516061
 20
1279.553929419089
 30
0.0
 10
1835.320081358914
 20
1279.559339203805
 30
0.0
 10
1835.250460073433
 20
1279.571825113678
 30
0.0
 10
1835.086779613824
 20
1279.59165887063
 30
0.0
 10
1834.838071500393
 20
1279.613361936285
 30
0.0
 10
1834.522326245827
 20
1279.635050962763
 30
0.0
 10
1834.144207064177
 20
1279.656480397258
 30
0.0
 10
1833.710218446246
 20
1279.677393357533
 30
0.0
 10
1833.224240991178
 20
1279.697757047099
 30
0.0
 10
1832.687212934241
 20
1279.717359874262
 30
0.0
 10
1832.098506411165
 20
1279.737090469652
 30
0.0
 10
1831.456373421654
 20
1279.757843631722
 30
0.0
 10
1830.766760382661
 20
1279.779158893153
 30
0.0
 10
1830.036763072418
 20
1279.800861930218
 30
0.0
 10
1829.279111861547
 20
1279.822550964355
 30
0.0
 10
1828.503303277852
 20
1279.843980396838
 30
0.0
 10
1827.718867329291
 20
1279.864893357644
 30
0.0
 10
1826.930219043554
 20
1279.885257047069
 30
0.0
 10
1826.137076112381
 20
1279.90485987427
 30
0.0
 10
1825.339018515712
 20
1279.92459046965
 30
0.0
 10
1824.53604018563
 20
1279.945343631723
 30
0.0
 10
1823.737769611683
 20
1279.966658893153
 30
0.0
 10
1822.953812530448
 20
1279.988361930218
 30
0.0
 10
1822.198155671732
 20
1280.010050964357
 30
0.0
 10
1821.479095211797
 20
1280.031480396832
 30
0.0
 10
1820.803729325148
 20
1280.052393357669
 30
0.0
 10
1820.174388215785
 20
1280.072757046977
 30
0.0
 10
1819.589743252444
 20
1280.092359874614
 30
0.0
 10
1819.049825455907
 20
1280.112090468334
 30
0.0
 10
1818.556376920707
 20
1280.132843636728
 30
0.0
 10
1818.11705999191
 20
1280.154158874235
 30
0.0
 10
1817.738392957917
 20
1280.175862001306
 30
0.0
 10
1817.427315614583
 20
1280.197550700799
 30
0.0
 10
1817.186469021411
 20
1280.218981356233
 30
0.0
 10
1817.027065175808
 20
1280.238404233471
 30
0.0
 10
1816.963764713774
 20
1280.250631810841
 30
0.0
 10
1816.941862516062
 20
1280.255907541757
 30
0.0
1001
AcDbBlockRepETag
1070
     1
1071
       48
1005
451
  0
SPLINE
  5
452
330
2F4
100
AcDbEntity
  8
0
  6
Continuous
 62
     7
370
    15
100
AcDbSpline
210
0.0
220
0.0
230
1.0
 70
     8
 71
     3
 72
    41
 73
    37
 74
     0
 42
0.0000000001
 43
0.0000000001
 40
0.0330028926528756
 40
0.0330028926528756
 40
0.0330028926528756
 40
0.0330028926528756
 40
0.0547786688249868
 40
0.082619597284882
 40
0.1106220801093025
 40
0.1386761798609474
 40
0.1661723184138941
 40
0.1935070046405531
 40
0.2205798647678947
 40
0.2472962905394406
 40
0.2745017455359115
 40
0.3020749593644268
 40
0.3299158878243217
 40
0.3579183706487421
 40
0.3859724704003887
 40
0.4134686089533353
 40
0.4408032951799941
 40
0.4678761553073355
 40
0.4945925810788811
 40
0.5217980360753524
 40
0.549371249903868
 40
0.5772121783637632
 40
0.6052146611881837
 40
0.6332687609398286
 40
0.6607648994927754
 40
0.6880995857194345
 40
0.7151724458467762
 40
0.7418888716183219
 40
0.7690943266147928
 40
0.7966675404433082
 40
0.8245084689032029
 40
0.8525109517276233
 40
0.8805650514792679
 40
0.9080611900322146
 40
0.9353958762588733
 40
0.9566493968784328
 40
0.9566493968784328
 40
0.9566493968784328
 40
0.9566493968784328
 10
1835.341862516061
 20
1281.053929419088
 30
0.0
 10
1835.320081358914
 20
1281.059339203805
 30
0.0
 10
1835.250460073433
 20
1281.071825113678
 30
0.0
 10
1835.086779613824
 20
1281.09165887063
 30
0.0
 10
1834.838071500393
 20
1281.113361936285
 30
0.0
 10
1834.522326245827
 20
1281.135050962763
 30
0.0
 10
1834.144207064177
 20
1281.156480397258
 30
0.0
 10
1833.710218446246
 20
1281.177393357533
 30
0.0
 10
1833.224240991178
 20
1281.197757047099
 30
0.0
 10
1832.687212934241
 20
1281.217359874262
 30
0.0
 10
1832.098506411165
 20
1281.237090469652
 30
0.0
 10
1831.456373421654
 20
1281.257843631722
 30
0.0
 10
1830.766760382661
 20
1281.279158893153
 30
0.0
 10
1830.036763072418
 20
1281.300861930218
 30
0.0
 10
1829.279111861547
 20
1281.322550964355
 30
0.0
 10
1828.503303277852
 20
1281.343980396838
 30
0.0
 10
1827.718867329291
 20
1281.364893357644
 30
0.0
 10
1826.930219043554
 20
1281.385257047069
 30
0.0
 10
1826.137076112381
 20
1281.40485987427
 30
0.0
 10
1825.339018515712
 20
1281.42459046965
 30
0.0
 10
1824.536040185631
 20
1281.445343631723
 30
0.0
 10
1823.737769611683
 20
1281.466658893153
 30
0.0
 10
1822.953812530448
 20
1281.488361930218
 30
0.0
 10
1822.198155671732
 20
1281.510050964357
 30
0.0
 10
1821.479095211797
 20
1281.531480396832
 30
0.0
 10
1820.80372932515
 20
1281.55239335767
 30
0.0
 10
1820.174388215781
 20
1281.572757046977
 30
0.0
 10
1819.58974325246
 20
1281.592359874614
 30
0.0
 10
1819.049825455847
 20
1281.612090468333
 30
0.0
 10
1818.556376920936
 20
1281.632843636728
 30
0.0
 10
1818.117059991046
 20
1281.654158874233
 30
0.0
 10
1817.738392961163
 20
1281.675862001314
 30
0.0
 10
1817.427315602546
 20
1281.697550700771
 30
0.0
 10
1817.186469065228
 20
1281.718981356336
 30
0.0
 10
1817.027064928609
 20
1281.738404245299
 30
0.0
 10
1816.963764833835
 20
1281.750631835415
 30
0.0
 10
1816.941862516062
 20
1281.755907577613
 30
0.0
1001
AcDbBlockRepETag
1070
     1
1071
       49
1005
452
  0
SPLINE
  5
453
330
2F4
100
AcDbEntity
  8
0
  6
Continuous
 62
     7
370
    15
100
AcDbSpline
210
0.0
220
0.0
230
1.0
 70
     8
 71
     3
 72
    41
 73
    37
 74
     0
 42
0.0000000001
 43
0.0000000001
 40
0.0330030451138653
 40
0.0330030451138653
 40
0.0330030451138653
 40
0.0330030451138653
 40
0.0547789218818976
 40
0.0826199789564433
 40
0.1106225911418351
 40
0.1386768204929019
 40
0.1661730860676993
 40
0.1935078985703595
 40
0.220580883764164
 40
0.2472974329555816
 40
0.2745030136310524
 40
0.3020763548374776
 40
0.3299174119120235
 40
0.3579200240974155
 40
0.3859742534484826
 40
0.4134705190232802
 40
0.4408053315259406
 40
0.4678783167197455
 40
0.4945948659111633
 40
0.5218004465866359
 40
0.549373787793061
 40
0.5772148448676067
 40
0.6052174570529984
 40
0.6332716864040652
 40
0.6607679519788626
 40
0.6881027644815228
 40
0.7151757496753273
 40
0.7418922988667449
 40
0.7690978795422158
 40
0.796671220748641
 40
0.8245122778231868
 40
0.8525148900085788
 40
0.8805691193596478
 40
0.9080653849344454
 40
0.9354001974371058
 40
0.9566538781820167
 40
0.9566538781820167
 40
0.9566538781820167
 40
0.9566538781820167
 10
1835.341862516061
 20
1282.553929419089
 30
0.0
 10
1835.320081358914
 20
1282.559339203805
 30
0.0
 10
1835.250460073433
 20
1282.571825113678
 30
0.0
 10
1835.086779613824
 20
1282.59165887063
 30
0.0
 10
1834.838071500393
 20
1282.613361936285
 30
0.0
 10
1834.522326245827
 20
1282.635050962763
 30
0.0
 10
1834.144207064177
 20
1282.656480397258
 30
0.0
 10
1833.710218446246
 20
1282.677393357533
 30
0.0
 10
1833.224240991178
 20
1282.697757047098
 30
0.0
 10
1832.687212934241
 20
1282.717359874262
 30
0.0
 10
1832.098506411165
 20
1282.737090469652
 30
0.0
 10
1831.456373421654
 20
1282.757843631722
 30
0.0
 10
1830.766760382661
 20
1282.779158893153
 30
0.0
 10
1830.036763072418
 20
1282.800861930218
 30
0.0
 10
1829.279111861547
 20
1282.822550964355
 30
0.0
 10
1828.503303277852
 20
1282.843980396839
 30
0.0
 10
1827.718867329291
 20
1282.864893357644
 30
0.0
 10
1826.930219043554
 20
1282.885257047069
 30
0.0
 10
1826.137076112381
 20
1282.90485987427
 30
0.0
 10
1825.339018515712
 20
1282.92459046965
 30
0.0
 10
1824.536040185631
 20
1282.945343631723
 30
0.0
 10
1823.737769611683
 20
1282.966658893153
 30
0.0
 10
1822.953812530448
 20
1282.988361930218
 30
0.0
 10
1822.198155671732
 20
1283.010050964356
 30
0.0
 10
1821.479095211797
 20
1283.031480396832
 30
0.0
 10
1820.803729325151
 20
1283.052393357669
 30
0.0
 10
1820.174388215775
 20
1283.072757046977
 30
0.0
 10
1819.58974325248
 20
1283.092359874614
 30
0.0
 10
1819.049825455769
 20
1283.112090468333
 30
0.0
 10
1818.556376921233
 20
1283.132843636729
 30
0.0
 10
1818.117059989923
 20
1283.154158874231
 30
0.0
 10
1817.738392965381
 20
1283.175862001324
 30
0.0
 10
1817.427315586911
 20
1283.197550700734
 30
0.0
 10
1817.186469122145
 20
1283.218981356469
 30
0.0
 10
1817.027064607508
 20
1283.238404260663
 30
0.0
 10
1816.963764989795
 20
1283.250631867335
 30
0.0
 10
1816.941862516062
 20
1283.25590762419
 30
0.0
1001
AcDbBlockRepETag
1070
     1
1071
       50
1005
453
  0
SPLINE
  5
454
330
2F4
100
AcDbEntity
  8
0
  6
Continuous
 62
     7
370
    15
100
AcDbSpline
210
0.0
220
0.0
230
1.0
 70
     8
 71
     3
 72
    41
 73
    37
 74
     0
 42
0.0000000001
 43
0.0000000001
 40
0.0330032028179538
 40
0.0330032028179538
 40
0.0330032028179538
 40
0.0330032028179538
 40
0.0547791836413642
 40
0.082620373753583
 40
0.1106231197486341
 40
0.1386774831560136
 40
0.1661738801209079
 40
0.1935088232421665
 40
0.2205819378034352
 40
0.247298614659096
 40
0.2745043253356342
 40
0.3020777983004597
 40
0.3299189884126782
 40
0.3579217344077292
 40
0.3859760978151083
 40
0.4134724947800026
 40
0.4408074379012609
 40
0.4678805524625294
 40
0.4945972293181921
 40
0.5218029399947305
 40
0.5493764129595562
 40
0.577217603071775
 40
0.6052203490668262
 40
0.6332747124742038
 40
0.6607711094390982
 40
0.6881060525603566
 40
0.7151791671216255
 40
0.7418958439772883
 40
0.7691015546538265
 40
0.796675027618652
 40
0.8245162177308705
 40
0.8525189637259215
 40
0.8805733271333005
 40
0.9080697240981947
 40
0.9354046672194531
 40
0.9566585136135191
 40
0.9566585136135191
 40
0.9566585136135191
 40
0.9566585136135191
 10
1835.341862516061
 20
1284.053929419089
 30
0.0
 10
1835.320081358915
 20
1284.059339203805
 30
0.0
 10
1835.250460073434
 20
1284.071825113679
 30
0.0
 10
1835.086779613824
 20
1284.09165887063
 30
0.0
 10
1834.838071500393
 20
1284.113361936285
 30
0.0
 10
1834.522326245827
 20
1284.135050962764
 30
0.0
 10
1834.144207064177
 20
1284.156480397258
 30
0.0
 10
1833.710218446246
 20
1284.177393357533
 30
0.0
 10
1833.224240991178
 20
1284.197757047099
 30
0.0
 10
1832.687212934241
 20
1284.217359874262
 30
0.0
 10
1832.098506411165
 20
1284.237090469652
 30
0.0
 10
1831.456373421654
 20
1284.257843631722
 30
0.0
 10
1830.766760382661
 20
1284.279158893153
 30
0.0
 10
1830.036763072418
 20
1284.300861930218
 30
0.0
 10
1829.279111861547
 20
1284.322550964355
 30
0.0
 10
1828.503303277852
 20
1284.343980396838
 30
0.0
 10
1827.718867329291
 20
1284.364893357644
 30
0.0
 10
1826.930219043554
 20
1284.385257047069
 30
0.0
 10
1826.137076112381
 20
1284.40485987427
 30
0.0
 10
1825.339018515712
 20
1284.42459046965
 30
0.0
 10
1824.536040185631
 20
1284.445343631723
 30
0.0
 10
1823.737769611683
 20
1284.466658893153
 30
0.0
 10
1822.953812530448
 20
1284.488361930218
 30
0.0
 10
1822.198155671733
 20
1284.510050964357
 30
0.0
 10
1821.479095211796
 20
1284.531480396832
 30
0.0
 10
1820.803729325153
 20
1284.552393357669
 30
0.0
 10
1820.17438821577
 20
1284.572757046977
 30
0.0
 10
1819.589743252501
 20
1284.592359874614
 30
0.0
 10
1819.049825455688
 20
1284.612090468333
 30
0.0
 10
1818.55637692154
 20
1284.63284363673
 30
0.0
 10
1818.117059988762
 20
1284.654158874228
 30
0.0
 10
1817.738392969744
 20
1284.675862001334
 30
0.0
 10
1817.427315570733
 20
1284.697550700696
 30
0.0
 10
1817.186469181035
 20
1284.718981356607
 30
0.0
 10
1817.027064275276
 20
1284.738404276559
 30
0.0
 10
1816.963765151165
 20
1284.750631900362
 30
0.0
 10
1816.941862516062
 20
1284.75590767238
 30
0.0
1001
AcDbBlockRepETag
1070
     1
1071
       51
1005
454
  0
SPLINE
  5
455
330
2F4
100
AcDbEntity
  8
0
  6
Continuous
 62
     7
370
    15
100
AcDbSpline
210
0.0
220
0.0
230
1.0
 70
     8
 71
     3
 72
    41
 73
    37
 74
     0
 42
0.0000000001
 43
0.0000000001
 40
0.0330033331851573
 40
0.0330033331851573
 40
0.0330033331851573
 40
0.0330033331851573
 40
0.0547794000267097
 40
0.0826207001154759
 40
0.1106235567252425
 40
0.1386780309512313
 40
0.1661745365306926
 40
0.193509587628753
 40
0.2205828091325646
 40
0.2472995915227921
 40
0.2745054096656465
 40
0.3020789915495001
 40
0.3299202916382666
 40
0.3579231482480334
 40
0.3859776224740244
 40
0.4134741280534859
 40
0.4408091791515466
 40
0.4678824006553583
 40
0.4945991830455842
 40
0.5218050011884403
 40
0.5493785830722939
 40
0.5772198831610601
 40
0.6052227397708268
 40
0.6332772139968155
 40
0.6607737195762767
 40
0.6881087706743371
 40
0.7151819921781487
 40
0.7418987745683762
 40
0.7691045927112307
 40
0.7966781745950843
 40
0.8245194746838507
 40
0.8525223312936175
 40
0.8805768055196086
 40
0.9080733110990701
 40
0.9354083621971307
 40
0.9566623455393916
 40
0.9566623455393916
 40
0.9566623455393916
 40
0.9566623455393916
 10
1835.341862516061
 20
1285.553929419089
 30
0.0
 10
1835.320081358914
 20
1285.559339203805
 30
0.0
 10
1835.250460073433
 20
1285.571825113679
 30
0.0
 10
1835.086779613824
 20
1285.59165887063
 30
0.0
 10
1834.838071500393
 20
1285.613361936285
 30
0.0
 10
1834.522326245827
 20
1285.635050962764
 30
0.0
 10
1834.144207064177
 20
1285.656480397258
 30
0.0
 10
1833.710218446246
 20
1285.677393357533
 30
0.0
 10
1833.224240991178
 20
1285.697757047099
 30
0.0
 10
1832.687212934241
 20
1285.717359874262
 30
0.0
 10
1832.098506411165
 20
1285.737090469652
 30
0.0
 10
1831.456373421654
 20
1285.757843631722
 30
0.0
 10
1830.766760382661
 20
1285.779158893153
 30
0.0
 10
1830.036763072418
 20
1285.800861930218
 30
0.0
 10
1829.279111861547
 20
1285.822550964355
 30
0.0
 10
1828.503303277852
 20
1285.843980396838
 30
0.0
 10
1827.718867329291
 20
1285.864893357644
 30
0.0
 10
1826.930219043554
 20
1285.885257047069
 30
0.0
 10
1826.137076112381
 20
1285.90485987427
 30
0.0
 10
1825.339018515712
 20
1285.92459046965
 30
0.0
 10
1824.536040185631
 20
1285.945343631723
 30
0.0
 10
1823.737769611683
 20
1285.966658893153
 30
0.0
 10
1822.953812530448
 20
1285.988361930218
 30
0.0
 10
1822.198155671733
 20
1286.010050964357
 30
0.0
 10
1821.479095211796
 20
1286.031480396832
 30
0.0
 10
1820.803729325154
 20
1286.052393357669
 30
0.0
 10
1820.174388215765
 20
1286.072757046977
 30
0.0
 10
1819.589743252519
 20
1286.092359874614
 30
0.0
 10
1819.049825455621
 20
1286.112090468333
 30
0.0
 10
1818.556376921794
 20
1286.13284363673
 30
0.0
 10
1818.117059987802
 20
1286.154158874226
 30
0.0
 10
1817.738392973353
 20
1286.175862001343
 30
0.0
 10
1817.427315557356
 20
1286.197550700665
 30
0.0
 10
1817.186469229729
 20
1286.218981356721
 30
0.0
 10
1817.027064000566
 20
1286.238404289703
 30
0.0
 10
1816.9637652846
 20
1286.25063192767
 30
0.0
 10
1816.941862516062
 20
1286.255907712226
 30
0.0
1001
AcDbBlockRepETag
1070
     1
1071
       52
1005
455
  0
SPLINE
  5
456
330
2F4
100
AcDbEntity
  8
0
  6
Continuous
 62
     7
370
    15
100
AcDbSpline
210
0.0
220
0.0
230
1.0
 70
     8
 71
     3
 72
    41
 73
    37
 74
     0
 42
0.0000000001
 43
0.0000000001
 40
0.0432379723533777
 40
0.0432379723533777
 40
0.0432379723533777
 40
0.0432379723533777
 40
0.0654731313272228
 40
0.0933176464073455
 40
0.1213237366643078
 40
0.1493814504980661
 40
0.1768811312535237
 40
0.2042193388835242
 40
0.2312956866843416
 40
0.2580155542115475
 40
0.2852245139630891
 40
0.3128012799233736
 40
0.3406457950034961
 40
0.3686518852604585
 40
0.3967095990942171
 40
0.4242092798496744
 40
0.4515474874796749
 40
0.4786238352804919
 40
0.5053437028076983
 40
0.5325526625592399
 40
0.5601294285195245
 40
0.5879739435996471
 40
0.6159800338566093
 40
0.6440377476903675
 40
0.6715374284458248
 40
0.6988756360758252
 40
0.7259519838766423
 40
0.7526718514038491
 40
0.7798808111553904
 40
0.8074575771156748
 40
0.8353020921957977
 40
0.86330818245276
 40
0.8913658962865186
 40
0.9188655770419758
 40
0.9462037846719763
 40
0.9669885461188243
 40
0.9669885461188243
 40
0.9669885461188243
 40
0.9669885461188243
 10
1835.341862516062
 20
1276.203334092141
 30
0.0
 10
1835.318880087568
 20
1276.208851834313
 30
0.0
 10
1835.252876777996
 20
1276.221459411212
 30
0.0
 10
1835.086351028197
 20
1276.241405717888
 30
0.0
 10
1834.838186935459
 20
1276.263109969167
 30
0.0
 10
1834.522295968806
 20
1276.284798678085
 30
0.0
 10
1834.144215058087
 20
1276.306228195986
 30
0.0
 10
1833.710216331553
 20
1276.32714113423
 30
0.0
 10
1833.224241546875
 20
1276.347504829616
 30
0.0
 10
1832.687212783226
 20
1276.367107655239
 30
0.0
 10
1832.098506452538
 20
1276.386838251048
 30
0.0
 10
1831.456373410387
 20
1276.407591413004
 30
0.0
 10
1830.766760385712
 20
1276.428906674466
 30
0.0
 10
1830.036763071596
 20
1276.450609711522
 30
0.0
 10
1829.279111861762
 20
1276.472298745661
 30
0.0
 10
1828.503303277795
 20
1276.493728178144
 30
0.0
 10
1827.718867329306
 20
1276.51464113895
 30
0.0
 10
1826.93021904355
 20
1276.535004828375
 30
0.0
 10
1826.137076112383
 20
1276.554607655576
 30
0.0
 10
1825.339018515707
 20
1276.574338250956
 30
0.0
 10
1824.536040185646
 20
1276.595091413029
 30
0.0
 10
1823.737769611624
 20
1276.616406674459
 30
0.0
 10
1822.953812530669
 20
1276.638109711524
 30
0.0
 10
1822.198155670914
 20
1276.659798745661
 30
0.0
 10
1821.479095214776
 20
1276.681228178145
 30
0.0
 10
1820.80372931414
 20
1276.70214113895
 30
0.0
 10
1820.174388256214
 20
1276.722504828377
 30
0.0
 10
1819.589743102571
 20
1276.742107655569
 30
0.0
 10
1819.049826030188
 20
1276.761838250986
 30
0.0
 10
1818.556374737501
 20
1276.782591412916
 30
0.0
 10
1818.117068244026
 20
1276.803906674887
 30
0.0
 10
1817.738361948536
 20
1276.825609709916
 30
0.0
 10
1817.427430580502
 20
1276.847298751622
 30
0.0
 10
1817.18605052242
 20
1276.868728156444
 30
0.0
 10
1817.029448260876
 20
1276.888034949628
 30
0.0
 10
1816.962735277012
 20
1276.90013701727
 30
0.0
 10
1816.941862516062
 20
1276.905300742201
 30
0.0
1001
AcDbBlockRepETag
1070
     1
1071
       53
1005
456
  0
SPLINE
  5
457
330
2F4
100
AcDbEntity
  8
0
  6
Continuous
 62
     7
370
    15
100
AcDbSpline
210
0.0
220
0.0
230
1.0
 70
     8
 71
     3
 72
    41
 73
    37
 74
     0
 42
0.0000000001
 43
0.0000000001
 40
0.0432722274566596
 40
0.0432722274566596
 40
0.0432722274566596
 40
0.0432722274566596
 40
0.0655061497184221
 40
0.0933496810054378
 40
0.1213547817605729
 40
0.1494115042685574
 40
0.176910213414479
 40
0.2042474551400581
 40
0.231322846288398
 40
0.2580417697581691
 40
0.2852497681718323
 40
0.3128255597990324
 40
0.3406690910860479
 40
0.3686741918411831
 40
0.3967309143491677
 40
0.4242296234950893
 40
0.4515668652206684
 40
0.4786422563690083
 40
0.5053611798387794
 40
0.5325691782524422
 40
0.5601449698796417
 40
0.5879885011666568
 40
0.6159936019217916
 40
0.6440503244297775
 40
0.6715490335756997
 40
0.6988862753012793
 40
0.7259616664496195
 40
0.7526805899193897
 40
0.7798885883330535
 40
0.8074643799602538
 40
0.83530791124727
 40
0.8633130120024057
 40
0.8913697345103887
 40
0.9188684436563107
 40
0.9462056853818904
 40
0.9669897124684137
 40
0.9669897124684137
 40
0.9669897124684137
 40
0.9669897124684137
 10
1835.341862516062
 20
1277.703334431034
 30
0.0
 10
1835.318881451726
 20
1277.708852067019
 30
0.0
 10
1835.252874318593
 20
1277.721459523184
 30
0.0
 10
1835.086351469556
 20
1277.74140571885
 30
0.0
 10
1834.838186816584
 20
1277.763109968908
 30
0.0
 10
1834.522295999985
 20
1277.784798678152
 30
0.0
 10
1834.144215049855
 20
1277.806228195969
 30
0.0
 10
1833.71021633373
 20
1277.827141134235
 30
0.0
 10
1833.224241546303
 20
1277.847504829614
 30
0.0
 10
1832.687212783381
 20
1277.86710765524
 30
0.0
 10
1832.098506452496
 20
1277.886838251048
 30
0.0
 10
1831.456373410398
 20
1277.907591413004
 30
0.0
 10
1830.766760385709
 20
1277.928906674466
 30
0.0
 10
1830.036763071597
 20
1277.950609711522
 30
0.0
 10
1829.279111861762
 20
1277.972298745661
 30
0.0
 10
1828.503303277795
 20
1277.993728178144
 30
0.0
 10
1827.718867329306
 20
1278.01464113895
 30
0.0
 10
1826.93021904355
 20
1278.035004828375
 30
0.0
 10
1826.137076112383
 20
1278.054607655576
 30
0.0
 10
1825.339018515707
 20
1278.074338250956
 30
0.0
 10
1824.536040185646
 20
1278.095091413029
 30
0.0
 10
1823.737769611625
 20
1278.116406674459
 30
0.0
 10
1822.953812530669
 20
1278.138109711524
 30
0.0
 10
1822.198155670914
 20
1278.15979874566
 30
0.0
 10
1821.479095214776
 20
1278.181228178145
 30
0.0
 10
1820.80372931414
 20
1278.20214113895
 30
0.0
 10
1820.174388256214
 20
1278.222504828377
 30
0.0
 10
1819.589743102571
 20
1278.242107655569
 30
0.0
 10
1819.049826030188
 20
1278.261838250986
 30
0.0
 10
1818.556374737501
 20
1278.282591412916
 30
0.0
 10
1818.117068244026
 20
1278.303906674887
 30
0.0
 10
1817.738361948536
 20
1278.325609709916
 30
0.0
 10
1817.427430580502
 20
1278.347298751622
 30
0.0
 10
1817.18605052242
 20
1278.368728156444
 30
0.0
 10
1817.029448260877
 20
1278.388034949628
 30
0.0
 10
1816.962735277012
 20
1278.40013701727
 30
0.0
 10
1816.941862516062
 20
1278.405300742201
 30
0.0
1001
AcDbBlockRepETag
1070
     1
1071
       54
1005
457
  0
SPLINE
  5
458
330
2F4
100
AcDbEntity
  8
0
  6
Continuous
 62
     7
370
    15
100
AcDbSpline
210
0.0
220
0.0
230
1.0
 70
     8
 71
     3
 72
    41
 73
    37
 74
     0
 42
0.0000000001
 43
0.0000000001
 40
0.0432996993103116
 40
0.0432996993103116
 40
0.0432996993103116
 40
0.0432996993103116
 40
0.0655326303743377
 40
0.0933753726620777
 40
0.1213796798395598
 40
0.149435607307089
 40
0.1769335372249243
 40
0.2042700042979029
 40
0.231344628213675
 40
0.2580627945520638
 40
0.2852700219754799
 40
0.3128450321903142
 40
0.3406877744780532
 40
0.3686920816555342
 40
0.3967480091230664
 40
0.4242459390409019
 40
0.4515824061138804
 40
0.4786570300296526
 40
0.5053751963680425
 40
0.5325824237914596
 40
0.5601574340062952
 40
0.588000176294035
 40
0.6160044834715173
 40
0.6440604109390466
 40
0.6715583408568819
 40
0.6988948079298604
 40
0.7259694318456324
 40
0.7526875981840214
 40
0.7798948256074376
 40
0.8074698358222718
 40
0.8353125781100109
 40
0.863316885287492
 40
0.8913728127550243
 40
0.9188707426728596
 40
0.946207209745838
 40
0.9669906478776034
 40
0.9669906478776034
 40
0.9669906478776034
 40
0.9669906478776034
 10
1835.341862516062
 20
1279.20333470236
 30
0.0
 10
1835.31888254363
 20
1279.208852253328
 30
0.0
 10
1835.252872349644
 20
1279.221459612832
 30
0.0
 10
1835.086351822891
 20
1279.241405719619
 30
0.0
 10
1834.838186721417
 20
1279.2631099687
 30
0.0
 10
1834.522296024946
 20
1279.284798678207
 30
0.0
 10
1834.144215043264
 20
1279.306228195954
 30
0.0
 10
1833.710216335474
 20
1279.327141134239
 30
0.0
 10
1833.224241545845
 20
1279.347504829613
 30
0.0
 10
1832.687212783506
 20
1279.36710765524
 30
0.0
 10
1832.098506452462
 20
1279.386838251048
 30
0.0
 10
1831.456373410407
 20
1279.407591413004
 30
0.0
 10
1830.766760385706
 20
1279.428906674466
 30
0.0
 10
1830.036763071598
 20
1279.450609711523
 30
0.0
 10
1829.279111861762
 20
1279.472298745661
 30
0.0
 10
1828.503303277795
 20
1279.493728178144
 30
0.0
 10
1827.718867329306
 20
1279.51464113895
 30
0.0
 10
1826.93021904355
 20
1279.535004828376
 30
0.0
 10
1826.137076112382
 20
1279.554607655576
 30
0.0
 10
1825.339018515707
 20
1279.574338250956
 30
0.0
 10
1824.536040185646
 20
1279.595091413029
 30
0.0
 10
1823.737769611624
 20
1279.616406674459
 30
0.0
 10
1822.953812530669
 20
1279.638109711524
 30
0.0
 10
1822.198155670914
 20
1279.659798745661
 30
0.0
 10
1821.479095214776
 20
1279.681228178145
 30
0.0
 10
1820.80372931414
 20
1279.70214113895
 30
0.0
 10
1820.174388256214
 20
1279.722504828378
 30
0.0
 10
1819.589743102571
 20
1279.742107655569
 30
0.0
 10
1819.049826030188
 20
1279.761838250986
 30
0.0
 10
1818.556374737501
 20
1279.782591412916
 30
0.0
 10
1818.117068244026
 20
1279.803906674887
 30
0.0
 10
1817.738361948536
 20
1279.825609709916
 30
0.0
 10
1817.427430580502
 20
1279.847298751622
 30
0.0
 10
1817.18605052242
 20
1279.868728156444
 30
0.0
 10
1817.029448260876
 20
1279.888034949628
 30
0.0
 10
1816.962735277012
 20
1279.90013701727
 30
0.0
 10
1816.941862516062
 20
1279.905300742202
 30
0.0
1001
AcDbBlockRepETag
1070
     1
1071
       55
1005
458
  0
SPLINE
  5
459
330
2F4
100
AcDbEntity
  8
0
  6
Continuous
 62
     7
370
    15
100
AcDbSpline
210
0.0
220
0.0
230
1.0
 70
     8
 71
     3
 72
    41
 73
    37
 74
     0
 42
0.0000000001
 43
0.0000000001
 40
0.0433332958423233
 40
0.0433332958423233
 40
0.0433332958423233
 40
0.0433332958423233
 40
0.0655650154738023
 40
0.0934067928375561
 40
0.1214101294918248
 40
0.1494650846471809
 40
0.1769620615909216
 40
0.2042975812854962
 40
0.2313712668973563
 40
0.2580885072853036
 40
0.2852947918092734
 40
0.312868846378703
 40
0.3407106237424578
 40
0.3687139603967275
 40
0.3967689155520806
 40
0.4242658924958214
 40
0.4516014121903959
 40
0.4786750978022561
 40
0.5053923381902024
 40
0.5325986227141723
 40
0.5601726772836021
 40
0.5880144546473567
 40
0.6160177913016265
 40
0.6440727464569797
 40
0.6715697234007193
 40
0.698905243095294
 40
0.725978928707154
 40
0.7526961690951013
 40
0.7799024536190711
 40
0.8074765081885008
 40
0.8353182855522554
 40
0.8633216222065252
 40
0.8913765773618782
 40
0.9188735543056189
 40
0.9462090740001935
 40
0.9669917918566955
 40
0.9669917918566955
 40
0.9669917918566955
 40
0.9669917918566955
 10
1835.341862516062
 20
1280.703335033623
 30
0.0
 10
1835.318883876411
 20
1280.708852480793
 30
0.0
 10
1835.252869945883
 20
1280.721459722284
 30
0.0
 10
1835.086352254245
 20
1280.74140572056
 30
0.0
 10
1834.838186605236
 20
1280.763109968447
 30
0.0
 10
1834.522296055419
 20
1280.784798678273
 30
0.0
 10
1834.144215035219
 20
1280.806228195936
 30
0.0
 10
1833.710216337602
 20
1280.827141134244
 30
0.0
 10
1833.224241545286
 20
1280.847504829612
 30
0.0
 10
1832.687212783658
 20
1280.86710765524
 30
0.0
 10
1832.098506452421
 20
1280.886838251048
 30
0.0
 10
1831.456373410419
 20
1280.907591413004
 30
0.0
 10
1830.766760385703
 20
1280.928906674466
 30
0.0
 10
1830.036763071599
 20
1280.950609711523
 30
0.0
 10
1829.279111861762
 20
1280.972298745661
 30
0.0
 10
1828.503303277795
 20
1280.993728178144
 30
0.0
 10
1827.718867329306
 20
1281.01464113895
 30
0.0
 10
1826.93021904355
 20
1281.035004828375
 30
0.0
 10
1826.137076112382
 20
1281.054607655576
 30
0.0
 10
1825.339018515707
 20
1281.074338250956
 30
0.0
 10
1824.536040185646
 20
1281.095091413029
 30
0.0
 10
1823.737769611624
 20
1281.116406674459
 30
0.0
 10
1822.953812530669
 20
1281.138109711524
 30
0.0
 10
1822.198155670914
 20
1281.159798745661
 30
0.0
 10
1821.479095214776
 20
1281.181228178145
 30
0.0
 10
1820.80372931414
 20
1281.20214113895
 30
0.0
 10
1820.174388256214
 20
1281.222504828378
 30
0.0
 10
1819.589743102571
 20
1281.242107655569
 30
0.0
 10
1819.049826030188
 20
1281.261838250986
 30
0.0
 10
1818.556374737501
 20
1281.282591412916
 30
0.0
 10
1818.117068244026
 20
1281.303906674887
 30
0.0
 10
1817.738361948536
 20
1281.325609709916
 30
0.0
 10
1817.427430580502
 20
1281.347298751622
 30
0.0
 10
1817.18605052242
 20
1281.368728156444
 30
0.0
 10
1817.029448260877
 20
1281.388034949628
 30
0.0
 10
1816.962735277012
 20
1281.40013701727
 30
0.0
 10
1816.941862516062
 20
1281.405300742202
 30
0.0
1001
AcDbBlockRepETag
1070
     1
1071
       56
1005
459
  0
SPLINE
  5
45A
330
2F4
100
AcDbEntity
  8
0
  6
Continuous
 62
     7
370
    15
100
AcDbSpline
210
0.0
220
0.0
230
1.0
 70
     8
 71
     3
 72
    41
 73
    37
 74
     0
 42
0.0000000001
 43
0.0000000001
 40
0.0433585037952768
 40
0.0433585037952768
 40
0.0433585037952768
 40
0.0433585037952768
 40
0.0655893150100772
 40
0.0934303683616845
 40
0.1214329768025343
 40
0.1494872024021571
 40
0.1769834643001218
 40
0.2043182731475393
 40
0.2313912547211128
 40
0.2581078003399604
 40
0.285313377377471
 40
0.3128867148967565
 40
0.3407277682483635
 40
0.3687303766892132
 40
0.3967846022888377
 40
0.4242808641868023
 40
0.4516156730342196
 40
0.4786886546077928
 40
0.5054052002266403
 40
0.5326107772641511
 40
0.5601841147834369
 40
0.5880251681350442
 40
0.6160277765758942
 40
0.6440820021755169
 40
0.6715782640734817
 40
0.6989130729208992
 40
0.7259860544944727
 40
0.7527026001133203
 40
0.7799081771508308
 40
0.8074815146701162
 40
0.8353225680217233
 40
0.8633251764625731
 40
0.8913794020621956
 40
0.9188756639601601
 40
0.9462104728075772
 40
0.9669926502193556
 40
0.9669926502193556
 40
0.9669926502193556
 40
0.9669926502193556
 10
1835.341862516062
 20
1282.203335281776
 30
0.0
 10
1835.318884874572
 20
1282.208852651189
 30
0.0
 10
1835.252868145298
 20
1282.221459804275
 30
0.0
 10
1835.086352577351
 20
1282.241405721264
 30
0.0
 10
1834.838186518211
 20
1282.263109968258
 30
0.0
 10
1834.522296078244
 20
1282.284798678323
 30
0.0
 10
1834.144215029192
 20
1282.306228195923
 30
0.0
 10
1833.710216339196
 20
1282.327141134247
 30
0.0
 10
1833.224241544867
 20
1282.347504829611
 30
0.0
 10
1832.687212783772
 20
1282.367107655241
 30
0.0
 10
1832.098506452389
 20
1282.386838251048
 30
0.0
 10
1831.456373410427
 20
1282.407591413004
 30
0.0
 10
1830.766760385701
 20
1282.428906674466
 30
0.0
 10
1830.036763071599
 20
1282.450609711523
 30
0.0
 10
1829.279111861762
 20
1282.472298745661
 30
0.0
 10
1828.503303277795
 20
1282.493728178144
 30
0.0
 10
1827.718867329306
 20
1282.51464113895
 30
0.0
 10
1826.93021904355
 20
1282.535004828375
 30
0.0
 10
1826.137076112382
 20
1282.554607655576
 30
0.0
 10
1825.339018515707
 20
1282.574338250956
 30
0.0
 10
1824.536040185646
 20
1282.595091413029
 30
0.0
 10
1823.737769611625
 20
1282.616406674459
 30
0.0
 10
1822.953812530669
 20
1282.638109711524
 30
0.0
 10
1822.198155670914
 20
1282.659798745661
 30
0.0
 10
1821.479095214776
 20
1282.681228178145
 30
0.0
 10
1820.80372931414
 20
1282.70214113895
 30
0.0
 10
1820.174388256214
 20
1282.722504828378
 30
0.0
 10
1819.589743102571
 20
1282.742107655569
 30
0.0
 10
1819.049826030188
 20
1282.761838250986
 30
0.0
 10
1818.556374737501
 20
1282.782591412916
 30
0.0
 10
1818.117068244026
 20
1282.803906674887
 30
0.0
 10
1817.738361948536
 20
1282.825609709916
 30
0.0
 10
1817.427430580502
 20
1282.847298751622
 30
0.0
 10
1817.18605052242
 20
1282.868728156444
 30
0.0
 10
1817.029448260877
 20
1282.888034949628
 30
0.0
 10
1816.962735277012
 20
1282.90013701727
 30
0.0
 10
1816.941862516062
 20
1282.905300742201
 30
0.0
1001
AcDbBlockRepETag
1070
     1
1071
       57
1005
45A
  0
SPLINE
  5
45B
330
2F4
100
AcDbEntity
  8
0
  6
Continuous
 62
     7
370
    15
100
AcDbSpline
210
0.0
220
0.0
230
1.0
 70
     8
 71
     3
 72
    41
 73
    37
 74
     0
 42
0.0000000001
 43
0.0000000001
 40
0.0433741110538471
 40
0.0433741110538471
 40
0.0433741110538471
 40
0.0433741110538471
 40
0.065604360062067
 40
0.093444965141729
 40
0.1214471227094171
 40
0.1495008966047842
 40
0.1769967157823299
 40
0.2043310845089021
 40
0.2314036301773409
 40
0.2581197456300714
 40
0.2853248846275111
 40
0.3128977781853748
 40
0.3407383832650371
 40
0.3687405408327253
 40
0.3967943147280927
 40
0.4242901339056388
 40
0.4516245026322112
 40
0.4786970483006503
 40
0.505413163753381
 40
0.5326183027508226
 40
0.5601911963086862
 40
0.5880318013883481
 40
0.6160339589560362
 40
0.6440877328514033
 40
0.6715835520289489
 40
0.6989179207555211
 40
0.7259904664239599
 40
0.7527065818766906
 40
0.7799117208741304
 40
0.8074846144319939
 40
0.8353252195116562
 40
0.8633273770793444
 40
0.8913811509747137
 40
0.9188769701522598
 40
0.9462113388788322
 40
0.9669931816744245
 40
0.9669931816744245
 40
0.9669931816744245
 40
0.9669931816744245
 10
1835.341862516062
 20
1283.703335435247
 30
0.0
 10
1835.318885491784
 20
1283.70885275657
 30
0.0
 10
1835.252867031767
 20
1283.721459854983
 30
0.0
 10
1835.086352777167
 20
1283.741405721699
 30
0.0
 10
1834.838186464392
 20
1283.76310996814
 30
0.0
 10
1834.52229609236
 20
1283.784798678354
 30
0.0
 10
1834.144215025465
 20
1283.806228195915
 30
0.0
 10
1833.710216340182
 20
1283.827141134249
 30
0.0
 10
1833.224241544608
 20
1283.847504829611
 30
0.0
 10
1832.687212783842
 20
1283.867107655241
 30
0.0
 10
1832.09850645237
 20
1283.886838251048
 30
0.0
 10
1831.456373410433
 20
1283.907591413004
 30
0.0
 10
1830.7667603857
 20
1283.928906674466
 30
0.0
 10
1830.0367630716
 20
1283.950609711523
 30
0.0
 10
1829.279111861762
 20
1283.972298745661
 30
0.0
 10
1828.503303277795
 20
1283.993728178144
 30
0.0
 10
1827.718867329306
 20
1284.014641138951
 30
0.0
 10
1826.93021904355
 20
1284.035004828375
 30
0.0
 10
1826.137076112383
 20
1284.054607655576
 30
0.0
 10
1825.339018515707
 20
1284.074338250956
 30
0.0
 10
1824.536040185646
 20
1284.095091413029
 30
0.0
 10
1823.737769611625
 20
1284.116406674459
 30
0.0
 10
1822.953812530669
 20
1284.138109711524
 30
0.0
 10
1822.198155670914
 20
1284.15979874566
 30
0.0
 10
1821.479095214776
 20
1284.181228178145
 30
0.0
 10
1820.80372931414
 20
1284.20214113895
 30
0.0
 10
1820.174388256214
 20
1284.222504828377
 30
0.0
 10
1819.589743102571
 20
1284.242107655569
 30
0.0
 10
1819.049826030188
 20
1284.261838250986
 30
0.0
 10
1818.556374737502
 20
1284.282591412916
 30
0.0
 10
1818.117068244026
 20
1284.303906674887
 30
0.0
 10
1817.738361948536
 20
1284.325609709916
 30
0.0
 10
1817.427430580502
 20
1284.347298751622
 30
0.0
 10
1817.18605052242
 20
1284.368728156444
 30
0.0
 10
1817.029448260877
 20
1284.388034949628
 30
0.0
 10
1816.962735277012
 20
1284.40013701727
 30
0.0
 10
1816.941862516062
 20
1284.405300742201
 30
0.0
1001
AcDbBlockRepETag
1070
     1
1071
       58
1005
45B
  0
SPLINE
  5
45C
330
2F4
100
AcDbEntity
  8
0
  6
Continuous
 62
     7
370
    15
100
AcDbSpline
210
0.0
220
0.0
230
1.0
 70
     8
 71
     3
 72
    41
 73
    37
 74
     0
 42
0.0000000001
 43
0.0000000001
 40
0.043379340372512
 40
0.043379340372512
 40
0.043379340372512
 40
0.043379340372512
 40
0.0656094010490704
 40
0.0934498559309766
 40
0.1214518624293464
 40
0.1495054849769316
 40
0.1770011558168128
 40
0.2043353770767323
 40
0.2314077766910321
 40
0.2581237480125331
 40
0.2853287402405033
 40
0.3129014850448921
 40
0.340741939926798
 40
0.3687439464251677
 40
0.3967975689727527
 40
0.4242932398126337
 40
0.4516274610725529
 40
0.4786998606868525
 40
0.5054158320083553
 40
0.5326208242363258
 40
0.560193569040715
 40
0.5880340239226212
 40
0.616036030420991
 40
0.6440896529685743
 40
0.6715853238084555
 40
0.698919545068375
 40
0.7259919446826748
 40
0.7527079160041778
 40
0.779912908232148
 40
0.8074856530365368
 40
0.8353261079184427
 40
0.8633281144168126
 40
0.8913817369643975
 40
0.9188774078042783
 40
0.9462116290641976
 40
0.9669933597435251
 40
0.9669933597435251
 40
0.9669933597435251
 40
0.9669933597435251
 10
1835.341862516063
 20
1285.203335486639
 30
0.0
 10
1835.318885698451
 20
1285.208852791858
 30
0.0
 10
1835.25286665889
 20
1285.221459871963
 30
0.0
 10
1835.086352844076
 20
1285.241405721845
 30
0.0
 10
1834.838186446371
 20
1285.263109968101
 30
0.0
 10
1834.522296097087
 20
1285.284798678364
 30
0.0
 10
1834.144215024217
 20
1285.306228195912
 30
0.0
 10
1833.710216340512
 20
1285.32714113425
 30
0.0
 10
1833.224241544521
 20
1285.347504829611
 30
0.0
 10
1832.687212783866
 20
1285.367107655241
 30
0.0
 10
1832.098506452364
 20
1285.386838251048
 30
0.0
 10
1831.456373410435
 20
1285.407591413004
 30
0.0
 10
1830.766760385699
 20
1285.428906674466
 30
0.0
 10
1830.0367630716
 20
1285.450609711523
 30
0.0
 10
1829.279111861762
 20
1285.472298745661
 30
0.0
 10
1828.503303277795
 20
1285.493728178144
 30
0.0
 10
1827.718867329306
 20
1285.51464113895
 30
0.0
 10
1826.93021904355
 20
1285.535004828375
 30
0.0
 10
1826.137076112383
 20
1285.554607655577
 30
0.0
 10
1825.339018515707
 20
1285.574338250956
 30
0.0
 10
1824.536040185646
 20
1285.595091413029
 30
0.0
 10
1823.737769611625
 20
1285.616406674459
 30
0.0
 10
1822.953812530669
 20
1285.638109711525
 30
0.0
 10
1822.198155670914
 20
1285.659798745661
 30
0.0
 10
1821.479095214777
 20
1285.681228178145
 30
0.0
 10
1820.80372931414
 20
1285.70214113895
 30
0.0
 10
1820.174388256214
 20
1285.722504828378
 30
0.0
 10
1819.589743102571
 20
1285.742107655569
 30
0.0
 10
1819.049826030189
 20
1285.761838250986
 30
0.0
 10
1818.556374737502
 20
1285.782591412916
 30
0.0
 10
1818.117068244026
 20
1285.803906674887
 30
0.0
 10
1817.738361948536
 20
1285.825609709916
 30
0.0
 10
1817.427430580502
 20
1285.847298751622
 30
0.0
 10
1817.18605052242
 20
1285.868728156444
 30
0.0
 10
1817.029448260876
 20
1285.888034949628
 30
0.0
 10
1816.962735277012
 20
1285.90013701727
 30
0.0
 10
1816.941862516062
 20
1285.905300742202
 30
0.0
1001
AcDbBlockRepETag
1070
     1
1071
       59
1005
45C
  0
SPLINE
  5
45D
330
2F4
100
AcDbEntity
  8
0
  6
Continuous
 62
     7
370
    15
100
AcDbSpline
210
0.0
220
0.0
230
1.0
 70
     8
 71
     3
 72
    17
 73
    13
 74
     0
 42
0.0000000001
 43
0.0000000001
 40
0.1399022987653363
 40
0.1399022987653363
 40
0.1399022987653363
 40
0.1399022987653363
 40
0.2118935657737532
 40
0.302044983046733
 40
0.3927195278062687
 40
0.483561212794308
 40
0.5725961695003358
 40
0.6611083291287504
 40
0.7487726724220697
 40
0.8352828493812495
 40
0.9171174397848698
 40
1.0
 40
1.0
 40
1.0
 40
1.0
 10
1835.341862516062
 20
1286.703333835172
 30
0.0
 10
1835.318879057142
 20
1286.708851657668
 30
0.0
 10
1835.25287868143
 20
1286.721459325734
 30
0.0
 10
1835.086350509213
 20
1286.74140572053
 30
0.0
 10
1834.838187712772
 20
1286.763109956683
 30
0.0
 10
1834.522293398947
 20
1286.784798725049
 30
0.0
 10
1834.144224332697
 20
1286.806228024853
 30
0.0
 10
1833.710182082387
 20
1286.827141766633
 30
0.0
 10
1833.224367326138
 20
1286.847502507017
 30
0.0
 10
1832.699576991469
 20
1286.866648177206
 30
0.0
 10
1832.142814159491
 20
1286.88539408229
 30
0.0
 10
1831.745355161668
 20
1286.898181901379
 30
0.0
 10
1831.54536129827
 20
1286.904616490502
 30
0.0
1001
AcDbBlockRepETag
1070
     1
1071
       60
1005
45D
  0
LINE
  5
45E
330
2F4
100
AcDbEntity
  8
0
  6
Continuous
 62
     7
370
    15
100
AcDbLine
 10
1819.257063338379
 20
1275.614616490502
 30
0.0
 11
1816.941862516062
 21
1275.614616490502
 31
0.0
1001
AcDbBlockRepETag
1070
     1
1071
       61
1005
45E
  0
SPLINE
  5
45F
330
2F4
100
AcDbEntity
  8
0
  6
Continuous
 62
     7
370
    15
100
AcDbSpline
210
0.0
220
0.0
230
1.0
 70
     8
 71
     3
 72
    43
 73
    39
 74
     0
 42
0.0000000001
 43
0.0000000001
 40
0.0140635774499786
 40
0.0140635774499786
 40
0.0140635774499786
 40
0.0140635774499786
 40
0.0278317524872993
 40
0.0560398257044268
 40
0.0845218495622362
 40
0.1131691923020274
 40
0.1418693549558459
 40
0.1699986911160598
 40
0.197962812863641
 40
0.2256590097613405
 40
0.252990474139271
 40
0.2808222266265702
 40
0.3090302998436976
 40
0.337512323701507
 40
0.3661596664412982
 40
0.3948598290951169
 40
0.4229891652553306
 40
0.4509532870029116
 40
0.4786494839006109
 40
0.505980948278542
 40
0.5338127007658411
 40
0.5620207739829687
 40
0.5905027978407781
 40
0.6191501405805692
 40
0.6478503032343875
 40
0.6759796393946012
 40
0.7039437611421821
 40
0.7316399580398813
 40
0.7589714224178128
 40
0.7868031749051117
 40
0.8150112481222391
 40
0.8434932719800487
 40
0.8721406147198399
 40
0.9008407773736589
 40
0.9289701135338725
 40
0.9569342352814535
 40
0.9846304321791528
 40
0.9999999999999998
 40
0.9999999999999998
 40
0.9999999999999998
 40
0.9999999999999998
 10
1834.595778162999
 20
1275.614616490502
 30
0.0
 10
1834.591084324942
 20
1275.617890164539
 30
0.0
 10
1834.571757597706
 20
1275.627917271008
 30
0.0
 10
1834.48851572059
 20
1275.64521763137
 30
0.0
 10
1834.327540641362
 20
1275.666532778297
 30
0.0
 10
1834.099942795761
 20
1275.68823583232
 30
0.0
 10
1833.810997950092
 20
1275.70992484736
 30
0.0
 10
1833.464973494134
 20
1275.731354270946
 30
0.0
 10
1833.067821757992
 20
1275.752267222984
 30
0.0
 10
1832.623094129816
 20
1275.772630900854
 30
0.0
 10
1832.131647810769
 20
1275.792233765353
 30
0.0
 10
1831.592909244172
 20
1275.811964398372
 30
0.0
 10
1831.005280399395
 20
1275.8327175482
 30
0.0
 10
1830.374201506427
 20
1275.854032800817
 30
0.0
 10
1829.706166243589
 20
1275.875735826255
 30
0.0
 10
1829.01282434619
 20
1275.897424848951
 30
0.0
 10
1828.302866274472
 20
1275.918854270526
 30
0.0
 10
1827.585013045313
 20
1275.939767223095
 30
0.0
 10
1826.863305191533
 20
1275.960130900825
 30
0.0
 10
1826.137482362959
 20
1275.979733765361
 30
0.0
 10
1825.407162013501
 20
1275.99946439837
 30
0.0
 10
1824.672340461766
 20
1276.0202175482
 30
0.0
 10
1823.941826901134
 20
1276.041532800817
 30
0.0
 10
1823.224411994376
 20
1276.063235826253
 30
0.0
 10
1822.532895166069
 20
1276.084924848956
 30
0.0
 10
1821.8748684237
 20
1276.106354270507
 30
0.0
 10
1821.256827354696
 20
1276.127267223166
 30
0.0
 10
1820.680904692463
 20
1276.147630900564
 30
0.0
 10
1820.145882645919
 20
1276.167233766327
 30
0.0
 10
1819.651793034484
 20
1276.186964394665
 30
0.0
 10
1819.200224026415
 20
1276.207717562284
 30
0.0
 10
1818.798213118979
 20
1276.229032747585
 30
0.0
 10
1818.451623870914
 20
1276.250736026287
 30
0.0
 10
1818.167186631908
 20
1276.272424107339
 30
0.0
 10
1817.945920887269
 20
1276.293856970138
 30
0.0
 10
1817.792065303711
 20
1276.314757247767
 30
0.0
 10
1817.705323143878
 20
1276.332225730033
 30
0.0
 10
1817.694269666763
 20
1276.342431622639
 30
0.0
 10
1817.690324835705
 20
1276.346073962665
 30
0.0
1001
AcDbBlockRepETag
1070
     1
1071
       62
1005
45F
  0
SPLINE
  5
460
330
2F4
100
AcDbEntity
  8
0
  6
Continuous
 62
     7
370
    15
100
AcDbSpline
210
0.0
220
0.0
230
1.0
 70
     8
 71
     3
 72
    43
 73
    39
 74
     0
 42
0.0000000001
 43
0.0000000001
 40
0.0
 40
0.0
 40
0.0
 40
0.0
 40
0.0159676604028434
 40
0.0445209627290854
 40
0.0733515684856486
 40
0.1023495164063195
 40
0.1314009306861587
 40
0.1598745323191618
 40
0.1881808975359715
 40
0.2162160588608847
 40
0.2438820238275428
 40
0.2720543997612692
 40
0.3006077020875111
 40
0.3294383078440743
 40
0.3584362557647452
 40
0.3874876700445843
 40
0.4159612716775875
 40
0.4442676368943972
 40
0.4723027982193104
 40
0.4999687631859687
 40
0.5281411391196946
 40
0.556694441445936
 40
0.5855250472024986
 40
0.6145229951231689
 40
0.6435744094030098
 40
0.6720480110360133
 40
0.7003543762528235
 40
0.7283895375777372
 40
0.7560555025443944
 40
0.7842278784781213
 40
0.8127811808043636
 40
0.8416117865609274
 40
0.8706097344815988
 40
0.8996611487614364
 40
0.9281347503944401
 40
0.9564411156112502
 40
0.9844762769361638
 40
1.0
 40
1.0
 40
1.0
 40
1.0
 10
1834.593048156279
 20
1277.113229484595
 30
0.0
 10
1834.588933927137
 20
1277.11696854797
 30
0.0
 10
1834.577462650966
 20
1277.127393788548
 30
0.0
 10
1834.487406242921
 20
1277.145227886977
 30
0.0
 10
1834.327841063508
 20
1277.166530001304
 30
0.0
 10
1834.099861880091
 20
1277.188236580275
 30
0.0
 10
1833.811019173145
 20
1277.209924651182
 30
0.0
 10
1833.464967890715
 20
1277.231354322742
 30
0.0
 10
1833.067823240305
 20
1277.252267209282
 30
0.0
 10
1832.623093740297
 20
1277.272630904455
 30
0.0
 10
1832.131647916624
 20
1277.292233764374
 30
0.0
 10
1831.59290921517
 20
1277.31196439864
 30
0.0
 10
1831.005280407293
 20
1277.332717548127
 30
0.0
 10
1830.374201504288
 20
1277.354032800837
 30
0.0
 10
1829.706166244164
 20
1277.37573582625
 30
0.0
 10
1829.012824346039
 20
1277.397424848953
 30
0.0
 10
1828.302866274512
 20
1277.418854270526
 30
0.0
 10
1827.585013045302
 20
1277.439767223095
 30
0.0
 10
1826.863305191535
 20
1277.460130900825
 30
0.0
 10
1826.137482362958
 20
1277.479733765361
 30
0.0
 10
1825.407162013501
 20
1277.49946439837
 30
0.0
 10
1824.672340461766
 20
1277.5202175482
 30
0.0
 10
1823.941826901133
 20
1277.541532800817
 30
0.0
 10
1823.224411994377
 20
1277.563235826253
 30
0.0
 10
1822.532895166067
 20
1277.584924848957
 30
0.0
 10
1821.874868423708
 20
1277.606354270507
 30
0.0
 10
1821.256827354667
 20
1277.627267223166
 30
0.0
 10
1820.680904692566
 20
1277.647630900563
 30
0.0
 10
1820.145882645535
 20
1277.667233766331
 30
0.0
 10
1819.651793035957
 20
1277.686964394652
 30
0.0
 10
1819.200224020816
 20
1277.707717562336
 30
0.0
 10
1818.798213140142
 20
1277.729032747389
 30
0.0
 10
1818.451623791388
 20
1277.750736027025
 30
0.0
 10
1818.167186926746
 20
1277.772424104604
 30
0.0
 10
1817.945919814002
 20
1277.793856980094
 30
0.0
 10
1817.792069269536
 20
1277.814757210978
 30
0.0
 10
1817.705352213215
 20
1277.832217592429
 30
0.0
 10
1817.694300769917
 20
1277.842415598226
 30
0.0
 10
1817.690362203821
 20
1277.846050012193
 30
0.0
1001
AcDbBlockRepETag
1070
     1
1071
       63
1005
460
  0
SPLINE
  5
461
330
2F4
100
AcDbEntity
  8
0
  6
Continuous
 62
     7
370
    15
100
AcDbSpline
210
0.0
220
0.0
230
1.0
 70
     8
 71
     3
 72
    43
 73
    39
 74
     0
 42
0.0000000001
 43
0.0000000001
 40
0.0
 40
0.0
 40
0.0
 40
0.0
 40
0.0159383996679894
 40
0.0444936540239972
 40
0.0733262307680124
 40
0.1023261611163842
 40
0.1313795614791186
 40
0.1598551096931962
 40
0.1881634100580609
 40
0.2162004879903341
 40
0.2438683443244574
 40
0.2720426462461391
 40
0.3005979006021456
 40
0.3294304773461598
 40
0.3584304076945305
 40
0.3874838080572679
 40
0.4159593562713457
 40
0.4442676566362105
 40
0.4723047345684838
 40
0.4999725909026081
 40
0.5281468928242906
 40
0.5567021471802983
 40
0.5855347239243136
 40
0.6145346542726854
 40
0.6435880546354197
 40
0.6720636028494975
 40
0.7003719032143622
 40
0.7284089811466355
 40
0.7560768374807588
 40
0.7842511394024405
 40
0.8128063937584469
 40
0.8416389705024611
 40
0.8706389008508319
 40
0.8996923012135694
 40
0.9281678494276469
 40
0.9564761497925118
 40
0.9845132277247849
 40
0.9999999999999998
 40
0.9999999999999998
 40
0.9999999999999998
 40
0.9999999999999998
 10
1834.593014136559
 20
1278.613250903101
 30
0.0
 10
1834.588905590569
 20
1278.616982879263
 30
0.0
 10
1834.577436169069
 20
1278.627401068017
 30
0.0
 10
1834.487402654162
 20
1278.64522792015
 30
0.0
 10
1834.327842035266
 20
1278.666529992321
 30
0.0
 10
1834.099861618358
 20
1278.688236582695
 30
0.0
 10
1833.811019241794
 20
1278.709924650548
 30
0.0
 10
1833.46496787259
 20
1278.73135432291
 30
0.0
 10
1833.0678232451
 20
1278.752267209237
 30
0.0
 10
1832.623093739037
 20
1278.772630904466
 30
0.0
 10
1832.131647916966
 20
1278.792233764371
 30
0.0
 10
1831.592909215076
 20
1278.811964398641
 30
0.0
 10
1831.005280407319
 20
1278.832717548127
 30
0.0
 10
1830.374201504282
 20
1278.854032800837
 30
0.0
 10
1829.706166244166
 20
1278.87573582625
 30
0.0
 10
1829.012824346039
 20
1278.897424848953
 30
0.0
 10
1828.302866274512
 20
1278.918854270526
 30
0.0
 10
1827.585013045302
 20
1278.939767223095
 30
0.0
 10
1826.863305191535
 20
1278.960130900825
 30
0.0
 10
1826.137482362958
 20
1278.979733765361
 30
0.0
 10
1825.407162013501
 20
1278.99946439837
 30
0.0
 10
1824.672340461766
 20
1279.020217548201
 30
0.0
 10
1823.941826901133
 20
1279.041532800817
 30
0.0
 10
1823.224411994377
 20
1279.063235826253
 30
0.0
 10
1822.532895166064
 20
1279.084924848956
 30
0.0
 10
1821.874868423716
 20
1279.106354270507
 30
0.0
 10
1821.256827354636
 20
1279.127267223166
 30
0.0
 10
1820.680904692683
 20
1279.147630900562
 30
0.0
 10
1820.145882645103
 20
1279.167233766335
 30
0.0
 10
1819.651793037609
 20
1279.186964394636
 30
0.0
 10
1819.200224014536
 20
1279.207717562394
 30
0.0
 10
1818.79821316388
 20
1279.229032747168
 30
0.0
 10
1818.451623702187
 20
1279.250736027852
 30
0.0
 10
1818.167187257457
 20
1279.272424101536
 30
0.0
 10
1817.945918610148
 20
1279.293856991262
 30
0.0
 10
1817.792073717892
 20
1279.314757169713
 30
0.0
 10
1817.705384754324
 20
1279.332208481245
 30
0.0
 10
1817.694335587039
 20
1279.342397656612
 30
0.0
 10
1817.690404042915
 20
1279.346023196122
 30
0.0
1001
AcDbBlockRepETag
1070
     1
1071
       64
1005
461
  0
SPLINE
  5
462
330
2F4
100
AcDbEntity
  8
0
  6
Continuous
 62
     7
370
    15
100
AcDbSpline
210
0.0
220
0.0
230
1.0
 70
     8
 71
     3
 72
    43
 73
    39
 74
     0
 42
0.0000000001
 43
0.0000000001
 40
0.0
 40
0.0
 40
0.0
 40
0.0
 40
0.0159374015638931
 40
0.0444935797459923
 40
0.073327089288096
 40
0.1023279578488181
 40
0.1313822981537811
 40
0.15985876761528
 40
0.1881679838167253
 40
0.2162059688109294
 40
0.2438747202618432
 40
0.2720499336849582
 40
0.3006061118670584
 40
0.3294396214091631
 40
0.3584404899698863
 40
0.3874948302748462
 40
0.4159712997363451
 40
0.4442805159377906
 40
0.4723185009319946
 40
0.4999872523829075
 40
0.5281624658060226
 40
0.5567186439881228
 40
0.5855521535302275
 40
0.6145530220909508
 40
0.6436073623959106
 40
0.6720838318574084
 40
0.7003930480588539
 40
0.7284310330530578
 40
0.7560997845039715
 40
0.7842749979270868
 40
0.8128311761091866
 40
0.8416646856512915
 40
0.8706655542120149
 40
0.8997198945169746
 40
0.9281963639784734
 40
0.9565055801799189
 40
0.9845435651741228
 40
1.0
 40
1.0
 40
1.0
 40
1.0
 10
1834.593012439967
 20
1280.113251971261
 30
0.0
 10
1834.58890417753
 20
1280.116983593976
 30
0.0
 10
1834.577434848503
 20
1280.127401431049
 30
0.0
 10
1834.487402475047
 20
1280.145227921805
 30
0.0
 10
1834.327842083766
 20
1280.166529991873
 30
0.0
 10
1834.099861605295
 20
1280.188236582815
 30
0.0
 10
1833.81101924522
 20
1280.209924650516
 30
0.0
 10
1833.464967871685
 20
1280.231354322918
 30
0.0
 10
1833.067823245339
 20
1280.252267209235
 30
0.0
 10
1832.623093738974
 20
1280.272630904467
 30
0.0
 10
1832.131647916984
 20
1280.292233764371
 30
0.0
 10
1831.592909215071
 20
1280.311964398641
 30
0.0
 10
1831.00528040732
 20
1280.332717548127
 30
0.0
 10
1830.374201504281
 20
1280.354032800837
 30
0.0
 10
1829.706166244166
 20
1280.375735826249
 30
0.0
 10
1829.012824346039
 20
1280.397424848953
 30
0.0
 10
1828.302866274512
 20
1280.418854270526
 30
0.0
 10
1827.585013045302
 20
1280.439767223095
 30
0.0
 10
1826.863305191535
 20
1280.460130900825
 30
0.0
 10
1826.137482362958
 20
1280.479733765361
 30
0.0
 10
1825.407162013501
 20
1280.49946439837
 30
0.0
 10
1824.672340461766
 20
1280.520217548201
 30
0.0
 10
1823.941826901133
 20
1280.541532800817
 30
0.0
 10
1823.224411994378
 20
1280.563235826253
 30
0.0
 10
1822.532895166062
 20
1280.584924848956
 30
0.0
 10
1821.874868423723
 20
1280.606354270507
 30
0.0
 10
1821.25682735461
 20
1280.627267223167
 30
0.0
 10
1820.680904692777
 20
1280.647630900561
 30
0.0
 10
1820.145882644753
 20
1280.667233766338
 30
0.0
 10
1819.651793038951
 20
1280.686964394624
 30
0.0
 10
1819.200224009432
 20
1280.707717562441
 30
0.0
 10
1818.798213183171
 20
1280.72903274699
 30
0.0
 10
1818.451623629696
 20
1280.750736028525
 30
0.0
 10
1818.167187526213
 20
1280.772424099043
 30
0.0
 10
1817.945917631824
 20
1280.793857000337
 30
0.0
 10
1817.792077332894
 20
1280.814757136178
 30
0.0
 10
1817.70541114858
 20
1280.832201089795
 30
0.0
 10
1817.694363826834
 20
1280.842383101436
 30
0.0
 10
1817.6904379851
 20
1280.846001441443
 30
0.0
1001
AcDbBlockRepETag
1070
     1
1071
       65
1005
462
  0
SPLINE
  5
463
330
2F4
100
AcDbEntity
  8
0
  6
Continuous
 62
     7
370
    15
100
AcDbSpline
210
0.0
220
0.0
230
1.0
 70
     8
 71
     3
 72
    43
 73
    39
 74
     0
 42
0.0000000001
 43
0.0000000001
 40
0.0
 40
0.0
 40
0.0
 40
0.0
 40
0.0159390424226827
 40
0.0444957572202757
 40
0.0733298085893657
 40
0.1023312221220132
 40
0.1313861084037197
 40
0.1598631129828603
 40
0.1881728611589955
 40
0.2162113730310284
 40
0.2438806444212913
 40
0.2720563873009722
 40
0.3006131020985649
 40
0.3294471534676546
 40
0.3584485670003018
 40
0.3875034532820102
 40
0.4159804578611505
 40
0.4442902060372857
 40
0.4723287179093184
 40
0.4999979892995811
 40
0.5281737321792621
 40
0.5567304469768552
 40
0.5855644983459452
 40
0.6145659118785927
 40
0.6436207981602993
 40
0.6720978027394398
 40
0.7004075509155751
 40
0.7284460627876081
 40
0.756115334177871
 40
0.7842910770575519
 40
0.8128477918551444
 40
0.8416818432242344
 40
0.8706832567568817
 40
0.8997381430385878
 40
0.9282151476177281
 40
0.9565248957938631
 40
0.984563407665896
 40
1.0
 40
1.0
 40
1.0
 40
1.0
 10
1834.593013943333
 20
1281.613251024755
 30
0.0
 10
1834.588905429636
 20
1281.616982960662
 30
0.0
 10
1834.577436018667
 20
1281.627401109363
 30
0.0
 10
1834.487402633763
 20
1281.645227920338
 30
0.0
 10
1834.327842040789
 20
1281.66652999227
 30
0.0
 10
1834.09986161687
 20
1281.688236582709
 30
0.0
 10
1833.811019242184
 20
1281.709924650544
 30
0.0
 10
1833.464967872487
 20
1281.731354322911
 30
0.0
 10
1833.067823245127
 20
1281.752267209237
 30
0.0
 10
1832.62309373903
 20
1281.772630904467
 30
0.0
 10
1832.131647916969
 20
1281.792233764371
 30
0.0
 10
1831.592909215076
 20
1281.811964398641
 30
0.0
 10
1831.005280407319
 20
1281.832717548127
 30
0.0
 10
1830.374201504282
 20
1281.854032800837
 30
0.0
 10
1829.706166244166
 20
1281.87573582625
 30
0.0
 10
1829.012824346039
 20
1281.897424848953
 30
0.0
 10
1828.302866274512
 20
1281.918854270526
 30
0.0
 10
1827.585013045302
 20
1281.939767223095
 30
0.0
 10
1826.863305191535
 20
1281.960130900825
 30
0.0
 10
1826.137482362958
 20
1281.979733765361
 30
0.0
 10
1825.407162013501
 20
1281.99946439837
 30
0.0
 10
1824.672340461766
 20
1282.020217548201
 30
0.0
 10
1823.941826901133
 20
1282.041532800817
 30
0.0
 10
1823.224411994378
 20
1282.063235826253
 30
0.0
 10
1822.532895166061
 20
1282.084924848956
 30
0.0
 10
1821.874868423728
 20
1282.106354270507
 30
0.0
 10
1821.256827354593
 20
1282.127267223167
 30
0.0
 10
1820.680904692839
 20
1282.147630900561
 30
0.0
 10
1820.145882644524
 20
1282.16723376634
 30
0.0
 10
1819.651793039829
 20
1282.186964394616
 30
0.0
 10
1819.200224006096
 20
1282.207717562472
 30
0.0
 10
1818.798213195781
 20
1282.229032746873
 30
0.0
 10
1818.45162358231
 20
1282.250736028965
 30
0.0
 10
1818.167187701892
 20
1282.272424097414
 30
0.0
 10
1817.945916992317
 20
1282.29385700627
 30
0.0
 10
1817.792079695936
 20
1282.314757114258
 30
0.0
 10
1817.705428377412
 20
1282.332196264389
 30
0.0
 10
1817.694382260076
 20
1282.342373599275
 30
0.0
 10
1817.690460143884
 20
1282.34598723914
 30
0.0
1001
AcDbBlockRepETag
1070
     1
1071
       66
1005
463
  0
SPLINE
  5
464
330
2F4
100
AcDbEntity
  8
0
  6
Continuous
 62
     7
370
    15
100
AcDbSpline
210
0.0
220
0.0
230
1.0
 70
     8
 71
     3
 72
    43
 73
    39
 74
     0
 42
0.0000000001
 43
0.0000000001
 40
0.0
 40
0.0
 40
0.0
 40
0.0
 40
0.0159424429464534
 40
0.0444993081378661
 40
0.0733335113613677
 40
0.1023350776298389
 40
0.1313901169289833
 40
0.1598672714821499
 40
0.1881771687514563
 40
0.2162158282881954
 40
0.243885245398563
 40
0.2720611366656751
 40
0.3006180018570879
 40
0.3294522050805897
 40
0.3584537713490612
 40
0.3875088106482056
 40
0.4159859652013726
 40
0.4442958624706792
 40
0.4723345220074187
 40
0.5000039391177866
 40
0.5281798303849003
 40
0.5567366955763131
 40
0.5855708987998148
 40
0.614572465068286
 40
0.6436275043674304
 40
0.6721046589205971
 40
0.7004145561899033
 40
0.7284532157266426
 40
0.7561226328370101
 40
0.7842985241041222
 40
0.812855389295535
 40
0.8416895925190368
 40
0.8706911587875083
 40
0.899746198086655
 40
0.9282233526398218
 40
0.9565332499091285
 40
0.9845719094458679
 40
1.0
 40
1.0
 40
1.0
 40
1.0
 10
1834.593017660434
 20
1283.113248684501
 30
0.0
 10
1834.588908525535
 20
1283.116981394783
 30
0.0
 10
1834.577438911956
 20
1283.127400313987
 30
0.0
 10
1834.487403026146
 20
1283.145227916711
 30
0.0
 10
1834.32784193454
 20
1283.166529993252
 30
0.0
 10
1834.099861645487
 20
1283.188236582444
 30
0.0
 10
1833.811019234678
 20
1283.209924650613
 30
0.0
 10
1833.464967874468
 20
1283.231354322893
 30
0.0
 10
1833.067823244603
 20
1283.252267209242
 30
0.0
 10
1832.623093739168
 20
1283.272630904465
 30
0.0
 10
1832.131647916931
 20
1283.292233764371
 30
0.0
 10
1831.592909215086
 20
1283.311964398641
 30
0.0
 10
1831.005280407316
 20
1283.332717548127
 30
0.0
 10
1830.374201504282
 20
1283.354032800837
 30
0.0
 10
1829.706166244166
 20
1283.37573582625
 30
0.0
 10
1829.012824346039
 20
1283.397424848953
 30
0.0
 10
1828.302866274512
 20
1283.418854270526
 30
0.0
 10
1827.585013045302
 20
1283.439767223095
 30
0.0
 10
1826.863305191535
 20
1283.460130900825
 30
0.0
 10
1826.137482362958
 20
1283.479733765361
 30
0.0
 10
1825.407162013501
 20
1283.49946439837
 30
0.0
 10
1824.672340461766
 20
1283.520217548201
 30
0.0
 10
1823.941826901133
 20
1283.541532800817
 30
0.0
 10
1823.224411994378
 20
1283.563235826253
 30
0.0
 10
1822.532895166061
 20
1283.584924848957
 30
0.0
 10
1821.87486842373
 20
1283.606354270507
 30
0.0
 10
1821.256827354586
 20
1283.627267223167
 30
0.0
 10
1820.680904692865
 20
1283.64763090056
 30
0.0
 10
1820.145882644427
 20
1283.667233766341
 30
0.0
 10
1819.651793040203
 20
1283.686964394612
 30
0.0
 10
1819.200224004672
 20
1283.707717562485
 30
0.0
 10
1818.798213201161
 20
1283.729032746822
 30
0.0
 10
1818.451623562095
 20
1283.750736029152
 30
0.0
 10
1818.167187776842
 20
1283.772424096718
 30
0.0
 10
1817.945916719487
 20
1283.793857008801
 30
0.0
 10
1817.792080704071
 20
1283.814757104906
 30
0.0
 10
1817.7054357218
 20
1283.832194207238
 30
0.0
 10
1817.694390117822
 20
1283.842369548341
 30
0.0
 10
1817.690469590567
 20
1283.845981184445
 30
0.0
1001
AcDbBlockRepETag
1070
     1
1071
       67
1005
464
  0
SPLINE
  5
465
330
2F4
100
AcDbEntity
  8
0
  6
Continuous
 62
     7
370
    15
100
AcDbSpline
210
0.0
220
0.0
230
1.0
 70
     8
 71
     3
 72
    43
 73
    39
 74
     0
 42
0.0000000001
 43
0.0000000001
 40
0.0
 40
0.0
 40
0.0
 40
0.0
 40
0.0159467622308132
 40
0.0445034047411875
 40
0.0733373831210211
 40
0.1023387232407589
 40
0.1313935359741993
 40
0.1598704684678961
 40
0.1881801449819732
 40
0.2162185858785436
 40
0.2438877872280232
 40
0.272063458784859
 40
0.300620101295233
 40
0.3294540796750664
 40
0.358455419794804
 40
0.3875102325282442
 40
0.4159871650219407
 40
0.4442968415360177
 40
0.4723352824325879
 40
0.5000044837820694
 40
0.5281801553389056
 40
0.5567367978492798
 40
0.5855707762291135
 40
0.6145721163488514
 40
0.6436269290822896
 40
0.6721038615759864
 40
0.7004135380900635
 40
0.7284519789866339
 40
0.7561211803361157
 40
0.7842968518929514
 40
0.8128534944033255
 40
0.8416874727831586
 40
0.8706888129028962
 40
0.8997436256363364
 40
0.9282205581300331
 40
0.95653023464411
 40
0.9845686755406804
 40
0.9999999999999998
 40
0.9999999999999998
 40
0.9999999999999998
 40
0.9999999999999998
 10
1834.593022640697
 20
1284.613245548973
 30
0.0
 10
1834.588912673587
 20
1284.616979296778
 30
0.0
 10
1834.577442788534
 20
1284.627399248323
 30
0.0
 10
1834.48740355177
 20
1284.645227911853
 30
0.0
 10
1834.327841792213
 20
1284.666529994568
 30
0.0
 10
1834.099861683822
 20
1284.68823658209
 30
0.0
 10
1833.811019224624
 20
1284.709924650706
 30
0.0
 10
1833.464967877123
 20
1284.731354322868
 30
0.0
 10
1833.0678232439
 20
1284.752267209248
 30
0.0
 10
1832.623093739352
 20
1284.772630904464
 30
0.0
 10
1832.131647916881
 20
1284.792233764372
 30
0.0
 10
1831.5929092151
 20
1284.811964398641
 30
0.0
 10
1831.005280407312
 20
1284.832717548127
 30
0.0
 10
1830.374201504283
 20
1284.854032800837
 30
0.0
 10
1829.706166244166
 20
1284.875735826249
 30
0.0
 10
1829.012824346039
 20
1284.897424848953
 30
0.0
 10
1828.302866274512
 20
1284.918854270526
 30
0.0
 10
1827.585013045302
 20
1284.939767223095
 30
0.0
 10
1826.863305191535
 20
1284.960130900825
 30
0.0
 10
1826.137482362958
 20
1284.979733765361
 30
0.0
 10
1825.407162013501
 20
1284.99946439837
 30
0.0
 10
1824.672340461766
 20
1285.020217548201
 30
0.0
 10
1823.941826901133
 20
1285.041532800817
 30
0.0
 10
1823.224411994378
 20
1285.063235826253
 30
0.0
 10
1822.532895166061
 20
1285.084924848957
 30
0.0
 10
1821.874868423729
 20
1285.106354270507
 30
0.0
 10
1821.256827354589
 20
1285.127267223167
 30
0.0
 10
1820.680904692855
 20
1285.14763090056
 30
0.0
 10
1820.145882644465
 20
1285.167233766341
 30
0.0
 10
1819.651793040057
 20
1285.186964394614
 30
0.0
 10
1819.200224005229
 20
1285.20771756248
 30
0.0
 10
1818.798213199058
 20
1285.229032746842
 30
0.0
 10
1818.451623569996
 20
1285.250736029079
 30
0.0
 10
1818.167187747548
 20
1285.27242409699
 30
0.0
 10
1817.945916826122
 20
1285.293857007811
 30
0.0
 10
1817.792080310043
 20
1285.314757108561
 30
0.0
 10
1817.705432851679
 20
1285.332195011166
 30
0.0
 10
1817.69438704709
 20
1285.342371131432
 30
0.0
 10
1817.690465898836
 20
1285.345983550598
 30
0.0
1001
AcDbBlockRepETag
1070
     1
1071
       68
1005
465
  0
SPLINE
  5
466
330
2F4
100
AcDbEntity
  8
0
  6
Continuous
 62
     7
370
    15
100
AcDbSpline
210
0.0
220
0.0
230
1.0
 70
     8
 71
     3
 72
    43
 73
    39
 74
     0
 42
0.0000000001
 43
0.0000000001
 40
0.0
 40
0.0
 40
0.0
 40
0.0
 40
0.0158567674416422
 40
0.0442440040753752
 40
0.0729069313457264
 40
0.1017362275199979
 40
0.1306186790936826
 40
0.1589266785725336
 40
0.1870684142803498
 40
0.2149405234151239
 40
0.2424455834336045
 40
0.2704541091385322
 40
0.2988413457722653
 40
0.3275042730426167
 40
0.3563335692168884
 40
0.3852160207905754
 40
0.4135240202694267
 40
0.441665755977243
 40
0.4695378651120174
 40
0.4970429251304963
 40
0.5250514508354259
 40
0.5534386874691588
 40
0.5821016147395099
 40
0.6109309109137815
 40
0.6398133624874662
 40
0.6681213619663172
 40
0.6962630976741333
 40
0.7241352068089075
 40
0.7516402668273882
 40
0.7796487925323158
 40
0.808036029166049
 40
0.8366989564364002
 40
0.8655282526106722
 40
0.8944107041843592
 40
0.9227187036632104
 40
0.9508604393710267
 40
0.9787325485058012
 40
1.0
 40
1.0
 40
1.0
 40
1.0
 10
1834.593027833555
 20
1286.113242279597
 30
0.0
 10
1834.588916998823
 20
1286.116977109214
 30
0.0
 10
1834.577446830688
 20
1286.127398137167
 30
0.0
 10
1834.487404099709
 20
1286.145227906788
 30
0.0
 10
1834.327841643843
 20
1286.166529995939
 30
0.0
 10
1834.099861723784
 20
1286.18823658172
 30
0.0
 10
1833.811019214142
 20
1286.209924650803
 30
0.0
 10
1833.464967879891
 20
1286.231354322842
 30
0.0
 10
1833.067823243169
 20
1286.252267209255
 30
0.0
 10
1832.623093739545
 20
1286.272630904462
 30
0.0
 10
1832.131647916829
 20
1286.292233764372
 30
0.0
 10
1831.592909215114
 20
1286.31196439864
 30
0.0
 10
1831.005280407309
 20
1286.332717548127
 30
0.0
 10
1830.374201504284
 20
1286.354032800837
 30
0.0
 10
1829.706166244165
 20
1286.375735826249
 30
0.0
 10
1829.012824346039
 20
1286.397424848953
 30
0.0
 10
1828.302866274512
 20
1286.418854270526
 30
0.0
 10
1827.585013045302
 20
1286.439767223095
 30
0.0
 10
1826.863305191535
 20
1286.460130900825
 30
0.0
 10
1826.137482362957
 20
1286.479733765361
 30
0.0
 10
1825.407162013503
 20
1286.49946439837
 30
0.0
 10
1824.67234046176
 20
1286.520217548201
 30
0.0
 10
1823.941826901156
 20
1286.541532800817
 30
0.0
 10
1823.224411994291
 20
1286.563235826254
 30
0.0
 10
1822.532895166384
 20
1286.584924848954
 30
0.0
 10
1821.874868422555
 20
1286.606354270518
 30
0.0
 10
1821.256827358924
 20
1286.627267223126
 30
0.0
 10
1820.680904676932
 20
1286.647630900708
 30
0.0
 10
1820.14588270349
 20
1286.667233765793
 30
0.0
 10
1819.651792813886
 20
1286.686964396712
 30
0.0
 10
1819.200224865054
 20
1286.707717554504
 30
0.0
 10
1818.798209949066
 20
1286.72903277699
 30
0.0
 10
1818.451635782671
 20
1286.750735915788
 30
0.0
 10
1818.167142469579
 20
1286.77242451701
 30
0.0
 10
1817.94608164679
 20
1286.793855478856
 30
0.0
 10
1817.791471281696
 20
1286.814762758198
 30
0.0
 10
1817.700258851657
 20
1286.833624879529
 30
0.0
 10
1817.688843392901
 20
1286.845186300756
 30
0.0
 10
1817.683902817278
 20
1286.85019004849
 30
0.0
1001
AcDbBlockRepETag
1070
     1
1071
       69
1005
466
  0
SPLINE
  5
467
330
2F4
100
AcDbEntity
  8
0
  6
Continuous
 62
     7
370
    15
100
AcDbSpline
210
0.0
220
0.0
230
1.0
 70
    24
 71
     3
 72
    37
 73
    33
 74
     0
 42
0.0000000001
 43
0.0000000001
 40
0.0
 40
0.0
 40
0.0
 40
0.0
 40
0.0625
 40
0.0625
 40
0.1249999999999999
 40
0.1249999999999999
 40
0.1875
 40
0.1875
 40
0.25
 40
0.25
 40
0.375
 40
0.375
 40
0.4375
 40
0.4375
 40
0.5
 40
0.5
 40
0.5625
 40
0.5625
 40
0.625
 40
0.625
 40
0.6562500000000001
 40
0.6562500000000001
 40
0.6875
 40
0.6875
 40
0.75
 40
0.75
 40
0.8124999999999998
 40
0.8124999999999998
 40
0.875
 40
0.9375
 40
0.9375
 40
0.9733838053571385
 40
0.9733838053571385
 40
0.9733838053571385
 40
0.9733838053571385
 10
1819.257063338379
 20
1275.614616490502
 30
0.0
 10
1819.568041203889
 20
1275.614616490502
 30
0.0
 10
1819.899632503984
 20
1275.614616490502
 30
0.0
 10
1820.604934770431
 20
1275.614616490502
 30
0.0
 10
1820.980969693034
 20
1275.614616490502
 30
0.0
 10
1821.756424210439
 20
1275.614616490502
 30
0.0
 10
1822.157174785367
 20
1275.614616490502
 30
0.0
 10
1822.98440166663
 20
1275.614616490502
 30
0.0
 10
1823.413516717433
 20
1275.614616490502
 30
0.0
 10
1824.723245105314
 20
1275.614616490502
 30
0.0
 10
1825.605892457155
 20
1275.614616490502
 30
0.0
 10
1826.944402593
 20
1275.614616490502
 30
0.0
 10
1827.387421620707
 20
1275.614616490502
 30
0.0
 10
1828.250420905932
 20
1275.614616490502
 30
0.0
 10
1828.673098600057
 20
1275.614616490502
 30
0.0
 10
1829.500557507222
 20
1275.614616490502
 30
0.0
 10
1829.906950266193
 20
1275.614616490502
 30
0.0
 10
1830.674501135229
 20
1275.614616490502
 30
0.0
 10
1831.039104443496
 20
1275.614616490502
 30
0.0
 10
1831.557364768182
 20
1275.614616490502
 30
0.0
 10
1831.725324268774
 20
1275.614616490502
 30
0.0
 10
1832.051425888917
 20
1275.614616490502
 30
0.0
 10
1832.209606471401
 20
1275.614616490502
 30
0.0
 10
1832.660967473077
 20
1275.614616490502
 30
0.0
 10
1832.933555109737
 20
1275.614616490502
 30
0.0
 10
1833.423272852167
 20
1275.614616490502
 30
0.0
 10
1833.641164009829
 20
1275.614616490502
 30
0.0
 10
1834.015346848784
 20
1275.614616490502
 30
0.0
 10
1834.321600132728
 20
1275.614616490502
 30
0.0
 10
1834.496871651032
 20
1275.614616490502
 30
0.0
 10
1834.581389177977
 20
1275.614616490502
 30
0.0
 10
1834.600734967997
 20
1275.614616490502
 30
0.0
 10
1834.626097790651
 20
1275.614616490502
 30
0.0
1001
AcDbBlockRepETag
1070
     1
1071
       70
1005
467
  0
LINE
  5
468
330
2F4
100
AcDbEntity
  8
0
  6
Continuous
 62
     8
370
    15
100
AcDbLine
 10
1837.241862516062
 20
1288.116198198588
 30
0.0
 11
1815.041862516062
 21
1288.116198198587
 31
0.0
1001
AcDbBlockRepETag
1070
     1
1071
       71
1005
468
  0
LINE
  5
469
330
2F4
100
AcDbEntity
  8
0
  6
Continuous
 62
     7
370
    15
100
AcDbLine
 10
1816.941862516062
 20
1275.820204796451
 30
0.0
 11
1816.941862516062
 21
1275.614616490502
 31
0.0
1001
AcDbBlockRepETag
1070
     1
1071
       72
1005
469
  0
LINE
  5
46A
330
2F4
100
AcDbEntity
  8
0
  6
Continuous
 62
     7
370
    15
100
AcDbLine
 10
1816.941862516062
 20
1277.320204886362
 30
0.0
 11
1816.941862516062
 21
1276.889027626125
 31
0.0
1001
AcDbBlockRepETag
1070
     1
1071
       73
1005
46A
  0
LINE
  5
46B
330
2F4
100
AcDbEntity
  8
0
  6
Continuous
 62
     7
370
    15
100
AcDbLine
 10
1816.941862516062
 20
1278.820204598353
 30
0.0
 11
1816.941862516062
 21
1278.389027742884
 31
0.0
1001
AcDbBlockRepETag
1070
     1
1071
       74
1005
46B
  0
LINE
  5
46C
330
2F4
100
AcDbEntity
  8
0
  6
Continuous
 62
     7
370
    15
100
AcDbLine
 10
1816.941862516062
 20
1280.320204614607
 30
0.0
 11
1816.941862516062
 21
1279.88902792846
 31
0.0
1001
AcDbBlockRepETag
1070
     1
1071
       75
1005
46C
  0
LINE
  5
46D
330
2F4
100
AcDbEntity
  8
0
  6
Continuous
 62
     7
370
    15
100
AcDbLine
 10
1816.941862516062
 20
1281.820204649877
 30
0.0
 11
1816.941862516062
 21
1281.389028168826
 31
0.0
1001
AcDbBlockRepETag
1070
     1
1071
       76
1005
46D
  0
LINE
  5
46E
330
2F4
100
AcDbEntity
  8
0
  6
Continuous
 62
     7
370
    15
100
AcDbLine
 10
1816.941862516062
 20
1283.320204694941
 30
0.0
 11
1816.941862516062
 21
1282.889028371547
 31
0.0
1001
AcDbBlockRepETag
1070
     1
1071
       77
1005
46E
  0
LINE
  5
46F
330
2F4
100
AcDbEntity
  8
0
  6
Continuous
 62
     7
370
    15
100
AcDbLine
 10
1816.941862516062
 20
1284.820204740373
 30
0.0
 11
1816.941862516062
 21
1284.389028485549
 31
0.0
1001
AcDbBlockRepETag
1070
     1
1071
       78
1005
46F
  0
LINE
  5
470
330
2F4
100
AcDbEntity
  8
0
  6
Continuous
 62
     7
370
    15
100
AcDbLine
 10
1835.341862516062
 20
1286.639145164851
 30
0.0
 11
1835.341862516062
 21
1286.904616490502
 31
0.0
1001
AcDbBlockRepETag
1070
     1
1071
       79
1005
470
  0
LINE
  5
471
330
2F4
100
AcDbEntity
  8
0
  6
Continuous
 62
     7
370
    15
100
AcDbLine
 10
1835.341862516062
 20
1285.13902850632
 30
0.0
 11
1835.341862516062
 21
1285.57020476739
 31
0.0
1001
AcDbBlockRepETag
1070
     1
1071
       80
1005
471
  0
LINE
  5
472
330
2F4
100
AcDbEntity
  8
0
  6
Continuous
 62
     7
370
    15
100
AcDbLine
 10
1835.341862516062
 20
1283.639028449097
 30
0.0
 11
1835.341862516062
 21
1284.070204725225
 31
0.0
1001
AcDbBlockRepETag
1070
     1
1071
       81
1005
472
  0
LINE
  5
473
330
2F4
100
AcDbEntity
  8
0
  6
Continuous
 62
     7
370
    15
100
AcDbLine
 10
1835.341862516062
 20
1282.139028285544
 30
0.0
 11
1835.341862516062
 21
1282.570204678819
 31
0.0
1001
AcDbBlockRepETag
1070
     1
1071
       82
1005
473
  0
LINE
  5
474
330
2F4
100
AcDbEntity
  8
0
  6
Continuous
 62
     7
370
    15
100
AcDbLine
 10
1835.341862516062
 20
1280.639028056509
 30
0.0
 11
1835.341862516062
 21
1281.070204637476
 31
0.0
1001
AcDbBlockRepETag
1070
     1
1071
       83
1005
474
  0
LINE
  5
475
330
2F4
100
AcDbEntity
  8
0
  6
Continuous
 62
     7
370
    15
100
AcDbLine
 10
1835.341862516062
 20
1279.139027820862
 30
0.0
 11
1835.341862516062
 21
1279.570204610609
 31
0.0
1001
AcDbBlockRepETag
1070
     1
1071
       84
1005
475
  0
LINE
  5
476
330
2F4
100
AcDbEntity
  8
0
  6
Continuous
 62
     7
370
    15
100
AcDbLine
 10
1835.341862516062
 20
1277.639027686427
 30
0.0
 11
1835.341862516062
 21
1278.070204925746
 31
0.0
1001
AcDbBlockRepETag
1070
     1
1071
       85
1005
476
  0
ENDBLK
  5
2F6
330
2F4
100
AcDbEntity
  8
0
100
AcDbBlockEnd
  0
BLOCK
  5
34F
330
34E
100
AcDbEntity
  8
0
100
AcDbBlockBegin
  2
2
 70
     0
 10
0.0
 20
0.0
 30
0.0
  3
2
  1

  0
SPLINE
  5
351
330
34E
100
AcDbEntity
  8
0
  6
Continuous
 62
     7
370
    15
100
AcDbSpline
210
0.0
220
0.0
230
1.0
 70
     8
 71
     3
 72
    12
 73
     8
 74
     0
 42
0.0000000001
 43
0.0000000001
 40
0.0
 40
0.0
 40
0.0
 40
0.0
 40
0.2499999999999999
 40
0.2499999999999999
 40
0.4999999999999999
 40
0.4999999999999999
 40
1.0
 40
1.0
 40
1.0
 40
1.0
 10
1820.491862516062
 20
1252.961984491993
 30
0.0
 10
1820.491862516062
 20
1253.055003968838
 30
0.0
 10
1820.510320933494
 20
1253.146310593003
 30
0.0
 10
1820.581154701357
 20
1253.316259816198
 30
0.0
 10
1820.633549571838
 20
1253.39396943202
 30
0.0
 10
1820.827621519373
 20
1253.586985151774
 30
0.0
 10
1821.008161422495
 20
1253.661984491993
 30
0.0
 10
1821.191862516062
 20
1253.661984491993
 30
0.0
  0
SPLINE
  5
352
330
34E
100
AcDbEntity
  8
0
  6
Continuous
 62
     7
370
    15
100
AcDbSpline
210
0.0
220
0.0
230
1.0
 70
     8
 71
     3
 72
    12
 73
     8
 74
     0
 42
0.0000000001
 43
0.0000000001
 40
0.0
 40
0.0
 40
0.0
 40
0.0
 40
0.2499999999999995
 40
0.2499999999999995
 40
0.499999999999999
 40
0.499999999999999
 40
1.0
 40
1.0
 40
1.0
 40
1.0
 10
1821.191862516062
 20
1252.261984491993
 30
0.0
 10
1821.099992728506
 20
1252.261984491993
 30
0.0
 10
1821.009888768145
 20
1252.279903456784
 30
0.0
 10
1820.840901772418
 20
1252.349468745302
 30
0.0
 10
1820.763396490111
 20
1252.400951521285
 30
0.0
 10
1820.568990960589
 20
1252.594023157281
 30
0.0
 10
1820.491862516062
 20
1252.775904312098
 30
0.0
 10
1820.491862516062
 20
1252.961984491993
 30
0.0
  0
LINE
  5
353
330
34E
100
AcDbEntity
  8
0
  6
Continuous
 62
     7
370
    15
100
AcDbLine
 10
1831.091862516062
 20
1252.261984491993
 30
0.0
 11
1821.191862516062
 21
1252.261984491993
 31
0.0
  0
SPLINE
  5
354
330
34E
100
AcDbEntity
  8
0
  6
Continuous
 62
     7
370
    15
100
AcDbSpline
210
0.0
220
0.0
230
1.0
 70
     8
 71
     3
 72
    12
 73
     8
 74
     0
 42
0.0000000001
 43
0.0000000001
 40
0.0
 40
0.0
 40
0.0
 40
0.0
 40
0.2499999999999999
 40
0.2499999999999999
 40
0.4999999999999999
 40
0.4999999999999999
 40
1.0
 40
1.0
 40
1.0
 40
1.0
 10
1831.791862516062
 20
1252.961984491993
 30
0.0
 10
1831.791862516062
 20
1252.868965015147
 30
0.0
 10
1831.773404098631
 20
1252.777658390982
 30
0.0
 10
1831.702570330768
 20
1252.607709167787
 30
0.0
 10
1831.650175460287
 20
1252.529999551965
 30
0.0
 10
1831.456103512752
 20
1252.336983832211
 30
0.0
 10
1831.27556360963
 20
1252.261984491993
 30
0.0
 10
1831.091862516062
 20
1252.261984491993
 30
0.0
  0
SPLINE
  5
355
330
34E
100
AcDbEntity
  8
0
  6
Continuous
 62
     7
370
    15
100
AcDbSpline
210
0.0
220
0.0
230
1.0
 70
     8
 71
     3
 72
    12
 73
     8
 74
     0
 42
0.0000000001
 43
0.0000000001
 40
0.0
 40
0.0
 40
0.0
 40
0.0
 40
0.2500000000000004
 40
0.2500000000000004
 40
0.5000000000000008
 40
0.5000000000000008
 40
1.0
 40
1.0
 40
1.0
 40
1.0
 10
1831.091862516062
 20
1253.661984491993
 30
0.0
 10
1831.183732303619
 20
1253.661984491993
 30
0.0
 10
1831.27383626398
 20
1253.644065527202
 30
0.0
 10
1831.442823259707
 20
1253.574500238683
 30
0.0
 10
1831.520328542013
 20
1253.5230174627
 30
0.0
 10
1831.714734071535
 20
1253.329945826704
 30
0.0
 10
1831.791862516062
 20
1253.148064671887
 30
0.0
 10
1831.791862516062
 20
1252.961984491993
 30
0.0
  0
LINE
  5
356
330
34E
100
AcDbEntity
  8
0
  6
Continuous
 62
     7
370
    15
100
AcDbLine
 10
1831.091862516062
 20
1253.661984491993
 30
0.0
 11
1821.191862516062
 21
1253.661984491993
 31
0.0
  0
CIRCLE
  5
357
330
34E
100
AcDbEntity
  8
0
  6
Continuous
 62
     7
370
    15
100
AcDbCircle
 10
1826.141862516062
 20
1252.961984491993
 30
0.0
 40
10.48632900201846
  0
CIRCLE
  5
358
330
34E
100
AcDbEntity
  8
0
  6
Continuous
 62
     7
370
    15
100
AcDbCircle
 10
1826.141862516062
 20
1252.961984491993
 30
0.0
 40
11.25
  0
INSERT
  5
359
330
34E
100
AcDbEntity
  8
0
  6
Continuous
 62
     7
370
     0
100
AcDbBlockReference
  2
SW_CENTERMARKSYMBOL_0
 10
1826.141862516062
 20
1252.961984491993
 30
0.0
  0
ENDBLK
  5
350
330
34E
100
AcDbEntity
  8
0
100
AcDbBlockEnd
  0
BLOCK
  5
35C
330
35B
100
AcDbEntity
  8
0
100
AcDbBlockBegin
  2
3
 70
     0
 10
0.0
 20
0.0
 30
0.0
  3
3
  1

  0
SPLINE
  5
35E
330
35B
100
AcDbEntity
  8
0
  6
Continuous
 62
     7
370
    15
100
AcDbSpline
210
0.0
220
0.0
230
1.0
 70
     8
 71
     3
 72
    26
 73
    22
 74
     0
 42
0.0000000001
 43
0.0000000001
 40
0.0
 40
0.0
 40
0.0
 40
0.0
 40
0.0360140989718687
 40
0.0886120164355371
 40
0.1412435236310092
 40
0.1940090719762031
 40
0.2470015969304083
 40
0.3003021088354931
 40
0.3539757816035812
 40
0.4080688100577055
 40
0.4626063945710329
 40
0.5175922117942527
 40
0.5730096054150538
 40
0.6288244794757262
 40
0.6849895592080822
 40
0.7414494096494746
 40
0.7981454775722141
 40
0.8550204933786595
 40
0.9120217965785968
 40
0.9691034336137073
 40
1.0
 40
1.0
 40
1.0
 40
1.0
 10
1874.231166546979
 20
1287.911538202294
 30
0.0
 10
1874.23102069219
 20
1287.982529368995
 30
0.0
 10
1874.23066181921
 20
1288.157201805902
 30
0.0
 10
1874.204897544163
 20
1288.435008240534
 30
0.0
 10
1874.157429863696
 20
1288.743952626433
 30
0.0
 10
1874.087491207095
 20
1289.050827897862
 30
0.0
 10
1873.996220011007
 20
1289.355212053258
 30
0.0
 10
1873.883396874603
 20
1289.656667386981
 30
0.0
 10
1873.749155746241
 20
1289.954731688431
 30
0.0
 10
1873.593548224327
 20
1290.248903108958
 30
0.0
 10
1873.416691861821
 20
1290.538632926995
 30
0.0
 10
1873.21876201263
 20
1290.823324674711
 30
0.0
 10
1873.000022392914
 20
1291.102341037662
 30
0.0
 10
1872.760837733976
 20
1291.375018177942
 30
0.0
 10
1872.501677570083
 20
1291.640682911705
 30
0.0
 10
1872.223119304714
 20
1291.898678629595
 30
0.0
 10
1871.925806503203
 20
1292.148362400508
 30
0.0
 10
1871.610540975616
 20
1292.389199327979
 30
0.0
 10
1871.277852818509
 20
1292.620470359308
 30
0.0
 10
1870.982882092474
 20
1292.808403480175
 30
0.0
 10
1870.796721189137
 20
1292.91748118695
 30
0.0
 10
1870.731344397105
 20
1292.955787568276
 30
0.0
  0
SPLINE
  5
35F
330
35B
100
AcDbEntity
  8
0
  6
Continuous
 62
     7
370
    15
100
AcDbSpline
210
0.0
220
0.0
230
1.0
 70
     8
 71
     3
 72
    60
 73
    56
 74
     0
 42
0.0000000001
 43
0.0000000001
 40
0.0
 40
0.0
 40
0.0
 40
0.0
 40
0.0103159648538824
 40
0.0296878313655881
 40
0.049047608121661
 40
0.0683958503792434
 40
0.0877292614240928
 40
0.107045896038616
 40
0.126344869607997
 40
0.145626114055746
 40
0.1648901784808029
 40
0.1841380706603998
 40
0.2033711338124118
 40
0.2225909526211257
 40
0.2417992828784205
 40
0.260997999770419
 40
0.2801890606086642
 40
0.2993744785364469
 40
0.3185563043739672
 40
0.3377366142776843
 40
0.3569175012759915
 40
0.3761004459299074
 40
0.3952874812914047
 40
0.4144807181973169
 40
0.4336822605200306
 40
0.4528941939767821
 40
0.4721185696019764
 40
0.4913573795942655
 40
0.5106125227507054
 40
0.5298857560533533
 40
0.5491786281999596
 40
0.5684923900096265
 40
0.5878278757814721
 40
0.6071853490290023
 40
0.6265643058963564
 40
0.6459632305509988
 40
0.6653792998070971
 40
0.6848080403697335
 40
0.7042423436365355
 40
0.7236703703038023
 40
0.7430795465989678
 40
0.7624543764285128
 40
0.7817765986433507
 40
0.8010257402020009
 40
0.8201801430601106
 40
0.8392184655888664
 40
0.8581215430996188
 40
0.87687437213253
 40
0.8954679090283812
 40
0.9139003846699726
 40
0.9321779369144529
 40
0.9503145104127515
 40
0.9683311111819232
 40
0.9862545857826619
 40
0.9999999999999998
 40
0.9999999999999998
 40
0.9999999999999998
 40
0.9999999999999998
 10
1870.731344397105
 20
1292.955787568276
 30
0.0
 10
1870.666093117028
 20
1292.992907455356
 30
0.0
 10
1870.478309518817
 20
1293.099733037214
 30
0.0
 10
1870.1567770635
 20
1293.267968982181
 30
0.0
 10
1869.762949148693
 20
1293.456726936707
 30
0.0
 10
1869.356061441654
 20
1293.633994177024
 30
0.0
 10
1868.937188205052
 20
1293.799722700891
 30
0.0
 10
1868.5071098428
 20
1293.953640927035
 30
0.0
 10
1868.066698846561
 20
1294.095560219553
 30
0.0
 10
1867.616808327382
 20
1294.225294297536
 30
0.0
 10
1867.158303505317
 20
1294.342678563853
 30
0.0
 10
1866.692054538599
 20
1294.447563575592
 30
0.0
 10
1866.218939211754
 20
1294.539816094153
 30
0.0
 10
1865.739842483986
 20
1294.619318574249
 30
0.0
 10
1865.255656403821
 20
1294.685969377894
 30
0.0
 10
1864.767279502425
 20
1294.739682974627
 30
0.0
 10
1864.275615963827
 20
1294.780390227868
 30
0.0
 10
1863.781574555545
 20
1294.808038667165
 30
0.0
 10
1863.286067385695
 20
1294.822592719139
 30
0.0
 10
1862.79000852836
 20
1294.824033865711
 30
0.0
 10
1862.29431792585
 20
1294.812360837446
 30
0.0
 10
1861.799915102155
 20
1294.787590121661
 30
0.0
 10
1861.307716800466
 20
1294.749755851957
 30
0.0
 10
1860.818630114822
 20
1294.698908770711
 30
0.0
 10
1860.333555770446
 20
1294.635115862172
 30
0.0
 10
1859.853387461452
 20
1294.55845990366
 30
0.0
 10
1859.379010678384
 20
1294.46903889893
 30
0.0
 10
1858.911301737716
 20
1294.366965452363
 30
0.0
 10
1858.451127067874
 20
1294.252366122158
 30
0.0
 10
1857.999342810726
 20
1294.125380807318
 30
0.0
 10
1857.556794799933
 20
1293.986162245122
 30
0.0
 10
1857.124318976331
 20
1293.834875723693
 30
0.0
 10
1856.702742291777
 20
1293.671699148995
 30
0.0
 10
1856.292884131745
 20
1293.49682364632
 30
0.0
 10
1855.895558245784
 20
1293.310454920387
 30
0.0
 10
1855.511575104664
 20
1293.112815638913
 30
0.0
 10
1855.141744492456
 20
1292.904149128829
 30
0.0
 10
1854.78688169202
 20
1292.684726955277
 30
0.0
 10
1854.4478219003
 20
1292.454865758961
 30
0.0
 10
1854.125404832414
 20
1292.214930675516
 30
0.0
 10
1853.820467522585
 20
1291.965343525837
 30
0.0
 10
1853.533826417966
 20
1291.706582383098
 30
0.0
 10
1853.266277043533
 20
1291.439198047769
 30
0.0
 10
1853.018576637108
 20
1291.163818702237
 30
0.0
 10
1852.791422816441
 20
1290.881148752186
 30
0.0
 10
1852.585430409057
 20
1290.591960309099
 30
0.0
 10
1852.401110947031
 20
1290.297077030633
 30
0.0
 10
1852.238855340987
 20
1289.997351776693
 30
0.0
 10
1852.098935831195
 20
1289.693641078014
 30
0.0
 10
1851.981481421361
 20
1289.386780469022
 30
0.0
 10
1851.886600264634
 20
1289.077563626344
 30
0.0
 10
1851.814004022035
 20
1288.766730030723
 30
0.0
 10
1851.764500372127
 20
1288.454953066681
 30
0.0
 10
1851.736881273183
 20
1288.166737127862
 30
0.0
 10
1851.735911298567
 20
1287.982579676043
 30
0.0
 10
1851.735490295388
 20
1287.902648849578
 30
0.0
  0
LINE
  5
360
330
35B
100
AcDbEntity
  8
0
  6
Continuous
 62
     7
370
    15
100
AcDbLine
 10
1874.233540523625
 20
1286.916341221218
 30
0.0
 11
1874.233540523625
 21
1287.905647132804
 31
0.0
  0
LINE
  5
361
330
35B
100
AcDbEntity
  8
0
  6
Continuous
 62
     7
370
    15
100
AcDbLine
 10
1851.733540523625
 20
1287.905647132804
 30
0.0
 11
1851.733540523625
 21
1286.916341221218
 31
0.0
  0
SPLINE
  5
362
330
35B
100
AcDbEntity
  8
0
  6
Continuous
 62
     7
370
    15
100
AcDbSpline
210
0.0
220
0.0
230
1.0
 70
     8
 71
     3
 72
     9
 73
     5
 74
     0
 42
0.0000000001
 43
0.0000000001
 40
0.0
 40
0.0
 40
0.0
 40
0.0
 40
0.5000073684672644
 40
1.0
 40
1.0
 40
1.0
 40
1.0
 10
1860.876396477483
 20
1280.505404060899
 30
0.0
 10
1860.910355808763
 20
1280.500072122449
 30
0.0
 10
1860.978273470425
 20
1280.489408402699
 30
0.0
 10
1861.045116676123
 20
1280.478899371467
 30
0.0
 10
1861.078537786441
 20
1280.473644933286
 30
0.0
  0
SPLINE
  5
363
330
35B
100
AcDbEntity
  8
0
  6
Continuous
 62
     7
370
    15
100
AcDbSpline
210
0.0
220
0.0
230
1.0
 70
     8
 71
     3
 72
     9
 73
     5
 74
     0
 42
0.0000000001
 43
0.0000000001
 40
0.0
 40
0.0
 40
0.0
 40
0.0
 40
0.5000069414084708
 40
1.0
 40
1.0
 40
1.0
 40
1.0
 10
1860.878780384121
 20
1279.280218830805
 30
0.0
 10
1860.912584164757
 20
1279.274911228386
 30
0.0
 10
1860.980190787459
 20
1279.264296170916
 30
0.0
 10
1861.046754322301
 20
1279.253830841846
 30
0.0
 10
1861.080035627677
 20
1279.248598249955
 30
0.0
  0
SPLINE
  5
364
330
35B
100
AcDbEntity
  8
0
  6
Continuous
 62
     7
370
    15
100
AcDbSpline
210
0.0
220
0.0
230
1.0
 70
     8
 71
     3
 72
     9
 73
     5
 74
     0
 42
0.0000000001
 43
0.0000000001
 40
0.0
 40
0.0
 40
0.0
 40
0.0
 40
0.5000076041433357
 40
1.0
 40
1.0
 40
1.0
 40
1.0
 10
1860.876330807881
 20
1278.055791933692
 30
0.0
 10
1860.910356904817
 20
1278.050449515799
 30
0.0
 10
1860.978408063749
 20
1278.039764842509
 30
0.0
 10
1861.045367814423
 20
1278.029237458201
 30
0.0
 10
1861.078847180588
 20
1278.023973846099
 30
0.0
  0
SPLINE
  5
365
330
35B
100
AcDbEntity
  8
0
  6
Continuous
 62
     7
370
    15
100
AcDbSpline
210
0.0
220
0.0
230
1.0
 70
     8
 71
     3
 72
     9
 73
     5
 74
     0
 42
0.0000000001
 43
0.0000000001
 40
0.0
 40
0.0
 40
0.0
 40
0.0
 40
0.5000070446520036
 40
1.0
 40
1.0
 40
1.0
 40
1.0
 10
1860.877526927719
 20
1276.830793001951
 30
0.0
 10
1860.911378165744
 20
1276.825477996125
 30
0.0
 10
1860.979079687927
 20
1276.814848134242
 30
0.0
 10
1861.045730470186
 20
1276.804369256577
 30
0.0
 10
1861.079055391784
 20
1276.799129891565
 30
0.0
  0
SPLINE
  5
366
330
35B
100
AcDbEntity
  8
0
  6
Continuous
 62
     7
370
    15
100
AcDbSpline
210
0.0
220
0.0
230
1.0
 70
     8
 71
     3
 72
     9
 73
     5
 74
     0
 42
0.0000000001
 43
0.0000000001
 40
0.0
 40
0.0
 40
0.0
 40
0.0
 40
0.5000078522837177
 40
1.0
 40
1.0
 40
1.0
 40
1.0
 10
1860.876857025351
 20
1275.606086903638
 30
0.0
 10
1860.910943963165
 20
1275.600734926522
 30
0.0
 10
1860.979116768167
 20
1275.590031140387
 30
0.0
 10
1861.046180582699
 20
1275.579487300481
 30
0.0
 10
1861.079711963361
 20
1275.574215463322
 30
0.0
  0
SPLINE
  5
367
330
35B
100
AcDbEntity
  8
0
  6
Continuous
 62
     7
370
    15
100
AcDbSpline
210
0.0
220
0.0
230
1.0
 70
     8
 71
     3
 72
     9
 73
     5
 74
     0
 42
0.0000000001
 43
0.0000000001
 40
0.0
 40
0.0
 40
0.0
 40
0.0
 40
0.5000072611646765
 40
1.0
 40
1.0
 40
1.0
 40
1.0
 10
1860.876629799601
 20
1274.381311348533
 30
0.0
 10
1860.910555526048
 20
1274.375984679046
 30
0.0
 10
1860.978405993598
 20
1274.365331494781
 30
0.0
 10
1861.045189808368
 20
1274.354831788887
 30
0.0
 10
1861.078581230825
 20
1274.349582012179
 30
0.0
  0
SPLINE
  5
368
330
35B
100
AcDbEntity
  8
0
  6
Continuous
 62
     7
370
    15
100
AcDbSpline
210
0.0
220
0.0
230
1.0
 70
     8
 71
     3
 72
     9
 73
     5
 74
     0
 42
0.0000000001
 43
0.0000000001
 40
0.0
 40
0.0
 40
0.0
 40
0.0
 40
0.5000077832438712
 40
1.0
 40
1.0
 40
1.0
 40
1.0
 10
1860.87802218075
 20
1273.156281654299
 30
0.0
 10
1860.912073877321
 20
1273.150935186863
 30
0.0
 10
1860.98017621035
 20
1273.14024241844
 30
0.0
 10
1861.047174376722
 20
1273.129708767779
 30
0.0
 10
1861.080672938444
 20
1273.124442024434
 30
0.0
  0
SPLINE
  5
369
330
35B
100
AcDbEntity
  8
0
  6
Continuous
 62
     7
370
    15
100
AcDbSpline
210
0.0
220
0.0
230
1.0
 70
     8
 71
     3
 72
     9
 73
     5
 74
     0
 42
0.0000000001
 43
0.0000000001
 40
0.0
 40
0.0
 40
0.0
 40
0.0
 40
0.4999872340230226
 40
0.9999999999999998
 40
0.9999999999999998
 40
0.9999999999999998
 40
0.9999999999999998
 10
1865.527722008332
 20
1273.122724616944
 30
0.0
 10
1865.561899279364
 20
1273.128099037593
 30
0.0
 10
1865.630255566699
 20
1273.138848153335
 30
0.0
 10
1865.697196872049
 20
1273.149360319489
 30
0.0
 10
1865.730668379294
 20
1273.154616536764
 30
0.0
  0
SPLINE
  5
36A
330
35B
100
AcDbEntity
  8
0
  6
Continuous
 62
     7
370
    15
100
AcDbSpline
210
0.0
220
0.0
230
1.0
 70
     8
 71
     3
 72
     9
 73
     5
 74
     0
 42
0.0000000001
 43
0.0000000001
 40
0.0
 40
0.0
 40
0.0
 40
0.0
 40
0.4999857428320328
 40
1.0
 40
1.0
 40
1.0
 40
1.0
 10
1865.527593650579
 20
1274.347515652789
 30
0.0
 10
1865.561475396782
 20
1274.352843611267
 30
0.0
 10
1865.629240821475
 20
1274.363499832079
 30
0.0
 10
1865.695509885147
 20
1274.373906709625
 30
0.0
 10
1865.728645361793
 20
1274.379110296771
 30
0.0
  0
SPLINE
  5
36B
330
35B
100
AcDbEntity
  8
0
  6
Continuous
 62
     7
370
    15
100
AcDbSpline
210
0.0
220
0.0
230
1.0
 70
     8
 71
     3
 72
     9
 73
     5
 74
     0
 42
0.0000000001
 43
0.0000000001
 40
0.0
 40
0.0
 40
0.0
 40
0.0
 40
0.4999868377613454
 40
1.0
 40
1.0
 40
1.0
 40
1.0
 10
1865.528333190256
 20
1275.572443167621
 30
0.0
 10
1865.562440458358
 20
1275.577806566361
 30
0.0
 10
1865.630656790319
 20
1275.588533646227
 30
0.0
 10
1865.697436115075
 20
1275.599020338008
 30
0.0
 10
1865.730826656418
 20
1275.604263821926
 30
0.0
  0
SPLINE
  5
36C
330
35B
100
AcDbEntity
  8
0
  6
Continuous
 62
     7
370
    15
100
AcDbSpline
210
0.0
220
0.0
230
1.0
 70
     8
 71
     3
 72
     9
 73
     5
 74
     0
 42
0.0000000001
 43
0.0000000001
 40
0.0
 40
0.0
 40
0.0
 40
0.0
 40
0.4999874614975944
 40
1.0
 40
1.0
 40
1.0
 40
1.0
 10
1865.526310106181
 20
1276.796936343928
 30
0.0
 10
1865.560511487753
 20
1276.802314576758
 30
0.0
 10
1865.628915966275
 20
1276.813071312164
 30
0.0
 10
1865.695918204384
 20
1276.823593204385
 30
0.0
 10
1865.729420163546
 20
1276.828854282424
 30
0.0
  0
SPLINE
  5
36D
330
35B
100
AcDbEntity
  8
0
  6
Continuous
 62
     7
370
    15
100
AcDbSpline
210
0.0
220
0.0
230
1.0
 70
     8
 71
     3
 72
     9
 73
     5
 74
     0
 42
0.0000000001
 43
0.0000000001
 40
0.0
 40
0.0
 40
0.0
 40
0.0
 40
0.4999863886413146
 40
1.0
 40
1.0
 40
1.0
 40
1.0
 10
1865.528414781967
 20
1278.022078436651
 30
0.0
 10
1865.562434554381
 20
1278.027428071069
 30
0.0
 10
1865.630475951481
 20
1278.038127631177
 30
0.0
 10
1865.697055735391
 20
1278.04858303803
 30
0.0
 10
1865.730346533587
 20
1278.053810883769
 30
0.0
  0
SPLINE
  5
36E
330
35B
100
AcDbEntity
  8
0
  6
Continuous
 62
     7
370
    15
100
AcDbSpline
210
0.0
220
0.0
230
1.0
 70
     8
 71
     3
 72
     9
 73
     5
 74
     0
 42
0.0000000001
 43
0.0000000001
 40
0.0
 40
0.0
 40
0.0
 40
0.0
 40
0.4999874131013915
 40
1.0
 40
1.0
 40
1.0
 40
1.0
 10
1865.527241812233
 20
1279.246705210291
 30
0.0
 10
1865.561447924932
 20
1279.252084173537
 30
0.0
 10
1865.629861872571
 20
1279.262842370852
 30
0.0
 10
1865.696870891378
 20
1279.273365212221
 30
0.0
 10
1865.730376244218
 20
1279.278626765355
 30
0.0
  0
SPLINE
  5
36F
330
35B
100
AcDbEntity
  8
0
  6
Continuous
 62
     7
370
    15
100
AcDbSpline
210
0.0
220
0.0
230
1.0
 70
     8
 71
     3
 72
     9
 73
     5
 74
     0
 42
0.0000000001
 43
0.0000000001
 40
0.0
 40
0.0
 40
0.0
 40
0.0
 40
0.4999859673277902
 40
1.0
 40
1.0
 40
1.0
 40
1.0
 10
1865.52799698792
 20
1280.471635163876
 30
0.0
 10
1865.561928239946
 20
1280.476970890802
 30
0.0
 10
1865.629792648638
 20
1280.48764264416
 30
0.0
 10
1865.696172693134
 20
1280.498066829338
 30
0.0
 10
1865.729363646872
 20
1280.503279068206
 30
0.0
  0
LINE
  5
370
330
35B
100
AcDbEntity
  8
0
  6
Continuous
 62
     7
370
    15
100
AcDbLine
 10
1872.233540523625
 20
1282.904981509401
 30
0.0
 11
1872.233540523625
 21
1283.190976740418
 31
0.0
  0
LINE
  5
371
330
35B
100
AcDbEntity
  8
0
  6
Continuous
 62
     7
370
    15
100
AcDbLine
 10
1872.233540523625
 20
1281.680170291572
 30
0.0
 11
1872.233540523625
 21
1281.96616552259
 31
0.0
  0
LINE
  5
372
330
35B
100
AcDbEntity
  8
0
  6
Continuous
 62
     7
370
    15
100
AcDbLine
 10
1872.233540523625
 20
1280.455359073744
 30
0.0
 11
1872.233540523625
 21
1280.741354304761
 31
0.0
  0
LINE
  5
373
330
35B
100
AcDbEntity
  8
0
  6
Continuous
 62
     7
370
    15
100
AcDbLine
 10
1872.233540523625
 20
1279.230547855915
 30
0.0
 11
1872.233540523625
 21
1279.516543086932
 31
0.0
  0
LINE
  5
374
330
35B
100
AcDbEntity
  8
0
  6
Continuous
 62
     7
370
    15
100
AcDbLine
 10
1872.233540523625
 20
1278.005736638087
 30
0.0
 11
1872.233540523625
 21
1278.291731869104
 31
0.0
  0
LINE
  5
375
330
35B
100
AcDbEntity
  8
0
  6
Continuous
 62
     7
370
    15
100
AcDbLine
 10
1853.733540523625
 20
1278.904137478018
 30
0.0
 11
1853.733540523625
 21
1278.618142247001
 31
0.0
  0
LINE
  5
376
330
35B
100
AcDbEntity
  8
0
  6
Continuous
 62
     7
370
    15
100
AcDbLine
 10
1853.733540523625
 20
1280.128948695846
 30
0.0
 11
1853.733540523625
 21
1279.842953464829
 31
0.0
  0
LINE
  5
377
330
35B
100
AcDbEntity
  8
0
  6
Continuous
 62
     7
370
    15
100
AcDbLine
 10
1853.733540523625
 20
1281.353759913675
 30
0.0
 11
1853.733540523625
 21
1281.067764682658
 31
0.0
  0
LINE
  5
378
330
35B
100
AcDbEntity
  8
0
  6
Continuous
 62
     7
370
    15
100
AcDbLine
 10
1853.733540523625
 20
1282.578571131504
 30
0.0
 11
1853.733540523625
 21
1282.292575900487
 31
0.0
  0
SPLINE
  5
379
330
35B
100
AcDbEntity
  8
0
  6
Continuous
 62
     7
370
    15
100
AcDbSpline
210
0.0
220
0.0
230
1.0
 70
     8
 71
     3
 72
    12
 73
     8
 74
     0
 42
0.0000000001
 43
0.0000000001
 40
0.0
 40
0.0
 40
0.0
 40
0.0
 40
0.2499999999999999
 40
0.2499999999999999
 40
0.4999999999999999
 40
0.4999999999999999
 40
1.0
 40
1.0
 40
1.0
 40
1.0
 10
1858.988387209921
 20
1292.046202392844
 30
0.0
 10
1859.05416191278
 20
1292.084173320571
 30
0.0
 10
1859.13177751803
 20
1292.116297948334
 30
0.0
 10
1859.302036803802
 20
1292.165916354099
 30
0.0
 10
1859.39403456833
 20
1292.18302363488
 30
0.0
 10
1859.667746882783
 20
1292.207667352814
 30
0.0
 10
1859.848440414609
 20
1292.187891364901
 30
0.0
 10
1859.978336703582
 20
1292.136579711288
 30
0.0
  0
SPLINE
  5
37A
330
35B
100
AcDbEntity
  8
0
  6
Continuous
 62
     7
370
    15
100
AcDbSpline
210
0.0
220
0.0
230
1.0
 70
     8
 71
     3
 72
    12
 73
     8
 74
     0
 42
0.0000000001
 43
0.0000000001
 40
0.0
 40
0.0
 40
0.0
 40
0.0
 40
0.2499999999999995
 40
0.2499999999999995
 40
0.499999999999999
 40
0.499999999999999
 40
1.0
 40
1.0
 40
1.0
 40
1.0
 10
1858.988387209921
 20
1291.565094033012
 30
0.0
 10
1858.923425460153
 20
1291.590755234179
 30
0.0
 10
1858.872382960285
 20
1291.623229369905
 30
0.0
 10
1858.802081196922
 20
1291.698798625416
 30
0.0
 10
1858.783680506237
 20
1291.741442385281
 30
0.0
 10
1858.782737301079
 20
1291.874494206319
 30
0.0
 10
1858.856808652872
 20
1291.970243708686
 30
0.0
 10
1858.988387209921
 20
1292.046202392844
 30
0.0
  0
ARC
  5
37B
330
35B
100
AcDbEntity
  8
0
  6
Continuous
 62
     7
370
    15
100
AcDbCircle
 10
1847.81431826819
 20
1264.125187474795
 30
0.0
 40
29.62782963090994
100
AcDbArc
 50
52.16249507027303
 51
67.84288146241623
  0
SPLINE
  5
37C
330
35B
100
AcDbEntity
  8
0
  6
Continuous
 62
     7
370
    15
100
AcDbSpline
210
0.0
220
0.0
230
1.0
 70
     8
 71
     3
 72
    12
 73
     8
 74
     0
 42
0.0000000001
 43
0.0000000001
 40
0.0
 40
0.0
 40
0.0
 40
0.0
 40
0.2499999999999999
 40
0.2499999999999999
 40
0.4999999999999999
 40
0.4999999999999999
 40
1.0
 40
1.0
 40
1.0
 40
1.0
 10
1866.978693837328
 20
1287.433496561045
 30
0.0
 10
1866.912919134469
 20
1287.395525633318
 30
0.0
 10
1866.835303529219
 20
1287.368176394173
 30
0.0
 10
1866.665044243447
 20
1287.336876138198
 30
0.0
 10
1866.573046478919
 20
1287.333316255533
 30
0.0
 10
1866.299334164466
 20
1287.358822286395
 30
0.0
 10
1866.11864063264
 20
1287.425210470163
 30
0.0
 10
1865.988744343667
 20
1287.52387387949
 30
0.0
  0
SPLINE
  5
37D
330
35B
100
AcDbEntity
  8
0
  6
Continuous
 62
     7
370
    15
100
AcDbSpline
210
0.0
220
0.0
230
1.0
 70
     8
 71
     3
 72
    12
 73
     8
 74
     0
 42
0.0000000001
 43
0.0000000001
 40
0.0
 40
0.0
 40
0.0
 40
0.0
 40
0.2500000000000004
 40
0.2500000000000004
 40
0.5000000000000008
 40
0.5000000000000008
 40
1.0
 40
1.0
 40
1.0
 40
1.0
 10
1866.978693837328
 20
1288.095359557765
 30
0.0
 10
1867.043655587096
 20
1288.046017519139
 30
0.0
 10
1867.094698086964
 20
1287.990300862509
 30
0.0
 10
1867.164999850327
 20
1287.871114098068
 30
0.0
 10
1867.183400541012
 20
1287.808450960817
 30
0.0
 10
1867.18434374617
 20
1287.62516328078
 30
0.0
 10
1867.110272394377
 20
1287.509455245203
 30
0.0
 10
1866.978693837328
 20
1287.433496561045
 30
0.0
  0
ARC
  5
37E
330
35B
100
AcDbEntity
  8
0
  6
Continuous
 62
     7
370
    15
100
AcDbCircle
 10
1848.804267761851
 20
1264.696673153071
 30
0.0
 40
29.62782963090995
100
AcDbArc
 50
52.16249507027303
 51
67.84288146241623
  0
LWPOLYLINE
  5
37F
330
35B
100
AcDbEntity
  8
0
  6
Continuous
 62
     7
370
    15
100
AcDbPolyline
 90
      131
 70
   128
 43
0.0
 10
1870.398494870705
 20
1292.979619900616
 10
1870.748077389514
 20
1292.767812757185
 10
1871.0795254727
 20
1292.546502848189
 10
1871.392065007907
 20
1292.316207053174
 10
1871.684966044569
 20
1292.07746323864
 10
1871.957544498744
 20
1291.83082900183
 10
1872.20916375082
 20
1291.57688036843
 10
1872.439236132378
 20
1291.316210447242
 10
1872.647224298708
 20
1291.049428044943
 10
1872.832642483811
 20
1290.777156244196
 10
1872.995057634925
 20
1290.500030948409
 10
1873.134090423939
 20
1290.218699396548
 10
1873.24941613333
 20
1289.93381865149
 10
1873.340765414563
 20
1289.646054065415
 10
1873.407924917157
 20
1289.356077725846
 10
1873.450737786982
 20
1289.064566885962
 10
1873.469104032598
 20
1288.772202382836
 10
1873.462980758786
 20
1288.479667047312
 10
1873.432382266737
 20
1288.187644109221
 10
1873.377380020646
 20
1287.896815601666
 10
1873.298102480807
 20
1287.607860768101
 10
1873.194734803589
 20
1287.32145447593
 10
1873.06751840899
 20
1287.038265640318
 10
1872.916750416796
 20
1286.758955661912
 10
1872.742782952637
 20
1286.48417688211
 10
1872.546022325587
 20
1286.214571059483
 10
1872.326928079209
 20
1285.950767870923
 10
1872.086011918264
 20
1285.693383441
 10
1871.823836513612
 20
1285.443018902975
 10
1871.541014188057
 20
1285.200258994828
 10
1871.238205486245
 20
1284.965670693573
 10
1870.91611763193
 20
1284.739801891057
 10
1870.57550287622
 20
1284.523180114335
 10
1870.217156740659
 20
1284.316311293602
 10
1869.841916159251
 20
1284.119678580576
 10
1869.450657523761
 20
1283.933741220067
 10
1869.044294636861
 20
1283.758933477399
 10
1868.623776577903
 20
1283.595663624153
 10
1868.190085486297
 20
1283.444312984636
 10
1867.744234267684
 20
1283.30523504528
 10
1867.287264228244
 20
1283.178754629057
 10
1866.820242642676
 20
1283.065167136839
 10
1866.344260261535
 20
1282.964737857477
 10
1865.860428763726
 20
1282.877701348207
 10
1865.36987816013
 20
1282.80426088683
 10
1864.873754154412
 20
1282.744587996945
 10
1864.373215467177
 20
1282.698822047352
 10
1863.869431129719
 20
1282.667069926546
 10
1863.363577753703
 20
1282.649405793078
 10
1862.856836783126
 20
1282.645870902348
 10
1862.350391735007
 20
1282.656473510259
 10
1861.84542543522
 20
1282.681188853929
 10
1861.343117255958
 20
1282.719959209526
 10
1860.844640361246
 20
1282.77269402709
 10
1860.351158966971
 20
1282.839270142009
 10
1859.863825621794
 20
1282.919532062684
 10
1859.383778515322
 20
1283.013292333678
 10
1858.912138819817
 20
1283.120331973535
 10
1858.450008071642
 20
1283.240400986217
 10
1857.998465598571
 20
1283.37321894498
 10
1857.558565998973
 20
1283.518475647328
 10
1857.131336678745
 20
1283.675831839503
 10
1856.71777545176
 20
1283.844920008825
 10
1856.318848209427
 20
1284.025345242041
 10
1855.935486664805
 20
1284.216686147658
 10
1855.568586176544
 20
1284.418495840127
 10
1855.219003657735
 20
1284.630302983558
 10
1854.887555574549
 20
1284.851612892554
 10
1854.575016039342
 20
1285.081908687569
 10
1854.28211500268
 20
1285.320652502102
 10
1854.009536548505
 20
1285.567286738913
 10
1853.757917296429
 20
1285.821235372312
 10
1853.527844914871
 20
1286.081905293501
 10
1853.319856748541
 20
1286.3486876958
 10
1853.134438563438
 20
1286.620959496546
 10
1852.972023412324
 20
1286.898084792334
 10
1852.83299062331
 20
1287.179416344195
 10
1852.717664913919
 20
1287.464297089253
 10
1852.626315632686
 20
1287.752061675329
 10
1852.559156130092
 20
1288.042038014897
 10
1852.516343260267
 20
1288.333548854781
 10
1852.497977014651
 20
1288.625913357907
 10
1852.504100288463
 20
1288.918448693431
 10
1852.534698780512
 20
1289.210471631522
 10
1852.589701026603
 20
1289.501300139077
 10
1852.668978566442
 20
1289.790254972642
 10
1852.772346243661
 20
1290.076661264813
 10
1852.899562638259
 20
1290.359850100425
 10
1853.050330630453
 20
1290.63916007883
 10
1853.224298094612
 20
1290.913938858633
 10
1853.421058721662
 20
1291.183544681259
 10
1853.640152968041
 20
1291.44734786982
 10
1853.881069128984
 20
1291.704732299743
 10
1854.143244533637
 20
1291.955096837768
 10
1854.426066859192
 20
1292.197856745915
 10
1854.728875561004
 20
1292.43244504717
 10
1855.050963415319
 20
1292.658313849686
 10
1855.391578171029
 20
1292.874935626408
 10
1855.74992430659
 20
1293.081804447141
 10
1856.125164887998
 20
1293.278437160167
 10
1856.516423523488
 20
1293.464374520675
 10
1856.922786410388
 20
1293.639182263344
 10
1857.343304469346
 20
1293.80245211659
 10
1857.776995560952
 20
1293.953802756107
 10
1858.222846779565
 20
1294.092880695463
 10
1858.679816819005
 20
1294.219361111686
 10
1859.146838404573
 20
1294.332948603904
 10
1859.622820785714
 20
1294.433377883266
 10
1860.106652283524
 20
1294.520414392535
 10
1860.59720288712
 20
1294.593854853913
 10
1861.093326892836
 20
1294.653527743798
 10
1861.593865580073
 20
1294.699293693391
 10
1862.09764991753
 20
1294.731045814197
 10
1862.603503293547
 20
1294.748709947665
 10
1863.110244264123
 20
1294.752244838395
 10
1863.616689312242
 20
1294.741642230483
 10
1864.121655612029
 20
1294.716926886814
 10
1864.623963791291
 20
1294.678156531216
 10
1865.122440686002
 20
1294.625421713653
 10
1865.615922080278
 20
1294.558845598734
 10
1866.103255425455
 20
1294.47858367806
 10
1866.583302531927
 20
1294.384823407065
 10
1867.054942227431
 20
1294.277783767207
 10
1867.517072975607
 20
1294.157714754526
 10
1867.968615448678
 20
1294.024896795763
 10
1868.408515048277
 20
1293.879640093414
 10
1868.835744368505
 20
1293.72228390124
 10
1869.249305595489
 20
1293.553195731918
 10
1869.648232837822
 20
1293.372770498702
 10
1870.031594382444
 20
1293.181429593084
 10
1870.398494870705
 20
1292.979619900616
  0
LWPOLYLINE
  5
380
330
35B
100
AcDbEntity
  8
0
  6
Continuous
 62
     7
370
    15
100
AcDbPolyline
 90
       70
 70
   128
 43
0.0
 10
1874.233540523625
 20
1286.916341221218
 10
1874.233350138274
 20
1286.878558041954
 10
1874.218122789613
 20
1286.576446046276
 10
1874.178563837448
 20
1286.27507018786
 10
1874.11475895766
 20
1285.975083179706
 10
1874.026846337411
 20
1285.677134726873
 10
1873.915016375859
 20
1285.381870119364
 10
1873.779511271801
 20
1285.08992883457
 10
1873.620624499117
 20
1284.801943152305
 10
1873.438700171176
 20
1284.51853678543
 10
1873.234132295563
 20
1284.240323529027
 10
1873.007363920743
 20
1283.967905931057
 10
1872.758886176521
 20
1283.701873987377
 10
1872.48923721036
 20
1283.442803863937
 10
1872.199001021876
 20
1283.191256648936
 10
1871.888806198024
 20
1282.947777137628
 10
1871.559324551719
 20
1282.712892652417
 10
1871.21126966684
 20
1282.487111900794
 10
1870.845395352763
 20
1282.270923873592
 10
1870.462494011781
 20
1282.064796785937
 10
1870.063394922935
 20
1281.869177063201
 10
1869.648962445981
 20
1281.684488374143
 10
1869.22009414938
 20
1281.511130713339
 10
1868.777718866363
 20
1281.349479534879
 10
1868.322794683285
 20
1281.199884939218
 10
1867.856306864628
 20
1281.062670914941
 10
1867.379265719129
 20
1280.93813463707
 10
1866.892704411683
 20
1280.82654582345
 10
1866.397676725737
 20
1280.728146150604
 10
1865.895254781028
 20
1280.643148730312
 10
1865.386526711608
 20
1280.57173764806
 10
1864.872594309195
 20
1280.514067564349
 10
1864.354570636933
 20
1280.47026337974
 10
1863.833577618741
 20
1280.440419964341
 10
1863.310743609484
 20
1280.424601952346
 10
1862.787200951205
 20
1280.422843602046
 10
1862.264083520719
 20
1280.435148721636
 10
1861.742524273895
 20
1280.461490660968
 10
1861.223652791922
 20
1280.501812369266
 10
1860.708592834889
 20
1280.556026518689
 10
1860.198459907971
 20
1280.624015693462
 10
1859.694358845494
 20
1280.705632644171
 10
1859.197381418105
 20
1280.800700606676
 10
1858.708603968249
 20
1280.909013684939
 10
1858.229085079042
 20
1281.030337296952
 10
1857.759863281619
 20
1281.164408682786
 10
1857.301954805909
 20
1281.310937473676
 10
1856.856351379705
 20
1281.469606320888
 10
1856.424018080803
 20
1281.640071583031
 10
1856.005891246856
 20
1281.821964070307
 10
1855.602876447481
 20
1282.01488984409
 10
1855.21584652299
 20
1282.218431070116
 10
1854.845639694018
 20
1282.432146923412
 10
1854.493057746118
 20
1282.65557454303
 10
1854.158864293279
 20
1282.888230034498
 10
1853.843783124102
 20
1283.129609517828
 10
1853.548496634238
 20
1283.37919021881
 10
1853.273644348471
 20
1283.636431601221
 10
1853.019821535648
 20
1283.900776537508
 10
1852.787577919462
 20
1284.171652515402
 10
1852.57741648787
 20
1284.448472877855
 10
1852.389792403733
 20
1284.730638093601
 10
1852.22511201904
 20
1285.017537055616
 10
1852.083731994833
 20
1285.308548404634
 10
1851.965958528762
 20
1285.603041874874
 10
1851.872046691929
 20
1285.900379659056
 10
1851.802199876461
 20
1286.199917789751
 10
1851.756569355007
 20
1286.501007534067
 10
1851.735253953115
 20
1286.802996798664
 10
1851.733540523625
 20
1286.916341221218
  0
SPLINE
  5
381
330
35B
100
AcDbEntity
  8
0
  6
Continuous
 62
     7
370
    15
100
AcDbSpline
210
0.0
220
0.0
230
1.0
 70
     8
 71
     3
 72
    35
 73
    31
 74
     0
 42
0.0000000001
 43
0.0000000001
 40
0.0
 40
0.0
 40
0.0
 40
0.0
 40
0.0256375123833525
 40
0.0514783050580974
 40
0.0773190956877126
 40
0.1033691122632759
 40
0.1410181591376139
 40
0.1789285973739632
 40
0.2176635082336439
 40
0.2566833302227093
 40
0.2943318094088258
 40
0.3322416824542519
 40
0.3709780054839384
 40
0.4100023158426025
 40
0.4474663717974711
 40
0.485203229923466
 40
0.5238027833815769
 40
0.5627010277835819
 40
0.5994185423157946
 40
0.6361360586000227
 40
0.6737821111541394
 40
0.7117050421498976
 40
0.748427666895389
 40
0.7851488608059471
 40
0.8228499527303309
 40
0.8608462187859256
 40
0.8967632703373299
 40
0.9326803204580969
 40
0.9691144019090486
 40
1.0
 40
1.0
 40
1.0
 40
1.0
 10
1853.747069633295
 20
1277.978134795817
 30
0.0
 10
1853.746337250625
 20
1277.879357032548
 30
0.0
 10
1853.74486667821
 20
1277.68101829537
 30
0.0
 10
1853.779081261474
 20
1277.383609308254
 30
0.0
 10
1853.840855891189
 20
1277.086193774089
 30
0.0
 10
1853.9463727516
 20
1276.746524542207
 30
0.0
 10
1854.112491045981
 20
1276.366583694021
 30
0.0
 10
1854.360235476079
 20
1275.949675365285
 30
0.0
 10
1854.671621763692
 20
1275.541425405261
 30
0.0
 10
1855.041475371677
 20
1275.150909146995
 30
0.0
 10
1855.463922514005
 20
1274.782460699801
 30
0.0
 10
1855.936756039919
 20
1274.43638871314
 30
0.0
 10
1856.464667532416
 20
1274.110631074406
 30
0.0
 10
1857.03680977126
 20
1273.813299463318
 30
0.0
 10
1857.646162468813
 20
1273.548138767014
 30
0.0
 10
1858.289917961583
 20
1273.314672916927
 30
0.0
 10
1858.974757151889
 20
1273.111633768808
 30
0.0
 10
1859.681485214038
 20
1272.94547202909
 30
0.0
 10
1860.398149951991
 20
1272.817064672019
 30
0.0
 10
1861.122600538245
 20
1272.724365546475
 30
0.0
 10
1861.866039814049
 20
1272.666637453584
 30
0.0
 10
1862.615347490334
 20
1272.645717763062
 30
0.0
 10
1863.358809044753
 20
1272.661439484864
 30
0.0
 10
1864.09585061522
 20
1272.713372957922
 30
0.0
 10
1864.830632323383
 20
1272.803237034984
 30
0.0
 10
1865.543677591715
 20
1272.929207524628
 30
0.0
 10
1866.224353923701
 20
1273.087428782652
 30
0.0
 10
1866.869433527644
 20
1273.275909754391
 30
0.0
 10
1867.459924154215
 20
1273.482214343856
 30
0.0
 10
1867.816753217691
 20
1273.639957720534
 30
0.0
 10
1867.980462835987
 20
1273.712328809742
 30
0.0
  0
LINE
  5
382
330
35B
100
AcDbEntity
  8
0
  6
Continuous
 62
     7
370
    15
100
AcDbLine
 10
1853.747069633295
 20
1277.978134795817
 30
0.0
 11
1853.771791662838
 21
1278.126506429537
 31
0.0
  0
SPLINE
  5
383
330
35B
100
AcDbEntity
  8
0
  6
Continuous
 62
     7
370
    15
100
AcDbSpline
210
0.0
220
0.0
230
1.0
 70
     8
 71
     3
 72
    46
 73
    42
 74
     0
 42
0.0000000001
 43
0.0000000001
 40
0.0
 40
0.0
 40
0.0
 40
0.0
 40
0.0018737281967429
 40
0.027451110651114
 40
0.0534966727798237
 40
0.0798943145010141
 40
0.1065482569554679
 40
0.1333568659736295
 40
0.1602148912535312
 40
0.1865387437703616
 40
0.2127080274113656
 40
0.2386266477961375
 40
0.2642040302505082
 40
0.2902495923792183
 40
0.3166472341004087
 40
0.3433011765548625
 40
0.370109785573024
 40
0.3969678108529255
 40
0.423291663369756
 40
0.4494609470107598
 40
0.4753795673955316
 40
0.5009569498499023
 40
0.5270025119786123
 40
0.5534001536998027
 40
0.5800540961542563
 40
0.6068627051724179
 40
0.6337207304523195
 40
0.66004458296915
 40
0.6862138666101538
 40
0.7121324869949257
 40
0.7377098694492963
 40
0.7637554315780059
 40
0.7901530732991958
 40
0.816807015753649
 40
0.8436156247718102
 40
0.8704736500517132
 40
0.896797502568544
 40
0.9229667862095482
 40
0.9488854065943206
 40
0.9744627890486903
 40
1.0
 40
1.0
 40
1.0
 40
1.0
 10
1872.192934305021
 20
1278.760055135255
 30
0.0
 10
1872.195427153558
 20
1278.749488068545
 30
0.0
 10
1872.231948705153
 20
1278.594674943567
 30
0.0
 10
1872.240215919238
 20
1278.2887219425
 30
0.0
 10
1872.211620788414
 20
1277.844560339059
 30
0.0
 10
1872.104870483647
 20
1277.397837211363
 30
0.0
 10
1871.928320342343
 20
1276.954442677639
 30
0.0
 10
1871.679786482633
 20
1276.519586518882
 30
0.0
 10
1871.363994555443
 20
1276.101067433931
 30
0.0
 10
1870.985887632246
 20
1275.703460055412
 30
0.0
 10
1870.551895776457
 20
1275.330656073329
 30
0.0
 10
1870.065919176734
 20
1274.983972938468
 30
0.0
 10
1869.528890893432
 20
1274.66247105359
 30
0.0
 10
1868.94018443198
 20
1274.36689417319
 30
0.0
 10
1868.298051425607
 20
1274.098977456301
 30
0.0
 10
1867.608438391201
 20
1273.862772793966
 30
0.0
 10
1866.878441079717
 20
1273.661883767464
 30
0.0
 10
1866.120789869178
 20
1273.500052093142
 30
0.0
 10
1865.344981285396
 20
1273.378368070798
 30
0.0
 10
1864.560545336858
 20
1273.296915397134
 30
0.0
 10
1863.771897051115
 20
1273.255020978032
 30
0.0
 10
1862.978754119943
 20
1273.251590191182
 30
0.0
 10
1862.180696523273
 20
1273.287616879758
 30
0.0
 10
1861.377718193198
 20
1273.365255765204
 30
0.0
 10
1860.579447619227
 20
1273.484834425553
 30
0.0
 10
1859.79549053808
 20
1273.645962778731
 30
0.0
 10
1859.039833679034
 20
1273.845993934928
 30
0.0
 10
1858.320773220308
 20
1274.08176359548
 30
0.0
 10
1857.645407329208
 20
1274.349379321663
 30
0.0
 10
1857.01606623621
 20
1274.64655508809
 30
0.0
 10
1856.431421212321
 20
1274.972581513504
 30
0.0
 10
1855.89150364619
 20
1275.328545336166
 30
0.0
 10
1855.398054233633
 20
1275.716186624221
 30
0.0
 10
1854.95874062507
 20
1276.131696596569
 30
0.0
 10
1854.580061099144
 20
1276.57083625548
 30
0.0
 10
1854.269030201152
 20
1277.02592984399
 30
0.0
 10
1854.028013874058
 20
1277.491289421447
 30
0.0
 10
1853.857043034987
 20
1277.961222695228
 30
0.0
 10
1853.756754132244
 20
1278.433084219557
 30
0.0
 10
1853.719315123423
 20
1278.904014585537
 30
0.0
 10
1853.75136309538
 20
1279.216005577962
 30
0.0
 10
1853.767374487938
 20
1279.371878475653
 30
0.0
  0
SPLINE
  5
384
330
35B
100
AcDbEntity
  8
0
  6
Continuous
 62
     7
370
    15
100
AcDbSpline
210
0.0
220
0.0
230
1.0
 70
     8
 71
     3
 72
    46
 73
    42
 74
     0
 42
0.0000000001
 43
0.0000000001
 40
0.0
 40
0.0
 40
0.0
 40
0.0
 40
0.0018737281967453
 40
0.0274511106511141
 40
0.0534966727798237
 40
0.0798943145010136
 40
0.1065482569554669
 40
0.1333568659736279
 40
0.1602148912535309
 40
0.1865387437703618
 40
0.2127080274113661
 40
0.2386266477961385
 40
0.2642040302505081
 40
0.2902495923792187
 40
0.3166472341004096
 40
0.3433011765548639
 40
0.3701097855730259
 40
0.396967810852926
 40
0.4232916633697569
 40
0.4494609470107612
 40
0.4753795673955336
 40
0.5009569498499022
 40
0.5270025119786118
 40
0.5534001536998017
 40
0.5800540961542549
 40
0.606862705172416
 40
0.633720730452319
 40
0.6600445829691499
 40
0.6862138666101542
 40
0.7121324869949265
 40
0.7377098694492962
 40
0.7637554315780069
 40
0.7901530732991978
 40
0.8168070157536519
 40
0.8436156247718139
 40
0.8704736500517141
 40
0.8967975025685451
 40
0.9229667862095492
 40
0.9488854065943217
 40
0.9744627890486903
 40
1.0
 40
1.0
 40
1.0
 40
1.0
 10
1872.192934305021
 20
1279.984866353083
 30
0.0
 10
1872.195427153558
 20
1279.974299286374
 30
0.0
 10
1872.231948705153
 20
1279.819486161396
 30
0.0
 10
1872.240215919238
 20
1279.513533160328
 30
0.0
 10
1872.211620788414
 20
1279.069371556888
 30
0.0
 10
1872.104870483647
 20
1278.622648429192
 30
0.0
 10
1871.928320342343
 20
1278.179253895468
 30
0.0
 10
1871.679786482633
 20
1277.744397736711
 30
0.0
 10
1871.363994555443
 20
1277.32587865176
 30
0.0
 10
1870.985887632246
 20
1276.928271273241
 30
0.0
 10
1870.551895776457
 20
1276.555467291158
 30
0.0
 10
1870.065919176734
 20
1276.208784156297
 30
0.0
 10
1869.528890893432
 20
1275.887282271419
 30
0.0
 10
1868.94018443198
 20
1275.591705391018
 30
0.0
 10
1868.298051425607
 20
1275.323788674129
 30
0.0
 10
1867.608438391201
 20
1275.087584011795
 30
0.0
 10
1866.878441079717
 20
1274.886694985292
 30
0.0
 10
1866.120789869178
 20
1274.72486331097
 30
0.0
 10
1865.344981285396
 20
1274.603179288626
 30
0.0
 10
1864.560545336858
 20
1274.521726614963
 30
0.0
 10
1863.771897051115
 20
1274.479832195861
 30
0.0
 10
1862.978754119943
 20
1274.476401409011
 30
0.0
 10
1862.180696523273
 20
1274.512428097587
 30
0.0
 10
1861.377718193198
 20
1274.590066983033
 30
0.0
 10
1860.579447619227
 20
1274.709645643382
 30
0.0
 10
1859.79549053808
 20
1274.87077399656
 30
0.0
 10
1859.039833679034
 20
1275.070805152756
 30
0.0
 10
1858.320773220308
 20
1275.306574813308
 30
0.0
 10
1857.645407329208
 20
1275.574190539492
 30
0.0
 10
1857.01606623621
 20
1275.871366305918
 30
0.0
 10
1856.431421212321
 20
1276.197392731332
 30
0.0
 10
1855.89150364619
 20
1276.553356553995
 30
0.0
 10
1855.398054233633
 20
1276.94099784205
 30
0.0
 10
1854.958740625069
 20
1277.356507814398
 30
0.0
 10
1854.580061099143
 20
1277.795647473309
 30
0.0
 10
1854.269030201152
 20
1278.250741061819
 30
0.0
 10
1854.028013874058
 20
1278.716100639275
 30
0.0
 10
1853.857043034987
 20
1279.186033913057
 30
0.0
 10
1853.756754132244
 20
1279.657895437386
 30
0.0
 10
1853.719315123423
 20
1280.128825803366
 30
0.0
 10
1853.75136309538
 20
1280.44081679579
 30
0.0
 10
1853.767374487938
 20
1280.596689693482
 30
0.0
  0
SPLINE
  5
385
330
35B
100
AcDbEntity
  8
0
  6
Continuous
 62
     7
370
    15
100
AcDbSpline
210
0.0
220
0.0
230
1.0
 70
     8
 71
     3
 72
    46
 73
    42
 74
     0
 42
0.0000000001
 43
0.0000000001
 40
0.0
 40
0.0
 40
0.0
 40
0.0
 40
0.0018737281967434
 40
0.027451110651114
 40
0.0534966727798237
 40
0.0798943145010147
 40
0.106548256955469
 40
0.1333568659736311
 40
0.1602148912535314
 40
0.1865387437703624
 40
0.2127080274113668
 40
0.2386266477961392
 40
0.264204030250508
 40
0.2902495923792177
 40
0.3166472341004076
 40
0.3433011765548609
 40
0.370109785573022
 40
0.3969678108529249
 40
0.4232916633697558
 40
0.4494609470107602
 40
0.4753795673955325
 40
0.5009569498499022
 40
0.5270025119786127
 40
0.5534001536998035
 40
0.5800540961542577
 40
0.6068627051724197
 40
0.6337207304523198
 40
0.6600445829691508
 40
0.6862138666101551
 40
0.7121324869949275
 40
0.7377098694492962
 40
0.7637554315780069
 40
0.7901530732991979
 40
0.8168070157536519
 40
0.8436156247718141
 40
0.8704736500517142
 40
0.896797502568544
 40
0.9229667862095483
 40
0.9488854065943206
 40
0.9744627890486903
 40
1.0
 40
1.0
 40
1.0
 40
1.0
 10
1872.192934305021
 20
1281.209677570912
 30
0.0
 10
1872.195427153558
 20
1281.199110504203
 30
0.0
 10
1872.231948705153
 20
1281.044297379225
 30
0.0
 10
1872.240215919238
 20
1280.738344378157
 30
0.0
 10
1872.211620788414
 20
1280.294182774717
 30
0.0
 10
1872.104870483647
 20
1279.847459647021
 30
0.0
 10
1871.928320342343
 20
1279.404065113297
 30
0.0
 10
1871.679786482633
 20
1278.96920895454
 30
0.0
 10
1871.363994555443
 20
1278.550689869588
 30
0.0
 10
1870.985887632246
 20
1278.153082491069
 30
0.0
 10
1870.551895776457
 20
1277.780278508986
 30
0.0
 10
1870.065919176734
 20
1277.433595374125
 30
0.0
 10
1869.528890893432
 20
1277.112093489247
 30
0.0
 10
1868.94018443198
 20
1276.816516608847
 30
0.0
 10
1868.298051425607
 20
1276.548599891958
 30
0.0
 10
1867.608438391201
 20
1276.312395229624
 30
0.0
 10
1866.878441079717
 20
1276.111506203121
 30
0.0
 10
1866.120789869178
 20
1275.949674528799
 30
0.0
 10
1865.344981285396
 20
1275.827990506455
 30
0.0
 10
1864.560545336858
 20
1275.746537832792
 30
0.0
 10
1863.771897051115
 20
1275.70464341369
 30
0.0
 10
1862.978754119943
 20
1275.701212626839
 30
0.0
 10
1862.180696523273
 20
1275.737239315416
 30
0.0
 10
1861.377718193198
 20
1275.814878200862
 30
0.0
 10
1860.579447619227
 20
1275.93445686121
 30
0.0
 10
1859.79549053808
 20
1276.095585214388
 30
0.0
 10
1859.039833679034
 20
1276.295616370585
 30
0.0
 10
1858.320773220308
 20
1276.531386031137
 30
0.0
 10
1857.645407329208
 20
1276.79900175732
 30
0.0
 10
1857.01606623621
 20
1277.096177523747
 30
0.0
 10
1856.431421212321
 20
1277.422203949161
 30
0.0
 10
1855.89150364619
 20
1277.778167771823
 30
0.0
 10
1855.398054233633
 20
1278.165809059878
 30
0.0
 10
1854.958740625069
 20
1278.581319032226
 30
0.0
 10
1854.580061099143
 20
1279.020458691138
 30
0.0
 10
1854.269030201152
 20
1279.475552279647
 30
0.0
 10
1854.028013874058
 20
1279.940911857104
 30
0.0
 10
1853.857043034987
 20
1280.410845130885
 30
0.0
 10
1853.756754132244
 20
1280.882706655214
 30
0.0
 10
1853.719315123423
 20
1281.353637021194
 30
0.0
 10
1853.75136309538
 20
1281.665628013619
 30
0.0
 10
1853.767374487938
 20
1281.82150091131
 30
0.0
  0
SPLINE
  5
386
330
35B
100
AcDbEntity
  8
0
  6
Continuous
 62
     7
370
    15
100
AcDbSpline
210
0.0
220
0.0
230
1.0
 70
     8
 71
     3
 72
    46
 73
    42
 74
     0
 42
0.0000000001
 43
0.0000000001
 40
0.0
 40
0.0
 40
0.0
 40
0.0
 40
0.0018737281967453
 40
0.0274511106511141
 40
0.0534966727798236
 40
0.0798943145010134
 40
0.1065482569554666
 40
0.1333568659736275
 40
0.1602148912535323
 40
0.1865387437703631
 40
0.2127080274113673
 40
0.2386266477961395
 40
0.2642040302505082
 40
0.2902495923792179
 40
0.316647234100408
 40
0.3433011765548613
 40
0.3701097855730225
 40
0.3969678108529256
 40
0.4232916633697565
 40
0.449460947010761
 40
0.4753795673955334
 40
0.5009569498499023
 40
0.5270025119786118
 40
0.5534001536998016
 40
0.5800540961542547
 40
0.6068627051724156
 40
0.6337207304523204
 40
0.6600445829691512
 40
0.6862138666101553
 40
0.7121324869949275
 40
0.7377098694492962
 40
0.7637554315780059
 40
0.790153073299196
 40
0.8168070157536494
 40
0.8436156247718106
 40
0.8704736500517135
 40
0.8967975025685445
 40
0.9229667862095489
 40
0.9488854065943215
 40
0.9744627890486901
 40
0.9999999999999998
 40
0.9999999999999998
 40
0.9999999999999998
 40
0.9999999999999998
 10
1872.192934305021
 20
1282.434488788741
 30
0.0
 10
1872.195427153558
 20
1282.423921722031
 30
0.0
 10
1872.231948705153
 20
1282.269108597053
 30
0.0
 10
1872.240215919238
 20
1281.963155595986
 30
0.0
 10
1872.211620788414
 20
1281.518993992545
 30
0.0
 10
1872.104870483647
 20
1281.072270864849
 30
0.0
 10
1871.928320342343
 20
1280.628876331125
 30
0.0
 10
1871.679786482633
 20
1280.194020172368
 30
0.0
 10
1871.363994555443
 20
1279.775501087417
 30
0.0
 10
1870.985887632246
 20
1279.377893708898
 30
0.0
 10
1870.551895776457
 20
1279.005089726815
 30
0.0
 10
1870.065919176734
 20
1278.658406591954
 30
0.0
 10
1869.528890893432
 20
1278.336904707076
 30
0.0
 10
1868.94018443198
 20
1278.041327826676
 30
0.0
 10
1868.298051425607
 20
1277.773411109787
 30
0.0
 10
1867.608438391201
 20
1277.537206447452
 30
0.0
 10
1866.878441079717
 20
1277.336317420949
 30
0.0
 10
1866.120789869178
 20
1277.174485746628
 30
0.0
 10
1865.344981285396
 20
1277.052801724284
 30
0.0
 10
1864.560545336858
 20
1276.97134905062
 30
0.0
 10
1863.771897051115
 20
1276.929454631518
 30
0.0
 10
1862.978754119943
 20
1276.926023844668
 30
0.0
 10
1862.180696523273
 20
1276.962050533244
 30
0.0
 10
1861.377718193198
 20
1277.03968941869
 30
0.0
 10
1860.579447619227
 20
1277.159268079039
 30
0.0
 10
1859.79549053808
 20
1277.320396432217
 30
0.0
 10
1859.039833679034
 20
1277.520427588414
 30
0.0
 10
1858.320773220308
 20
1277.756197248965
 30
0.0
 10
1857.645407329208
 20
1278.023812975149
 30
0.0
 10
1857.01606623621
 20
1278.320988741575
 30
0.0
 10
1856.431421212321
 20
1278.64701516699
 30
0.0
 10
1855.89150364619
 20
1279.002978989652
 30
0.0
 10
1855.398054233633
 20
1279.390620277707
 30
0.0
 10
1854.95874062507
 20
1279.806130250055
 30
0.0
 10
1854.580061099144
 20
1280.245269908966
 30
0.0
 10
1854.269030201152
 20
1280.700363497476
 30
0.0
 10
1854.028013874058
 20
1281.165723074933
 30
0.0
 10
1853.857043034987
 20
1281.635656348714
 30
0.0
 10
1853.756754132244
 20
1282.107517873043
 30
0.0
 10
1853.719315123423
 20
1282.578448239023
 30
0.0
 10
1853.75136309538
 20
1282.890439231448
 30
0.0
 10
1853.767374487938
 20
1283.046312129139
 30
0.0
  0
SPLINE
  5
387
330
35B
100
AcDbEntity
  8
0
  6
Continuous
 62
     7
370
    15
100
AcDbSpline
210
0.0
220
0.0
230
1.0
 70
     8
 71
     3
 72
    43
 73
    39
 74
     0
 42
0.0000000001
 43
0.0000000001
 40
0.0
 40
0.0
 40
0.0
 40
0.0
 40
0.0018267440876265
 40
0.0303125637817453
 40
0.0591834500657042
 40
0.0883346503793289
 40
0.117655008257099
 40
0.1470294122988559
 40
0.1758195959295046
 40
0.2044407288364499
 40
0.2327877133765571
 40
0.2607614887645549
 40
0.2892473084586734
 40
0.3181181947426321
 40
0.3472693950562566
 40
0.3765897529340265
 40
0.4059641569757832
 40
0.4347543406064317
 40
0.4633754735133767
 40
0.4917224580534838
 40
0.5196962334414833
 40
0.5481820531355999
 40
0.5770529394195588
 40
0.6062041397331836
 40
0.6355244976109536
 40
0.6648989016527106
 40
0.6936890852833592
 40
0.7223102181903044
 40
0.7506572027304119
 40
0.7786309781184116
 40
0.8071167978125298
 40
0.8359876840964886
 40
0.8651388844101132
 40
0.894459242287883
 40
0.9238336463296395
 40
0.952623829960288
 40
0.9812449628672331
 40
1.0
 40
1.0
 40
1.0
 40
1.0
 10
1872.231367398855
 20
1283.219488380007
 30
0.0
 10
1872.232131420722
 20
1283.209984982405
 30
0.0
 10
1872.244809420748
 20
1283.052287827161
 30
0.0
 10
1872.205618641295
 20
1282.743615851304
 30
0.0
 10
1872.106505039091
 20
1282.297133650541
 30
0.0
 10
1871.927877741912
 20
1281.85367358555
 30
0.0
 10
1871.67990569244
 20
1281.418835151094
 30
0.0
 10
1871.363963288359
 20
1281.000311318814
 30
0.0
 10
1870.985895887557
 20
1280.60270518717
 30
0.0
 10
1870.551893592613
 20
1280.229900875746
 30
0.0
 10
1870.065919750603
 20
1279.883217827887
 30
0.0
 10
1869.528890737479
 20
1279.561715919985
 30
0.0
 10
1868.940184474706
 20
1279.266139045852
 30
0.0
 10
1868.298051413972
 20
1278.998222327248
 30
0.0
 10
1867.608438394351
 20
1278.76201766538
 30
0.0
 10
1866.878441078869
 20
1278.561128638751
 30
0.0
 10
1866.120789869401
 20
1278.399296964463
 30
0.0
 10
1865.344981285337
 20
1278.27761294211
 30
0.0
 10
1864.560545336874
 20
1278.196160268449
 30
0.0
 10
1863.771897051112
 20
1278.154265849347
 30
0.0
 10
1862.97875411994
 20
1278.150835062496
 30
0.0
 10
1862.180696523288
 20
1278.186861751074
 30
0.0
 10
1861.377718193137
 20
1278.264500636515
 30
0.0
 10
1860.579447619456
 20
1278.384079296883
 30
0.0
 10
1859.795490537219
 20
1278.545207649988
 30
0.0
 10
1859.039833682228
 20
1278.745238806454
 30
0.0
 10
1858.320773208681
 20
1278.981008466022
 30
0.0
 10
1857.645407372168
 20
1279.248624195828
 30
0.0
 10
1857.016066078433
 20
1279.545799948934
 30
0.0
 10
1856.43142179721
 20
1279.871826423631
 30
0.0
 10
1855.891501405023
 20
1280.227790058758
 30
0.0
 10
1855.39806275373
 20
1280.615432060925
 30
0.0
 10
1854.958708420674
 20
1281.030939330814
 30
0.0
 10
1854.580182115175
 20
1281.470089157364
 30
0.0
 10
1854.268581539528
 20
1281.92514494232
 30
0.0
 10
1854.029647092301
 20
1282.390642672392
 30
0.0
 10
1853.870988640645
 20
1282.807562619847
 30
0.0
 10
1853.820934301082
 20
1283.070961863122
 30
0.0
 10
1853.801119043826
 20
1283.175235015305
 30
0.0
  0
SPLINE
  5
388
330
35B
100
AcDbEntity
  8
0
  6
Continuous
 62
     7
370
    15
100
AcDbSpline
210
0.0
220
0.0
230
1.0
 70
     8
 71
     3
 72
    35
 73
    31
 74
     0
 42
0.0000000001
 43
0.0000000001
 40
0.0
 40
0.0
 40
0.0
 40
0.0
 40
0.022332496728261
 40
0.0600199062666249
 40
0.0969577600399491
 40
0.1336787214518857
 40
0.1700479500504312
 40
0.2059383506823242
 40
0.2424857050157797
 40
0.2795271004283425
 40
0.3169281392100218
 40
0.3545462074295544
 40
0.3922336169679213
 40
0.4291714707412457
 40
0.4658924321531826
 40
0.5022616607517283
 40
0.5381520613836189
 40
0.5746994157170741
 40
0.6117408111296366
 40
0.6491418499113154
 40
0.6867599181308477
 40
0.7244473276692143
 40
0.7613851814425385
 40
0.7981061428544751
 40
0.8344753714530204
 40
0.8703657720849133
 40
0.9069131264183688
 40
0.9439545218309318
 40
0.981355560612611
 40
0.9999999999999998
 40
0.9999999999999998
 40
0.9999999999999998
 40
0.9999999999999998
 10
1871.81598221543
 20
1282.904499088633
 30
0.0
 10
1871.76901872156
 20
1282.818007567077
 30
0.0
 10
1871.642801553173
 20
1282.585556485597
 30
0.0
 10
1871.362087700251
 20
1282.225469132422
 30
0.0
 10
1870.986391090909
 20
1281.827424894826
 30
0.0
 10
1870.55176259249
 20
1281.454736301496
 30
0.0
 10
1870.065954174723
 20
1281.108022684376
 30
0.0
 10
1869.528881382451
 20
1280.786528866558
 30
0.0
 10
1868.940187037727
 20
1280.490949790052
 30
0.0
 10
1868.298050715988
 20
1280.22303367406
 30
0.0
 10
1867.608438583349
 20
1279.986828848283
 30
0.0
 10
1866.878441027965
 20
1279.785939865987
 30
0.0
 10
1866.120789882747
 20
1279.624108179823
 30
0.0
 10
1865.344981281832
 20
1279.502424160597
 30
0.0
 10
1864.560545337731
 20
1279.420971486083
 30
0.0
 10
1863.771897051143
 20
1279.379077067304
 30
0.0
 10
1862.978754118984
 20
1279.375646280003
 30
0.0
 10
1862.180696527187
 20
1279.411672970091
 30
0.0
 10
1861.37771817825
 20
1279.489311849834
 30
0.0
 10
1860.579447675745
 20
1279.608890531754
 30
0.0
 10
1859.795490325693
 20
1279.770018803774
 30
0.0
 10
1859.039834466453
 20
1279.970050261719
 30
0.0
 10
1858.320770353945
 20
1280.205818819534
 30
0.0
 10
1857.645417920726
 20
1280.4734386074
 30
0.0
 10
1857.01602733736
 20
1280.770599437288
 30
0.0
 10
1856.431565412161
 20
1281.096681123166
 30
0.0
 10
1855.89095110362
 20
1281.452434664103
 30
0.0
 10
1855.400154798494
 20
1281.84087667851
 30
0.0
 10
1855.026883656675
 20
1282.183517021818
 30
0.0
 10
1854.843397202634
 20
1282.403069174874
 30
0.0
 10
1854.782357450945
 20
1282.476106767625
 30
0.0
  0
SPLINE
  5
389
330
35B
100
AcDbEntity
  8
0
  6
Continuous
 62
     7
370
    15
100
AcDbSpline
210
0.0
220
0.0
230
1.0
 70
     8
 71
     3
 72
    14
 73
    10
 74
     0
 42
0.0000000001
 43
0.0000000001
 40
0.0
 40
0.0
 40
0.0
 40
0.0
 40
0.0895101673336052
 40
0.2526891357934426
 40
0.4143046830586834
 40
0.5737919075796276
 40
0.7361984620318458
 40
0.9008009598810254
 40
1.0
 40
1.0
 40
1.0
 40
1.0
 10
1865.525230093136
 20
1273.127099816247
 30
0.0
 10
1865.397447511708
 20
1273.106259790612
 30
0.0
 10
1865.036714524245
 20
1273.047427948102
 30
0.0
 10
1864.42611152359
 20
1272.989728548616
 30
0.0
 10
1863.705161153336
 20
1272.951565172494
 30
0.0
 10
1862.97901704308
 20
1272.949801907293
 30
0.0
 10
1862.249243892851
 20
1272.985310848569
 30
0.0
 10
1861.61260534615
 20
1273.043800527557
 30
0.0
 10
1861.227199659353
 20
1273.105703203449
 30
0.0
 10
1861.082273005471
 20
1273.128980876796
 30
0.0
  0
SPLINE
  5
38A
330
35B
100
AcDbEntity
  8
0
  6
Continuous
 62
     7
370
    15
100
AcDbSpline
210
0.0
220
0.0
230
1.0
 70
     8
 71
     3
 72
    14
 73
    10
 74
     0
 42
0.0000000001
 43
0.0000000001
 40
0.0
 40
0.0
 40
0.0
 40
0.0
 40
0.0894392101011039
 40
0.2525455387008355
 40
0.414089142070027
 40
0.5735053701274774
 40
0.7358396285632002
 40
0.9003688528616921
 40
1.0
 40
1.0
 40
1.0
 40
1.0
 10
1865.525096282566
 20
1274.351890325558
 30
0.0
 10
1865.397358029711
 20
1274.331057753692
 30
0.0
 10
1865.036669179222
 20
1274.27223374263
 30
0.0
 10
1864.426111383371
 20
1274.214540220533
 30
0.0
 10
1863.705161075857
 20
1274.176375930984
 30
0.0
 10
1862.979017487141
 20
1274.174614508012
 30
0.0
 10
1862.249242147159
 20
1274.210116857491
 30
0.0
 10
1861.611899134319
 20
1274.268693541427
 30
0.0
 10
1861.225800394706
 20
1274.330717143751
 30
0.0
 10
1861.080178778084
 20
1274.354110064558
 30
0.0
  0
SPLINE
  5
38B
330
35B
100
AcDbEntity
  8
0
  6
Continuous
 62
     7
370
    15
100
AcDbSpline
210
0.0
220
0.0
230
1.0
 70
     8
 71
     3
 72
    14
 73
    10
 74
     0
 42
0.0000000001
 43
0.0000000001
 40
0.0
 40
0.0
 40
0.0
 40
0.0
 40
0.0896198216086424
 40
0.2527398602270466
 40
0.4142970422589278
 40
0.573726670161006
 40
0.736074573718488
 40
0.9006176276381582
 40
1.0
 40
1.0
 40
1.0
 40
1.0
 10
1865.525840698755
 20
1275.576816749202
 30
0.0
 10
1865.397855831773
 20
1275.555942692771
 30
0.0
 10
1865.036921422266
 20
1275.497075067173
 30
0.0
 10
1864.426112334027
 20
1275.439349422488
 30
0.0
 10
1863.705160887698
 20
1275.401187861971
 30
0.0
 10
1862.979017310163
 20
1275.399424853335
 30
0.0
 10
1862.24924307143
 20
1275.434930920069
 30
0.0
 10
1861.612280408966
 20
1275.493460596125
 30
0.0
 10
1861.226555834946
 20
1275.55541891629
 30
0.0
 10
1861.081309415211
 20
1275.578749615921
 30
0.0
  0
SPLINE
  5
38C
330
35B
100
AcDbEntity
  8
0
  6
Continuous
 62
     7
370
    15
100
AcDbSpline
210
0.0
220
0.0
230
1.0
 70
     8
 71
     3
 72
    14
 73
    10
 74
     0
 42
0.0000000001
 43
0.0000000001
 40
0.0
 40
0.0
 40
0.0
 40
0.0
 40
0.0891779808753338
 40
0.2523505164512986
 40
0.4139596924662653
 40
0.5734406296402252
 40
0.7358407816588786
 40
0.9004367905054401
 40
0.9999999999999998
 40
0.9999999999999998
 40
0.9999999999999998
 40
0.9999999999999998
 10
1865.523817103839
 20
1276.801314795574
 30
0.0
 10
1865.396502628552
 20
1276.780553506658
 30
0.0
 10
1865.036235741198
 20
1276.721804453039
 30
0.0
 10
1864.426109707075
 20
1276.66416601014
 30
0.0
 10
1863.705161542345
 20
1276.625997562464
 30
0.0
 10
1862.979017264191
 20
1276.62423687669
 30
0.0
 10
1862.249242577498
 20
1276.659740407687
 30
0.0
 10
1861.612059770649
 20
1276.718297382106
 30
0.0
 10
1861.22611868188
 20
1276.780293470857
 30
0.0
 10
1861.080655147747
 20
1276.803660172238
 30
0.0
  0
SPLINE
  5
38D
330
35B
100
AcDbEntity
  8
0
  6
Continuous
 62
     7
370
    15
100
AcDbSpline
210
0.0
220
0.0
230
1.0
 70
     8
 71
     3
 72
    14
 73
    10
 74
     0
 42
0.0000000001
 43
0.0000000001
 40
0.0
 40
0.0
 40
0.0
 40
0.0
 40
0.0896191345387349
 40
0.2527040252647517
 40
0.4142263961569556
 40
0.5736216713488926
 40
0.7359345933879043
 40
0.9004421927944351
 40
1.0
 40
1.0
 40
1.0
 40
1.0
 10
1865.52592080947
 20
1278.02645158279
 30
0.0
 10
1865.397909402545
 20
1278.005573060256
 30
0.0
 10
1865.036948565595
 20
1277.946700736693
 30
0.0
 10
1864.426112452299
 20
1277.888971689124
 30
0.0
 10
1863.705160809388
 20
1277.850810201589
 30
0.0
 10
1862.979017506198
 20
1277.849047834775
 30
0.0
 10
1862.249242346794
 20
1277.884551210992
 30
0.0
 10
1861.611988481036
 20
1277.943116841832
 30
0.0
 10
1861.225977418109
 20
1278.005125150088
 30
0.0
 10
1861.0804437207
 20
1278.028503491377
 30
0.0
  0
SPLINE
  5
38E
330
35B
100
AcDbEntity
  8
0
  6
Continuous
 62
     7
370
    15
100
AcDbSpline
210
0.0
220
0.0
230
1.0
 70
     8
 71
     3
 72
    14
 73
    10
 74
     0
 42
0.0000000001
 43
0.0000000001
 40
0.0
 40
0.0
 40
0.0
 40
0.0
 40
0.0893955433795743
 40
0.2525691724419805
 40
0.4141794314666711
 40
0.573661437388155
 40
0.7360626777171728
 40
0.9006597895894518
 40
1.0
 40
1.0
 40
1.0
 40
1.0
 10
1865.524749888759
 20
1279.251081588983
 30
0.0
 10
1865.39712639259
 20
1279.230268323005
 30
0.0
 10
1865.036551809194
 20
1279.171464615737
 30
0.0
 10
1864.426110908228
 20
1279.113785934866
 30
0.0
 10
1863.70516128035
 20
1279.075620817567
 30
0.0
 10
1862.979017136918
 20
1279.073858499031
 30
0.0
 10
1862.249243374357
 20
1279.109365333741
 30
0.0
 10
1861.612391291707
 20
1279.16788141408
 30
0.0
 10
1861.226775541233
 20
1279.229820740877
 30
0.0
 10
1861.081638243263
 20
1279.253133342912
 30
0.0
  0
SPLINE
  5
38F
330
35B
100
AcDbEntity
  8
0
  6
Continuous
 62
     7
370
    15
100
AcDbSpline
210
0.0
220
0.0
230
1.0
 70
     8
 71
     3
 72
    14
 73
    10
 74
     0
 42
0.0000000001
 43
0.0000000001
 40
0.0
 40
0.0
 40
0.0
 40
0.0
 40
0.0895239775034673
 40
0.2526133268268031
 40
0.4141401135984093
 40
0.5735397465168252
 40
0.7358571060481998
 40
0.9003692029476525
 40
1.0
 40
1.0
 40
1.0
 40
1.0
 10
1865.525500955717
 20
1280.4760090419
 30
0.0
 10
1865.397628640083
 20
1280.455153917855
 30
0.0
 10
1865.036806299947
 20
1280.396306194451
 30
0.0
 10
1864.426111911046
 20
1280.3385952453
 30
0.0
 10
1863.705160934786
 20
1280.300432292698
 30
0.0
 10
1862.979017534395
 20
1280.298670549437
 30
0.0
 10
1862.24924209998
 20
1280.334172858522
 30
0.0
 10
1861.611884274264
 20
1280.392751348728
 30
0.0
 10
1861.225770949022
 20
1280.454777497948
 30
0.0
 10
1861.080134707324
 20
1280.478172845036
 30
0.0
  0
SPLINE
  5
390
330
35B
100
AcDbEntity
  8
0
  6
Continuous
 62
     7
370
    15
100
AcDbSpline
210
0.0
220
0.0
230
1.0
 70
     8
 71
     3
 72
    38
 73
    34
 74
     0
 42
0.0000000001
 43
0.0000000001
 40
0.0
 40
0.0
 40
0.0
 40
0.0
 40
0.0625000000000001
 40
0.0625000000000001
 40
0.125
 40
0.125
 40
0.1875
 40
0.1875
 40
0.25
 40
0.25
 40
0.3125
 40
0.3125
 40
0.3749999999999998
 40
0.3749999999999998
 40
0.4374999999999999
 40
0.4374999999999999
 40
0.5
 40
0.5
 40
0.5625
 40
0.5625
 40
0.625
 40
0.625
 40
0.6875
 40
0.6875
 40
0.75
 40
0.75
 40
0.8125000000000001
 40
0.8125000000000001
 40
0.8750000000000001
 40
0.8750000000000001
 40
0.9375000000000001
 40
0.9375000000000001
 40
1.0
 40
1.0
 40
1.0
 40
1.0
 10
1872.233540523625
 20
1278.005736638087
 30
0.0
 10
1872.233540523625
 20
1277.676941309265
 30
0.0
 10
1872.176577209776
 20
1277.342239611444
 30
0.0
 10
1871.941894951454
 20
1276.680024084469
 30
0.0
 10
1871.764130974111
 20
1276.352635552059
 30
0.0
 10
1871.294721424597
 20
1275.724947928565
 30
0.0
 10
1871.003165918166
 20
1275.424769272078
 30
0.0
 10
1870.326435154917
 20
1274.868256560303
 30
0.0
 10
1869.941450243462
 20
1274.611991518025
 30
0.0
 10
1869.107106255738
 20
1274.153909528245
 30
0.0
 10
1868.641563053282
 20
1273.944149797468
 30
0.0
 10
1867.632941457465
 20
1273.579233585089
 30
0.0
 10
1867.089989723373
 20
1273.424182881695
 30
0.0
 10
1865.95673482263
 20
1273.179725022191
 30
0.0
 10
1865.366649093907
 20
1273.090364770278
 30
0.0
 10
1864.174925012123
 20
1272.980637727939
 30
0.0
 10
1863.573510815188
 20
1272.960240834759
 30
0.0
 10
1862.393570232062
 20
1272.983815376746
 30
0.0
 10
1861.792156035126
 20
1273.029186925814
 30
0.0
 10
1860.600431953342
 20
1273.190418251423
 30
0.0
 10
1860.010346224619
 20
1273.306299919054
 30
0.0
 10
1858.877091323876
 20
1273.603810789289
 30
0.0
 10
1858.334139589784
 20
1273.785382908402
 30
0.0
 10
1857.325517993968
 20
1274.20180340405
 30
0.0
 10
1856.859974791512
 20
1274.436537790716
 30
0.0
 10
1856.025630803786
 20
1274.941768864469
 30
0.0
 10
1855.640645892332
 20
1275.223008562636
 30
0.0
 10
1854.963915129084
 20
1275.831025557679
 30
0.0
 10
1854.672359622652
 20
1276.157725629885
 30
0.0
 10
1854.202950073138
 20
1276.838466264111
 30
0.0
 10
1854.025186095794
 20
1277.192376212239
 30
0.0
 10
1853.790503837473
 20
1277.906096022484
 30
0.0
 10
1853.733540523625
 20
1278.265772376193
 30
0.0
 10
1853.733540523625
 20
1278.618142247001
 30
0.0
  0
SPLINE
  5
391
330
35B
100
AcDbEntity
  8
0
  6
Continuous
 62
     7
370
    15
100
AcDbSpline
210
0.0
220
0.0
230
1.0
 70
     8
 71
     3
 72
    38
 73
    34
 74
     0
 42
0.0000000001
 43
0.0000000001
 40
0.0
 40
0.0
 40
0.0
 40
0.0
 40
0.0625
 40
0.0625
 40
0.125
 40
0.125
 40
0.1875
 40
0.1875
 40
0.25
 40
0.25
 40
0.3125
 40
0.3125
 40
0.375
 40
0.375
 40
0.4375000000000001
 40
0.4375000000000001
 40
0.5
 40
0.5
 40
0.5625
 40
0.5625
 40
0.625
 40
0.625
 40
0.6875
 40
0.6875
 40
0.75
 40
0.75
 40
0.8125000000000001
 40
0.8125000000000001
 40
0.8750000000000001
 40
0.8750000000000001
 40
0.9375000000000001
 40
0.9375000000000001
 40
1.0
 40
1.0
 40
1.0
 40
1.0
 10
1872.233540523625
 20
1279.230547855915
 30
0.0
 10
1872.233540523625
 20
1278.901752527093
 30
0.0
 10
1872.176577209776
 20
1278.567050829273
 30
0.0
 10
1871.941894951454
 20
1277.904835302298
 30
0.0
 10
1871.764130974111
 20
1277.577446769888
 30
0.0
 10
1871.294721424597
 20
1276.949759146394
 30
0.0
 10
1871.003165918166
 20
1276.649580489906
 30
0.0
 10
1870.326435154917
 20
1276.093067778132
 30
0.0
 10
1869.941450243462
 20
1275.836802735853
 30
0.0
 10
1869.107106255738
 20
1275.378720746074
 30
0.0
 10
1868.641563053282
 20
1275.168961015297
 30
0.0
 10
1867.632941457465
 20
1274.804044802918
 30
0.0
 10
1867.089989723373
 20
1274.648994099523
 30
0.0
 10
1865.95673482263
 20
1274.40453624002
 30
0.0
 10
1865.366649093907
 20
1274.315175988107
 30
0.0
 10
1864.174925012123
 20
1274.205448945768
 30
0.0
 10
1863.573510815188
 20
1274.185052052588
 30
0.0
 10
1862.393570232062
 20
1274.208626594574
 30
0.0
 10
1861.792156035126
 20
1274.253998143643
 30
0.0
 10
1860.600431953342
 20
1274.415229469251
 30
0.0
 10
1860.010346224619
 20
1274.531111136882
 30
0.0
 10
1858.877091323876
 20
1274.828622007118
 30
0.0
 10
1858.334139589784
 20
1275.010194126231
 30
0.0
 10
1857.325517993968
 20
1275.426614621879
 30
0.0
 10
1856.859974791512
 20
1275.661349008545
 30
0.0
 10
1856.025630803786
 20
1276.166580082297
 30
0.0
 10
1855.640645892332
 20
1276.447819780464
 30
0.0
 10
1854.963915129084
 20
1277.055836775508
 30
0.0
 10
1854.672359622652
 20
1277.382536847714
 30
0.0
 10
1854.202950073138
 20
1278.06327748194
 30
0.0
 10
1854.025186095794
 20
1278.417187430068
 30
0.0
 10
1853.790503837473
 20
1279.130907240312
 30
0.0
 10
1853.733540523625
 20
1279.490583594022
 30
0.0
 10
1853.733540523625
 20
1279.842953464829
 30
0.0
  0
SPLINE
  5
392
330
35B
100
AcDbEntity
  8
0
  6
Continuous
 62
     7
370
    15
100
AcDbSpline
210
0.0
220
0.0
230
1.0
 70
     8
 71
     3
 72
    38
 73
    34
 74
     0
 42
0.0000000001
 43
0.0000000001
 40
0.0
 40
0.0
 40
0.0
 40
0.0
 40
0.0625
 40
0.0625
 40
0.125
 40
0.125
 40
0.1875000000000001
 40
0.1875000000000001
 40
0.2500000000000001
 40
0.2500000000000001
 40
0.3125000000000001
 40
0.3125000000000001
 40
0.3750000000000001
 40
0.3750000000000001
 40
0.4375000000000001
 40
0.4375000000000001
 40
0.5
 40
0.5
 40
0.5625
 40
0.5625
 40
0.625
 40
0.625
 40
0.6875000000000001
 40
0.6875000000000001
 40
0.7500000000000001
 40
0.7500000000000001
 40
0.8125000000000001
 40
0.8125000000000001
 40
0.8750000000000001
 40
0.8750000000000001
 40
0.9375000000000001
 40
0.9375000000000001
 40
1.0
 40
1.0
 40
1.0
 40
1.0
 10
1872.233540523625
 20
1280.455359073744
 30
0.0
 10
1872.233540523625
 20
1280.126563744922
 30
0.0
 10
1872.176577209776
 20
1279.791862047102
 30
0.0
 10
1871.941894951454
 20
1279.129646520126
 30
0.0
 10
1871.764130974111
 20
1278.802257987716
 30
0.0
 10
1871.294721424597
 20
1278.174570364223
 30
0.0
 10
1871.003165918166
 20
1277.874391707735
 30
0.0
 10
1870.326435154917
 20
1277.317878995961
 30
0.0
 10
1869.941450243462
 20
1277.061613953682
 30
0.0
 10
1869.107106255738
 20
1276.603531963902
 30
0.0
 10
1868.641563053282
 20
1276.393772233126
 30
0.0
 10
1867.632941457465
 20
1276.028856020747
 30
0.0
 10
1867.089989723373
 20
1275.873805317352
 30
0.0
 10
1865.95673482263
 20
1275.629347457848
 30
0.0
 10
1865.366649093907
 20
1275.539987205936
 30
0.0
 10
1864.174925012123
 20
1275.430260163596
 30
0.0
 10
1863.573510815188
 20
1275.409863270416
 30
0.0
 10
1862.393570232062
 20
1275.433437812403
 30
0.0
 10
1861.792156035126
 20
1275.478809361471
 30
0.0
 10
1860.600431953342
 20
1275.64004068708
 30
0.0
 10
1860.010346224619
 20
1275.755922354711
 30
0.0
 10
1858.877091323876
 20
1276.053433224946
 30
0.0
 10
1858.334139589784
 20
1276.235005344059
 30
0.0
 10
1857.325517993968
 20
1276.651425839708
 30
0.0
 10
1856.859974791512
 20
1276.886160226373
 30
0.0
 10
1856.025630803786
 20
1277.391391300126
 30
0.0
 10
1855.640645892332
 20
1277.672630998293
 30
0.0
 10
1854.963915129084
 20
1278.280647993336
 30
0.0
 10
1854.672359622652
 20
1278.607348065542
 30
0.0
 10
1854.202950073138
 20
1279.288088699768
 30
0.0
 10
1854.025186095794
 20
1279.641998647896
 30
0.0
 10
1853.790503837473
 20
1280.355718458141
 30
0.0
 10
1853.733540523625
 20
1280.71539481185
 30
0.0
 10
1853.733540523625
 20
1281.067764682658
 30
0.0
  0
SPLINE
  5
393
330
35B
100
AcDbEntity
  8
0
  6
Continuous
 62
     7
370
    15
100
AcDbSpline
210
0.0
220
0.0
230
1.0
 70
     8
 71
     3
 72
    38
 73
    34
 74
     0
 42
0.0000000001
 43
0.0000000001
 40
0.0
 40
0.0
 40
0.0
 40
0.0
 40
0.0625
 40
0.0625
 40
0.125
 40
0.125
 40
0.1875000000000001
 40
0.1875000000000001
 40
0.2500000000000001
 40
0.2500000000000001
 40
0.3125000000000001
 40
0.3125000000000001
 40
0.3750000000000002
 40
0.3750000000000002
 40
0.4375000000000002
 40
0.4375000000000002
 40
0.5000000000000002
 40
0.5000000000000002
 40
0.5625000000000002
 40
0.5625000000000002
 40
0.6250000000000001
 40
0.6250000000000001
 40
0.6875000000000001
 40
0.6875000000000001
 40
0.75
 40
0.75
 40
0.8124999999999998
 40
0.8124999999999998
 40
0.8749999999999998
 40
0.8749999999999998
 40
0.9375
 40
0.9375
 40
1.0
 40
1.0
 40
1.0
 40
1.0
 10
1872.233540523625
 20
1281.680170291572
 30
0.0
 10
1872.233540523625
 20
1281.351374962751
 30
0.0
 10
1872.176577209776
 20
1281.01667326493
 30
0.0
 10
1871.941894951454
 20
1280.354457737955
 30
0.0
 10
1871.764130974111
 20
1280.027069205545
 30
0.0
 10
1871.294721424597
 20
1279.399381582051
 30
0.0
 10
1871.003165918166
 20
1279.099202925564
 30
0.0
 10
1870.326435154917
 20
1278.542690213789
 30
0.0
 10
1869.941450243462
 20
1278.286425171511
 30
0.0
 10
1869.107106255738
 20
1277.828343181731
 30
0.0
 10
1868.641563053281
 20
1277.618583450954
 30
0.0
 10
1867.632941457465
 20
1277.253667238575
 30
0.0
 10
1867.089989723373
 20
1277.09861653518
 30
0.0
 10
1865.95673482263
 20
1276.854158675677
 30
0.0
 10
1865.366649093907
 20
1276.764798423764
 30
0.0
 10
1864.174925012123
 20
1276.655071381425
 30
0.0
 10
1863.573510815188
 20
1276.634674488245
 30
0.0
 10
1862.393570232062
 20
1276.658249030231
 30
0.0
 10
1861.792156035126
 20
1276.7036205793
 30
0.0
 10
1860.600431953342
 20
1276.864851904909
 30
0.0
 10
1860.010346224619
 20
1276.980733572539
 30
0.0
 10
1858.877091323876
 20
1277.278244442775
 30
0.0
 10
1858.334139589784
 20
1277.459816561888
 30
0.0
 10
1857.325517993968
 20
1277.876237057536
 30
0.0
 10
1856.859974791512
 20
1278.110971444202
 30
0.0
 10
1856.025630803786
 20
1278.616202517954
 30
0.0
 10
1855.640645892332
 20
1278.897442216122
 30
0.0
 10
1854.963915129084
 20
1279.505459211165
 30
0.0
 10
1854.672359622652
 20
1279.832159283371
 30
0.0
 10
1854.202950073138
 20
1280.512899917597
 30
0.0
 10
1854.025186095794
 20
1280.866809865725
 30
0.0
 10
1853.790503837473
 20
1281.580529675969
 30
0.0
 10
1853.733540523625
 20
1281.940206029679
 30
0.0
 10
1853.733540523625
 20
1282.292575900487
 30
0.0
  0
SPLINE
  5
394
330
35B
100
AcDbEntity
  8
0
  6
Continuous
 62
     7
370
    15
100
AcDbSpline
210
0.0
220
0.0
230
1.0
 70
     8
 71
     3
 72
    43
 73
    39
 74
     0
 42
0.0000000001
 43
0.0000000001
 40
0.0
 40
0.0
 40
0.0
 40
0.0
 40
0.0279963200683195
 40
0.0563710897516594
 40
0.0850213565552661
 40
0.1138378741235915
 40
0.1427075091279517
 40
0.1710029629503933
 40
0.1991322710126144
 40
0.2269921416667982
 40
0.2544852163857734
 40
0.2824815364540932
 40
0.3108563061374334
 40
0.3395065729410402
 40
0.368323090509366
 40
0.3971927255137242
 40
0.425488179336166
 40
0.4536174873983875
 40
0.4814773580525714
 40
0.5089704327715469
 40
0.5369667528398664
 40
0.5653415225232062
 40
0.5939917893268129
 40
0.6228083068951383
 40
0.6516779418994984
 40
0.67997339572194
 40
0.7081027037841611
 40
0.7359625744383448
 40
0.7634556491573202
 40
0.7914519692256398
 40
0.8198267389089799
 40
0.8484770057125869
 40
0.8772935232809125
 40
0.9061631582852708
 40
0.9344586121077128
 40
0.9625879201699341
 40
0.9904477908241181
 40
1.0
 40
1.0
 40
1.0
 40
1.0
 10
1872.233540523625
 20
1282.904981509401
 30
0.0
 10
1872.226884488395
 20
1282.756561868491
 30
0.0
 10
1872.213482442753
 20
1282.457716274562
 30
0.0
 10
1872.104363502199
 20
1282.011112370143
 30
0.0
 10
1871.928457621386
 20
1281.567685408112
 30
0.0
 10
1871.679749507955
 20
1281.132838020269
 30
0.0
 10
1871.364004253389
 20
1280.71431658609
 30
0.0
 10
1870.985885071739
 20
1280.31670982459
 30
0.0
 10
1870.551896453808
 20
1279.943905679532
 30
0.0
 10
1870.06591899874
 20
1279.597222587725
 30
0.0
 10
1869.528890941803
 20
1279.275720691453
 30
0.0
 10
1868.940184418727
 20
1278.980143814154
 30
0.0
 10
1868.298051429216
 20
1278.712227096417
 30
0.0
 10
1867.608438390223
 20
1278.476022434313
 30
0.0
 10
1866.87844107998
 20
1278.275133407748
 30
0.0
 10
1866.120789869109
 20
1278.113301733443
 30
0.0
 10
1865.344981285414
 20
1277.991617711094
 30
0.0
 10
1864.560545336854
 20
1277.910165037432
 30
0.0
 10
1863.771897051116
 20
1277.86827061833
 30
0.0
 10
1862.978754119945
 20
1277.864839831479
 30
0.0
 10
1862.180696523265
 20
1277.900866520055
 30
0.0
 10
1861.377718193229
 20
1277.978505405502
 30
0.0
 10
1860.579447619108
 20
1278.098084065848
 30
0.0
 10
1859.795490538527
 20
1278.259212419037
 30
0.0
 10
1859.039833677377
 20
1278.459243575195
 30
0.0
 10
1858.320773226338
 20
1278.695013235887
 30
0.0
 10
1857.645407306925
 20
1278.962628961554
 30
0.0
 10
1857.016066318046
 20
1279.259804729879
 30
0.0
 10
1856.431420908952
 20
1279.585831148267
 30
0.0
 10
1855.891504808633
 20
1279.941794997669
 30
0.0
 10
1855.398049814448
 20
1280.329436183901
 30
0.0
 10
1854.958757328776
 20
1280.744946541586
 30
0.0
 10
1854.579998330807
 20
1281.184084750717
 30
0.0
 10
1854.269262912002
 20
1281.639183729548
 30
0.0
 10
1854.027166759913
 20
1282.104523608145
 30
0.0
 10
1853.860173212614
 20
1282.574529438231
 30
0.0
 10
1853.769954094935
 20
1282.944775450292
 30
0.0
 10
1853.758245838764
 20
1283.157386492667
 30
0.0
 10
1853.755256437679
 20
1283.211671235967
 30
0.0
  0
SPLINE
  5
395
330
35B
100
AcDbEntity
  8
0
  6
Continuous
 62
     7
370
    15
100
AcDbSpline
210
0.0
220
0.0
230
1.0
 70
     8
 71
     3
 72
    37
 73
    33
 74
     0
 42
0.0000000001
 43
0.0000000001
 40
0.0
 40
0.0
 40
0.0
 40
0.0
 40
0.020570627013777
 40
0.0552439282502738
 40
0.0899811427218138
 40
0.1240274771438226
 40
0.1578738976803444
 40
0.191396119278146
 40
0.2244769958756834
 40
0.2581633994093713
 40
0.2923051701633808
 40
0.3267784311683598
 40
0.3614517324048564
 40
0.396188946876396
 40
0.4302352812984046
 40
0.4640817018349261
 40
0.4976039234327275
 40
0.530684800030267
 40
0.5643712035639526
 40
0.5985129743179624
 40
0.6329862353229418
 40
0.6676595365594383
 40
0.7023967510309785
 40
0.7364430854529873
 40
0.770289505989509
 40
0.8038117275873107
 40
0.8368926041848505
 40
0.8705790077185382
 40
0.9047207784725475
 40
0.9391940394775268
 40
0.9738673407140232
 40
0.9999999999999998
 40
0.9999999999999998
 40
0.9999999999999998
 40
0.9999999999999998
 10
1872.022530013314
 20
1283.059782559517
 30
0.0
 10
1871.989569788255
 20
1282.971258133385
 30
0.0
 10
1871.901052685349
 20
1282.733519291377
 30
0.0
 10
1871.677841914232
 20
1282.357903047448
 30
0.0
 10
1871.364504588844
 20
1281.939061233236
 30
0.0
 10
1870.98575297035
 20
1281.541538618786
 30
0.0
 10
1870.55193139965
 20
1281.168712247743
 30
0.0
 10
1870.065909815696
 20
1280.822035027376
 30
0.0
 10
1869.528893437368
 20
1280.500531577241
 30
0.0
 10
1868.940183735011
 20
1280.204955122953
 30
0.0
 10
1868.298051615411
 20
1279.937038289472
 30
0.0
 10
1867.608438339806
 20
1279.70083365885
 30
0.0
 10
1866.878441093559
 20
1279.49994462377
 30
0.0
 10
1866.120789865549
 20
1279.338112951746
 30
0.0
 10
1865.344981286351
 20
1279.216428928797
 30
0.0
 10
1864.560545336618
 20
1279.134976255297
 30
0.0
 10
1863.771897051133
 20
1279.093081836139
 30
0.0
 10
1862.978754120106
 20
1279.089651049351
 30
0.0
 10
1862.180696522585
 20
1279.125677737727
 30
0.0
 10
1861.377718195831
 20
1279.203316623927
 30
0.0
 10
1860.579447609267
 20
1279.322895281426
 30
0.0
 10
1859.795490575507
 20
1279.484023645321
 30
0.0
 10
1859.039833540279
 20
1279.684054761673
 30
0.0
 10
1858.320773725405
 20
1279.919824567839
 30
0.0
 10
1857.645405462819
 20
1280.187439757684
 30
0.0
 10
1857.01607309079
 20
1280.484617496456
 30
0.0
 10
1856.431395802077
 20
1280.810636624816
 30
0.0
 10
1855.891601012743
 20
1281.166628214838
 30
0.0
 10
1855.397684081594
 20
1281.554163768282
 30
0.0
 10
1854.960139731575
 20
1281.970073878434
 30
0.0
 10
1854.606720487296
 20
1282.371459413868
 30
0.0
 10
1854.431359009681
 20
1282.640415982073
 30
0.0
 10
1854.355993672023
 20
1282.756005807466
 30
0.0
  0
SPLINE
  5
396
330
35B
100
AcDbEntity
  8
0
  6
Continuous
 62
     7
370
    15
100
AcDbSpline
210
0.0
220
0.0
230
1.0
 70
     8
 71
     3
 72
    19
 73
    15
 74
     0
 42
0.0000000001
 43
0.0000000001
 40
0.0
 40
0.0
 40
0.0
 40
0.0
 40
0.0426372089719999
 40
0.136321078883674
 40
0.2305485742743497
 40
0.324949759041171
 40
0.417473421496548
 40
0.5094538018284617
 40
0.600553145370842
 40
0.6904530982438873
 40
0.7819986194519358
 40
0.8747816378443884
 40
0.9684655077560616
 40
1.0
 40
1.0
 40
1.0
 40
1.0
 10
1868.588405929243
 20
1281.291483198657
 30
0.0
 10
1868.490923521982
 20
1281.249743132964
 30
0.0
 10
1868.179249581536
 20
1281.116290429913
 30
0.0
 10
1867.606898151407
 20
1280.926822409459
 30
0.0
 10
1866.878855840633
 20
1280.724438523543
 30
0.0
 10
1866.120681404512
 20
1280.563007998509
 30
0.0
 10
1865.345008755187
 20
1280.441215830815
 30
0.0
 10
1864.56054238906
 20
1280.359801979512
 30
0.0
 10
1863.771881962875
 20
1280.317859588028
 30
0.0
 10
1862.978816913306
 20
1280.314581082275
 30
0.0
 10
1862.180453981794
 20
1280.350035157954
 30
0.0
 10
1861.378640772014
 20
1280.429852613169
 30
0.0
 10
1860.755238732728
 20
1280.516320724416
 30
0.0
 10
1860.408966885407
 20
1280.589682379081
 30
0.0
 10
1860.321763166275
 20
1280.60815748521
 30
0.0
  0
LWPOLYLINE
  5
397
330
35B
100
AcDbEntity
  8
0
  6
Continuous
 62
     8
370
    15
100
AcDbPolyline
 90
       70
 70
   128
 43
0.0
 10
1874.233537172143
 20
1287.910660182241
 10
1874.233350138274
 20
1287.867863953541
 10
1874.218122789613
 20
1287.565751957862
 10
1874.178563837448
 20
1287.264376099446
 10
1874.11475895766
 20
1286.964389091292
 10
1874.026846337411
 20
1286.666440638459
 10
1873.915016375859
 20
1286.37117603095
 10
1873.779511271801
 20
1286.079234746156
 10
1873.620624499117
 20
1285.791249063891
 10
1873.438700171176
 20
1285.507842697016
 10
1873.234132295563
 20
1285.229629440613
 10
1873.007363920743
 20
1284.957211842643
 10
1872.758886176521
 20
1284.691179898963
 10
1872.48923721036
 20
1284.432109775523
 10
1872.199001021876
 20
1284.180562560522
 10
1871.888806198024
 20
1283.937083049214
 10
1871.559324551719
 20
1283.702198564003
 10
1871.21126966684
 20
1283.47641781238
 10
1870.845395352763
 20
1283.260229785178
 10
1870.462494011781
 20
1283.054102697523
 10
1870.063394922935
 20
1282.858482974787
 10
1869.648962445981
 20
1282.673794285729
 10
1869.22009414938
 20
1282.500436624925
 10
1868.777718866363
 20
1282.338785446464
 10
1868.322794683285
 20
1282.189190850804
 10
1867.856306864628
 20
1282.051976826527
 10
1867.379265719129
 20
1281.927440548656
 10
1866.892704411683
 20
1281.815851735036
 10
1866.397676725737
 20
1281.71745206219
 10
1865.895254781028
 20
1281.632454641898
 10
1865.386526711608
 20
1281.561043559646
 10
1864.872594309195
 20
1281.503373475935
 10
1864.354570636933
 20
1281.459569291326
 10
1863.833577618741
 20
1281.429725875927
 10
1863.310743609484
 20
1281.413907863932
 10
1862.787200951205
 20
1281.412149513633
 10
1862.264083520719
 20
1281.424454633223
 10
1861.742524273895
 20
1281.450796572554
 10
1861.223652791922
 20
1281.491118280852
 10
1860.708592834889
 20
1281.545332430275
 10
1860.198459907971
 20
1281.613321605048
 10
1859.694358845494
 20
1281.694938555757
 10
1859.197381418105
 20
1281.790006518262
 10
1858.708603968249
 20
1281.898319596525
 10
1858.229085079042
 20
1282.019643208538
 10
1857.759863281619
 20
1282.153714594372
 10
1857.301954805909
 20
1282.300243385262
 10
1856.856351379705
 20
1282.458912232474
 10
1856.424018080803
 20
1282.629377494618
 10
1856.005891246856
 20
1282.811269981893
 10
1855.602876447481
 20
1283.004195755676
 10
1855.21584652299
 20
1283.207736981702
 10
1854.845639694018
 20
1283.421452834998
 10
1854.493057746118
 20
1283.644880454616
 10
1854.158864293279
 20
1283.877535946084
 10
1853.843783124102
 20
1284.118915429414
 10
1853.548496634238
 20
1284.368496130396
 10
1853.273644348471
 20
1284.625737512807
 10
1853.019821535648
 20
1284.890082449094
 10
1852.787577919462
 20
1285.160958426988
 10
1852.57741648787
 20
1285.437778789441
 10
1852.389792403733
 20
1285.719944005188
 10
1852.22511201904
 20
1286.006842967203
 10
1852.083731994833
 20
1286.29785431622
 10
1851.965958528762
 20
1286.59234778646
 10
1851.872046691929
 20
1286.889685570642
 10
1851.802199876461
 20
1287.189223701337
 10
1851.756569355007
 20
1287.490313445653
 10
1851.735253953115
 20
1287.79230271025
 10
1851.733541394574
 20
1287.903091609
  0
LINE
  5
398
330
35B
100
AcDbEntity
  8
0
  6
Continuous
 62
     8
370
    15
100
AcDbLine
 10
1866.978693837328
 20
1287.433496561045
 30
0.0
 11
1866.978693837328
 21
1288.095359557765
 31
0.0
  0
LINE
  5
399
330
35B
100
AcDbEntity
  8
0
  6
Continuous
 62
     8
370
    15
100
AcDbLine
 10
1859.978336703582
 20
1292.136579711288
 30
0.0
 11
1859.978336703582
 21
1291.148062064577
 31
0.0
  0
LINE
  5
39A
330
35B
100
AcDbEntity
  8
0
  6
Continuous
 62
     8
370
    15
100
AcDbLine
 10
1858.988387209921
 20
1292.046202392844
 30
0.0
 11
1858.988387209921
 21
1291.565094033012
 31
0.0
  0
ENDBLK
  5
35D
330
35B
100
AcDbEntity
  8
0
100
AcDbBlockEnd
  0
ENDSEC
  0
SECTION
  2
ENTITIES
  0
INSERT
  5
34D
102
{ACAD_XDICTIONARY
360
4D7
102
}
330
1F
100
AcDbEntity
  8
0
100
AcDbBlockReference
  2
1
 10
0.0
 20
0.0
 30
0.0
  0
INSERT
  5
35A
330
1F
100
AcDbEntity
  8
0
100
AcDbBlockReference
  2
2
 10
0.0
 20
0.0
 30
0.0
  0
INSERT
  5
39B
330
1F
100
AcDbEntity
  8
0
100
AcDbBlockReference
  2
3
 10
0.0
 20
0.0
 30
0.0
  0
ENDSEC
  0
SECTION
  2
OBJECTS
  0
DICTIONARY
  5
C
330
0
100
AcDbDictionary
281
     1
  3
ACAD_COLOR
350
6B
  3
ACAD_GROUP
350
D
  3
ACAD_LAYOUT
350
1A
  3
ACAD_MATERIAL
350
6A
  3
ACAD_MLEADERSTYLE
350
12D
  3
ACAD_MLINESTYLE
350
17
  3
ACAD_PLOTSETTINGS
350
19
  3
ACAD_PLOTSTYLENAME
350
E
  3
ACAD_SCALELIST
350
10C
  3
ACAD_TABLESTYLE
350
7E
  3
ACAD_VISUALSTYLE
350
EF
  3
ACDB_RECOMPOSE_DATA
350
15D
  3
AcDbVariableDictionary
350
5E
  3
DWGPROPS
350
4E8
  0
DICTIONARY
  5
13C
330
10
100
AcDbDictionary
280
     1
281
     1
  3
ADSK_XREC_LAYER_RECONCILED
360
39C
  0
DICTIONARY
  5
477
330
2F4
100
AcDbDictionary
280
     1
281
     1
  3
ACAD_SORTENTS
360
479
  0
DICTIONARY
  5
4D7
330
34D
100
AcDbDictionary
280
     1
281
     1
  0
DICTIONARY
  5
6B
102
{ACAD_REACTORS
330
C
102
}
330
C
100
AcDbDictionary
281
     1
  0
DICTIONARY
  5
D
102
{ACAD_REACTORS
330
C
102
}
330
C
100
AcDbDictionary
281
     1
  0
DICTIONARY
  5
1A
102
{ACAD_REACTORS
330
C
102
}
330
C
100
AcDbDictionary
281
     1
  3
Layout1
350
D3
  3
Layout2
350
D7
  3
Model
350
22
  0
DICTIONARY
  5
6A
102
{ACAD_REACTORS
330
C
102
}
330
C
100
AcDbDictionary
281
     1
  3
ByBlock
350
ED
  3
ByLayer
350
EC
  3
Global
350
EE
  0
DICTIONARY
  5
12D
102
{ACAD_REACTORS
330
C
102
}
330
C
100
AcDbDictionary
281
     1
  3
Annotative
350
13B
  3
Standard
350
12E
  0
DICTIONARY
  5
17
102
{ACAD_REACTORS
330
C
102
}
330
C
100
AcDbDictionary
281
     1
  3
Standard
350
18
  0
DICTIONARY
  5
19
102
{ACAD_REACTORS
330
C
102
}
330
C
100
AcDbDictionary
281
     1
  0
ACDBDICTIONARYWDFLT
  5
E
102
{ACAD_REACTORS
330
C
102
}
330
C
100
AcDbDictionary
281
     1
  3
Normal
350
F
100
AcDbDictionaryWithDefault
340
F
  0
DICTIONARY
  5
10C
102
{ACAD_REACTORS
330
C
102
}
330
C
100
AcDbDictionary
281
     1
  3
A0
350
10D
  3
A1
350
188
  3
A2
350
189
  3
A3
350
18A
  3
A4
350
18B
  3
A5
350
18C
  3
A6
350
18D
  3
A7
350
18E
  3
A8
350
18F
  3
A9
350
190
  3
B0
350
191
  3
B1
350
192
  3
B2
350
193
  3
B3
350
194
  3
B4
350
195
  3
B5
350
196
  3
B6
350
197
  3
B7
350
198
  3
B8
350
199
  3
B9
350
19A
  3
C0
350
19B
  3
C1
350
19C
  3
C2
350
19D
  3
C3
350
19E
  3
C4
350
19F
  3
C5
350
1A0
  3
C6
350
1A1
  3
C7
350
1A2
  3
C8
350
1A3
  3
C9
350
1A4
  3
D0
350
1A5
  3
D1
350
1A6
  3
D2
350
1A7
  0
DICTIONARY
  5
7E
102
{ACAD_REACTORS
330
C
102
}
330
C
100
AcDbDictionary
281
     1
  3
Standard
350
7F
  0
DICTIONARY
  5
EF
102
{ACAD_REACTORS
330
C
102
}
330
C
100
AcDbDictionary
281
     1
  3
2dWireframe
350
F5
  3
3D Hidden
350
F7
  3
3dWireframe
350
F6
  3
Basic
350
F4
  3
Brighten
350
FB
  3
ColorChange
350
FF
  3
Conceptual
350
F8
  3
Dim
350
FA
  3
Facepattern
350
FE
  3
Flat
350
F0
  3
FlatWithEdges
350
F1
  3
Gouraud
350
F2
  3
GouraudWithEdges
350
F3
  3
Linepattern
350
FD
  3
Realistic
350
F9
  3
Thicken
350
FC
  0
XRECORD
  5
15D
102
{ACAD_REACTORS
330
C
102
}
330
C
100
AcDbXrecord
280
     1
 90
        1
330
7F
  0
DICTIONARY
  5
5E
102
{ACAD_REACTORS
330
C
102
}
330
C
100
AcDbDictionary
281
     1
  3
CANNOSCALE
350
146
  3
CMLEADERSTYLE
350
145
  3
CTABLESTYLE
350
84
  3
DIMASSOC
350
5F
  3
HIDETEXT
350
63
  3
INDEXCTL
350
4E4
  3
LIGHTINGUNITS
350
4E2
  3
MSLTSCALE
350
4E1
  3
PSOLHEIGHT
350
4E6
  3
PSOLWIDTH
350
4E5
  3
SORTENTS
350
4E3
  0
XRECORD
  5
4E8
102
{ACAD_REACTORS
330
C
102
}
330
C
100
AcDbXrecord
280
     1
  1
DWGPROPS COOKIE
  2

  3

  4

  6

  7

  8
orhan kara
  9

300
=
301
=
302
=
303
=
304
=
305
=
306
=
307
=
308
=
309
=
 40
0.0037010300925926
 41
2458559.420189745
 42
2459067.646244363
  1

 90
        0
  0
XRECORD
  5
39C
102
{ACAD_REACTORS
330
13C
102
}
330
13C
100
AcDbXrecord
280
     1
290
     1
  0
SORTENTSTABLE
  5
479
102
{ACAD_REACTORS
330
477
102
}
330
477
100
AcDbSortentsTable
330
2F4
  0
LAYOUT
  5
D3
102
{ACAD_XDICTIONARY
360
4EC
102
}
102
{ACAD_REACTORS
330
1A
102
}
330
1A
100
AcDbPlotSettings
  1

  2
C:\Documents and Settings\basas\Application Data\Autodesk\AutoCAD 2005\R16.1\enu\plotters\Default Windows System Printer.pc3
  4

  6

 40
0.0
 41
0.0
 42
0.0
 43
0.0
 44
0.0
 45
0.0
 46
0.0
 47
0.0
 48
0.0
 49
0.0
140
0.0
141
0.0
142
1.0
143
1.0
 70
   688
 72
     0
 73
     0
 74
     5
  7

 75
    16
147
1.0
148
0.0
149
0.0
100
AcDbLayout
  1
Layout1
 70
     1
 71
     1
 10
0.0
 20
0.0
 11
12.0
 21
9.0
 12
0.0
 22
0.0
 32
0.0
 14
0.0
 24
0.0
 34
0.0
 15
0.0
 25
0.0
 35
0.0
146
0.0
 13
0.0
 23
0.0
 33
0.0
 16
1.0
 26
0.0
 36
0.0
 17
0.0
 27
1.0
 37
0.0
 76
     0
330
D2
  0
LAYOUT
  5
D7
102
{ACAD_XDICTIONARY
360
4EE
102
}
102
{ACAD_REACTORS
330
1A
102
}
330
1A
100
AcDbPlotSettings
  1

  2
C:\Documents and Settings\basas\Application Data\Autodesk\AutoCAD 2005\R16.1\enu\plotters\Default Windows System Printer.pc3
  4

  6

 40
0.0
 41
0.0
 42
0.0
 43
0.0
 44
0.0
 45
0.0
 46
0.0
 47
0.0
 48
0.0
 49
0.0
140
0.0
141
0.0
142
1.0
143
1.0
 70
   688
 72
     0
 73
     0
 74
     5
  7

 75
    16
147
1.0
148
0.0
149
0.0
100
AcDbLayout
  1
Layout2
 70
     1
 71
     2
 10
0.0
 20
0.0
 11
12.0
 21
9.0
 12
0.0
 22
0.0
 32
0.0
 14
0.0
 24
0.0
 34
0.0
 15
0.0
 25
0.0
 35
0.0
146
0.0
 13
0.0
 23
0.0
 33
0.0
 16
1.0
 26
0.0
 36
0.0
 17
0.0
 27
1.0
 37
0.0
 76
     0
330
D6
  0
LAYOUT
  5
22
102
{ACAD_XDICTIONARY
360
4E9
102
}
102
{ACAD_REACTORS
330
1A
102
}
330
1A
100
AcDbPlotSettings
  1

  2
none_device
  4
ISO_A4_(210.00_x_297.00_MM)
  6

 40
7.5
 41
20.0
 42
7.5
 43
20.0
 44
210.0
 45
297.0
 46
11.54999923706054
 47
-13.65000009536743
 48
0.0
 49
0.0
140
0.0
141
0.0
142
1.0
143
8.704084754739808
 70
 11952
 72
     1
 73
     0
 74
     0
  7

 75
     0
147
0.1148885871608098
148
0.0
149
0.0
100
AcDbLayout
  1
Model
 70
     1
 71
     0
 10
0.0
 20
0.0
 11
12.0
 21
9.0
 12
0.0
 22
0.0
 32
0.0
 14
0.0
 24
0.0
 34
0.0
 15
0.0
 25
0.0
 35
0.0
146
0.0
 13
0.0
 23
0.0
 33
0.0
 16
1.0
 26
0.0
 36
0.0
 17
0.0
 27
1.0
 37
0.0
 76
     0
330
1F
331
EA
1001
ACAD_PSEXT
1000
None
1000
None
1000
Not applicable
1000
The layout will not be plotted unless a new plotter configuration name is selected.
1070
     0
  0
MATERIAL
  5
ED
102
{ACAD_XDICTIONARY
360
4F2
102
}
102
{ACAD_REACTORS
330
6A
102
}
330
6A
100
AcDbMaterial
  1
ByBlock
  0
MATERIAL
  5
EC
102
{ACAD_XDICTIONARY
360
4F0
102
}
102
{ACAD_REACTORS
330
6A
102
}
330
6A
100
AcDbMaterial
  1
ByLayer
  0
MATERIAL
  5
EE
102
{ACAD_XDICTIONARY
360
173
102
}
102
{ACAD_REACTORS
330
6A
102
}
330
6A
100
AcDbMaterial
  1
Global
 43
0.0007999999797903
 43
0.0
 43
0.0
 43
0.0
 43
0.0
 43
0.0007999999797903
 43
0.0
 43
0.0
 43
0.0
 43
0.0
 43
1.0
 43
0.0
 43
0.0
 43
0.0
 43
0.0
 43
1.0
 49
0.0007999999797903
 49
0.0
 49
0.0
 49
0.0
 49
0.0
 49
0.0007999999797903
 49
0.0
 49
0.0
 49
0.0
 49
0.0
 49
1.0
 49
0.0
 49
0.0
 49
0.0
 49
0.0
 49
1.0
142
0.0007999999797903
142
0.0
142
0.0
142
0.0
142
0.0
142
0.0007999999797903
142
0.0
142
0.0
142
0.0
142
0.0
142
1.0
142
0.0
142
0.0
142
0.0
142
0.0
142
1.0
144
0.0007999999797903
144
0.0
144
0.0
144
0.0
144
0.0
144
0.0007999999797903
144
0.0
144
0.0
144
0.0
144
0.0
144
1.0
144
0.0
144
0.0
144
0.0
144
0.0
144
1.0
1001
ACAD
1070
    -1
1070
     3
1070
     0
1000

1071
        0
1070
     0
  0
MLEADERSTYLE
  5
13B
102
{ACAD_REACTORS
330
12D
102
}
330
12D
100
AcDbMLeaderStyle
170
     2
171
     1
172
     0
 90
        2
 40
0.0
 41
0.0
173
     1
 91
-1056964608
340
14
 92
       -2
290
     1
 42
2.0
291
     1
 43
8.0
  3
Standard
 44
4.0
300

342
11
174
     1
178
     1
175
     1
176
     0
 93
-1056964608
 45
4.0
292
     0
297
     0
 46
4.0
 94
-1056964608
 47
1.0
 49
1.0
140
1.0
293
     1
141
0.0
294
     1
177
     0
142
1.0
295
     0
296
     1
143
3.75
1001
ACAD_MLEADERVER
1070
     2
  0
MLEADERSTYLE
  5
12E
102
{ACAD_REACTORS
330
12D
102
}
330
12D
100
AcDbMLeaderStyle
170
     2
171
     1
172
     0
 90
        2
 40
0.0
 41
0.0
173
     1
 91
-1056964608
340
14
 92
       -2
290
     1
 42
2.0
291
     1
 43
8.0
  3
Standard
 44
4.0
300

342
11
174
     1
178
     1
175
     1
176
     0
 93
-1056964608
 45
4.0
292
     0
297
     0
 46
4.0
 94
-1056964608
 47
1.0
 49
1.0
140
1.0
293
     1
141
0.0
294
     1
177
     0
142
1.0
295
     0
296
     0
143
3.75
1001
ACAD_MLEADERVER
1070
     2
  0
MLINESTYLE
  5
18
102
{ACAD_REACTORS
330
17
102
}
330
17
100
AcDbMlineStyle
  2
STANDARD
 70
     0
  3

 62
   256
 51
90.0
 52
90.0
 71
     2
 49
0.5
 62
   256
  6
BYLAYER
 49
-0.5
 62
   256
  6
BYLAYER
  0
ACDBPLACEHOLDER
  5
F
102
{ACAD_REACTORS
330
E
102
}
330
E
  0
SCALE
  5
10D
102
{ACAD_REACTORS
330
10C
102
}
330
10C
100
AcDbScale
 70
     0
300
1:1
140
1.0
141
1.0
290
     1
  0
SCALE
  5
188
102
{ACAD_REACTORS
330
10C
102
}
330
10C
100
AcDbScale
 70
     0
300
1:2
140
1.0
141
2.0
290
     0
  0
SCALE
  5
189
102
{ACAD_REACTORS
330
10C
102
}
330
10C
100
AcDbScale
 70
     0
300
1:4
140
1.0
141
4.0
290
     0
  0
SCALE
  5
18A
102
{ACAD_REACTORS
330
10C
102
}
330
10C
100
AcDbScale
 70
     0
300
1:5
140
1.0
141
5.0
290
     0
  0
SCALE
  5
18B
102
{ACAD_REACTORS
330
10C
102
}
330
10C
100
AcDbScale
 70
     0
300
1:8
140
1.0
141
8.0
290
     0
  0
SCALE
  5
18C
102
{ACAD_REACTORS
330
10C
102
}
330
10C
100
AcDbScale
 70
     0
300
1:10
140
1.0
141
10.0
290
     0
  0
SCALE
  5
18D
102
{ACAD_REACTORS
330
10C
102
}
330
10C
100
AcDbScale
 70
     0
300
1:16
140
1.0
141
16.0
290
     0
  0
SCALE
  5
18E
102
{ACAD_REACTORS
330
10C
102
}
330
10C
100
AcDbScale
 70
     0
300
1:20
140
1.0
141
20.0
290
     0
  0
SCALE
  5
18F
102
{ACAD_REACTORS
330
10C
102
}
330
10C
100
AcDbScale
 70
     0
300
1:30
140
1.0
141
30.0
290
     0
  0
SCALE
  5
190
102
{ACAD_REACTORS
330
10C
102
}
330
10C
100
AcDbScale
 70
     0
300
1:40
140
1.0
141
40.0
290
     0
  0
SCALE
  5
191
102
{ACAD_REACTORS
330
10C
102
}
330
10C
100
AcDbScale
 70
     0
300
1:50
140
1.0
141
50.0
290
     0
  0
SCALE
  5
192
102
{ACAD_REACTORS
330
10C
102
}
330
10C
100
AcDbScale
 70
     0
300
1:100
140
1.0
141
100.0
290
     0
  0
SCALE
  5
193
102
{ACAD_REACTORS
330
10C
102
}
330
10C
100
AcDbScale
 70
     0
300
2:1
140
2.0
141
1.0
290
     0
  0
SCALE
  5
194
102
{ACAD_REACTORS
330
10C
102
}
330
10C
100
AcDbScale
 70
     0
300
4:1
140
4.0
141
1.0
290
     0
  0
SCALE
  5
195
102
{ACAD_REACTORS
330
10C
102
}
330
10C
100
AcDbScale
 70
     0
300
8:1
140
8.0
141
1.0
290
     0
  0
SCALE
  5
196
102
{ACAD_REACTORS
330
10C
102
}
330
10C
100
AcDbScale
 70
     0
300
10:1
140
10.0
141
1.0
290
     0
  0
SCALE
  5
197
102
{ACAD_REACTORS
330
10C
102
}
330
10C
100
AcDbScale
 70
     0
300
100:1
140
100.0
141
1.0
290
     0
  0
SCALE
  5
198
102
{ACAD_REACTORS
330
10C
102
}
330
10C
100
AcDbScale
 70
     0
300
1/128" = 1'-0"
140
0.0078125
141
12.0
290
     0
  0
SCALE
  5
199
102
{ACAD_REACTORS
330
10C
102
}
330
10C
100
AcDbScale
 70
     0
300
1/64" = 1'-0"
140
0.015625
141
12.0
290
     0
  0
SCALE
  5
19A
102
{ACAD_REACTORS
330
10C
102
}
330
10C
100
AcDbScale
 70
     0
300
1/32" = 1'-0"
140
0.03125
141
12.0
290
     0
  0
SCALE
  5
19B
102
{ACAD_REACTORS
330
10C
102
}
330
10C
100
AcDbScale
 70
     0
300
1/16" = 1'-0"
140
0.0625
141
12.0
290
     0
  0
SCALE
  5
19C
102
{ACAD_REACTORS
330
10C
102
}
330
10C
100
AcDbScale
 70
     0
300
3/32" = 1'-0"
140
0.09375
141
12.0
290
     0
  0
SCALE
  5
19D
102
{ACAD_REACTORS
330
10C
102
}
330
10C
100
AcDbScale
 70
     0
300
1/8" = 1'-0"
140
0.125
141
12.0
290
     0
  0
SCALE
  5
19E
102
{ACAD_REACTORS
330
10C
102
}
330
10C
100
AcDbScale
 70
     0
300
3/16" = 1'-0"
140
0.1875
141
12.0
290
     0
  0
SCALE
  5
19F
102
{ACAD_REACTORS
330
10C
102
}
330
10C
100
AcDbScale
 70
     0
300
1/4" = 1'-0"
140
0.25
141
12.0
290
     0
  0
SCALE
  5
1A0
102
{ACAD_REACTORS
330
10C
102
}
330
10C
100
AcDbScale
 70
     0
300
3/8" = 1'-0"
140
0.375
141
12.0
290
     0
  0
SCALE
  5
1A1
102
{ACAD_REACTORS
330
10C
102
}
330
10C
100
AcDbScale
 70
     0
300
1/2" = 1'-0"
140
0.5
141
12.0
290
     0
  0
SCALE
  5
1A2
102
{ACAD_REACTORS
330
10C
102
}
330
10C
100
AcDbScale
 70
     0
300
3/4" = 1'-0"
140
0.75
141
12.0
290
     0
  0
SCALE
  5
1A3
102
{ACAD_REACTORS
330
10C
102
}
330
10C
100
AcDbScale
 70
     0
300
1" = 1'-0"
140
1.0
141
12.0
290
     0
  0
SCALE
  5
1A4
102
{ACAD_REACTORS
330
10C
102
}
330
10C
100
AcDbScale
 70
     0
300
1-1/2" = 1'-0"
140
1.5
141
12.0
290
     0
  0
SCALE
  5
1A5
102
{ACAD_REACTORS
330
10C
102
}
330
10C
100
AcDbScale
 70
     0
300
3" = 1'-0"
140
3.0
141
12.0
290
     0
  0
SCALE
  5
1A6
102
{ACAD_REACTORS
330
10C
102
}
330
10C
100
AcDbScale
 70
     0
300
6" = 1'-0"
140
6.0
141
12.0
290
     0
  0
SCALE
  5
1A7
102
{ACAD_REACTORS
330
10C
102
}
330
10C
100
AcDbScale
 70
     0
300
1'-0" = 1'-0"
140
12.0
141
12.0
290
     0
  0
TABLESTYLE
  5
7F
102
{ACAD_XDICTIONARY
360
162
102
}
102
{ACAD_REACTORS
330
7E
102
}
330
7E
100
AcDbTableStyle
  3
Standard
 70
     0
 71
     0
 40
1.5
 41
1.5
280
     0
281
     0
  7
Standard
140
4.5
170
     2
 62
     0
 63
     7
283
     0
274
    -2
284
     1
 64
     0
275
    -2
285
     1
 65
     0
276
    -2
286
     1
 66
     0
277
    -2
287
     1
 67
     0
278
    -2
288
     1
 68
     0
279
    -2
289
     1
 69
     0
  7
Standard
140
6.0
170
     5
 62
     0
 63
     7
283
     0
274
    -2
284
     1
 64
     0
275
    -2
285
     1
 65
     0
276
    -2
286
     1
 66
     0
277
    -2
287
     1
 67
     0
278
    -2
288
     1
 68
     0
279
    -2
289
     1
 69
     0
  7
Standard
140
4.5
170
     5
 62
     0
 63
     7
283
     0
274
    -2
284
     1
 64
     0
275
    -2
285
     1
 65
     0
276
    -2
286
     1
 66
     0
277
    -2
287
     1
 67
     0
278
    -2
288
     1
 68
     0
279
    -2
289
     1
 69
     0
  0
VISUALSTYLE
  5
F5
102
{ACAD_REACTORS
330
EF
102
}
330
EF
100
AcDbVisualStyle
  2
2dWireframe
 70
     4
 71
     0
 72
     2
 73
     1
 90
        0
 40
-0.6
 41
-30.0
 62
     5
 63
     7
 74
     1
 91
        4
 64
     7
 65
   257
 75
     1
175
     1
 42
1.0
 92
        0
 66
   257
 43
1.0
 76
     1
 77
     6
 78
     2
 67
     7
 79
     5
170
     0
171
     0
290
     0
174
     0
 93
        1
 44
0.0
173
     0
291
     0
 45
0.0
1001
ACAD
1000
AcDbSavedByObjectVersion
1070
     0
  0
VISUALSTYLE
  5
F7
102
{ACAD_REACTORS
330
EF
102
}
330
EF
100
AcDbVisualStyle
  2
3D Hidden
 70
     6
 71
     1
 72
     2
 73
     2
 90
        0
 40
-0.6
 41
-30.0
 62
     5
 63
     7
 74
     2
 91
        2
 64
     7
 65
   257
 75
     2
175
     1
 42
40.0
 92
        0
 66
   257
 43
1.0
 76
     1
 77
     6
 78
     2
 67
     7
 79
     3
170
     0
171
     0
290
     0
174
     0
 93
        1
 44
0.0
173
     0
291
     0
 45
0.0
1001
ACAD
1000
AcDbSavedByObjectVersion
1070
     0
  0
VISUALSTYLE
  5
F6
102
{ACAD_REACTORS
330
EF
102
}
330
EF
100
AcDbVisualStyle
  2
3dWireframe
 70
     5
 71
     0
 72
     2
 73
     1
 90
        0
 40
-0.6
 41
-30.0
 62
     5
 63
     7
 74
     1
 91
        4
 64
     7
 65
   257
 75
     1
175
     1
 42
1.0
 92
        0
 66
   257
 43
1.0
 76
     1
 77
     6
 78
     2
 67
     7
 79
     5
170
     0
171
     0
290
     0
174
     0
 93
        1
 44
0.0
173
     0
291
     0
 45
0.0
1001
ACAD
1000
AcDbSavedByObjectVersion
1070
     0
  0
VISUALSTYLE
  5
F4
102
{ACAD_REACTORS
330
EF
102
}
330
EF
100
AcDbVisualStyle
  2
Basic
 70
     7
 71
     1
 72
     0
 73
     1
 90
        0
 40
-0.6
 41
-30.0
 62
     5
 63
     7
 74
     0
 91
        4
 64
     7
 65
   257
 75
     1
175
     1
 42
1.0
 92
        8
 66
     7
 43
1.0
 76
     1
 77
     6
 78
     2
 67
     7
 79
     5
170
     0
171
     0
290
     0
174
     0
 93
        1
 44
0.0
173
     0
291
     1
 45
0.0
1001
ACAD
1000
AcDbSavedByObjectVersion
1070
     0
  0
VISUALSTYLE
  5
FB
102
{ACAD_REACTORS
330
EF
102
}
330
EF
100
AcDbVisualStyle
  2
Brighten
 70
    12
 71
     2
 72
     2
 73
     1
 90
        0
 40
-0.6
 41
-30.0
 62
     5
 63
     7
 74
     1
 91
        4
 64
     7
 65
   257
 75
     1
175
     1
 42
1.0
 92
        8
 66
     7
 43
1.0
 76
     1
 77
     6
 78
     2
 67
     7
 79
     5
170
     0
171
     0
290
     0
174
     0
 93
        1
 44
50.0
173
     0
291
     1
 45
0.0
1001
ACAD
1000
AcDbSavedByObjectVersion
1070
     0
  0
VISUALSTYLE
  5
FF
102
{ACAD_REACTORS
330
EF
102
}
330
EF
100
AcDbVisualStyle
  2
ColorChange
 70
    16
 71
     2
 72
     2
 73
     3
 90
        0
 40
-0.6
 41
-30.0
 62
     5
 63
     8
 74
     1
 91
        4
 64
     7
 65
   257
 75
     1
175
     1
 42
1.0
 92
        8
 66
     8
 43
1.0
 76
     1
 77
     6
 78
     2
 67
     7
 79
     5
170
     0
171
     0
290
     0
174
     0
 93
        1
 44
0.0
173
     0
291
     1
 45
0.0
1001
ACAD
1000
AcDbSavedByObjectVersion
1070
     0
  0
VISUALSTYLE
  5
F8
102
{ACAD_REACTORS
330
EF
102
}
330
EF
100
AcDbVisualStyle
  2
Conceptual
 70
     9
 71
     3
 72
     2
 73
     1
 90
        0
 40
-0.6
 41
-30.0
 62
     5
 63
     7
 74
     2
 91
        2
 64
     7
 65
   257
 75
     1
175
     1
 42
40.0
 92
        8
 66
     7
 43
1.0
 76
     1
 77
     6
 78
     2
 67
     7
 79
     3
170
     0
171
     0
290
     0
174
     0
 93
        1
 44
0.0
173
     0
291
     0
 45
0.0
1001
ACAD
1000
AcDbSavedByObjectVersion
1070
     0
  0
VISUALSTYLE
  5
FA
102
{ACAD_REACTORS
330
EF
102
}
330
EF
100
AcDbVisualStyle
  2
Dim
 70
    11
 71
     2
 72
     2
 73
     1
 90
        0
 40
-0.6
 41
-30.0
 62
     5
 63
     7
 74
     1
 91
        4
 64
     7
 65
   257
 75
     1
175
     1
 42
1.0
 92
        8
 66
     7
 43
1.0
 76
     1
 77
     6
 78
     2
 67
     7
 79
     5
170
     0
171
     0
290
     0
174
     0
 93
        1
 44
-50.0
173
     0
291
     1
 45
0.0
1001
ACAD
1000
AcDbSavedByObjectVersion
1070
     0
  0
VISUALSTYLE
  5
FE
102
{ACAD_REACTORS
330
EF
102
}
330
EF
100
AcDbVisualStyle
  2
Facepattern
 70
    15
 71
     2
 72
     2
 73
     1
 90
        0
 40
-0.6
 41
-30.0
 62
     5
 63
     7
 74
     1
 91
        4
 64
     7
 65
   257
 75
     1
175
     1
 42
1.0
 92
        8
 66
     7
 43
1.0
 76
     1
 77
     6
 78
     2
 67
     7
 79
     5
170
     0
171
     0
290
     0
174
     0
 93
        1
 44
0.0
173
     0
291
     1
 45
0.0
1001
ACAD
1000
AcDbSavedByObjectVersion
1070
     0
  0
VISUALSTYLE
  5
F0
102
{ACAD_REACTORS
330
EF
102
}
330
EF
100
AcDbVisualStyle
  2
Flat
 70
     0
 71
     2
 72
     1
 73
     1
 90
        2
 40
-0.6
 41
30.0
 62
     5
 63
     7
 74
     0
 91
        4
 64
     7
 65
   257
 75
     1
175
     1
 42
1.0
 92
        8
 66
     7
 43
1.0
 76
     1
 77
     6
 78
     2
 67
     7
 79
     5
170
     0
171
     0
290
     0
174
     0
 93
        1
 44
0.0
173
     0
291
     1
 45
0.0
1001
ACAD
1000
AcDbSavedByObjectVersion
1070
     0
  0
VISUALSTYLE
  5
F1
102
{ACAD_REACTORS
330
EF
102
}
330
EF
100
AcDbVisualStyle
  2
FlatWithEdges
 70
     1
 71
     2
 72
     1
 73
     1
 90
        2
 40
-0.6
 41
30.0
 62
     5
 63
     7
 74
     1
 91
        4
 64
     7
 65
   257
 75
     1
175
     1
 42
1.0
 92
        0
 66
   257
 43
1.0
 76
     1
 77
     6
 78
     2
 67
     7
 79
     5
170
     0
171
     0
290
     0
174
     0
 93
        1
 44
0.0
173
     0
291
     1
 45
0.0
1001
ACAD
1000
AcDbSavedByObjectVersion
1070
     0
  0
VISUALSTYLE
  5
F2
102
{ACAD_REACTORS
330
EF
102
}
330
EF
100
AcDbVisualStyle
  2
Gouraud
 70
     2
 71
     2
 72
     2
 73
     1
 90
        2
 40
-0.6
 41
30.0
 62
     5
 63
     7
 74
     0
 91
        4
 64
     7
 65
   257
 75
     1
175
     1
 42
1.0
 92
        0
 66
     7
 43
1.0
 76
     1
 77
     6
 78
     2
 67
     7
 79
     5
170
     0
171
     0
290
     0
174
     0
 93
        1
 44
0.0
173
     0
291
     1
 45
0.0
1001
ACAD
1000
AcDbSavedByObjectVersion
1070
     0
  0
VISUALSTYLE
  5
F3
102
{ACAD_REACTORS
330
EF
102
}
330
EF
100
AcDbVisualStyle
  2
GouraudWithEdges
 70
     3
 71
     2
 72
     2
 73
     1
 90
        2
 40
-0.6
 41
30.0
 62
     5
 63
     7
 74
     1
 91
        4
 64
     7
 65
   257
 75
     1
175
     1
 42
1.0
 92
        0
 66
   257
 43
1.0
 76
     1
 77
     6
 78
     2
 67
     7
 79
     5
170
     0
171
     0
290
     0
174
     0
 93
        1
 44
0.0
173
     0
291
     1
 45
0.0
1001
ACAD
1000
AcDbSavedByObjectVersion
1070
     0
  0
VISUALSTYLE
  5
FD
102
{ACAD_REACTORS
330
EF
102
}
330
EF
100
AcDbVisualStyle
  2
Linepattern
 70
    14
 71
     2
 72
     2
 73
     1
 90
        0
 40
-0.6
 41
-30.0
 62
     5
 63
     7
 74
     1
 91
        4
 64
     7
 65
   257
 75
     7
175
     7
 42
1.0
 92
        8
 66
     7
 43
1.0
 76
     1
 77
     6
 78
     2
 67
     7
 79
     5
170
     0
171
     0
290
     0
174
     0
 93
        1
 44
0.0
173
     0
291
     1
 45
0.0
1001
ACAD
1000
AcDbSavedByObjectVersion
1070
     0
  0
VISUALSTYLE
  5
F9
102
{ACAD_REACTORS
330
EF
102
}
330
EF
100
AcDbVisualStyle
  2
Realistic
 70
     8
 71
     2
 72
     2
 73
     1
 90
        0
 40
-0.6
 41
-30.0
 62
     5
 63
     7
 74
     1
 91
        0
 64
     7
 65
   257
 75
     1
175
     1
 42
1.0
 92
        8
 66
     8
 43
1.0
 76
     1
 77
     6
 78
     2
 67
     7
 79
     5
170
     0
171
     0
290
     0
174
     0
 93
       13
 44
0.0
173
     0
291
     0
 45
0.0
1001
ACAD
1000
AcDbSavedByObjectVersion
1070
     0
  0
VISUALSTYLE
  5
FC
102
{ACAD_REACTORS
330
EF
102
}
330
EF
100
AcDbVisualStyle
  2
Thicken
 70
    13
 71
     2
 72
     2
 73
     1
 90
        0
 40
-0.6
 41
-30.0
 62
     5
 63
     7
 74
     1
 91
        4
 64
     7
 65
   257
 75
     1
175
     1
 42
1.0
 92
       12
 66
     7
 43
1.0
 76
     1
 77
     6
 78
     2
 67
     7
 79
     5
170
     0
171
     0
290
     0
174
     0
 93
        1
 44
0.0
173
     0
291
     1
 45
0.0
1001
ACAD
1000
AcDbSavedByObjectVersion
1070
     0
  0
DICTIONARYVAR
  5
146
102
{ACAD_REACTORS
330
5E
102
}
330
5E
100
DictionaryVariables
280
     0
  1
1:1
  0
DICTIONARYVAR
  5
145
102
{ACAD_REACTORS
330
5E
102
}
330
5E
100
DictionaryVariables
280
     0
  1
STANDARD
  0
DICTIONARYVAR
  5
84
102
{ACAD_REACTORS
330
5E
102
}
330
5E
100
DictionaryVariables
280
     0
  1
STANDARD
  0
DICTIONARYVAR
  5
5F
102
{ACAD_REACTORS
330
5E
102
}
330
5E
100
DictionaryVariables
280
     0
  1
2
  0
DICTIONARYVAR
  5
63
102
{ACAD_REACTORS
330
5E
102
}
330
5E
100
DictionaryVariables
280
     0
  1
1
  0
DICTIONARYVAR
  5
4E4
102
{ACAD_REACTORS
330
5E
102
}
330
5E
100
DictionaryVariables
280
     0
  1
0
  0
DICTIONARYVAR
  5
4E2
102
{ACAD_REACTORS
330
5E
102
}
330
5E
100
DictionaryVariables
280
     0
  1
2
  0
DICTIONARYVAR
  5
4E1
102
{ACAD_REACTORS
330
5E
102
}
330
5E
100
DictionaryVariables
280
     0
  1
1
  0
DICTIONARYVAR
  5
4E6
102
{ACAD_REACTORS
330
5E
102
}
330
5E
100
DictionaryVariables
280
     0
  1
80.000000
  0
DICTIONARYVAR
  5
4E5
102
{ACAD_REACTORS
330
5E
102
}
330
5E
100
DictionaryVariables
280
     0
  1
5.000000
  0
DICTIONARYVAR
  5
4E3
102
{ACAD_REACTORS
330
5E
102
}
330
5E
100
DictionaryVariables
280
     0
  1
127
  0
DICTIONARY
  5
4EC
330
D3
100
AcDbDictionary
280
     1
281
     1
  3
ACAD_XREC_ROUNDTRIP
360
4ED
  0
DICTIONARY
  5
4EE
330
D7
100
AcDbDictionary
280
     1
281
     1
  3
ACAD_XREC_ROUNDTRIP
360
4EF
  0
DICTIONARY
  5
4E9
330
22
100
AcDbDictionary
280
     1
281
     1
  3
ACAD_XREC_ROUNDTRIP
360
4EA
  0
DICTIONARY
  5
4F2
330
ED
100
AcDbDictionary
280
     1
281
     1
  3
ACAD_XREC_ROUNDTRIP
360
4F3
  0
DICTIONARY
  5
4F0
330
EC
100
AcDbDictionary
280
     1
281
     1
  3
ACAD_XREC_ROUNDTRIP
360
4F1
  0
DICTIONARY
  5
173
330
EE
100
AcDbDictionary
280
     1
281
     1
  3
ACAD_XREC_ROUNDTRIP
360
4F4
  3
BUMPTILE
360
175
  3
DIFFUSETILE
360
174
  3
OPACITYTILE
360
176
  3
REFLECTIONTILE
360
177
  0
DICTIONARY
  5
162
330
7F
100
AcDbDictionary
280
     1
281
     1
  3
ACAD_ROUNDTRIP_2008_TABLESTYLE_CELLSTYLEMAP
360
4E7
  3
ACAD_XREC_ROUNDTRIP
360
4EB
  0
XRECORD
  5
4ED
102
{ACAD_REACTORS
330
4EC
102
}
330
4EC
100
AcDbXrecord
280
     1
102
SHADEPLOT
 70
     0
102
SHADEPLOTRESLEVEL
 70
     2
102
SHADEPLOTCUSTOMDPI
 70
   300
  0
XRECORD
  5
4EF
102
{ACAD_REACTORS
330
4EE
102
}
330
4EE
100
AcDbXrecord
280
     1
102
SHADEPLOT
 70
     0
102
SHADEPLOTRESLEVEL
 70
     2
102
SHADEPLOTCUSTOMDPI
 70
   300
  0
XRECORD
  5
4EA
102
{ACAD_REACTORS
330
4E9
102
}
330
4E9
100
AcDbXrecord
280
     1
102
SHADEPLOT
 70
     0
102
SHADEPLOTRESLEVEL
 70
     2
102
SHADEPLOTCUSTOMDPI
 70
   300
  0
XRECORD
  5
4F3
102
{ACAD_REACTORS
330
4F2
102
}
330
4F2
100
AcDbXrecord
280
     1
102
MATERIAL
148
0.0
149
0.0
149
0.0
 93
        0
 94
       63
282
     0
 72
     1
 77
     1
171
     1
175
     1
179
     1
273
     0
  0
XRECORD
  5
4F1
102
{ACAD_REACTORS
330
4F0
102
}
330
4F0
100
AcDbXrecord
280
     1
102
MATERIAL
148
0.0
149
0.0
149
0.0
 93
        0
 94
       63
282
     0
 72
     1
 77
     1
171
     1
175
     1
179
     1
273
     0
  0
XRECORD
  5
4F4
102
{ACAD_REACTORS
330
173
102
}
330
173
100
AcDbXrecord
280
     1
102
MATERIAL
148
0.0
149
0.0
149
0.0
 93
        0
 94
       63
282
     0
 72
     1
 77
     1
171
     1
175
     1
179
     1
273
     0
  0
XRECORD
  5
175
102
{ACAD_REACTORS
330
173
102
}
330
173
100
AcDbXrecord
280
     1
270
     1
271
     1
  0
XRECORD
  5
174
102
{ACAD_REACTORS
330
173
102
}
330
173
100
AcDbXrecord
280
     1
270
     1
271
     1
  0
XRECORD
  5
176
102
{ACAD_REACTORS
330
173
102
}
330
173
100
AcDbXrecord
280
     1
270
     1
271
     1
  0
XRECORD
  5
177
102
{ACAD_REACTORS
330
173
102
}
330
173
100
AcDbXrecord
280
     1
270
     1
271
     1
  0
CELLSTYLEMAP
  5
4E7
102
{ACAD_REACTORS
330
162
102
}
330
162
100
AcDbCellStyleMap
 90
        3
300
CELLSTYLE
  1
TABLEFORMAT_BEGIN
 90
        5
170
     1
 91
        0
 92
    32768
 62
   257
 93
        1
300
CONTENTFORMAT
  1
CONTENTFORMAT_BEGIN
 90
        0
 91
        0
 92
      512
 93
        0
300

 40
0.0
140
1.0
 94
        5
 62
     0
340
11
144
6.0
309
CONTENTFORMAT_END
171
     1
301
MARGIN
  1
CELLMARGIN_BEGIN
 40
1.5
 40
1.5
 40
1.5
 40
1.5
 40
4.5
 40
4.5
309
CELLMARGIN_END
 94
        6
 95
        1
302
GRIDFORMAT
  1
GRIDFORMAT_BEGIN
 90
        0
 91
        1
 62
     0
 92
       -2
340
14
 93
        0
 40
1.125
309
GRIDFORMAT_END
 95
        2
302
GRIDFORMAT
  1
GRIDFORMAT_BEGIN
 90
        0
 91
        1
 62
     0
 92
       -2
340
14
 93
        0
 40
1.125
309
GRIDFORMAT_END
 95
        4
302
GRIDFORMAT
  1
GRIDFORMAT_BEGIN
 90
        0
 91
        1
 62
     0
 92
       -2
340
14
 93
        0
 40
1.125
309
GRIDFORMAT_END
 95
        8
302
GRIDFORMAT
  1
GRIDFORMAT_BEGIN
 90
        0
 91
        1
 62
     0
 92
       -2
340
14
 93
        0
 40
1.125
309
GRIDFORMAT_END
 95
       16
302
GRIDFORMAT
  1
GRIDFORMAT_BEGIN
 90
        0
 91
        1
 62
     0
 92
       -2
340
14
 93
        0
 40
1.125
309
GRIDFORMAT_END
 95
       32
302
GRIDFORMAT
  1
GRIDFORMAT_BEGIN
 90
        0
 91
        1
 62
     0
 92
       -2
340
14
 93
        0
 40
1.125
309
GRIDFORMAT_END
309
TABLEFORMAT_END
  1
CELLSTYLE_BEGIN
 90
        1
 91
        1
300
_TITLE
309
CELLSTYLE_END
300
CELLSTYLE
  1
TABLEFORMAT_BEGIN
 90
        5
170
     1
 91
        0
 92
        0
 62
   257
 93
        1
300
CONTENTFORMAT
  1
CONTENTFORMAT_BEGIN
 90
        0
 91
        0
 92
      512
 93
        0
300

 40
0.0
140
1.0
 94
        5
 62
     0
340
11
144
4.5
309
CONTENTFORMAT_END
171
     1
301
MARGIN
  1
CELLMARGIN_BEGIN
 40
1.5
 40
1.5
 40
1.5
 40
1.5
 40
4.5
 40
4.5
309
CELLMARGIN_END
 94
        6
 95
        1
302
GRIDFORMAT
  1
GRIDFORMAT_BEGIN
 90
        0
 91
        1
 62
     0
 92
       -2
340
14
 93
        0
 40
1.125
309
GRIDFORMAT_END
 95
        2
302
GRIDFORMAT
  1
GRIDFORMAT_BEGIN
 90
        0
 91
        1
 62
     0
 92
       -2
340
14
 93
        0
 40
1.125
309
GRIDFORMAT_END
 95
        4
302
GRIDFORMAT
  1
GRIDFORMAT_BEGIN
 90
        0
 91
        1
 62
     0
 92
       -2
340
14
 93
        0
 40
1.125
309
GRIDFORMAT_END
 95
        8
302
GRIDFORMAT
  1
GRIDFORMAT_BEGIN
 90
        0
 91
        1
 62
     0
 92
       -2
340
14
 93
        0
 40
1.125
309
GRIDFORMAT_END
 95
       16
302
GRIDFORMAT
  1
GRIDFORMAT_BEGIN
 90
        0
 91
        1
 62
     0
 92
       -2
340
14
 93
        0
 40
1.125
309
GRIDFORMAT_END
 95
       32
302
GRIDFORMAT
  1
GRIDFORMAT_BEGIN
 90
        0
 91
        1
 62
     0
 92
       -2
340
14
 93
        0
 40
1.125
309
GRIDFORMAT_END
309
TABLEFORMAT_END
  1
CELLSTYLE_BEGIN
 90
        2
 91
        1
300
_HEADER
309
CELLSTYLE_END
300
CELLSTYLE
  1
TABLEFORMAT_BEGIN
 90
        5
170
     1
 91
        0
 92
        0
 62
   257
 93
        1
300
CONTENTFORMAT
  1
CONTENTFORMAT_BEGIN
 90
        0
 91
        0
 92
      512
 93
        0
300

 40
0.0
140
1.0
 94
        2
 62
     0
340
11
144
4.5
309
CONTENTFORMAT_END
171
     1
301
MARGIN
  1
CELLMARGIN_BEGIN
 40
1.5
 40
1.5
 40
1.5
 40
1.5
 40
4.5
 40
4.5
309
CELLMARGIN_END
 94
        6
 95
        1
302
GRIDFORMAT
  1
GRIDFORMAT_BEGIN
 90
        0
 91
        1
 62
     0
 92
       -2
340
14
 93
        0
 40
1.125
309
GRIDFORMAT_END
 95
        2
302
GRIDFORMAT
  1
GRIDFORMAT_BEGIN
 90
        0
 91
        1
 62
     0
 92
       -2
340
14
 93
        0
 40
1.125
309
GRIDFORMAT_END
 95
        4
302
GRIDFORMAT
  1
GRIDFORMAT_BEGIN
 90
        0
 91
        1
 62
     0
 92
       -2
340
14
 93
        0
 40
1.125
309
GRIDFORMAT_END
 95
        8
302
GRIDFORMAT
  1
GRIDFORMAT_BEGIN
 90
        0
 91
        1
 62
     0
 92
       -2
340
14
 93
        0
 40
1.125
309
GRIDFORMAT_END
 95
       16
302
GRIDFORMAT
  1
GRIDFORMAT_BEGIN
 90
        0
 91
        1
 62
     0
 92
       -2
340
14
 93
        0
 40
1.125
309
GRIDFORMAT_END
 95
       32
302
GRIDFORMAT
  1
GRIDFORMAT_BEGIN
 90
        0
 91
        1
 62
     0
 92
       -2
340
14
 93
        0
 40
1.125
309
GRIDFORMAT_END
309
TABLEFORMAT_END
  1
CELLSTYLE_BEGIN
 90
        3
 91
        2
300
_DATA
309
CELLSTYLE_END
  0
XRECORD
  5
4EB
102
{ACAD_REACTORS
330
162
102
}
330
162
100
AcDbXrecord
280
     1
102
ACAD_ROUNDTRIP_PRE2007_TABLESTYLE
 90
      512
 91
        0
  1

 92
      512
 93
        0
  2

 94
      512
 95
        0
  3

  0
ENDSEC
  0
EOF
