  0
SECTION
  2
HEADER
  9
$ACADVER
  1
AC1015
  9
$ACADMAINTVER
 70
    20
  9
$DWGCODEPAGE
  3
ANSI_1254
  9
$INSBASE
 10
0.0
 20
0.0
 30
0.0
  9
$EXTMIN
 10
2097.35154749702
 20
913.4211026405131
 30
0.0
  9
$EXTMAX
 10
2149.044902978748
 20
959.4594470143119
 30
0.0
  9
$LIMMIN
 10
0.0
 20
0.0
  9
$LIMMAX
 10
420.0
 20
297.0
  9
$ORTHOMODE
 70
     0
  9
$REGENMODE
 70
     1
  9
$FILLMODE
 70
     1
  9
$QTEXTMODE
 70
     0
  9
$MIRRTEXT
 70
     0
  9
$LTSCALE
 40
1.0
  9
$ATTMODE
 70
     1
  9
$TEXTSIZE
 40
2.5
  9
$TRACEWID
 40
1.0
  9
$TEXTSTYLE
  7
Standard
  9
$CLAYER
  8
0
  9
$CELTYPE
  6
ByLayer
  9
$CECOLOR
 62
   256
  9
$CELTSCALE
 40
1.0
  9
$DISPSILH
 70
     0
  9
$DIMSCALE
 40
1.0
  9
$DIMASZ
 40
2.5
  9
$DIMEXO
 40
0.625
  9
$DIMDLI
 40
3.75
  9
$DIMRND
 40
0.0
  9
$DIMDLE
 40
0.0
  9
$DIMEXE
 40
1.25
  9
$DIMTP
 40
0.0
  9
$DIMTM
 40
0.0
  9
$DIMTXT
 40
2.5
  9
$DIMCEN
 40
2.5
  9
$DIMTSZ
 40
0.0
  9
$DIMTOL
 70
     0
  9
$DIMLIM
 70
     0
  9
$DIMTIH
 70
     0
  9
$DIMTOH
 70
     0
  9
$DIMSE1
 70
     0
  9
$DIMSE2
 70
     0
  9
$DIMTAD
 70
     1
  9
$DIMZIN
 70
     8
  9
$DIMBLK
  1

  9
$DIMASO
 70
     1
  9
$DIMSHO
 70
     1
  9
$DIMPOST
  1

  9
$DIMAPOST
  1

  9
$DIMALT
 70
     0
  9
$DIMALTD
 70
     3
  9
$DIMALTF
 40
0.03937007874016
  9
$DIMLFAC
 40
1.0
  9
$DIMTOFL
 70
     1
  9
$DIMTVP
 40
0.0
  9
$DIMTIX
 70
     0
  9
$DIMSOXD
 70
     0
  9
$DIMSAH
 70
     0
  9
$DIMBLK1
  1

  9
$DIMBLK2
  1

  9
$DIMSTYLE
  2
ISO-25
  9
$DIMCLRD
 70
     0
  9
$DIMCLRE
 70
     0
  9
$DIMCLRT
 70
     0
  9
$DIMTFAC
 40
1.0
  9
$DIMGAP
 40
0.625
  9
$DIMJUST
 70
     0
  9
$DIMSD1
 70
     0
  9
$DIMSD2
 70
     0
  9
$DIMTOLJ
 70
     0
  9
$DIMTZIN
 70
     8
  9
$DIMALTZ
 70
     0
  9
$DIMALTTZ
 70
     0
  9
$DIMUPT
 70
     0
  9
$DIMDEC
 70
     2
  9
$DIMTDEC
 70
     2
  9
$DIMALTU
 70
     2
  9
$DIMALTTD
 70
     3
  9
$DIMTXSTY
  7
Standard
  9
$DIMAUNIT
 70
     0
  9
$DIMADEC
 70
     0
  9
$DIMALTRND
 40
0.0
  9
$DIMAZIN
 70
     0
  9
$DIMDSEP
 70
    44
  9
$DIMATFIT
 70
     3
  9
$DIMFRAC
 70
     0
  9
$DIMLDRBLK
  1

  9
$DIMLUNIT
 70
     2
  9
$DIMLWD
 70
    -2
  9
$DIMLWE
 70
    -2
  9
$DIMTMOVE
 70
     0
  9
$LUNITS
 70
     2
  9
$LUPREC
 70
     4
  9
$SKETCHINC
 40
1.0
  9
$FILLETRAD
 40
0.0
  9
$AUNITS
 70
     0
  9
$AUPREC
 70
     0
  9
$MENU
  1
.
  9
$ELEVATION
 40
0.0
  9
$PELEVATION
 40
0.0
  9
$THICKNESS
 40
0.0
  9
$LIMCHECK
 70
     0
  9
$CHAMFERA
 40
0.0
  9
$CHAMFERB
 40
0.0
  9
$CHAMFERC
 40
0.0
  9
$CHAMFERD
 40
0.0
  9
$SKPOLY
 70
     0
  9
$TDCREATE
 40
2458559.437375648
  9
$TDUCREATE
 40
2458559.312375648
  9
$TDUPDATE
 40
2459067.645372338
  9
$TDUUPDATE
 40
2459067.520372338
  9
$TDINDWG
 40
0.0002418287
  9
$TDUSRTIMER
 40
0.0002418287
  9
$USRTIMER
 70
     1
  9
$ANGBASE
 50
0.0
  9
$ANGDIR
 70
     0
  9
$PDMODE
 70
     0
  9
$PDSIZE
 40
0.0
  9
$PLINEWID
 40
0.0
  9
$SPLFRAME
 70
     0
  9
$SPLINETYPE
 70
     6
  9
$SPLINESEGS
 70
     8
  9
$HANDSEED
  5
314
  9
$SURFTAB1
 70
     6
  9
$SURFTAB2
 70
     6
  9
$SURFTYPE
 70
     6
  9
$SURFU
 70
     6
  9
$SURFV
 70
     6
  9
$UCSBASE
  2

  9
$UCSNAME
  2

  9
$UCSORG
 10
0.0
 20
0.0
 30
0.0
  9
$UCSXDIR
 10
1.0
 20
0.0
 30
0.0
  9
$UCSYDIR
 10
0.0
 20
1.0
 30
0.0
  9
$UCSORTHOREF
  2

  9
$UCSORTHOVIEW
 70
     0
  9
$UCSORGTOP
 10
0.0
 20
0.0
 30
0.0
  9
$UCSORGBOTTOM
 10
0.0
 20
0.0
 30
0.0
  9
$UCSORGLEFT
 10
0.0
 20
0.0
 30
0.0
  9
$UCSORGRIGHT
 10
0.0
 20
0.0
 30
0.0
  9
$UCSORGFRONT
 10
0.0
 20
0.0
 30
0.0
  9
$UCSORGBACK
 10
0.0
 20
0.0
 30
0.0
  9
$PUCSBASE
  2

  9
$PUCSNAME
  2

  9
$PUCSORG
 10
0.0
 20
0.0
 30
0.0
  9
$PUCSXDIR
 10
1.0
 20
0.0
 30
0.0
  9
$PUCSYDIR
 10
0.0
 20
1.0
 30
0.0
  9
$PUCSORTHOREF
  2

  9
$PUCSORTHOVIEW
 70
     0
  9
$PUCSORGTOP
 10
0.0
 20
0.0
 30
0.0
  9
$PUCSORGBOTTOM
 10
0.0
 20
0.0
 30
0.0
  9
$PUCSORGLEFT
 10
0.0
 20
0.0
 30
0.0
  9
$PUCSORGRIGHT
 10
0.0
 20
0.0
 30
0.0
  9
$PUCSORGFRONT
 10
0.0
 20
0.0
 30
0.0
  9
$PUCSORGBACK
 10
0.0
 20
0.0
 30
0.0
  9
$USERI1
 70
     0
  9
$USERI2
 70
     0
  9
$USERI3
 70
     0
  9
$USERI4
 70
     0
  9
$USERI5
 70
     0
  9
$USERR1
 40
0.0
  9
$USERR2
 40
0.0
  9
$USERR3
 40
0.0
  9
$USERR4
 40
0.0
  9
$USERR5
 40
0.0
  9
$WORLDVIEW
 70
     1
  9
$SHADEDGE
 70
     3
  9
$SHADEDIF
 70
    70
  9
$TILEMODE
 70
     1
  9
$MAXACTVP
 70
    64
  9
$PINSBASE
 10
0.0
 20
0.0
 30
0.0
  9
$PLIMCHECK
 70
     0
  9
$PEXTMIN
 10
0.0
 20
0.0
 30
0.0
  9
$PEXTMAX
 10
0.0
 20
0.0
 30
0.0
  9
$PLIMMIN
 10
0.0
 20
0.0
  9
$PLIMMAX
 10
12.0
 20
9.0
  9
$UNITMODE
 70
     0
  9
$VISRETAIN
 70
     1
  9
$PLINEGEN
 70
     0
  9
$PSLTSCALE
 70
     1
  9
$TREEDEPTH
 70
  3020
  9
$CMLSTYLE
  2
Standard
  9
$CMLJUST
 70
     0
  9
$CMLSCALE
 40
20.0
  9
$PROXYGRAPHICS
 70
     1
  9
$MEASUREMENT
 70
     1
  9
$CELWEIGHT
370
    -1
  9
$ENDCAPS
280
     0
  9
$JOINSTYLE
280
     0
  9
$LWDISPLAY
290
     0
  9
$INSUNITS
 70
     4
  9
$HYPERLINKBASE
  1

  9
$STYLESHEET
  1

  9
$XEDIT
290
     1
  9
$CEPSNTYPE
380
     0
  9
$PSTYLEMODE
290
     1
  9
$FINGERPRINTGUID
  2
{08065F05-2416-489B-A3C1-3523AD8D90A5}
  9
$VERSIONGUID
  2
{525E58BD-1FC2-42BF-840F-E5DB7AB036F5}
  9
$EXTNAMES
290
     1
  9
$PSVPSCALE
 40
0.0
  9
$OLESTARTUP
290
     0
  0
ENDSEC
  0
SECTION
  2
CLASSES
  0
CLASS
  1
ACDBDICTIONARYWDFLT
  2
AcDbDictionaryWithDefault
  3
ObjectDBX Classes
 90
        0
280
     0
281
     0
  0
CLASS
  1
ACDBPLACEHOLDER
  2
AcDbPlaceHolder
  3
ObjectDBX Classes
 90
        0
280
     0
281
     0
  0
CLASS
  1
LAYOUT
  2
AcDbLayout
  3
ObjectDBX Classes
 90
        0
280
     0
281
     0
  0
CLASS
  1
DICTIONARYVAR
  2
AcDbDictionaryVar
  3
ObjectDBX Classes
 90
        0
280
     0
281
     0
  0
CLASS
  1
TABLESTYLE
  2
AcDbTableStyle
  3
ObjectDBX Classes
 90
     4095
280
     0
281
     0
  0
CLASS
  1
MATERIAL
  2
AcDbMaterial
  3
ObjectDBX Classes
 90
     1153
280
     0
281
     0
  0
CLASS
  1
VISUALSTYLE
  2
AcDbVisualStyle
  3
ObjectDBX Classes
 90
     4095
280
     0
281
     0
  0
CLASS
  1
SCALE
  2
AcDbScale
  3
ObjectDBX Classes
 90
     1153
280
     0
281
     0
  0
CLASS
  1
MLEADERSTYLE
  2
AcDbMLeaderStyle
  3
ACDB_MLEADERSTYLE_CLASS
 90
     4095
280
     0
281
     0
  0
CLASS
  1
CELLSTYLEMAP
  2
AcDbCellStyleMap
  3
ObjectDBX Classes
 90
     1152
280
     0
281
     0
  0
ENDSEC
  0
SECTION
  2
TABLES
  0
TABLE
  2
VPORT
  5
8
330
0
100
AcDbSymbolTable
 70
     1
  0
VPORT
  5
EA
330
8
100
AcDbSymbolTableRecord
100
AcDbViewportTableRecord
  2
*Active
 70
     0
 10
0.0
 20
0.0
 11
1.0
 21
1.0
 12
2123.204952789221
 22
937.5401492578632
 13
0.0
 23
0.0
 14
10.0
 24
10.0
 15
10.0
 25
10.0
 16
0.0
 26
0.0
 36
1.0
 17
0.0
 27
0.0
 37
0.0
 40
48.72240407542257
 41
1.903110047846889
 42
50.0
 43
0.0
 44
0.0
 50
0.0
 51
0.0
 71
     0
 72
  1000
 73
     1
 74
     3
 75
     0
 76
     0
 77
     0
 78
     0
281
     0
 65
     1
110
0.0
120
0.0
130
0.0
111
1.0
121
0.0
131
0.0
112
0.0
122
1.0
132
0.0
 79
     0
146
0.0
  0
ENDTAB
  0
TABLE
  2
LTYPE
  5
5
330
0
100
AcDbSymbolTable
 70
     1
  0
LTYPE
  5
14
330
5
100
AcDbSymbolTableRecord
100
AcDbLinetypeTableRecord
  2
ByBlock
 70
     0
  3

 72
    65
 73
     0
 40
0.0
  0
LTYPE
  5
15
330
5
100
AcDbSymbolTableRecord
100
AcDbLinetypeTableRecord
  2
ByLayer
 70
     0
  3

 72
    65
 73
     0
 40
0.0
  0
LTYPE
  5
16
330
5
100
AcDbSymbolTableRecord
100
AcDbLinetypeTableRecord
  2
Continuous
 70
     0
  3
Solid line
 72
    65
 73
     0
 40
0.0
  0
ENDTAB
  0
TABLE
  2
LAYER
  5
2
330
0
100
AcDbSymbolTable
 70
     1
  0
LAYER
  5
10
102
{ACAD_XDICTIONARY
360
13C
102
}
330
2
100
AcDbSymbolTableRecord
100
AcDbLayerTableRecord
  2
0
 70
     0
 62
     7
  6
Continuous
370
    -3
390
F
  0
ENDTAB
  0
TABLE
  2
STYLE
  5
3
330
0
100
AcDbSymbolTable
 70
     2
  0
STYLE
  5
11
330
3
100
AcDbSymbolTableRecord
100
AcDbTextStyleTableRecord
  2
Standard
 70
     0
 40
0.0
 41
1.0
 50
0.0
 71
     0
 42
2.5
  3
txt
  4

  0
STYLE
  5
132
330
3
100
AcDbSymbolTableRecord
100
AcDbTextStyleTableRecord
  2
Annotative
 70
     0
 40
0.0
 41
1.0
 50
0.0
 71
     0
 42
2.5
  3
txt.shx
  4

1001
AcadAnnotative
1000
AnnotativeData
1002
{
1070
     1
1070
     1
1002
}
  0
ENDTAB
  0
TABLE
  2
VIEW
  5
6
330
0
100
AcDbSymbolTable
 70
     0
  0
ENDTAB
  0
TABLE
  2
UCS
  5
7
330
0
100
AcDbSymbolTable
 70
     0
  0
ENDTAB
  0
TABLE
  2
APPID
  5
9
330
0
100
AcDbSymbolTable
 70
     7
  0
APPID
  5
12
330
9
100
AcDbSymbolTableRecord
100
AcDbRegAppTableRecord
  2
ACAD
 70
     0
  0
APPID
  5
9E
330
9
100
AcDbSymbolTableRecord
100
AcDbRegAppTableRecord
  2
ACAD_PSEXT
 70
     0
  0
APPID
  5
133
330
9
100
AcDbSymbolTableRecord
100
AcDbRegAppTableRecord
  2
AcadAnnoPO
 70
     0
  0
APPID
  5
134
330
9
100
AcDbSymbolTableRecord
100
AcDbRegAppTableRecord
  2
AcadAnnotative
 70
     0
  0
APPID
  5
135
330
9
100
AcDbSymbolTableRecord
100
AcDbRegAppTableRecord
  2
ACAD_DSTYLE_DIMJAG
 70
     0
  0
APPID
  5
136
330
9
100
AcDbSymbolTableRecord
100
AcDbRegAppTableRecord
  2
ACAD_DSTYLE_DIMTALN
 70
     0
  0
APPID
  5
165
330
9
100
AcDbSymbolTableRecord
100
AcDbRegAppTableRecord
  2
ACAD_MLEADERVER
 70
     0
  0
ENDTAB
  0
TABLE
  2
DIMSTYLE
  5
A
330
0
100
AcDbSymbolTable
 70
     2
100
AcDbDimStyleTable
 71
     2
340
27
340
137
  0
DIMSTYLE
105
27
330
A
100
AcDbSymbolTableRecord
100
AcDbDimStyleTableRecord
  2
ISO-25
 70
     0
 41
2.5
 42
0.625
 43
3.75
 44
1.25
 73
     0
 74
     0
 77
     1
 78
     8
140
2.5
141
2.5
143
0.03937007874016
147
0.625
171
     3
172
     1
271
     2
272
     2
274
     3
278
    44
283
     0
284
     8
340
11
  0
DIMSTYLE
105
137
330
A
100
AcDbSymbolTableRecord
100
AcDbDimStyleTableRecord
  2
Annotative
 70
     0
 40
0.0
 41
2.5
 42
0.625
 43
3.75
 44
1.25
 73
     0
 74
     0
 77
     1
 78
     8
140
2.5
141
2.5
143
0.03937007874016
147
0.625
171
     3
172
     1
271
     2
272
     2
274
     3
278
    44
283
     0
284
     8
340
11
1001
AcadAnnotative
1000
AnnotativeData
1002
{
1070
     1
1070
     1
1002
}
1001
ACAD_DSTYLE_DIMJAG
1070
   388
1040
1.5
1001
ACAD_DSTYLE_DIMTALN
1070
   392
1070
     0
  0
ENDTAB
  0
TABLE
  2
BLOCK_RECORD
  5
1
330
0
100
AcDbSymbolTable
 70
     5
  0
BLOCK_RECORD
  5
1F
330
1
100
AcDbSymbolTableRecord
100
AcDbBlockTableRecord
  2
*Model_Space
340
22
  0
BLOCK_RECORD
  5
D2
330
1
100
AcDbSymbolTableRecord
100
AcDbBlockTableRecord
  2
*Paper_Space
340
D3
  0
BLOCK_RECORD
  5
D6
330
1
100
AcDbSymbolTableRecord
100
AcDbBlockTableRecord
  2
*Paper_Space0
340
D7
  0
BLOCK_RECORD
  5
1AD
330
1
100
AcDbSymbolTableRecord
100
AcDbBlockTableRecord
  2
SW_CENTERMARKSYMBOL_0
340
0
102
{BLKREFS
331
2CF
102
}
  0
BLOCK_RECORD
  5
288
330
1
100
AcDbSymbolTableRecord
100
AcDbBlockTableRecord
  2
1
340
0
310
2800000020000000200000000100080000000000000400000000000000000000000000000000000000000000000080000080000000808000800000008000800080800000C0C0C000C0DCC000F0CAA6000020400000206000002080000020A0000020C0000020E00000400000004020000040400000406000004080000040A0
310
000040C0000040E00000600000006020000060400000606000006080000060A0000060C0000060E00000800000008020000080400000806000008080000080A0000080C0000080E00000A0000000A0200000A0400000A0600000A0800000A0A00000A0C00000A0E00000C0000000C0200000C0400000C0600000C0800000C0
310
A00000C0C00000C0E00000E0000000E0200000E0400000E0600000E0800000E0A00000E0C00000E0E00040000000400020004000400040006000400080004000A0004000C0004000E00040200000402020004020400040206000402080004020A0004020C0004020E000404000004040200040404000404060004040800040
310
40A0004040C0004040E00040600000406020004060400040606000406080004060A0004060C0004060E00040800000408020004080400040806000408080004080A0004080C0004080E00040A0000040A0200040A0400040A0600040A0800040A0A00040A0C00040A0E00040C0000040C0200040C0400040C0600040C08000
310
40C0A00040C0C00040C0E00040E0000040E0200040E0400040E0600040E0800040E0A00040E0C00040E0E00080000000800020008000400080006000800080008000A0008000C0008000E00080200000802020008020400080206000802080008020A0008020C0008020E00080400000804020008040400080406000804080
310
008040A0008040C0008040E00080600000806020008060400080606000806080008060A0008060C0008060E00080800000808020008080400080806000808080008080A0008080C0008080E00080A0000080A0200080A0400080A0600080A0800080A0A00080A0C00080A0E00080C0000080C0200080C0400080C0600080C0
310
800080C0A00080C0C00080C0E00080E0000080E0200080E0400080E0600080E0800080E0A00080E0C00080E0E000C0000000C0002000C0004000C0006000C0008000C000A000C000C000C000E000C0200000C0202000C0204000C0206000C0208000C020A000C020C000C020E000C0400000C0402000C0404000C0406000C0
310
408000C040A000C040C000C040E000C0600000C0602000C0604000C0606000C0608000C060A000C060C000C060E000C0800000C0802000C0804000C0806000C0808000C080A000C080C000C080E000C0A00000C0A02000C0A04000C0A06000C0A08000C0A0A000C0A0C000C0A0E000C0C00000C0C02000C0C04000C0C06000
310
C0C08000C0C0A000F0FBFF00A4A0A000808080000000FF0000FF000000FFFF00FF000000FF00FF00FFFF0000FFFFFF0000000000000000000000000000000000000000000000000000000000000000000000000000000000000000000000000000000000000000000000000000000000000000000000000000000000000000
310
00000000000000000000000000000000000000000000000000000000000000000000000000000000000000000000000000000000000000000000000000000000000000000000000000000000000000000000000000000000000000000000000000000000000000000000000000000000000000000000000000000000000000
310
000000000000000000000000000000000000000000000000000000000000000000000000000000000000000000000000000000000000FFFFFFFFFFFFFFFFFFFFFFFFFFFFFFFFFFFFFFFFFFFF0000000000000000000000FFFFFFFFFFFFFFFFFFFFFFFFFFFFFFFFFFFFFFFFFFFFFF0000000000000000FFFFFFFFFFFFFFFFFF
310
FFFFFFFFFFFFFFFFFFFFFFFFFFFFFF0000000000000000FFFFFFFFFFFFFFFFFFFFFFFFFFFFFFFFFFFFFFFFFFFFFFFF0000000000000000FFFFFFFFFFFFFFFFFFFFFFFFFFFFFFFFFFFFFFFFFFFFFFFF0000000000000000FFFFFFFFFFFFFFFFFFFFFFFFFFFFFFFFFFFFFFFFFFFFFFFF000000000000000000FFFFFFFFFFFFFF
310
FFFFFFFFFFFFFFFFFFFFFFFFFFFFFFFF0000000000000000FFFFFFFFFFFFFFFFFFFFFFFFFFFFFFFFFFFFFFFFFFFFFF00000000000000000000FFFFFFFFFFFFFFFFFFFFFFFFFFFFFFFFFFFFFFFFFFFFFF0000000000FFFFFFFFFFFFFFFFFFFFFFFFFFFFFFFFFFFFFFFFFFFFFFFFFFFFFFFFFFFF0000FF000000000000000000
310
00000000000000000000000000000000000000FF0000FFA4A4A4A4A4A4A4A4A4A4A4A4A4A4A4A4A4A4A4A4A4A4A4A4A4A4A4A4FF000000FFFFA4A4A4A4A4A4A4A4A4A4A4A4A4A4A4A4A4A4A4A4A4A4A4A4FFFF000000000000FFFF0000000000000000000000000000000000000000FFFF00000000000000000000FFFFFFFF
310
FFFFFFFFFFFFFFFFFFFFFFFFFFFFFFFF000000000000000000000000000000000000000000000000000000000000000000000000000000000000000000000000000000000000000000000000000000000000000000000000000000000000000000000000000000000000000000000000000000000000000000000000000000
310
00000000000000000000000000000000000000000000000000000000000000000000000000000000000000000000000000000000000000000000000000000000000000000000000000000000000000000000000000000000000000000000000000000000000000000000000000000000000000000000000000000000000000
310
0000000000000000000000000000000000000000000000000000000000000000000000000000000000000000000000000000000000000000
102
{BLKREFS
331
2C3
102
}
1001
ACAD
1000
DesignCenter Data
1002
{
1070
     1
1070
     4
1002
}
  0
BLOCK_RECORD
  5
2C4
330
1
100
AcDbSymbolTableRecord
100
AcDbBlockTableRecord
  2
2
340
0
310
2800000020000000200000000100080000000000000400000000000000000000000000000000000000000000000080000080000000808000800000008000800080800000C0C0C000C0DCC000F0CAA6000020400000206000002080000020A0000020C0000020E00000400000004020000040400000406000004080000040A0
310
000040C0000040E00000600000006020000060400000606000006080000060A0000060C0000060E00000800000008020000080400000806000008080000080A0000080C0000080E00000A0000000A0200000A0400000A0600000A0800000A0A00000A0C00000A0E00000C0000000C0200000C0400000C0600000C0800000C0
310
A00000C0C00000C0E00000E0000000E0200000E0400000E0600000E0800000E0A00000E0C00000E0E00040000000400020004000400040006000400080004000A0004000C0004000E00040200000402020004020400040206000402080004020A0004020C0004020E000404000004040200040404000404060004040800040
310
40A0004040C0004040E00040600000406020004060400040606000406080004060A0004060C0004060E00040800000408020004080400040806000408080004080A0004080C0004080E00040A0000040A0200040A0400040A0600040A0800040A0A00040A0C00040A0E00040C0000040C0200040C0400040C0600040C08000
310
40C0A00040C0C00040C0E00040E0000040E0200040E0400040E0600040E0800040E0A00040E0C00040E0E00080000000800020008000400080006000800080008000A0008000C0008000E00080200000802020008020400080206000802080008020A0008020C0008020E00080400000804020008040400080406000804080
310
008040A0008040C0008040E00080600000806020008060400080606000806080008060A0008060C0008060E00080800000808020008080400080806000808080008080A0008080C0008080E00080A0000080A0200080A0400080A0600080A0800080A0A00080A0C00080A0E00080C0000080C0200080C0400080C0600080C0
310
800080C0A00080C0C00080C0E00080E0000080E0200080E0400080E0600080E0800080E0A00080E0C00080E0E000C0000000C0002000C0004000C0006000C0008000C000A000C000C000C000E000C0200000C0202000C0204000C0206000C0208000C020A000C020C000C020E000C0400000C0402000C0404000C0406000C0
310
408000C040A000C040C000C040E000C0600000C0602000C0604000C0606000C0608000C060A000C060C000C060E000C0800000C0802000C0804000C0806000C0808000C080A000C080C000C080E000C0A00000C0A02000C0A04000C0A06000C0A08000C0A0A000C0A0C000C0A0E000C0C00000C0C02000C0C04000C0C06000
310
C0C08000C0C0A000F0FBFF00A4A0A000808080000000FF0000FF000000FFFF00FF000000FF00FF00FFFF0000FFFFFF00000000000000000000000000000000000000000000000000000000000000000000000000000000000000000000000000FF000000000000000000000000000000000000000000000000000000000000
310
00FF00000000000000000000000000000000000000000000000000000000000000FF00000000000000000000000000000000000000000000000000000000000000FF0000000000000000000000000000000000000000000000000000000000FFFFFFFFFF00000000000000000000000000000000000000000000000000FFFF
310
FF00FF00FFFFFF000000000000000000000000000000000000000000FFFF00000000FF000000FFFFFF0000000000000000000000000000000000FFFF000000000000FF0000000000FFFF000000000000000000000000000000FFFF00000000000000FF000000000000FFFF0000000000000000000000000000FF0000000000
310
000000FF00000000000000FF00000000000000000000000000FFFF00000000000000000000000000000000FFFF000000000000000000000000FF000000000000000000000000000000000000FF0000000000000000000000FFFF000000000000000000FF0000000000000000FFFF00000000000000000000FF000000000000
310
00000000FF000000000000000000FF000000000000000000FFFF0000FFFFFFFFFFFFFFFFFFFFFFFFFFFFFFFF0000FFFF0000000000FFFFFFFFFFFFFFFFFFFFFFFFFFFFFFFFFFFFFFFFFFFFFFFFFFFFFFFFFFFF000000000000FFFF000000000000000000FF0000000000000000FFFF0000000000000000000000FF00000000
310
0000000000FF0000000000000000FFFF0000000000000000000000FFFF0000000000000000000000000000000000FF00000000000000000000000000FF00000000000000000000000000000000FFFF00000000000000000000000000FF0000000000000000FF00000000000000FF000000000000000000000000000000FF00
310
000000000000FF000000000000FFFF000000000000000000000000000000FFFF000000000000FF0000000000FFFF0000000000000000000000000000000000FFFFFFFF000000FF000000FFFFFF0000000000000000000000000000000000000000FFFFFFFF00FF00FFFFFF0000000000000000000000000000000000000000
310
00000000FFFFFFFFFFFF00000000000000000000000000000000000000000000000000000000FFFF00000000000000000000000000000000000000000000000000000000000000FF00000000000000000000000000000000000000000000000000000000000000FF0000000000000000000000000000000000000000000000
310
0000000000000000FF0000000000000000000000000000000000000000000000000000000000000000000000000000000000000000000000
102
{BLKREFS
331
2D0
102
}
1001
ACAD
1000
DesignCenter Data
1002
{
1070
     1
1070
     4
1002
}
  0
BLOCK_RECORD
  5
2D1
330
1
100
AcDbSymbolTableRecord
100
AcDbBlockTableRecord
  2
3
340
0
310
2800000020000000200000000100080000000000000400000000000000000000000000000000000000000000000080000080000000808000800000008000800080800000C0C0C000C0DCC000F0CAA6000020400000206000002080000020A0000020C0000020E00000400000004020000040400000406000004080000040A0
310
000040C0000040E00000600000006020000060400000606000006080000060A0000060C0000060E00000800000008020000080400000806000008080000080A0000080C0000080E00000A0000000A0200000A0400000A0600000A0800000A0A00000A0C00000A0E00000C0000000C0200000C0400000C0600000C0800000C0
310
A00000C0C00000C0E00000E0000000E0200000E0400000E0600000E0800000E0A00000E0C00000E0E00040000000400020004000400040006000400080004000A0004000C0004000E00040200000402020004020400040206000402080004020A0004020C0004020E000404000004040200040404000404060004040800040
310
40A0004040C0004040E00040600000406020004060400040606000406080004060A0004060C0004060E00040800000408020004080400040806000408080004080A0004080C0004080E00040A0000040A0200040A0400040A0600040A0800040A0A00040A0C00040A0E00040C0000040C0200040C0400040C0600040C08000
310
40C0A00040C0C00040C0E00040E0000040E0200040E0400040E0600040E0800040E0A00040E0C00040E0E00080000000800020008000400080006000800080008000A0008000C0008000E00080200000802020008020400080206000802080008020A0008020C0008020E00080400000804020008040400080406000804080
310
008040A0008040C0008040E00080600000806020008060400080606000806080008060A0008060C0008060E00080800000808020008080400080806000808080008080A0008080C0008080E00080A0000080A0200080A0400080A0600080A0800080A0A00080A0C00080A0E00080C0000080C0200080C0400080C0600080C0
310
800080C0A00080C0C00080C0E00080E0000080E0200080E0400080E0600080E0800080E0A00080E0C00080E0E000C0000000C0002000C0004000C0006000C0008000C000A000C000C000C000E000C0200000C0202000C0204000C0206000C0208000C020A000C020C000C020E000C0400000C0402000C0404000C0406000C0
310
408000C040A000C040C000C040E000C0600000C0602000C0604000C0606000C0608000C060A000C060C000C060E000C0800000C0802000C0804000C0806000C0808000C080A000C080C000C080E000C0A00000C0A02000C0A04000C0A06000C0A08000C0A0A000C0A0C000C0A0E000C0C00000C0C02000C0C04000C0C06000
310
C0C08000C0C0A000F0FBFF00A4A0A000808080000000FF0000FF000000FFFF00FF000000FF00FF00FFFF0000FFFFFF0000000000000000000000000000000000000000000000000000000000000000000000000000000000000000000000000000000000000000000000000000000000000000000000000000000000000000
310
0000000000000000000000000000000000000000000000000000000000000000000000000000000000000000000000000000000000000000000000FFFFFFFFFFFFFFFFFFFFFF00000000000000000000000000000000000000FFFFFFFFFFFFFFFFFFFFFFFFFFFFFF000000000000000000000000000000FFFFFFFFFF00FFFF
310
FFFFFFFFFFFFFF00FFFFFF000000000000000000000000FFFFFFFFFFFFFFFFFFFFFF00FFFFFFFFFFFFFFFFFF0000000000000000000000FFFFFFFFFFFF00FFFFFFFFFFFFFFFFFF00FFFFFFFFFF000000000000000000FFFFFFFF00FFFFFFFFFFFFFFFFFFFFFFFFFFFFFFFFFFFFFF0000000000000000FFFFFFFFFFFFFF0000
310
A4A4A4A4A4A40000FFFFFFFFFFFFFF0000000000000000FFFFFFFFA4A4A4A4A4A40000000000A4A4A4A4A4FFFFFFFF0000000000000000FFFFA4A4A40000FFFFFFFFFFFFFFFFFFFF0000A4A4A4FFFF0000000000000000FFA4A400FFFFFFFF000000000000000000FFFFFF00A4A4FFFF000000000000FFA400FFFF00000000
310
000000000000000000000000FFFF00A4FFFF00000000A4FFFFFFFF000000000000000000000000000000000000FFFF00A4FF00000000FF00FF00000000000000000000000000000000000000000000FF00FFFF0000FFA4FF00000000000000000000000000000000FFFFFF0000000000FFA4FF0000FFFFFF00000000000000
310
00000000000000FFFF0000FF0000000000FFFFFF0000FFFF0000000000000000000000000000FF0000FFFF00000000000000FFFF000000FF000000000000000000000000FFFF0000FF000000000000000000FF00000000FFFF000000000000000000FFFF0000FFFF000000000000000000FFFF00000000FFFF000000000000
310
0000FF0000FFFF0000000000000000000000FFFF0000000000FFFF0000000000FFFF0000FF000000000000000000000000FFFF00000000000000FFFF000000FF00A4FFFF000000000000000000000000FFFF00000000000000000000FFFF00FFFFFF000000000000000000000000FFFFFF000000000000000000000000FFFF
310
FFFF00000000000000000000FFFFFFFF0000000000000000000000000000000000FFFFFFFFFFFFFFFFFFFFFFFF00000000000000000000000000000000000000000000000000000000000000000000000000000000000000000000000000000000000000000000000000000000000000000000000000000000000000000000
310
0000000000000000000000000000000000000000000000000000000000000000000000000000000000000000000000000000000000000000
102
{BLKREFS
331
2F9
102
}
1001
ACAD
1000
DesignCenter Data
1002
{
1070
     1
1070
     4
1002
}
  0
ENDTAB
  0
ENDSEC
  0
SECTION
  2
BLOCKS
  0
BLOCK
  5
20
330
1F
100
AcDbEntity
  8
0
100
AcDbBlockBegin
  2
*Model_Space
 70
     0
 10
0.0
 20
0.0
 30
0.0
  3
*Model_Space
  1

  0
ENDBLK
  5
21
330
1F
100
AcDbEntity
  8
0
100
AcDbBlockEnd
  0
BLOCK
  5
D4
330
D2
100
AcDbEntity
 67
     1
  8
0
100
AcDbBlockBegin
  2
*Paper_Space
 70
     0
 10
0.0
 20
0.0
 30
0.0
  3
*Paper_Space
  1

  0
ENDBLK
  5
D5
330
D2
100
AcDbEntity
 67
     1
  8
0
100
AcDbBlockEnd
  0
BLOCK
  5
D8
330
D6
100
AcDbEntity
 67
     1
  8
0
100
AcDbBlockBegin
  2
*Paper_Space0
 70
     0
 10
0.0
 20
0.0
 30
0.0
  3
*Paper_Space0
  1

  0
ENDBLK
  5
D9
330
D6
100
AcDbEntity
 67
     1
  8
0
100
AcDbBlockEnd
  0
BLOCK
  5
1AE
330
1AD
100
AcDbEntity
  8
0
100
AcDbBlockBegin
  2
SW_CENTERMARKSYMBOL_0
 70
     0
 10
0.0
 20
0.0
 30
0.0
  3
SW_CENTERMARKSYMBOL_0
  1

  0
LINE
  5
1AF
330
1AD
100
AcDbEntity
  8
0
  6
Continuous
 62
     0
370
     0
100
AcDbLine
 10
0.0
 20
0.0
 30
0.0
 11
0.0
 21
2.500000000000002
 31
0.0
  0
LINE
  5
1B0
330
1AD
100
AcDbEntity
  8
0
  6
Continuous
 62
     0
370
     0
100
AcDbLine
 10
0.0
 20
0.0
 30
0.0
 11
-2.500000000000002
 21
0.0
 31
0.0
  0
LINE
  5
1B1
330
1AD
100
AcDbEntity
  8
0
  6
Continuous
 62
     0
370
     0
100
AcDbLine
 10
0.0
 20
0.0
 30
0.0
 11
0.0
 21
-2.500000000000002
 31
0.0
  0
LINE
  5
1B2
330
1AD
100
AcDbEntity
  8
0
  6
Continuous
 62
     0
370
     0
100
AcDbLine
 10
0.0
 20
0.0
 30
0.0
 11
2.500000000000002
 21
0.0
 31
0.0
  0
LINE
  5
1B3
330
1AD
100
AcDbEntity
  8
0
  6
Continuous
 62
     0
370
     0
100
AcDbLine
 10
0.0
 20
5.000000000000004
 30
0.0
 11
0.0
 21
11.99999999999998
 31
0.0
  0
LINE
  5
1B4
330
1AD
100
AcDbEntity
  8
0
  6
Continuous
 62
     0
370
     0
100
AcDbLine
 10
-5.000000000000004
 20
0.0
 30
0.0
 11
-12.00000000000001
 21
0.0
 31
0.0
  0
LINE
  5
1B5
330
1AD
100
AcDbEntity
  8
0
  6
Continuous
 62
     0
370
     0
100
AcDbLine
 10
0.0
 20
-5.000000000000004
 30
0.0
 11
0.0
 21
-12.00000000000001
 31
0.0
  0
LINE
  5
1B6
330
1AD
100
AcDbEntity
  8
0
  6
Continuous
 62
     0
370
     0
100
AcDbLine
 10
5.000000000000004
 20
0.0
 30
0.0
 11
11.99999999999999
 21
0.0
 31
0.0
  0
ENDBLK
  5
1B7
330
1AD
100
AcDbEntity
  8
0
100
AcDbBlockEnd
  0
BLOCK
  5
289
330
288
100
AcDbEntity
  8
0
100
AcDbBlockBegin
  2
1
 70
     0
 10
0.0
 20
0.0
 30
0.0
  3
1
  1

  0
LINE
  5
28B
330
288
100
AcDbEntity
  8
0
  6
Continuous
 62
     7
370
    15
100
AcDbLine
 10
2118.85154749702
 20
953.1638623243495
 30
0.0
 11
2118.85154749702
 21
954.3554440324349
 31
0.0
  0
LINE
  5
28C
330
288
100
AcDbEntity
  8
0
  6
Continuous
 62
     7
370
    15
100
AcDbLine
 10
2099.85154749702
 20
954.3554440324349
 30
0.0
 11
2099.85154749702
 21
953.1638623243495
 31
0.0
  0
ARC
  5
28D
330
288
100
AcDbEntity
  8
0
  6
Continuous
 62
     7
370
    15
100
AcDbCircle
 10
2117.85154749702
 20
954.3554440324349
 30
0.0
 40
1.0
100
AcDbArc
 50
0.0
 51
67.10518776576741
  0
ARC
  5
28E
330
288
100
AcDbEntity
  8
0
  6
Continuous
 62
     7
370
    15
100
AcDbCircle
 10
2100.85154749702
 20
954.3554440324349
 30
0.0
 40
1.0
100
AcDbArc
 50
112.8948122342326
 51
180.0
  0
ARC
  5
28F
330
288
100
AcDbEntity
  8
0
  6
Continuous
 62
     7
370
    15
100
AcDbCircle
 10
2109.35154749702
 20
934.2280419609421
 30
0.0
 40
22.84862270596333
100
AcDbArc
 50
105.2861415660421
 51
112.8948122342326
  0
ARC
  5
290
330
288
100
AcDbEntity
  8
0
  6
Continuous
 62
     7
370
    15
100
AcDbCircle
 10
2109.35154749702
 20
934.2280419609421
 30
0.0
 40
22.84862270596331
100
AcDbArc
 50
67.10518776576741
 51
74.83758836776366
  0
LINE
  5
291
330
288
100
AcDbEntity
  8
0
  6
Continuous
 62
     7
370
    15
100
AcDbLine
 10
2116.85154749702
 20
952.2379322371193
 30
0.0
 11
2116.85154749702
 21
952.5881688162611
 31
0.0
  0
LINE
  5
292
330
288
100
AcDbEntity
  8
0
  6
Continuous
 62
     7
370
    15
100
AcDbLine
 10
2116.85154749702
 20
950.7379531184836
 30
0.0
 11
2116.85154749702
 21
951.0881844558133
 31
0.0
  0
LINE
  5
293
330
288
100
AcDbEntity
  8
0
  6
Continuous
 62
     7
370
    15
100
AcDbLine
 10
2116.85154749702
 20
949.2379687580358
 30
0.0
 11
2116.85154749702
 21
949.5882053371774
 31
0.0
  0
LINE
  5
294
330
288
100
AcDbEntity
  8
0
  6
Continuous
 62
     7
370
    15
100
AcDbLine
 10
2116.85154749702
 20
947.737968715184
 30
0.0
 11
2116.85154749702
 21
948.0882209767298
 31
0.0
  0
LINE
  5
295
330
288
100
AcDbEntity
  8
0
  6
Continuous
 62
     7
370
    15
100
AcDbLine
 10
2101.85154749702
 20
947.3381688162611
 30
0.0
 11
2101.85154749702
 21
947.1630687871483
 31
0.0
  0
LINE
  5
296
330
288
100
AcDbEntity
  8
0
  6
Continuous
 62
     7
370
    15
100
AcDbLine
 10
2101.85154749702
 20
948.8381688591129
 30
0.0
 11
2101.85154749702
 21
948.4879165975671
 31
0.0
  0
LINE
  5
297
330
288
100
AcDbEntity
  8
0
  6
Continuous
 62
     7
370
    15
100
AcDbLine
 10
2101.85154749702
 20
950.3381948964955
 30
0.0
 11
2101.85154749702
 21
949.9879166404189
 31
0.0
  0
LINE
  5
298
330
288
100
AcDbEntity
  8
0
  6
Continuous
 62
     7
370
    15
100
AcDbLine
 10
2101.85154749702
 20
951.8382209338779
 30
0.0
 11
2101.85154749702
 21
951.4879426778016
 31
0.0
  0
LINE
  5
299
330
288
100
AcDbEntity
  8
0
  6
Continuous
 62
     7
370
    15
100
AcDbLine
 10
2101.85154749702
 20
953.1638623243495
 30
0.0
 11
2101.85154749702
 21
952.987968715184
 31
0.0
  0
SPLINE
  5
29A
330
288
100
AcDbEntity
  8
0
  6
Continuous
 62
     7
370
    15
100
AcDbSpline
210
0.0
220
0.0
230
1.0
 70
     8
 71
     3
 72
     9
 73
     5
 74
     0
 42
0.0000000001
 43
0.0000000001
 40
0.0
 40
0.0
 40
0.0
 40
0.0
 40
0.4904217479067271
 40
1.0
 40
1.0
 40
1.0
 40
1.0
 10
2102.629448015378
 20
952.4130686579416
 30
0.0
 10
2102.503383527296
 20
952.3206660824589
 30
0.0
 10
2102.246330310101
 20
952.1322515680596
 30
0.0
 10
2101.989262137796
 20
951.9438579266138
 30
0.0
 10
2101.858265787885
 20
951.8478566241004
 30
0.0
  0
SPLINE
  5
29B
330
288
100
AcDbEntity
  8
0
  6
Continuous
 62
     7
370
    15
100
AcDbSpline
210
0.0
220
0.0
230
1.0
 70
     8
 71
     3
 72
     9
 73
     5
 74
     0
 42
0.0000000001
 43
0.0000000001
 40
0.0
 40
0.0
 40
0.0
 40
0.0
 40
0.4904328983709217
 40
1.0
 40
1.0
 40
1.0
 40
1.0
 10
2102.629448199067
 20
950.9130689026852
 30
0.0
 10
2102.503379047612
 20
950.8206629204499
 30
0.0
 10
2102.246322166081
 20
950.6322457434166
 30
0.0
 10
2101.989250214546
 20
950.4438492922044
 30
0.0
 10
2101.858254805292
 20
950.3478486586031
 30
0.0
  0
SPLINE
  5
29C
330
288
100
AcDbEntity
  8
0
  6
Continuous
 62
     7
370
    15
100
AcDbSpline
210
0.0
220
0.0
230
1.0
 70
     8
 71
     3
 72
     9
 73
     5
 74
     0
 42
0.0000000001
 43
0.0000000001
 40
0.0
 40
0.0
 40
0.0
 40
0.0
 40
0.490455365542555
 40
1.0
 40
1.0
 40
1.0
 40
1.0
 10
2102.62944801719
 20
949.4130689551852
 30
0.0
 10
2102.503368731137
 20
949.3206555774737
 30
0.0
 10
2102.246302961423
 20
949.1322319528093
 30
0.0
 10
2101.989222054937
 20
948.9438288681425
 30
0.0
 10
2101.858227858416
 20
948.8478290872352
 30
0.0
  0
SPLINE
  5
29D
330
288
100
AcDbEntity
  8
0
  6
Continuous
 62
     7
370
    15
100
AcDbSpline
210
0.0
220
0.0
230
1.0
 70
     8
 71
     3
 72
     9
 73
     5
 74
     0
 42
0.0000000001
 43
0.0000000001
 40
0.0
 40
0.0
 40
0.0
 40
0.0
 40
0.4904896606843275
 40
0.9999999999999998
 40
0.9999999999999998
 40
0.9999999999999998
 40
0.9999999999999998
 10
2102.629447540894
 20
947.913068783578
 30
0.0
 10
2102.503352315786
 20
947.8206437813961
 30
0.0
 10
2102.246272023958
 20
947.6322096316257
 30
0.0
 10
2101.989176596412
 20
947.4437958081548
 30
0.0
 10
2101.858183817888
 20
947.3477970170264
 30
0.0
  0
LINE
  5
29E
330
288
100
AcDbEntity
  8
0
  6
Continuous
 62
     7
370
    15
100
AcDbLine
 10
2116.045461029441
 20
947.163175758463
 30
0.0
 11
2116.001993304659
 21
947.1952441042763
 31
0.0
  0
SPLINE
  5
29F
330
288
100
AcDbEntity
  8
0
  6
Continuous
 62
     7
370
    15
100
AcDbSpline
210
0.0
220
0.0
230
1.0
 70
     8
 71
     3
 72
     9
 73
     5
 74
     0
 42
0.0000000001
 43
0.0000000001
 40
0.0
 40
0.0
 40
0.0
 40
0.0
 40
0.5000175527481833
 40
0.9999999999999998
 40
0.9999999999999998
 40
0.9999999999999998
 40
0.9999999999999998
 10
2116.844655180822
 20
948.0979819972963
 30
0.0
 10
2116.713660436627
 20
948.1939820600274
 30
0.0
 10
2116.451680145186
 20
948.3859754454664
 30
0.0
 10
2116.189716506602
 20
948.5779898071587
 30
0.0
 10
2116.058739285492
 20
948.6739936176251
 30
0.0
  0
SPLINE
  5
2A0
330
288
100
AcDbEntity
  8
0
  6
Continuous
 62
     7
370
    15
100
AcDbSpline
210
0.0
220
0.0
230
1.0
 70
     8
 71
     3
 72
    15
 73
    11
 74
     0
 42
0.0000000001
 43
0.0000000001
 40
0.0
 40
0.0
 40
0.0
 40
0.0
 40
0.1599478721687311
 40
0.2979221176278582
 40
0.4187652584778152
 40
0.5286556924509828
 40
0.6349007055910505
 40
0.7449360958084354
 40
0.8650861824672364
 40
1.0
 40
1.0
 40
1.0
 40
1.0
 10
2116.844832909632
 20
949.5978539387451
 30
0.0
 10
2116.808868451332
 20
949.6240694260546
 30
0.0
 10
2116.741880329322
 20
949.6728989189886
 30
0.0
 10
2116.631398773727
 20
949.7523683277467
 30
0.0
 10
2116.524336396739
 20
949.8296602181808
 30
0.0
 10
2116.420449792937
 20
949.9053716996344
 30
0.0
 10
2116.321128081324
 20
949.9786889547271
 30
0.0
 10
2116.227479531552
 20
950.0485357139831
 30
0.0
 10
2116.138233894708
 20
950.1153878361662
 30
0.0
 10
2116.086228066929
 20
950.1537278304784
 30
0.0
 10
2116.058720039944
 20
950.1740074345768
 30
0.0
  0
SPLINE
  5
2A1
330
288
100
AcDbEntity
  8
0
  6
Continuous
 62
     7
370
    15
100
AcDbSpline
210
0.0
220
0.0
230
1.0
 70
     8
 71
     3
 72
     9
 73
     5
 74
     0
 42
0.0000000001
 43
0.0000000001
 40
0.0
 40
0.0
 40
0.0
 40
0.0
 40
0.5000176491413415
 40
1.0
 40
1.0
 40
1.0
 40
1.0
 10
2116.844804016056
 20
951.0978748699068
 30
0.0
 10
2116.713808754811
 20
951.1938754161578
 30
0.0
 10
2116.451827479809
 20
951.3858697315905
 30
0.0
 10
2116.189861818543
 20
951.5778851395607
 30
0.0
 10
2116.05888361138
 20
951.6738894546389
 30
0.0
  0
SPLINE
  5
2A2
330
288
100
AcDbEntity
  8
0
  6
Continuous
 62
     7
370
    15
100
AcDbSpline
210
0.0
220
0.0
230
1.0
 70
     8
 71
     3
 72
     9
 73
     5
 74
     0
 42
0.0000000001
 43
0.0000000001
 40
0.0
 40
0.0
 40
0.0
 40
0.0
 40
0.5077089416497782
 40
1.0
 40
1.0
 40
1.0
 40
1.0
 10
2116.84479324453
 20
952.59788266175
 30
0.0
 10
2116.713796895178
 20
952.6938839406529
 30
0.0
 10
2116.455782236371
 20
952.8829711735683
 30
0.0
 10
2116.197782814767
 20
953.0720793477073
 30
0.0
 10
2116.070772006452
 20
953.1651756108967
 30
0.0
  0
SPLINE
  5
2A3
330
288
100
AcDbEntity
  8
0
  6
Continuous
 62
     7
370
    15
100
AcDbSpline
210
0.0
220
0.0
230
1.0
 70
     8
 71
     3
 72
     9
 73
     5
 74
     0
 42
0.0000000001
 43
0.0000000001
 40
0.0
 40
0.0
 40
0.0
 40
0.0
 40
0.5000182944498847
 40
1.0
 40
1.0
 40
1.0
 40
1.0
 10
2101.858201938355
 20
952.9783273493467
 30
0.0
 10
2101.989201752378
 20
952.8823234217044
 30
0.0
 10
2102.251191794497
 20
952.6903225915189
 30
0.0
 10
2102.513167727744
 20
952.498299896141
 30
0.0
 10
2102.644150901662
 20
952.4022920614017
 30
0.0
  0
SPLINE
  5
2A4
330
288
100
AcDbEntity
  8
0
  6
Continuous
 62
     7
370
    15
100
AcDbSpline
210
0.0
220
0.0
230
1.0
 70
     8
 71
     3
 72
     9
 73
     5
 74
     0
 42
0.0000000001
 43
0.0000000001
 40
0.0
 40
0.0
 40
0.0
 40
0.0
 40
0.5000173431024799
 40
1.0
 40
1.0
 40
1.0
 40
1.0
 10
2101.857978251012
 20
951.4784916553688
 30
0.0
 10
2101.988970767921
 20
951.3824928063458
 30
0.0
 10
2102.250946714788
 20
951.1905017677408
 30
0.0
 10
2102.512908518154
 20
950.9984900006909
 30
0.0
 10
2102.643884876606
 20
950.9024874472455
 30
0.0
  0
SPLINE
  5
2A5
330
288
100
AcDbEntity
  8
0
  6
Continuous
 62
     7
370
    15
100
AcDbSpline
210
0.0
220
0.0
230
1.0
 70
     8
 71
     3
 72
     9
 73
     5
 74
     0
 42
0.0000000001
 43
0.0000000001
 40
0.0
 40
0.0
 40
0.0
 40
0.0
 40
0.5000177120766781
 40
1.0
 40
1.0
 40
1.0
 40
1.0
 10
2101.858275139362
 20
949.9782741727699
 30
0.0
 10
2101.989270840636
 20
949.8822732954243
 30
0.0
 10
2102.251252962688
 20
949.6902783419917
 30
0.0
 10
2102.513219659252
 20
949.4982622206221
 30
0.0
 10
2102.644198367559
 20
949.4022575609415
 30
0.0
  0
SPLINE
  5
2A6
330
288
100
AcDbEntity
  8
0
  6
Continuous
 62
     7
370
    15
100
AcDbSpline
210
0.0
220
0.0
230
1.0
 70
     8
 71
     3
 72
     9
 73
     5
 74
     0
 42
0.0000000001
 43
0.0000000001
 40
0.0
 40
0.0
 40
0.0
 40
0.0
 40
0.5000173276152721
 40
1.0
 40
1.0
 40
1.0
 40
1.0
 10
2101.85818049729
 20
948.4783429795612
 30
0.0
 10
2101.989173224214
 20
948.3823441725963
 30
0.0
 10
2102.25114959921
 20
948.1903532121574
 30
0.0
 10
2102.513110566951
 20
947.9983415431235
 30
0.0
 10
2102.644086511663
 20
947.9023390357108
 30
0.0
  0
SPLINE
  5
2A7
330
288
100
AcDbEntity
  8
0
  6
Continuous
 62
     7
370
    15
100
AcDbSpline
210
0.0
220
0.0
230
1.0
 70
     8
 71
     3
 72
     9
 73
     5
 74
     0
 42
0.0000000001
 43
0.0000000001
 40
0.0
 40
0.0
 40
0.0
 40
0.0
 40
0.4925063757268436
 40
1.0
 40
1.0
 40
1.0
 40
1.0
 10
2116.070645426831
 20
947.1608683942861
 30
0.0
 10
2116.197765073932
 20
947.2540441973301
 30
0.0
 10
2116.455872691144
 20
947.4432311959887
 30
0.0
 10
2116.713994528312
 20
947.6323973785115
 30
0.0
 10
2116.844989714961
 20
947.7283980100699
 30
0.0
  0
SPLINE
  5
2A8
330
288
100
AcDbEntity
  8
0
  6
Continuous
 62
     7
370
    15
100
AcDbSpline
210
0.0
220
0.0
230
1.0
 70
     8
 71
     3
 72
     9
 73
     5
 74
     0
 42
0.0000000001
 43
0.0000000001
 40
0.0
 40
0.0
 40
0.0
 40
0.0
 40
0.4904394048075042
 40
1.0
 40
1.0
 40
1.0
 40
1.0
 10
2116.073645704469
 20
948.6630678108779
 30
0.0
 10
2116.199724031506
 20
948.7554804574736
 30
0.0
 10
2116.456796211679
 20
948.9439087234117
 30
0.0
 10
2116.713882096374
 20
949.1323153736768
 30
0.0
 10
2116.844882932795
 20
949.2283199785241
 30
0.0
  0
SPLINE
  5
2A9
330
288
100
AcDbEntity
  8
0
  6
Continuous
 62
     7
370
    15
100
AcDbSpline
210
0.0
220
0.0
230
1.0
 70
     8
 71
     3
 72
     9
 73
     5
 74
     0
 42
0.0000000001
 43
0.0000000001
 40
0.0
 40
0.0
 40
0.0
 40
0.0
 40
0.4904386907309604
 40
1.0
 40
1.0
 40
1.0
 40
1.0
 10
2116.073577382821
 20
950.1630182609037
 30
0.0
 10
2116.199651190787
 20
950.2554277128124
 30
0.0
 10
2116.456714530912
 20
950.4438497391639
 30
0.0
 10
2116.71379290836
 20
950.6322507668372
 30
0.0
 10
2116.844790102957
 20
950.7282526411662
 30
0.0
  0
SPLINE
  5
2AA
330
288
100
AcDbEntity
  8
0
  6
Continuous
 62
     7
370
    15
100
AcDbSpline
210
0.0
220
0.0
230
1.0
 70
     8
 71
     3
 72
     9
 73
     5
 74
     0
 42
0.0000000001
 43
0.0000000001
 40
0.0
 40
0.0
 40
0.0
 40
0.0
 40
0.4904332450359252
 40
1.0
 40
1.0
 40
1.0
 40
1.0
 10
2116.073646783936
 20
951.6630686602921
 30
0.0
 10
2116.199716112076
 20
951.7554747713786
 30
0.0
 10
2116.456773172168
 20
951.9438920779576
 30
0.0
 10
2116.713845298964
 20
952.1322886585396
 30
0.0
 10
2116.844840708408
 20
952.2282892927531
 30
0.0
  0
LINE
  5
2AB
330
288
100
AcDbEntity
  8
0
  6
Continuous
 62
     7
370
    15
100
AcDbLine
 10
2109.35154749702
 20
953.1638623243495
 30
0.0
 11
2099.85154749702
 21
953.1638623243495
 31
0.0
  0
LINE
  5
2AC
330
288
100
AcDbEntity
  8
0
  6
Continuous
 62
     7
370
    15
100
AcDbLine
 10
2118.85154749702
 20
953.1638623243495
 30
0.0
 11
2109.35154749702
 21
953.1638623243495
 31
0.0
  0
SPLINE
  5
2AD
330
288
100
AcDbEntity
  8
0
  6
Continuous
 62
     7
370
    15
100
AcDbSpline
210
0.0
220
0.0
230
1.0
 70
     8
 71
     3
 72
    12
 73
     8
 74
     0
 42
0.0000000001
 43
0.0000000001
 40
0.0
 40
0.0
 40
0.0
 40
0.0
 40
0.2499999999999993
 40
0.2499999999999993
 40
0.4999999999999987
 40
0.4999999999999987
 40
1.0
 40
1.0
 40
1.0
 40
1.0
 10
2104.027708506409
 20
956.4367406612602
 30
0.0
 10
2103.93654211992
 20
956.4148863793153
 30
0.0
 10
2103.847198374335
 20
956.3934360214334
 30
0.0
 10
2103.678817636622
 20
956.3529561976903
 30
0.0
 10
2103.601501103586
 20
956.3343402708532
 30
0.0
 10
2103.406186956431
 20
956.2872695397569
 30
0.0
 10
2103.327708506409
 20
956.2682988418101
 30
0.0
 10
2103.327708506409
 20
956.2682988418101
 30
0.0
  0
ARC
  5
2AE
330
288
100
AcDbEntity
  8
0
  6
Continuous
 62
     7
370
    15
100
AcDbCircle
 10
2109.35154749702
 20
934.2280419609421
 30
0.0
 40
22.83789744174061
100
AcDbArc
 50
76.64248252553081
 51
103.4804894086752
  0
SPLINE
  5
2AF
330
288
100
AcDbEntity
  8
0
  6
Continuous
 62
     7
370
    15
100
AcDbSpline
210
0.0
220
0.0
230
1.0
 70
     8
 71
     3
 72
    12
 73
     8
 74
     0
 42
0.0000000001
 43
0.0000000001
 40
0.0
 40
0.0
 40
0.0
 40
0.0
 40
0.2500000000000006
 40
0.2500000000000006
 40
0.5000000000000013
 40
0.5000000000000013
 40
1.0
 40
1.0
 40
1.0
 40
1.0
 10
2115.327708506409
 20
956.2812743577888
 30
0.0
 10
2115.327708506409
 20
956.2812743577888
 30
0.0
 10
2115.308905816374
 20
956.2857740414196
 30
0.0
 10
2115.237270715985
 20
956.3029023496577
 30
0.0
 10
2115.184338909686
 20
956.3155538468691
 30
0.0
 10
2114.989637734743
 20
956.3620305494083
 30
0.0
 10
2114.810003637805
 20
956.4048298553297
 30
0.0
 10
2114.627708506409
 20
956.4481158708659
 30
0.0
  0
LINE
  5
2B0
330
288
100
AcDbEntity
  8
0
  6
Continuous
 62
     7
370
    15
100
AcDbLine
 10
2109.35154749702
 20
953.1638623243495
 30
0.0
 11
2109.35154749702
 21
952.9631948964954
 31
0.0
  0
SPLINE
  5
2B1
330
288
100
AcDbEntity
  8
0
  6
Continuous
 62
     7
370
    15
100
AcDbSpline
210
0.0
220
0.0
230
1.0
 70
     8
 71
     3
 72
    16
 73
    12
 74
     0
 42
0.0000000001
 43
0.0000000001
 40
0.0
 40
0.0
 40
0.0
 40
0.0
 40
0.0913355324857237
 40
0.2087610526818806
 40
0.3271351870429746
 40
0.4460215503409798
 40
0.5649722544884885
 40
0.6835379560018166
 40
0.801277985135915
 40
0.9177699910800356
 40
1.0
 40
1.0
 40
1.0
 40
1.0
 10
2103.769277893494
 20
947.1630687871483
 30
0.0
 10
2103.66020964162
 20
947.1682485304858
 30
0.0
 10
2103.410917800256
 20
947.1800876104401
 30
0.0
 10
2103.064200179686
 20
947.1991607369757
 30
0.0
 10
2102.732532855039
 20
947.2201382919976
 30
0.0
 10
2102.449933892553
 20
947.2414000913989
 30
0.0
 10
2102.219249199437
 20
947.2626922724984
 30
0.0
 10
2102.042438281085
 20
947.2837839573413
 30
0.0
 10
2101.923072215035
 20
947.3044207380681
 30
0.0
 10
2101.858557239766
 20
947.3225905796926
 30
0.0
 10
2101.857421660622
 20
947.3336093241643
 30
0.0
 10
2101.856951764606
 20
947.3381688162611
 30
0.0
  0
SPLINE
  5
2B2
330
288
100
AcDbEntity
  8
0
  6
Continuous
 62
     7
370
    15
100
AcDbSpline
210
0.0
220
0.0
230
1.0
 70
     8
 71
     3
 72
    44
 73
    40
 74
     0
 42
0.0000000001
 43
0.0000000001
 40
0.0
 40
0.0
 40
0.0
 40
0.0
 40
0.0055630353907406
 40
0.0330561250680156
 40
0.0608437586773259
 40
0.088826257887776
 40
0.1168996209464495
 40
0.1449577990254245
 40
0.1728950867824957
 40
0.2006084936466733
 40
0.2279999643357142
 40
0.2551253258123193
 40
0.2825685487800699
 40
0.3103200797454495
 40
0.3382810314350549
 40
0.36634788463081
 40
0.394414737826565
 40
0.4223756895161719
 40
0.4501272204815516
 40
0.4775704434493023
 40
0.5046958049259061
 40
0.5320872756149471
 40
0.5598006824791247
 40
0.5877379702361974
 40
0.6157961483151724
 40
0.6438695113738461
 40
0.6718520105842948
 40
0.6996396441936052
 40
0.7271327338708803
 40
0.7542747287953374
 40
0.7816125839950871
 40
0.809285862355022
 40
0.8371973806057981
 40
0.8652447223360663
 40
0.8933224269832535
 40
0.921324347410125
 40
0.9491460459904983
 40
0.9766870951418894
 40
1.0
 40
1.0
 40
1.0
 40
1.0
 10
2116.840328041007
 20
948.0980262554702
 30
0.0
 10
2116.839820770874
 20
948.099336939803
 30
0.0
 10
2116.836806519872
 20
948.1071251601159
 30
0.0
 10
2116.778294450697
 20
948.1219861999283
 30
0.0
 10
2116.661127561034
 20
948.1426012200559
 30
0.0
 10
2116.483710975325
 20
948.1636986351228
 30
0.0
 10
2116.253226544409
 20
948.1849898904014
 30
0.0
 10
2115.970435673701
 20
948.2062496349634
 30
0.0
 10
2115.639331874075
 20
948.2272362717914
 30
0.0
 10
2115.264370500301
 20
948.2477171453197
 30
0.0
 10
2114.850234928423
 20
948.2675352213659
 30
0.0
 10
2114.398160926927
 20
948.2866231049754
 30
0.0
 10
2113.907840795969
 20
948.3065655235566
 30
0.0
 10
2113.379090662436
 20
948.3271244188449
 30
0.0
 10
2112.816306145108
 20
948.3481664757279
 30
0.0
 10
2112.225293619769
 20
948.3694448964977
 30
0.0
 10
2111.612586135114
 20
948.3907233172537
 30
0.0
 10
2110.98520504294
 20
948.4117653741781
 30
0.0
 10
2110.350394270134
 20
948.4323242693166
 30
0.0
 10
2109.714711945844
 20
948.4522666884464
 30
0.0
 10
2109.079213414752
 20
948.47135457003
 30
0.0
 10
2108.443572055351
 20
948.4911726537214
 30
0.0
 10
2107.80829194336
 20
948.5116534982523
 30
0.0
 10
2107.179404156016
 20
948.53264024456
 30
0.0
 10
2106.564162418723
 20
948.5538995781116
 30
0.0
 10
2105.969636491705
 20
948.5751923677078
 30
0.0
 10
2105.402444638368
 20
948.5962840873893
 30
0.0
 10
2104.868509962782
 20
948.6169201310007
 30
0.0
 10
2104.372640820657
 20
948.6369745984227
 30
0.0
 10
2103.91514455583
 20
948.656110075356
 30
0.0
 10
2103.495561045854
 20
948.6757916697911
 30
0.0
 10
2103.11476540151
 20
948.6961935859321
 30
0.0
 10
2102.777084864757
 20
948.7171194268549
 30
0.0
 10
2102.487186131145
 20
948.7383549498526
 30
0.0
 10
2102.248915736903
 20
948.7596574488346
 30
0.0
 10
2102.064333140151
 20
948.7807928840544
 30
0.0
 10
2101.936637988969
 20
948.8015060920584
 30
0.0
 10
2101.86263169079
 20
948.8207137656704
 30
0.0
 10
2101.857253963236
 20
948.8326821910927
 30
0.0
 10
2101.854788659343
 20
948.8381688591129
 30
0.0
  0
SPLINE
  5
2B3
330
288
100
AcDbEntity
  8
0
  6
Continuous
 62
     7
370
    15
100
AcDbSpline
210
0.0
220
0.0
230
1.0
 70
     8
 71
     3
 72
    45
 73
    41
 74
     0
 42
0.0000000001
 43
0.0000000001
 40
0.0
 40
0.0
 40
0.0
 40
0.0
 40
0.0018724779635752
 40
0.0289396397654439
 40
0.0563108847453869
 40
0.0838886807063844
 40
0.111570926979409
 40
0.1392531732524335
 40
0.166830969213431
 40
0.194202214193374
 40
0.22126937599524
 40
0.2480230320393643
 40
0.2750391507365987
 40
0.3023727940391806
 40
0.3299272503402729
 40
0.357600940373755
 40
0.3852896073034591
 40
0.4128886555143759
 40
0.44029550841493
 40
0.4674118535906617
 40
0.4941819151504525
 40
0.5211451530644992
 40
0.5484392177534993
 40
0.5759682576741153
 40
0.6036312598520148
 40
0.6313242088763908
 40
0.6589424121700717
 40
0.6863828632410965
 40
0.7135465106905908
 40
0.7403493764123584
 40
0.7672579185767461
 40
0.7945104453451224
 40
0.8220120037741793
 40
0.8496621914303476
 40
0.8773572819993511
 40
0.9049925343948716
 40
0.9324645587376791
 40
0.9596736066969191
 40
0.986525661493613
 40
1.0
 40
1.0
 40
1.0
 40
1.0
 10
2116.843155249386
 20
949.5978323763525
 30
0.0
 10
2116.843102817892
 20
949.5982797072301
 30
0.0
 10
2116.842292475352
 20
949.6051933236799
 30
0.0
 10
2116.790264585299
 20
949.6190838890965
 30
0.0
 10
2116.682015939331
 20
949.6396194336837
 30
0.0
 10
2116.512223592807
 20
949.6606678214035
 30
0.0
 10
2116.289457159711
 20
949.6819445352965
 30
0.0
 10
2116.013878220957
 20
949.7032234136577
 30
0.0
 10
2115.689436482393
 20
949.7242653485926
 30
0.0
 10
2115.320422067582
 20
949.7448242760683
 30
0.0
 10
2114.911753450523
 20
949.7647666866695
 30
0.0
 10
2114.465095995799
 20
949.7838545705086
 30
0.0
 10
2113.980300418057
 20
949.8036726535909
 30
0.0
 10
2113.456834854153
 20
949.8241534982879
 30
0.0
 10
2112.898576483578
 20
949.8451402445505
 30
0.0
 10
2112.311211090306
 20
949.8663995781139
 30
0.0
 10
2111.701181600459
 20
949.8876923677075
 30
0.0
 10
2111.075455483538
 20
949.9087840873881
 30
0.0
 10
2110.441261402633
 20
949.929420131006
 30
0.0
 10
2109.805536298013
 20
949.949474598403
 30
0.0
 10
2109.170030457829
 20
949.9686100754287
 30
0.0
 10
2108.534426944575
 20
949.9882916695156
 30
0.0
 10
2107.898824256338
 20
950.0086935869777
 30
0.0
 10
2107.268578247669
 20
950.0296194229086
 30
0.0
 10
2106.650946993259
 20
950.0508549646617
 30
0.0
 10
2106.053043140774
 20
950.0721573935729
 30
0.0
 10
2105.481565162439
 20
950.0932930891051
 30
0.0
 10
2104.94254885103
 20
950.1140053354509
 30
0.0
 10
2104.441105983799
 20
950.1341594869307
 30
0.0
 10
2103.978180168035
 20
950.1533900558641
 30
0.0
 10
2103.553166403712
 20
950.1729231929871
 30
0.0
 10
2103.166647865061
 20
950.1932453203352
 30
0.0
 10
2102.822491162903
 20
950.2141046822314
 30
0.0
 10
2102.525544595789
 20
950.2353118227238
 30
0.0
 10
2102.279600127109
 20
950.2566188584822
 30
0.0
 10
2102.087658962971
 20
950.2777939077542
 30
0.0
 10
2101.950245048295
 20
950.2985773021187
 30
0.0
 10
2101.871231854958
 20
950.3188336345909
 30
0.0
 10
2101.841962403778
 20
950.3349579015701
 30
0.0
 10
2101.859179825405
 20
950.3446829842866
 30
0.0
 10
2101.864932716953
 20
950.3479324456392
 30
0.0
  0
SPLINE
  5
2B4
330
288
100
AcDbEntity
  8
0
  6
Continuous
 62
     7
370
    15
100
AcDbSpline
210
0.0
220
0.0
230
1.0
 70
     8
 71
     3
 72
    45
 73
    41
 74
     0
 42
0.0000000001
 43
0.0000000001
 40
0.0
 40
0.0
 40
0.0
 40
0.0
 40
0.011458642525289
 40
0.038476210289232
 40
0.0658113196896293
 40
0.0933672539323097
 40
0.1210424283027333
 40
0.1487325803726992
 40
0.1763331089169853
 40
0.203741431842104
 40
0.230859231460406
 40
0.2576307288891125
 40
0.2845954130334975
 40
0.3118909416974332
 40
0.3394214581963758
 40
0.3670859441379487
 40
0.3947803785322631
 40
0.4224000631867371
 40
0.4498419860844382
 40
0.4770070905136635
 40
0.5038113938638675
 40
0.5307213793248688
 40
0.5579753678402039
 40
0.5854784013735598
 40
0.6131300721060704
 40
0.6408266481598814
 40
0.6684633828306598
 40
0.6959368806936403
 40
0.7231473880677607
 40
0.7500008831312516
 40
0.7768543781947452
 40
0.8040648855688655
 40
0.8315383834318485
 40
0.8591751181026239
 40
0.8868716941564349
 40
0.9145233648889453
 40
0.942026398422301
 40
0.9692803869376358
 40
0.9961903723986397
 40
1.0
 40
1.0
 40
1.0
 40
1.0
 10
2116.845060977207
 20
951.0881844558133
 30
0.0
 10
2116.846586977616
 20
951.0909170031618
 30
0.0
 10
2116.851711032452
 20
951.1000924413668
 30
0.0
 10
2116.803559319588
 20
951.1161725471614
 30
0.0
 10
2116.701101800485
 20
951.1366535271998
 30
0.0
 10
2116.539799916883
 20
951.1576402367399
 30
0.0
 10
2116.324568571128
 20
951.178899580212
 30
0.0
 10
2116.056332339283
 20
951.2001923671469
 30
0.0
 10
2115.738627221948
 20
951.2212840875371
 30
0.0
 10
2115.375672467118
 20
951.2419201309667
 30
0.0
 10
2114.972491511771
 20
951.2619745984133
 30
0.0
 10
2114.531246439419
 20
951.2811100754261
 30
0.0
 10
2114.0519513272
 20
951.3007916695164
 30
0.0
 10
2113.533867418603
 20
951.3211935869774
 30
0.0
 10
2112.980251525776
 20
951.3421194229087
 30
0.0
 10
2112.396665148249
 20
951.3633549646622
 30
0.0
 10
2111.789456290195
 20
951.3846573935712
 30
0.0
 10
2111.165533120283
 20
951.4057930891114
 30
0.0
 10
2110.532103565016
 20
951.426505335428
 30
0.0
 10
2109.896335258822
 20
951.4466594870137
 30
0.0
 10
2109.260814891924
 20
951.4658900555582
 30
0.0
 10
2108.625244894935
 20
951.4854231941409
 30
0.0
 10
2107.989465696388
 20
951.5057453159514
 30
0.0
 10
2107.358010019892
 20
951.5266046987891
 30
0.0
 10
2106.738134864073
 20
951.5478117605363
 30
0.0
 10
2106.136990206598
 20
951.5691190907288
 30
0.0
 10
2105.561349626409
 20
951.5902930452998
 30
0.0
 10
2105.017357417463
 20
951.611080486969
 30
0.0
 10
2104.510315896496
 20
951.6313219379568
 30
0.0
 10
2104.041951930137
 20
951.6506948966741
 30
0.0
 10
2103.611523585666
 20
951.6700678543145
 30
0.0
 10
2103.219394855253
 20
951.6903093085861
 30
0.0
 10
2102.86886739785
 20
951.7110967380441
 30
0.0
 10
2102.564927619045
 20
951.732270738511
 30
0.0
 10
2102.311456543319
 20
951.7535778969717
 30
0.0
 10
2102.111848055116
 20
951.7747855977258
 30
0.0
 10
2101.965974035761
 20
951.7956426161603
 30
0.0
 10
2101.880955337284
 20
951.8159734383756
 30
0.0
 10
2101.845353926998
 20
951.8299363489925
 30
0.0
 10
2101.853747720821
 20
951.8373068916737
 30
0.0
 10
2101.854788659343
 20
951.8382209338779
 30
0.0
  0
SPLINE
  5
2B5
330
288
100
AcDbEntity
  8
0
  6
Continuous
 62
     7
370
    15
100
AcDbSpline
210
0.0
220
0.0
230
1.0
 70
     8
 71
     3
 72
    25
 73
    21
 74
     0
 42
0.0000000001
 43
0.0000000001
 40
0.0
 40
0.0
 40
0.0
 40
0.0
 40
0.0433227864528571
 40
0.0994308728039379
 40
0.1560219949628377
 40
0.2128885017515134
 40
0.2698165699187224
 40
0.3265909841703223
 40
0.3829999952776348
 40
0.4388399844501083
 40
0.4939383188868724
 40
0.5492538911383541
 40
0.6052765884766986
 40
0.6618112172580391
 40
0.7186513813857723
 40
0.7755838519009788
 40
0.8323933137898311
 40
0.8888672296989659
 40
0.944800548162992
 40
1.0
 40
1.0
 40
1.0
 40
1.0
 10
2116.840197980144
 20
952.5979391838266
 30
0.0
 10
2116.831836501509
 20
952.60303376144
 30
0.0
 10
2116.812645927987
 20
952.614726414202
 30
0.0
 10
2116.717889091031
 20
952.6337038223898
 30
0.0
 10
2116.566569898354
 20
952.6546166555762
 30
0.0
 10
2116.358516526898
 20
952.6758557086626
 30
0.0
 10
2116.097796425968
 20
952.6971571946768
 30
0.0
 10
2115.786887347094
 20
952.7182931419824
 30
0.0
 10
2115.430106017013
 20
952.7390053214526
 30
0.0
 10
2115.032434853253
 20
952.7591594906866
 30
0.0
 10
2114.596599694623
 20
952.7783900545758
 30
0.0
 10
2114.122781398212
 20
952.7979231944083
 30
0.0
 10
2113.61017324136
 20
952.8182453158787
 30
0.0
 10
2113.061313598016
 20
952.8391046988089
 30
0.0
 10
2112.481636175504
 20
952.8603117605312
 30
0.0
 10
2111.877389370095
 20
952.8816190907292
 30
0.0
 10
2111.255416695947
 20
952.9027930453031
 30
0.0
 10
2110.622899870904
 20
952.9235804869559
 30
0.0
 10
2109.987089425538
 20
952.9438219380054
 30
0.0
 10
2109.562460124908
 20
952.9567657351737
 30
0.0
 10
2109.35154749702
 20
952.9631948964954
 30
0.0
  0
LINE
  5
2B6
330
288
100
AcDbEntity
  8
0
  6
Continuous
 62
     7
370
    15
100
AcDbLine
 10
2103.769277893494
 20
947.1630687871483
 30
0.0
 11
2101.85154749702
 21
947.1630687871483
 31
0.0
  0
SPLINE
  5
2B7
330
288
100
AcDbEntity
  8
0
  6
Continuous
 62
     7
370
    15
100
AcDbSpline
210
0.0
220
0.0
230
1.0
 70
     8
 71
     3
 72
    44
 73
    40
 74
     0
 42
0.0000000001
 43
0.0000000001
 40
0.0
 40
0.0
 40
0.0
 40
0.0
 40
0.0233067851467525
 40
0.0508406046855185
 40
0.0786549999819028
 40
0.1066495698159787
 40
0.134719903976773
 40
0.1627598831910106
 40
0.1906640745798498
 40
0.2183300886165736
 40
0.2456607675427543
 40
0.2727956376075834
 40
0.3002815102617464
 40
0.3280618495292305
 40
0.3560370032450156
 40
0.3841029969569777
 40
0.4121538096753464
 40
0.4400837638059038
 40
0.4677898958130103
 40
0.4951741761542464
 40
0.5222924171375562
 40
0.5497284361723649
 40
0.5774726822729767
 40
0.605426294124211
 40
0.6334857796821135
 40
0.6615452652400166
 40
0.6894988770912509
 40
0.7172431231918627
 40
0.7446791422266714
 40
0.7717973832099812
 40
0.7991816635512166
 40
0.8268877955583235
 40
0.8548177496888808
 40
0.8828685624072496
 40
0.9109345561192117
 40
0.9389097098349967
 40
0.9666900491024801
 40
0.9941759217566438
 40
1.0
 40
1.0
 40
1.0
 40
1.0
 10
2116.848306334698
 20
947.737968715184
 30
0.0
 10
2116.845841030805
 20
947.7434553832042
 30
0.0
 10
2116.840463303251
 20
947.7554238086264
 30
0.0
 10
2116.766457005071
 20
947.7746314822386
 30
0.0
 10
2116.63876185389
 20
947.7953446902427
 30
0.0
 10
2116.454179257138
 20
947.8164801254623
 30
0.0
 10
2116.215908862896
 20
947.8377826244443
 30
0.0
 10
2115.926010129284
 20
947.859018147442
 30
0.0
 10
2115.58832959253
 20
947.8799439883648
 30
0.0
 10
2115.207533948187
 20
947.9003459045058
 30
0.0
 10
2114.78795043821
 20
947.9200274989409
 30
0.0
 10
2114.330454173384
 20
947.9391629758742
 30
0.0
 10
2113.834585031259
 20
947.9592174432962
 30
0.0
 10
2113.300650355672
 20
947.9798534869075
 30
0.0
 10
2112.733458502335
 20
948.0009452065893
 30
0.0
 10
2112.138932575318
 20
948.0222379961853
 30
0.0
 10
2111.523690838025
 20
948.043497329737
 30
0.0
 10
2110.89480305068
 20
948.0644840760446
 30
0.0
 10
2110.259522938689
 20
948.0849649205756
 30
0.0
 10
2109.623881579289
 20
948.1047830042671
 30
0.0
 10
2108.988383048197
 20
948.1238708858505
 30
0.0
 10
2108.352700723906
 20
948.1438133049802
 30
0.0
 10
2107.7178899511
 20
948.1643722001189
 30
0.0
 10
2107.090508858929
 20
948.1854142570432
 30
0.0
 10
2106.477801374265
 20
948.2066926777992
 30
0.0
 10
2105.886788848957
 20
948.2279710985686
 30
0.0
 10
2105.324004331513
 20
948.2490131554529
 30
0.0
 10
2104.795254198411
 20
948.2695720507368
 30
0.0
 10
2104.304934065868
 20
948.2895144693339
 30
0.0
 10
2103.852860070225
 20
948.3086023528853
 30
0.0
 10
2103.43872447626
 20
948.3284204291507
 30
0.0
 10
2103.063763186258
 20
948.3489013018472
 30
0.0
 10
2102.732659070352
 20
948.3698879418156
 30
0.0
 10
2102.449869387028
 20
948.3911476745879
 30
0.0
 10
2102.219380523564
 20
948.4124389738781
 30
0.0
 10
2102.041980391467
 20
948.4335362255746
 30
0.0
 10
2101.924752766274
 20
948.4541518487542
 30
0.0
 10
2101.866153568413
 20
948.4690753795
 30
0.0
 10
2101.863177082479
 20
948.4769248506577
 30
0.0
 10
2101.862656658807
 20
948.4782972914135
 30
0.0
  0
SPLINE
  5
2B8
330
288
100
AcDbEntity
  8
0
  6
Continuous
 62
     7
370
    15
100
AcDbSpline
210
0.0
220
0.0
230
1.0
 70
     8
 71
     3
 72
    44
 73
    40
 74
     0
 42
0.0000000001
 43
0.0000000001
 40
0.0
 40
0.0
 40
0.0
 40
0.0
 40
0.0194038184734958
 40
0.0468924417467001
 40
0.0746755611016531
 40
0.1026535144007541
 40
0.1307223167867453
 40
0.1587759366599216
 40
0.1867086858504938
 40
0.2144175905188583
 40
0.2418046113123937
 40
0.2689255661244026
 40
0.2963643307892045
 40
0.3241113533653005
 40
0.3520677626440706
 40
0.3801300562247064
 40
0.4081923498053422
 40
0.4361487590841137
 40
0.4638957816602098
 40
0.4913345463250117
 40
0.5184555011370194
 40
0.5458425219305548
 40
0.5735514265989192
 40
0.601484175789493
 40
0.6295377956626693
 40
0.6576065980486607
 40
0.6855845513477604
 40
0.7133676707027135
 40
0.7408562939759178
 40
0.7679938795335834
 40
0.7953272935479597
 40
0.8229960762311783
 40
0.8509030601018539
 40
0.8789458453867478
 40
0.9070189886559379
 40
0.9350163600163766
 40
0.9628335388083502
 40
0.9903701137643894
 40
1.0
 40
1.0
 40
1.0
 40
1.0
 10
2116.846143229434
 20
949.2379687580358
 30
0.0
 10
2116.84567336226
 20
949.2425282506129
 30
0.0
 10
2116.844537852816
 20
949.2535469962456
 30
0.0
 10
2116.780022183823
 20
949.2717168263155
 30
0.0
 10
2116.660658952089
 20
949.2923536542496
 30
0.0
 10
2116.483837368344
 20
949.3134451614537
 30
0.0
 10
2116.253192645924
 20
949.3347380082907
 30
0.0
 10
2115.970444713846
 20
949.3559973265085
 30
0.0
 10
2115.639329476773
 20
949.3769840769006
 30
0.0
 10
2115.264371132382
 20
949.3974649203499
 30
0.0
 10
2114.850234761787
 20
949.4172830043266
 30
0.0
 10
2114.398160971956
 20
949.4363708858344
 30
0.0
 10
2113.907840783696
 20
949.4563133049846
 30
0.0
 10
2113.379090665767
 20
949.4768722001179
 30
0.0
 10
2112.816306144209
 20
949.497914257043
 30
0.0
 10
2112.22529362001
 20
949.5191926778014
 30
0.0
 10
2111.612586135049
 20
949.5404710985603
 30
0.0
 10
2110.985205042956
 20
949.561513155484
 30
0.0
 10
2110.350394270129
 20
949.5820720506227
 30
0.0
 10
2109.714711945844
 20
949.6020144697524
 30
0.0
 10
2109.079213414752
 20
949.6211023513358
 30
0.0
 10
2108.443572055348
 20
949.6409204350275
 30
0.0
 10
2107.808291943374
 20
949.6614012795582
 30
0.0
 10
2107.179404155965
 20
949.6823880258666
 30
0.0
 10
2106.564162418915
 20
949.7036473594155
 30
0.0
 10
2105.969636490989
 20
949.7249401490213
 30
0.0
 10
2105.402444641023
 20
949.7460318686675
 30
0.0
 10
2104.868509952993
 20
949.7666679124098
 30
0.0
 10
2104.372640856573
 20
949.7867223793507
 30
0.0
 10
2103.915144423242
 20
949.8058578580577
 30
0.0
 10
2103.495561547476
 20
949.8255394458169
 30
0.0
 10
2103.114763497325
 20
949.8459413872824
 30
0.0
 10
2102.777092051139
 20
949.8668671325145
 30
0.0
 10
2102.487159162071
 20
949.8881030150451
 30
0.0
 10
2102.249016374616
 20
949.9094041707907
 30
0.0
 10
2102.063959720163
 20
949.9305445961182
 30
0.0
 10
2101.938015853348
 20
949.9512393694509
 30
0.0
 10
2101.871811800883
 20
949.9671602271787
 30
0.0
 10
2101.865897835349
 20
949.9759296107017
 30
0.0
 10
2101.864365517945
 20
949.978201771219
 30
0.0
  0
LWPOLYLINE
  5
2B9
330
288
100
AcDbEntity
  8
0
  6
Continuous
 62
     7
370
    15
100
AcDbPolyline
 90
       39
 70
   128
 43
0.0
 10
2116.845060977207
 20
950.7379531184836
 10
2116.842889407664
 20
950.7489230927024
 10
2116.785217463979
 20
950.7688065572539
 10
2116.67226778148
 20
950.7893747059123
 10
2116.503754127577
 20
950.8104137379692
 10
2116.280643990855
 20
950.8316926778016
 10
2116.005157553145
 20
950.8529716176338
 10
2115.680696021456
 20
950.8740106496906
 10
2115.311704002708
 20
950.894578798349
 10
2114.903477391703
 20
950.9144622629005
 10
2114.460528255607
 20
950.9336498971221
 10
2113.976642878648
 20
950.9534194293507
 10
2113.453202760745
 20
950.9739023611306
 10
2112.894954815816
 20
950.9948879493846
 10
2112.307590810297
 20
951.0161471915793
 10
2111.697561486051
 20
951.0374409179357
 10
2111.071843058843
 20
951.0585286661401
 10
2110.437673578342
 20
951.0791776567144
 10
2109.80227981711
 20
951.0991711739698
 10
2109.171762745588
 20
951.1183951019514
 10
2108.537997600699
 20
951.1380469026525
 10
2107.902428689406
 20
951.1584403053713
 10
2107.272196523296
 20
951.1793677626894
 10
2106.65456755281
 20
951.2006024112915
 10
2106.056663534951
 20
951.2219060016684
 10
2105.485191212278
 20
951.2430377013167
 10
2104.946193509452
 20
951.2637630989901
 10
2104.444841409104
 20
951.2838627111101
 10
2103.985132087485
 20
951.3031592016403
 10
2103.561874534919
 20
951.3226895541007
 10
2103.175377416385
 20
951.3429891811886
 10
2102.831232604494
 20
951.3638538643702
 10
2102.53427569901
 20
951.3850590423272
 10
2102.288375437818
 20
951.406367566617
 10
2102.096270965957
 20
951.4275384194919
 10
2101.95947090624
 20
951.4483357326112
 10
2101.878221953725
 20
951.4685374058414
 10
2101.85154749702
 20
951.4879426778016
 10
2101.85154749702
 20
951.4879426778016
  0
SPLINE
  5
2BA
330
288
100
AcDbEntity
  8
0
  6
Continuous
 62
     7
370
    15
100
AcDbSpline
210
0.0
220
0.0
230
1.0
 70
     8
 71
     3
 72
    44
 73
    40
 74
     0
 42
0.0000000001
 43
0.0000000001
 40
0.0
 40
0.0
 40
0.0
 40
0.0
 40
0.011614517985093
 40
0.0389996140831029
 40
0.0667065714347015
 40
0.0946373575772405
 40
0.1226890059078756
 40
0.1507558356843343
 40
0.178731822758562
 40
0.2065129895811125
 40
0.2339996810184101
 40
0.2611353594102742
 40
0.2884668524964861
 40
0.316133690682618
 40
0.3440387133159863
 40
0.3720795278197658
 40
0.4001506981743562
 40
0.428146101945266
 40
0.4559613258112225
 40
0.4834959655614234
 40
0.5106648961438859
 40
0.5379409464635991
 40
0.5655656794176358
 40
0.5934428452261327
 40
0.6214706701915959
 40
0.6495440113393395
 40
0.6775566970632011
 40
0.7054039254184596
 40
0.7329845857438637
 40
0.7602033772097099
 40
0.7874221686755588
 40
0.8150028290009625
 40
0.8428500573562235
 40
0.8708627430800824
 40
0.8989360842278259
 40
0.9269639091932889
 40
0.9548410750017858
 40
0.982465807955822
 40
1.0
 40
1.0
 40
1.0
 40
1.0
 10
2116.845060977207
 20
952.2379322371193
 30
0.0
 10
2116.846586977616
 20
952.2406647844679
 30
0.0
 10
2116.851711032452
 20
952.2498402226728
 30
0.0
 10
2116.803559319588
 20
952.2659203284675
 30
0.0
 10
2116.701101800485
 20
952.2864013085058
 30
0.0
 10
2116.539799916883
 20
952.307388018046
 30
0.0
 10
2116.324568571128
 20
952.3286473615183
 30
0.0
 10
2116.056332339283
 20
952.3499401484532
 30
0.0
 10
2115.738627221948
 20
952.3710318688429
 30
0.0
 10
2115.375672467118
 20
952.3916679122729
 30
0.0
 10
2114.972491511771
 20
952.4117223797194
 30
0.0
 10
2114.531246439419
 20
952.4308578567319
 30
0.0
 10
2114.0519513272
 20
952.4505394508224
 30
0.0
 10
2113.533867418603
 20
952.4709413682836
 30
0.0
 10
2112.980251525776
 20
952.4918672042147
 30
0.0
 10
2112.396665148249
 20
952.5131027459682
 30
0.0
 10
2111.789456290195
 20
952.5344051748772
 30
0.0
 10
2111.165533120283
 20
952.5555408704175
 30
0.0
 10
2110.532103565016
 20
952.5762531167343
 30
0.0
 10
2109.896335258821
 20
952.5964072683198
 30
0.0
 10
2109.260814891926
 20
952.6156378368643
 30
0.0
 10
2108.62524489493
 20
952.635170975447
 30
0.0
 10
2107.989465696411
 20
952.6554930972574
 30
0.0
 10
2107.358010019808
 20
952.6763524800955
 30
0.0
 10
2106.738134864389
 20
952.6975595418411
 30
0.0
 10
2106.136990205416
 20
952.7188668720397
 30
0.0
 10
2105.561349630799
 20
952.7400408265885
 30
0.0
 10
2105.01735740125
 20
952.7608282683393
 30
0.0
 10
2104.510315956038
 20
952.781069719027
 30
0.0
 10
2104.041951711094
 20
952.8004426788479
 30
0.0
 10
2103.611524408122
 20
952.8198156323622
 30
0.0
 10
2103.219391727498
 20
952.840057102284
 30
0.0
 10
2102.868879220908
 20
952.8608444725085
 30
0.0
 10
2102.564883177863
 20
952.8820186958883
 30
0.0
 10
2102.311622648916
 20
952.9033250201857
 30
0.0
 10
2102.111230719327
 20
952.9245358248488
 30
0.0
 10
2101.968255530192
 20
952.9453813584348
 30
0.0
 10
2101.883830794029
 20
952.9633568023371
 30
0.0
 10
2101.869805310828
 20
952.9740851556521
 30
0.0
 10
2101.864359532037
 20
952.9782507332727
 30
0.0
  0
SPLINE
  5
2BB
330
288
100
AcDbEntity
  8
0
  6
Continuous
 62
     7
370
    15
100
AcDbSpline
210
0.0
220
0.0
230
1.0
 70
    24
 71
     3
 72
    36
 73
    32
 74
     0
 42
0.0000000001
 43
0.0000000001
 40
0.0
 40
0.0
 40
0.0
 40
0.0
 40
0.0317412760658374
 40
0.0636344691194431
 40
0.095846444994168
 40
0.1282225005239811
 40
0.1599667221125993
 40
0.1918679960911756
 40
0.2240917819068728
 40
0.256479913559515
 40
0.2940188251065772
 40
0.3318183611097619
 40
0.3704424195170268
 40
0.4093544120261052
 40
0.4466643170335048
 40
0.4842490138348127
 40
0.5227033125160431
 40
0.5614588588441753
 40
0.5976927534261548
 40
0.6341783063581954
 40
0.6714575050808191
 40
0.7090108963842468
 40
0.7452427751428902
 40
0.7817403954364757
 40
0.8190880051580331
 40
0.8567326694234955
 40
0.8918089115343043
 40
0.9273903586692949
 40
0.9632284470459319
 40
0.9995940147525034
 40
1.0
 40
1.0
 40
1.0
 40
1.0
 10
2103.769277893494
 20
947.1630687871483
 30
0.0
 10
2103.891488329888
 20
947.1630687871483
 30
0.0
 10
2104.136494114302
 20
947.1630687871483
 30
0.0
 10
2104.536306610043
 20
947.1630687871483
 30
0.0
 10
2104.959583537645
 20
947.1630687871483
 30
0.0
 10
2105.403268890437
 20
947.1630687871483
 30
0.0
 10
2105.863525251335
 20
947.1630687871483
 30
0.0
 10
2106.338801567387
 20
947.1630687871483
 30
0.0
 10
2106.830825463214
 20
947.1630687871483
 30
0.0
 10
2107.363397079757
 20
947.1630687871483
 30
0.0
 10
2107.935503964464
 20
947.1630687871483
 30
0.0
 10
2108.548395476236
 20
947.1630687871483
 30
0.0
 10
2109.172204167959
 20
947.1630687871483
 30
0.0
 10
2109.792448036816
 20
947.1630687871483
 30
0.0
 10
2110.401369868324
 20
947.1630687871483
 30
0.0
 10
2110.997864601591
 20
947.1630687871483
 30
0.0
 10
2111.587193410079
 20
947.1630687871483
 30
0.0
 10
2112.150247281601
 20
947.1630687871483
 30
0.0
 10
2112.680820071815
 20
947.1630687871483
 30
0.0
 10
2113.179079122546
 20
947.1630687871485
 30
0.0
 10
2113.653814594931
 20
947.1630687871483
 30
0.0
 10
2114.094119423953
 20
947.1630687871483
 30
0.0
 10
2114.495639608064
 20
947.1630687871483
 30
0.0
 10
2114.856856529451
 20
947.1630687871483
 30
0.0
 10
2115.179388302456
 20
947.1630687871483
 30
0.0
 10
2115.451936486918
 20
947.1630687871483
 30
0.0
 10
2115.673828384322
 20
947.1630687871483
 30
0.0
 10
2115.84789777542
 20
947.1630687871483
 30
0.0
 10
2115.971556569798
 20
947.1630687871483
 30
0.0
 10
2116.033961881214
 20
947.1630687871483
 30
0.0
 10
2116.045257919331
 20
947.1630687871483
 30
0.0
 10
2116.045382635979
 20
947.1630687871483
 30
0.0
  0
SPLINE
  5
2BC
330
288
100
AcDbEntity
  8
0
  6
Continuous
 62
     7
370
    15
100
AcDbSpline
210
0.0
220
0.0
230
1.0
 70
     8
 71
     3
 72
    36
 73
    32
 74
     0
 42
0.0000000001
 43
0.0000000001
 40
0.0
 40
0.0
 40
0.0
 40
0.0
 40
0.0230512990056392
 40
0.0586317878365639
 40
0.0943642456524777
 40
0.1296313956320868
 40
0.1646622624833774
 40
0.1992739504335823
 40
0.2334214902946079
 40
0.2679590661836371
 40
0.3029409986756318
 40
0.3381859432065823
 40
0.3735041411109998
 40
0.4087034565879702
 40
0.4435956042412491
 40
0.4780020687799838
 40
0.5122041977063718
 40
0.5469316653808099
 40
0.5820357596729089
 40
0.6173312513547542
 40
0.6526267430366001
 40
0.6877308373286994
 40
0.7224583050031374
 40
0.7566604339295253
 40
0.7910668984682592
 40
0.8259590461215388
 40
0.8611583615985091
 40
0.8964765595029266
 40
0.9317215040338769
 40
0.9667034365258711
 40
1.0
 40
1.0
 40
1.0
 40
1.0
 10
2115.993861387147
 20
947.1953128849001
 30
0.0
 10
2115.973018683635
 20
947.2006978324763
 30
0.0
 10
2115.920004535932
 20
947.2143946355815
 30
0.0
 10
2115.752075547408
 20
947.2370712725732
 30
0.0
 10
2115.502480491632
 20
947.2628028120343
 30
0.0
 10
2115.183915801749
 20
947.2883657071358
 30
0.0
 10
2114.806898939532
 20
947.3132941681919
 30
0.0
 10
2114.376335256549
 20
947.3374321710608
 30
0.0
 10
2113.895940188621
 20
947.3603692333826
 30
0.0
 10
2113.366716023421
 20
947.3843357444479
 30
0.0
 10
2112.789327530553
 20
947.4091713780573
 30
0.0
 10
2112.170550871393
 20
947.4345766090982
 30
0.0
 10
2111.51988689133
 20
947.4601406993205
 30
0.0
 10
2110.847945505397
 20
947.4854405236646
 30
0.0
 10
2110.165879722849
 20
947.5101126572589
 30
0.0
 10
2109.481838534665
 20
947.5337523035763
 30
0.0
 10
2108.797544011889
 20
947.5568395498177
 30
0.0
 10
2108.114400238024
 20
947.5812197932194
 30
0.0
 10
2107.437276499871
 20
947.6063011165395
 30
0.0
 10
2106.777213265148
 20
947.6318187872378
 30
0.0
 10
2106.145097133139
 20
947.6573364574008
 30
0.0
 10
2105.550912725477
 20
947.6824177823125
 30
0.0
 10
2105.003098107557
 20
947.7067980199745
 30
0.0
 10
2104.504036406327
 20
947.7298852872918
 30
0.0
 10
2104.054278753829
 20
947.753524854378
 30
0.0
 10
2103.655970284842
 20
947.7781972890065
 30
0.0
 10
2103.315518990051
 20
947.8034959757788
 30
0.0
 10
2103.039021466478
 20
947.8290643296155
 30
0.0
 10
2102.83300944752
 20
947.8544537102502
 30
0.0
 10
2102.694391411809
 20
947.8790529072028
 30
0.0
 10
2102.661374258643
 20
947.8947072297847
 30
0.0
 10
2102.645273175564
 20
947.9023411874182
 30
0.0
  0
SPLINE
  5
2BD
330
288
100
AcDbEntity
  8
0
  6
Continuous
 62
     7
370
    15
100
AcDbSpline
210
0.0
220
0.0
230
1.0
 70
     8
 71
     3
 72
    37
 73
    33
 74
     0
 42
0.0000000001
 43
0.0000000001
 40
0.0
 40
0.0
 40
0.0
 40
0.0
 40
0.0207865983731655
 40
0.0546051195850404
 40
0.0887386788216087
 40
0.1230052451932668
 40
0.1572184843579701
 40
0.1911937933780721
 40
0.2247541966695595
 40
0.257885182515117
 40
0.2914216147385145
 40
0.3253810962416396
 40
0.3595871531870471
 40
0.3938554152120103
 40
0.4279994927887869
 40
0.461837016524027
 40
0.4951953552758332
 40
0.5284004916217436
 40
0.5621181626701066
 40
0.5961929389061277
 40
0.6304446754754525
 40
0.6646875203309226
 40
0.6987359103033369
 40
0.7324105439748318
 40
0.7655812591041068
 40
0.7989923028672527
 40
0.8328666531244387
 40
0.8670305227627217
 40
0.9013009045906235
 40
0.9354913400791405
 40
0.969417964217216
 40
1.0
 40
1.0
 40
1.0
 40
1.0
 10
2116.05063348583
 20
948.6740872729553
 30
0.0
 10
2116.044446752324
 20
948.6789478692942
 30
0.0
 10
2116.028194582687
 20
948.6917163578935
 30
0.0
 10
2115.922421002079
 20
948.7133328300052
 30
0.0
 10
2115.741222138276
 20
948.7385645608659
 30
0.0
 10
2115.486990136116
 20
948.7641275690881
 30
0.0
 10
2115.167435523432
 20
948.7895660435945
 30
0.0
 10
2114.787510649442
 20
948.8144653374982
 30
0.0
 10
2114.354575477967
 20
948.8385478894835
 30
0.0
 10
2113.871827231881
 20
948.8614775812287
 30
0.0
 10
2113.340284460518
 20
948.8855031889587
 30
0.0
 10
2112.760730484431
 20
948.9103706340578
 30
0.0
 10
2112.140209433277
 20
948.9357936942539
 30
0.0
 10
2111.488284992807
 20
948.9613551927361
 30
0.0
 10
2110.815606709512
 20
948.9866307099589
 30
0.0
 10
2110.133338492772
 20
949.0112692448832
 30
0.0
 10
2109.449254377628
 20
949.034837390231
 30
0.0
 10
2108.764980704799
 20
949.0579770888778
 30
0.0
 10
2108.081934869225
 20
949.0823994633084
 30
0.0
 10
2107.405369689042
 20
949.1075100277475
 30
0.0
 10
2106.746395320493
 20
949.1330369911972
 30
0.0
 10
2106.115868472573
 20
949.1585443188217
 30
0.0
 10
2105.523717066118
 20
949.1835960648021
 30
0.0
 10
2104.978228384521
 20
949.2079320328507
 30
0.0
 10
2104.481491503166
 20
949.2309743125082
 30
0.0
 10
2104.034119962554
 20
949.2546833539675
 30
0.0
 10
2103.638383200213
 20
949.2793890971842
 30
0.0
 10
2103.300872024902
 20
949.3047109876917
 30
0.0
 10
2103.027531305098
 20
949.3302811904584
 30
0.0
 10
2102.82502942972
 20
949.3556512104547
 30
0.0
 10
2102.69154834599
 20
949.3798038343808
 30
0.0
 10
2102.661286217106
 20
949.3950242047651
 30
0.0
 10
2102.646939654808
 20
949.4022398237577
 30
0.0
  0
SPLINE
  5
2BE
330
288
100
AcDbEntity
  8
0
  6
Continuous
 62
     7
370
    15
100
AcDbSpline
210
0.0
220
0.0
230
1.0
 70
     8
 71
     3
 72
    37
 73
    33
 74
     0
 42
0.0000000001
 43
0.0000000001
 40
0.0
 40
0.0
 40
0.0
 40
0.0
 40
0.0227317006616261
 40
0.0565460566058847
 40
0.0906667565011627
 40
0.1249115558183298
 40
0.1590941926463592
 40
0.1930304228567624
 40
0.2265438934397618
 40
0.2596521952449295
 40
0.2931896204835654
 40
0.3271416673742011
 40
0.3613314815040225
 40
0.3955745863288633
 40
0.4296847750856041
 40
0.4634801415170964
 40
0.4967887672754531
 40
0.529992331602789
 40
0.5637078462158117
 40
0.5977718628917293
 40
0.632003957607843
 40
0.6662182817312236
 40
0.7002295639360466
 40
0.7338590657658474
 40
0.7669938371124117
 40
0.8004077971062868
 40
0.834276763516673
 40
0.8684265078390737
 40
0.9026738492096024
 40
0.9368324429698549
 40
0.9707188224944516
 40
1.0
 40
1.0
 40
1.0
 40
1.0
 10
2116.051585843406
 20
950.1738264386151
 30
0.0
 10
2116.044204225802
 20
950.1791533106651
 30
0.0
 10
2116.025842143125
 20
950.1924041277927
 30
0.0
 10
2115.91548727369
 20
950.2145206981353
 30
0.0
 10
2115.730661045284
 20
950.2397786453498
 30
0.0
 10
2115.473238765925
 20
950.2653448808445
 30
0.0
 10
2115.150651255951
 20
950.2907666746709
 30
0.0
 10
2114.768047358478
 20
950.3156344539998
 30
0.0
 10
2114.332691116266
 20
950.3396599798646
 30
0.0
 10
2113.847606517887
 20
950.3625896704729
 30
0.0
 10
2113.313740642406
 20
950.3866723089966
 30
0.0
 10
2112.732040475998
 20
950.4115712520574
 30
0.0
 10
2112.109796515682
 20
950.4370110547553
 30
0.0
 10
2111.456635953888
 20
950.4625690968024
 30
0.0
 10
2110.783246176387
 20
950.4878192405159
 30
0.0
 10
2110.100800764037
 20
950.5124238773207
 30
0.0
 10
2109.416677081655
 20
950.5359185148147
 30
0.0
 10
2108.732427270604
 20
950.5591181146279
 30
0.0
 10
2108.049483934689
 20
950.5835804812218
 30
0.0
 10
2107.373502832549
 20
950.608719944431
 30
0.0
 10
2106.715642059711
 20
950.6342551502704
 30
0.0
 10
2106.086727105008
 20
950.6597510863741
 30
0.0
 10
2105.496628029699
 20
950.6847729196758
 30
0.0
 10
2104.953464836128
 20
950.7090624815118
 30
0.0
 10
2104.459054637924
 20
950.7320672503055
 30
0.0
 10
2104.014074537928
 20
950.7558437278184
 30
0.0
 10
2103.62092867888
 20
950.7805824725817
 30
0.0
 10
2103.286370105746
 20
950.8059265239598
 30
0.0
 10
2103.0162054215
 20
950.831497593556
 30
0.0
 10
2102.817185384493
 20
950.856847607138
 30
0.0
 10
2102.688275510536
 20
950.8806613529866
 30
0.0
 10
2102.66052216693
 20
950.8955529609606
 30
0.0
 10
2102.647657167574
 20
950.9024559319939
 30
0.0
  0
SPLINE
  5
2BF
330
288
100
AcDbEntity
  8
0
  6
Continuous
 62
     7
370
    15
100
AcDbSpline
210
0.0
220
0.0
230
1.0
 70
     8
 71
     3
 72
    37
 73
    33
 74
     0
 42
0.0000000001
 43
0.0000000001
 40
0.0
 40
0.0
 40
0.0
 40
0.0
 40
0.0241363639857456
 40
0.0579858616210322
 40
0.0921333482659085
 40
0.1263961648837843
 40
0.1605879170915073
 40
0.1945245166075973
 40
0.2280300378211751
 40
0.2611571780953279
 40
0.29473459674739
 40
0.3287186683622351
 40
0.3629319624735813
 40
0.3971896932546177
 40
0.4313056318366363
 40
0.4650981344336795
 40
0.4983958047238609
 40
0.5316394208209568
 40
0.5653919765639551
 40
0.5994848169701084
 40
0.6337370398002863
 40
0.6679625953549819
 40
0.7019763001856788
 40
0.7355997812593513
 40
0.7687401632222689
 40
0.802195903086309
 40
0.8360988530434559
 40
0.8702741503489663
 40
0.9045382386623103
 40
0.9387046822025927
 40
0.97259021053052
 40
1.0
 40
1.0
 40
1.0
 40
1.0
 10
2116.051954021179
 20
951.6739648560562
 30
0.0
 10
2116.043422333486
 20
951.6796268481902
 30
0.0
 10
2116.022925573401
 20
951.6932293731015
 30
0.0
 10
2115.908327295908
 20
951.7157108421784
 30
0.0
 10
2115.719958241269
 20
951.7409931514636
 30
0.0
 10
2115.459332960872
 20
951.7665619627662
 30
0.0
 10
2115.133732237811
 20
951.7919659295724
 30
0.0
 10
2114.748465551465
 20
951.8168019063603
 30
0.0
 10
2114.310694652262
 20
951.8407682978429
 30
0.0
 10
2113.823275663579
 20
951.86370549987
 30
0.0
 10
2113.287086200511
 20
951.8878430555302
 30
0.0
 10
2112.70325823554
 20
951.9127731916245
 30
0.0
 10
2112.079313290188
 20
951.9382286450078
 30
0.0
 10
2111.424940952982
 20
951.9637823668951
 30
0.0
 10
2110.750865126964
 20
951.9890060747231
 30
0.0
 10
2110.068267708626
 20
952.013576513171
 30
0.0
 10
2109.384107753317
 20
952.0369956544081
 30
0.0
 10
2108.699884828598
 20
952.0602625866168
 30
0.0
 10
2108.017048646242
 20
952.0847628072942
 30
0.0
 10
2107.341677136814
 20
952.1099308220865
 30
0.0
 10
2106.684954617247
 20
952.1354732195844
 30
0.0
 10
2106.057674035381
 20
952.1609567161492
 30
0.0
 10
2105.469646429856
 20
952.1859483069251
 30
0.0
 10
2104.928808292704
 20
952.2101893284913
 30
0.0
 10
2104.436726557393
 20
952.2331640755874
 30
0.0
 10
2103.99414382207
 20
952.2570059307662
 30
0.0
 10
2103.603606034007
 20
952.2817773888128
 30
0.0
 10
2103.272019436544
 20
952.3071424831099
 30
0.0
 10
2103.005023224482
 20
952.3327137054749
 30
0.0
 10
2102.809555127356
 20
952.3580420738928
 30
0.0
 10
2102.685701095009
 20
952.3813712825615
 30
0.0
 10
2102.660525799075
 20
952.3957933404082
 30
0.0
 10
2102.649268013225
 20
952.4022425372391
 30
0.0
  0
LINE
  5
2C0
330
288
100
AcDbEntity
  8
0
  6
Continuous
 62
     7
370
    15
100
AcDbLine
 10
2116.066413439593
 20
947.1630687871483
 30
0.0
 11
2116.069032606878
 21
947.1630687871483
 31
0.0
  0
LINE
  5
2C1
330
288
100
AcDbEntity
  8
0
  6
Continuous
 62
     8
370
    15
100
AcDbLine
 10
2118.85154749702
 20
954.3554440324349
 30
0.0
 11
2099.85154749702
 21
954.3554440324349
 31
0.0
  0
LINE
  5
2C2
330
288
100
AcDbEntity
  8
0
  6
Continuous
 62
     8
370
    15
100
AcDbLine
 10
2118.240588038128
 20
955.2766646669054
 30
0.0
 11
2100.462506955912
 21
955.2766646669054
 31
0.0
  0
ENDBLK
  5
28A
330
288
100
AcDbEntity
  8
0
100
AcDbBlockEnd
  0
BLOCK
  5
2C5
330
2C4
100
AcDbEntity
  8
0
100
AcDbBlockBegin
  2
2
 70
     0
 10
0.0
 20
0.0
 30
0.0
  3
2
  1

  0
SPLINE
  5
2C7
330
2C4
100
AcDbEntity
  8
0
  6
Continuous
 62
     7
370
    15
100
AcDbSpline
210
0.0
220
0.0
230
1.0
 70
     8
 71
     3
 72
    12
 73
     8
 74
     0
 42
0.0000000001
 43
0.0000000001
 40
0.0
 40
0.0
 40
0.0
 40
0.0
 40
0.2500000000000002
 40
0.2500000000000002
 40
0.5000000000000005
 40
0.5000000000000005
 40
1.0
 40
1.0
 40
1.0
 40
1.0
 10
2103.327708506409
 20
925.4211026405132
 30
0.0
 10
2103.327708506409
 20
925.5148798933573
 30
0.0
 10
2103.346522998764
 20
925.6069612168939
 30
0.0
 10
2103.418185488337
 20
925.7775276630356
 30
0.0
 10
2103.471135168143
 20
925.8553160684842
 30
0.0
 10
2103.665857896841
 20
926.0474610554391
 30
0.0
 10
2103.845460392256
 20
926.1211026405131
 30
0.0
 10
2104.027708506409
 20
926.1211026405131
 30
0.0
  0
SPLINE
  5
2C8
330
2C4
100
AcDbEntity
  8
0
  6
Continuous
 62
     7
370
    15
100
AcDbSpline
210
0.0
220
0.0
230
1.0
 70
     8
 71
     3
 72
    12
 73
     8
 74
     0
 42
0.0000000001
 43
0.0000000001
 40
0.0
 40
0.0
 40
0.0
 40
0.0
 40
0.2499999999999993
 40
0.2499999999999993
 40
0.4999999999999987
 40
0.4999999999999987
 40
1.0
 40
1.0
 40
1.0
 40
1.0
 10
2104.027708506409
 20
924.7211026405132
 30
0.0
 10
2103.93654211992
 20
924.7211026405132
 30
0.0
 10
2103.847198374335
 20
924.7386901893777
 30
0.0
 10
2103.678817636622
 20
924.8074693442966
 30
0.0
 10
2103.601501103586
 20
924.8583404161225
 30
0.0
 10
2103.406186956431
 20
925.0507956751405
 30
0.0
 10
2103.327708506409
 20
925.2334490963116
 30
0.0
 10
2103.327708506409
 20
925.4211026405132
 30
0.0
  0
LINE
  5
2C9
330
2C4
100
AcDbEntity
  8
0
  6
Continuous
 62
     7
370
    15
100
AcDbLine
 10
2114.627708506409
 20
924.7211026405132
 30
0.0
 11
2104.027708506409
 21
924.7211026405132
 31
0.0
  0
SPLINE
  5
2CA
330
2C4
100
AcDbEntity
  8
0
  6
Continuous
 62
     7
370
    15
100
AcDbSpline
210
0.0
220
0.0
230
1.0
 70
     8
 71
     3
 72
    12
 73
     8
 74
     0
 42
0.0000000001
 43
0.0000000001
 40
0.0
 40
0.0
 40
0.0
 40
0.0
 40
0.2500000000000006
 40
0.2500000000000006
 40
0.5000000000000013
 40
0.5000000000000013
 40
1.0
 40
1.0
 40
1.0
 40
1.0
 10
2115.327708506409
 20
925.4211026405132
 30
0.0
 10
2115.327708506409
 20
925.3273504835256
 30
0.0
 10
2115.308905816374
 20
925.2352946194307
 30
0.0
 10
2115.237270715985
 20
925.0647484508927
 30
0.0
 10
2115.184338909686
 20
924.9869620508361
 30
0.0
 10
2114.989637734743
 20
924.7947887707102
 30
0.0
 10
2114.810003637805
 20
924.7211026405132
 30
0.0
 10
2114.627708506409
 20
924.7211026405132
 30
0.0
  0
SPLINE
  5
2CB
330
2C4
100
AcDbEntity
  8
0
  6
Continuous
 62
     7
370
    15
100
AcDbSpline
210
0.0
220
0.0
230
1.0
 70
     8
 71
     3
 72
    12
 73
     8
 74
     0
 42
0.0000000001
 43
0.0000000001
 40
0.0
 40
0.0
 40
0.0
 40
0.0
 40
0.25
 40
0.25
 40
0.5
 40
0.5
 40
1.0
 40
1.0
 40
1.0
 40
1.0
 10
2114.627708506409
 20
926.1211026405131
 30
0.0
 10
2114.718897670188
 20
926.1211026405131
 30
0.0
 10
2114.808266280645
 20
926.1035043476759
 30
0.0
 10
2114.976666751571
 20
926.0346996930719
 30
0.0
 10
2115.053990196534
 20
925.9838081822239
 30
0.0
 10
2115.249274116
 20
925.7913331322402
 30
0.0
 10
2115.327708506409
 20
925.6087039999432
 30
0.0
 10
2115.327708506409
 20
925.4211026405132
 30
0.0
  0
LINE
  5
2CC
330
2C4
100
AcDbEntity
  8
0
  6
Continuous
 62
     7
370
    15
100
AcDbLine
 10
2114.627708506409
 20
926.1211026405131
 30
0.0
 11
2104.027708506409
 21
926.1211026405131
 31
0.0
  0
CIRCLE
  5
2CD
330
2C4
100
AcDbEntity
  8
0
  6
Continuous
 62
     7
370
    15
100
AcDbCircle
 10
2109.35154749702
 20
925.4211026405132
 30
0.0
 40
8.889040541108329
  0
CIRCLE
  5
2CE
330
2C4
100
AcDbEntity
  8
0
  6
Continuous
 62
     7
370
    15
100
AcDbCircle
 10
2109.35154749702
 20
925.4211026405132
 30
0.0
 40
9.499999999999971
  0
INSERT
  5
2CF
330
2C4
100
AcDbEntity
  8
0
  6
Continuous
 62
     7
370
     0
100
AcDbBlockReference
  2
SW_CENTERMARKSYMBOL_0
 10
2109.35154749702
 20
925.4211026405132
 30
0.0
  0
ENDBLK
  5
2C6
330
2C4
100
AcDbEntity
  8
0
100
AcDbBlockEnd
  0
BLOCK
  5
2D2
330
2D1
100
AcDbEntity
  8
0
100
AcDbBlockBegin
  2
3
 70
     0
 10
0.0
 20
0.0
 30
0.0
  3
3
  1

  0
SPLINE
  5
2D4
330
2D1
100
AcDbEntity
  8
0
  6
Continuous
 62
     7
370
    15
100
AcDbSpline
210
0.0
220
0.0
230
1.0
 70
     8
 71
     3
 72
    27
 73
    23
 74
     0
 42
0.0000000001
 43
0.0000000001
 40
0.0
 40
0.0
 40
0.0
 40
0.0
 40
0.0256402909452231
 40
0.0765932233120435
 40
0.12755524281326
 40
0.1786267317948276
 40
0.2299030014547379
 40
0.2814702894659853
 40
0.3334021818934064
 40
0.3857563454814184
 40
0.4385718415030468
 40
0.4918673829437736
 40
0.5456409086691373
 40
0.5998707398844338
 40
0.6545183504642932
 40
0.7095324754062613
 40
0.7648540019517818
 40
0.8204209424080948
 40
0.8761728307283442
 40
0.9320540886082559
 40
0.9852336222865048
 40
1.0
 40
1.0
 40
1.0
 40
1.0
 10
2149.042675907825
 20
953.549969055393
 30
0.0
 10
2149.043129568125
 20
953.5937459413647
 30
0.0
 10
2149.044484751841
 20
953.7245171876937
 30
0.0
 10
2149.02747273295
 20
953.9420203457106
 30
0.0
 10
2148.992880353507
 20
954.2015416988444
 30
0.0
 10
2148.939795165608
 20
954.4594068095637
 30
0.0
 10
2148.869476707853
 20
954.7152722333111
 30
0.0
 10
2148.781661659046
 20
954.9687956446083
 30
0.0
 10
2148.676476089238
 20
955.2196218801606
 30
0.0
 10
2148.553936616985
 20
955.4673713552453
 30
0.0
 10
2148.414106909236
 20
955.7116306338077
 30
0.0
 10
2148.257080738977
 20
955.9519471973588
 30
0.0
 10
2148.083012535906
 20
956.1878297320594
 30
0.0
 10
2147.892131719753
 20
956.4187544712252
 30
0.0
 10
2147.684754817188
 20
956.6441773552325
 30
0.0
 10
2147.461287476478
 20
956.8635490052612
 30
0.0
 10
2147.22222343623
 20
957.0763346244142
 30
0.0
 10
2146.968118653276
 20
957.2820184160255
 30
0.0
 10
2146.699629272834
 20
957.4801568266234
 30
0.0
 10
2146.421981260699
 20
957.6670744089748
 30
0.0
 10
2146.204554626825
 20
957.8014947070963
 30
0.0
 10
2146.081921325958
 20
957.8728172074406
 30
0.0
 10
2146.055269985152
 20
957.8883174039644
 30
0.0
  0
SPLINE
  5
2D5
330
2D1
100
AcDbEntity
  8
0
  6
Continuous
 62
     7
370
    15
100
AcDbSpline
210
0.0
220
0.0
230
1.0
 70
     8
 71
     3
 72
    61
 73
    57
 74
     0
 42
0.0000000001
 43
0.0000000001
 40
0.0
 40
0.0
 40
0.0
 40
0.0
 40
0.0102004007465824
 40
0.0292978815766944
 40
0.0483821402091368
 40
0.0674542329921346
 40
0.0865101320647646
 40
0.1055473754890117
 40
0.1245647428864039
 40
0.1435619792927948
 40
0.1625395662335654
 40
0.1814985375088847
 40
0.2004403344581447
 40
0.2193666945384868
 40
0.2382795671303862
 40
0.2571810510620107
 40
0.2760733491097335
 40
0.2949587355089139
 40
0.3138395332061275
 40
0.3327180981627298
 40
0.351596808467519
 40
0.3704775261855611
 40
0.3893623852086755
 40
0.4082537884589397
 40
0.4271541325311562
 40
0.446065795623751
 40
0.4649911200446032
 40
0.4839323868296918
 40
0.5028917795318752
 40
0.5218713335746959
 40
0.5408728667711641
 40
0.5598978857206792
 40
0.5789474619152228
 40
0.5980220707006262
 40
0.6171213860950117
 40
0.6362440254335798
 40
0.6553872407572988
 40
0.6745465599982066
 40
0.693715391790816
 40
0.7128812836157202
 40
0.7320309427977279
 40
0.7511482836984342
 40
0.7702142380486637
 40
0.789207269779879
 40
0.8081043629035727
 40
0.8268824866990465
 40
0.8455204292051195
 40
0.864000772195588
 40
0.8823117071003984
 40
0.900448400715245
 40
0.918413715406303
 40
0.9362182329467474
 40
0.9538796668468789
 40
0.9714218308232041
 40
0.9888733483574075
 40
0.9999999999999998
 40
0.9999999999999998
 40
0.9999999999999998
 40
0.9999999999999998
 10
2146.055269985152
 20
957.8883174039644
 30
0.0
 10
2146.000735805317
 20
957.9193456616387
 30
0.0
 10
2145.844101180623
 20
958.0084659071522
 30
0.0
 10
2145.57632351275
 20
958.1487436513917
 30
0.0
 10
2145.248898198335
 20
958.3060573386934
 30
0.0
 10
2144.910964050579
 20
958.4538397684346
 30
0.0
 10
2144.563382913719
 20
958.5920750796784
 30
0.0
 10
2144.206785190503
 20
958.7205564709142
 30
0.0
 10
2143.841871635823
 20
958.8391463253387
 30
0.0
 10
2143.469323929794
 20
958.9477082153212
 30
0.0
 10
2143.089830551748
 20
959.0461226440933
 30
0.0
 10
2142.704081478724
 20
959.134281249994
 30
0.0
 10
2142.312770799569
 20
959.2120874390742
 30
0.0
 10
2141.916596755134
 20
959.2794557828851
 30
0.0
 10
2141.516262026394
 20
959.3363120782321
 30
0.0
 10
2141.112473556836
 20
959.3825934376507
 30
0.0
 10
2140.705942153591
 20
959.4182484830026
 30
0.0
 10
2140.297381859477
 20
959.4432375495724
 30
0.0
 10
2139.887509155049
 20
959.4575328711316
 30
0.0
 10
2139.477042029824
 20
959.461118714581
 30
0.0
 10
2139.066702802826
 20
959.453991511657
 30
0.0
 10
2138.657215096678
 20
959.4361603092147
 30
0.0
 10
2138.249300667581
 20
959.4076467981786
 30
0.0
 10
2137.843674434381
 20
959.3684845831297
 30
0.0
 10
2137.441045381994
 20
959.318718634681
 30
0.0
 10
2137.042117553103
 20
959.2584049858535
 30
0.0
 10
2136.647589240213
 20
959.1876102738805
 30
0.0
 10
2136.25815235057
 20
959.106411233232
 30
0.0
 10
2135.874491993405
 20
959.0148941728237
 30
0.0
 10
2135.497286342463
 20
958.9131544848479
 30
0.0
 10
2135.127206829475
 20
958.801296251628
 30
0.0
 10
2134.764918723723
 20
958.6794320411271
 30
0.0
 10
2134.411082146252
 20
958.5476830117556
 30
0.0
 10
2134.066353550034
 20
958.4061794824421
 30
0.0
 10
2133.731387663291
 20
958.2550621621868
 30
0.0
 10
2133.406839834099
 20
958.0944842691085
 30
0.0
 10
2133.093368619855
 20
957.9246147907097
 30
0.0
 10
2132.791638331028
 20
957.7456431296957
 30
0.0
 10
2132.502337856544
 20
957.5577962205398
 30
0.0
 10
2132.226167539133
 20
957.3613421361915
 30
0.0
 10
2131.963834338644
 20
957.1565990067322
 30
0.0
 10
2131.716031925277
 20
956.9439318827615
 30
0.0
 10
2131.483441603039
 20
956.7237670993227
 30
0.0
 10
2131.266719248432
 20
956.4965980884679
 30
0.0
 10
2131.066476969767
 20
956.2629853250879
 30
0.0
 10
2130.883262964703
 20
956.0235501154707
 30
0.0
 10
2130.71754226141
 20
955.7789619143987
 30
0.0
 10
2130.569682722784
 20
955.5299202846228
 30
0.0
 10
2130.439945570845
 20
955.2771339721774
 30
0.0
 10
2130.328495247899
 20
955.021300249189
 30
0.0
 10
2130.235379018148
 20
954.7630876274039
 30
0.0
 10
2130.160655254718
 20
954.5031234077011
 30
0.0
 10
2130.10400088164
 20
954.2419883687712
 30
0.0
 10
2130.066253211598
 20
953.9802115244631
 30
0.0
 10
2130.046488859697
 20
953.74961771968
 30
0.0
 10
2130.046825769127
 20
953.6064599633688
 30
0.0
 10
2130.046956941765
 20
953.5507227859953
 30
0.0
  0
LINE
  5
2D6
330
2D1
100
AcDbEntity
  8
0
  6
Continuous
 62
     7
370
    15
100
AcDbLine
 10
2149.044902978748
 20
952.5795589709888
 30
0.0
 11
2149.044902978748
 21
953.5525340663372
 31
0.0
  0
LINE
  5
2D7
330
2D1
100
AcDbEntity
  8
0
  6
Continuous
 62
     7
370
    15
100
AcDbLine
 10
2130.044902978748
 20
953.5525340663372
 30
0.0
 11
2130.044902978748
 21
952.5795589709888
 31
0.0
  0
SPLINE
  5
2D8
330
2D1
100
AcDbEntity
  8
0
  6
Continuous
 62
     7
370
    15
100
AcDbSpline
210
0.0
220
0.0
230
1.0
 70
     8
 71
     3
 72
     9
 73
     5
 74
     0
 42
0.0000000001
 43
0.0000000001
 40
0.0
 40
0.0
 40
0.0
 40
0.0
 40
0.5000126453992961
 40
1.0
 40
1.0
 40
1.0
 40
1.0
 10
2137.888885488746
 20
946.5716980454123
 30
0.0
 10
2137.922680073174
 20
946.5663657542378
 30
0.0
 10
2137.990267532691
 20
946.5557014415983
 30
0.0
 10
2138.056283019901
 20
946.5452585892945
 30
0.0
 10
2138.089289928714
 20
946.5400372951965
 30
0.0
  0
SPLINE
  5
2D9
330
2D1
100
AcDbEntity
  8
0
  6
Continuous
 62
     7
370
    15
100
AcDbSpline
210
0.0
220
0.0
230
1.0
 70
     8
 71
     3
 72
     9
 73
     5
 74
     0
 42
0.0000000001
 43
0.0000000001
 40
0.0
 40
0.0
 40
0.0
 40
0.0
 40
0.5000124215480108
 40
1.0
 40
1.0
 40
1.0
 40
1.0
 10
2137.890272690959
 20
945.3466682245064
 30
0.0
 10
2137.923999679183
 20
945.341346506486
 30
0.0
 10
2137.991451979907
 20
945.3307033348547
 30
0.0
 10
2138.057346132349
 20
945.3202793531477
 30
0.0
 10
2138.090292390063
 20
945.3150674917763
 30
0.0
  0
SPLINE
  5
2DA
330
2D1
100
AcDbEntity
  8
0
  6
Continuous
 62
     7
370
    15
100
AcDbSpline
210
0.0
220
0.0
230
1.0
 70
     8
 71
     3
 72
     9
 73
     5
 74
     0
 42
0.0000000001
 43
0.0000000001
 40
0.0
 40
0.0
 40
0.0
 40
0.0
 40
0.5000142389357953
 40
1.0
 40
1.0
 40
1.0
 40
1.0
 10
2137.888603222235
 20
944.122120110782
 30
0.0
 10
2137.922702370943
 20
944.1167398111637
 30
0.0
 10
2137.990898726271
 20
944.1059795183578
 30
0.0
 10
2138.057427614045
 20
944.0954552223386
 30
0.0
 10
2138.090691110631
 20
944.0901932241839
 30
0.0
  0
SPLINE
  5
2DB
330
2D1
100
AcDbEntity
  8
0
  6
Continuous
 62
     7
370
    15
100
AcDbSpline
210
0.0
220
0.0
230
1.0
 70
     8
 71
     3
 72
     9
 73
     5
 74
     0
 42
0.0000000001
 43
0.0000000001
 40
0.0
 40
0.0
 40
0.0
 40
0.0
 40
0.4999732634599394
 40
1.0
 40
1.0
 40
1.0
 40
1.0
 10
2141.639816842966
 20
944.0883586013201
 30
0.0
 10
2141.674017741946
 20
944.0937707768426
 30
0.0
 10
2141.742423197757
 20
944.1045957067304
 30
0.0
 10
2141.808540954451
 20
944.1150309928016
 30
0.0
 10
2141.841601600557
 20
944.1202489148405
 30
0.0
  0
SPLINE
  5
2DC
330
2D1
100
AcDbEntity
  8
0
  6
Continuous
 62
     7
370
    15
100
AcDbSpline
210
0.0
220
0.0
230
1.0
 70
     8
 71
     3
 72
     9
 73
     5
 74
     0
 42
0.0000000001
 43
0.0000000001
 40
0.0
 40
0.0
 40
0.0
 40
0.0
 40
0.4999743343537612
 40
0.9999999999999998
 40
0.9999999999999998
 40
0.9999999999999998
 40
0.9999999999999998
 10
2141.638728740424
 20
945.31299763218
 30
0.0
 10
2141.673042598157
 20
945.3184277248722
 30
0.0
 10
2141.741673836552
 20
945.3292884677525
 30
0.0
 10
2141.808064286883
 20
945.3397669317638
 30
0.0
 10
2141.841261216002
 20
945.3450064327061
 30
0.0
  0
SPLINE
  5
2DD
330
2D1
100
AcDbEntity
  8
0
  6
Continuous
 62
     7
370
    15
100
AcDbSpline
210
0.0
220
0.0
230
1.0
 70
     8
 71
     3
 72
     9
 73
     5
 74
     0
 42
0.0000000001
 43
0.0000000001
 40
0.0
 40
0.0
 40
0.0
 40
0.0
 40
0.4999727255664745
 40
1.0
 40
1.0
 40
1.0
 40
1.0
 10
2141.638825978813
 20
946.5378242327803
 30
0.0
 10
2141.672940608945
 20
946.5432227996304
 30
0.0
 10
2141.741173591243
 20
946.5540205223343
 30
0.0
 10
2141.807095493201
 20
946.5644252833033
 30
0.0
 10
2141.840058242163
 20
946.569627947572
 30
0.0
  0
LINE
  5
2DE
330
2D1
100
AcDbEntity
  8
0
  6
Continuous
 62
     7
370
    15
100
AcDbLine
 10
2147.044902978748
 20
947.9959727353412
 30
0.0
 11
2147.044902978748
 21
948.2819892269438
 31
0.0
  0
LINE
  5
2DF
330
2D1
100
AcDbEntity
  8
0
  6
Continuous
 62
     7
370
    15
100
AcDbLine
 10
2132.044902978748
 20
948.8943522796969
 30
0.0
 11
2132.044902978748
 21
948.6083698190125
 31
0.0
  0
SPLINE
  5
2E0
330
2D1
100
AcDbEntity
  8
0
  6
Continuous
 62
     7
370
    15
100
AcDbSpline
210
0.0
220
0.0
230
1.0
 70
     8
 71
     3
 72
    12
 73
     8
 74
     0
 42
0.0000000001
 43
0.0000000001
 40
0.0
 40
0.0
 40
0.0
 40
0.0
 40
0.2500000000000002
 40
0.2500000000000002
 40
0.5000000000000005
 40
0.5000000000000005
 40
1.0
 40
1.0
 40
1.0
 40
1.0
 10
2135.28540557971
 20
957.5734135935286
 30
0.0
 10
2135.351716111118
 20
957.6116938484917
 30
0.0
 10
2135.43013129454
 20
957.6453135642736
 30
0.0
 10
2135.601413017583
 20
957.6998125249435
 30
0.0
 10
2135.693858804226
 20
957.7203851570656
 30
0.0
 10
2135.967415589387
 20
957.7576518501311
 30
0.0
 10
2136.146486195996
 20
957.7496743777951
 30
0.0
 10
2136.275355073371
 20
957.7109532135377
 30
0.0
  0
SPLINE
  5
2E1
330
2D1
100
AcDbEntity
  8
0
  6
Continuous
 62
     7
370
    15
100
AcDbSpline
210
0.0
220
0.0
230
1.0
 70
     8
 71
     3
 72
    12
 73
     8
 74
     0
 42
0.0000000001
 43
0.0000000001
 40
0.0
 40
0.0
 40
0.0
 40
0.0
 40
0.2499999999999993
 40
0.2499999999999993
 40
0.4999999999999987
 40
0.4999999999999987
 40
1.0
 40
1.0
 40
1.0
 40
1.0
 10
2135.28540557971
 20
957.1394675352619
 30
0.0
 10
2135.220941209608
 20
957.1588371108671
 30
0.0
 10
2135.170201916315
 20
957.1849718063251
 30
0.0
 10
2135.099772961704
 20
957.2487280082524
 30
0.0
 10
2135.08107319675
 20
957.2858540444615
 30
0.0
 10
2135.079051657562
 20
957.405707915834
 30
0.0
 10
2135.152714486092
 20
957.4968126556793
 30
0.0
 10
2135.28540557971
 20
957.5734135935286
 30
0.0
  0
ARC
  5
2E2
330
2D1
100
AcDbEntity
  8
0
  6
Continuous
 62
     7
370
    15
100
AcDbCircle
 10
2128.680746689789
 20
937.0093571720545
 30
0.0
 40
21.18591188236006
100
AcDbArc
 50
48.27652752291681
 51
71.83541455742711
  0
SPLINE
  5
2E3
330
2D1
100
AcDbEntity
  8
0
  6
Continuous
 62
     7
370
    15
100
AcDbSpline
210
0.0
220
0.0
230
1.0
 70
     8
 71
     3
 72
    12
 73
     8
 74
     0
 42
0.0000000001
 43
0.0000000001
 40
0.0
 40
0.0
 40
0.0
 40
0.0
 40
0.2500000000000006
 40
0.2500000000000006
 40
0.5000000000000013
 40
0.5000000000000013
 40
1.0
 40
1.0
 40
1.0
 40
1.0
 10
2143.770686953949
 20
952.6855599609442
 30
0.0
 10
2143.704394167992
 20
952.6472899502113
 30
0.0
 10
2143.626005332615
 20
952.6210618827768
 30
0.0
 10
2143.45475731508
 20
952.5946719462991
 30
0.0
 10
2143.362325584941
 20
952.5948566641234
 30
0.0
 10
2143.088764034295
 20
952.6338386854657
 30
0.0
 10
2142.909639583876
 20
952.71203445521
 30
0.0
 10
2142.780737460288
 20
952.8217928654882
 30
0.0
  0
SPLINE
  5
2E4
330
2D1
100
AcDbEntity
  8
0
  6
Continuous
 62
     7
370
    15
100
AcDbSpline
210
0.0
220
0.0
230
1.0
 70
     8
 71
     3
 72
    12
 73
     8
 74
     0
 42
0.0000000001
 43
0.0000000001
 40
0.0
 40
0.0
 40
0.0
 40
0.0
 40
0.25
 40
0.25
 40
0.5
 40
0.5
 40
1.0
 40
1.0
 40
1.0
 40
1.0
 10
2143.770686953949
 20
953.3932785437642
 30
0.0
 10
2143.835167430028
 20
953.33837429276
 30
0.0
 10
2143.885916708305
 20
953.2773560492049
 30
0.0
 10
2143.956341585405
 20
953.1477843892911
 30
0.0
 10
2143.975031785256
 20
953.0803890054153
 30
0.0
 10
2143.977017955915
 20
952.8840406568516
 30
0.0
 10
2143.903341147362
 20
952.762139596758
 30
0.0
 10
2143.770686953949
 20
952.6855599609442
 30
0.0
  0
ARC
  5
2E5
330
2D1
100
AcDbEntity
  8
0
  6
Continuous
 62
     7
370
    15
100
AcDbCircle
 10
2129.67069618345
 20
937.5808428503303
 30
0.0
 40
21.18591188236012
100
AcDbArc
 50
48.27652752291681
 51
71.83541455742711
  0
LWPOLYLINE
  5
2E6
330
2D1
100
AcDbEntity
  8
0
  6
Continuous
 62
     7
370
    15
100
AcDbPolyline
 90
      134
 70
   128
 43
0.0
 10
2145.830403823608
 20
957.9332907131744
 10
2146.12022027709
 20
957.7578865388769
 10
2146.395364626581
 20
957.5747770629373
 10
2146.655222917448
 20
957.3843708741964
 10
2146.899215304236
 20
957.1870928433147
 10
2147.126797344521
 20
956.9833831747191
 10
2147.337461213782
 20
956.7736964243357
 10
2147.530736838552
 20
956.5585004852962
 10
2147.706192945338
 20
956.338275543888
 10
2147.863438022957
 20
956.1135130080678
 10
2148.002121196156
 20
955.8847144109405
 10
2148.121933008546
 20
955.6523902916415
 10
2148.222606113125
 20
955.4170590561254
 10
2148.303915868832
 20
955.1792458203983
 10
2148.365680841807
 20
954.9394812387795
 10
2148.407763210243
 20
954.6983003198041
 10
2148.430069071922
 20
954.4562412324095
 10
2148.432548653745
 20
954.2138441050704
 10
2148.415196422794
 20
953.9716498205605
 10
2148.378051098683
 20
953.7301988090323
 10
2148.321195567154
 20
953.4900298421053
 10
2148.244756695128
 20
953.2516788306562
 10
2148.14890504762
 20
953.0156776289922
 10
2148.033854507136
 20
952.7825528480761
 10
2147.899861796418
 20
952.5528246804512
 10
2147.747225905597
 20
952.3270057394887
 10
2147.576287425031
 20
952.1055999155461
 10
2147.387427785311
 20
951.889101251591
 10
2147.181068406141
 20
951.6779928407991
 10
2146.957669755988
 20
951.4727457485829
 10
2146.717730324594
 20
951.2738179614611
 10
2146.461785510652
 20
951.0816533651127
 10
2146.190406427121
 20
950.8966807538925
 10
2145.904198626855
 20
950.7193128740247
 10
2145.603800751366
 20
950.5499455026043
 10
2145.289883105781
 20
950.3889565644634
 10
2144.963146163114
 20
950.2367052888731
 10
2144.624319001245
 20
950.0935314079633
 10
2144.274157676063
 20
949.9597543986466
 10
2143.913443534404
 20
949.8356727697402
 10
2143.542981470567
 20
949.7215633958772
 10
2143.163598130274
 20
949.6176808996903
 10
2142.776140066106
 20
949.5242570836484
 10
2142.381471848509
 20
949.4415004128166
 10
2141.980474136599
 20
949.3695955496868
 10
2141.574041713073
 20
949.3087029421252
 10
2141.163081487591
 20
949.2589584653496
 10
2140.748510473111
 20
949.2204731187388
 10
2140.331253739672
 20
949.1933327781502
 10
2139.912242350206
 20
949.1775980042959
 10
2139.492411282963
 20
949.1733039076089
 10
2139.072697345219
 20
949.1804600698982
 10
2138.654037082887
 20
949.199050522967
 10
2138.237364690717
 20
949.229033784246
 10
2137.823609927746
 20
949.2703429493547
 10
2137.413696042636
 20
949.3228858413928
 10
2137.008537713551
 20
949.3865452166231
 10
2136.609039007149
 20
949.4611790260869
 10
2136.216091361258
 20
949.5466207325717
 10
2135.830571595727
 20
949.6426796822209
 10
2135.453339955899
 20
949.7491415299563
 10
2135.08523819307
 20
949.8657687177669
 10
2134.72708768621
 20
949.9923010047927
 10
2134.379687609142
 20
950.1284560480243
 10
2134.043813147281
 20
950.2739300323206
 10
2133.720213767885
 20
950.4283983483388
 10
2133.409611547706
 20
950.5915163168653
 10
2133.112699561749
 20
950.7629199579296
 10
2132.830140336753
 20
950.9422268029856
 10
2132.562564372836
 20
951.1290367483491
 10
2132.310568736604
 20
951.3229329479848
 10
2132.074715728856
 20
951.5234827436534
 10
2131.855531629875
 20
951.7302386303416
 10
2131.653505525094
 20
951.9427392548198
 10
2131.469088213749
 20
952.1605104451019
 10
2131.302691202972
 20
952.3830662685092
 10
2131.15468578956
 20
952.6099101159751
 10
2131.025402231464
 20
952.8405358101748
 10
2130.915129010854
 20
953.0744287350048
 10
2130.824112190405
 20
953.311066983892
 10
2130.752554864233
 20
953.5499225243725
 10
2130.700616704714
 20
953.7904623763372
 10
2130.66841360619
 20
954.0321498013202
 10
2130.656017426366
 20
954.2744455001708
 10
2130.663455825967
 20
954.5168088164416
 10
2130.690712207014
 20
954.7586989428046
 10
2130.737725749863
 20
954.9995761278033
 10
2130.804391548918
 20
955.2389028802494
 10
2130.890560846712
 20
955.4761451685763
 10
2130.996041365849
 20
955.7107736124711
 10
2131.120597738043
 20
955.9422646641307
 10
2131.263952029325
 20
956.1701017765004
 10
2131.425784360216
 20
956.3937765558931
 10
2131.605733619506
 20
956.6127898964142
 10
2131.803398270033
 20
956.8266530936613
 10
2132.01833724467
 20
957.0348889352164
 10
2132.250070930519
 20
957.2370327654917
 10
2132.498082239114
 20
957.4326335225594
 10
2132.761817760246
 20
957.6212547446456
 10
2133.040688996842
 20
957.8024755440491
 10
2133.334073678128
 20
957.9758915463045
 10
2133.64131714816
 20
958.1411157925018
 10
2133.961733826616
 20
958.2977796027405
 10
2134.294608738597
 20
958.4455333988014
 10
2134.639199110014
 20
958.5840474841901
 10
2134.994736025003
 20
958.7130127798202
 10
2135.360426141686
 20
958.8321415136887
 10
2135.735453462418
 20
958.9411678630078
 10
2136.118981154602
 20
959.0398485473611
 10
2136.51015341799
 20
959.1279633715549
 10
2136.908097394305
 20
959.2053157169617
 10
2137.311925114929
 20
959.2717329802523
 10
2137.720735482314
 20
959.3270669585418
 10
2138.133616280673
 20
959.3711941800878
 10
2138.549646211501
 20
959.4040161798039
 10
2138.967896949345
 20
959.4254597189749
 10
2139.387435213265
 20
959.4354769486798
 10
2139.807324849341
 20
959.4340455165625
 10
2140.226628919611
 20
959.4211686167074
 10
2140.644411792738
 20
959.3968749825135
 10
2141.059741231767
 20
959.361218822578
 10
2141.471690474316
 20
959.314279699736
 10
2141.879340300546
 20
959.2561623535249
 10
2142.281781084292
 20
959.1869964664693
 10
2142.678114822803
 20
959.1069363747084
 10
2143.067457140533
 20
959.0161607236128
 10
2143.448939262529
 20
958.914872069155
 10
2143.821709953007
 20
958.8032964259294
 10
2144.184937414798
 20
958.6816827628247
 10
2144.537811145402
 20
958.5503024474771
 10
2144.879543745545
 20
958.4094486407424
 10
2145.209372676172
 20
958.2594356425412
 10
2145.526561959966
 20
958.1005981905303
 10
2145.830403823608
 20
957.9332907131744
  0
ARC
  5
2E7
330
2D1
100
AcDbEntity
  8
0
  6
Continuous
 62
     7
370
    15
100
AcDbCircle
 10
2134.768471659734
 20
953.0315891146482
 30
0.0
 40
4.745148294286827
100
AcDbArc
 50
185.4663733377517
 51
245.8537676198671
  0
LWPOLYLINE
  5
2E8
330
2D1
100
AcDbEntity
  8
0
  6
Continuous
 62
     7
370
    15
100
AcDbPolyline
 90
       53
 70
   128
 43
0.0
 10
2149.044902978748
 20
952.5795589709888
 10
2149.04349801848
 20
952.4852430353304
 10
2149.026019861853
 20
952.2339459979324
 10
2148.988602769304
 20
951.9833757899798
 10
2148.931325429561
 20
951.7340593645075
 10
2148.854308297757
 20
951.4865210378271
 10
2148.757713342117
 20
951.2412813868804
 10
2148.641743703329
 20
950.9988561544588
 10
2148.506643267345
 20
950.7597551645876
 10
2148.352696152478
 20
950.5244812503587
 10
2148.180226111898
 20
950.2935291964641
 10
2147.989595852778
 20
950.0673846986572
 10
2147.781206273509
 20
949.8465233423255
 10
2147.555495620611
 20
949.6314096023287
 10
2147.312938567091
 20
949.4224958661996
 10
2147.054045214193
 20
949.2202214827672
 10
2146.779360018657
 20
949.0250118381984
 10
2146.48946064771
 20
948.8372774614047
 10
2146.18495676423
 20
948.6574131606934
 10
2145.866488744608
 20
948.4857971934799
 10
2145.534726332029
 20
948.3227904708062
 10
2145.190367227996
 20
948.1687357983394
 10
2144.834135625048
 20
948.0239571554461
 10
2144.466780683774
 20
947.8887590138588
 10
2144.089074957314
 20
947.763425697367
 10
2143.701812766673
 20
947.6482207838802
 10
2143.305808530246
 20
947.543386551119
 10
2142.901895051088
 20
947.4491434671016
 10
2142.490921765512
 20
947.3656897264959
 10
2142.073752956715
 20
947.2932008338133
 10
2141.651265937175
 20
947.2318292343201
 10
2141.22434920365
 20
947.1817039934423
 10
2140.793900568654
 20
947.1429305253392
 10
2140.360825272346
 20
947.1155903712158
 10
2139.926034078795
 20
947.0997410278405
 10
2139.490441360626
 20
947.0954158266284
 10
2139.054963176085
 20
947.1026238635445
 10
2138.620515342552
 20
947.1213499799757
 10
2138.18801151056
 20
947.1515547946083
 10
2137.758361242381
 20
947.1931747862484
 10
2137.332468099195
 20
947.2461224274081
 10
2136.91122774089
 20
947.3102863683761
 10
2136.495526042476
 20
947.3855316713892
 10
2136.086237231075
 20
947.4717000944076
 10
2135.684222047409
 20
947.5686104239006
 10
2135.290325935647
 20
947.6760588559415
 10
2134.905377265423
 20
947.7938194248103
 10
2134.530185589764
 20
947.9216444782037
 10
2134.165539942587
 20
948.059265198051
 10
2133.812207179344
 20
948.2063921658427
 10
2133.47093036432
 20
948.3627159712828
 10
2133.142427207952
 20
948.5279078629828
 10
2132.827388557476
 20
948.701620439831
  0
SPLINE
  5
2E9
330
2D1
100
AcDbEntity
  8
0
  6
Continuous
 62
     7
370
    15
100
AcDbSpline
210
0.0
220
0.0
230
1.0
 70
     8
 71
     3
 72
    13
 73
     9
 74
     0
 42
0.0000000001
 43
0.0000000001
 40
0.0
 40
0.0
 40
0.0
 40
0.0
 40
0.1002379617543154
 40
0.2935848961941253
 40
0.4846182437092716
 40
0.6730898044850299
 40
0.8637141030350404
 40
1.0
 40
1.0
 40
1.0
 40
1.0
 10
2141.63693806585
 20
944.0933301859482
 30
0.0
 10
2141.523285449598
 20
944.0743508242002
 30
0.0
 10
2141.190410648869
 20
944.0187625635147
 30
0.0
 10
2140.618865961234
 20
943.9702553595635
 30
0.0
 10
2139.936078029442
 20
943.9449521638916
 30
0.0
 10
2139.251904745115
 20
943.9623714814358
 30
0.0
 10
2138.634638731364
 20
944.0096475394451
 30
0.0
 10
2138.251688041009
 20
944.0695150905083
 30
0.0
 10
2138.092039369769
 20
944.0944733298282
 30
0.0
  0
SPLINE
  5
2EA
330
2D1
100
AcDbEntity
  8
0
  6
Continuous
 62
     7
370
    15
100
AcDbSpline
210
0.0
220
0.0
230
1.0
 70
     8
 71
     3
 72
    13
 73
     9
 74
     0
 42
0.0000000001
 43
0.0000000001
 40
0.0
 40
0.0
 40
0.0
 40
0.0
 40
0.1091913890756438
 40
0.3024916809722238
 40
0.4934313939435819
 40
0.6819279645260182
 40
0.8727312956779755
 40
0.9999999999999998
 40
0.9999999999999998
 40
0.9999999999999998
 40
0.9999999999999998
 10
2141.635932646064
 20
945.3179042847137
 30
0.0
 10
2141.511975001165
 20
945.2975275247636
 30
0.0
 10
2141.168576527236
 20
945.2410780151257
 30
0.0
 10
2140.58640198226
 20
945.1929480718037
 30
0.0
 10
2139.903454568551
 20
945.1696327105668
 30
0.0
 10
2139.219339451427
 20
945.1890265291485
 30
0.0
 10
2138.612899734682
 20
945.2368735185366
 30
0.0
 10
2138.240743463053
 20
945.2960256550564
 30
0.0
 10
2138.091834281443
 20
945.3196939280672
 30
0.0
  0
SPLINE
  5
2EB
330
2D1
100
AcDbEntity
  8
0
  6
Continuous
 62
     7
370
    15
100
AcDbSpline
210
0.0
220
0.0
230
1.0
 70
     8
 71
     3
 72
    13
 73
     9
 74
     0
 42
0.0000000001
 43
0.0000000001
 40
0.0
 40
0.0
 40
0.0
 40
0.0
 40
0.1184287559712807
 40
0.3115797119560686
 40
0.5023244953731152
 40
0.690763226046879
 40
0.881644349434741
 40
1.0
 40
1.0
 40
1.0
 40
1.0
 10
2141.636154701878
 20
946.5425723152598
 30
0.0
 10
2141.501475570775
 20
946.5207854470559
 30
0.0
 10
2141.147141992489
 20
946.4634653640766
 30
0.0
 10
2140.553929089712
 20
946.4157360273341
 30
0.0
 10
2139.870829211715
 20
946.3943997419718
 30
0.0
 10
2139.186777439009
 20
946.4157793298557
 30
0.0
 10
2138.590944555282
 20
946.4641502610879
 30
0.0
 10
2138.229371285035
 20
946.5225604961108
 30
0.0
 10
2138.090984640135
 20
946.5449161211468
 30
0.0
  0
SPLINE
  5
2EC
330
2D1
100
AcDbEntity
  8
0
  6
Continuous
 62
     7
370
    15
100
AcDbSpline
210
0.0
220
0.0
230
1.0
 70
     8
 71
     3
 72
    44
 73
    40
 74
     0
 42
0.0000000001
 43
0.0000000001
 40
0.0
 40
0.0
 40
0.0
 40
0.0
 40
0.0268534293801233
 40
0.0540638701976255
 40
0.0815373008607189
 40
0.109173967932332
 40
0.1368704762406063
 40
0.1645220793374183
 40
0.1920250455986405
 40
0.2192789674510028
 40
0.2461888870904625
 40
0.2729931248776197
 40
0.3001581628612826
 40
0.3276000186363261
 40
0.3552196357333391
 40
0.3829140023873547
 40
0.4105784206618858
 40
0.4381088698214719
 40
0.4654043317208286
 40
0.4923689499098772
 40
0.5191403818557799
 40
0.5462581151442257
 40
0.5736663710288747
 40
0.6012668320625555
 40
0.6289569164026978
 40
0.6566320230799333
 40
0.6841878899210855
 40
0.7115229324600893
 40
0.7385404341393456
 40
0.7652954597297672
 40
0.7923640071266052
 40
0.819736653267838
 40
0.847315860963676
 40
0.8749995243184558
 40
0.9026831876732364
 40
0.9302623953690742
 40
0.9576350415103073
 40
0.9847035889071452
 40
1.0
 40
1.0
 40
1.0
 40
1.0
 10
2147.044902978748
 20
947.9959727353412
 30
0.0
 10
2147.039758159307
 20
947.8794651395432
 30
0.0
 10
2147.029400120989
 20
947.6449010007481
 30
0.0
 10
2146.945066856124
 20
947.2943834142892
 30
0.0
 10
2146.809099836815
 20
946.946213018017
 30
0.0
 10
2146.616767321414
 20
946.6044452339293
 30
0.0
 10
2146.370928111743
 20
946.2730192832012
 30
0.0
 10
2146.073953393599
 20
945.9556950601129
 30
0.0
 10
2145.729804177885
 20
945.6558776753535
 30
0.0
 10
2145.343283659582
 20
945.3765491065063
 30
0.0
 10
2144.918270417129
 20
945.118969306856
 30
0.0
 10
2144.455344462278
 20
944.883069287019
 30
0.0
 10
2143.953901632828
 20
944.669956368283
 30
0.0
 10
2143.414885311136
 20
944.480899231188
 30
0.0
 10
2142.843407335584
 20
944.3186886661354
 30
0.0
 10
2142.24550348235
 20
944.1855152783844
 30
0.0
 10
2141.627872228141
 20
944.0829612471347
 30
0.0
 10
2140.997626219419
 20
944.011904812844
 30
0.0
 10
2140.362023531196
 20
943.9725215420066
 30
0.0
 10
2139.726420017939
 20
943.9642179927977
 30
0.0
 10
2139.090914177753
 20
943.986476748898
 30
0.0
 10
2138.455189073141
 20
944.0406873635723
 30
0.0
 10
2137.82099499221
 20
944.1273336789775
 30
0.0
 10
2137.195268875389
 20
944.2463919624069
 30
0.0
 10
2136.585239385164
 20
944.3969916542492
 30
0.0
 10
2135.997873993301
 20
944.5775602902886
 30
0.0
 10
2135.439615617504
 20
944.7858502134041
 30
0.0
 10
2134.916150072846
 20
945.0190312770788
 30
0.0
 10
2134.43135442443
 20
945.2742897125563
 30
0.0
 10
2133.984697231376
 20
945.5508523046896
 30
0.0
 10
2133.576027624867
 20
945.8501919478861
 30
0.0
 10
2133.207016961716
 20
946.1722200597156
 30
0.0
 10
2132.882561070289
 20
946.5142903659655
 30
0.0
 10
2132.607035221571
 20
946.8728492669342
 30
0.0
 10
2132.384070761659
 20
947.2439327122824
 30
0.0
 10
2132.215012900145
 20
947.6232929004138
 30
0.0
 10
2132.104055174683
 20
948.0065518752647
 30
0.0
 10
2132.04816919511
 20
948.3357107730366
 30
0.0
 10
2132.050535216295
 20
948.5360553946533
 30
0.0
 10
2132.051389498561
 20
948.6083923873408
 30
0.0
  0
SPLINE
  5
2ED
330
2D1
100
AcDbEntity
  8
0
  6
Continuous
 62
     7
370
    15
100
AcDbSpline
210
0.0
220
0.0
230
1.0
 70
     8
 71
     3
 72
    42
 73
    38
 74
     0
 42
0.0000000001
 43
0.0000000001
 40
0.0
 40
0.0
 40
0.0
 40
0.0
 40
0.0241495536254379
 40
0.0526789903228537
 40
0.0814991483386296
 40
0.1105059959657151
 40
0.1395913475417354
 40
0.1686452465426766
 40
0.1975584476588404
 40
0.2262248589796253
 40
0.2545438095423708
 40
0.2826598708362713
 40
0.3111396268997609
 40
0.3399244974277509
 40
0.3689112268537684
 40
0.3979920810312333
 40
0.4270572052735501
 40
0.4559971007067855
 40
0.4847050806553761
 40
0.5130795708491399
 40
0.5411784017574112
 40
0.5696065015050913
 40
0.59835397374484
 40
0.6273183823569865
 40
0.6563924930469023
 40
0.685466603736818
 40
0.7144310123489659
 40
0.7431784845887148
 40
0.771606584336395
 40
0.7997054152446649
 40
0.8280799054384289
 40
0.8567878853870194
 40
0.8857277808202562
 40
0.914792905062573
 40
0.943873759240038
 40
0.9728604886660543
 40
1.0
 40
1.0
 40
1.0
 40
1.0
 10
2147.041661816425
 20
949.220861610763
 30
0.0
 10
2147.039196512532
 20
949.121064938058
 30
0.0
 10
2147.033818784978
 20
948.9033719720831
 30
0.0
 10
2146.959812486799
 20
948.5692248444053
 30
0.0
 10
2146.832117335617
 20
948.220462481178
 30
0.0
 10
2146.647534738866
 20
947.8775384503888
 30
0.0
 10
2146.409264344623
 20
947.5443982737496
 30
0.0
 10
2146.119365611011
 20
947.224840787695
 30
0.0
 10
2145.781685074258
 20
946.9223319127747
 30
0.0
 10
2145.400889429914
 20
946.6399074522618
 30
0.0
 10
2144.981305919938
 20
946.3792870585304
 30
0.0
 10
2144.523809655111
 20
946.140186741395
 30
0.0
 10
2144.027940512986
 20
945.923810080119
 30
0.0
 10
2143.4940058374
 20
945.7311329823125
 30
0.0
 10
2142.926813984063
 20
945.5649402433415
 30
0.0
 10
2142.332288057045
 20
945.4275061623857
 30
0.0
 10
2141.717046319752
 20
945.3205069011856
 30
0.0
 10
2141.088158532407
 20
945.2449259583078
 30
0.0
 10
2140.452878420418
 20
945.2010273007843
 30
0.0
 10
2139.817237061015
 20
945.1883663785283
 30
0.0
 10
2139.18173852993
 20
945.2061635077741
 30
0.0
 10
2138.546056205614
 20
945.2557771241764
 30
0.0
 10
2137.911245432903
 20
945.3377717189232
 30
0.0
 10
2137.283864340373
 20
945.4522358729299
 30
0.0
 10
2136.671156857053
 20
945.5984094880449
 30
0.0
 10
2136.080144326734
 20
945.774819280049
 30
0.0
 10
2135.517359827876
 20
945.9793114026375
 30
0.0
 10
2134.988609626222
 20
946.2091222964835
 30
0.0
 10
2134.498289745408
 20
946.4613264880979
 30
0.0
 10
2134.046214819919
 20
946.7347620119305
 30
0.0
 10
2133.632082734727
 20
947.0308112951485
 30
0.0
 10
2133.257108136622
 20
947.3497234104385
 30
0.0
 10
2132.926054265496
 20
947.6891414946878
 30
0.0
 10
2132.643075952473
 20
948.0455574812447
 30
0.0
 10
2132.413291250696
 20
948.415188380307
 30
0.0
 10
2132.236687510215
 20
948.7861668346386
 30
0.0
 10
2132.165363357451
 20
949.0359435860906
 30
0.0
 10
2132.130874985771
 20
949.1567216550507
 30
0.0
  0
SPLINE
  5
2EE
330
2D1
100
AcDbEntity
  8
0
  6
Continuous
 62
     7
370
    15
100
AcDbSpline
210
0.0
220
0.0
230
1.0
 70
     8
 71
     3
 72
    32
 73
    28
 74
     0
 42
0.0000000001
 43
0.0000000001
 40
0.0
 40
0.0
 40
0.0
 40
0.0
 40
0.0404647464157342
 40
0.0819680689479281
 40
0.1231387965271916
 40
0.1638312593218541
 40
0.2041283932439141
 40
0.2448977386455699
 40
0.2861251029635971
 40
0.3276635803695536
 40
0.3693593838697462
 40
0.4110551873699387
 40
0.4525936647758952
 40
0.4938210290939224
 40
0.534590374495574
 40
0.5748875084176352
 40
0.6155799712122986
 40
0.6567506987915631
 40
0.6982540213237582
 40
0.7399369371673947
 40
0.7816424116471969
 40
0.8232128998093553
 40
0.86449389781181
 40
0.9053373246399456
 40
0.9456591690262804
 40
0.9862719812491302
 40
1.0
 40
1.0
 40
1.0
 40
1.0
 10
2146.429521621387
 20
948.808743023866
 30
0.0
 10
2146.341440948563
 20
948.7036383662532
 30
0.0
 10
2146.163018907094
 20
948.4907314142747
 30
0.0
 10
2145.83202381993
 20
948.189361301009
 30
0.0
 10
2145.457900932338
 20
947.9036858923402
 30
0.0
 10
2145.043544287829
 20
947.6400565739284
 30
0.0
 10
2144.591528871949
 20
947.397778433028
 30
0.0
 10
2144.101192880635
 20
947.1781458153596
 30
0.0
 10
2143.572447066267
 20
946.9819081926813
 30
0.0
 10
2143.009661377922
 20
946.8117797601168
 30
0.0
 10
2142.418649168327
 20
946.6701192869058
 30
0.0
 10
2141.805941598937
 20
946.5586950908924
 30
0.0
 10
2141.178560529667
 20
946.4785943278664
 30
0.0
 10
2140.54374974963
 20
946.4301740879275
 30
0.0
 10
2139.908067431507
 20
946.4131280713544
 30
0.0
 10
2139.272568883043
 20
946.4265030034376
 30
0.0
 10
2138.636927587735
 20
946.4715285019842
 30
0.0
 10
2138.001647233048
 20
946.5488739440688
 30
0.0
 10
2137.372760361896
 20
946.6587283579784
 30
0.0
 10
2136.757515185053
 20
946.8004443395843
 30
0.0
 10
2136.163002097994
 20
946.9726569079599
 30
0.0
 10
2135.59576258274
 20
947.1732732704307
 30
0.0
 10
2135.062003842491
 20
947.3997277730255
 30
0.0
 10
2134.565488515898
 20
947.6485719822093
 30
0.0
 10
2134.110374583071
 20
947.9199655768422
 30
0.0
 10
2133.777977229083
 20
948.1439951327709
 30
0.0
 10
2133.612326488326
 20
948.2840673286393
 30
0.0
 10
2133.570478462919
 20
948.319453495853
 30
0.0
  0
SPLINE
  5
2EF
330
2D1
100
AcDbEntity
  8
0
  6
Continuous
 62
     7
370
    15
100
AcDbSpline
210
0.0
220
0.0
230
1.0
 70
     8
 71
     3
 72
    35
 73
    31
 74
     0
 42
0.0000000001
 43
0.0000000001
 40
0.0
 40
0.0
 40
0.0
 40
0.0
 40
0.0319483417744979
 40
0.0642099764677692
 40
0.0964716040070841
 40
0.1290588662592738
 40
0.1610101727718092
 40
0.1932818148789441
 40
0.2255534552803662
 40
0.2581528724345406
 40
0.2959366708382534
 40
0.3339827938939972
 40
0.3728588181645392
 40
0.4120246548885626
 40
0.4495779528176708
 40
0.4874078351578906
 40
0.5261129922668339
 40
0.5651213622258848
 40
0.6015916303249086
 40
0.6383151984790869
 40
0.6758375898095246
 40
0.7136359624289752
 40
0.7501042015543442
 40
0.7868399157920685
 40
0.824431164403812
 40
0.8623214054087618
 40
0.8978806125484847
 40
0.933439817154683
 40
0.9695116969879508
 40
1.0
 40
1.0
 40
1.0
 40
1.0
 10
2132.055872527129
 20
947.9137510757109
 30
0.0
 10
2132.057115904785
 20
947.8146964555246
 30
0.0
 10
2132.059614852951
 20
947.615615862357
 30
0.0
 10
2132.108950644791
 20
947.3176060552574
 30
0.0
 10
2132.192634383935
 20
947.0203331013944
 30
0.0
 10
2132.313022164585
 20
946.7281944287041
 30
0.0
 10
2132.46867809055
 20
946.4416713719108
 30
0.0
 10
2132.65835540833
 20
946.1630999786322
 30
0.0
 10
2132.883069260683
 20
945.8911261869612
 30
0.0
 10
2133.155369184137
 20
945.614207830274
 30
0.0
 10
2133.481278297519
 20
945.3352798657205
 30
0.0
 10
2133.867315358893
 20
945.0577643152925
 30
0.0
 10
2134.297573743527
 20
944.796864827645
 30
0.0
 10
2134.76305021296
 20
944.5592065182387
 30
0.0
 10
2135.258218271615
 20
944.347932238805
 30
0.0
 10
2135.780713625623
 20
944.1625792455667
 30
0.0
 10
2136.336153834683
 20
944.0020952330096
 30
0.0
 10
2136.90716082028
 20
943.8720488041171
 30
0.0
 10
2137.485042242149
 20
943.7724887074443
 30
0.0
 10
2138.067451397073
 20
943.7019236652867
 30
0.0
 10
2138.665204897277
 20
943.6594213716345
 30
0.0
 10
2139.265695750516
 20
943.646609501229
 30
0.0
 10
2139.8616806248
 20
943.6628578370338
 30
0.0
 10
2140.451942512004
 20
943.7087161400393
 30
0.0
 10
2141.040498557521
 20
943.7851348814525
 30
0.0
 10
2141.608913466959
 20
943.8903634021754
 30
0.0
 10
2142.149453667181
 20
944.0209990157494
 30
0.0
 10
2142.659699702583
 20
944.17521422501
 30
0.0
 10
2143.12571553387
 20
944.3431370055874
 30
0.0
 10
2143.406543888426
 20
944.4708896327632
 30
0.0
 10
2143.535179051403
 20
944.5294075129949
 30
0.0
  0
LINE
  5
2F0
330
2D1
100
AcDbEntity
  8
0
  6
Continuous
 62
     7
370
    15
100
AcDbLine
 10
2132.055872527129
 20
947.9137510757109
 30
0.0
 11
2132.090092874618
 21
948.1489446119105
 31
0.0
  0
SPLINE
  5
2F1
330
2D1
100
AcDbEntity
  8
0
  6
Continuous
 62
     7
370
    15
100
AcDbSpline
210
0.0
220
0.0
230
1.0
 70
     8
 71
     3
 72
    47
 73
    43
 74
     0
 42
0.0000000001
 43
0.0000000001
 40
0.0
 40
0.0
 40
0.0
 40
0.0
 40
0.0055545453031461
 40
0.030979041662489
 40
0.0563036897909533
 40
0.0819692220025134
 40
0.1078962917074385
 40
0.1339913103376595
 40
0.1601569523612372
 40
0.1862942991511095
 40
0.2123050718998555
 40
0.2380938286477264
 40
0.2635700042054287
 40
0.288863657369852
 40
0.314484496097841
 40
0.3403798206209723
 40
0.3664567405995086
 40
0.3926183366922563
 40
0.4187657818867053
 40
0.4448005692650401
 40
0.470626721807551
 40
0.4961528616952203
 40
0.5214310141323744
 40
0.5470053820221414
 40
0.5728670624540242
 40
0.5989239022755819
 40
0.6250794318203376
 40
0.6512349613650934
 40
0.6772918011866524
 40
0.7031534816185353
 40
0.7287278495083023
 40
0.7540060019454553
 40
0.7795321418331247
 40
0.8053582943756357
 40
0.8313930817539716
 40
0.8575405269484207
 40
0.8837021230411684
 40
0.9097790430197035
 40
0.9356743675428349
 40
0.961295206270824
 40
0.9865888594352485
 40
1.0
 40
1.0
 40
1.0
 40
1.0
 10
2146.990766799222
 20
948.756623646917
 30
0.0
 10
2146.997487895399
 20
948.7314492979749
 30
0.0
 10
2147.034973073238
 20
948.5910458694055
 30
0.0
 10
2147.050426619069
 20
948.3319102400386
 30
0.0
 10
2147.034872580124
 20
947.9810345334117
 30
0.0
 10
2146.960515247203
 20
947.6303885385091
 30
0.0
 10
2146.831926877989
 20
947.2816520011146
 30
0.0
 10
2146.64758606772
 20
946.9387209794934
 30
0.0
 10
2146.409250589425
 20
946.6055826846455
 30
0.0
 10
2146.119369276325
 20
946.2860246949075
 30
0.0
 10
2145.781684103055
 20
945.9835159540439
 30
0.0
 10
2145.40088968576
 20
945.701091458053
 30
0.0
 10
2144.981305852313
 20
945.4404710736742
 30
0.0
 10
2144.52380967343
 20
945.2013707540539
 30
0.0
 10
2144.027940507993
 20
944.9849940934518
 30
0.0
 10
2143.494005838754
 20
944.792316995462
 30
0.0
 10
2142.926813983697
 20
944.6261242565405
 30
0.0
 10
2142.332288057144
 20
944.4886901755712
 30
0.0
 10
2141.717046319726
 20
944.3816909143746
 30
0.0
 10
2141.088158532415
 20
944.3061099714961
 30
0.0
 10
2140.452878420415
 20
944.2622113139728
 30
0.0
 10
2139.817237061017
 20
944.2495503917168
 30
0.0
 10
2139.181738529922
 20
944.267347520962
 30
0.0
 10
2138.546056205643
 20
944.3169611373672
 30
0.0
 10
2137.911245432795
 20
944.398955732103
 30
0.0
 10
2137.283864340781
 20
944.5134198861508
 30
0.0
 10
2136.671156855524
 20
944.6595935011119
 30
0.0
 10
2136.080144332428
 20
944.8360032936898
 30
0.0
 10
2135.51735980678
 20
945.0404954141506
 30
0.0
 10
2134.988609703937
 20
945.2703063158439
 30
0.0
 10
2134.498289460285
 20
945.5225104786419
 30
0.0
 10
2134.04621587506
 20
945.7959461089176
 30
0.0
 10
2133.632078732382
 20
946.0919949904736
 30
0.0
 10
2133.257123316354
 20
946.4109086291912
 30
0.0
 10
2132.925997023237
 20
946.7503209617344
 30
0.0
 10
2132.643290597925
 20
947.106758541431
 30
0.0
 10
2132.412490929206
 20
947.4763088324994
 30
0.0
 10
2132.236244506023
 20
947.854750141977
 30
0.0
 10
2132.114758173164
 20
948.2377309943437
 30
0.0
 10
2132.051358781701
 20
948.6210356184882
 30
0.0
 10
2132.035037418182
 20
948.9433274364387
 30
0.0
 10
2132.060423830603
 20
949.1366668276882
 30
0.0
 10
2132.069220176291
 20
949.2036585747802
 30
0.0
  0
SPLINE
  5
2F2
330
2D1
100
AcDbEntity
  8
0
  6
Continuous
 62
     7
370
    15
100
AcDbSpline
210
0.0
220
0.0
230
1.0
 70
     8
 71
     3
 72
    41
 73
    37
 74
     0
 42
0.0000000001
 43
0.0000000001
 40
0.0
 40
0.0
 40
0.0
 40
0.0
 40
0.0255388411442129
 40
0.0559311198412628
 40
0.0865365296649692
 40
0.1172413203657074
 40
0.1479295027383866
 40
0.1784854632599082
 40
0.2087965576446641
 40
0.238755539499977
 40
0.2684234686711369
 40
0.2984390537514627
 40
0.3287918457606049
 40
0.3593736883288951
 40
0.3900713589714497
 40
0.4207690296140044
 40
0.4513508721822947
 40
0.4817036641914368
 40
0.5117192492717596
 40
0.5413871784429203
 40
0.5713461602982339
 40
0.6016572546829906
 40
0.632213215204513
 40
0.6629013975771915
 40
0.6936061882779275
 40
0.7242115981016348
 40
0.7546038767986855
 40
0.784674002792962
 40
0.8143601245310001
 40
0.8442604653046037
 40
0.8745276697812858
 40
0.9050554453185011
 40
0.9357317756085375
 40
0.9664413148520976
 40
0.9970679663198547
 40
1.0
 40
1.0
 40
1.0
 40
1.0
 10
2147.021475743867
 20
949.2050079905341
 30
0.0
 10
2147.00591083441
 20
949.1055444618035
 30
0.0
 10
2146.97182303805
 20
948.8877152144286
 30
0.0
 10
2146.852744919785
 20
948.556070690285
 30
0.0
 10
2146.677535262893
 20
948.2120006852239
 30
0.0
 10
2146.446456292863
 20
947.8772429761583
 30
0.0
 10
2146.163824686336
 20
947.555518341233
 30
0.0
 10
2145.832678463942
 20
947.2503804854289
 30
0.0
 10
2145.457728326489
 20
946.9649133648884
 30
0.0
 10
2145.043589792078
 20
946.701229129883
 30
0.0
 10
2144.591516575672
 20
946.4589655422198
 30
0.0
 10
2144.101196232173
 20
946.2393289846852
 30
0.0
 10
2143.57244615652
 20
946.0430924349283
 30
0.0
 10
2143.0096616235
 20
945.8729637114764
 30
0.0
 10
2142.418649102392
 20
945.7313033166823
 30
0.0
 10
2141.805941616603
 20
945.6198790996829
 30
0.0
 10
2141.17856052473
 20
945.5397783421135
 30
0.0
 10
2140.543749751847
 20
945.4913581012368
 30
0.0
 10
2139.908067427567
 20
945.4743120830437
 30
0.0
 10
2139.272568896511
 20
945.4876870224548
 30
0.0
 10
2138.636927536953
 20
945.532712492986
 30
0.0
 10
2138.001647425562
 20
945.6100580414259
 30
0.0
 10
2137.372759635954
 20
945.7199120537643
 30
0.0
 10
2136.757517907162
 20
945.8616295429621
 30
0.0
 10
2136.162991948408
 20
946.0338364834392
 30
0.0
 10
2135.595800212874
 20
946.2344737366656
 30
0.0
 10
2135.061865102441
 20
946.4608511248169
 30
0.0
 10
2134.565997557446
 20
946.7099785639456
 30
0.0
 10
2134.108495404371
 20
946.9803279555756
 30
0.0
 10
2133.688934056295
 20
947.2730927141
 30
0.0
 10
2133.308054343304
 20
947.5888248714477
 30
0.0
 10
2132.970691467802
 20
947.9255462627266
 30
0.0
 10
2132.679599204151
 20
948.2796368965717
 30
0.0
 10
2132.445787908098
 20
948.6481119843896
 30
0.0
 10
2132.304913627686
 20
948.9110313543474
 30
0.0
 10
2132.258332674183
 20
949.0517731412491
 30
0.0
 10
2132.254262880509
 20
949.0640697988084
 30
0.0
  0
SPLINE
  5
2F3
330
2D1
100
AcDbEntity
  8
0
  6
Continuous
 62
     7
370
    15
100
AcDbSpline
210
0.0
220
0.0
230
1.0
 70
     8
 71
     3
 72
    27
 73
    23
 74
     0
 42
0.0000000001
 43
0.0000000001
 40
0.0
 40
0.0
 40
0.0
 40
0.0
 40
0.0396872452921455
 40
0.0902829148465385
 40
0.1402925593925339
 40
0.1907928159119677
 40
0.2418866097267143
 40
0.2933931613173865
 40
0.3451225922246224
 40
0.3968800189039265
 40
0.4484699245437147
 40
0.4997005664201162
 40
0.5503881726817909
 40
0.6004284834666626
 40
0.6508298918448912
 40
0.7018497027844211
 40
0.7533087444515456
 40
0.8050181969357248
 40
0.8567836279801881
 40
0.9084093395254841
 40
0.9597027852504512
 40
1.0
 40
1.0
 40
1.0
 40
1.0
 10
2145.791281310259
 20
948.455040080001
 30
0.0
 10
2145.698030978659
 20
948.3795626616826
 30
0.0
 10
2145.485899557463
 20
948.2078621246285
 30
0.0
 10
2145.104228652995
 20
947.9627571507723
 30
0.0
 10
2144.658688654658
 20
947.7169392855316
 30
0.0
 10
2144.173591269045
 20
947.4941608168265
 30
0.0
 10
2143.650207893044
 20
947.2943952133633
 30
0.0
 10
2143.091927222279
 20
947.1203868882307
 30
0.0
 10
2142.504567845849
 20
946.9745341776961
 30
0.0
 10
2141.894536743131
 20
946.8587079678144
 30
0.0
 10
2141.268811050875
 20
946.7740940153042
 30
0.0
 10
2140.634616878146
 20
946.7211481026351
 30
0.0
 10
2139.998891721217
 20
946.699688001996
 30
0.0
 10
2139.363386177087
 20
946.7086792535569
 30
0.0
 10
2138.727781521733
 20
946.749123665992
 30
0.0
 10
2138.092183173476
 20
946.8218279135719
 30
0.0
 10
2137.461920763742
 20
946.9270466856301
 30
0.0
 10
2136.844351132648
 20
947.0643223975434
 30
0.0
 10
2136.246217051692
 20
947.2321263266652
 30
0.0
 10
2135.675594369434
 20
947.4294404129194
 30
0.0
 10
2135.170383501545
 20
947.6351050523247
 30
0.0
 10
2134.872654568575
 20
947.7857921149333
 30
0.0
 10
2134.741662536344
 20
947.852090020096
 30
0.0
  0
LINE
  5
2F4
330
2D1
100
AcDbEntity
  8
0
  6
Continuous
 62
     7
370
    15
100
AcDbLine
 10
2142.736610982816
 20
952.8592904250237
 30
0.0
 11
2143.102380256884
 21
952.6481363176461
 31
0.0
  0
LWPOLYLINE
  5
2F5
330
2D1
100
AcDbEntity
  8
0
  6
Continuous
 62
     8
370
    15
100
AcDbPolyline
 90
       70
 70
   128
 43
0.0
 10
2149.044902265408
 20
953.5504087797985
 10
2149.037254588574
 20
953.3325117655865
 10
2149.009799745792
 20
953.0815121522262
 10
2148.962440078245
 20
952.8315031052599
 10
2148.895275184048
 20
952.5830103975929
 10
2148.808446312018
 20
952.3365566132451
 10
2148.702136064617
 20
952.0926600483489
 10
2148.576568013947
 20
951.8518336211652
 10
2148.432006231566
 20
951.6145837934068
 10
2148.268754733146
 20
951.3814095051429
 10
2148.087156839121
 20
951.1528011255201
 10
2147.88759445268
 20
950.9292394215076
 10
2147.670487256618
 20
950.7111945468382
 10
2147.436291830738
 20
950.4991250532665
 10
2147.185500691653
 20
950.293476926228
 10
2146.918641257022
 20
950.0946826469249
 10
2146.636274736376
 20
949.9031602828114
 10
2146.338994950888
 20
949.719312608391
 10
2146.027427084561
 20
949.5435262581754
 10
2145.702226369452
 20
949.3761709135869
 10
2145.364076707711
 20
949.2175985255123
 10
2145.013689233324
 20
949.0681425741437
 10
2144.651800816586
 20
948.9281173676662
 10
2144.279172514452
 20
948.7978173812617
 10
2143.896587970025
 20
948.6775166378233
 10
2143.504851764538
 20
948.5674681316815
 10
2143.104787725308
 20
948.4679032965518
 10
2142.697237193219
 20
948.3790315188279
 10
2142.283057253363
 20
948.3010396972369
 10
2141.863118932581
 20
948.23409184979
 10
2141.438305367676
 20
948.1783287688493
 10
2141.009509948168
 20
948.133867725039
 10
2140.577634437478
 20
948.1008022206243
 10
2140.143587076505
 20
948.079201792874
 10
2139.708280673585
 20
948.069111867823
 10
2139.272630684838
 20
948.07055366474
 10
2138.837553288949
 20
948.0835241515038
 10
2138.403963460435
 20
948.1079960509793
 10
2137.97277304543
 20
948.1439178983826
 10
2137.54488884407
 20
948.191214149511
 10
2137.121210703469
 20
948.2497853396143
 10
2136.70262962533
 20
948.3195082925712
 10
2136.290025892156
 20
948.4002363799294
 10
2135.884267216
 20
948.491799829269
 10
2135.486206913654
 20
948.594006081235
 10
2135.096682112111
 20
948.7066401944936
 10
2134.716511988072
 20
948.829465297757
 10
2134.346496045207
 20
948.9622230879271
 10
2133.987412432786
 20
949.1046343733115
 10
2133.640016309216
 20
949.2563996607669
 10
2133.305038253936
 20
949.4171997855389
 10
2132.983182730995
 20
949.5866965824703
 10
2132.675126607552
 20
949.764533597167
 10
2132.381517730413
 20
949.9503368356277
 10
2132.102973563604
 20
950.1437155507586
 10
2131.840079889829
 20
950.3442630641215
 10
2131.593389578563
 20
950.5515576211838
 10
2131.36342142336
 20
950.7651632782755
 10
2131.150659050816
 20
950.9846308193854
 10
2130.955549903504
 20
951.2094987008689
 10
2130.778504298988
 20
951.4392940220822
 10
2130.619894566921
 20
951.673533519899
 10
2130.480054266031
 20
951.9117245850209
 10
2130.35927748264
 20
952.153366297942
 10
2130.257818212197
 20
952.3979504823904
 10
2130.175889825125
 20
952.6449627740314
 10
2130.11366461809
 20
952.8938837021824
 10
2130.071273451669
 20
953.1441897822693
 10
2130.048805475143
 20
953.3953546167218
 10
2130.044903324549
 20
953.5510543375361
  0
LINE
  5
2F6
330
2D1
100
AcDbEntity
  8
0
  6
Continuous
 62
     8
370
    15
100
AcDbLine
 10
2143.770686953949
 20
952.6855599609442
 30
0.0
 11
2143.770686953949
 21
953.3932785437642
 31
0.0
  0
LINE
  5
2F7
330
2D1
100
AcDbEntity
  8
0
  6
Continuous
 62
     8
370
    15
100
AcDbLine
 10
2136.275355073371
 20
957.7109532135377
 30
0.0
 11
2136.275355073371
 21
956.804444866894
 31
0.0
  0
LINE
  5
2F8
330
2D1
100
AcDbEntity
  8
0
  6
Continuous
 62
     8
370
    15
100
AcDbLine
 10
2135.28540557971
 20
957.5734135935286
 30
0.0
 11
2135.28540557971
 21
957.1394675352619
 31
0.0
  0
ENDBLK
  5
2D3
330
2D1
100
AcDbEntity
  8
0
100
AcDbBlockEnd
  0
ENDSEC
  0
SECTION
  2
ENTITIES
  0
INSERT
  5
2C3
330
1F
100
AcDbEntity
  8
0
100
AcDbBlockReference
  2
1
 10
0.0
 20
0.0
 30
0.0
  0
INSERT
  5
2D0
330
1F
100
AcDbEntity
  8
0
100
AcDbBlockReference
  2
2
 10
0.0
 20
0.0
 30
0.0
  0
INSERT
  5
2F9
330
1F
100
AcDbEntity
  8
0
100
AcDbBlockReference
  2
3
 10
0.0
 20
0.0
 30
0.0
  0
ENDSEC
  0
SECTION
  2
OBJECTS
  0
DICTIONARY
  5
C
330
0
100
AcDbDictionary
281
     1
  3
ACAD_COLOR
350
6B
  3
ACAD_GROUP
350
D
  3
ACAD_LAYOUT
350
1A
  3
ACAD_MATERIAL
350
6A
  3
ACAD_MLEADERSTYLE
350
12D
  3
ACAD_MLINESTYLE
350
17
  3
ACAD_PLOTSETTINGS
350
19
  3
ACAD_PLOTSTYLENAME
350
E
  3
ACAD_SCALELIST
350
10C
  3
ACAD_TABLESTYLE
350
7E
  3
ACAD_VISUALSTYLE
350
EF
  3
ACDB_RECOMPOSE_DATA
350
15D
  3
AcDbVariableDictionary
350
5E
  3
DWGPROPS
350
307
  0
DICTIONARY
  5
13C
330
10
100
AcDbDictionary
280
     1
281
     1
  3
ADSK_XREC_LAYER_RECONCILED
360
2FA
  0
DICTIONARY
  5
6B
102
{ACAD_REACTORS
330
C
102
}
330
C
100
AcDbDictionary
281
     1
  0
DICTIONARY
  5
D
102
{ACAD_REACTORS
330
C
102
}
330
C
100
AcDbDictionary
281
     1
  0
DICTIONARY
  5
1A
102
{ACAD_REACTORS
330
C
102
}
330
C
100
AcDbDictionary
281
     1
  3
Layout1
350
D3
  3
Layout2
350
D7
  3
Model
350
22
  0
DICTIONARY
  5
6A
102
{ACAD_REACTORS
330
C
102
}
330
C
100
AcDbDictionary
281
     1
  3
ByBlock
350
ED
  3
ByLayer
350
EC
  3
Global
350
EE
  0
DICTIONARY
  5
12D
102
{ACAD_REACTORS
330
C
102
}
330
C
100
AcDbDictionary
281
     1
  3
Annotative
350
13B
  3
Standard
350
12E
  0
DICTIONARY
  5
17
102
{ACAD_REACTORS
330
C
102
}
330
C
100
AcDbDictionary
281
     1
  3
Standard
350
18
  0
DICTIONARY
  5
19
102
{ACAD_REACTORS
330
C
102
}
330
C
100
AcDbDictionary
281
     1
  0
ACDBDICTIONARYWDFLT
  5
E
102
{ACAD_REACTORS
330
C
102
}
330
C
100
AcDbDictionary
281
     1
  3
Normal
350
F
100
AcDbDictionaryWithDefault
340
F
  0
DICTIONARY
  5
10C
102
{ACAD_REACTORS
330
C
102
}
330
C
100
AcDbDictionary
281
     1
  3
A0
350
10D
  3
A1
350
188
  3
A2
350
189
  3
A3
350
18A
  3
A4
350
18B
  3
A5
350
18C
  3
A6
350
18D
  3
A7
350
18E
  3
A8
350
18F
  3
A9
350
190
  3
B0
350
191
  3
B1
350
192
  3
B2
350
193
  3
B3
350
194
  3
B4
350
195
  3
B5
350
196
  3
B6
350
197
  3
B7
350
198
  3
B8
350
199
  3
B9
350
19A
  3
C0
350
19B
  3
C1
350
19C
  3
C2
350
19D
  3
C3
350
19E
  3
C4
350
19F
  3
C5
350
1A0
  3
C6
350
1A1
  3
C7
350
1A2
  3
C8
350
1A3
  3
C9
350
1A4
  3
D0
350
1A5
  3
D1
350
1A6
  3
D2
350
1A7
  0
DICTIONARY
  5
7E
102
{ACAD_REACTORS
330
C
102
}
330
C
100
AcDbDictionary
281
     1
  3
Standard
350
7F
  0
DICTIONARY
  5
EF
102
{ACAD_REACTORS
330
C
102
}
330
C
100
AcDbDictionary
281
     1
  3
2dWireframe
350
F5
  3
3D Hidden
350
F7
  3
3dWireframe
350
F6
  3
Basic
350
F4
  3
Brighten
350
FB
  3
ColorChange
350
FF
  3
Conceptual
350
F8
  3
Dim
350
FA
  3
Facepattern
350
FE
  3
Flat
350
F0
  3
FlatWithEdges
350
F1
  3
Gouraud
350
F2
  3
GouraudWithEdges
350
F3
  3
Linepattern
350
FD
  3
Realistic
350
F9
  3
Thicken
350
FC
  0
XRECORD
  5
15D
102
{ACAD_REACTORS
330
C
102
}
330
C
100
AcDbXrecord
280
     1
 90
        1
330
7F
  0
DICTIONARY
  5
5E
102
{ACAD_REACTORS
330
C
102
}
330
C
100
AcDbDictionary
281
     1
  3
CANNOSCALE
350
146
  3
CMLEADERSTYLE
350
145
  3
CTABLESTYLE
350
84
  3
DIMASSOC
350
5F
  3
HIDETEXT
350
63
  3
INDEXCTL
350
303
  3
LIGHTINGUNITS
350
301
  3
MSLTSCALE
350
300
  3
PSOLHEIGHT
350
305
  3
PSOLWIDTH
350
304
  3
SORTENTS
350
302
  0
XRECORD
  5
307
102
{ACAD_REACTORS
330
C
102
}
330
C
100
AcDbXrecord
280
     1
  1
DWGPROPS COOKIE
  2

  3

  4

  6

  7

  8
orhan kara
  9

300
=
301
=
302
=
303
=
304
=
305
=
306
=
307
=
308
=
309
=
 40
0.0002418287037037
 41
2458559.437375648
 42
2459067.645372338
  1

 90
        0
  0
XRECORD
  5
2FA
102
{ACAD_REACTORS
330
13C
102
}
330
13C
100
AcDbXrecord
280
     1
290
     1
  0
LAYOUT
  5
D3
102
{ACAD_XDICTIONARY
360
30B
102
}
102
{ACAD_REACTORS
330
1A
102
}
330
1A
100
AcDbPlotSettings
  1

  2
C:\Documents and Settings\basas\Application Data\Autodesk\AutoCAD 2005\R16.1\enu\plotters\Default Windows System Printer.pc3
  4

  6

 40
0.0
 41
0.0
 42
0.0
 43
0.0
 44
0.0
 45
0.0
 46
0.0
 47
0.0
 48
0.0
 49
0.0
140
0.0
141
0.0
142
1.0
143
1.0
 70
   688
 72
     0
 73
     0
 74
     5
  7

 75
    16
147
1.0
148
0.0
149
0.0
100
AcDbLayout
  1
Layout1
 70
     1
 71
     1
 10
0.0
 20
0.0
 11
12.0
 21
9.0
 12
0.0
 22
0.0
 32
0.0
 14
0.0
 24
0.0
 34
0.0
 15
0.0
 25
0.0
 35
0.0
146
0.0
 13
0.0
 23
0.0
 33
0.0
 16
1.0
 26
0.0
 36
0.0
 17
0.0
 27
1.0
 37
0.0
 76
     0
330
D2
  0
LAYOUT
  5
D7
102
{ACAD_XDICTIONARY
360
30D
102
}
102
{ACAD_REACTORS
330
1A
102
}
330
1A
100
AcDbPlotSettings
  1

  2
C:\Documents and Settings\basas\Application Data\Autodesk\AutoCAD 2005\R16.1\enu\plotters\Default Windows System Printer.pc3
  4

  6

 40
0.0
 41
0.0
 42
0.0
 43
0.0
 44
0.0
 45
0.0
 46
0.0
 47
0.0
 48
0.0
 49
0.0
140
0.0
141
0.0
142
1.0
143
1.0
 70
   688
 72
     0
 73
     0
 74
     5
  7

 75
    16
147
1.0
148
0.0
149
0.0
100
AcDbLayout
  1
Layout2
 70
     1
 71
     2
 10
0.0
 20
0.0
 11
12.0
 21
9.0
 12
0.0
 22
0.0
 32
0.0
 14
0.0
 24
0.0
 34
0.0
 15
0.0
 25
0.0
 35
0.0
146
0.0
 13
0.0
 23
0.0
 33
0.0
 16
1.0
 26
0.0
 36
0.0
 17
0.0
 27
1.0
 37
0.0
 76
     0
330
D6
  0
LAYOUT
  5
22
102
{ACAD_XDICTIONARY
360
308
102
}
102
{ACAD_REACTORS
330
1A
102
}
330
1A
100
AcDbPlotSettings
  1

  2
none_device
  4
ISO_A4_(210.00_x_297.00_MM)
  6

 40
7.5
 41
20.0
 42
7.5
 43
20.0
 44
210.0
 45
297.0
 46
11.54999923706054
 47
-13.65000009536743
 48
0.0
 49
0.0
140
0.0
141
0.0
142
1.0
143
8.704084754739808
 70
 11952
 72
     1
 73
     0
 74
     0
  7

 75
     0
147
0.1148885871608098
148
0.0
149
0.0
100
AcDbLayout
  1
Model
 70
     1
 71
     0
 10
0.0
 20
0.0
 11
12.0
 21
9.0
 12
0.0
 22
0.0
 32
0.0
 14
0.0
 24
0.0
 34
0.0
 15
0.0
 25
0.0
 35
0.0
146
0.0
 13
0.0
 23
0.0
 33
0.0
 16
1.0
 26
0.0
 36
0.0
 17
0.0
 27
1.0
 37
0.0
 76
     0
330
1F
331
EA
1001
ACAD_PSEXT
1000
None
1000
None
1000
Not applicable
1000
The layout will not be plotted unless a new plotter configuration name is selected.
1070
     0
  0
MATERIAL
  5
ED
102
{ACAD_XDICTIONARY
360
311
102
}
102
{ACAD_REACTORS
330
6A
102
}
330
6A
100
AcDbMaterial
  1
ByBlock
  0
MATERIAL
  5
EC
102
{ACAD_XDICTIONARY
360
30F
102
}
102
{ACAD_REACTORS
330
6A
102
}
330
6A
100
AcDbMaterial
  1
ByLayer
  0
MATERIAL
  5
EE
102
{ACAD_XDICTIONARY
360
173
102
}
102
{ACAD_REACTORS
330
6A
102
}
330
6A
100
AcDbMaterial
  1
Global
 43
0.0007999999797903
 43
0.0
 43
0.0
 43
0.0
 43
0.0
 43
0.0007999999797903
 43
0.0
 43
0.0
 43
0.0
 43
0.0
 43
1.0
 43
0.0
 43
0.0
 43
0.0
 43
0.0
 43
1.0
 49
0.0007999999797903
 49
0.0
 49
0.0
 49
0.0
 49
0.0
 49
0.0007999999797903
 49
0.0
 49
0.0
 49
0.0
 49
0.0
 49
1.0
 49
0.0
 49
0.0
 49
0.0
 49
0.0
 49
1.0
142
0.0007999999797903
142
0.0
142
0.0
142
0.0
142
0.0
142
0.0007999999797903
142
0.0
142
0.0
142
0.0
142
0.0
142
1.0
142
0.0
142
0.0
142
0.0
142
0.0
142
1.0
144
0.0007999999797903
144
0.0
144
0.0
144
0.0
144
0.0
144
0.0007999999797903
144
0.0
144
0.0
144
0.0
144
0.0
144
1.0
144
0.0
144
0.0
144
0.0
144
0.0
144
1.0
1001
ACAD
1070
    -1
1070
     3
1070
     0
1000

1071
        0
1070
     0
  0
MLEADERSTYLE
  5
13B
102
{ACAD_REACTORS
330
12D
102
}
330
12D
100
AcDbMLeaderStyle
170
     2
171
     1
172
     0
 90
        2
 40
0.0
 41
0.0
173
     1
 91
-1056964608
340
14
 92
       -2
290
     1
 42
2.0
291
     1
 43
8.0
  3
Standard
 44
4.0
300

342
11
174
     1
178
     1
175
     1
176
     0
 93
-1056964608
 45
4.0
292
     0
297
     0
 46
4.0
 94
-1056964608
 47
1.0
 49
1.0
140
1.0
293
     1
141
0.0
294
     1
177
     0
142
1.0
295
     0
296
     1
143
3.75
1001
ACAD_MLEADERVER
1070
     2
  0
MLEADERSTYLE
  5
12E
102
{ACAD_REACTORS
330
12D
102
}
330
12D
100
AcDbMLeaderStyle
170
     2
171
     1
172
     0
 90
        2
 40
0.0
 41
0.0
173
     1
 91
-1056964608
340
14
 92
       -2
290
     1
 42
2.0
291
     1
 43
8.0
  3
Standard
 44
4.0
300

342
11
174
     1
178
     1
175
     1
176
     0
 93
-1056964608
 45
4.0
292
     0
297
     0
 46
4.0
 94
-1056964608
 47
1.0
 49
1.0
140
1.0
293
     1
141
0.0
294
     1
177
     0
142
1.0
295
     0
296
     0
143
3.75
1001
ACAD_MLEADERVER
1070
     2
  0
MLINESTYLE
  5
18
102
{ACAD_REACTORS
330
17
102
}
330
17
100
AcDbMlineStyle
  2
STANDARD
 70
     0
  3

 62
   256
 51
90.0
 52
90.0
 71
     2
 49
0.5
 62
   256
  6
BYLAYER
 49
-0.5
 62
   256
  6
BYLAYER
  0
ACDBPLACEHOLDER
  5
F
102
{ACAD_REACTORS
330
E
102
}
330
E
  0
SCALE
  5
10D
102
{ACAD_REACTORS
330
10C
102
}
330
10C
100
AcDbScale
 70
     0
300
1:1
140
1.0
141
1.0
290
     1
  0
SCALE
  5
188
102
{ACAD_REACTORS
330
10C
102
}
330
10C
100
AcDbScale
 70
     0
300
1:2
140
1.0
141
2.0
290
     0
  0
SCALE
  5
189
102
{ACAD_REACTORS
330
10C
102
}
330
10C
100
AcDbScale
 70
     0
300
1:4
140
1.0
141
4.0
290
     0
  0
SCALE
  5
18A
102
{ACAD_REACTORS
330
10C
102
}
330
10C
100
AcDbScale
 70
     0
300
1:5
140
1.0
141
5.0
290
     0
  0
SCALE
  5
18B
102
{ACAD_REACTORS
330
10C
102
}
330
10C
100
AcDbScale
 70
     0
300
1:8
140
1.0
141
8.0
290
     0
  0
SCALE
  5
18C
102
{ACAD_REACTORS
330
10C
102
}
330
10C
100
AcDbScale
 70
     0
300
1:10
140
1.0
141
10.0
290
     0
  0
SCALE
  5
18D
102
{ACAD_REACTORS
330
10C
102
}
330
10C
100
AcDbScale
 70
     0
300
1:16
140
1.0
141
16.0
290
     0
  0
SCALE
  5
18E
102
{ACAD_REACTORS
330
10C
102
}
330
10C
100
AcDbScale
 70
     0
300
1:20
140
1.0
141
20.0
290
     0
  0
SCALE
  5
18F
102
{ACAD_REACTORS
330
10C
102
}
330
10C
100
AcDbScale
 70
     0
300
1:30
140
1.0
141
30.0
290
     0
  0
SCALE
  5
190
102
{ACAD_REACTORS
330
10C
102
}
330
10C
100
AcDbScale
 70
     0
300
1:40
140
1.0
141
40.0
290
     0
  0
SCALE
  5
191
102
{ACAD_REACTORS
330
10C
102
}
330
10C
100
AcDbScale
 70
     0
300
1:50
140
1.0
141
50.0
290
     0
  0
SCALE
  5
192
102
{ACAD_REACTORS
330
10C
102
}
330
10C
100
AcDbScale
 70
     0
300
1:100
140
1.0
141
100.0
290
     0
  0
SCALE
  5
193
102
{ACAD_REACTORS
330
10C
102
}
330
10C
100
AcDbScale
 70
     0
300
2:1
140
2.0
141
1.0
290
     0
  0
SCALE
  5
194
102
{ACAD_REACTORS
330
10C
102
}
330
10C
100
AcDbScale
 70
     0
300
4:1
140
4.0
141
1.0
290
     0
  0
SCALE
  5
195
102
{ACAD_REACTORS
330
10C
102
}
330
10C
100
AcDbScale
 70
     0
300
8:1
140
8.0
141
1.0
290
     0
  0
SCALE
  5
196
102
{ACAD_REACTORS
330
10C
102
}
330
10C
100
AcDbScale
 70
     0
300
10:1
140
10.0
141
1.0
290
     0
  0
SCALE
  5
197
102
{ACAD_REACTORS
330
10C
102
}
330
10C
100
AcDbScale
 70
     0
300
100:1
140
100.0
141
1.0
290
     0
  0
SCALE
  5
198
102
{ACAD_REACTORS
330
10C
102
}
330
10C
100
AcDbScale
 70
     0
300
1/128" = 1'-0"
140
0.0078125
141
12.0
290
     0
  0
SCALE
  5
199
102
{ACAD_REACTORS
330
10C
102
}
330
10C
100
AcDbScale
 70
     0
300
1/64" = 1'-0"
140
0.015625
141
12.0
290
     0
  0
SCALE
  5
19A
102
{ACAD_REACTORS
330
10C
102
}
330
10C
100
AcDbScale
 70
     0
300
1/32" = 1'-0"
140
0.03125
141
12.0
290
     0
  0
SCALE
  5
19B
102
{ACAD_REACTORS
330
10C
102
}
330
10C
100
AcDbScale
 70
     0
300
1/16" = 1'-0"
140
0.0625
141
12.0
290
     0
  0
SCALE
  5
19C
102
{ACAD_REACTORS
330
10C
102
}
330
10C
100
AcDbScale
 70
     0
300
3/32" = 1'-0"
140
0.09375
141
12.0
290
     0
  0
SCALE
  5
19D
102
{ACAD_REACTORS
330
10C
102
}
330
10C
100
AcDbScale
 70
     0
300
1/8" = 1'-0"
140
0.125
141
12.0
290
     0
  0
SCALE
  5
19E
102
{ACAD_REACTORS
330
10C
102
}
330
10C
100
AcDbScale
 70
     0
300
3/16" = 1'-0"
140
0.1875
141
12.0
290
     0
  0
SCALE
  5
19F
102
{ACAD_REACTORS
330
10C
102
}
330
10C
100
AcDbScale
 70
     0
300
1/4" = 1'-0"
140
0.25
141
12.0
290
     0
  0
SCALE
  5
1A0
102
{ACAD_REACTORS
330
10C
102
}
330
10C
100
AcDbScale
 70
     0
300
3/8" = 1'-0"
140
0.375
141
12.0
290
     0
  0
SCALE
  5
1A1
102
{ACAD_REACTORS
330
10C
102
}
330
10C
100
AcDbScale
 70
     0
300
1/2" = 1'-0"
140
0.5
141
12.0
290
     0
  0
SCALE
  5
1A2
102
{ACAD_REACTORS
330
10C
102
}
330
10C
100
AcDbScale
 70
     0
300
3/4" = 1'-0"
140
0.75
141
12.0
290
     0
  0
SCALE
  5
1A3
102
{ACAD_REACTORS
330
10C
102
}
330
10C
100
AcDbScale
 70
     0
300
1" = 1'-0"
140
1.0
141
12.0
290
     0
  0
SCALE
  5
1A4
102
{ACAD_REACTORS
330
10C
102
}
330
10C
100
AcDbScale
 70
     0
300
1-1/2" = 1'-0"
140
1.5
141
12.0
290
     0
  0
SCALE
  5
1A5
102
{ACAD_REACTORS
330
10C
102
}
330
10C
100
AcDbScale
 70
     0
300
3" = 1'-0"
140
3.0
141
12.0
290
     0
  0
SCALE
  5
1A6
102
{ACAD_REACTORS
330
10C
102
}
330
10C
100
AcDbScale
 70
     0
300
6" = 1'-0"
140
6.0
141
12.0
290
     0
  0
SCALE
  5
1A7
102
{ACAD_REACTORS
330
10C
102
}
330
10C
100
AcDbScale
 70
     0
300
1'-0" = 1'-0"
140
12.0
141
12.0
290
     0
  0
TABLESTYLE
  5
7F
102
{ACAD_XDICTIONARY
360
162
102
}
102
{ACAD_REACTORS
330
7E
102
}
330
7E
100
AcDbTableStyle
  3
Standard
 70
     0
 71
     0
 40
1.5
 41
1.5
280
     0
281
     0
  7
Standard
140
4.5
170
     2
 62
     0
 63
     7
283
     0
274
    -2
284
     1
 64
     0
275
    -2
285
     1
 65
     0
276
    -2
286
     1
 66
     0
277
    -2
287
     1
 67
     0
278
    -2
288
     1
 68
     0
279
    -2
289
     1
 69
     0
  7
Standard
140
6.0
170
     5
 62
     0
 63
     7
283
     0
274
    -2
284
     1
 64
     0
275
    -2
285
     1
 65
     0
276
    -2
286
     1
 66
     0
277
    -2
287
     1
 67
     0
278
    -2
288
     1
 68
     0
279
    -2
289
     1
 69
     0
  7
Standard
140
4.5
170
     5
 62
     0
 63
     7
283
     0
274
    -2
284
     1
 64
     0
275
    -2
285
     1
 65
     0
276
    -2
286
     1
 66
     0
277
    -2
287
     1
 67
     0
278
    -2
288
     1
 68
     0
279
    -2
289
     1
 69
     0
  0
VISUALSTYLE
  5
F5
102
{ACAD_REACTORS
330
EF
102
}
330
EF
100
AcDbVisualStyle
  2
2dWireframe
 70
     4
 71
     0
 72
     2
 73
     1
 90
        0
 40
-0.6
 41
-30.0
 62
     5
 63
     7
 74
     1
 91
        4
 64
     7
 65
   257
 75
     1
175
     1
 42
1.0
 92
        0
 66
   257
 43
1.0
 76
     1
 77
     6
 78
     2
 67
     7
 79
     5
170
     0
171
     0
290
     0
174
     0
 93
        1
 44
0.0
173
     0
291
     0
 45
0.0
1001
ACAD
1000
AcDbSavedByObjectVersion
1070
     0
  0
VISUALSTYLE
  5
F7
102
{ACAD_REACTORS
330
EF
102
}
330
EF
100
AcDbVisualStyle
  2
3D Hidden
 70
     6
 71
     1
 72
     2
 73
     2
 90
        0
 40
-0.6
 41
-30.0
 62
     5
 63
     7
 74
     2
 91
        2
 64
     7
 65
   257
 75
     2
175
     1
 42
40.0
 92
        0
 66
   257
 43
1.0
 76
     1
 77
     6
 78
     2
 67
     7
 79
     3
170
     0
171
     0
290
     0
174
     0
 93
        1
 44
0.0
173
     0
291
     0
 45
0.0
1001
ACAD
1000
AcDbSavedByObjectVersion
1070
     0
  0
VISUALSTYLE
  5
F6
102
{ACAD_REACTORS
330
EF
102
}
330
EF
100
AcDbVisualStyle
  2
3dWireframe
 70
     5
 71
     0
 72
     2
 73
     1
 90
        0
 40
-0.6
 41
-30.0
 62
     5
 63
     7
 74
     1
 91
        4
 64
     7
 65
   257
 75
     1
175
     1
 42
1.0
 92
        0
 66
   257
 43
1.0
 76
     1
 77
     6
 78
     2
 67
     7
 79
     5
170
     0
171
     0
290
     0
174
     0
 93
        1
 44
0.0
173
     0
291
     0
 45
0.0
1001
ACAD
1000
AcDbSavedByObjectVersion
1070
     0
  0
VISUALSTYLE
  5
F4
102
{ACAD_REACTORS
330
EF
102
}
330
EF
100
AcDbVisualStyle
  2
Basic
 70
     7
 71
     1
 72
     0
 73
     1
 90
        0
 40
-0.6
 41
-30.0
 62
     5
 63
     7
 74
     0
 91
        4
 64
     7
 65
   257
 75
     1
175
     1
 42
1.0
 92
        8
 66
     7
 43
1.0
 76
     1
 77
     6
 78
     2
 67
     7
 79
     5
170
     0
171
     0
290
     0
174
     0
 93
        1
 44
0.0
173
     0
291
     1
 45
0.0
1001
ACAD
1000
AcDbSavedByObjectVersion
1070
     0
  0
VISUALSTYLE
  5
FB
102
{ACAD_REACTORS
330
EF
102
}
330
EF
100
AcDbVisualStyle
  2
Brighten
 70
    12
 71
     2
 72
     2
 73
     1
 90
        0
 40
-0.6
 41
-30.0
 62
     5
 63
     7
 74
     1
 91
        4
 64
     7
 65
   257
 75
     1
175
     1
 42
1.0
 92
        8
 66
     7
 43
1.0
 76
     1
 77
     6
 78
     2
 67
     7
 79
     5
170
     0
171
     0
290
     0
174
     0
 93
        1
 44
50.0
173
     0
291
     1
 45
0.0
1001
ACAD
1000
AcDbSavedByObjectVersion
1070
     0
  0
VISUALSTYLE
  5
FF
102
{ACAD_REACTORS
330
EF
102
}
330
EF
100
AcDbVisualStyle
  2
ColorChange
 70
    16
 71
     2
 72
     2
 73
     3
 90
        0
 40
-0.6
 41
-30.0
 62
     5
 63
     8
 74
     1
 91
        4
 64
     7
 65
   257
 75
     1
175
     1
 42
1.0
 92
        8
 66
     8
 43
1.0
 76
     1
 77
     6
 78
     2
 67
     7
 79
     5
170
     0
171
     0
290
     0
174
     0
 93
        1
 44
0.0
173
     0
291
     1
 45
0.0
1001
ACAD
1000
AcDbSavedByObjectVersion
1070
     0
  0
VISUALSTYLE
  5
F8
102
{ACAD_REACTORS
330
EF
102
}
330
EF
100
AcDbVisualStyle
  2
Conceptual
 70
     9
 71
     3
 72
     2
 73
     1
 90
        0
 40
-0.6
 41
-30.0
 62
     5
 63
     7
 74
     2
 91
        2
 64
     7
 65
   257
 75
     1
175
     1
 42
40.0
 92
        8
 66
     7
 43
1.0
 76
     1
 77
     6
 78
     2
 67
     7
 79
     3
170
     0
171
     0
290
     0
174
     0
 93
        1
 44
0.0
173
     0
291
     0
 45
0.0
1001
ACAD
1000
AcDbSavedByObjectVersion
1070
     0
  0
VISUALSTYLE
  5
FA
102
{ACAD_REACTORS
330
EF
102
}
330
EF
100
AcDbVisualStyle
  2
Dim
 70
    11
 71
     2
 72
     2
 73
     1
 90
        0
 40
-0.6
 41
-30.0
 62
     5
 63
     7
 74
     1
 91
        4
 64
     7
 65
   257
 75
     1
175
     1
 42
1.0
 92
        8
 66
     7
 43
1.0
 76
     1
 77
     6
 78
     2
 67
     7
 79
     5
170
     0
171
     0
290
     0
174
     0
 93
        1
 44
-50.0
173
     0
291
     1
 45
0.0
1001
ACAD
1000
AcDbSavedByObjectVersion
1070
     0
  0
VISUALSTYLE
  5
FE
102
{ACAD_REACTORS
330
EF
102
}
330
EF
100
AcDbVisualStyle
  2
Facepattern
 70
    15
 71
     2
 72
     2
 73
     1
 90
        0
 40
-0.6
 41
-30.0
 62
     5
 63
     7
 74
     1
 91
        4
 64
     7
 65
   257
 75
     1
175
     1
 42
1.0
 92
        8
 66
     7
 43
1.0
 76
     1
 77
     6
 78
     2
 67
     7
 79
     5
170
     0
171
     0
290
     0
174
     0
 93
        1
 44
0.0
173
     0
291
     1
 45
0.0
1001
ACAD
1000
AcDbSavedByObjectVersion
1070
     0
  0
VISUALSTYLE
  5
F0
102
{ACAD_REACTORS
330
EF
102
}
330
EF
100
AcDbVisualStyle
  2
Flat
 70
     0
 71
     2
 72
     1
 73
     1
 90
        2
 40
-0.6
 41
30.0
 62
     5
 63
     7
 74
     0
 91
        4
 64
     7
 65
   257
 75
     1
175
     1
 42
1.0
 92
        8
 66
     7
 43
1.0
 76
     1
 77
     6
 78
     2
 67
     7
 79
     5
170
     0
171
     0
290
     0
174
     0
 93
        1
 44
0.0
173
     0
291
     1
 45
0.0
1001
ACAD
1000
AcDbSavedByObjectVersion
1070
     0
  0
VISUALSTYLE
  5
F1
102
{ACAD_REACTORS
330
EF
102
}
330
EF
100
AcDbVisualStyle
  2
FlatWithEdges
 70
     1
 71
     2
 72
     1
 73
     1
 90
        2
 40
-0.6
 41
30.0
 62
     5
 63
     7
 74
     1
 91
        4
 64
     7
 65
   257
 75
     1
175
     1
 42
1.0
 92
        0
 66
   257
 43
1.0
 76
     1
 77
     6
 78
     2
 67
     7
 79
     5
170
     0
171
     0
290
     0
174
     0
 93
        1
 44
0.0
173
     0
291
     1
 45
0.0
1001
ACAD
1000
AcDbSavedByObjectVersion
1070
     0
  0
VISUALSTYLE
  5
F2
102
{ACAD_REACTORS
330
EF
102
}
330
EF
100
AcDbVisualStyle
  2
Gouraud
 70
     2
 71
     2
 72
     2
 73
     1
 90
        2
 40
-0.6
 41
30.0
 62
     5
 63
     7
 74
     0
 91
        4
 64
     7
 65
   257
 75
     1
175
     1
 42
1.0
 92
        0
 66
     7
 43
1.0
 76
     1
 77
     6
 78
     2
 67
     7
 79
     5
170
     0
171
     0
290
     0
174
     0
 93
        1
 44
0.0
173
     0
291
     1
 45
0.0
1001
ACAD
1000
AcDbSavedByObjectVersion
1070
     0
  0
VISUALSTYLE
  5
F3
102
{ACAD_REACTORS
330
EF
102
}
330
EF
100
AcDbVisualStyle
  2
GouraudWithEdges
 70
     3
 71
     2
 72
     2
 73
     1
 90
        2
 40
-0.6
 41
30.0
 62
     5
 63
     7
 74
     1
 91
        4
 64
     7
 65
   257
 75
     1
175
     1
 42
1.0
 92
        0
 66
   257
 43
1.0
 76
     1
 77
     6
 78
     2
 67
     7
 79
     5
170
     0
171
     0
290
     0
174
     0
 93
        1
 44
0.0
173
     0
291
     1
 45
0.0
1001
ACAD
1000
AcDbSavedByObjectVersion
1070
     0
  0
VISUALSTYLE
  5
FD
102
{ACAD_REACTORS
330
EF
102
}
330
EF
100
AcDbVisualStyle
  2
Linepattern
 70
    14
 71
     2
 72
     2
 73
     1
 90
        0
 40
-0.6
 41
-30.0
 62
     5
 63
     7
 74
     1
 91
        4
 64
     7
 65
   257
 75
     7
175
     7
 42
1.0
 92
        8
 66
     7
 43
1.0
 76
     1
 77
     6
 78
     2
 67
     7
 79
     5
170
     0
171
     0
290
     0
174
     0
 93
        1
 44
0.0
173
     0
291
     1
 45
0.0
1001
ACAD
1000
AcDbSavedByObjectVersion
1070
     0
  0
VISUALSTYLE
  5
F9
102
{ACAD_REACTORS
330
EF
102
}
330
EF
100
AcDbVisualStyle
  2
Realistic
 70
     8
 71
     2
 72
     2
 73
     1
 90
        0
 40
-0.6
 41
-30.0
 62
     5
 63
     7
 74
     1
 91
        0
 64
     7
 65
   257
 75
     1
175
     1
 42
1.0
 92
        8
 66
     8
 43
1.0
 76
     1
 77
     6
 78
     2
 67
     7
 79
     5
170
     0
171
     0
290
     0
174
     0
 93
       13
 44
0.0
173
     0
291
     0
 45
0.0
1001
ACAD
1000
AcDbSavedByObjectVersion
1070
     0
  0
VISUALSTYLE
  5
FC
102
{ACAD_REACTORS
330
EF
102
}
330
EF
100
AcDbVisualStyle
  2
Thicken
 70
    13
 71
     2
 72
     2
 73
     1
 90
        0
 40
-0.6
 41
-30.0
 62
     5
 63
     7
 74
     1
 91
        4
 64
     7
 65
   257
 75
     1
175
     1
 42
1.0
 92
       12
 66
     7
 43
1.0
 76
     1
 77
     6
 78
     2
 67
     7
 79
     5
170
     0
171
     0
290
     0
174
     0
 93
        1
 44
0.0
173
     0
291
     1
 45
0.0
1001
ACAD
1000
AcDbSavedByObjectVersion
1070
     0
  0
DICTIONARYVAR
  5
146
102
{ACAD_REACTORS
330
5E
102
}
330
5E
100
DictionaryVariables
280
     0
  1
1:1
  0
DICTIONARYVAR
  5
145
102
{ACAD_REACTORS
330
5E
102
}
330
5E
100
DictionaryVariables
280
     0
  1
STANDARD
  0
DICTIONARYVAR
  5
84
102
{ACAD_REACTORS
330
5E
102
}
330
5E
100
DictionaryVariables
280
     0
  1
STANDARD
  0
DICTIONARYVAR
  5
5F
102
{ACAD_REACTORS
330
5E
102
}
330
5E
100
DictionaryVariables
280
     0
  1
2
  0
DICTIONARYVAR
  5
63
102
{ACAD_REACTORS
330
5E
102
}
330
5E
100
DictionaryVariables
280
     0
  1
1
  0
DICTIONARYVAR
  5
303
102
{ACAD_REACTORS
330
5E
102
}
330
5E
100
DictionaryVariables
280
     0
  1
0
  0
DICTIONARYVAR
  5
301
102
{ACAD_REACTORS
330
5E
102
}
330
5E
100
DictionaryVariables
280
     0
  1
2
  0
DICTIONARYVAR
  5
300
102
{ACAD_REACTORS
330
5E
102
}
330
5E
100
DictionaryVariables
280
     0
  1
1
  0
DICTIONARYVAR
  5
305
102
{ACAD_REACTORS
330
5E
102
}
330
5E
100
DictionaryVariables
280
     0
  1
80.000000
  0
DICTIONARYVAR
  5
304
102
{ACAD_REACTORS
330
5E
102
}
330
5E
100
DictionaryVariables
280
     0
  1
5.000000
  0
DICTIONARYVAR
  5
302
102
{ACAD_REACTORS
330
5E
102
}
330
5E
100
DictionaryVariables
280
     0
  1
127
  0
DICTIONARY
  5
30B
330
D3
100
AcDbDictionary
280
     1
281
     1
  3
ACAD_XREC_ROUNDTRIP
360
30C
  0
DICTIONARY
  5
30D
330
D7
100
AcDbDictionary
280
     1
281
     1
  3
ACAD_XREC_ROUNDTRIP
360
30E
  0
DICTIONARY
  5
308
330
22
100
AcDbDictionary
280
     1
281
     1
  3
ACAD_XREC_ROUNDTRIP
360
309
  0
DICTIONARY
  5
311
330
ED
100
AcDbDictionary
280
     1
281
     1
  3
ACAD_XREC_ROUNDTRIP
360
312
  0
DICTIONARY
  5
30F
330
EC
100
AcDbDictionary
280
     1
281
     1
  3
ACAD_XREC_ROUNDTRIP
360
310
  0
DICTIONARY
  5
173
330
EE
100
AcDbDictionary
280
     1
281
     1
  3
ACAD_XREC_ROUNDTRIP
360
313
  3
BUMPTILE
360
175
  3
DIFFUSETILE
360
174
  3
OPACITYTILE
360
176
  3
REFLECTIONTILE
360
177
  0
DICTIONARY
  5
162
330
7F
100
AcDbDictionary
280
     1
281
     1
  3
ACAD_ROUNDTRIP_2008_TABLESTYLE_CELLSTYLEMAP
360
306
  3
ACAD_XREC_ROUNDTRIP
360
30A
  0
XRECORD
  5
30C
102
{ACAD_REACTORS
330
30B
102
}
330
30B
100
AcDbXrecord
280
     1
102
SHADEPLOT
 70
     0
102
SHADEPLOTRESLEVEL
 70
     2
102
SHADEPLOTCUSTOMDPI
 70
   300
  0
XRECORD
  5
30E
102
{ACAD_REACTORS
330
30D
102
}
330
30D
100
AcDbXrecord
280
     1
102
SHADEPLOT
 70
     0
102
SHADEPLOTRESLEVEL
 70
     2
102
SHADEPLOTCUSTOMDPI
 70
   300
  0
XRECORD
  5
309
102
{ACAD_REACTORS
330
308
102
}
330
308
100
AcDbXrecord
280
     1
102
SHADEPLOT
 70
     0
102
SHADEPLOTRESLEVEL
 70
     2
102
SHADEPLOTCUSTOMDPI
 70
   300
  0
XRECORD
  5
312
102
{ACAD_REACTORS
330
311
102
}
330
311
100
AcDbXrecord
280
     1
102
MATERIAL
148
0.0
149
0.0
149
0.0
 93
        0
 94
       63
282
     0
 72
     1
 77
     1
171
     1
175
     1
179
     1
273
     0
  0
XRECORD
  5
310
102
{ACAD_REACTORS
330
30F
102
}
330
30F
100
AcDbXrecord
280
     1
102
MATERIAL
148
0.0
149
0.0
149
0.0
 93
        0
 94
       63
282
     0
 72
     1
 77
     1
171
     1
175
     1
179
     1
273
     0
  0
XRECORD
  5
313
102
{ACAD_REACTORS
330
173
102
}
330
173
100
AcDbXrecord
280
     1
102
MATERIAL
148
0.0
149
0.0
149
0.0
 93
        0
 94
       63
282
     0
 72
     1
 77
     1
171
     1
175
     1
179
     1
273
     0
  0
XRECORD
  5
175
102
{ACAD_REACTORS
330
173
102
}
330
173
100
AcDbXrecord
280
     1
270
     1
271
     1
  0
XRECORD
  5
174
102
{ACAD_REACTORS
330
173
102
}
330
173
100
AcDbXrecord
280
     1
270
     1
271
     1
  0
XRECORD
  5
176
102
{ACAD_REACTORS
330
173
102
}
330
173
100
AcDbXrecord
280
     1
270
     1
271
     1
  0
XRECORD
  5
177
102
{ACAD_REACTORS
330
173
102
}
330
173
100
AcDbXrecord
280
     1
270
     1
271
     1
  0
CELLSTYLEMAP
  5
306
102
{ACAD_REACTORS
330
162
102
}
330
162
100
AcDbCellStyleMap
 90
        3
300
CELLSTYLE
  1
TABLEFORMAT_BEGIN
 90
        5
170
     1
 91
        0
 92
    32768
 62
   257
 93
        1
300
CONTENTFORMAT
  1
CONTENTFORMAT_BEGIN
 90
        0
 91
        0
 92
      512
 93
        0
300

 40
0.0
140
1.0
 94
        5
 62
     0
340
11
144
6.0
309
CONTENTFORMAT_END
171
     1
301
MARGIN
  1
CELLMARGIN_BEGIN
 40
1.5
 40
1.5
 40
1.5
 40
1.5
 40
4.5
 40
4.5
309
CELLMARGIN_END
 94
        6
 95
        1
302
GRIDFORMAT
  1
GRIDFORMAT_BEGIN
 90
        0
 91
        1
 62
     0
 92
       -2
340
14
 93
        0
 40
1.125
309
GRIDFORMAT_END
 95
        2
302
GRIDFORMAT
  1
GRIDFORMAT_BEGIN
 90
        0
 91
        1
 62
     0
 92
       -2
340
14
 93
        0
 40
1.125
309
GRIDFORMAT_END
 95
        4
302
GRIDFORMAT
  1
GRIDFORMAT_BEGIN
 90
        0
 91
        1
 62
     0
 92
       -2
340
14
 93
        0
 40
1.125
309
GRIDFORMAT_END
 95
        8
302
GRIDFORMAT
  1
GRIDFORMAT_BEGIN
 90
        0
 91
        1
 62
     0
 92
       -2
340
14
 93
        0
 40
1.125
309
GRIDFORMAT_END
 95
       16
302
GRIDFORMAT
  1
GRIDFORMAT_BEGIN
 90
        0
 91
        1
 62
     0
 92
       -2
340
14
 93
        0
 40
1.125
309
GRIDFORMAT_END
 95
       32
302
GRIDFORMAT
  1
GRIDFORMAT_BEGIN
 90
        0
 91
        1
 62
     0
 92
       -2
340
14
 93
        0
 40
1.125
309
GRIDFORMAT_END
309
TABLEFORMAT_END
  1
CELLSTYLE_BEGIN
 90
        1
 91
        1
300
_TITLE
309
CELLSTYLE_END
300
CELLSTYLE
  1
TABLEFORMAT_BEGIN
 90
        5
170
     1
 91
        0
 92
        0
 62
   257
 93
        1
300
CONTENTFORMAT
  1
CONTENTFORMAT_BEGIN
 90
        0
 91
        0
 92
      512
 93
        0
300

 40
0.0
140
1.0
 94
        5
 62
     0
340
11
144
4.5
309
CONTENTFORMAT_END
171
     1
301
MARGIN
  1
CELLMARGIN_BEGIN
 40
1.5
 40
1.5
 40
1.5
 40
1.5
 40
4.5
 40
4.5
309
CELLMARGIN_END
 94
        6
 95
        1
302
GRIDFORMAT
  1
GRIDFORMAT_BEGIN
 90
        0
 91
        1
 62
     0
 92
       -2
340
14
 93
        0
 40
1.125
309
GRIDFORMAT_END
 95
        2
302
GRIDFORMAT
  1
GRIDFORMAT_BEGIN
 90
        0
 91
        1
 62
     0
 92
       -2
340
14
 93
        0
 40
1.125
309
GRIDFORMAT_END
 95
        4
302
GRIDFORMAT
  1
GRIDFORMAT_BEGIN
 90
        0
 91
        1
 62
     0
 92
       -2
340
14
 93
        0
 40
1.125
309
GRIDFORMAT_END
 95
        8
302
GRIDFORMAT
  1
GRIDFORMAT_BEGIN
 90
        0
 91
        1
 62
     0
 92
       -2
340
14
 93
        0
 40
1.125
309
GRIDFORMAT_END
 95
       16
302
GRIDFORMAT
  1
GRIDFORMAT_BEGIN
 90
        0
 91
        1
 62
     0
 92
       -2
340
14
 93
        0
 40
1.125
309
GRIDFORMAT_END
 95
       32
302
GRIDFORMAT
  1
GRIDFORMAT_BEGIN
 90
        0
 91
        1
 62
     0
 92
       -2
340
14
 93
        0
 40
1.125
309
GRIDFORMAT_END
309
TABLEFORMAT_END
  1
CELLSTYLE_BEGIN
 90
        2
 91
        1
300
_HEADER
309
CELLSTYLE_END
300
CELLSTYLE
  1
TABLEFORMAT_BEGIN
 90
        5
170
     1
 91
        0
 92
        0
 62
   257
 93
        1
300
CONTENTFORMAT
  1
CONTENTFORMAT_BEGIN
 90
        0
 91
        0
 92
      512
 93
        0
300

 40
0.0
140
1.0
 94
        2
 62
     0
340
11
144
4.5
309
CONTENTFORMAT_END
171
     1
301
MARGIN
  1
CELLMARGIN_BEGIN
 40
1.5
 40
1.5
 40
1.5
 40
1.5
 40
4.5
 40
4.5
309
CELLMARGIN_END
 94
        6
 95
        1
302
GRIDFORMAT
  1
GRIDFORMAT_BEGIN
 90
        0
 91
        1
 62
     0
 92
       -2
340
14
 93
        0
 40
1.125
309
GRIDFORMAT_END
 95
        2
302
GRIDFORMAT
  1
GRIDFORMAT_BEGIN
 90
        0
 91
        1
 62
     0
 92
       -2
340
14
 93
        0
 40
1.125
309
GRIDFORMAT_END
 95
        4
302
GRIDFORMAT
  1
GRIDFORMAT_BEGIN
 90
        0
 91
        1
 62
     0
 92
       -2
340
14
 93
        0
 40
1.125
309
GRIDFORMAT_END
 95
        8
302
GRIDFORMAT
  1
GRIDFORMAT_BEGIN
 90
        0
 91
        1
 62
     0
 92
       -2
340
14
 93
        0
 40
1.125
309
GRIDFORMAT_END
 95
       16
302
GRIDFORMAT
  1
GRIDFORMAT_BEGIN
 90
        0
 91
        1
 62
     0
 92
       -2
340
14
 93
        0
 40
1.125
309
GRIDFORMAT_END
 95
       32
302
GRIDFORMAT
  1
GRIDFORMAT_BEGIN
 90
        0
 91
        1
 62
     0
 92
       -2
340
14
 93
        0
 40
1.125
309
GRIDFORMAT_END
309
TABLEFORMAT_END
  1
CELLSTYLE_BEGIN
 90
        3
 91
        2
300
_DATA
309
CELLSTYLE_END
  0
XRECORD
  5
30A
102
{ACAD_REACTORS
330
162
102
}
330
162
100
AcDbXrecord
280
     1
102
ACAD_ROUNDTRIP_PRE2007_TABLESTYLE
 90
      512
 91
        0
  1

 92
      512
 93
        0
  2

 94
      512
 95
        0
  3

  0
ENDSEC
  0
EOF
