  0
SECTION
  2
HEADER
  9
$ACADVER
  1
AC1015
  9
$ACADMAINTVER
 70
    20
  9
$DWGCODEPAGE
  3
ANSI_1254
  9
$INSBASE
 10
0.0
 20
0.0
 30
0.0
  9
$EXTMIN
 10
2268.810340476431
 20
1099.242566744918
 30
0.0
  9
$EXTMAX
 10
2310.334454642667
 20
1135.139952711097
 30
0.0
  9
$LIMMIN
 10
0.0
 20
0.0
  9
$LIMMAX
 10
420.0
 20
297.0
  9
$ORTHOMODE
 70
     1
  9
$REGENMODE
 70
     1
  9
$FILLMODE
 70
     1
  9
$QTEXTMODE
 70
     0
  9
$MIRRTEXT
 70
     0
  9
$LTSCALE
 40
1.0
  9
$ATTMODE
 70
     1
  9
$TEXTSIZE
 40
2.5
  9
$TRACEWID
 40
1.0
  9
$TEXTSTYLE
  7
Standard
  9
$CLAYER
  8
0
  9
$CELTYPE
  6
ByLayer
  9
$CECOLOR
 62
   256
  9
$CELTSCALE
 40
1.0
  9
$DISPSILH
 70
     0
  9
$DIMSCALE
 40
1.0
  9
$DIMASZ
 40
2.5
  9
$DIMEXO
 40
0.625
  9
$DIMDLI
 40
3.75
  9
$DIMRND
 40
0.0
  9
$DIMDLE
 40
0.0
  9
$DIMEXE
 40
1.25
  9
$DIMTP
 40
0.0
  9
$DIMTM
 40
0.0
  9
$DIMTXT
 40
2.5
  9
$DIMCEN
 40
2.5
  9
$DIMTSZ
 40
0.0
  9
$DIMTOL
 70
     0
  9
$DIMLIM
 70
     0
  9
$DIMTIH
 70
     0
  9
$DIMTOH
 70
     0
  9
$DIMSE1
 70
     0
  9
$DIMSE2
 70
     0
  9
$DIMTAD
 70
     1
  9
$DIMZIN
 70
     8
  9
$DIMBLK
  1

  9
$DIMASO
 70
     1
  9
$DIMSHO
 70
     1
  9
$DIMPOST
  1

  9
$DIMAPOST
  1

  9
$DIMALT
 70
     0
  9
$DIMALTD
 70
     3
  9
$DIMALTF
 40
0.03937007874016
  9
$DIMLFAC
 40
1.0
  9
$DIMTOFL
 70
     1
  9
$DIMTVP
 40
0.0
  9
$DIMTIX
 70
     0
  9
$DIMSOXD
 70
     0
  9
$DIMSAH
 70
     0
  9
$DIMBLK1
  1

  9
$DIMBLK2
  1

  9
$DIMSTYLE
  2
ISO-25
  9
$DIMCLRD
 70
     0
  9
$DIMCLRE
 70
     0
  9
$DIMCLRT
 70
     0
  9
$DIMTFAC
 40
1.0
  9
$DIMGAP
 40
0.625
  9
$DIMJUST
 70
     0
  9
$DIMSD1
 70
     0
  9
$DIMSD2
 70
     0
  9
$DIMTOLJ
 70
     0
  9
$DIMTZIN
 70
     8
  9
$DIMALTZ
 70
     0
  9
$DIMALTTZ
 70
     0
  9
$DIMUPT
 70
     0
  9
$DIMDEC
 70
     2
  9
$DIMTDEC
 70
     2
  9
$DIMALTU
 70
     2
  9
$DIMALTTD
 70
     3
  9
$DIMTXSTY
  7
Standard
  9
$DIMAUNIT
 70
     0
  9
$DIMADEC
 70
     0
  9
$DIMALTRND
 40
0.0
  9
$DIMAZIN
 70
     0
  9
$DIMDSEP
 70
    44
  9
$DIMATFIT
 70
     3
  9
$DIMFRAC
 70
     0
  9
$DIMLDRBLK
  1

  9
$DIMLUNIT
 70
     2
  9
$DIMLWD
 70
    -2
  9
$DIMLWE
 70
    -2
  9
$DIMTMOVE
 70
     0
  9
$LUNITS
 70
     2
  9
$LUPREC
 70
     4
  9
$SKETCHINC
 40
1.0
  9
$FILLETRAD
 40
0.0
  9
$AUNITS
 70
     0
  9
$AUPREC
 70
     0
  9
$MENU
  1
.
  9
$ELEVATION
 40
0.0
  9
$PELEVATION
 40
0.0
  9
$THICKNESS
 40
0.0
  9
$LIMCHECK
 70
     0
  9
$CHAMFERA
 40
0.0
  9
$CHAMFERB
 40
0.0
  9
$CHAMFERC
 40
0.0
  9
$CHAMFERD
 40
0.0
  9
$SKPOLY
 70
     0
  9
$TDCREATE
 40
2458559.440346655
  9
$TDUCREATE
 40
2458559.315346655
  9
$TDUPDATE
 40
2459067.644974572
  9
$TDUUPDATE
 40
2459067.519974572
  9
$TDINDWG
 40
0.0016234144
  9
$TDUSRTIMER
 40
0.0016234144
  9
$USRTIMER
 70
     1
  9
$ANGBASE
 50
0.0
  9
$ANGDIR
 70
     0
  9
$PDMODE
 70
     0
  9
$PDSIZE
 40
0.0
  9
$PLINEWID
 40
0.0
  9
$SPLFRAME
 70
     0
  9
$SPLINETYPE
 70
     6
  9
$SPLINESEGS
 70
     8
  9
$HANDSEED
  5
3CB
  9
$SURFTAB1
 70
     6
  9
$SURFTAB2
 70
     6
  9
$SURFTYPE
 70
     6
  9
$SURFU
 70
     6
  9
$SURFV
 70
     6
  9
$UCSBASE
  2

  9
$UCSNAME
  2

  9
$UCSORG
 10
0.0
 20
0.0
 30
0.0
  9
$UCSXDIR
 10
1.0
 20
0.0
 30
0.0
  9
$UCSYDIR
 10
0.0
 20
1.0
 30
0.0
  9
$UCSORTHOREF
  2

  9
$UCSORTHOVIEW
 70
     0
  9
$UCSORGTOP
 10
0.0
 20
0.0
 30
0.0
  9
$UCSORGBOTTOM
 10
0.0
 20
0.0
 30
0.0
  9
$UCSORGLEFT
 10
0.0
 20
0.0
 30
0.0
  9
$UCSORGRIGHT
 10
0.0
 20
0.0
 30
0.0
  9
$UCSORGFRONT
 10
0.0
 20
0.0
 30
0.0
  9
$UCSORGBACK
 10
0.0
 20
0.0
 30
0.0
  9
$PUCSBASE
  2

  9
$PUCSNAME
  2

  9
$PUCSORG
 10
0.0
 20
0.0
 30
0.0
  9
$PUCSXDIR
 10
1.0
 20
0.0
 30
0.0
  9
$PUCSYDIR
 10
0.0
 20
1.0
 30
0.0
  9
$PUCSORTHOREF
  2

  9
$PUCSORTHOVIEW
 70
     0
  9
$PUCSORGTOP
 10
0.0
 20
0.0
 30
0.0
  9
$PUCSORGBOTTOM
 10
0.0
 20
0.0
 30
0.0
  9
$PUCSORGLEFT
 10
0.0
 20
0.0
 30
0.0
  9
$PUCSORGRIGHT
 10
0.0
 20
0.0
 30
0.0
  9
$PUCSORGFRONT
 10
0.0
 20
0.0
 30
0.0
  9
$PUCSORGBACK
 10
0.0
 20
0.0
 30
0.0
  9
$USERI1
 70
     0
  9
$USERI2
 70
     0
  9
$USERI3
 70
     0
  9
$USERI4
 70
     0
  9
$USERI5
 70
     0
  9
$USERR1
 40
0.0
  9
$USERR2
 40
0.0
  9
$USERR3
 40
0.0
  9
$USERR4
 40
0.0
  9
$USERR5
 40
0.0
  9
$WORLDVIEW
 70
     1
  9
$SHADEDGE
 70
     3
  9
$SHADEDIF
 70
    70
  9
$TILEMODE
 70
     1
  9
$MAXACTVP
 70
    64
  9
$PINSBASE
 10
0.0
 20
0.0
 30
0.0
  9
$PLIMCHECK
 70
     0
  9
$PEXTMIN
 10
0.0
 20
0.0
 30
0.0
  9
$PEXTMAX
 10
0.0
 20
0.0
 30
0.0
  9
$PLIMMIN
 10
0.0
 20
0.0
  9
$PLIMMAX
 10
12.0
 20
9.0
  9
$UNITMODE
 70
     0
  9
$VISRETAIN
 70
     1
  9
$PLINEGEN
 70
     0
  9
$PSLTSCALE
 70
     1
  9
$TREEDEPTH
 70
  3020
  9
$CMLSTYLE
  2
Standard
  9
$CMLJUST
 70
     0
  9
$CMLSCALE
 40
20.0
  9
$PROXYGRAPHICS
 70
     1
  9
$MEASUREMENT
 70
     1
  9
$CELWEIGHT
370
    -1
  9
$ENDCAPS
280
     0
  9
$JOINSTYLE
280
     0
  9
$LWDISPLAY
290
     0
  9
$INSUNITS
 70
     4
  9
$HYPERLINKBASE
  1

  9
$STYLESHEET
  1

  9
$XEDIT
290
     1
  9
$CEPSNTYPE
380
     0
  9
$PSTYLEMODE
290
     1
  9
$FINGERPRINTGUID
  2
{58EEB694-D963-41CF-95E6-684B80A2E686}
  9
$VERSIONGUID
  2
{B08F62DE-E355-44FC-B5F8-D19FD6FC882E}
  9
$EXTNAMES
290
     1
  9
$PSVPSCALE
 40
0.0
  9
$OLESTARTUP
290
     0
  0
ENDSEC
  0
SECTION
  2
CLASSES
  0
CLASS
  1
ACDBDICTIONARYWDFLT
  2
AcDbDictionaryWithDefault
  3
ObjectDBX Classes
 90
        0
280
     0
281
     0
  0
CLASS
  1
ACDBPLACEHOLDER
  2
AcDbPlaceHolder
  3
ObjectDBX Classes
 90
        0
280
     0
281
     0
  0
CLASS
  1
LAYOUT
  2
AcDbLayout
  3
ObjectDBX Classes
 90
        0
280
     0
281
     0
  0
CLASS
  1
DICTIONARYVAR
  2
AcDbDictionaryVar
  3
ObjectDBX Classes
 90
        0
280
     0
281
     0
  0
CLASS
  1
TABLESTYLE
  2
AcDbTableStyle
  3
ObjectDBX Classes
 90
     4095
280
     0
281
     0
  0
CLASS
  1
MATERIAL
  2
AcDbMaterial
  3
ObjectDBX Classes
 90
     1153
280
     0
281
     0
  0
CLASS
  1
VISUALSTYLE
  2
AcDbVisualStyle
  3
ObjectDBX Classes
 90
     4095
280
     0
281
     0
  0
CLASS
  1
SCALE
  2
AcDbScale
  3
ObjectDBX Classes
 90
     1153
280
     0
281
     0
  0
CLASS
  1
MLEADERSTYLE
  2
AcDbMLeaderStyle
  3
ACDB_MLEADERSTYLE_CLASS
 90
     4095
280
     0
281
     0
  0
CLASS
  1
CELLSTYLEMAP
  2
AcDbCellStyleMap
  3
ObjectDBX Classes
 90
     1152
280
     0
281
     0
  0
CLASS
  1
ACAD_EVALUATION_GRAPH
  2
AcDbEvalGraph
  3
ObjectDBX Classes
 90
    33921
280
     0
281
     0
  0
CLASS
  1
ACAECUSTOBJ
  2
AcAeEditorObj
  3
AcAeEditorObj
 90
    33792
280
     0
281
     0
  0
CLASS
  1
SORTENTSTABLE
  2
AcDbSortentsTable
  3
ObjectDBX Classes
 90
        0
280
     0
281
     0
  0
CLASS
  1
ACDB_DYNAMICBLOCKPURGEPREVENTER_VERSION
  2
AcDbDynamicBlockPurgePreventer
  3
ObjectDBX Classes
 90
    33921
280
     0
281
     0
  0
ENDSEC
  0
SECTION
  2
TABLES
  0
TABLE
  2
VPORT
  5
8
330
0
100
AcDbSymbolTable
 70
     1
  0
VPORT
  5
EA
330
8
100
AcDbSymbolTableRecord
100
AcDbViewportTableRecord
  2
*Active
 70
     0
 10
0.0
 20
0.0
 11
1.0
 21
1.0
 12
2301.323236775413
 22
1117.388121587761
 13
0.0
 23
0.0
 14
10.0
 24
10.0
 15
10.0
 25
10.0
 16
0.0
 26
0.0
 36
1.0
 17
0.0
 27
0.0
 37
0.0
 40
60.80308203310517
 41
1.903110047846889
 42
50.0
 43
0.0
 44
0.0
 50
0.0
 51
0.0
 71
     0
 72
  1000
 73
     1
 74
     3
 75
     0
 76
     0
 77
     0
 78
     0
281
     0
 65
     1
110
0.0
120
0.0
130
0.0
111
1.0
121
0.0
131
0.0
112
0.0
122
1.0
132
0.0
 79
     0
146
0.0
  0
ENDTAB
  0
TABLE
  2
LTYPE
  5
5
330
0
100
AcDbSymbolTable
 70
     1
  0
LTYPE
  5
14
330
5
100
AcDbSymbolTableRecord
100
AcDbLinetypeTableRecord
  2
ByBlock
 70
     0
  3

 72
    65
 73
     0
 40
0.0
  0
LTYPE
  5
15
330
5
100
AcDbSymbolTableRecord
100
AcDbLinetypeTableRecord
  2
ByLayer
 70
     0
  3

 72
    65
 73
     0
 40
0.0
  0
LTYPE
  5
16
330
5
100
AcDbSymbolTableRecord
100
AcDbLinetypeTableRecord
  2
Continuous
 70
     0
  3
Solid line
 72
    65
 73
     0
 40
0.0
  0
ENDTAB
  0
TABLE
  2
LAYER
  5
2
330
0
100
AcDbSymbolTable
 70
     1
  0
LAYER
  5
10
102
{ACAD_XDICTIONARY
360
13C
102
}
330
2
100
AcDbSymbolTableRecord
100
AcDbLayerTableRecord
  2
0
 70
     0
 62
     7
  6
Continuous
370
    -3
390
F
  0
ENDTAB
  0
TABLE
  2
STYLE
  5
3
330
0
100
AcDbSymbolTable
 70
     2
  0
STYLE
  5
11
330
3
100
AcDbSymbolTableRecord
100
AcDbTextStyleTableRecord
  2
Standard
 70
     0
 40
0.0
 41
1.0
 50
0.0
 71
     0
 42
2.5
  3
txt
  4

  0
STYLE
  5
132
330
3
100
AcDbSymbolTableRecord
100
AcDbTextStyleTableRecord
  2
Annotative
 70
     0
 40
0.0
 41
1.0
 50
0.0
 71
     0
 42
2.5
  3
txt.shx
  4

1001
AcadAnnotative
1000
AnnotativeData
1002
{
1070
     1
1070
     1
1002
}
  0
ENDTAB
  0
TABLE
  2
VIEW
  5
6
330
0
100
AcDbSymbolTable
 70
     0
  0
ENDTAB
  0
TABLE
  2
UCS
  5
7
330
0
100
AcDbSymbolTable
 70
     0
  0
ENDTAB
  0
TABLE
  2
APPID
  5
9
330
0
100
AcDbSymbolTable
 70
    12
  0
APPID
  5
12
330
9
100
AcDbSymbolTableRecord
100
AcDbRegAppTableRecord
  2
ACAD
 70
     0
  0
APPID
  5
9E
330
9
100
AcDbSymbolTableRecord
100
AcDbRegAppTableRecord
  2
ACAD_PSEXT
 70
     0
  0
APPID
  5
133
330
9
100
AcDbSymbolTableRecord
100
AcDbRegAppTableRecord
  2
AcadAnnoPO
 70
     0
  0
APPID
  5
134
330
9
100
AcDbSymbolTableRecord
100
AcDbRegAppTableRecord
  2
AcadAnnotative
 70
     0
  0
APPID
  5
135
330
9
100
AcDbSymbolTableRecord
100
AcDbRegAppTableRecord
  2
ACAD_DSTYLE_DIMJAG
 70
     0
  0
APPID
  5
136
330
9
100
AcDbSymbolTableRecord
100
AcDbRegAppTableRecord
  2
ACAD_DSTYLE_DIMTALN
 70
     0
  0
APPID
  5
165
330
9
100
AcDbSymbolTableRecord
100
AcDbRegAppTableRecord
  2
ACAD_MLEADERVER
 70
     0
  0
APPID
  5
39E
330
9
100
AcDbSymbolTableRecord
100
AcDbRegAppTableRecord
  2
ACAUTHENVIRON
 70
     0
  0
APPID
  5
3A3
330
9
100
AcDbSymbolTableRecord
100
AcDbRegAppTableRecord
  2
ACAD_EXEMPT_FROM_CAD_STANDARDS
 70
     0
  0
APPID
  5
3AD
330
9
100
AcDbSymbolTableRecord
100
AcDbRegAppTableRecord
  2
AcDbDynamicBlockTrueName
 70
     0
  0
APPID
  5
3AE
330
9
100
AcDbSymbolTableRecord
100
AcDbRegAppTableRecord
  2
AcDbDynamicBlockGUID
 70
     0
  0
APPID
  5
3B0
330
9
100
AcDbSymbolTableRecord
100
AcDbRegAppTableRecord
  2
AcDbBlockRepETag
 70
     0
  0
ENDTAB
  0
TABLE
  2
DIMSTYLE
  5
A
330
0
100
AcDbSymbolTable
 70
     2
100
AcDbDimStyleTable
 71
     2
340
27
340
137
  0
DIMSTYLE
105
27
330
A
100
AcDbSymbolTableRecord
100
AcDbDimStyleTableRecord
  2
ISO-25
 70
     0
 41
2.5
 42
0.625
 43
3.75
 44
1.25
 73
     0
 74
     0
 77
     1
 78
     8
140
2.5
141
2.5
143
0.03937007874016
147
0.625
171
     3
172
     1
271
     2
272
     2
274
     3
278
    44
283
     0
284
     8
340
11
  0
DIMSTYLE
105
137
330
A
100
AcDbSymbolTableRecord
100
AcDbDimStyleTableRecord
  2
Annotative
 70
     0
 40
0.0
 41
2.5
 42
0.625
 43
3.75
 44
1.25
 73
     0
 74
     0
 77
     1
 78
     8
140
2.5
141
2.5
143
0.03937007874016
147
0.625
171
     3
172
     1
271
     2
272
     2
274
     3
278
    44
283
     0
284
     8
340
11
1001
AcadAnnotative
1000
AnnotativeData
1002
{
1070
     1
1070
     1
1002
}
1001
ACAD_DSTYLE_DIMJAG
1070
   388
1040
1.5
1001
ACAD_DSTYLE_DIMTALN
1070
   392
1070
     0
  0
ENDTAB
  0
TABLE
  2
BLOCK_RECORD
  5
1
330
0
100
AcDbSymbolTable
 70
     5
  0
BLOCK_RECORD
  5
1F
330
1
100
AcDbSymbolTableRecord
100
AcDbBlockTableRecord
  2
*Model_Space
340
22
  0
BLOCK_RECORD
  5
D2
330
1
100
AcDbSymbolTableRecord
100
AcDbBlockTableRecord
  2
*Paper_Space
340
D3
  0
BLOCK_RECORD
  5
D6
330
1
100
AcDbSymbolTableRecord
100
AcDbBlockTableRecord
  2
*Paper_Space0
340
D7
  0
BLOCK_RECORD
  5
1AD
330
1
100
AcDbSymbolTableRecord
100
AcDbBlockTableRecord
  2
SW_CENTERMARKSYMBOL_0
340
0
102
{BLKREFS
331
328
102
}
  0
BLOCK_RECORD
  5
2DD
102
{ACAD_XDICTIONARY
360
39F
102
}
330
1
100
AcDbSymbolTableRecord
100
AcDbBlockTableRecord
  2
1
340
0
310
2800000020000000200000000100080000000000000400000000000000000000000000000000000000000000000080000080000000808000800000008000800080800000C0C0C000C0DCC000F0CAA6000020400000206000002080000020A0000020C0000020E00000400000004020000040400000406000004080000040A0
310
000040C0000040E00000600000006020000060400000606000006080000060A0000060C0000060E00000800000008020000080400000806000008080000080A0000080C0000080E00000A0000000A0200000A0400000A0600000A0800000A0A00000A0C00000A0E00000C0000000C0200000C0400000C0600000C0800000C0
310
A00000C0C00000C0E00000E0000000E0200000E0400000E0600000E0800000E0A00000E0C00000E0E00040000000400020004000400040006000400080004000A0004000C0004000E00040200000402020004020400040206000402080004020A0004020C0004020E000404000004040200040404000404060004040800040
310
40A0004040C0004040E00040600000406020004060400040606000406080004060A0004060C0004060E00040800000408020004080400040806000408080004080A0004080C0004080E00040A0000040A0200040A0400040A0600040A0800040A0A00040A0C00040A0E00040C0000040C0200040C0400040C0600040C08000
310
40C0A00040C0C00040C0E00040E0000040E0200040E0400040E0600040E0800040E0A00040E0C00040E0E00080000000800020008000400080006000800080008000A0008000C0008000E00080200000802020008020400080206000802080008020A0008020C0008020E00080400000804020008040400080406000804080
310
008040A0008040C0008040E00080600000806020008060400080606000806080008060A0008060C0008060E00080800000808020008080400080806000808080008080A0008080C0008080E00080A0000080A0200080A0400080A0600080A0800080A0A00080A0C00080A0E00080C0000080C0200080C0400080C0600080C0
310
800080C0A00080C0C00080C0E00080E0000080E0200080E0400080E0600080E0800080E0A00080E0C00080E0E000C0000000C0002000C0004000C0006000C0008000C000A000C000C000C000E000C0200000C0202000C0204000C0206000C0208000C020A000C020C000C020E000C0400000C0402000C0404000C0406000C0
310
408000C040A000C040C000C040E000C0600000C0602000C0604000C0606000C0608000C060A000C060C000C060E000C0800000C0802000C0804000C0806000C0808000C080A000C080C000C080E000C0A00000C0A02000C0A04000C0A06000C0A08000C0A0A000C0A0C000C0A0E000C0C00000C0C02000C0C04000C0C06000
310
C0C08000C0C0A000F0FBFF00A4A0A000808080000000FF0000FF000000FFFF00FF000000FF00FF00FFFF0000FFFFFF0000000000000000000000000000000000000000000000000000000000000000000000000000000000000000000000000000000000000000000000000000000000000000000000000000000000000000
310
000000000000000000000000000000000000000000000000000000000000000000000000000000000000000000000000000000000000000000000000000000000000000000000000000000000000000000000000000000000000000000000000000000000000000000000000000000000000000000FFFFFFFFFFFFFFFFFFFF
310
FFFFFFFFFFFFFFFFFFFFFFFF00000000000000000000FFFF00FFFFFFFFFFFFFFFFFFFFFFFFFFFFFFFFFFFFFFFFFF000000000000000000FFFFFFFFFFFFFFFFFFFFFFFFFFFFFFFFFFFFFFFFFFFFFF0000000000000000FFFFFFFFFFFFFFFFFFFFFFFFFFFFFFFFFFFFFFFFFFFFFF000000000000000000FF00FFFFFFFFFFFFFF
310
FFFFFFFFFFFFFFFFFFFF0000FFFFFF000000000000000000FFFFFFFFFFFFFFFFFFFFFFFFFFFFFFFFFFFFFFFFFFFFFF0000000000000000FFFFFFFFFFFFFFFFFFFFFFFFFFFFFF00FFFFFFFFFFFFFF00000000000000000000FFFFFFFFFFFFFFFFFFFFFFFFFFFFFF0000FFFFFFFFFFFF0000000000000000FFFFFFFFFFFFFFFF
310
FFFFFFFFFFFFFFFFFFFFFFFFFFFFFFFF0000000000000000FFFFFFFFFFFFFFFFFFFF0000FFFFFFFFFFFFFFFFFFFFFF00000000000000000000FFFFFFFFFFFFFFFFFFFFFF0000FFFFFFFFFFFFFFFFFFFF0000000000000000FFFFFFFFFFFFFFFFFFFFFFFFFFFFFFFFFFFFFFFFFFFFFFFF0000000000000000FFFFFFFFFFFF00
310
00FFFFFFFFFFFFFFFFFFFFFFFFFFFFFF000000000000FFFFFFFFFFFFFFFFFFFFFFFFFFFFFFFFFFFFFFFFFFFFFFFFFFFFFFFFFFFF0000FF00000000000000000000000000000000000000000000000000000000FF0000FFA4A4A4A4A4A4A4A4A4A4A4A4A4A4A4A4A4A4A4A4A4A4A4A4A4A4A4A4FF000000FF00000000000000
310
00000000000000000000000000000000000000FF0000000000FFFFFFA4A4A4A4A4A4A4A4A4A4A4A4A4A4A4A4A4A4A4A4FFFFFF000000000000000000FFFFFFFFFFFFFFFFFFFFFFFFFFFFFFFFFFFFFFFF0000000000000000000000000000000000000000000000000000000000000000000000000000000000000000000000
310
00000000000000000000000000000000000000000000000000000000000000000000000000000000000000000000000000000000000000000000000000000000000000000000000000000000000000000000000000000000000000000000000000000000000000000000000000000000000000000000000000000000000000
310
0000000000000000000000000000000000000000000000000000000000000000000000000000000000000000000000000000000000000000
102
{BLKREFS
331
31C
102
}
1001
AcDbDynamicBlockGUID
1000
{A8F2FD85-DAA4-43E7-8307-E986C1B6AE71}
1001
AcDbBlockRepETag
1070
     1
1071
       52
1001
ACAD
1000
DesignCenter Data
1002
{
1070
     1
1070
     4
1002
}
  0
BLOCK_RECORD
  5
31D
330
1
100
AcDbSymbolTableRecord
100
AcDbBlockTableRecord
  2
2
340
0
310
2800000020000000200000000100080000000000000400000000000000000000000000000000000000000000000080000080000000808000800000008000800080800000C0C0C000C0DCC000F0CAA6000020400000206000002080000020A0000020C0000020E00000400000004020000040400000406000004080000040A0
310
000040C0000040E00000600000006020000060400000606000006080000060A0000060C0000060E00000800000008020000080400000806000008080000080A0000080C0000080E00000A0000000A0200000A0400000A0600000A0800000A0A00000A0C00000A0E00000C0000000C0200000C0400000C0600000C0800000C0
310
A00000C0C00000C0E00000E0000000E0200000E0400000E0600000E0800000E0A00000E0C00000E0E00040000000400020004000400040006000400080004000A0004000C0004000E00040200000402020004020400040206000402080004020A0004020C0004020E000404000004040200040404000404060004040800040
310
40A0004040C0004040E00040600000406020004060400040606000406080004060A0004060C0004060E00040800000408020004080400040806000408080004080A0004080C0004080E00040A0000040A0200040A0400040A0600040A0800040A0A00040A0C00040A0E00040C0000040C0200040C0400040C0600040C08000
310
40C0A00040C0C00040C0E00040E0000040E0200040E0400040E0600040E0800040E0A00040E0C00040E0E00080000000800020008000400080006000800080008000A0008000C0008000E00080200000802020008020400080206000802080008020A0008020C0008020E00080400000804020008040400080406000804080
310
008040A0008040C0008040E00080600000806020008060400080606000806080008060A0008060C0008060E00080800000808020008080400080806000808080008080A0008080C0008080E00080A0000080A0200080A0400080A0600080A0800080A0A00080A0C00080A0E00080C0000080C0200080C0400080C0600080C0
310
800080C0A00080C0C00080C0E00080E0000080E0200080E0400080E0600080E0800080E0A00080E0C00080E0E000C0000000C0002000C0004000C0006000C0008000C000A000C000C000C000E000C0200000C0202000C0204000C0206000C0208000C020A000C020C000C020E000C0400000C0402000C0404000C0406000C0
310
408000C040A000C040C000C040E000C0600000C0602000C0604000C0606000C0608000C060A000C060C000C060E000C0800000C0802000C0804000C0806000C0808000C080A000C080C000C080E000C0A00000C0A02000C0A04000C0A06000C0A08000C0A0A000C0A0C000C0A0E000C0C00000C0C02000C0C04000C0C06000
310
C0C08000C0C0A000F0FBFF00A4A0A000808080000000FF0000FF000000FFFF00FF000000FF00FF00FFFF0000FFFFFF00000000000000000000000000000000000000000000000000000000000000000000000000000000000000000000000000FF000000000000000000000000000000000000000000000000000000000000
310
00FF00000000000000000000000000000000000000000000000000000000000000FF00000000000000000000000000000000000000000000000000000000000000FF0000000000000000000000000000000000000000000000000000000000FFFFFF000000000000000000000000000000000000000000000000000000FFFF
310
FF00FFFFFF0000000000000000000000000000000000000000000000FFFFFF0000FFFFFFFFFFFFFF000000000000000000000000000000000000FFFFFFFF00000000FF0000FFFFFFFFFF00000000000000000000000000000000FFFF000000000000000000000000FFFF000000000000000000000000000000FFFF00000000
310
000000000000000000FF00FF0000000000000000000000000000FF000000000000000000000000000000FFFF00000000000000000000000000FFFF0000000000000000FF000000000000FF00FF000000000000000000000000FFFF0000000000000000FF00000000000000FFFF0000000000000000000000FF00FF00000000
310
00000000FF00000000000000FF00FF00000000000000000000FF00FF0000FFFFFFFFFFFFFFFFFFFFFFFF000000FFFF000000000000FFFFFFFFFFFFFFFF00FFFFFFFFFFFFFFFFFFFFFFFF00FFFFFFFFFFFFFFFF00000000000000FFFF0000000000000000FF00000000000000FFFF000000000000000000000000FFFF000000
310
0000000000FF00000000000000FFFF00000000000000000000000000FF0000000000000000FF000000000000FF00FF00000000000000000000000000FF000000000000000000000000000000FFFF0000000000000000000000000000FFFF00000000000000000000000000FF00FF000000000000000000000000000000FFFF
310
FF0000000000000000000000FFFF00000000000000000000000000000000FFFF00FF00000000FF000000FFFFFFFF000000000000000000000000000000000000FFFFFF000000FFFFFFFFFFFF00000000000000000000000000000000000000000000FFFFFFFFFFFFFFFF000000000000000000000000000000000000000000
310
0000000000FFFFFF00000000000000000000000000000000000000000000000000000000000000FF00000000000000000000000000000000000000000000000000000000000000FF00000000000000000000000000000000000000000000000000000000000000FF0000000000000000000000000000000000000000000000
310
0000000000000000FF0000000000000000000000000000000000000000000000000000000000000000000000000000000000000000000000
102
{BLKREFS
331
329
102
}
1001
ACAD
1000
DesignCenter Data
1002
{
1070
     1
1070
     4
1002
}
  0
BLOCK_RECORD
  5
32A
330
1
100
AcDbSymbolTableRecord
100
AcDbBlockTableRecord
  2
3
340
0
310
2800000020000000200000000100080000000000000400000000000000000000000000000000000000000000000080000080000000808000800000008000800080800000C0C0C000C0DCC000F0CAA6000020400000206000002080000020A0000020C0000020E00000400000004020000040400000406000004080000040A0
310
000040C0000040E00000600000006020000060400000606000006080000060A0000060C0000060E00000800000008020000080400000806000008080000080A0000080C0000080E00000A0000000A0200000A0400000A0600000A0800000A0A00000A0C00000A0E00000C0000000C0200000C0400000C0600000C0800000C0
310
A00000C0C00000C0E00000E0000000E0200000E0400000E0600000E0800000E0A00000E0C00000E0E00040000000400020004000400040006000400080004000A0004000C0004000E00040200000402020004020400040206000402080004020A0004020C0004020E000404000004040200040404000404060004040800040
310
40A0004040C0004040E00040600000406020004060400040606000406080004060A0004060C0004060E00040800000408020004080400040806000408080004080A0004080C0004080E00040A0000040A0200040A0400040A0600040A0800040A0A00040A0C00040A0E00040C0000040C0200040C0400040C0600040C08000
310
40C0A00040C0C00040C0E00040E0000040E0200040E0400040E0600040E0800040E0A00040E0C00040E0E00080000000800020008000400080006000800080008000A0008000C0008000E00080200000802020008020400080206000802080008020A0008020C0008020E00080400000804020008040400080406000804080
310
008040A0008040C0008040E00080600000806020008060400080606000806080008060A0008060C0008060E00080800000808020008080400080806000808080008080A0008080C0008080E00080A0000080A0200080A0400080A0600080A0800080A0A00080A0C00080A0E00080C0000080C0200080C0400080C0600080C0
310
800080C0A00080C0C00080C0E00080E0000080E0200080E0400080E0600080E0800080E0A00080E0C00080E0E000C0000000C0002000C0004000C0006000C0008000C000A000C000C000C000E000C0200000C0202000C0204000C0206000C0208000C020A000C020C000C020E000C0400000C0402000C0404000C0406000C0
310
408000C040A000C040C000C040E000C0600000C0602000C0604000C0606000C0608000C060A000C060C000C060E000C0800000C0802000C0804000C0806000C0808000C080A000C080C000C080E000C0A00000C0A02000C0A04000C0A06000C0A08000C0A0A000C0A0C000C0A0E000C0C00000C0C02000C0C04000C0C06000
310
C0C08000C0C0A000F0FBFF00A4A0A000808080000000FF0000FF000000FFFF00FF000000FF00FF00FFFF0000FFFFFF00000000000000000000000000000000000000000000000000000000000000000000000000000000000000000000000000000000000000000000000000000000000000000000000000000000FFFFFFFF
310
FFFFFFFFFF0000000000000000000000000000000000000000FFFFFFFFFFFFFFFFFFFFFFFFFFFF0000000000000000000000000000000000FFFFFFFFFFFFFF000000000000FFFFFFFFFF000000000000000000000000FFFFFFFFFF0000FFFFFFFFFFFFFFFFFF0000FFFFFF0000000000000000000000FFFFFF00FFFFFFFFFF
310
FFFFFFFFFFFFFFFFFFFF00FFFF000000000000000000FFFFFFFFFFFFFF0000FFFFFFFFFFFFFF0000FFFFFFFFFFFF0000000000000000FFFFFFFFFF00FFFFFFFFFFFFFFFFFFFFFFFFFF00FFFFFFFF0000000000000000FFFFFF00FFFFFFFF000000000000000000FFFFFFFF00FFFF0000000000000000FFFFFFFFFF0000FFFF
310
FFFFFFFFFFFFFFFFFFFF00FFFFFFFF0000000000000000FFFFFFFFFFFFFF00000000000000000000FFFFFFFFFFFFFF0000000000000000FFFFFFFF0000A4A4A4A4A4A4A4A4A4A4A4000000FFFFFFFF0000000000000000FFFF00A4A4A4A400000000000000000000A4A4A4A400FFFF0000000000000000FFA4A4A4000000FF
310
FFFFFFFFFFFFFFFF00000000A4A4A4FFFF000000000000FFA4A40000FFFFFFFF0000000000000000FFFFFFFF0000A4A4FFFF0000000000FFA400FFFFFF0000000000000000000000000000FFFFFF00A4A4FF00000000FFA400FFFF000000000000000000000000000000000000FFFF00A4FF000000FFA400FFFF0000000000
310
00000000000000000000000000000000FF00A4FF0000FFA4FFFF0000000000000000000000000000FFFFFF0000000000FFFFA4FF0000FF00FF000000000000000000000000000000FF00FF000000000000FF00FF0000FFFFFF00000000000000000000000000FFFF0000FF000000000000FFFFFF000000FFFF000000000000
310
0000000000FFFF0000FFFF00000000000000FFFF00000000FFFF000000000000000000FFFF0000FFFF000000000000000000FFFF0000000000FFFF000000000000FFFF0000FFFF00000000000000000000FFFF000000000000FFFFFF00000000FF00A4FFFF0000000000000000000000FFFFFF0000000000000000FFFF0000
310
00FFFFFF000000000000000000000000FFFF0000000000000000000000FFFFFF0000000000000000000000000000FFFFFF0000000000000000000000000000FFFFFFFF0000000000000000FFFFFFFF0000000000000000000000000000000000000000FFFFFFFFFFFFFFFF0000000000000000000000000000000000000000
310
0000000000000000000000000000000000000000000000000000000000000000000000000000000000000000000000000000000000000000
102
{BLKREFS
331
358
102
}
1001
ACAD
1000
DesignCenter Data
1002
{
1070
     1
1070
     4
1002
}
  0
ENDTAB
  0
ENDSEC
  0
SECTION
  2
BLOCKS
  0
BLOCK
  5
20
330
1F
100
AcDbEntity
  8
0
100
AcDbBlockBegin
  2
*Model_Space
 70
     0
 10
0.0
 20
0.0
 30
0.0
  3
*Model_Space
  1

  0
ENDBLK
  5
21
330
1F
100
AcDbEntity
  8
0
100
AcDbBlockEnd
  0
BLOCK
  5
D4
330
D2
100
AcDbEntity
 67
     1
  8
0
100
AcDbBlockBegin
  2
*Paper_Space
 70
     0
 10
0.0
 20
0.0
 30
0.0
  3
*Paper_Space
  1

  0
ENDBLK
  5
D5
330
D2
100
AcDbEntity
 67
     1
  8
0
100
AcDbBlockEnd
  0
BLOCK
  5
D8
330
D6
100
AcDbEntity
 67
     1
  8
0
100
AcDbBlockBegin
  2
*Paper_Space0
 70
     0
 10
0.0
 20
0.0
 30
0.0
  3
*Paper_Space0
  1

  0
ENDBLK
  5
D9
330
D6
100
AcDbEntity
 67
     1
  8
0
100
AcDbBlockEnd
  0
BLOCK
  5
1AE
330
1AD
100
AcDbEntity
  8
0
100
AcDbBlockBegin
  2
SW_CENTERMARKSYMBOL_0
 70
     0
 10
0.0
 20
0.0
 30
0.0
  3
SW_CENTERMARKSYMBOL_0
  1

  0
LINE
  5
1AF
330
1AD
100
AcDbEntity
  8
0
  6
Continuous
 62
     0
370
     0
100
AcDbLine
 10
0.0
 20
0.0
 30
0.0
 11
0.0
 21
2.500000000000002
 31
0.0
  0
LINE
  5
1B0
330
1AD
100
AcDbEntity
  8
0
  6
Continuous
 62
     0
370
     0
100
AcDbLine
 10
0.0
 20
0.0
 30
0.0
 11
-2.500000000000002
 21
0.0
 31
0.0
  0
LINE
  5
1B1
330
1AD
100
AcDbEntity
  8
0
  6
Continuous
 62
     0
370
     0
100
AcDbLine
 10
0.0
 20
0.0
 30
0.0
 11
0.0
 21
-2.500000000000002
 31
0.0
  0
LINE
  5
1B2
330
1AD
100
AcDbEntity
  8
0
  6
Continuous
 62
     0
370
     0
100
AcDbLine
 10
0.0
 20
0.0
 30
0.0
 11
2.500000000000002
 21
0.0
 31
0.0
  0
LINE
  5
1B3
330
1AD
100
AcDbEntity
  8
0
  6
Continuous
 62
     0
370
     0
100
AcDbLine
 10
0.0
 20
4.999999999999976
 30
0.0
 11
0.0
 21
9.99999999999998
 31
0.0
  0
LINE
  5
1B4
330
1AD
100
AcDbEntity
  8
0
  6
Continuous
 62
     0
370
     0
100
AcDbLine
 10
-5.000000000000004
 20
0.0
 30
0.0
 11
-9.999999999999994
 21
0.0
 31
0.0
  0
LINE
  5
1B5
330
1AD
100
AcDbEntity
  8
0
  6
Continuous
 62
     0
370
     0
100
AcDbLine
 10
0.0
 20
-5.000000000000004
 30
0.0
 11
0.0
 21
-10.00000000000001
 31
0.0
  0
LINE
  5
1B6
330
1AD
100
AcDbEntity
  8
0
  6
Continuous
 62
     0
370
     0
100
AcDbLine
 10
5.000000000000004
 20
0.0
 30
0.0
 11
9.999999999999994
 21
0.0
 31
0.0
  0
ENDBLK
  5
1B7
330
1AD
100
AcDbEntity
  8
0
100
AcDbBlockEnd
  0
BLOCK
  5
2DE
330
2DD
100
AcDbEntity
  8
0
100
AcDbBlockBegin
  2
1
 70
     0
 10
0.0
 20
0.0
 30
0.0
  3
1
  1

  0
LINE
  5
362
330
2DD
100
AcDbEntity
  8
0
  6
Continuous
 62
     7
370
    15
100
AcDbLine
 10
2286.310340476431
 20
1130.384029588142
 30
0.0
 11
2286.310340476431
 21
1131.575611296228
 31
0.0
1001
AcDbBlockRepETag
1070
     1
1071
        0
1005
362
  0
LINE
  5
363
330
2DD
100
AcDbEntity
  8
0
  6
Continuous
 62
     7
370
    15
100
AcDbLine
 10
2271.310340476431
 20
1131.575611296228
 30
0.0
 11
2271.310340476431
 21
1130.384029588142
 31
0.0
1001
AcDbBlockRepETag
1070
     1
1071
        1
1005
363
  0
ARC
  5
364
330
2DD
100
AcDbEntity
  8
0
  6
Continuous
 62
     7
370
    15
100
AcDbCircle
 10
2285.310340476431
 20
1131.575611296228
 30
0.0
 40
1.0
100
AcDbArc
 50
0.0
 51
72.69239552724162
1001
AcDbBlockRepETag
1070
     1
1071
        2
1005
364
  0
ARC
  5
365
330
2DD
100
AcDbEntity
  8
0
  6
Continuous
 62
     7
370
    15
100
AcDbCircle
 10
2272.310340476431
 20
1131.575611296228
 30
0.0
 40
1.0
100
AcDbArc
 50
107.3076044727583
 51
180.0
1001
AcDbBlockRepETag
1070
     1
1071
        3
1005
365
  0
ARC
  5
366
330
2DD
100
AcDbEntity
  8
0
  6
Continuous
 62
     7
370
    15
100
AcDbCircle
 10
2278.810340476431
 20
1110.71626532979
 30
0.0
 40
22.84862270596331
100
AcDbArc
 50
100.1432284708647
 51
107.3076044727583
1001
AcDbBlockRepETag
1070
     1
1071
        4
1005
366
  0
ARC
  5
367
330
2DD
100
AcDbEntity
  8
0
  6
Continuous
 62
     7
370
    15
100
AcDbCircle
 10
2278.810340476431
 20
1110.71626532979
 30
0.0
 40
22.84862270596329
100
AcDbArc
 50
72.69239552724162
 51
79.97819510836733
1001
AcDbBlockRepETag
1070
     1
1071
        5
1005
367
  0
LINE
  5
368
330
2DD
100
AcDbEntity
  8
0
  6
Continuous
 62
     7
370
    15
100
AcDbLine
 10
2284.860340476431
 20
1130.368211790088
 30
0.0
 11
2284.860340476431
 21
1130.384029588142
 31
0.0
1001
AcDbBlockRepETag
1070
     1
1071
        6
1005
368
  0
LINE
  5
369
330
2DD
100
AcDbEntity
  8
0
  6
Continuous
 62
     7
370
    15
100
AcDbLine
 10
2284.860340476431
 20
1128.868211790088
 30
0.0
 11
2284.860340476431
 21
1129.218464008782
 31
0.0
1001
AcDbBlockRepETag
1070
     1
1071
        7
1005
369
  0
LINE
  5
36A
330
2DD
100
AcDbEntity
  8
0
  6
Continuous
 62
     7
370
    15
100
AcDbLine
 10
2284.860340476431
 20
1127.368211790088
 30
0.0
 11
2284.860340476431
 21
1127.718464008782
 31
0.0
1001
AcDbBlockRepETag
1070
     1
1071
        8
1005
36A
  0
LINE
  5
36B
330
2DD
100
AcDbEntity
  8
0
  6
Continuous
 62
     7
370
    15
100
AcDbLine
 10
2284.860340476431
 20
1125.868211790088
 30
0.0
 11
2284.860340476431
 21
1126.218464008782
 31
0.0
1001
AcDbBlockRepETag
1070
     1
1071
        9
1005
36B
  0
LINE
  5
36E
330
2DD
100
AcDbEntity
  8
0
  6
Continuous
 62
     7
370
    15
100
AcDbLine
 10
2272.76034047643
 20
1125.468464008782
 30
0.0
 11
2272.76034047643
 21
1125.118211790088
 31
0.0
1001
AcDbBlockRepETag
1070
     1
1071
       10
1005
36E
  0
LINE
  5
36F
330
2DD
100
AcDbEntity
  8
0
  6
Continuous
 62
     7
370
    15
100
AcDbLine
 10
2272.76034047643
 20
1126.968464008782
 30
0.0
 11
2272.76034047643
 21
1126.618211790088
 31
0.0
1001
AcDbBlockRepETag
1070
     1
1071
       11
1005
36F
  0
LINE
  5
370
330
2DD
100
AcDbEntity
  8
0
  6
Continuous
 62
     7
370
    15
100
AcDbLine
 10
2272.76034047643
 20
1128.468464008782
 30
0.0
 11
2272.76034047643
 21
1128.118211790088
 31
0.0
1001
AcDbBlockRepETag
1070
     1
1071
       12
1005
370
  0
LINE
  5
371
330
2DD
100
AcDbEntity
  8
0
  6
Continuous
 62
     7
370
    15
100
AcDbLine
 10
2272.76034047643
 20
1129.968464008782
 30
0.0
 11
2272.76034047643
 21
1129.618211790088
 31
0.0
1001
AcDbBlockRepETag
1070
     1
1071
       13
1005
371
  0
SPLINE
  5
372
330
2DD
100
AcDbEntity
  8
0
  6
Continuous
 62
     7
370
    15
100
AcDbSpline
210
0.0
220
0.0
230
1.0
 70
     8
 71
     3
 72
     9
 73
     5
 74
     0
 42
0.0000000001
 43
0.0000000001
 40
0.0
 40
0.0
 40
0.0
 40
0.0
 40
0.2894301440333569
 40
1.0
 40
1.0
 40
1.0
 40
1.0
 10
2273.321861963396
 20
1130.38612693738
 30
0.0
 10
2273.268475748379
 20
1130.346970946663
 30
0.0
 10
2273.084022898123
 20
1130.211684448265
 30
0.0
 10
2272.899549779019
 20
1130.07642769483
 30
0.0
 10
2272.768468741348
 20
1129.980318323023
 30
0.0
1001
AcDbBlockRepETag
1070
     1
1071
       14
1005
372
  0
SPLINE
  5
373
330
2DD
100
AcDbEntity
  8
0
  6
Continuous
 62
     7
370
    15
100
AcDbSpline
210
0.0
220
0.0
230
1.0
 70
     8
 71
     3
 72
     9
 73
     5
 74
     0
 42
0.0000000001
 43
0.0000000001
 40
0.0
 40
0.0
 40
0.0
 40
0.0
 40
0.48767133787872
 40
1.0
 40
1.0
 40
1.0
 40
1.0
 10
2273.536214557166
 20
1129.043338131228
 30
0.0
 10
2273.411452862454
 20
1128.951829575137
 30
0.0
 10
2273.155621352537
 20
1128.764185666252
 30
0.0
 10
2272.899760750067
 20
1128.57658383599
 30
0.0
 10
2272.768676029914
 20
1128.48047004128
 30
0.0
1001
AcDbBlockRepETag
1070
     1
1071
       15
1005
373
  0
SPLINE
  5
374
330
2DD
100
AcDbEntity
  8
0
  6
Continuous
 62
     7
370
    15
100
AcDbSpline
210
0.0
220
0.0
230
1.0
 70
     8
 71
     3
 72
     9
 73
     5
 74
     0
 42
0.0000000001
 43
0.0000000001
 40
0.0
 40
0.0
 40
0.0
 40
0.0
 40
0.4877224160238552
 40
1.0
 40
1.0
 40
1.0
 40
1.0
 10
2273.536213878593
 20
1127.543337924005
 30
0.0
 10
2273.411428338413
 20
1127.451812003901
 30
0.0
 10
2273.155574729722
 20
1127.264152144323
 30
0.0
 10
2272.899692250124
 20
1127.0765340272
 30
0.0
 10
2272.768609391693
 20
1126.98042147145
 30
0.0
1001
AcDbBlockRepETag
1070
     1
1071
       16
1005
374
  0
SPLINE
  5
375
330
2DD
100
AcDbEntity
  8
0
  6
Continuous
 62
     7
370
    15
100
AcDbSpline
210
0.0
220
0.0
230
1.0
 70
     8
 71
     3
 72
     9
 73
     5
 74
     0
 42
0.0000000001
 43
0.0000000001
 40
0.0
 40
0.0
 40
0.0
 40
0.0
 40
0.4876213755401644
 40
1.0
 40
1.0
 40
1.0
 40
1.0
 10
2273.536214532544
 20
1126.043337617343
 30
0.0
 10
2273.411478293106
 20
1125.951847588584
 30
0.0
 10
2273.155672773302
 20
1125.764222448775
 30
0.0
 10
2272.899837357442
 20
1125.576639317464
 30
0.0
 10
2272.768752758976
 20
1125.480525730671
 30
0.0
1001
AcDbBlockRepETag
1070
     1
1071
       17
1005
375
  0
SPLINE
  5
378
330
2DD
100
AcDbEntity
  8
0
  6
Continuous
 62
     7
370
    15
100
AcDbSpline
210
0.0
220
0.0
230
1.0
 70
     8
 71
     3
 72
     9
 73
     5
 74
     0
 42
0.0000000001
 43
0.0000000001
 40
0.0
 40
0.0
 40
0.0
 40
0.0
 40
0.500036612799335
 40
1.0
 40
1.0
 40
1.0
 40
1.0
 10
2284.852123249251
 20
1124.730383665826
 30
0.0
 10
2284.721033917392
 20
1124.826501143441
 30
0.0
 10
2284.458874450459
 20
1125.01872202318
 30
0.0
 10
2284.196742344529
 20
1125.210987067882
 30
0.0
 10
2284.065685888954
 20
1125.307112550872
 30
0.0
1001
AcDbBlockRepETag
1070
     1
1071
       18
1005
378
  0
SPLINE
  5
379
330
2DD
100
AcDbEntity
  8
0
  6
Continuous
 62
     7
370
    15
100
AcDbSpline
210
0.0
220
0.0
230
1.0
 70
     8
 71
     3
 72
     9
 73
     5
 74
     0
 42
0.0000000001
 43
0.0000000001
 40
0.0
 40
0.0
 40
0.0
 40
0.0
 40
0.5000347566422945
 40
0.9999999999999998
 40
0.9999999999999998
 40
0.9999999999999998
 40
0.9999999999999998
 10
2284.852057748457
 20
1126.230431554687
 30
0.0
 10
2284.720978999043
 20
1126.326541241945
 30
0.0
 10
2284.45883972238
 20
1126.518747255589
 30
0.0
 10
2284.196731161587
 20
1126.710995190497
 30
0.0
 10
2284.065685991204
 20
1126.807112476058
 30
0.0
1001
AcDbBlockRepETag
1070
     1
1071
       19
1005
379
  0
SPLINE
  5
37A
330
2DD
100
AcDbEntity
  8
0
  6
Continuous
 62
     7
370
    15
100
AcDbSpline
210
0.0
220
0.0
230
1.0
 70
     8
 71
     3
 72
     9
 73
     5
 74
     0
 42
0.0000000001
 43
0.0000000001
 40
0.0
 40
0.0
 40
0.0
 40
0.0
 40
0.5000351814547659
 40
0.9999999999999998
 40
0.9999999999999998
 40
0.9999999999999998
 40
0.9999999999999998
 10
2284.852144240839
 20
1127.730368278899
 30
0.0
 10
2284.721063222774
 20
1127.826479745575
 30
0.0
 10
2284.458919631829
 20
1128.018689154512
 30
0.0
 10
2284.196805305438
 20
1128.210940999384
 30
0.0
 10
2284.065757363805
 20
1128.30706015812
 30
0.0
1001
AcDbBlockRepETag
1070
     1
1071
       20
1005
37A
  0
SPLINE
  5
37B
330
2DD
100
AcDbEntity
  8
0
  6
Continuous
 62
     7
370
    15
100
AcDbSpline
210
0.0
220
0.0
230
1.0
 70
     8
 71
     3
 72
     9
 73
     5
 74
     0
 42
0.0000000001
 43
0.0000000001
 40
0.0
 40
0.0
 40
0.0
 40
0.0
 40
0.5000348326488775
 40
1.0
 40
1.0
 40
1.0
 40
1.0
 10
2284.851988823294
 20
1129.23048174706
 30
0.0
 10
2284.720909465335
 20
1129.326591778966
 30
0.0
 10
2284.458769011507
 20
1129.518798452643
 30
0.0
 10
2284.196659829777
 20
1129.711047138266
 30
0.0
 10
2284.065614368869
 20
1129.807164784546
 30
0.0
1001
AcDbBlockRepETag
1070
     1
1071
       21
1005
37B
  0
SPLINE
  5
37C
330
2DD
100
AcDbEntity
  8
0
  6
Continuous
 62
     7
370
    15
100
AcDbSpline
210
0.0
220
0.0
230
1.0
 70
     8
 71
     3
 72
     9
 73
     5
 74
     0
 42
0.0000000001
 43
0.0000000001
 40
0.0
 40
0.0
 40
0.0
 40
0.0
 40
0.5000357779801134
 40
1.0
 40
1.0
 40
1.0
 40
1.0
 10
2272.768745636372
 20
1129.606155227216
 30
0.0
 10
2272.899830674388
 20
1129.510041179698
 30
0.0
 10
2273.16198199193
 20
1129.317826838744
 30
0.0
 10
2273.424102872974
 20
1129.125569344689
 30
0.0
 10
2273.555153935339
 20
1129.029447476247
 30
0.0
1001
AcDbBlockRepETag
1070
     1
1071
       22
1005
37C
  0
SPLINE
  5
37D
330
2DD
100
AcDbEntity
  8
0
  6
Continuous
 62
     7
370
    15
100
AcDbSpline
210
0.0
220
0.0
230
1.0
 70
     8
 71
     3
 72
     9
 73
     5
 74
     0
 42
0.0000000001
 43
0.0000000001
 40
0.0
 40
0.0
 40
0.0
 40
0.0
 40
0.5000352287751334
 40
1.0
 40
1.0
 40
1.0
 40
1.0
 10
2272.768635161638
 20
1128.106235522098
 30
0.0
 10
2272.89971670968
 20
1128.010123825013
 30
0.0
 10
2273.161861335696
 20
1127.817913973477
 30
0.0
 10
2273.423975806874
 20
1127.62566163049
 30
0.0
 10
2273.555023808491
 20
1127.529542231811
 30
0.0
1001
AcDbBlockRepETag
1070
     1
1071
       23
1005
37D
  0
SPLINE
  5
37E
330
2DD
100
AcDbEntity
  8
0
  6
Continuous
 62
     7
370
    15
100
AcDbSpline
210
0.0
220
0.0
230
1.0
 70
     8
 71
     3
 72
     9
 73
     5
 74
     0
 42
0.0000000001
 43
0.0000000001
 40
0.0
 40
0.0
 40
0.0
 40
0.0
 40
0.5000356972174176
 40
0.9999999999999998
 40
0.9999999999999998
 40
0.9999999999999998
 40
0.9999999999999998
 10
2272.768663888767
 20
1126.606214592543
 30
0.0
 10
2272.899748244193
 20
1126.510100909461
 30
0.0
 10
2273.161898238995
 20
1126.31788726628
 30
0.0
 10
2273.424018476772
 20
1126.125630566188
 30
0.0
 10
2273.555069238697
 20
1126.029509079171
 30
0.0
1001
AcDbBlockRepETag
1070
     1
1071
       24
1005
37E
  0
SPLINE
  5
37F
330
2DD
100
AcDbEntity
  8
0
  6
Continuous
 62
     7
370
    15
100
AcDbSpline
210
0.0
220
0.0
230
1.0
 70
     8
 71
     3
 72
     9
 73
     5
 74
     0
 42
0.0000000001
 43
0.0000000001
 40
0.0
 40
0.0
 40
0.0
 40
0.0
 40
0.5000349658353089
 40
1.0
 40
1.0
 40
1.0
 40
1.0
 10
2272.768490316904
 20
1125.106341596509
 30
0.0
 10
2272.899569957732
 20
1125.010231059048
 30
0.0
 10
2273.161710907433
 20
1124.818023425526
 30
0.0
 10
2273.423822732376
 20
1124.625773615796
 30
0.0
 10
2273.786170478341
 20
1124.383337899435
 30
0.0
1001
AcDbBlockRepETag
1070
     1
1071
       25
1005
37F
  0
SPLINE
  5
381
330
2DD
100
AcDbEntity
  8
0
  6
Continuous
 62
     7
370
    15
100
AcDbSpline
210
0.0
220
0.0
230
1.0
 70
     8
 71
     3
 72
     9
 73
     5
 74
     0
 42
0.0000000001
 43
0.0000000001
 40
0.0
 40
0.0
 40
0.0
 40
0.0
 40
0.4876613064747115
 40
1.0
 40
1.0
 40
1.0
 40
1.0
 10
2284.084466868703
 20
1125.293338103611
 30
0.0
 10
2284.209218846452
 20
1125.384839607602
 30
0.0
 10
2284.465035693293
 20
1125.572472915343
 30
0.0
 10
2284.720883057884
 20
1125.76006501571
 30
0.0
 10
2284.851963562401
 20
1125.856175707328
 30
0.0
1001
AcDbBlockRepETag
1070
     1
1071
       26
1005
381
  0
SPLINE
  5
382
330
2DD
100
AcDbEntity
  8
0
  6
Continuous
 62
     7
370
    15
100
AcDbSpline
210
0.0
220
0.0
230
1.0
 70
     8
 71
     3
 72
     9
 73
     5
 74
     0
 42
0.0000000001
 43
0.0000000001
 40
0.0
 40
0.0
 40
0.0
 40
0.0
 40
0.4878039177057048
 40
1.0
 40
1.0
 40
1.0
 40
1.0
 10
2284.084467125026
 20
1126.79333790701
 30
0.0
 10
2284.209291417986
 20
1126.884892039866
 30
0.0
 10
2284.465181722328
 20
1127.07257838172
 30
0.0
 10
2284.721100358414
 20
1127.260223387221
 30
0.0
 10
2284.852180881204
 20
1127.356334423901
 30
0.0
1001
AcDbBlockRepETag
1070
     1
1071
       27
1005
382
  0
SPLINE
  5
383
330
2DD
100
AcDbEntity
  8
0
  6
Continuous
 62
     7
370
    15
100
AcDbSpline
210
0.0
220
0.0
230
1.0
 70
     8
 71
     3
 72
     9
 73
     5
 74
     0
 42
0.0000000001
 43
0.0000000001
 40
0.0
 40
0.0
 40
0.0
 40
0.0
 40
0.4877107992593796
 40
1.0
 40
1.0
 40
1.0
 40
1.0
 10
2284.084467117466
 20
1128.293337957334
 30
0.0
 10
2284.209243492357
 20
1128.38485721292
 30
0.0
 10
2284.465084402752
 20
1128.572507877463
 30
0.0
 10
2284.720955266895
 20
1128.760117420423
 30
0.0
 10
2284.85203514738
 20
1128.856227763237
 30
0.0
1001
AcDbBlockRepETag
1070
     1
1071
       28
1005
383
  0
SPLINE
  5
384
330
2DD
100
AcDbEntity
  8
0
  6
Continuous
 62
     7
370
    15
100
AcDbSpline
210
0.0
220
0.0
230
1.0
 70
     8
 71
     3
 72
     9
 73
     5
 74
     0
 42
0.0000000001
 43
0.0000000001
 40
0.0
 40
0.0
 40
0.0
 40
0.0
 40
0.4877332820517113
 40
1.0
 40
1.0
 40
1.0
 40
1.0
 10
2284.084466987218
 20
1129.793337771635
 30
0.0
 10
2284.209265080032
 20
1129.884872823883
 30
0.0
 10
2284.465138725334
 20
1130.072547226301
 30
0.0
 10
2284.72103906625
 20
1130.260178547844
 30
0.0
 10
2284.852128294013
 20
1130.356295829116
 30
0.0
1001
AcDbBlockRepETag
1070
     1
1071
       29
1005
384
  0
LINE
  5
385
330
2DD
100
AcDbEntity
  8
0
  6
Continuous
 62
     7
370
    15
100
AcDbLine
 10
2278.810340476431
 20
1130.384029588142
 30
0.0
 11
2271.310340476431
 21
1130.384029588142
 31
0.0
1001
AcDbBlockRepETag
1070
     1
1071
       30
1005
385
  0
LINE
  5
386
330
2DD
100
AcDbEntity
  8
0
  6
Continuous
 62
     7
370
    15
100
AcDbLine
 10
2286.310340476431
 20
1130.384029588142
 30
0.0
 11
2278.810340476431
 21
1130.384029588142
 31
0.0
1001
AcDbBlockRepETag
1070
     1
1071
       31
1005
386
  0
SPLINE
  5
387
330
2DD
100
AcDbEntity
  8
0
  6
Continuous
 62
     7
370
    15
100
AcDbSpline
210
0.0
220
0.0
230
1.0
 70
     8
 71
     3
 72
    12
 73
     8
 74
     0
 42
0.0000000001
 43
0.0000000001
 40
0.0
 40
0.0
 40
0.0
 40
0.0
 40
0.2500000000000003
 40
0.2500000000000003
 40
0.5000000000000007
 40
0.5000000000000007
 40
1.0
 40
1.0
 40
1.0
 40
1.0
 10
2275.486501485819
 20
1133.310991571193
 30
0.0
 10
2275.394557944732
 20
1133.29746604654
 30
0.0
 10
2275.304376221864
 20
1133.284187231526
 30
0.0
 10
2275.135327454677
 20
1133.259275714286
 30
0.0
 10
2275.057806136065
 20
1133.247841321318
 30
0.0
 10
2274.863492702705
 20
1133.219164202053
 30
0.0
 10
2274.786501485819
 20
1133.207781048769
 30
0.0
 10
2274.786501485819
 20
1133.207781048769
 30
0.0
1001
AcDbBlockRepETag
1070
     1
1071
       32
1005
387
  0
ARC
  5
388
330
2DD
100
AcDbEntity
  8
0
  6
Continuous
 62
     7
370
    15
100
AcDbCircle
 10
2278.810340476431
 20
1110.71626532979
 30
0.0
 40
22.8378974417406
100
AcDbArc
 50
81.75230377212566
 51
98.36857953663482
1001
AcDbBlockRepETag
1070
     1
1071
       33
1005
388
  0
SPLINE
  5
389
330
2DD
100
AcDbEntity
  8
0
  6
Continuous
 62
     7
370
    15
100
AcDbSpline
210
0.0
220
0.0
230
1.0
 70
     8
 71
     3
 72
    12
 73
     8
 74
     0
 42
0.0000000001
 43
0.0000000001
 40
0.0
 40
0.0
 40
0.0
 40
0.0
 40
0.2500000000000001
 40
0.2500000000000001
 40
0.5000000000000002
 40
0.5000000000000002
 40
1.0
 40
1.0
 40
1.0
 40
1.0
 10
2282.786501485819
 20
1133.216258733942
 30
0.0
 10
2282.786501485819
 20
1133.216258733942
 30
0.0
 10
2282.768085457959
 20
1133.218940669244
 30
0.0
 10
2282.697351109214
 20
1133.229236516722
 30
0.0
 10
2282.645024947395
 20
1133.236851277805
 30
0.0
 10
2282.451032276686
 20
1133.265060400508
 30
0.0
 10
2282.270384044258
 20
1133.291299799473
 30
0.0
 10
2282.086501485819
 20
1133.317953952546
 30
0.0
1001
AcDbBlockRepETag
1070
     1
1071
       34
1005
389
  0
SPLINE
  5
38B
330
2DD
100
AcDbEntity
  8
0
  6
Continuous
 62
     7
370
    15
100
AcDbSpline
210
0.0
220
0.0
230
1.0
 70
     8
 71
     3
 72
    44
 73
    40
 74
     0
 42
0.0000000001
 43
0.0000000001
 40
0.0
 40
0.0
 40
0.0
 40
0.0
 40
0.0270475723387585
 40
0.0544614097972405
 40
0.0821418963885293
 40
0.1099833034037693
 40
0.137876126247945
 40
0.1652140890476487
 40
0.1923912334186556
 40
0.2193075943831611
 40
0.2458689692797066
 40
0.2729165416184646
 40
0.3003303790769465
 40
0.3280108656682353
 40
0.3558522726834755
 40
0.3837450955276519
 40
0.4110830583273557
 40
0.4382602026983628
 40
0.4651765636628683
 40
0.4917379385594133
 40
0.5187855108981719
 40
0.5461993483566539
 40
0.5738798349479428
 40
0.6017212419631829
 40
0.6296140648073593
 40
0.6569520276070623
 40
0.6841291719780687
 40
0.7110455329425736
 40
0.7376069078391199
 40
0.7646544801778785
 40
0.7920683176363604
 40
0.8197488042276491
 40
0.8475902112428892
 40
0.8754830340870649
 40
0.9028209968867685
 40
0.9299981412577755
 40
0.956914502222281
 40
0.9834758771188267
 40
1.0
 40
1.0
 40
1.0
 40
1.0
 10
2284.860340476431
 20
1124.718464008782
 30
0.0
 10
2284.855986952298
 20
1124.725050221923
 30
0.0
 10
2284.847220950718
 20
1124.738311835511
 30
0.0
 10
2284.775850839904
 20
1124.759065301598
 30
0.0
 10
2284.66079900076
 20
1124.78038039671
 30
0.0
 10
2284.498130859084
 20
1124.802083382281
 30
0.0
 10
2284.291617155798
 20
1124.823772329996
 30
0.0
 10
2284.044307817788
 20
1124.845201689375
 30
0.0
 10
2283.760456820141
 20
1124.866114592926
 30
0.0
 10
2283.442603129986
 20
1124.886478201951
 30
0.0
 10
2283.091353526598
 20
1124.906081286207
 30
0.0
 10
2282.7063023478
 20
1124.925812140717
 30
0.0
 10
2282.286314184315
 20
1124.946565218479
 30
0.0
 10
2281.835271133613
 20
1124.967880419218
 30
0.0
 10
2281.357815129751
 20
1124.989583376219
 30
0.0
 10
2280.86227208214
 20
1125.011272331586
 30
0.0
 10
2280.354853192122
 20
1125.032701688955
 30
0.0
 10
2279.841791156485
 20
1125.053614593037
 30
0.0
 10
2279.325974871817
 20
1125.073978201922
 30
0.0
 10
2278.807209829508
 20
1125.093581286215
 30
0.0
 10
2278.285230285882
 20
1125.113312140715
 30
0.0
 10
2277.760041482945
 20
1125.13406521848
 30
0.0
 10
2277.237930952507
 20
1125.155380419218
 30
0.0
 10
2276.725182616929
 20
1125.177083376218
 30
0.0
 10
2276.230943973216
 20
1125.198772331587
 30
0.0
 10
2275.760641147083
 20
1125.22020168895
 30
0.0
 10
2275.318916420921
 20
1125.241114593059
 30
0.0
 10
2274.907294773703
 20
1125.261478201843
 30
0.0
 10
2274.524900107758
 20
1125.281081286507
 30
0.0
 10
2274.171760516115
 20
1125.300812139596
 30
0.0
 10
2273.849020151975
 20
1125.321565222735
 30
0.0
 10
2273.561685202841
 20
1125.342880403134
 30
0.0
 10
2273.314013841105
 20
1125.364583436657
 30
0.0
 10
2273.110567097724
 20
1125.386272107515
 30
0.0
 10
2272.952989901529
 20
1125.40770250461
 30
0.0
 10
2272.840944297423
 20
1125.428611579164
 30
0.0
 10
2272.776164070215
 20
1125.44898927048
 30
0.0
 10
2272.752116776215
 20
1125.4659852352
 30
0.0
 10
2272.768027068178
 20
1125.476556076788
 30
0.0
 10
2272.774128973297
 20
1125.480610199275
 30
0.0
1001
AcDbBlockRepETag
1070
     1
1071
       35
1005
38B
  0
SPLINE
  5
38C
330
2DD
100
AcDbEntity
  8
0
  6
Continuous
 62
     7
370
    15
100
AcDbSpline
210
0.0
220
0.0
230
1.0
 70
     8
 71
     3
 72
    44
 73
    40
 74
     0
 42
0.0000000001
 43
0.0000000001
 40
0.0
 40
0.0
 40
0.0
 40
0.0
 40
0.0270513932178415
 40
0.0544691032958997
 40
0.0821535001749917
 40
0.1099988402104811
 40
0.1378956033381744
 40
0.1652374280390107
 40
0.1924184115931124
 40
0.2193385749011084
 40
0.2459037019939874
 40
0.2729550952118289
 40
0.3003728052898872
 40
0.3280572021689794
 40
0.3559025422044689
 40
0.383799305332161
 40
0.4111411300329975
 40
0.4383221135870996
 40
0.4652422768950956
 40
0.4918074039879748
 40
0.5188587972058162
 40
0.5462765072838744
 40
0.5739609041629664
 40
0.6018062441984559
 40
0.6297030073261492
 40
0.6570448320269854
 40
0.6842258155810872
 40
0.7111459788890832
 40
0.7377111059819621
 40
0.7647624991998036
 40
0.7921802092778619
 40
0.8198646061569537
 40
0.8477099461924431
 40
0.8756067093201364
 40
0.9029485340209728
 40
0.9301295175750746
 40
0.9570496808830705
 40
0.9836148079759496
 40
1.0
 40
1.0
 40
1.0
 40
1.0
 10
2284.860340476431
 20
1126.218464008782
 30
0.0
 10
2284.855986952298
 20
1126.225050221922
 30
0.0
 10
2284.847220950718
 20
1126.238311835511
 30
0.0
 10
2284.775850839904
 20
1126.259065301598
 30
0.0
 10
2284.66079900076
 20
1126.28038039671
 30
0.0
 10
2284.498130859084
 20
1126.302083382281
 30
0.0
 10
2284.291617155798
 20
1126.323772329996
 30
0.0
 10
2284.044307817788
 20
1126.345201689375
 30
0.0
 10
2283.760456820141
 20
1126.366114592926
 30
0.0
 10
2283.442603129986
 20
1126.386478201951
 30
0.0
 10
2283.091353526598
 20
1126.406081286207
 30
0.0
 10
2282.7063023478
 20
1126.425812140717
 30
0.0
 10
2282.286314184315
 20
1126.446565218479
 30
0.0
 10
2281.835271133613
 20
1126.467880419218
 30
0.0
 10
2281.357815129751
 20
1126.489583376219
 30
0.0
 10
2280.86227208214
 20
1126.511272331586
 30
0.0
 10
2280.354853192122
 20
1126.532701688955
 30
0.0
 10
2279.841791156485
 20
1126.553614593037
 30
0.0
 10
2279.325974871817
 20
1126.573978201922
 30
0.0
 10
2278.807209829508
 20
1126.593581286215
 30
0.0
 10
2278.285230285882
 20
1126.613312140715
 30
0.0
 10
2277.760041482945
 20
1126.63406521848
 30
0.0
 10
2277.237930952507
 20
1126.655380419217
 30
0.0
 10
2276.725182616929
 20
1126.677083376218
 30
0.0
 10
2276.230943973218
 20
1126.698772331587
 30
0.0
 10
2275.760641147078
 20
1126.72020168895
 30
0.0
 10
2275.318916420943
 20
1126.741114593059
 30
0.0
 10
2274.907294773623
 20
1126.761478201842
 30
0.0
 10
2274.524900108059
 20
1126.781081286508
 30
0.0
 10
2274.171760514965
 20
1126.800812139592
 30
0.0
 10
2273.849020156347
 20
1126.82156522275
 30
0.0
 10
2273.561685186317
 20
1126.842880403075
 30
0.0
 10
2273.3140139032
 20
1126.864583436879
 30
0.0
 10
2273.110566867509
 20
1126.886272106691
 30
0.0
 10
2272.952990739552
 20
1126.907702507611
 30
0.0
 10
2272.8409412009
 20
1126.928611568075
 30
0.0
 10
2272.776175442312
 20
1126.948989311206
 30
0.0
 10
2272.75213023063
 20
1126.96595081627
 30
0.0
 10
2272.767968820511
 20
1126.976486933969
 30
0.0
 10
2272.774011111744
 20
1126.980506375855
 30
0.0
1001
AcDbBlockRepETag
1070
     1
1071
       36
1005
38C
  0
SPLINE
  5
38D
330
2DD
100
AcDbEntity
  8
0
  6
Continuous
 62
     7
370
    15
100
AcDbSpline
210
0.0
220
0.0
230
1.0
 70
     8
 71
     3
 72
    44
 73
    40
 74
     0
 42
0.0000000001
 43
0.0000000001
 40
0.0
 40
0.0
 40
0.0
 40
0.0
 40
0.0270496122956316
 40
0.0544655173350941
 40
0.0821480916183268
 40
0.1099915984623013
 40
0.1378865250130524
 40
0.1652265496711893
 40
0.1924057437715314
 40
0.2193241347968081
 40
0.2458875129806949
 40
0.2729371252763264
 40
0.3003530303157889
 40
0.3280356045990215
 40
0.355879111442996
 40
0.3837740379937471
 40
0.4111140626518827
 40
0.4382932567522236
 40
0.465211647777499
 40
0.4917750259613899
 40
0.5188246382570202
 40
0.5462405432964829
 40
0.5739231175797157
 40
0.6017666244236905
 40
0.6296615509744417
 40
0.6570015756325788
 40
0.684180769732921
 40
0.7110991607581979
 40
0.7376625389420849
 40
0.7647121512377164
 40
0.792128056277179
 40
0.8198106305604115
 40
0.8476541374043859
 40
0.8755490639551371
 40
0.9028890886132741
 40
0.9300682827136162
 40
0.9569866737388929
 40
0.9835500519227798
 40
1.0
 40
1.0
 40
1.0
 40
1.0
 10
2284.860340476431
 20
1127.718464008782
 30
0.0
 10
2284.855986952298
 20
1127.725050221922
 30
0.0
 10
2284.847220950718
 20
1127.738311835511
 30
0.0
 10
2284.775850839904
 20
1127.759065301598
 30
0.0
 10
2284.66079900076
 20
1127.780380396711
 30
0.0
 10
2284.498130859084
 20
1127.802083382281
 30
0.0
 10
2284.291617155798
 20
1127.823772329996
 30
0.0
 10
2284.044307817788
 20
1127.845201689375
 30
0.0
 10
2283.760456820141
 20
1127.866114592926
 30
0.0
 10
2283.442603129986
 20
1127.886478201951
 30
0.0
 10
2283.091353526598
 20
1127.906081286207
 30
0.0
 10
2282.7063023478
 20
1127.925812140717
 30
0.0
 10
2282.286314184315
 20
1127.946565218479
 30
0.0
 10
2281.835271133613
 20
1127.967880419218
 30
0.0
 10
2281.357815129751
 20
1127.989583376219
 30
0.0
 10
2280.86227208214
 20
1128.011272331586
 30
0.0
 10
2280.354853192122
 20
1128.032701688955
 30
0.0
 10
2279.841791156485
 20
1128.053614593037
 30
0.0
 10
2279.325974871817
 20
1128.073978201922
 30
0.0
 10
2278.807209829508
 20
1128.093581286215
 30
0.0
 10
2278.285230285882
 20
1128.113312140715
 30
0.0
 10
2277.760041482945
 20
1128.13406521848
 30
0.0
 10
2277.237930952507
 20
1128.155380419217
 30
0.0
 10
2276.725182616929
 20
1128.177083376218
 30
0.0
 10
2276.230943973217
 20
1128.198772331587
 30
0.0
 10
2275.76064114708
 20
1128.220201688949
 30
0.0
 10
2275.318916420932
 20
1128.241114593059
 30
0.0
 10
2274.90729477366
 20
1128.261478201843
 30
0.0
 10
2274.524900107919
 20
1128.281081286507
 30
0.0
 10
2274.171760515502
 20
1128.300812139594
 30
0.0
 10
2273.849020154306
 20
1128.321565222743
 30
0.0
 10
2273.561685194033
 20
1128.342880403103
 30
0.0
 10
2273.314013874204
 20
1128.364583436775
 30
0.0
 10
2273.11056697501
 20
1128.386272107076
 30
0.0
 10
2272.95299034823
 20
1128.40770250621
 30
0.0
 10
2272.840942646846
 20
1128.428611573253
 30
0.0
 10
2272.77617013202
 20
1128.448989292189
 30
0.0
 10
2272.752123967862
 20
1128.465966857846
 30
0.0
 10
2272.767995977192
 20
1128.47651915923
 30
0.0
 10
2272.774066043194
 20
1128.480554764586
 30
0.0
1001
AcDbBlockRepETag
1070
     1
1071
       37
1005
38D
  0
SPLINE
  5
38E
330
2DD
100
AcDbEntity
  8
0
  6
Continuous
 62
     7
370
    15
100
AcDbSpline
210
0.0
220
0.0
230
1.0
 70
     8
 71
     3
 72
    44
 73
    40
 74
     0
 42
0.0000000001
 43
0.0000000001
 40
0.0
 40
0.0
 40
0.0
 40
0.0
 40
0.0270551758719572
 40
0.0544767198270016
 40
0.0821649878744652
 40
0.1100142215833515
 40
0.1379148855750427
 40
0.1652605335416508
 40
0.1924453178707632
 40
0.2193692454827174
 40
0.245938087234082
 40
0.2729932631060403
 40
0.3004148070610845
 40
0.3281030751085479
 40
0.3559523088174341
 40
0.3838529728091238
 40
0.4111986207757318
 40
0.4383834051048441
 40
0.4653073327167982
 40
0.491876174468164
 40
0.5189313503401224
 40
0.5463528942951679
 40
0.5740411623426328
 40
0.6018903960515202
 40
0.6297910600432073
 40
0.6571367080098139
 40
0.6843214923389249
 40
0.7112454199508776
 40
0.737814261702246
 40
0.7648694375742032
 40
0.7922909815292475
 40
0.8199792495767109
 40
0.8478284832855973
 40
0.8757291472772886
 40
0.9030747952438968
 40
0.9302595795730091
 40
0.9571835071849633
 40
0.9837523489363279
 40
1.0
 40
1.0
 40
1.0
 40
1.0
 10
2284.860340476431
 20
1129.218464008782
 30
0.0
 10
2284.855986952298
 20
1129.225050221922
 30
0.0
 10
2284.847220950718
 20
1129.238311835511
 30
0.0
 10
2284.775850839904
 20
1129.259065301598
 30
0.0
 10
2284.66079900076
 20
1129.28038039671
 30
0.0
 10
2284.498130859084
 20
1129.302083382281
 30
0.0
 10
2284.291617155798
 20
1129.323772329996
 30
0.0
 10
2284.044307817788
 20
1129.345201689375
 30
0.0
 10
2283.760456820141
 20
1129.366114592926
 30
0.0
 10
2283.442603129986
 20
1129.386478201951
 30
0.0
 10
2283.091353526598
 20
1129.406081286207
 30
0.0
 10
2282.7063023478
 20
1129.425812140717
 30
0.0
 10
2282.286314184315
 20
1129.446565218479
 30
0.0
 10
2281.835271133613
 20
1129.467880419218
 30
0.0
 10
2281.357815129751
 20
1129.489583376219
 30
0.0
 10
2280.86227208214
 20
1129.511272331586
 30
0.0
 10
2280.354853192122
 20
1129.532701688955
 30
0.0
 10
2279.841791156485
 20
1129.553614593037
 30
0.0
 10
2279.325974871817
 20
1129.573978201922
 30
0.0
 10
2278.807209829508
 20
1129.593581286215
 30
0.0
 10
2278.285230285882
 20
1129.613312140715
 30
0.0
 10
2277.760041482945
 20
1129.63406521848
 30
0.0
 10
2277.237930952507
 20
1129.655380419217
 30
0.0
 10
2276.725182616928
 20
1129.677083376218
 30
0.0
 10
2276.23094397322
 20
1129.698772331587
 30
0.0
 10
2275.760641147071
 20
1129.720201688949
 30
0.0
 10
2275.318916420965
 20
1129.741114593059
 30
0.0
 10
2274.907294773541
 20
1129.761478201842
 30
0.0
 10
2274.524900108358
 20
1129.781081286509
 30
0.0
 10
2274.171760513819
 20
1129.800812139588
 30
0.0
 10
2273.849020160705
 20
1129.821565222766
 30
0.0
 10
2273.561685169845
 20
1129.842880403016
 30
0.0
 10
2273.314013965096
 20
1129.864583437101
 30
0.0
 10
2273.11056663803
 20
1129.886272105869
 30
0.0
 10
2272.952991574893
 20
1129.907702510602
 30
0.0
 10
2272.840938114283
 20
1129.928611557021
 30
0.0
 10
2272.776186778026
 20
1129.948989351801
 30
0.0
 10
2272.752143483871
 20
1129.965916751027
 30
0.0
 10
2272.767911097548
 20
1129.976418501842
 30
0.0
 10
2272.773894462095
 20
1129.980403619996
 30
0.0
1001
AcDbBlockRepETag
1070
     1
1071
       38
1005
38E
  0
SPLINE
  5
390
330
2DD
100
AcDbEntity
  8
0
  6
Continuous
 62
     7
370
    15
100
AcDbSpline
210
0.0
220
0.0
230
1.0
 70
     8
 71
     3
 72
    44
 73
    40
 74
     0
 42
0.0000000001
 43
0.0000000001
 40
0.0
 40
0.0
 40
0.0
 40
0.0
 40
0.0164893249948855
 40
0.0435378543457767
 40
0.070952661775786
 40
0.0986341277733289
 40
0.1264765198885982
 40
0.1543703296520265
 40
0.1817092597386185
 40
0.2088873657063472
 40
0.2358046790403921
 40
0.2623669937461641
 40
0.2894155230970547
 40
0.3168303305270639
 40
0.3445117965246069
 40
0.3723541886398763
 40
0.4002479984033054
 40
0.4275869284898973
 40
0.4547650344576263
 40
0.4816823477916712
 40
0.5082446624974427
 40
0.5352931918483339
 40
0.5627079992783433
 40
0.5903894652758863
 40
0.6182318573911557
 40
0.6461256671545847
 40
0.6734645972411761
 40
0.7006427032089042
 40
0.7275600165429485
 40
0.7541223312487212
 40
0.7811708605996124
 40
0.8085856680296217
 40
0.8362671340271646
 40
0.8641095261424339
 40
0.8920033359058622
 40
0.9193422659924541
 40
0.9465203719601829
 40
0.9734376852942279
 40
1.0
 40
1.0
 40
1.0
 40
1.0
 10
2284.846828818651
 20
1125.856095038024
 30
0.0
 10
2284.852810356868
 20
1125.860138874769
 30
0.0
 10
2284.86860380746
 20
1125.870816084129
 30
0.0
 10
2284.843977661735
 20
1125.888048819281
 30
0.0
 10
2284.776734105217
 20
1125.908816023465
 30
0.0
 10
2284.660559828041
 20
1125.930127381765
 30
0.0
 10
2284.498195278306
 20
1125.951831378051
 30
0.0
 10
2284.291600259569
 20
1125.973520055051
 30
0.0
 10
2284.044312278767
 20
1125.994949485533
 30
0.0
 10
2283.760455640069
 20
1126.015862370303
 30
0.0
 10
2283.442603440075
 20
1126.036225984289
 30
0.0
 10
2283.091353442331
 20
1126.055829067232
 30
0.0
 10
2282.706302370888
 20
1126.0755599221
 30
0.0
 10
2282.286314178028
 20
1126.096312999764
 30
0.0
 10
2281.835271135316
 20
1126.117628200529
 30
0.0
 10
2281.357815129293
 20
1126.139331157523
 30
0.0
 10
2280.862272082261
 20
1126.161020112892
 30
0.0
 10
2280.35485319209
 20
1126.182449470261
 30
0.0
 10
2279.841791156494
 20
1126.203362374343
 30
0.0
 10
2279.325974871814
 20
1126.223725983228
 30
0.0
 10
2278.807209829509
 20
1126.243329067521
 30
0.0
 10
2278.28523028588
 20
1126.263059922021
 30
0.0
 10
2277.760041482954
 20
1126.283812999786
 30
0.0
 10
2277.237930952474
 20
1126.305128200524
 30
0.0
 10
2276.725182617052
 20
1126.326831157525
 30
0.0
 10
2276.230943972759
 20
1126.348520112892
 30
0.0
 10
2275.760641148748
 20
1126.369949470262
 30
0.0
 10
2275.318916414771
 20
1126.390862374343
 30
0.0
 10
2274.90729479629
 20
1126.41122598323
 30
0.0
 10
2274.52490002403
 20
1126.430829067513
 30
0.0
 10
2274.171760836948
 20
1126.450559922051
 30
0.0
 10
2273.849018932246
 20
1126.471312999673
 30
0.0
 10
2273.561689813302
 20
1126.492628200951
 30
0.0
 10
2273.313996515932
 20
1126.514331155918
 30
0.0
 10
2273.110631330155
 20
1126.536020118849
 30
0.0
 10
2272.952756084716
 20
1126.557449448576
 30
0.0
 10
2272.841808259008
 20
1126.578362454471
 30
0.0
 10
2272.772991139427
 20
1126.598725688955
 30
0.0
 10
2272.764538661535
 20
1126.61174523102
 30
0.0
 10
2272.76034047643
 20
1126.618211790088
 30
0.0
1001
AcDbBlockRepETag
1070
     1
1071
       39
1005
390
  0
SPLINE
  5
391
330
2DD
100
AcDbEntity
  8
0
  6
Continuous
 62
     7
370
    15
100
AcDbSpline
210
0.0
220
0.0
230
1.0
 70
     8
 71
     3
 72
    44
 73
    40
 74
     0
 42
0.0000000001
 43
0.0000000001
 40
0.0
 40
0.0
 40
0.0
 40
0.0
 40
0.0162778447377247
 40
0.043332190222683
 40
0.070752892546029
 40
0.0984403107754041
 40
0.1262886897257872
 40
0.1541884973804587
 40
0.1815333060447947
 40
0.2087172560089186
 40
0.2356403572621906
 40
0.2622083835532935
 40
0.2892627290382519
 40
0.316683431361598
 40
0.3443708495909733
 40
0.3722192285413566
 40
0.4001190361960269
 40
0.4274638448603631
 40
0.4546477948244871
 40
0.4815708960777593
 40
0.5081389223688624
 40
0.5351932678538207
 40
0.5626139701771667
 40
0.5903013884065418
 40
0.6181497673569249
 40
0.6460495750115964
 40
0.6733943836759324
 40
0.7005783336400563
 40
0.7275014348933283
 40
0.7540694611844313
 40
0.7811238066693896
 40
0.8085445089927354
 40
0.8362319272221105
 40
0.8640803061724934
 40
0.8919801138271649
 40
0.919324922491501
 40
0.9465088724556249
 40
0.973431973708897
 40
1.0
 40
1.0
 40
1.0
 40
1.0
 10
2284.847004976962
 20
1127.356253010244
 30
0.0
 10
2284.852897306972
 20
1127.360244088079
 30
0.0
 10
2284.868582894896
 20
1127.370868476426
 30
0.0
 10
2284.843960109115
 20
1127.388048760845
 30
0.0
 10
2284.776738885432
 20
1127.40881603938
 30
0.0
 10
2284.660558533643
 20
1127.430127377455
 30
0.0
 10
2284.498195626941
 20
1127.451831379212
 30
0.0
 10
2284.291600168126
 20
1127.473520054746
 30
0.0
 10
2284.04431230291
 20
1127.494949485613
 30
0.0
 10
2283.760455633682
 20
1127.515862370282
 30
0.0
 10
2283.442603441752
 20
1127.536225984295
 30
0.0
 10
2283.091353441875
 20
1127.555829067231
 30
0.0
 10
2282.706302371012
 20
1127.575559922101
 30
0.0
 10
2282.286314177994
 20
1127.596312999764
 30
0.0
 10
2281.835271135325
 20
1127.617628200529
 30
0.0
 10
2281.35781512929
 20
1127.639331157523
 30
0.0
 10
2280.862272082261
 20
1127.661020112892
 30
0.0
 10
2280.35485319209
 20
1127.682449470261
 30
0.0
 10
2279.841791156494
 20
1127.703362374343
 30
0.0
 10
2279.325974871814
 20
1127.723725983228
 30
0.0
 10
2278.807209829509
 20
1127.743329067521
 30
0.0
 10
2278.28523028588
 20
1127.763059922021
 30
0.0
 10
2277.760041482955
 20
1127.783812999786
 30
0.0
 10
2277.237930952474
 20
1127.805128200524
 30
0.0
 10
2276.725182617052
 20
1127.826831157525
 30
0.0
 10
2276.230943972759
 20
1127.848520112892
 30
0.0
 10
2275.760641148748
 20
1127.869949470262
 30
0.0
 10
2275.318916414771
 20
1127.890862374343
 30
0.0
 10
2274.90729479629
 20
1127.91122598323
 30
0.0
 10
2274.52490002403
 20
1127.930829067513
 30
0.0
 10
2274.171760836948
 20
1127.950559922051
 30
0.0
 10
2273.849018932246
 20
1127.971312999673
 30
0.0
 10
2273.561689813302
 20
1127.992628200951
 30
0.0
 10
2273.313996515932
 20
1128.014331155918
 30
0.0
 10
2273.110631330155
 20
1128.036020118849
 30
0.0
 10
2272.952756084716
 20
1128.057449448576
 30
0.0
 10
2272.841808259008
 20
1128.078362454471
 30
0.0
 10
2272.772991139427
 20
1128.098725688955
 30
0.0
 10
2272.764538661535
 20
1128.11174523102
 30
0.0
 10
2272.76034047643
 20
1128.118211790088
 30
0.0
1001
AcDbBlockRepETag
1070
     1
1071
       40
1005
391
  0
SPLINE
  5
392
330
2DD
100
AcDbEntity
  8
0
  6
Continuous
 62
     7
370
    15
100
AcDbSpline
210
0.0
220
0.0
230
1.0
 70
     8
 71
     3
 72
    44
 73
    40
 74
     0
 42
0.0000000001
 43
0.0000000001
 40
0.0
 40
0.0
 40
0.0
 40
0.0
 40
0.0164199648089113
 40
0.04347040170496
 40
0.0708871425111791
 40
0.0985705606905109
 40
0.1264149163365721
 40
0.1543106932569262
 40
0.1816515513686258
 40
0.2088315740196527
 40
0.2357507856451003
 40
0.2623149736066834
 40
0.2893654105027321
 40
0.3167821513089511
 40
0.3444655694882829
 40
0.372309925134344
 40
0.4002057020546981
 40
0.4275465601663965
 40
0.4547265828174221
 40
0.4816457944428684
 40
0.5082099824044555
 40
0.535260419300503
 40
0.5626771601067223
 40
0.5903605782860543
 40
0.6182049339321157
 40
0.6461007108524699
 40
0.6734415689641696
 40
0.7006215916151968
 40
0.7275408032406445
 40
0.7541049912022278
 40
0.7811554280982765
 40
0.8085721689044953
 40
0.8362555870838273
 40
0.8640999427298885
 40
0.8919957196502425
 40
0.9193365777619423
 40
0.9465166004129692
 40
0.9734358120384168
 40
1.0
 40
1.0
 40
1.0
 40
1.0
 10
2284.846886602478
 20
1128.856146856411
 30
0.0
 10
2284.852838859205
 20
1128.860173387001
 30
0.0
 10
2284.868596931405
 20
1128.870833269909
 30
0.0
 10
2284.84397192495
 20
1128.888048800182
 30
0.0
 10
2284.776735667552
 20
1128.908816028666
 30
0.0
 10
2284.660559404988
 20
1128.930127380356
 30
0.0
 10
2284.498195392251
 20
1128.95183137843
 30
0.0
 10
2284.291600229682
 20
1128.973520054951
 30
0.0
 10
2284.044312286658
 20
1128.994949485559
 30
0.0
 10
2283.760455637982
 20
1129.015862370297
 30
0.0
 10
2283.442603440623
 20
1129.036225984291
 30
0.0
 10
2283.091353442182
 20
1129.055829067232
 30
0.0
 10
2282.706302370928
 20
1129.0755599221
 30
0.0
 10
2282.286314178017
 20
1129.096312999764
 30
0.0
 10
2281.835271135319
 20
1129.117628200529
 30
0.0
 10
2281.357815129292
 20
1129.139331157523
 30
0.0
 10
2280.862272082261
 20
1129.161020112892
 30
0.0
 10
2280.35485319209
 20
1129.182449470262
 30
0.0
 10
2279.841791156494
 20
1129.203362374343
 30
0.0
 10
2279.325974871814
 20
1129.223725983228
 30
0.0
 10
2278.807209829509
 20
1129.243329067521
 30
0.0
 10
2278.28523028588
 20
1129.263059922021
 30
0.0
 10
2277.760041482955
 20
1129.283812999786
 30
0.0
 10
2277.237930952474
 20
1129.305128200523
 30
0.0
 10
2276.725182617052
 20
1129.326831157525
 30
0.0
 10
2276.230943972759
 20
1129.348520112892
 30
0.0
 10
2275.760641148748
 20
1129.369949470262
 30
0.0
 10
2275.318916414771
 20
1129.390862374343
 30
0.0
 10
2274.90729479629
 20
1129.41122598323
 30
0.0
 10
2274.52490002403
 20
1129.430829067513
 30
0.0
 10
2274.171760836948
 20
1129.450559922051
 30
0.0
 10
2273.849018932246
 20
1129.471312999673
 30
0.0
 10
2273.561689813302
 20
1129.492628200951
 30
0.0
 10
2273.313996515932
 20
1129.514331155918
 30
0.0
 10
2273.110631330155
 20
1129.536020118849
 30
0.0
 10
2272.952756084716
 20
1129.557449448576
 30
0.0
 10
2272.841808259008
 20
1129.578362454471
 30
0.0
 10
2272.772991139427
 20
1129.598725688955
 30
0.0
 10
2272.764538661535
 20
1129.61174523102
 30
0.0
 10
2272.76034047643
 20
1129.618211790088
 30
0.0
1001
AcDbBlockRepETag
1070
     1
1071
       41
1005
392
  0
LINE
  5
393
330
2DD
100
AcDbEntity
  8
0
  6
Continuous
 62
     7
370
    15
100
AcDbLine
 10
2284.8469619621
 20
1130.356214436116
 30
0.0
 11
2284.860340476431
 21
1130.368211790088
 31
0.0
1001
AcDbBlockRepETag
1070
     1
1071
       42
1005
393
  0
SPLINE
  5
396
330
2DD
100
AcDbEntity
  8
0
  6
Continuous
 62
     7
370
    15
100
AcDbSpline
210
0.0
220
0.0
230
1.0
 70
     8
 71
     3
 72
    39
 73
    35
 74
     0
 42
0.0000000001
 43
0.0000000001
 40
0.0
 40
0.0
 40
0.0
 40
0.0
 40
0.0120428424398628
 40
0.0444557684765223
 40
0.0771882948534502
 40
0.1100830038167269
 40
0.1429777127800036
 40
0.1757102391569315
 40
0.2081231651935909
 40
0.2400682569431718
 40
0.2720133486927534
 40
0.3044262747294129
 40
0.337158801106341
 40
0.3700535100696178
 40
0.4029482190328946
 40
0.4356807454098226
 40
0.4680936714464821
 40
0.500038763196063
 40
0.5319838549456454
 40
0.564396780982305
 40
0.5971293073592329
 40
0.6300240163225097
 40
0.6629187252857866
 40
0.6956512516627145
 40
0.7280641776993741
 40
0.7600092694489544
 40
0.7919543611985366
 40
0.8243672872351959
 40
0.8570998136121239
 40
0.8899945225754006
 40
0.9228892315386774
 40
0.9556217579156053
 40
0.9880346839522648
 40
1.0
 40
1.0
 40
1.0
 40
1.0
 10
2284.059941055238
 20
1125.307198021733
 30
0.0
 10
2284.057593200133
 20
1125.309983005264
 30
0.0
 10
2284.048926167949
 20
1125.320263683073
 30
0.0
 10
2283.981978632287
 20
1125.338866445263
 30
0.0
 10
2283.858894981812
 20
1125.362774907888
 30
0.0
 10
2283.682306805403
 20
1125.387089402412
 30
0.0
 10
2283.458609518701
 20
1125.411394893893
 30
0.0
 10
2283.190315822515
 20
1125.435330145228
 30
0.0
 10
2282.88257741066
 20
1125.458632720796
 30
0.0
 10
2282.538946676191
 20
1125.480837906843
 30
0.0
 10
2282.160443796715
 20
1125.503043048222
 30
0.0
 10
2281.747031378269
 20
1125.52634576021
 30
0.0
 10
2281.301067020717
 20
1125.550280504171
 30
0.0
 10
2280.828436203735
 20
1125.574587899475
 30
0.0
 10
2280.335925567303
 20
1125.598895294539
 30
0.0
 10
2279.830904025509
 20
1125.622830039213
 30
0.0
 10
2279.320964257147
 20
1125.64613274863
 30
0.0
 10
2278.810340476431
 20
1125.668337899435
 30
0.0
 10
2278.299716695714
 20
1125.69054305024
 30
0.0
 10
2277.789776927354
 20
1125.713845759658
 30
0.0
 10
2277.284755385554
 20
1125.73778050433
 30
0.0
 10
2276.792244749142
 20
1125.762087899395
 30
0.0
 10
2276.319613932084
 20
1125.7863952947
 30
0.0
 10
2275.873649574814
 20
1125.810330038657
 30
0.0
 10
2275.460237155334
 20
1125.833632750659
 30
0.0
 10
2275.081734279653
 20
1125.855837891983
 30
0.0
 10
2274.738103530993
 20
1125.878043078236
 30
0.0
 10
2274.430365173037
 20
1125.901345653023
 30
0.0
 10
2274.162071272826
 20
1125.925280907316
 30
0.0
 10
2273.938374752667
 20
1125.949586387683
 30
0.0
 10
2273.761783717515
 20
1125.973900923656
 30
0.0
 10
2273.638710650118
 20
1125.997809232838
 30
0.0
 10
2273.571799463686
 20
1126.016393758677
 30
0.0
 10
2273.56313538201
 20
1126.026656684381
 30
0.0
 10
2273.560799361684
 20
1126.029423786994
 30
0.0
1001
AcDbBlockRepETag
1070
     1
1071
       43
1005
396
  0
SPLINE
  5
397
330
2DD
100
AcDbEntity
  8
0
  6
Continuous
 62
     7
370
    15
100
AcDbSpline
210
0.0
220
0.0
230
1.0
 70
     8
 71
     3
 72
    39
 73
    35
 74
     0
 42
0.0000000001
 43
0.0000000001
 40
0.0
 40
0.0
 40
0.0
 40
0.0
 40
0.0120422049940643
 40
0.0444535985473449
 40
0.0771845773301877
 40
0.1100777310313853
 40
0.1429708847325828
 40
0.1757018635154255
 40
0.2081132570687061
 40
0.2400568384541222
 40
0.2720004198395344
 40
0.3044118133928151
 40
0.3371427921756579
 40
0.3700359458768557
 40
0.4029290995780535
 40
0.4356600783608964
 40
0.4680714719141772
 40
0.5000150532995921
 40
0.5319586346850041
 40
0.5643700282382847
 40
0.5971010070211273
 40
0.629994160722325
 40
0.6628873144235226
 40
0.6956182932063653
 40
0.7280296867596459
 40
0.759973268145062
 40
0.791916849530474
 40
0.8243282430837545
 40
0.8570592218665971
 40
0.8899523755677948
 40
0.9228455292689922
 40
0.955576508051835
 40
0.9879879016051155
 40
1.0
 40
1.0
 40
1.0
 40
1.0
 10
2284.059941003033
 20
1126.807198069133
 30
0.0
 10
2284.057593158304
 20
1126.809983036966
 30
0.0
 10
2284.048926128713
 20
1126.82026369919
 30
0.0
 10
2283.981978624989
 20
1126.838866445369
 30
0.0
 10
2283.858894983787
 20
1126.86277490786
 30
0.0
 10
2283.682306804873
 20
1126.88708940242
 30
0.0
 10
2283.458609518842
 20
1126.911394893891
 30
0.0
 10
2283.190315822478
 20
1126.935330145229
 30
0.0
 10
2282.882577410671
 20
1126.958632720796
 30
0.0
 10
2282.538946676189
 20
1126.980837906844
 30
0.0
 10
2282.160443796716
 20
1127.003043048222
 30
0.0
 10
2281.747031378269
 20
1127.02634576021
 30
0.0
 10
2281.301067020717
 20
1127.050280504171
 30
0.0
 10
2280.828436203735
 20
1127.074587899475
 30
0.0
 10
2280.335925567303
 20
1127.09889529454
 30
0.0
 10
2279.830904025509
 20
1127.122830039212
 30
0.0
 10
2279.320964257147
 20
1127.14613274863
 30
0.0
 10
2278.810340476431
 20
1127.168337899435
 30
0.0
 10
2278.299716695714
 20
1127.19054305024
 30
0.0
 10
2277.789776927353
 20
1127.213845759658
 30
0.0
 10
2277.284755385556
 20
1127.23778050433
 30
0.0
 10
2276.792244749132
 20
1127.262087899395
 30
0.0
 10
2276.319613932121
 20
1127.286395294699
 30
0.0
 10
2275.873649574678
 20
1127.310330038659
 30
0.0
 10
2275.46023715583
 20
1127.333632750652
 30
0.0
 10
2275.08173427783
 20
1127.35583789201
 30
0.0
 10
2274.738103537844
 20
1127.378043078137
 30
0.0
 10
2274.430365146944
 20
1127.401345653401
 30
0.0
 10
2274.162071371438
 20
1127.425280905886
 30
0.0
 10
2273.938374382749
 20
1127.449586393046
 30
0.0
 10
2273.761785094928
 20
1127.473900903685
 30
0.0
 10
2273.638705558907
 20
1127.497809306655
 30
0.0
 10
2273.571772178507
 20
1127.516404970496
 30
0.0
 10
2273.563106295313
 20
1127.526678738534
 30
0.0
 10
2273.560763043194
 20
1127.529456762214
 30
0.0
1001
AcDbBlockRepETag
1070
     1
1071
       44
1005
397
  0
SPLINE
  5
398
330
2DD
100
AcDbEntity
  8
0
  6
Continuous
 62
     7
370
    15
100
AcDbSpline
210
0.0
220
0.0
230
1.0
 70
     8
 71
     3
 72
    39
 73
    35
 74
     0
 42
0.0000000001
 43
0.0000000001
 40
0.0
 40
0.0
 40
0.0
 40
0.0
 40
0.0121177765830455
 40
0.0445311330396153
 40
0.077264094080512
 40
0.1101592398614233
 40
0.1430543856423346
 40
0.1757873466832312
 40
0.208200703139801
 40
0.2401462190968012
 40
0.2720917350537973
 40
0.304505091510367
 40
0.3372380525512636
 40
0.3701331983321749
 40
0.4030283441130864
 40
0.435761305153983
 40
0.4681746616105528
 40
0.500120177567553
 40
0.5320656935245478
 40
0.5644790499811179
 40
0.5972120110220147
 40
0.6301071568029262
 40
0.6630023025838378
 40
0.6957352636247346
 40
0.7281486200813046
 40
0.7600941360383048
 40
0.7920396519953009
 40
0.8244530084518705
 40
0.8571859694927672
 40
0.8900811152736785
 40
0.9229762610545899
 40
0.9557092220954864
 40
0.9881225785520562
 40
1.0
 40
1.0
 40
1.0
 40
1.0
 10
2284.059998407578
 20
1128.30714594892
 30
0.0
 10
2284.057639166103
 20
1128.309948177962
 30
0.0
 10
2284.048969283865
 20
1128.320245977517
 30
0.0
 10
2283.981986635597
 20
1128.338866329223
 30
0.0
 10
2283.858892816539
 20
1128.362774939282
 30
0.0
 10
2283.682307386909
 20
1128.387089393981
 30
0.0
 10
2283.458609363686
 20
1128.411394896141
 30
0.0
 10
2283.190315863534
 20
1128.435330144633
 30
0.0
 10
2282.882577399891
 20
1128.458632720953
 30
0.0
 10
2282.538946679057
 20
1128.480837906802
 30
0.0
 10
2282.160443795934
 20
1128.503043048234
 30
0.0
 10
2281.747031378482
 20
1128.526345760207
 30
0.0
 10
2281.30106702066
 20
1128.550280504172
 30
0.0
 10
2280.828436203751
 20
1128.574587899475
 30
0.0
 10
2280.335925567299
 20
1128.59889529454
 30
0.0
 10
2279.83090402551
 20
1128.622830039212
 30
0.0
 10
2279.320964257147
 20
1128.64613274863
 30
0.0
 10
2278.810340476431
 20
1128.668337899435
 30
0.0
 10
2278.299716695714
 20
1128.69054305024
 30
0.0
 10
2277.789776927355
 20
1128.713845759658
 30
0.0
 10
2277.284755385549
 20
1128.73778050433
 30
0.0
 10
2276.792244749161
 20
1128.762087899395
 30
0.0
 10
2276.319613932016
 20
1128.786395294701
 30
0.0
 10
2275.873649575066
 20
1128.810330038653
 30
0.0
 10
2275.460237154408
 20
1128.833632750673
 30
0.0
 10
2275.081734283055
 20
1128.855837891934
 30
0.0
 10
2274.73810351821
 20
1128.878043078421
 30
0.0
 10
2274.430365221725
 20
1128.901345652317
 30
0.0
 10
2274.162071088829
 20
1128.925280909984
 30
0.0
 10
2273.938375442895
 20
1128.949586377675
 30
0.0
 10
2273.76178114741
 20
1128.97390096092
 30
0.0
 10
2273.638720149774
 20
1128.997809095103
 30
0.0
 10
2273.571850177941
 20
1129.016372909614
 30
0.0
 10
2273.563189441795
 20
1129.026615673052
 30
0.0
 10
2273.560866899313
 20
1129.029362466491
 30
0.0
1001
AcDbBlockRepETag
1070
     1
1071
       45
1005
398
  0
SPLINE
  5
399
330
2DD
100
AcDbEntity
  8
0
  6
Continuous
 62
     7
370
    15
100
AcDbSpline
210
0.0
220
0.0
230
1.0
 70
     8
 71
     3
 72
    33
 73
    29
 74
     0
 42
0.0000000001
 43
0.0000000001
 40
0.0
 40
0.0
 40
0.0
 40
0.0
 40
0.0149552262571697
 40
0.0554584536228462
 40
0.0963610539187358
 40
0.1374663177496054
 40
0.1785715815804751
 40
0.2194741818763648
 40
0.2599774092420412
 40
0.2998960303775566
 40
0.3398146515130668
 40
0.3803178788787429
 40
0.4212204791746323
 40
0.4623257430055018
 40
0.5034310068363713
 40
0.5443336071322607
 40
0.5848368344979371
 40
0.6247554556334524
 40
0.6646740767689609
 40
0.7051773041346371
 40
0.7460799044305264
 40
0.787185168261396
 40
0.8282904320922654
 40
0.8691930323881546
 40
0.9096962597538309
 40
0.949614880889348
 40
0.974678453472514
 40
0.9999999999999998
 40
0.9999999999999998
 40
0.9999999999999998
 40
0.9999999999999998
 10
2284.059883650144
 20
1129.807250142445
 30
0.0
 10
2284.057547219536
 20
1129.810017864199
 30
0.0
 10
2284.048883035774
 20
1129.820281404577
 30
0.0
 10
2283.981970591697
 20
1129.838866561843
 30
0.0
 10
2283.858897157171
 20
1129.862774876348
 30
0.0
 10
2283.682306221189
 20
1129.887089410883
 30
0.0
 10
2283.458609674438
 20
1129.911394891635
 30
0.0
 10
2283.190315781305
 20
1129.935330145826
 30
0.0
 10
2282.88257742148
 20
1129.95863272064
 30
0.0
 10
2282.538946673312
 20
1129.980837906885
 30
0.0
 10
2282.160443797498
 20
1130.003043048211
 30
0.0
 10
2281.747031378059
 20
1130.026345760214
 30
0.0
 10
2281.301067020763
 20
1130.050280504169
 30
0.0
 10
2280.828436203767
 20
1130.074587899481
 30
0.0
 10
2280.335925567131
 20
1130.098895294518
 30
0.0
 10
2279.830904026161
 20
1130.122830039291
 30
0.0
 10
2279.32096425475
 20
1130.146132748341
 30
0.0
 10
2278.810340485237
 20
1130.168337900499
 30
0.0
 10
2278.299716662628
 20
1130.19054304624
 30
0.0
 10
2277.789777053374
 20
1130.213845774891
 30
0.0
 10
2277.284754909307
 20
1130.237780446763
 30
0.0
 10
2276.792246535677
 20
1130.262088115348
 30
0.0
 10
2276.319607279808
 20
1130.286394490585
 30
0.0
 10
2275.87367416304
 20
1130.310333010835
 30
0.0
 10
2275.460146926198
 20
1130.333621843933
 30
0.0
 10
2275.128736762141
 20
1130.353130620993
 30
0.0
 10
2274.865102377521
 20
1130.369684142505
 30
0.0
 10
2274.730468608749
 20
1130.379231478674
 30
0.0
 10
2274.662807059064
 20
1130.384029588142
 30
0.0
1001
AcDbBlockRepETag
1070
     1
1071
       46
1005
399
  0
LINE
  5
39C
330
2DD
100
AcDbEntity
  8
0
  6
Continuous
 62
     8
370
    15
100
AcDbLine
 10
2286.310340476431
 20
1131.575611296228
 30
0.0
 11
2271.310340476431
 21
1131.575611296228
 31
0.0
1001
AcDbBlockRepETag
1070
     1
1071
       47
1005
39C
  0
LINE
  5
39D
330
2DD
100
AcDbEntity
  8
0
  6
Continuous
 62
     8
370
    15
100
AcDbLine
 10
2285.60784206669
 20
1132.53033261881
 30
0.0
 11
2272.012838886171
 21
1132.53033261881
 31
0.0
1001
AcDbBlockRepETag
1070
     1
1071
       48
1005
39D
  0
LINE
  5
3A9
330
2DD
100
AcDbEntity
  8
0
100
AcDbLine
 10
2273.786170478341
 20
1124.383337899435
 30
0.0
 11
2284.860340476431
 21
1124.383337899435
 31
0.0
1001
AcDbBlockRepETag
1070
     1
1071
       49
1005
3A9
  0
SPLINE
  5
3AA
330
2DD
100
AcDbEntity
  8
0
  6
Continuous
 62
     7
370
    15
100
AcDbSpline
210
0.0
220
0.0
230
1.0
 70
     8
 71
     3
 72
    43
 73
    39
 74
     0
 42
0.0000000001
 43
0.0000000001
 40
0.0369522009957414
 40
0.0369522009957414
 40
0.0369522009957414
 40
0.0369522009957414
 40
0.043377150767087
 40
0.0707965643989024
 40
0.0984826814018918
 40
0.1263297515612137
 40
0.1542282480078257
 40
0.181571771547407
 40
0.208754443946657
 40
0.2356762798941694
 40
0.2622430575669822
 40
0.2892961315780929
 40
0.3167155452099082
 40
0.3444016622128976
 40
0.3722487323722195
 40
0.4001472288188312
 40
0.4274907523584125
 40
0.4546734247576626
 40
0.4815952607051751
 40
0.5081620383779883
 40
0.5352151123890985
 40
0.562634526020914
 40
0.5903206430239033
 40
0.6181677131832253
 40
0.6460662096298369
 40
0.6734097331694181
 40
0.7005924055686683
 40
0.7275142415161807
 40
0.7540810191889939
 40
0.7811340932001045
 40
0.8085535068319199
 40
0.8362396238349095
 40
0.8640866939942313
 40
0.8919851904408433
 40
0.9193287139804246
 40
0.9465113863796744
 40
0.973433222327187
 40
1.0
 40
1.0
 40
1.0
 40
1.0
 10
2284.847832682187
 20
1124.383337899435
 30
0.0
 10
2284.844885730469
 20
1124.384917059938
 30
0.0
 10
2284.827085037525
 20
1124.393262952599
 30
0.0
 10
2284.776737836184
 20
1124.408816035886
 30
0.0
 10
2284.66055881776
 20
1124.430127378401
 30
0.0
 10
2284.498195550416
 20
1124.451831378957
 30
0.0
 10
2284.291600188198
 20
1124.473520054813
 30
0.0
 10
2284.044312297611
 20
1124.494949485596
 30
0.0
 10
2283.760455635084
 20
1124.515862370287
 30
0.0
 10
2283.442603441384
 20
1124.536225984293
 30
0.0
 10
2283.091353441975
 20
1124.555829067231
 30
0.0
 10
2282.706302370985
 20
1124.575559922101
 30
0.0
 10
2282.286314178001
 20
1124.596312999764
 30
0.0
 10
2281.835271135323
 20
1124.617628200529
 30
0.0
 10
2281.357815129291
 20
1124.639331157523
 30
0.0
 10
2280.862272082261
 20
1124.661020112892
 30
0.0
 10
2280.35485319209
 20
1124.682449470261
 30
0.0
 10
2279.841791156494
 20
1124.703362374343
 30
0.0
 10
2279.325974871814
 20
1124.723725983228
 30
0.0
 10
2278.807209829509
 20
1124.743329067521
 30
0.0
 10
2278.28523028588
 20
1124.763059922021
 30
0.0
 10
2277.760041482955
 20
1124.783812999786
 30
0.0
 10
2277.237930952474
 20
1124.805128200524
 30
0.0
 10
2276.725182617052
 20
1124.826831157525
 30
0.0
 10
2276.230943972759
 20
1124.848520112892
 30
0.0
 10
2275.760641148748
 20
1124.869949470262
 30
0.0
 10
2275.318916414771
 20
1124.890862374343
 30
0.0
 10
2274.90729479629
 20
1124.91122598323
 30
0.0
 10
2274.52490002403
 20
1124.930829067513
 30
0.0
 10
2274.171760836948
 20
1124.950559922051
 30
0.0
 10
2273.849018932246
 20
1124.971312999673
 30
0.0
 10
2273.561689813302
 20
1124.992628200951
 30
0.0
 10
2273.313996515932
 20
1125.014331155918
 30
0.0
 10
2273.110631330155
 20
1125.036020118849
 30
0.0
 10
2272.952756084716
 20
1125.057449448576
 30
0.0
 10
2272.841808259008
 20
1125.078362454471
 30
0.0
 10
2272.772991139427
 20
1125.098725688955
 30
0.0
 10
2272.764538661535
 20
1125.11174523102
 30
0.0
 10
2272.76034047643
 20
1125.118211790088
 30
0.0
1001
AcDbBlockRepETag
1070
     1
1071
       50
1005
3AA
  0
LINE
  5
3AC
330
2DD
100
AcDbEntity
  8
0
  6
Continuous
 62
     7
370
    15
100
AcDbLine
 10
2284.860340476431
 20
1124.383337899435
 30
0.0
 11
2284.860340476431
 21
1124.718464008782
 31
0.0
1001
AcDbBlockRepETag
1070
     1
1071
       51
1005
3AC
  0
ENDBLK
  5
2DF
330
2DD
100
AcDbEntity
  8
0
100
AcDbBlockEnd
  0
BLOCK
  5
31E
330
31D
100
AcDbEntity
  8
0
100
AcDbBlockBegin
  2
2
 70
     0
 10
0.0
 20
0.0
 30
0.0
  3
2
  1

  0
SPLINE
  5
320
330
31D
100
AcDbEntity
  8
0
  6
Continuous
 62
     7
370
    15
100
AcDbSpline
210
0.0
220
0.0
230
1.0
 70
     8
 71
     3
 72
    12
 73
     8
 74
     0
 42
0.0000000001
 43
0.0000000001
 40
0.0
 40
0.0
 40
0.0
 40
0.0
 40
0.2500000000000002
 40
0.2500000000000002
 40
0.5000000000000005
 40
0.5000000000000005
 40
1.0
 40
1.0
 40
1.0
 40
1.0
 10
2274.786501485819
 20
1109.242566744918
 30
0.0
 10
2274.786501485819
 20
1109.335510540143
 30
0.0
 10
2274.804924408504
 20
1109.426739071591
 30
0.0
 10
2274.875674877982
 20
1109.596625516015
 30
0.0
 10
2274.928012193732
 20
1109.674324728024
 30
0.0
 10
2275.122017537579
 20
1109.867428675969
 30
0.0
 10
2275.30264807144
 20
1109.942566744918
 30
0.0
 10
2275.486501485819
 20
1109.942566744918
 30
0.0
  0
SPLINE
  5
321
330
31D
100
AcDbEntity
  8
0
  6
Continuous
 62
     7
370
    15
100
AcDbSpline
210
0.0
220
0.0
230
1.0
 70
     8
 71
     3
 72
    12
 73
     8
 74
     0
 42
0.0000000001
 43
0.0000000001
 40
0.0
 40
0.0
 40
0.0
 40
0.0
 40
0.2500000000000003
 40
0.2500000000000003
 40
0.5000000000000007
 40
0.5000000000000007
 40
1.0
 40
1.0
 40
1.0
 40
1.0
 10
2275.486501485819
 20
1108.542566744918
 30
0.0
 10
2275.394557944732
 20
1108.542566744918
 30
0.0
 10
2275.304376221864
 20
1108.560520253718
 30
0.0
 10
2275.135327454677
 20
1108.630166689578
 30
0.0
 10
2275.057806136065
 20
1108.681710121891
 30
0.0
 10
2274.863492702705
 20
1108.874844738317
 30
0.0
 10
2274.786501485819
 20
1109.056643432495
 30
0.0
 10
2274.786501485819
 20
1109.242566744918
 30
0.0
  0
LINE
  5
322
330
31D
100
AcDbEntity
  8
0
  6
Continuous
 62
     7
370
    15
100
AcDbLine
 10
2282.086501485819
 20
1108.542566744918
 30
0.0
 11
2275.486501485819
 21
1108.542566744918
 31
0.0
  0
SPLINE
  5
323
330
31D
100
AcDbEntity
  8
0
  6
Continuous
 62
     7
370
    15
100
AcDbSpline
210
0.0
220
0.0
230
1.0
 70
     8
 71
     3
 72
    12
 73
     8
 74
     0
 42
0.0000000001
 43
0.0000000001
 40
0.0
 40
0.0
 40
0.0
 40
0.0
 40
0.2500000000000001
 40
0.2500000000000001
 40
0.5000000000000002
 40
0.5000000000000002
 40
1.0
 40
1.0
 40
1.0
 40
1.0
 10
2282.786501485819
 20
1109.242566744918
 30
0.0
 10
2282.786501485819
 20
1109.149637640583
 30
0.0
 10
2282.768085457959
 20
1109.058424277176
 30
0.0
 10
2282.697351109214
 20
1108.888549941501
 30
0.0
 10
2282.645024947395
 20
1108.810852738643
 30
0.0
 10
2282.451032276686
 20
1108.617731515525
 30
0.0
 10
2282.270384044258
 20
1108.542566744918
 30
0.0
 10
2282.086501485819
 20
1108.542566744918
 30
0.0
  0
SPLINE
  5
324
330
31D
100
AcDbEntity
  8
0
  6
Continuous
 62
     7
370
    15
100
AcDbSpline
210
0.0
220
0.0
230
1.0
 70
     8
 71
     3
 72
    12
 73
     8
 74
     0
 42
0.0000000001
 43
0.0000000001
 40
0.0
 40
0.0
 40
0.0
 40
0.0
 40
0.2499999999999999
 40
0.2499999999999999
 40
0.4999999999999999
 40
0.4999999999999999
 40
1.0
 40
1.0
 40
1.0
 40
1.0
 10
2282.086501485819
 20
1109.942566744918
 30
0.0
 10
2282.178459125502
 20
1109.942566744918
 30
0.0
 10
2282.268655853133
 20
1109.92460660842
 30
0.0
 10
2282.437716629345
 20
1109.854944497531
 30
0.0
 10
2282.515241100236
 20
1109.803389326747
 30
0.0
 10
2282.709536925942
 20
1109.610242337513
 30
0.0
 10
2282.786501485819
 20
1109.428459610547
 30
0.0
 10
2282.786501485819
 20
1109.242566744918
 30
0.0
  0
LINE
  5
325
330
31D
100
AcDbEntity
  8
0
  6
Continuous
 62
     7
370
    15
100
AcDbLine
 10
2282.086501485819
 20
1109.942566744918
 30
0.0
 11
2275.486501485819
 21
1109.942566744918
 31
0.0
  0
CIRCLE
  5
326
330
31D
100
AcDbEntity
  8
0
  6
Continuous
 62
     7
370
    15
100
AcDbCircle
 10
2278.810340476431
 20
1109.242566744918
 30
0.0
 40
6.797501590259287
  0
CIRCLE
  5
327
330
31D
100
AcDbEntity
  8
0
  6
Continuous
 62
     7
370
    15
100
AcDbCircle
 10
2278.810340476431
 20
1109.242566744918
 30
0.0
 40
7.499999999999971
  0
INSERT
  5
328
330
31D
100
AcDbEntity
  8
0
  6
Continuous
 62
     7
370
     0
100
AcDbBlockReference
  2
SW_CENTERMARKSYMBOL_0
 10
2278.810340476431
 20
1109.242566744918
 30
0.0
  0
ENDBLK
  5
31F
330
31D
100
AcDbEntity
  8
0
100
AcDbBlockEnd
  0
BLOCK
  5
32B
330
32A
100
AcDbEntity
  8
0
100
AcDbBlockBegin
  2
3
 70
     0
 10
0.0
 20
0.0
 30
0.0
  3
3
  1

  0
SPLINE
  5
32D
330
32A
100
AcDbEntity
  8
0
  6
Continuous
 62
     7
370
    15
100
AcDbSpline
210
0.0
220
0.0
230
1.0
 70
     8
 71
     3
 72
    27
 73
    23
 74
     0
 42
0.0000000001
 43
0.0000000001
 40
0.0
 40
0.0
 40
0.0
 40
0.0
 40
0.0099065423216083
 40
0.0609597275767652
 40
0.1119935009606964
 40
0.1631075530746817
 40
0.2144097766004442
 40
0.2660011937682583
 40
0.3179725565593658
 40
0.3704008300164664
 40
0.4233457202847841
 40
0.4768465701364014
 40
0.5309200920945019
 40
0.5855594735698015
 40
0.6407353032870741
 40
0.6963985015243665
 40
0.7524850320937623
 40
0.808921760387548
 40
0.8656325623065654
 40
0.9225437903347632
 40
0.9795884513185701
 40
0.9999999999999998
 40
0.9999999999999998
 40
0.9999999999999998
 40
0.9999999999999998
 10
2310.333313946496
 20
1130.385731432616
 30
0.0
 10
2310.333678890725
 20
1130.399608679113
 30
0.0
 10
2310.335924568382
 20
1130.485002062447
 30
0.0
 10
2310.325855952948
 20
1130.641904881781
 30
0.0
 10
2310.302414244404
 20
1130.855530135211
 30
0.0
 10
2310.263311135247
 20
1131.06778276625
 30
0.0
 10
2310.210269176192
 20
1131.278330946779
 30
0.0
 10
2310.142909004293
 20
1131.486891663114
 30
0.0
 10
2310.061389630993
 20
1131.693175585625
 30
0.0
 10
2309.965707231774
 20
1131.896884313484
 30
0.0
 10
2309.855899286192
 20
1132.097697877375
 30
0.0
 10
2309.732009431288
 20
1132.295266616871
 30
0.0
 10
2309.594120819562
 20
1132.489205807768
 30
0.0
 10
2309.442371643116
 20
1132.679095435884
 30
0.0
 10
2309.276972912239
 20
1132.864486061617
 30
0.0
 10
2309.098217727195
 20
1133.044909231898
 30
0.0
 10
2308.906487656906
 20
1133.219895746335
 30
0.0
 10
2308.70223284975
 20
1133.388980602238
 30
0.0
 10
2308.486012380578
 20
1133.551761871553
 30
0.0
 10
2308.258278203571
 20
1133.707747592893
 30
0.0
 10
2308.071211012522
 20
1133.824957521581
 30
0.0
 10
2307.959932590637
 20
1133.889856051212
 30
0.0
 10
2307.930608086698
 20
1133.906958353307
 30
0.0
  0
SPLINE
  5
32E
330
32A
100
AcDbEntity
  8
0
  6
Continuous
 62
     7
370
    15
100
AcDbSpline
210
0.0
220
0.0
230
1.0
 70
     8
 71
     3
 72
    60
 73
    56
 74
     0
 42
0.0000000001
 43
0.0000000001
 40
0.0
 40
0.0
 40
0.0
 40
0.0
 40
0.0105453021411344
 40
0.0301736066295594
 40
0.0497860328561395
 40
0.0693844550169398
 40
0.088962908976897
 40
0.1085177018528672
 40
0.128046947892134
 40
0.1475501678969659
 40
0.1670279535648857
 40
0.1864816963454093
 40
0.2059133745757516
 40
0.2253253902738467
 40
0.2447204465975168
 40
0.2641014576423155
 40
0.2834714833375406
 40
0.3028336833627303
 40
0.3221912850657831
 40
0.3415475612376501
 40
0.360905612730954
 40
0.3802678578545428
 40
0.3996376249513208
 40
0.4190182379704673
 40
0.4384129989212253
 40
0.4578251630466882
 40
0.4772579027899228
 40
0.4967142559907065
 40
0.5161970527269338
 40
0.5357088139805973
 40
0.5552516139487141
 40
0.5748268965288802
 40
0.5944352356699362
 40
0.6140760295712815
 40
0.6337471212509208
 40
0.6534443444348862
 40
0.6731610062206464
 40
0.6928863585491902
 40
0.7126027093417515
 40
0.7322913989078125
 40
0.7519297785689516
 40
0.7714917310754411
 40
0.7909488128334428
 40
0.8102720335643764
 40
0.8294341343521754
 40
0.8484120579657535
 40
0.8671892044988622
 40
0.8857570886619569
 40
0.9041161621867923
 40
0.9222757721823223
 40
0.9402534071597933
 40
0.9580734781801679
 40
0.9757658854406221
 40
0.9933645606360496
 40
1.0
 40
1.0
 40
1.0
 40
1.0
 10
2307.930608086698
 20
1133.906958353307
 30
0.0
 10
2307.886002426736
 20
1133.932325002671
 30
0.0
 10
2307.758370840737
 20
1134.004907398998
 30
0.0
 10
2307.540395750631
 20
1134.118738387722
 30
0.0
 10
2307.27428987376
 20
1134.245865254745
 30
0.0
 10
2306.999764970385
 20
1134.364882315262
 30
0.0
 10
2306.717544173729
 20
1134.475801143919
 30
0.0
 10
2306.42817191423
 20
1134.578465189702
 30
0.0
 10
2306.132243822629
 20
1134.672778860157
 30
0.0
 10
2305.830335075443
 20
1134.758647879434
 30
0.0
 10
2305.52302222109
 20
1134.835992057278
 30
0.0
 10
2305.210879683112
 20
1134.904739745524
 30
0.0
 10
2304.894482565825
 20
1134.96482801266
 30
0.0
 10
2304.574407249676
 20
1135.01620189197
 30
0.0
 10
2304.251232064364
 20
1135.058814292991
 30
0.0
 10
2303.925537475863
 20
1135.092625999426
 30
0.0
 10
2303.597906003448
 20
1135.117605789851
 30
0.0
 10
2303.268921879841
 20
1135.133730582635
 30
0.0
 10
2302.939170521418
 20
1135.140985566332
 30
0.0
 10
2302.609239002868
 20
1135.13936428526
 30
0.0
 10
2302.279719257352
 20
1135.128868942816
 30
0.0
 10
2301.951202036871
 20
1135.109510777019
 30
0.0
 10
2301.624274793667
 20
1135.081309732115
 30
0.0
 10
2301.29951696439
 20
1135.044293401698
 30
0.0
 10
2300.977504401514
 20
1134.998496824832
 30
0.0
 10
2300.658808828549
 20
1134.943962046846
 30
0.0
 10
2300.343997484177
 20
1134.880737632728
 30
0.0
 10
2300.033633017261
 20
1134.808878172303
 30
0.0
 10
2299.728273697891
 20
1134.728443834722
 30
0.0
 10
2299.428474013304
 20
1134.639500053881
 30
0.0
 10
2299.134785716502
 20
1134.542117457251
 30
0.0
 10
2298.847759385803
 20
1134.43637218869
 30
0.0
 10
2298.567946528722
 20
1134.322346819916
 30
0.0
 10
2298.295902214239
 20
1134.200132091259
 30
0.0
 10
2298.032188131848
 20
1134.069829760532
 30
0.0
 10
2297.777375840756
 20
1133.931556851627
 30
0.0
 10
2297.532053845928
 20
1133.785453975608
 30
0.0
 10
2297.296842092321
 20
1133.631702404053
 30
0.0
 10
2297.072376406442
 20
1133.470528165606
 30
0.0
 10
2296.859300196861
 20
1133.302209895721
 30
0.0
 10
2296.65824524986
 20
1133.127077646881
 30
0.0
 10
2296.469830104815
 20
1132.945527081097
 30
0.0
 10
2296.294641758958
 20
1132.758021051175
 30
0.0
 10
2296.133214624479
 20
1132.565084883543
 30
0.0
 10
2295.986009966243
 20
1132.367294892767
 30
0.0
 10
2295.853399206367
 20
1132.165261235226
 30
0.0
 10
2295.735655628857
 20
1131.959607728417
 30
0.0
 10
2295.632951406568
 20
1131.750952015366
 30
0.0
 10
2295.54537688013
 20
1131.539889238138
 30
0.0
 10
2295.472916017567
 20
1131.326980791951
 30
0.0
 10
2295.41560931203
 20
1131.11274945908
 30
0.0
 10
2295.373039476476
 20
1130.897676165155
 30
0.0
 10
2295.346311562657
 20
1130.682210651991
 30
0.0
 10
2295.334011076925
 20
1130.511221705567
 30
0.0
 10
2295.335705119642
 20
1130.412310805348
 30
0.0
 10
2295.33616895824
 20
1130.385228434369
 30
0.0
  0
LINE
  5
32F
330
32A
100
AcDbEntity
  8
0
  6
Continuous
 62
     7
370
    15
100
AcDbLine
 10
2310.334454642667
 20
1129.414608032154
 30
0.0
 11
2310.334454642667
 21
1130.387583127503
 31
0.0
  0
LINE
  5
330
330
32A
100
AcDbEntity
  8
0
  6
Continuous
 62
     7
370
    15
100
AcDbLine
 10
2295.334454642667
 20
1130.387583127503
 30
0.0
 11
2295.334454642667
 21
1129.414608032154
 31
0.0
  0
SPLINE
  5
331
330
32A
100
AcDbEntity
  8
0
  6
Continuous
 62
     7
370
    15
100
AcDbSpline
210
0.0
220
0.0
230
1.0
 70
     8
 71
     3
 72
     9
 73
     5
 74
     0
 42
0.0000000001
 43
0.0000000001
 40
0.0
 40
0.0
 40
0.0
 40
0.0
 40
0.5000224206161473
 40
1.0
 40
1.0
 40
1.0
 40
1.0
 10
2301.549501426856
 20
1124.958072450339
 30
0.0
 10
2301.58316262991
 20
1124.952720413058
 30
0.0
 10
2301.650482017335
 20
1124.94201681846
 30
0.0
 10
2301.715454294082
 20
1124.93163517805
 30
0.0
 10
2301.747938975738
 20
1124.926444590608
 30
0.0
  0
SPLINE
  5
332
330
32A
100
AcDbEntity
  8
0
  6
Continuous
 62
     7
370
    15
100
AcDbSpline
210
0.0
220
0.0
230
1.0
 70
     8
 71
     3
 72
     9
 73
     5
 74
     0
 42
0.0000000001
 43
0.0000000001
 40
0.0
 40
0.0
 40
0.0
 40
0.0
 40
0.5000233053334219
 40
1.0
 40
1.0
 40
1.0
 40
1.0
 10
2301.55001120651
 20
1123.733180308717
 30
0.0
 10
2301.583776189787
 20
1123.727811738844
 30
0.0
 10
2301.651303008873
 20
1123.717075099541
 30
0.0
 10
2301.716437104303
 20
1123.70666709453
 30
0.0
 10
2301.749002634046
 20
1123.701463334586
 30
0.0
  0
SPLINE
  5
333
330
32A
100
AcDbEntity
  8
0
  6
Continuous
 62
     7
370
    15
100
AcDbSpline
210
0.0
220
0.0
230
1.0
 70
     8
 71
     3
 72
     9
 73
     5
 74
     0
 42
0.0000000001
 43
0.0000000001
 40
0.0
 40
0.0
 40
0.0
 40
0.0
 40
0.5000250968581566
 40
1.0
 40
1.0
 40
1.0
 40
1.0
 10
2301.548592804534
 20
1122.508594319174
 30
0.0
 10
2301.582614011424
 20
1122.503185174396
 30
0.0
 10
2301.650653010074
 20
1122.492367427822
 30
0.0
 10
2301.716209761039
 20
1122.481892098247
 30
0.0
 10
2301.748986491254
 20
1122.476654696357
 30
0.0
  0
SPLINE
  5
334
330
32A
100
AcDbEntity
  8
0
  6
Continuous
 62
     7
370
    15
100
AcDbSpline
210
0.0
220
0.0
230
1.0
 70
     8
 71
     3
 72
     9
 73
     5
 74
     0
 42
0.0000000001
 43
0.0000000001
 40
0.0
 40
0.0
 40
0.0
 40
0.0
 40
0.5000237315919354
 40
1.0
 40
1.0
 40
1.0
 40
1.0
 10
2301.548423468765
 20
1121.28381000425
 30
0.0
 10
2301.582276988331
 20
1121.278427518313
 30
0.0
 10
2301.649980814024
 20
1121.267663057354
 30
0.0
 10
2301.715270424579
 20
1121.257230842419
 30
0.0
 10
2301.74791368043
 20
1121.252014982525
 30
0.0
  0
SPLINE
  5
335
330
32A
100
AcDbEntity
  8
0
  6
Continuous
 62
     7
370
    15
100
AcDbSpline
210
0.0
220
0.0
230
1.0
 70
     8
 71
     3
 72
     9
 73
     5
 74
     0
 42
0.0000000001
 43
0.0000000001
 40
0.0
 40
0.0
 40
0.0
 40
0.0
 40
0.4999455677452075
 40
1.0
 40
1.0
 40
1.0
 40
1.0
 10
2304.557966931428
 20
1121.24955061591
 30
0.0
 10
2304.592468074311
 20
1121.25506734348
 30
0.0
 10
2304.661477872794
 20
1121.266101999902
 30
0.0
 10
2304.726826652661
 20
1121.276497260867
 30
0.0
 10
2304.759504599676
 20
1121.281695457188
 30
0.0
  0
SPLINE
  5
336
330
32A
100
AcDbEntity
  8
0
  6
Continuous
 62
     7
370
    15
100
AcDbSpline
210
0.0
220
0.0
230
1.0
 70
     8
 71
     3
 72
     9
 73
     5
 74
     0
 42
0.0000000001
 43
0.0000000001
 40
0.0
 40
0.0
 40
0.0
 40
0.0
 40
0.4999409091720849
 40
0.9999999999999998
 40
0.9999999999999998
 40
0.9999999999999998
 40
0.9999999999999998
 10
2304.558988029416
 20
1122.474525134509
 30
0.0
 10
2304.59316352433
 20
1122.479989681536
 30
0.0
 10
2304.661522592945
 20
1122.49092006736
 30
0.0
 10
2304.726063865509
 20
1122.501187186563
 30
0.0
 10
2304.758338315588
 20
1122.506321352858
 30
0.0
  0
SPLINE
  5
337
330
32A
100
AcDbEntity
  8
0
  6
Continuous
 62
     7
370
    15
100
AcDbSpline
210
0.0
220
0.0
230
1.0
 70
     8
 71
     3
 72
     9
 73
     5
 74
     0
 42
0.0000000001
 43
0.0000000001
 40
0.0
 40
0.0
 40
0.0
 40
0.0
 40
0.4999391434954416
 40
1.0
 40
1.0
 40
1.0
 40
1.0
 10
2304.559680381112
 20
1123.699447152984
 30
0.0
 10
2304.593743847309
 20
1123.704893692759
 30
0.0
 10
2304.661879072645
 20
1123.7157880983
 30
0.0
 10
2304.726138709785
 20
1123.726010356279
 30
0.0
 10
2304.758272438971
 20
1123.731122107359
 30
0.0
  0
SPLINE
  5
338
330
32A
100
AcDbEntity
  8
0
  6
Continuous
 62
     7
370
    15
100
AcDbSpline
210
0.0
220
0.0
230
1.0
 70
     8
 71
     3
 72
     9
 73
     5
 74
     0
 42
0.0000000001
 43
0.0000000001
 40
0.0
 40
0.0
 40
0.0
 40
0.0
 40
0.4999424441690217
 40
0.9999999999999998
 40
0.9999999999999998
 40
0.9999999999999998
 40
0.9999999999999998
 10
2304.55934884948
 20
1124.924205306499
 30
0.0
 10
2304.59364788104
 20
1124.929689590278
 30
0.0
 10
2304.662253841507
 20
1124.940659420592
 30
0.0
 10
2304.727093145613
 20
1124.95097341584
 30
0.0
 10
2304.759516529546
 20
1124.956131007095
 30
0.0
  0
LINE
  5
339
330
32A
100
AcDbEntity
  8
0
  6
Continuous
 62
     7
370
    15
100
AcDbLine
 10
2308.884454642667
 20
1126.798968316603
 30
0.0
 11
2308.884454642667
 21
1126.855751351553
 31
0.0
  0
LINE
  5
33A
330
32A
100
AcDbEntity
  8
0
  6
Continuous
 62
     7
370
    15
100
AcDbLine
 10
2308.884454642667
 20
1125.574157098775
 30
0.0
 11
2308.884454642667
 21
1125.860152329792
 31
0.0
  0
LINE
  5
33B
330
32A
100
AcDbEntity
  8
0
  6
Continuous
 62
     7
370
    15
100
AcDbLine
 10
2308.884454642667
 20
1124.349345880946
 30
0.0
 11
2308.884454642667
 21
1124.635341111963
 31
0.0
  0
LINE
  5
33C
330
32A
100
AcDbEntity
  8
0
  6
Continuous
 62
     7
370
    15
100
AcDbLine
 10
2296.784454642667
 20
1125.247746720877
 30
0.0
 11
2296.784454642667
 21
1124.961751489861
 31
0.0
  0
LINE
  5
33D
330
32A
100
AcDbEntity
  8
0
  6
Continuous
 62
     7
370
    15
100
AcDbLine
 10
2296.784454642667
 20
1126.472557938706
 30
0.0
 11
2296.784454642667
 21
1126.186562707689
 31
0.0
  0
LWPOLYLINE
  5
33E
330
32A
100
AcDbEntity
  8
0
  6
Continuous
 62
     7
370
    15
100
AcDbPolyline
 90
      130
 70
   128
 43
0.0
 10
2307.641014112265
 20
1133.941919770577
 10
2307.869333675644
 20
1133.80353224974
 10
2308.085711062219
 20
1133.658891526344
 10
2308.289633048734
 20
1133.508340672206
 10
2308.480615954767
 20
1133.352236777317
 10
2308.658206789965
 20
1133.19095010287
 10
2308.821984328487
 20
1133.024863203037
 10
2308.971560108106
 20
1132.854370017596
 10
2309.106579351599
 20
1132.679874937545
 10
2309.226721808236
 20
1132.501791845936
 10
2309.331702513386
 20
1132.320543136188
 10
2309.421272464413
 20
1132.136558710215
 10
2309.495219211289
 20
1131.950274958749
 10
2309.5533673605
 20
1131.762133726268
 10
2309.595578991062
 20
1131.572581262988
 10
2309.621753981649
 20
1131.382067166411
 10
2309.631830248076
 20
1131.191043314925
 10
2309.625783890552
 20
1130.999962796001
 10
2309.60362925037
 20
1130.80927883152
 10
2309.565418875887
 20
1130.619443702777
 10
2309.511243397892
 20
1130.430907677727
 10
2309.441231314631
 20
1130.244117942988
 10
2309.355548687032
 20
1130.059517543177
 10
2309.254398744822
 20
1129.877544330045
 10
2309.138021404487
 20
1129.698629923951
 10
2309.006692700221
 20
1129.523198690098
 10
2308.860724129202
 20
1129.351666731992
 10
2308.700461912752
 20
1129.184440904484
 10
2308.526286175145
 20
1129.021917848765
 10
2308.338610041985
 20
1128.864483051565
 10
2308.137878660327
 20
1128.71250993083
 10
2307.924568142829
 20
1128.566358950012
 10
2307.699184438473
 20
1128.42637676309
 10
2307.462262132505
 20
1128.292895392347
 10
2307.214363178458
 20
1128.166231440846
 10
2306.956075565265
 20
1128.046685341487
 10
2306.688011922606
 20
1127.934540644409
 10
2306.410808067827
 20
1127.830063344445
 10
2306.125121497844
 20
1127.733501250206
 10
2305.83162982964
 20
1127.645083396312
 10
2305.531029193025
 20
1127.565019500144
 10
2305.224032579498
 20
1127.493499464418
 10
2304.91136815111
 20
1127.430692926758
 10
2304.59377751334
 20
1127.37674885733
 10
2304.272013956094
 20
1127.331795205509
 10
2303.946840666981
 20
1127.29593859639
 10
2303.619028921116
 20
1127.269264077887
 10
2303.289356251744
 20
1127.251834919013
 10
2302.958604606013
 20
1127.243692459806
 10
2302.627558490286
 20
1127.24485601328
 10
2302.297003109373
 20
1127.255322819615
 10
2301.967722504119
 20
1127.275068052702
 10
2301.640497691741
 20
1127.30404487903
 10
2301.316104813338
 20
1127.342184568769
 10
2300.995313292982
 20
1127.389396658787
 10
2300.678884012716
 20
1127.445569167224
 10
2300.367567507832
 20
1127.510568859095
 10
2300.062102186687
 20
1127.584241562314
 10
2299.763212579273
 20
1127.666412533366
 10
2299.471607618718
 20
1127.756886871788
 10
2299.187978959771
 20
1127.855449982444
 10
2298.912999338275
 20
1127.961868084525
 10
2298.647320975512
 20
1128.075888766051
 10
2298.391574031207
 20
1128.197241582561
 10
2298.146365108854
 20
1128.325638698583
 10
2297.912275816929
 20
1128.460775570342
 10
2297.689861389367
 20
1128.60233166811
 10
2297.47964936862
 20
1128.749971236461
 10
2297.282138354374
 20
1128.903344090651
 10
2297.097796820935
 20
1129.062086447214
 10
2296.927062006054
 20
1129.22582178682
 10
2296.770338873849
 20
1129.394161747332
 10
2296.627999154273
 20
1129.566707044962
 10
2296.500380461417
 20
1129.743048421327
 10
2296.38778549272
 20
1129.922767614166
 10
2296.290481311008
 20
1130.105438349408
 10
2296.208698711049
 20
1130.290627352251
 10
2296.142631672136
 20
1130.47789537484
 10
2296.092436897986
 20
1130.666798238116
 10
2296.058233445056
 20
1130.856887885357
 10
2296.04010244016
 20
1131.047713444922
 10
2296.038086888036
 20
1131.238822299665
 10
2296.052191569353
 20
1131.429761160497
 10
2296.082383029363
 20
1131.620077141536
 10
2296.128589657261
 20
1131.809318834301
 10
2296.190701856029
 20
1131.997037378405
 10
2296.268572302394
 20
1132.1827875262
 10
2296.362016296261
 20
1132.366128698858
 10
2296.4708121988
 20
1132.546626031373
 10
2296.59470195815
 20
1132.723851404013
 10
2296.733391721489
 20
1132.897384457776
 10
2296.886552532022
 20
1133.066813591431
 10
2297.053821109227
 20
1133.231736937789
 10
2297.23480071052
 20
1133.391763316896
 10
2297.429062072281
 20
1133.54651316386
 10
2297.636144428023
 20
1133.69561942914
 10
2297.855556601275
 20
1133.83872844915
 10
2298.086778170605
 20
1133.975500785104
 10
2298.329260703995
 20
1134.105612028133
 10
2298.582429059667
 20
1134.228753568743
 10
2298.845682750251
 20
1134.344633328805
 10
2299.118397367077
 20
1134.45297645433
 10
2299.399926061205
 20
1134.553525967394
 10
2299.689601077676
 20
1134.646043375662
 10
2299.986735339355
 20
1134.730309238062
 10
2300.2906240766
 20
1134.806123685278
 10
2300.600546498901
 20
1134.873306893819
 10
2300.915767504514
 20
1134.931699512536
 10
2301.235539424038
 20
1134.981163040587
 10
2301.559103793811
 20
1135.021580155951
 10
2301.885693154893
 20
1135.052854993694
 10
2302.214532873405
 20
1135.074913373357
 10
2302.544842977863
 20
1135.0877029749
 10
2302.875840009193
 20
1135.091193462802
 10
2303.206738879006
 20
1135.08537655801
 10
2303.536754731741
 20
1135.07026605758
 10
2303.865104806256
 20
1135.04589780195
 10
2304.19101029245
 20
1135.012329589929
 10
2304.513698178519
 20
1134.969641041609
 10
2304.832403084445
 20
1134.917933409509
 10
2305.146369077405
 20
1134.85732933842
 10
2305.454851464749
 20
1134.787972574504
 10
2305.757118560337
 20
1134.71002762434
 10
2306.052453420013
 20
1134.62367936474
 10
2306.340155542119
 20
1134.529132604236
 10
2306.619542529007
 20
1134.426611597297
 10
2306.889951705611
 20
1134.316359512426
 10
2307.15074169124
 20
1134.198637855387
 10
2307.401293920861
 20
1134.073725848944
 10
2307.641014112265
 20
1133.941919770577
  0
SPLINE
  5
33F
330
32A
100
AcDbEntity
  8
0
  6
Continuous
 62
     7
370
    15
100
AcDbSpline
210
0.0
220
0.0
230
1.0
 70
     8
 71
     3
 72
    12
 73
     8
 74
     0
 42
0.0000000001
 43
0.0000000001
 40
0.0
 40
0.0
 40
0.0
 40
0.0
 40
0.2500000000000002
 40
0.2500000000000002
 40
0.5000000000000005
 40
0.5000000000000005
 40
1.0
 40
1.0
 40
1.0
 40
1.0
 10
2299.989170806002
 20
1133.362863738681
 30
0.0
 10
2300.054891993875
 20
1133.400803772863
 30
0.0
 10
2300.13242728066
 20
1133.432746772059
 30
0.0
 10
2300.302583274283
 20
1133.481748918825
 30
0.0
 10
2300.394532984864
 20
1133.498413664911
 30
0.0
 10
2300.66826059015
 20
1133.521424677181
 30
0.0
 10
2300.849116303612
 20
1133.500104810269
 30
0.0
 10
2300.979120299663
 20
1133.447139342456
 30
0.0
  0
SPLINE
  5
340
330
32A
100
AcDbEntity
  8
0
  6
Continuous
 62
     7
370
    15
100
AcDbSpline
210
0.0
220
0.0
230
1.0
 70
     8
 71
     3
 72
    12
 73
     8
 74
     0
 42
0.0000000001
 43
0.0000000001
 40
0.0
 40
0.0
 40
0.0
 40
0.0
 40
0.2500000000000003
 40
0.2500000000000003
 40
0.5000000000000007
 40
0.5000000000000007
 40
1.0
 40
1.0
 40
1.0
 40
1.0
 10
2299.989170806002
 20
1132.87565366418
 30
0.0
 10
2299.924156904614
 20
1132.902141247685
 30
0.0
 10
2299.873083844653
 20
1132.935439793446
 30
0.0
 10
2299.802795782106
 20
1133.012534872944
 30
0.0
 10
2299.784426642543
 20
1133.055882979229
 30
0.0
 10
2299.783593093095
 20
1133.19062480636
 30
0.0
 10
2299.857703171007
 20
1133.286969088461
 30
0.0
 10
2299.989170806002
 20
1133.362863738681
 30
0.0
  0
ARC
  5
341
330
32A
100
AcDbEntity
  8
0
  6
Continuous
 62
     7
370
    15
100
AcDbCircle
 10
2291.705817648188
 20
1113.101693933154
 30
0.0
 40
21.43882979505389
100
AcDbArc
 50
52.83904319996705
 51
67.2710879548439
  0
SPLINE
  5
342
330
32A
100
AcDbEntity
  8
0
  6
Continuous
 62
     7
370
    15
100
AcDbSpline
210
0.0
220
0.0
230
1.0
 70
     8
 71
     3
 72
    12
 73
     8
 74
     0
 42
0.0000000001
 43
0.0000000001
 40
0.0
 40
0.0
 40
0.0
 40
0.0
 40
0.2500000000000001
 40
0.2500000000000001
 40
0.5000000000000002
 40
0.5000000000000002
 40
1.0
 40
1.0
 40
1.0
 40
1.0
 10
2305.646025055494
 20
1130.104153667323
 30
0.0
 10
2305.580314255649
 20
1130.066219630021
 30
0.0
 10
2305.502794569667
 20
1130.038693372021
 30
0.0
 10
2305.332658537301
 20
1130.006631006911
 30
0.0
 10
2305.240718134425
 20
1130.002492208253
 30
0.0
 10
2304.966987275009
 20
1130.025881836649
 30
0.0
 10
2304.786100165848
 20
1130.090366153731
 30
0.0
 10
2304.656075561833
 20
1130.187191963688
 30
0.0
  0
SPLINE
  5
343
330
32A
100
AcDbEntity
  8
0
  6
Continuous
 62
     7
370
    15
100
AcDbSpline
210
0.0
220
0.0
230
1.0
 70
     8
 71
     3
 72
    12
 73
     8
 74
     0
 42
0.0000000001
 43
0.0000000001
 40
0.0
 40
0.0
 40
0.0
 40
0.0
 40
0.2499999999999999
 40
0.2499999999999999
 40
0.4999999999999999
 40
0.4999999999999999
 40
1.0
 40
1.0
 40
1.0
 40
1.0
 10
2305.646025055494
 20
1130.758677641964
 30
0.0
 10
2305.711048926096
 20
1130.710256122165
 30
0.0
 10
2305.762127909536
 20
1130.655420550039
 30
0.0
 10
2305.832413379827
 20
1130.537928678954
 30
0.0
 10
2305.850776448036
 20
1130.476037949972
 30
0.0
 10
2305.851588798095
 20
1130.294812378897
 30
0.0
 10
2305.777471161355
 20
1130.180035889038
 30
0.0
 10
2305.646025055494
 20
1130.104153667323
 30
0.0
  0
ARC
  5
344
330
32A
100
AcDbEntity
  8
0
  6
Continuous
 62
     7
370
    15
100
AcDbCircle
 10
2292.69576714185
 20
1113.673179611431
 30
0.0
 40
21.43882979505302
100
AcDbArc
 50
52.83904319996705
 51
67.2710879548439
  0
ARC
  5
345
330
32A
100
AcDbEntity
  8
0
  6
Continuous
 62
     7
370
    15
100
AcDbCircle
 10
2299.073595288465
 20
1129.778654466424
 30
0.0
 40
3.7568208069272
100
AcDbArc
 50
185.5608472756476
 51
245.7592936819659
  0
LWPOLYLINE
  5
346
330
32A
100
AcDbEntity
  8
0
  6
Continuous
 62
     7
370
    15
100
AcDbPolyline
 90
       52
 70
   128
 43
0.0
 10
2310.334454642667
 20
1129.414608032154
 10
2310.331281768283
 20
1129.288681151606
 10
2310.313014722044
 20
1129.08746405227
 10
2310.278550779976
 20
1128.886955473946
 10
2310.227964583305
 20
1128.687589673568
 10
2310.161365690467
 20
1128.489798433065
 10
2310.078898339834
 20
1128.294010124219
 10
2309.980741137326
 20
1128.10064878091
 10
2309.867106669583
 20
1127.910133180751
 10
2309.73824104356
 20
1127.722875938108
 10
2309.594423353507
 20
1127.539282610471
 10
2309.435965076517
 20
1127.359750820105
 10
2309.263209397932
 20
1127.184669392891
 10
2309.076530468084
 20
1127.014417516214
 10
2308.876332591964
 20
1126.849363917726
 10
2308.663049353594
 20
1126.68986606677
 10
2308.437142676974
 20
1126.536269400173
 10
2308.199101825662
 20
1126.388906574113
 10
2307.949442343135
 20
1126.248096743657
 10
2307.688704936239
 20
1126.114144871542
 10
2307.417454304139
 20
1125.987341067696
 10
2307.136277915299
 20
1125.867959960921
 10
2306.845784735169
 20
1125.756260104111
 10
2306.546603907289
 20
1125.652483414284
 10
2306.239383390713
 20
1125.55685464864
 10
2305.924788556668
 20
1125.469580917791
 10
2305.603500747512
 20
1125.390851237205
 10
2305.276215801095
 20
1125.320836117839
 10
2304.943642543733
 20
1125.25968719685
 10
2304.606501255046
 20
1125.207536909184
 10
2304.265522107991
 20
1125.164498200753
 10
2303.921443587471
 20
1125.130664283815
 10
2303.575010890944
 20
1125.1061084351
 10
2303.226974314489
 20
1125.090883837108
 10
2302.878087627829
 20
1125.085023462929
 10
2302.52910644184
 20
1125.088540004827
 10
2302.180786572059
 20
1125.101425846756
 10
2301.833882401763
 20
1125.123653080852
 10
2301.489145248135
 20
1125.155173567876
 10
2301.147321735087
 20
1125.195919041471
 10
2300.809152176231
 20
1125.245801256014
 10
2300.475368971529
 20
1125.304712177737
 10
2300.146695021076
 20
1125.372524218701
 10
2299.823842159462
 20
1125.449090513126
 10
2299.507509614092
 20
1125.534245235468
 10
2299.198382490819
 20
1125.627803959559
 10
2298.897130290157
 20
1125.729564058037
 10
2298.604405457291
 20
1125.839305141188
 10
2298.320841969026
 20
1125.956789534263
 10
2298.047053960734
 20
1126.081762792228
 10
2297.783634396274
 20
1126.213954250835
 10
2297.531153783768
 20
1126.353077612819
  0
SPLINE
  5
347
330
32A
100
AcDbEntity
  8
0
  6
Continuous
 62
     7
370
    15
100
AcDbSpline
210
0.0
220
0.0
230
1.0
 70
     8
 71
     3
 72
    34
 73
    30
 74
     0
 42
0.0000000001
 43
0.0000000001
 40
0.0
 40
0.0
 40
0.0
 40
0.0
 40
0.0385750714827798
 40
0.0771476707334894
 40
0.116857341418603
 40
0.1565669931944186
 40
0.1951482245605498
 40
0.2337294499016766
 40
0.2734652443149837
 40
0.313201046167514
 40
0.3512441690148795
 40
0.3892868081325216
 40
0.428481154616915
 40
0.4676754716831529
 40
0.5048595801718335
 40
0.5420436749297921
 40
0.5803583296053078
 40
0.6186729830998468
 40
0.6550625191155338
 40
0.6914520670133375
 40
0.7289106283949853
 40
0.7663658997910611
 40
0.8023759517158321
 40
0.8383859813892367
 40
0.8755243928130603
 40
0.9126627932755154
 40
0.9489599171975385
 40
0.9852570468409217
 40
1.0
 40
1.0
 40
1.0
 40
1.0
 10
2296.793303411694
 20
1124.221867801217
 30
0.0
 10
2296.796858185206
 20
1124.126226348636
 30
0.0
 10
2296.803967504409
 20
1123.934949573026
 30
0.0
 10
2296.867100744763
 20
1123.647101414871
 30
0.0
 10
2296.971181391418
 20
1123.360590771509
 30
0.0
 10
2297.11837835603
 20
1123.080324175815
 30
0.0
 10
2297.304726474735
 20
1122.81100873207
 30
0.0
 10
2297.529595855751
 20
1122.551593455216
 30
0.0
 10
2297.794852039424
 20
1122.301831046177
 30
0.0
 10
2298.095072084052
 20
1122.067281640564
 30
0.0
 10
2298.423997959762
 20
1121.851552381446
 30
0.0
 10
2298.780888509403
 20
1121.653101296536
 30
0.0
 10
2299.170242490051
 20
1121.471498851449
 30
0.0
 10
2299.583072368064
 20
1121.311873147556
 30
0.0
 10
2300.01086760643
 20
1121.1761374862
 30
0.0
 10
2300.453531571128
 20
1121.062615063796
 30
0.0
 10
2300.916195433292
 20
1120.970731440119
 30
0.0
 10
2301.387634757379
 20
1120.90289817198
 30
0.0
 10
2301.859170667023
 20
1120.859387348194
 30
0.0
 10
2302.331651861385
 20
1120.838710745855
 30
0.0
 10
2302.810093796945
 20
1120.841073509018
 30
0.0
 10
2303.284802650864
 20
1120.867321308793
 30
0.0
 10
2303.747432462482
 20
1120.91712061277
 30
0.0
 10
2304.199713639265
 20
1120.98932559517
 30
0.0
 10
2304.643700043083
 20
1121.085287660375
 30
0.0
 10
2305.072871652217
 20
1121.203491300272
 30
0.0
 10
2305.477402652996
 20
1121.343176828215
 30
0.0
 10
2305.786733034509
 20
1121.466588262639
 30
0.0
 10
2305.951411131066
 20
1121.55011839475
 30
0.0
 10
2305.998978480698
 20
1121.57424611472
 30
0.0
  0
LINE
  5
348
330
32A
100
AcDbEntity
  8
0
  6
Continuous
 62
     7
370
    15
100
AcDbLine
 10
2296.793303411694
 20
1124.221867801217
 30
0.0
 11
2296.83837680111
 21
1124.497357030655
 31
0.0
  0
SPLINE
  5
349
330
32A
100
AcDbEntity
  8
0
  6
Continuous
 62
     7
370
    15
100
AcDbSpline
210
0.0
220
0.0
230
1.0
 70
     8
 71
     3
 72
    47
 73
    43
 74
     0
 42
0.0000000001
 43
0.0000000001
 40
0.0
 40
0.0
 40
0.0
 40
0.0
 40
0.0170460640629674
 40
0.0419103446966302
 40
0.0672297580067322
 40
0.0928920345443061
 40
0.1188039231179534
 40
0.1448664503763976
 40
0.1709771083360823
 40
0.1965683580982649
 40
0.2220090646540905
 40
0.2472056501194562
 40
0.2720699307531202
 40
0.2973893440632221
 40
0.323051620600796
 40
0.3489635091744432
 40
0.3750260364328874
 40
0.4011366943925714
 40
0.4267279441547546
 40
0.4521686507105806
 40
0.4773652361759469
 40
0.5022295168096102
 40
0.5275489301197115
 40
0.5532112066572854
 40
0.5791230952309327
 40
0.605185622489377
 40
0.6312962804490616
 40
0.6568875302112449
 40
0.682328236767071
 40
0.7075248222324373
 40
0.7323891028661002
 40
0.7577085161762021
 40
0.783370792713776
 40
0.8092826812874232
 40
0.8353452085458673
 40
0.8614558665055522
 40
0.8870471162677347
 40
0.9124878228235605
 40
0.937684408288926
 40
0.9625486889225902
 40
0.9878681022326919
 40
1.0
 40
1.0
 40
1.0
 40
1.0
 10
2308.817835519695
 20
1125.105607380688
 30
0.0
 10
2308.834525768078
 20
1125.042328465754
 30
0.0
 10
2308.875561285732
 20
1124.886747615706
 30
0.0
 10
2308.890796131022
 20
1124.633535582666
 30
0.0
 10
2308.869576238245
 20
1124.348434017252
 30
0.0
 10
2308.800444012655
 20
1124.062161939441
 30
0.0
 10
2308.684783460452
 20
1123.778167590823
 30
0.0
 10
2308.522279960719
 20
1123.499883216543
 30
0.0
 10
2308.315722158985
 20
1123.23227588354
 30
0.0
 10
2308.068424403272
 20
1122.978273616778
 30
0.0
 10
2307.784570346408
 20
1122.740347643011
 30
0.0
 10
2307.466717464387
 20
1122.519351236206
 30
0.0
 10
2307.115467647135
 20
1122.314606192709
 30
0.0
 10
2306.730416526557
 20
1122.126854181094
 30
0.0
 10
2306.310428347141
 20
1121.957485534052
 30
0.0
 10
2305.859385300772
 20
1121.809016600852
 30
0.0
 10
2305.381929295738
 20
1121.683755535437
 30
0.0
 10
2304.886386248441
 20
1121.584035926559
 30
0.0
 10
2304.37896735834
 20
1121.510501519954
 30
0.0
 10
2303.865905322725
 20
1121.463134516287
 30
0.0
 10
2303.350089038051
 20
1121.441485393924
 30
0.0
 10
2302.831323995744
 20
1121.444778656701
 30
0.0
 10
2302.309344452117
 20
1121.473916178647
 30
0.0
 10
2301.784155649186
 20
1121.53055862984
 30
0.0
 10
2301.262045118726
 20
1121.614790568829
 30
0.0
 10
2300.749296783227
 20
1121.726307561176
 30
0.0
 10
2300.25505813922
 20
1121.863264945954
 30
0.0
 10
2299.784755314163
 20
1122.02352374676
 30
0.0
 10
2299.34303058404
 20
1122.204465736003
 30
0.0
 10
2298.931408951382
 20
1122.404585939809
 30
0.0
 10
2298.549014231578
 20
1122.623364882744
 30
0.0
 10
2298.195874844885
 20
1122.861761202203
 30
0.0
 10
2297.873133700294
 20
1123.12116096683
 30
0.0
 10
2297.585801704744
 20
1123.398947257019
 30
0.0
 10
2297.338119230381
 20
1123.692298276407
 30
0.0
 10
2297.13471380421
 20
1123.996078420086
 30
0.0
 10
2296.976985615804
 20
1124.306505560335
 30
0.0
 10
2296.865496147942
 20
1124.619756981377
 30
0.0
 10
2296.798670824777
 20
1124.934193033882
 30
0.0
 10
2296.778574489352
 20
1125.249550902444
 30
0.0
 10
2296.791091205665
 20
1125.510757167429
 30
0.0
 10
2296.827678449615
 20
1125.666309238489
 30
0.0
 10
2296.83953044332
 20
1125.716698444349
 30
0.0
  0
SPLINE
  5
34A
330
32A
100
AcDbEntity
  8
0
  6
Continuous
 62
     7
370
    15
100
AcDbSpline
210
0.0
220
0.0
230
1.0
 70
     8
 71
     3
 72
    47
 73
    43
 74
     0
 42
0.0000000001
 43
0.0000000001
 40
0.0
 40
0.0
 40
0.0
 40
0.0
 40
0.0171891393551414
 40
0.0422621170934997
 40
0.0677940476418131
 40
0.0936717192230718
 40
0.1198010979466324
 40
0.1460823797333096
 40
0.1724121962038782
 40
0.1982182448500341
 40
0.2238724867129068
 40
0.2492805584670702
 40
0.2743535362054281
 40
0.2998854667537414
 40
0.3257631383349994
 40
0.3518925170585593
 40
0.3781737988452359
 40
0.4045036153158068
 40
0.4303096639619627
 40
0.4559639058248352
 40
0.4813719775789986
 40
0.5064449553173565
 40
0.5319768858656699
 40
0.557854557446928
 40
0.5839839361704879
 40
0.6102652179571648
 40
0.6365950344277345
 40
0.6624010830738905
 40
0.6880553249367633
 40
0.7134633966909268
 40
0.7385363744292847
 40
0.7640683049775982
 40
0.789945976558856
 40
0.8160753552824157
 40
0.8423566370690924
 40
0.8686864535396633
 40
0.8944925021858191
 40
0.9201467440486917
 40
0.9455548158028552
 40
0.970627793541213
 40
0.9961597240895263
 40
1.0
 40
1.0
 40
1.0
 40
1.0
 10
2308.817835519695
 20
1126.330418598517
 30
0.0
 10
2308.834525768078
 20
1126.267139683583
 30
0.0
 10
2308.875561285732
 20
1126.111558833535
 30
0.0
 10
2308.890796131022
 20
1125.858346800495
 30
0.0
 10
2308.869576238245
 20
1125.57324523508
 30
0.0
 10
2308.800444012655
 20
1125.28697315727
 30
0.0
 10
2308.684783460452
 20
1125.002978808652
 30
0.0
 10
2308.522279960719
 20
1124.724694434372
 30
0.0
 10
2308.315722158985
 20
1124.457087101369
 30
0.0
 10
2308.068424403272
 20
1124.203084834606
 30
0.0
 10
2307.784570346408
 20
1123.96515886084
 30
0.0
 10
2307.466717464387
 20
1123.744162454035
 30
0.0
 10
2307.115467647135
 20
1123.539417410538
 30
0.0
 10
2306.730416526557
 20
1123.351665398923
 30
0.0
 10
2306.310428347141
 20
1123.182296751881
 30
0.0
 10
2305.859385300772
 20
1123.033827818681
 30
0.0
 10
2305.381929295738
 20
1122.908566753266
 30
0.0
 10
2304.886386248441
 20
1122.808847144388
 30
0.0
 10
2304.37896735834
 20
1122.735312737783
 30
0.0
 10
2303.865905322725
 20
1122.687945734116
 30
0.0
 10
2303.350089038051
 20
1122.666296611753
 30
0.0
 10
2302.831323995744
 20
1122.66958987453
 30
0.0
 10
2302.309344452117
 20
1122.698727396476
 30
0.0
 10
2301.784155649187
 20
1122.755369847668
 30
0.0
 10
2301.262045118723
 20
1122.839601786658
 30
0.0
 10
2300.749296783239
 20
1122.951118779004
 30
0.0
 10
2300.255058139176
 20
1123.088076163785
 30
0.0
 10
2299.784755314322
 20
1123.24833496458
 30
0.0
 10
2299.34303058345
 20
1123.429276953861
 30
0.0
 10
2298.931408953549
 20
1123.629397157531
 30
0.0
 10
2298.549014223541
 20
1123.848176100968
 30
0.0
 10
2298.195874875678
 20
1124.086572418515
 30
0.0
 10
2297.873133583227
 20
1124.345972190424
 30
0.0
 10
2297.585802147246
 20
1124.623758453055
 30
0.0
 10
2297.338117567548
 20
1124.917109576127
 30
0.0
 10
2297.134719969102
 20
1125.220889334305
 30
0.0
 10
2296.976963174561
 20
1125.531317883354
 30
0.0
 10
2296.865579069147
 20
1125.844564115487
 30
0.0
 10
2296.798366293594
 20
1126.159019249318
 30
0.0
 10
2296.779703372349
 20
1126.474306524836
 30
0.0
 10
2296.786665303743
 20
1126.700814304775
 30
0.0
 10
2296.813694407634
 20
1126.82186504876
 30
0.0
 10
2296.817228334059
 20
1126.837691856212
 30
0.0
  0
SPLINE
  5
34B
330
32A
100
AcDbEntity
  8
0
  6
Continuous
 62
     7
370
    15
100
AcDbSpline
210
0.0
220
0.0
230
1.0
 70
     8
 71
     3
 72
    40
 73
    36
 74
     0
 42
0.0000000001
 43
0.0000000001
 40
0.0
 40
0.0
 40
0.0
 40
0.0
 40
0.005023786767212
 40
0.0364176762100412
 40
0.0681169279870582
 40
0.1000004632671153
 40
0.1319428791344592
 40
0.1632498781281573
 40
0.1943727104221543
 40
0.2251968977181777
 40
0.2556145606307334
 40
0.2865890090999019
 40
0.317982898542731
 40
0.349682150319748
 40
0.3815656855998048
 40
0.4135081014671486
 40
0.4448151004608465
 40
0.4759379327548433
 40
0.5067621200508665
 40
0.537179782963422
 40
0.5681542314325905
 40
0.5995481208754195
 40
0.6312473726524363
 40
0.6631309079324933
 40
0.695073323799837
 40
0.7263803227935335
 40
0.7575031550875288
 40
0.7883273423835507
 40
0.8187450052961105
 40
0.8497194537652777
 40
0.8811133432081069
 40
0.912812594985124
 40
0.9446961302651811
 40
0.9766385461325251
 40
1.0
 40
1.0
 40
1.0
 40
1.0
 10
2308.865545508038
 20
1126.846049225438
 30
0.0
 10
2308.864475819502
 20
1126.830624527429
 30
0.0
 10
2308.856721594941
 20
1126.718810136462
 30
0.0
 10
2308.797835181172
 20
1126.511898396318
 30
0.0
 10
2308.685489886153
 20
1126.227759151539
 30
0.0
 10
2308.522089690717
 20
1125.949513968114
 30
0.0
 10
2308.315772064052
 20
1125.681896138054
 30
0.0
 10
2308.068411227228
 20
1125.427896628305
 30
0.0
 10
2307.784573831892
 20
1125.189969926332
 30
0.0
 10
2307.466716548504
 20
1124.968973711893
 30
0.0
 10
2307.115467896031
 20
1124.764228617488
 30
0.0
 10
2306.730416458364
 20
1124.576476619732
 30
0.0
 10
2306.310428365712
 20
1124.407107968898
 30
0.0
 10
2305.859385295744
 20
1124.258639036729
 30
0.0
 10
2305.381929297093
 20
1124.133377971036
 30
0.0
 10
2304.886386248086
 20
1124.033658362232
 30
0.0
 10
2304.378967358435
 20
1123.960123955608
 30
0.0
 10
2303.865905322698
 20
1123.912756951945
 30
0.0
 10
2303.350089038067
 20
1123.891107829583
 30
0.0
 10
2302.83132399571
 20
1123.894401092353
 30
0.0
 10
2302.309344452243
 20
1123.923538614325
 30
0.0
 10
2301.784155648709
 20
1123.980181065418
 30
0.0
 10
2301.262045120529
 20
1124.064413004786
 30
0.0
 10
2300.749296776452
 20
1124.175929995708
 30
0.0
 10
2300.255058164339
 20
1124.312887385785
 30
0.0
 10
2299.784755222728
 20
1124.473146167224
 30
0.0
 10
2299.343030921896
 20
1124.654088227797
 30
0.0
 10
2298.931407710594
 20
1124.854208169302
 30
0.0
 10
2298.549018831119
 20
1125.072988082643
 30
0.0
 10
2298.195857220242
 20
1125.311380709418
 30
0.0
 10
2297.873200704988
 20
1125.570794535726
 30
0.0
 10
2297.585548433489
 20
1125.848527610109
 30
0.0
 10
2297.339070972235
 20
1126.142078849792
 30
0.0
 10
2297.148547961592
 20
1126.419804891976
 30
0.0
 10
2297.060935844226
 20
1126.602392356172
 30
0.0
 10
2297.023926744358
 20
1126.679520930394
 30
0.0
  0
SPLINE
  5
34C
330
32A
100
AcDbEntity
  8
0
  6
Continuous
 62
     7
370
    15
100
AcDbSpline
210
0.0
220
0.0
230
1.0
 70
     8
 71
     3
 72
    14
 73
    10
 74
     0
 42
0.0000000001
 43
0.0000000001
 40
0.0
 40
0.0
 40
0.0
 40
0.0
 40
0.0741752580427059
 40
0.2568444935447695
 40
0.4377301468952217
 40
0.6160049742257768
 40
0.7942798015563261
 40
0.9751654549067779
 40
1.0
 40
1.0
 40
1.0
 40
1.0
 10
2304.555724771894
 20
1121.252919389543
 30
0.0
 10
2304.489662344325
 20
1121.241436654831
 30
0.0
 10
2304.260909911253
 20
1121.201675725656
 30
0.0
 10
2303.854349361302
 20
1121.163317893852
 30
0.0
 10
2303.345300982765
 20
1121.138026054483
 30
0.0
 10
2302.834223060699
 20
1121.141690338184
 30
0.0
 10
2302.324541413449
 20
1121.176151869258
 30
0.0
 10
2301.960756424068
 20
1121.214331996881
 30
0.0
 10
2301.771400305537
 20
1121.249497431884
 30
0.0
 10
2301.748541232389
 20
1121.253742603665
 30
0.0
  0
SPLINE
  5
34D
330
32A
100
AcDbEntity
  8
0
  6
Continuous
 62
     7
370
    15
100
AcDbSpline
210
0.0
220
0.0
230
1.0
 70
     8
 71
     3
 72
    14
 73
    10
 74
     0
 42
0.0000000001
 43
0.0000000001
 40
0.0
 40
0.0
 40
0.0
 40
0.0
 40
0.0745532374265502
 40
0.2572235260014033
 40
0.4381102221424437
 40
0.616386077212381
 40
0.7946619322823228
 40
0.9755486284233635
 40
1.0
 40
1.0
 40
1.0
 40
1.0
 10
2304.556737700014
 20
1122.477898623045
 30
0.0
 10
2304.490339965237
 20
1122.466355776653
 30
0.0
 10
2304.261254548594
 20
1122.426530656358
 30
0.0
 10
2303.854351446837
 20
1122.388125227045
 30
0.0
 10
2303.345300595921
 20
1122.362838719779
 30
0.0
 10
2302.834222573949
 20
1122.366499601602
 30
0.0
 10
2302.32454376155
 20
1122.400969514506
 30
0.0
 10
2301.961113816313
 20
1122.439089825401
 30
0.0
 10
2301.772107551784
 20
1122.474181851592
 30
0.0
 10
2301.749600948621
 20
1122.478360561275
 30
0.0
  0
SPLINE
  5
34E
330
32A
100
AcDbEntity
  8
0
  6
Continuous
 62
     7
370
    15
100
AcDbSpline
210
0.0
220
0.0
230
1.0
 70
     8
 71
     3
 72
    14
 73
    10
 74
     0
 42
0.0000000001
 43
0.0000000001
 40
0.0
 40
0.0
 40
0.0
 40
0.0
 40
0.0747912344453944
 40
0.2574160070560653
 40
0.4382576316507321
 40
0.6164890657177158
 40
0.7947204997846775
 40
0.9755621243793447
 40
0.9999999999999998
 40
0.9999999999999998
 40
0.9999999999999998
 40
0.9999999999999998
 10
2304.557426228737
 20
1123.702824048007
 30
0.0
 10
2304.49080057501
 20
1123.691240333033
 30
0.0
 10
2304.261488813047
 20
1123.651371574647
 30
0.0
 10
2303.854352892495
 20
1123.612933896263
 30
0.0
 10
2303.345300219392
 20
1123.587650615169
 30
0.0
 10
2302.834222663097
 20
1123.5913106081
 30
0.0
 10
2302.324543778879
 20
1123.625780906286
 30
0.0
 10
2301.961120721367
 20
1123.66390001034
 30
0.0
 10
2301.772121214975
 20
1123.698990619438
 30
0.0
 10
2301.749621421159
 20
1123.703168045531
 30
0.0
  0
SPLINE
  5
34F
330
32A
100
AcDbEntity
  8
0
  6
Continuous
 62
     7
370
    15
100
AcDbSpline
210
0.0
220
0.0
230
1.0
 70
     8
 71
     3
 72
    14
 73
    10
 74
     0
 42
0.0000000001
 43
0.0000000001
 40
0.0
 40
0.0
 40
0.0
 40
0.0
 40
0.0746501335962685
 40
0.2572276992024935
 40
0.4380225777218377
 40
0.6162079404263216
 40
0.7943933031307826
 40
0.975188181650126
 40
1.0
 40
1.0
 40
1.0
 40
1.0
 10
2304.557099373431
 20
1124.927581049931
 30
0.0
 10
2304.490581915057
 20
1124.916016734055
 30
0.0
 10
2304.261377599542
 20
1124.876168682587
 30
0.0
 10
2303.854352254238
 20
1124.837746449786
 30
0.0
 10
2303.345300227356
 20
1124.812461058053
 30
0.0
 10
2302.834223246691
 20
1124.816123589152
 30
0.0
 10
2302.324541419445
 20
1124.85058579452
 30
0.0
 10
2301.960766000221
 20
1124.88876421776
 30
0.0
 10
2301.771419253034
 20
1124.923927688486
 30
0.0
 10
2301.748569622317
 20
1124.928171079686
 30
0.0
  0
SPLINE
  5
350
330
32A
100
AcDbEntity
  8
0
  6
Continuous
 62
     7
370
    15
100
AcDbSpline
210
0.0
220
0.0
230
1.0
 70
     8
 71
     3
 72
    38
 73
    34
 74
     0
 42
0.0000000001
 43
0.0000000001
 40
0.0
 40
0.0
 40
0.0
 40
0.0
 40
0.0625
 40
0.0625
 40
0.125
 40
0.125
 40
0.1875
 40
0.1875
 40
0.25
 40
0.25
 40
0.3125
 40
0.3125
 40
0.375
 40
0.375
 40
0.4375
 40
0.4375
 40
0.5
 40
0.5
 40
0.5625
 40
0.5625
 40
0.625
 40
0.625
 40
0.6875
 40
0.6875
 40
0.75
 40
0.75
 40
0.8125
 40
0.8125
 40
0.875
 40
0.875
 40
0.9375000000000001
 40
0.9375000000000001
 40
1.0
 40
1.0
 40
1.0
 40
1.0
 10
2308.884454642667
 20
1124.349345880946
 30
0.0
 10
2308.884454642667
 20
1124.13837372179
 30
0.0
 10
2308.847197556312
 20
1123.92378065991
 30
0.0
 10
2308.693702673842
 20
1123.499564758832
 30
0.0
 10
2308.577435423795
 20
1123.290022450083
 30
0.0
 10
2308.270416204924
 20
1122.888657552248
 30
0.0
 10
2308.079723143961
 20
1122.696911973157
 30
0.0
 10
2307.637104644755
 20
1122.341831426886
 30
0.0
 10
2307.385303702669
 20
1122.17854017755
 30
0.0
 10
2306.839597635021
 20
1121.887085312272
 30
0.0
 10
2306.535107216117
 20
1121.754211050459
 30
0.0
 10
2305.875414172367
 20
1121.52444497136
 30
0.0
 10
2305.520294389529
 20
1121.427620918345
 30
0.0
 10
2304.779084427421
 20
1121.276909001283
 30
0.0
 10
2304.393136464311
 20
1121.223050054372
 30
0.0
 10
2303.613684497306
 20
1121.160191486489
 30
0.0
 10
2303.220327103635
 20
1121.151170756293
 30
0.0
 10
2302.448582181698
 20
1121.174745298279
 30
0.0
 10
2302.055224788027
 20
1121.208740684364
 30
0.0
 10
2301.275772821022
 20
1121.323103535517
 30
0.0
 10
2300.889824857912
 20
1121.403483898145
 30
0.0
 10
2300.148614895804
 20
1121.60724882594
 30
0.0
 10
2299.793495112965
 20
1121.730594294673
 30
0.0
 10
2299.133802069215
 20
1122.011864657041
 30
0.0
 10
2298.829311650312
 20
1122.169713574743
 30
0.0
 10
2298.283605582664
 20
1122.508317523993
 30
0.0
 10
2298.031804640578
 20
1122.696583429218
 30
0.0
 10
2297.589186141372
 20
1123.103168258758
 30
0.0
 10
2297.398493080409
 20
1123.321435253568
 30
0.0
 10
2297.091473861538
 20
1123.775853162135
 30
0.0
 10
2296.975206611492
 20
1124.011916886602
 30
0.0
 10
2296.821711729021
 20
1124.487637070949
 30
0.0
 10
2296.784454642667
 20
1124.727204788718
 30
0.0
 10
2296.784454642667
 20
1124.961751489861
 30
0.0
  0
SPLINE
  5
351
330
32A
100
AcDbEntity
  8
0
  6
Continuous
 62
     7
370
    15
100
AcDbSpline
210
0.0
220
0.0
230
1.0
 70
     8
 71
     3
 72
    38
 73
    34
 74
     0
 42
0.0000000001
 43
0.0000000001
 40
0.0
 40
0.0
 40
0.0
 40
0.0
 40
0.0625
 40
0.0625
 40
0.125
 40
0.125
 40
0.1875
 40
0.1875
 40
0.25
 40
0.25
 40
0.3125
 40
0.3125
 40
0.375
 40
0.375
 40
0.4375
 40
0.4375
 40
0.5
 40
0.5
 40
0.5625
 40
0.5625
 40
0.625
 40
0.625
 40
0.6875
 40
0.6875
 40
0.75
 40
0.75
 40
0.8125
 40
0.8125
 40
0.875
 40
0.875
 40
0.9375
 40
0.9375
 40
1.0
 40
1.0
 40
1.0
 40
1.0
 10
2308.884454642667
 20
1125.574157098775
 30
0.0
 10
2308.884454642667
 20
1125.363184939619
 30
0.0
 10
2308.847197556312
 20
1125.148591877739
 30
0.0
 10
2308.693702673842
 20
1124.724375976661
 30
0.0
 10
2308.577435423795
 20
1124.514833667912
 30
0.0
 10
2308.270416204924
 20
1124.113468770077
 30
0.0
 10
2308.079723143961
 20
1123.921723190985
 30
0.0
 10
2307.637104644755
 20
1123.566642644715
 30
0.0
 10
2307.385303702669
 20
1123.403351395378
 30
0.0
 10
2306.839597635021
 20
1123.111896530101
 30
0.0
 10
2306.535107216117
 20
1122.979022268288
 30
0.0
 10
2305.875414172367
 20
1122.749256189189
 30
0.0
 10
2305.520294389529
 20
1122.652432136174
 30
0.0
 10
2304.779084427421
 20
1122.501720219112
 30
0.0
 10
2304.393136464311
 20
1122.447861272201
 30
0.0
 10
2303.613684497306
 20
1122.385002704318
 30
0.0
 10
2303.220327103635
 20
1122.375981974121
 30
0.0
 10
2302.448582181698
 20
1122.399556516107
 30
0.0
 10
2302.055224788027
 20
1122.433551902193
 30
0.0
 10
2301.275772821022
 20
1122.547914753345
 30
0.0
 10
2300.889824857912
 20
1122.628295115974
 30
0.0
 10
2300.148614895804
 20
1122.832060043768
 30
0.0
 10
2299.793495112965
 20
1122.955405512501
 30
0.0
 10
2299.133802069215
 20
1123.23667587487
 30
0.0
 10
2298.829311650312
 20
1123.394524792572
 30
0.0
 10
2298.283605582664
 20
1123.733128741822
 30
0.0
 10
2298.031804640578
 20
1123.921394647047
 30
0.0
 10
2297.589186141372
 20
1124.327979476587
 30
0.0
 10
2297.398493080409
 20
1124.546246471397
 30
0.0
 10
2297.091473861538
 20
1125.000664379963
 30
0.0
 10
2296.975206611492
 20
1125.236728104431
 30
0.0
 10
2296.821711729021
 20
1125.712448288778
 30
0.0
 10
2296.784454642667
 20
1125.952016006547
 30
0.0
 10
2296.784454642667
 20
1126.186562707689
 30
0.0
  0
SPLINE
  5
352
330
32A
100
AcDbEntity
  8
0
  6
Continuous
 62
     7
370
    15
100
AcDbSpline
210
0.0
220
0.0
230
1.0
 70
     8
 71
     3
 72
    42
 73
    38
 74
     0
 42
0.0000000001
 43
0.0000000001
 40
0.0
 40
0.0
 40
0.0
 40
0.0
 40
0.029050658018885
 40
0.0584947059732542
 40
0.088225150528072
 40
0.1181284329311783
 40
0.148086938910156
 40
0.1774494930898951
 40
0.2066393189701518
 40
0.2355490483794798
 40
0.2640775022076713
 40
0.2931281602265563
 40
0.3225722081809248
 40
0.3523026527357417
 40
0.3822059351388472
 40
0.4121644411178277
 40
0.4415269952975667
 40
0.4707168211778234
 40
0.4996265505871512
 40
0.5281550044153426
 40
0.5572056624342277
 40
0.5866497103885962
 40
0.6163801549434134
 40
0.6462834373465191
 40
0.6762419433254982
 40
0.7056044975052373
 40
0.7347943233854943
 40
0.7637040527948223
 40
0.7922325066230139
 40
0.8212831646418987
 40
0.8507272125962671
 40
0.8804576571510841
 40
0.9103609395541896
 40
0.9403194455331702
 40
0.969681999712909
 40
0.9988718255931656
 40
1.0
 40
1.0
 40
1.0
 40
1.0
 10
2308.884454642667
 20
1126.798968316603
 30
0.0
 10
2308.880101118534
 20
1126.703753817672
 30
0.0
 10
2308.871335116954
 20
1126.512035471196
 30
0.0
 10
2308.79996500614
 20
1126.225796156931
 30
0.0
 10
2308.684913166996
 20
1125.941792896507
 30
0.0
 10
2308.522245025319
 20
1125.663510932652
 30
0.0
 10
2308.315731322034
 20
1125.39590295403
 30
0.0
 10
2308.068421984024
 20
1125.141900856837
 30
0.0
 10
2307.784570986376
 20
1124.903974838282
 30
0.0
 10
2307.466717296222
 20
1124.682978443308
 30
0.0
 10
2307.115467692835
 20
1124.47823339668
 30
0.0
 10
2306.730416514036
 20
1124.290481385918
 30
0.0
 10
2306.310428350551
 20
1124.121112738642
 30
0.0
 10
2305.859385299849
 20
1123.972643805506
 30
0.0
 10
2305.381929295987
 20
1123.847382740074
 30
0.0
 10
2304.886386248376
 20
1123.7476631312
 30
0.0
 10
2304.378967358358
 20
1123.674128724594
 30
0.0
 10
2303.86590532272
 20
1123.626761720927
 30
0.0
 10
2303.350089038055
 20
1123.605112598564
 30
0.0
 10
2302.831323995736
 20
1123.60840586134
 30
0.0
 10
2302.309344452149
 20
1123.63754338329
 30
0.0
 10
2301.784155649064
 20
1123.694185834471
 30
0.0
 10
2301.262045119185
 20
1123.778417773502
 30
0.0
 10
2300.749296781502
 20
1123.889934765692
 30
0.0
 10
2300.255058145618
 20
1124.026892151056
 30
0.0
 10
2299.784755290877
 20
1124.187150949718
 30
0.0
 10
2299.343030670084
 20
1124.368092946858
 30
0.0
 10
2298.931408635386
 20
1124.568213121626
 30
0.0
 10
2298.549015402961
 20
1124.786992171989
 30
0.0
 10
2298.195870356347
 20
1125.02538808265
 30
0.0
 10
2297.873150764647
 20
1125.284789403976
 30
0.0
 10
2297.585737203141
 20
1125.562569802904
 30
0.0
 10
2297.338361614283
 20
1125.8559429877
 30
0.0
 10
2297.133815174928
 20
1126.159640719462
 30
0.0
 10
2296.980256776966
 20
1126.470369031012
 30
0.0
 10
2296.893701119999
 20
1126.683362020853
 30
0.0
 10
2296.870785729191
 20
1126.793271016957
 30
0.0
 10
2296.869933016044
 20
1126.797360881569
 30
0.0
  0
SPLINE
  5
353
330
32A
100
AcDbEntity
  8
0
  6
Continuous
 62
     7
370
    15
100
AcDbSpline
210
0.0
220
0.0
230
1.0
 70
     8
 71
     3
 72
    26
 73
    22
 74
     0
 42
0.0000000001
 43
0.0000000001
 40
0.0
 40
0.0
 40
0.0
 40
0.0
 40
0.019940520995612
 40
0.0742189380063723
 40
0.1277815048375642
 40
0.1823245172628982
 40
0.2376061247357225
 40
0.2934254457889649
 40
0.3495692722940507
 40
0.4058167818270104
 40
0.4609453836102797
 40
0.5157496856211049
 40
0.5700281026318649
 40
0.6235906694630565
 40
0.6781336818883903
 40
0.7334152893612146
 40
0.7892346104144568
 40
0.8453784369195426
 40
0.9016259464525022
 40
0.956754548235769
 40
0.9999999999999998
 40
0.9999999999999998
 40
0.9999999999999998
 40
0.9999999999999998
 10
2307.88072486846
 20
1126.217069505968
 30
0.0
 10
2307.846834871501
 20
1126.188009118421
 30
0.0
 10
2307.720695760899
 20
1126.079845891279
 30
0.0
 10
2307.465183082751
 20
1125.908354802821
 30
0.0
 10
2307.115884623215
 20
1125.702891034363
 30
0.0
 10
2306.730302283644
 20
1125.515334681543
 30
0.0
 10
2306.310459459696
 20
1125.345912497213
 30
0.0
 10
2305.859376875802
 20
1125.197458126097
 30
0.0
 10
2305.381931565827
 20
1125.072193122961
 30
0.0
 10
2304.886385649719
 20
1124.972474565194
 30
0.0
 10
2304.378967528444
 20
1124.898939895626
 30
0.0
 10
2303.865905233239
 20
1124.851572913129
 30
0.0
 10
2303.350089224958
 20
1124.829923962712
 30
0.0
 10
2302.831323340408
 20
1124.833216522951
 30
0.0
 10
2302.30934695269
 20
1124.862356736337
 30
0.0
 10
2301.784146145471
 20
1124.918988933649
 30
0.0
 10
2301.262081041071
 20
1125.003259679331
 30
0.0
 10
2300.74916179457
 20
1125.11463066418
 30
0.0
 10
2300.25555860458
 20
1125.252130911063
 30
0.0
 10
2299.815807461059
 20
1125.399396866092
 30
0.0
 10
2299.554175125077
 20
1125.510165002899
 30
0.0
 10
2299.439160970859
 20
1125.558858921108
 30
0.0
  0
LWPOLYLINE
  5
354
330
32A
100
AcDbEntity
  8
0
  6
Continuous
 62
     8
370
    15
100
AcDbPolyline
 90
       70
 70
   128
 43
0.0
 10
2310.334454213572
 20
1130.386118542747
 10
2310.3343277191
 20
1130.362394341327
 10
2310.324176153326
 20
1130.160986344208
 10
2310.297803518549
 20
1129.960069105264
 10
2310.255266932024
 20
1129.760077766495
 10
2310.196658518524
 20
1129.561445464606
 10
2310.122105210823
 20
1129.364602392933
 10
2310.031768474784
 20
1129.169974869737
 10
2309.925843959661
 20
1128.977984414894
 10
2309.804561074368
 20
1128.789046836977
 10
2309.668182490625
 20
1128.603571332709
 10
2309.517003574079
 20
1128.421959600729
 10
2309.351351744598
 20
1128.244604971609
 10
2309.171585767157
 20
1128.071891555982
 10
2308.978094974834
 20
1127.904193412648
 10
2308.771298425599
 20
1127.741873738443
 10
2308.55164399473
 20
1127.585284081635
 10
2308.31960740481
 20
1127.434763580554
 10
2308.075691195426
 20
1127.290638229085
 10
2307.820423634771
 20
1127.153220170648
 10
2307.55435757554
 20
1127.022807022158
 10
2307.278069257571
 20
1126.899681229453
 10
2306.992157059837
 20
1126.784109455583
 10
2306.697240204492
 20
1126.676342003277
 10
2306.393957415774
 20
1126.576612272836
 10
2306.082965536669
 20
1126.485136256652
 10
2305.764938106336
 20
1126.402112071404
 10
2305.440563901373
 20
1126.327719528991
 10
2305.110545444076
 20
1126.262119747093
 10
2304.775597480935
 20
1126.205454800232
 10
2304.436445434656
 20
1126.157847412064
 10
2304.093823833047
 20
1126.11940068959
 10
2303.748474718205
 20
1126.09019789985
 10
2303.40114603941
 20
1126.070302289585
 10
2303.05259003324
 20
1126.059756948255
 10
2302.703561594387
 20
1126.058584714721
 10
2302.354816640729
 20
1126.066788127782
 10
2302.00711047618
 20
1126.084349420669
 10
2301.661196154865
 20
1126.111230559535
 10
2301.317822850176
 20
1126.147373325817
 10
2300.977734232231
 20
1126.192699442332
 10
2300.641666857246
 20
1126.247110742805
 10
2300.31034857232
 20
1126.310489384475
 10
2299.984496939083
 20
1126.382698103317
 10
2299.664817679611
 20
1126.463580511325
 10
2299.352003147996
 20
1126.552961435215
 10
2299.046730830856
 20
1126.650647295808
 10
2298.749661880054
 20
1126.756426527283
 10
2298.461439680786
 20
1126.870070035378
 10
2298.182688458155
 20
1126.991331693562
 10
2297.914011925238
 20
1127.119948876084
 10
2297.655991975577
 20
1127.255643026768
 10
2297.409187422928
 20
1127.398120262299
 10
2297.174132790996
 20
1127.547072008711
 10
2296.951337155769
 20
1127.702175669689
 10
2296.741283042985
 20
1127.863095325243
 10
2296.544425383076
 20
1128.029482459231
 10
2296.361190525898
 20
1128.200976714171
 10
2296.191975317349
 20
1128.377206671696
 10
2296.037146239892
 20
1128.557790656959
 10
2295.89703861883
 20
1128.74233756526
 10
2295.771955896073
 20
1128.930447709092
 10
2295.662168972944
 20
1129.121713683768
 10
2295.567915623472
 20
1129.31572124978
 10
2295.489399979425
 20
1129.51205022994
 10
2295.426792088203
 20
1129.710275419395
 10
2295.380227544558
 20
1129.909967506525
 10
2295.349807196922
 20
1130.110694002736
 10
2295.335596928993
 20
1130.312020179134
 10
2295.334455340898
 20
1130.385714865649
  0
LINE
  5
355
330
32A
100
AcDbEntity
  8
0
  6
Continuous
 62
     8
370
    15
100
AcDbLine
 10
2305.646025055494
 20
1130.104153667323
 30
0.0
 11
2305.646025055494
 21
1130.758677641964
 31
0.0
  0
LINE
  5
356
330
32A
100
AcDbEntity
  8
0
  6
Continuous
 62
     8
370
    15
100
AcDbLine
 10
2300.979120299663
 20
1133.447139342456
 30
0.0
 11
2300.979120299663
 21
1132.436444258163
 31
0.0
  0
LINE
  5
357
330
32A
100
AcDbEntity
  8
0
  6
Continuous
 62
     8
370
    15
100
AcDbLine
 10
2299.989170806002
 20
1133.362863738681
 30
0.0
 11
2299.989170806002
 21
1132.87565366418
 31
0.0
  0
ENDBLK
  5
32C
330
32A
100
AcDbEntity
  8
0
100
AcDbBlockEnd
  0
ENDSEC
  0
SECTION
  2
ENTITIES
  0
INSERT
  5
31C
330
1F
100
AcDbEntity
  8
0
100
AcDbBlockReference
  2
1
 10
0.0
 20
0.0
 30
0.0
  0
INSERT
  5
329
330
1F
100
AcDbEntity
  8
0
100
AcDbBlockReference
  2
2
 10
0.0
 20
0.0
 30
0.0
  0
INSERT
  5
358
330
1F
100
AcDbEntity
  8
0
100
AcDbBlockReference
  2
3
 10
0.0
 20
0.0
 30
0.0
  0
ENDSEC
  0
SECTION
  2
OBJECTS
  0
DICTIONARY
  5
C
330
0
100
AcDbDictionary
281
     1
  3
ACAD_COLOR
350
6B
  3
ACAD_GROUP
350
D
  3
ACAD_LAYOUT
350
1A
  3
ACAD_MATERIAL
350
6A
  3
ACAD_MLEADERSTYLE
350
12D
  3
ACAD_MLINESTYLE
350
17
  3
ACAD_PLOTSETTINGS
350
19
  3
ACAD_PLOTSTYLENAME
350
E
  3
ACAD_SCALELIST
350
10C
  3
ACAD_TABLESTYLE
350
7E
  3
ACAD_VISUALSTYLE
350
EF
  3
ACDB_RECOMPOSE_DATA
350
15D
  3
AcDbVariableDictionary
350
5E
  3
DWGPROPS
350
3BE
  0
DICTIONARY
  5
13C
330
10
100
AcDbDictionary
280
     1
281
     1
  3
ADSK_XREC_LAYER_RECONCILED
360
359
  0
DICTIONARY
  5
39F
330
2DD
100
AcDbDictionary
280
     1
281
     1
  3
ACAD_SORTENTS
360
3AB
  0
DICTIONARY
  5
6B
102
{ACAD_REACTORS
330
C
102
}
330
C
100
AcDbDictionary
281
     1
  0
DICTIONARY
  5
D
102
{ACAD_REACTORS
330
C
102
}
330
C
100
AcDbDictionary
281
     1
  0
DICTIONARY
  5
1A
102
{ACAD_REACTORS
330
C
102
}
330
C
100
AcDbDictionary
281
     1
  3
Layout1
350
D3
  3
Layout2
350
D7
  3
Model
350
22
  0
DICTIONARY
  5
6A
102
{ACAD_REACTORS
330
C
102
}
330
C
100
AcDbDictionary
281
     1
  3
ByBlock
350
ED
  3
ByLayer
350
EC
  3
Global
350
EE
  0
DICTIONARY
  5
12D
102
{ACAD_REACTORS
330
C
102
}
330
C
100
AcDbDictionary
281
     1
  3
Annotative
350
13B
  3
Standard
350
12E
  0
DICTIONARY
  5
17
102
{ACAD_REACTORS
330
C
102
}
330
C
100
AcDbDictionary
281
     1
  3
Standard
350
18
  0
DICTIONARY
  5
19
102
{ACAD_REACTORS
330
C
102
}
330
C
100
AcDbDictionary
281
     1
  0
ACDBDICTIONARYWDFLT
  5
E
102
{ACAD_REACTORS
330
C
102
}
330
C
100
AcDbDictionary
281
     1
  3
Normal
350
F
100
AcDbDictionaryWithDefault
340
F
  0
DICTIONARY
  5
10C
102
{ACAD_REACTORS
330
C
102
}
330
C
100
AcDbDictionary
281
     1
  3
A0
350
10D
  3
A1
350
188
  3
A2
350
189
  3
A3
350
18A
  3
A4
350
18B
  3
A5
350
18C
  3
A6
350
18D
  3
A7
350
18E
  3
A8
350
18F
  3
A9
350
190
  3
B0
350
191
  3
B1
350
192
  3
B2
350
193
  3
B3
350
194
  3
B4
350
195
  3
B5
350
196
  3
B6
350
197
  3
B7
350
198
  3
B8
350
199
  3
B9
350
19A
  3
C0
350
19B
  3
C1
350
19C
  3
C2
350
19D
  3
C3
350
19E
  3
C4
350
19F
  3
C5
350
1A0
  3
C6
350
1A1
  3
C7
350
1A2
  3
C8
350
1A3
  3
C9
350
1A4
  3
D0
350
1A5
  3
D1
350
1A6
  3
D2
350
1A7
  0
DICTIONARY
  5
7E
102
{ACAD_REACTORS
330
C
102
}
330
C
100
AcDbDictionary
281
     1
  3
Standard
350
7F
  0
DICTIONARY
  5
EF
102
{ACAD_REACTORS
330
C
102
}
330
C
100
AcDbDictionary
281
     1
  3
2dWireframe
350
F5
  3
3D Hidden
350
F7
  3
3dWireframe
350
F6
  3
Basic
350
F4
  3
Brighten
350
FB
  3
ColorChange
350
FF
  3
Conceptual
350
F8
  3
Dim
350
FA
  3
Facepattern
350
FE
  3
Flat
350
F0
  3
FlatWithEdges
350
F1
  3
Gouraud
350
F2
  3
GouraudWithEdges
350
F3
  3
Linepattern
350
FD
  3
Realistic
350
F9
  3
Thicken
350
FC
  0
XRECORD
  5
15D
102
{ACAD_REACTORS
330
C
102
}
330
C
100
AcDbXrecord
280
     1
 90
        1
330
7F
  0
DICTIONARY
  5
5E
102
{ACAD_REACTORS
330
C
102
}
330
C
100
AcDbDictionary
281
     1
  3
CANNOSCALE
350
146
  3
CMLEADERSTYLE
350
145
  3
CTABLESTYLE
350
84
  3
DIMASSOC
350
5F
  3
HIDETEXT
350
63
  3
INDEXCTL
350
3BA
  3
LIGHTINGUNITS
350
3B8
  3
MSLTSCALE
350
3B7
  3
PSOLHEIGHT
350
3BC
  3
PSOLWIDTH
350
3BB
  3
SORTENTS
350
3B9
  0
XRECORD
  5
3BE
102
{ACAD_REACTORS
330
C
102
}
330
C
100
AcDbXrecord
280
     1
  1
DWGPROPS COOKIE
  2

  3

  4

  6

  7

  8
orhan kara
  9

300
=
301
=
302
=
303
=
304
=
305
=
306
=
307
=
308
=
309
=
 40
0.0016232407407407
 41
2458559.440346655
 42
2459067.644974572
  1

 90
        0
  0
XRECORD
  5
359
102
{ACAD_REACTORS
330
13C
102
}
330
13C
100
AcDbXrecord
280
     1
290
     1
  0
SORTENTSTABLE
  5
3AB
102
{ACAD_REACTORS
330
39F
102
}
330
39F
100
AcDbSortentsTable
330
2DD
331
386
  5
387
331
384
  5
385
331
388
  5
389
331
382
  5
383
331
37E
  5
37F
331
39D
  5
3AA
331
3A9
  5
3AC
331
37C
  5
37D
331
399
  5
39D
331
36E
  5
36F
331
37A
  5
37B
331
397
  5
399
331
378
  5
379
331
36A
  5
36A
331
393
  5
397
331
368
  5
368
331
374
  5
375
331
391
  5
393
331
366
  5
366
331
372
  5
373
331
364
  5
364
331
370
  5
371
331
38D
  5
38E
331
362
  5
362
331
387
  5
388
331
38B
  5
38C
331
385
  5
386
331
389
  5
38B
331
383
  5
384
331
3AC
  5
36E
331
381
  5
382
331
3AA
  5
391
331
37F
  5
381
331
37D
  5
37E
331
39C
  5
3A9
331
36F
  5
370
331
37B
  5
37C
331
379
  5
37A
331
398
  5
39C
331
36B
  5
36B
331
396
  5
398
331
375
  5
378
331
369
  5
369
331
373
  5
374
331
392
  5
396
331
367
  5
367
331
371
  5
372
331
390
  5
392
331
365
  5
365
331
38E
  5
38F
331
363
  5
363
331
38C
  5
38D
  0
LAYOUT
  5
D3
102
{ACAD_XDICTIONARY
360
3C2
102
}
102
{ACAD_REACTORS
330
1A
102
}
330
1A
100
AcDbPlotSettings
  1

  2
C:\Documents and Settings\basas\Application Data\Autodesk\AutoCAD 2005\R16.1\enu\plotters\Default Windows System Printer.pc3
  4

  6

 40
0.0
 41
0.0
 42
0.0
 43
0.0
 44
0.0
 45
0.0
 46
0.0
 47
0.0
 48
0.0
 49
0.0
140
0.0
141
0.0
142
1.0
143
1.0
 70
   688
 72
     0
 73
     0
 74
     5
  7

 75
    16
147
1.0
148
0.0
149
0.0
100
AcDbLayout
  1
Layout1
 70
     1
 71
     1
 10
0.0
 20
0.0
 11
12.0
 21
9.0
 12
0.0
 22
0.0
 32
0.0
 14
0.0
 24
0.0
 34
0.0
 15
0.0
 25
0.0
 35
0.0
146
0.0
 13
0.0
 23
0.0
 33
0.0
 16
1.0
 26
0.0
 36
0.0
 17
0.0
 27
1.0
 37
0.0
 76
     0
330
D2
  0
LAYOUT
  5
D7
102
{ACAD_XDICTIONARY
360
3C4
102
}
102
{ACAD_REACTORS
330
1A
102
}
330
1A
100
AcDbPlotSettings
  1

  2
C:\Documents and Settings\basas\Application Data\Autodesk\AutoCAD 2005\R16.1\enu\plotters\Default Windows System Printer.pc3
  4

  6

 40
0.0
 41
0.0
 42
0.0
 43
0.0
 44
0.0
 45
0.0
 46
0.0
 47
0.0
 48
0.0
 49
0.0
140
0.0
141
0.0
142
1.0
143
1.0
 70
   688
 72
     0
 73
     0
 74
     5
  7

 75
    16
147
1.0
148
0.0
149
0.0
100
AcDbLayout
  1
Layout2
 70
     1
 71
     2
 10
0.0
 20
0.0
 11
12.0
 21
9.0
 12
0.0
 22
0.0
 32
0.0
 14
0.0
 24
0.0
 34
0.0
 15
0.0
 25
0.0
 35
0.0
146
0.0
 13
0.0
 23
0.0
 33
0.0
 16
1.0
 26
0.0
 36
0.0
 17
0.0
 27
1.0
 37
0.0
 76
     0
330
D6
  0
LAYOUT
  5
22
102
{ACAD_XDICTIONARY
360
3BF
102
}
102
{ACAD_REACTORS
330
1A
102
}
330
1A
100
AcDbPlotSettings
  1

  2
none_device
  4
ISO_A4_(210.00_x_297.00_MM)
  6

 40
7.5
 41
20.0
 42
7.5
 43
20.0
 44
210.0
 45
297.0
 46
11.54999923706054
 47
-13.65000009536743
 48
0.0
 49
0.0
140
0.0
141
0.0
142
1.0
143
8.704084754739808
 70
 11952
 72
     1
 73
     0
 74
     0
  7

 75
     0
147
0.1148885871608098
148
0.0
149
0.0
100
AcDbLayout
  1
Model
 70
     1
 71
     0
 10
0.0
 20
0.0
 11
12.0
 21
9.0
 12
0.0
 22
0.0
 32
0.0
 14
0.0
 24
0.0
 34
0.0
 15
0.0
 25
0.0
 35
0.0
146
0.0
 13
0.0
 23
0.0
 33
0.0
 16
1.0
 26
0.0
 36
0.0
 17
0.0
 27
1.0
 37
0.0
 76
     0
330
1F
331
EA
1001
ACAD_PSEXT
1000
None
1000
None
1000
Not applicable
1000
The layout will not be plotted unless a new plotter configuration name is selected.
1070
     0
  0
MATERIAL
  5
ED
102
{ACAD_XDICTIONARY
360
3C8
102
}
102
{ACAD_REACTORS
330
6A
102
}
330
6A
100
AcDbMaterial
  1
ByBlock
  0
MATERIAL
  5
EC
102
{ACAD_XDICTIONARY
360
3C6
102
}
102
{ACAD_REACTORS
330
6A
102
}
330
6A
100
AcDbMaterial
  1
ByLayer
  0
MATERIAL
  5
EE
102
{ACAD_XDICTIONARY
360
173
102
}
102
{ACAD_REACTORS
330
6A
102
}
330
6A
100
AcDbMaterial
  1
Global
 43
0.0007999999797903
 43
0.0
 43
0.0
 43
0.0
 43
0.0
 43
0.0007999999797903
 43
0.0
 43
0.0
 43
0.0
 43
0.0
 43
1.0
 43
0.0
 43
0.0
 43
0.0
 43
0.0
 43
1.0
 49
0.0007999999797903
 49
0.0
 49
0.0
 49
0.0
 49
0.0
 49
0.0007999999797903
 49
0.0
 49
0.0
 49
0.0
 49
0.0
 49
1.0
 49
0.0
 49
0.0
 49
0.0
 49
0.0
 49
1.0
142
0.0007999999797903
142
0.0
142
0.0
142
0.0
142
0.0
142
0.0007999999797903
142
0.0
142
0.0
142
0.0
142
0.0
142
1.0
142
0.0
142
0.0
142
0.0
142
0.0
142
1.0
144
0.0007999999797903
144
0.0
144
0.0
144
0.0
144
0.0
144
0.0007999999797903
144
0.0
144
0.0
144
0.0
144
0.0
144
1.0
144
0.0
144
0.0
144
0.0
144
0.0
144
1.0
1001
ACAD
1070
    -1
1070
     3
1070
     0
1000

1071
        0
1070
     0
  0
MLEADERSTYLE
  5
13B
102
{ACAD_REACTORS
330
12D
102
}
330
12D
100
AcDbMLeaderStyle
170
     2
171
     1
172
     0
 90
        2
 40
0.0
 41
0.0
173
     1
 91
-1056964608
340
14
 92
       -2
290
     1
 42
2.0
291
     1
 43
8.0
  3
Standard
 44
4.0
300

342
11
174
     1
178
     1
175
     1
176
     0
 93
-1056964608
 45
4.0
292
     0
297
     0
 46
4.0
 94
-1056964608
 47
1.0
 49
1.0
140
1.0
293
     1
141
0.0
294
     1
177
     0
142
1.0
295
     0
296
     1
143
3.75
1001
ACAD_MLEADERVER
1070
     2
  0
MLEADERSTYLE
  5
12E
102
{ACAD_REACTORS
330
12D
102
}
330
12D
100
AcDbMLeaderStyle
170
     2
171
     1
172
     0
 90
        2
 40
0.0
 41
0.0
173
     1
 91
-1056964608
340
14
 92
       -2
290
     1
 42
2.0
291
     1
 43
8.0
  3
Standard
 44
4.0
300

342
11
174
     1
178
     1
175
     1
176
     0
 93
-1056964608
 45
4.0
292
     0
297
     0
 46
4.0
 94
-1056964608
 47
1.0
 49
1.0
140
1.0
293
     1
141
0.0
294
     1
177
     0
142
1.0
295
     0
296
     0
143
3.75
1001
ACAD_MLEADERVER
1070
     2
  0
MLINESTYLE
  5
18
102
{ACAD_REACTORS
330
17
102
}
330
17
100
AcDbMlineStyle
  2
STANDARD
 70
     0
  3

 62
   256
 51
90.0
 52
90.0
 71
     2
 49
0.5
 62
   256
  6
BYLAYER
 49
-0.5
 62
   256
  6
BYLAYER
  0
ACDBPLACEHOLDER
  5
F
102
{ACAD_REACTORS
330
E
102
}
330
E
  0
SCALE
  5
10D
102
{ACAD_REACTORS
330
10C
102
}
330
10C
100
AcDbScale
 70
     0
300
1:1
140
1.0
141
1.0
290
     1
  0
SCALE
  5
188
102
{ACAD_REACTORS
330
10C
102
}
330
10C
100
AcDbScale
 70
     0
300
1:2
140
1.0
141
2.0
290
     0
  0
SCALE
  5
189
102
{ACAD_REACTORS
330
10C
102
}
330
10C
100
AcDbScale
 70
     0
300
1:4
140
1.0
141
4.0
290
     0
  0
SCALE
  5
18A
102
{ACAD_REACTORS
330
10C
102
}
330
10C
100
AcDbScale
 70
     0
300
1:5
140
1.0
141
5.0
290
     0
  0
SCALE
  5
18B
102
{ACAD_REACTORS
330
10C
102
}
330
10C
100
AcDbScale
 70
     0
300
1:8
140
1.0
141
8.0
290
     0
  0
SCALE
  5
18C
102
{ACAD_REACTORS
330
10C
102
}
330
10C
100
AcDbScale
 70
     0
300
1:10
140
1.0
141
10.0
290
     0
  0
SCALE
  5
18D
102
{ACAD_REACTORS
330
10C
102
}
330
10C
100
AcDbScale
 70
     0
300
1:16
140
1.0
141
16.0
290
     0
  0
SCALE
  5
18E
102
{ACAD_REACTORS
330
10C
102
}
330
10C
100
AcDbScale
 70
     0
300
1:20
140
1.0
141
20.0
290
     0
  0
SCALE
  5
18F
102
{ACAD_REACTORS
330
10C
102
}
330
10C
100
AcDbScale
 70
     0
300
1:30
140
1.0
141
30.0
290
     0
  0
SCALE
  5
190
102
{ACAD_REACTORS
330
10C
102
}
330
10C
100
AcDbScale
 70
     0
300
1:40
140
1.0
141
40.0
290
     0
  0
SCALE
  5
191
102
{ACAD_REACTORS
330
10C
102
}
330
10C
100
AcDbScale
 70
     0
300
1:50
140
1.0
141
50.0
290
     0
  0
SCALE
  5
192
102
{ACAD_REACTORS
330
10C
102
}
330
10C
100
AcDbScale
 70
     0
300
1:100
140
1.0
141
100.0
290
     0
  0
SCALE
  5
193
102
{ACAD_REACTORS
330
10C
102
}
330
10C
100
AcDbScale
 70
     0
300
2:1
140
2.0
141
1.0
290
     0
  0
SCALE
  5
194
102
{ACAD_REACTORS
330
10C
102
}
330
10C
100
AcDbScale
 70
     0
300
4:1
140
4.0
141
1.0
290
     0
  0
SCALE
  5
195
102
{ACAD_REACTORS
330
10C
102
}
330
10C
100
AcDbScale
 70
     0
300
8:1
140
8.0
141
1.0
290
     0
  0
SCALE
  5
196
102
{ACAD_REACTORS
330
10C
102
}
330
10C
100
AcDbScale
 70
     0
300
10:1
140
10.0
141
1.0
290
     0
  0
SCALE
  5
197
102
{ACAD_REACTORS
330
10C
102
}
330
10C
100
AcDbScale
 70
     0
300
100:1
140
100.0
141
1.0
290
     0
  0
SCALE
  5
198
102
{ACAD_REACTORS
330
10C
102
}
330
10C
100
AcDbScale
 70
     0
300
1/128" = 1'-0"
140
0.0078125
141
12.0
290
     0
  0
SCALE
  5
199
102
{ACAD_REACTORS
330
10C
102
}
330
10C
100
AcDbScale
 70
     0
300
1/64" = 1'-0"
140
0.015625
141
12.0
290
     0
  0
SCALE
  5
19A
102
{ACAD_REACTORS
330
10C
102
}
330
10C
100
AcDbScale
 70
     0
300
1/32" = 1'-0"
140
0.03125
141
12.0
290
     0
  0
SCALE
  5
19B
102
{ACAD_REACTORS
330
10C
102
}
330
10C
100
AcDbScale
 70
     0
300
1/16" = 1'-0"
140
0.0625
141
12.0
290
     0
  0
SCALE
  5
19C
102
{ACAD_REACTORS
330
10C
102
}
330
10C
100
AcDbScale
 70
     0
300
3/32" = 1'-0"
140
0.09375
141
12.0
290
     0
  0
SCALE
  5
19D
102
{ACAD_REACTORS
330
10C
102
}
330
10C
100
AcDbScale
 70
     0
300
1/8" = 1'-0"
140
0.125
141
12.0
290
     0
  0
SCALE
  5
19E
102
{ACAD_REACTORS
330
10C
102
}
330
10C
100
AcDbScale
 70
     0
300
3/16" = 1'-0"
140
0.1875
141
12.0
290
     0
  0
SCALE
  5
19F
102
{ACAD_REACTORS
330
10C
102
}
330
10C
100
AcDbScale
 70
     0
300
1/4" = 1'-0"
140
0.25
141
12.0
290
     0
  0
SCALE
  5
1A0
102
{ACAD_REACTORS
330
10C
102
}
330
10C
100
AcDbScale
 70
     0
300
3/8" = 1'-0"
140
0.375
141
12.0
290
     0
  0
SCALE
  5
1A1
102
{ACAD_REACTORS
330
10C
102
}
330
10C
100
AcDbScale
 70
     0
300
1/2" = 1'-0"
140
0.5
141
12.0
290
     0
  0
SCALE
  5
1A2
102
{ACAD_REACTORS
330
10C
102
}
330
10C
100
AcDbScale
 70
     0
300
3/4" = 1'-0"
140
0.75
141
12.0
290
     0
  0
SCALE
  5
1A3
102
{ACAD_REACTORS
330
10C
102
}
330
10C
100
AcDbScale
 70
     0
300
1" = 1'-0"
140
1.0
141
12.0
290
     0
  0
SCALE
  5
1A4
102
{ACAD_REACTORS
330
10C
102
}
330
10C
100
AcDbScale
 70
     0
300
1-1/2" = 1'-0"
140
1.5
141
12.0
290
     0
  0
SCALE
  5
1A5
102
{ACAD_REACTORS
330
10C
102
}
330
10C
100
AcDbScale
 70
     0
300
3" = 1'-0"
140
3.0
141
12.0
290
     0
  0
SCALE
  5
1A6
102
{ACAD_REACTORS
330
10C
102
}
330
10C
100
AcDbScale
 70
     0
300
6" = 1'-0"
140
6.0
141
12.0
290
     0
  0
SCALE
  5
1A7
102
{ACAD_REACTORS
330
10C
102
}
330
10C
100
AcDbScale
 70
     0
300
1'-0" = 1'-0"
140
12.0
141
12.0
290
     0
  0
TABLESTYLE
  5
7F
102
{ACAD_XDICTIONARY
360
162
102
}
102
{ACAD_REACTORS
330
7E
102
}
330
7E
100
AcDbTableStyle
  3
Standard
 70
     0
 71
     0
 40
1.5
 41
1.5
280
     0
281
     0
  7
Standard
140
4.5
170
     2
 62
     0
 63
     7
283
     0
274
    -2
284
     1
 64
     0
275
    -2
285
     1
 65
     0
276
    -2
286
     1
 66
     0
277
    -2
287
     1
 67
     0
278
    -2
288
     1
 68
     0
279
    -2
289
     1
 69
     0
  7
Standard
140
6.0
170
     5
 62
     0
 63
     7
283
     0
274
    -2
284
     1
 64
     0
275
    -2
285
     1
 65
     0
276
    -2
286
     1
 66
     0
277
    -2
287
     1
 67
     0
278
    -2
288
     1
 68
     0
279
    -2
289
     1
 69
     0
  7
Standard
140
4.5
170
     5
 62
     0
 63
     7
283
     0
274
    -2
284
     1
 64
     0
275
    -2
285
     1
 65
     0
276
    -2
286
     1
 66
     0
277
    -2
287
     1
 67
     0
278
    -2
288
     1
 68
     0
279
    -2
289
     1
 69
     0
  0
VISUALSTYLE
  5
F5
102
{ACAD_REACTORS
330
EF
102
}
330
EF
100
AcDbVisualStyle
  2
2dWireframe
 70
     4
 71
     0
 72
     2
 73
     1
 90
        0
 40
-0.6
 41
-30.0
 62
     5
 63
     7
 74
     1
 91
        4
 64
     7
 65
   257
 75
     1
175
     1
 42
1.0
 92
        0
 66
   257
 43
1.0
 76
     1
 77
     6
 78
     2
 67
     7
 79
     5
170
     0
171
     0
290
     0
174
     0
 93
        1
 44
0.0
173
     0
291
     0
 45
0.0
1001
ACAD
1000
AcDbSavedByObjectVersion
1070
     0
  0
VISUALSTYLE
  5
F7
102
{ACAD_REACTORS
330
EF
102
}
330
EF
100
AcDbVisualStyle
  2
3D Hidden
 70
     6
 71
     1
 72
     2
 73
     2
 90
        0
 40
-0.6
 41
-30.0
 62
     5
 63
     7
 74
     2
 91
        2
 64
     7
 65
   257
 75
     2
175
     1
 42
40.0
 92
        0
 66
   257
 43
1.0
 76
     1
 77
     6
 78
     2
 67
     7
 79
     3
170
     0
171
     0
290
     0
174
     0
 93
        1
 44
0.0
173
     0
291
     0
 45
0.0
1001
ACAD
1000
AcDbSavedByObjectVersion
1070
     0
  0
VISUALSTYLE
  5
F6
102
{ACAD_REACTORS
330
EF
102
}
330
EF
100
AcDbVisualStyle
  2
3dWireframe
 70
     5
 71
     0
 72
     2
 73
     1
 90
        0
 40
-0.6
 41
-30.0
 62
     5
 63
     7
 74
     1
 91
        4
 64
     7
 65
   257
 75
     1
175
     1
 42
1.0
 92
        0
 66
   257
 43
1.0
 76
     1
 77
     6
 78
     2
 67
     7
 79
     5
170
     0
171
     0
290
     0
174
     0
 93
        1
 44
0.0
173
     0
291
     0
 45
0.0
1001
ACAD
1000
AcDbSavedByObjectVersion
1070
     0
  0
VISUALSTYLE
  5
F4
102
{ACAD_REACTORS
330
EF
102
}
330
EF
100
AcDbVisualStyle
  2
Basic
 70
     7
 71
     1
 72
     0
 73
     1
 90
        0
 40
-0.6
 41
-30.0
 62
     5
 63
     7
 74
     0
 91
        4
 64
     7
 65
   257
 75
     1
175
     1
 42
1.0
 92
        8
 66
     7
 43
1.0
 76
     1
 77
     6
 78
     2
 67
     7
 79
     5
170
     0
171
     0
290
     0
174
     0
 93
        1
 44
0.0
173
     0
291
     1
 45
0.0
1001
ACAD
1000
AcDbSavedByObjectVersion
1070
     0
  0
VISUALSTYLE
  5
FB
102
{ACAD_REACTORS
330
EF
102
}
330
EF
100
AcDbVisualStyle
  2
Brighten
 70
    12
 71
     2
 72
     2
 73
     1
 90
        0
 40
-0.6
 41
-30.0
 62
     5
 63
     7
 74
     1
 91
        4
 64
     7
 65
   257
 75
     1
175
     1
 42
1.0
 92
        8
 66
     7
 43
1.0
 76
     1
 77
     6
 78
     2
 67
     7
 79
     5
170
     0
171
     0
290
     0
174
     0
 93
        1
 44
50.0
173
     0
291
     1
 45
0.0
1001
ACAD
1000
AcDbSavedByObjectVersion
1070
     0
  0
VISUALSTYLE
  5
FF
102
{ACAD_REACTORS
330
EF
102
}
330
EF
100
AcDbVisualStyle
  2
ColorChange
 70
    16
 71
     2
 72
     2
 73
     3
 90
        0
 40
-0.6
 41
-30.0
 62
     5
 63
     8
 74
     1
 91
        4
 64
     7
 65
   257
 75
     1
175
     1
 42
1.0
 92
        8
 66
     8
 43
1.0
 76
     1
 77
     6
 78
     2
 67
     7
 79
     5
170
     0
171
     0
290
     0
174
     0
 93
        1
 44
0.0
173
     0
291
     1
 45
0.0
1001
ACAD
1000
AcDbSavedByObjectVersion
1070
     0
  0
VISUALSTYLE
  5
F8
102
{ACAD_REACTORS
330
EF
102
}
330
EF
100
AcDbVisualStyle
  2
Conceptual
 70
     9
 71
     3
 72
     2
 73
     1
 90
        0
 40
-0.6
 41
-30.0
 62
     5
 63
     7
 74
     2
 91
        2
 64
     7
 65
   257
 75
     1
175
     1
 42
40.0
 92
        8
 66
     7
 43
1.0
 76
     1
 77
     6
 78
     2
 67
     7
 79
     3
170
     0
171
     0
290
     0
174
     0
 93
        1
 44
0.0
173
     0
291
     0
 45
0.0
1001
ACAD
1000
AcDbSavedByObjectVersion
1070
     0
  0
VISUALSTYLE
  5
FA
102
{ACAD_REACTORS
330
EF
102
}
330
EF
100
AcDbVisualStyle
  2
Dim
 70
    11
 71
     2
 72
     2
 73
     1
 90
        0
 40
-0.6
 41
-30.0
 62
     5
 63
     7
 74
     1
 91
        4
 64
     7
 65
   257
 75
     1
175
     1
 42
1.0
 92
        8
 66
     7
 43
1.0
 76
     1
 77
     6
 78
     2
 67
     7
 79
     5
170
     0
171
     0
290
     0
174
     0
 93
        1
 44
-50.0
173
     0
291
     1
 45
0.0
1001
ACAD
1000
AcDbSavedByObjectVersion
1070
     0
  0
VISUALSTYLE
  5
FE
102
{ACAD_REACTORS
330
EF
102
}
330
EF
100
AcDbVisualStyle
  2
Facepattern
 70
    15
 71
     2
 72
     2
 73
     1
 90
        0
 40
-0.6
 41
-30.0
 62
     5
 63
     7
 74
     1
 91
        4
 64
     7
 65
   257
 75
     1
175
     1
 42
1.0
 92
        8
 66
     7
 43
1.0
 76
     1
 77
     6
 78
     2
 67
     7
 79
     5
170
     0
171
     0
290
     0
174
     0
 93
        1
 44
0.0
173
     0
291
     1
 45
0.0
1001
ACAD
1000
AcDbSavedByObjectVersion
1070
     0
  0
VISUALSTYLE
  5
F0
102
{ACAD_REACTORS
330
EF
102
}
330
EF
100
AcDbVisualStyle
  2
Flat
 70
     0
 71
     2
 72
     1
 73
     1
 90
        2
 40
-0.6
 41
30.0
 62
     5
 63
     7
 74
     0
 91
        4
 64
     7
 65
   257
 75
     1
175
     1
 42
1.0
 92
        8
 66
     7
 43
1.0
 76
     1
 77
     6
 78
     2
 67
     7
 79
     5
170
     0
171
     0
290
     0
174
     0
 93
        1
 44
0.0
173
     0
291
     1
 45
0.0
1001
ACAD
1000
AcDbSavedByObjectVersion
1070
     0
  0
VISUALSTYLE
  5
F1
102
{ACAD_REACTORS
330
EF
102
}
330
EF
100
AcDbVisualStyle
  2
FlatWithEdges
 70
     1
 71
     2
 72
     1
 73
     1
 90
        2
 40
-0.6
 41
30.0
 62
     5
 63
     7
 74
     1
 91
        4
 64
     7
 65
   257
 75
     1
175
     1
 42
1.0
 92
        0
 66
   257
 43
1.0
 76
     1
 77
     6
 78
     2
 67
     7
 79
     5
170
     0
171
     0
290
     0
174
     0
 93
        1
 44
0.0
173
     0
291
     1
 45
0.0
1001
ACAD
1000
AcDbSavedByObjectVersion
1070
     0
  0
VISUALSTYLE
  5
F2
102
{ACAD_REACTORS
330
EF
102
}
330
EF
100
AcDbVisualStyle
  2
Gouraud
 70
     2
 71
     2
 72
     2
 73
     1
 90
        2
 40
-0.6
 41
30.0
 62
     5
 63
     7
 74
     0
 91
        4
 64
     7
 65
   257
 75
     1
175
     1
 42
1.0
 92
        0
 66
     7
 43
1.0
 76
     1
 77
     6
 78
     2
 67
     7
 79
     5
170
     0
171
     0
290
     0
174
     0
 93
        1
 44
0.0
173
     0
291
     1
 45
0.0
1001
ACAD
1000
AcDbSavedByObjectVersion
1070
     0
  0
VISUALSTYLE
  5
F3
102
{ACAD_REACTORS
330
EF
102
}
330
EF
100
AcDbVisualStyle
  2
GouraudWithEdges
 70
     3
 71
     2
 72
     2
 73
     1
 90
        2
 40
-0.6
 41
30.0
 62
     5
 63
     7
 74
     1
 91
        4
 64
     7
 65
   257
 75
     1
175
     1
 42
1.0
 92
        0
 66
   257
 43
1.0
 76
     1
 77
     6
 78
     2
 67
     7
 79
     5
170
     0
171
     0
290
     0
174
     0
 93
        1
 44
0.0
173
     0
291
     1
 45
0.0
1001
ACAD
1000
AcDbSavedByObjectVersion
1070
     0
  0
VISUALSTYLE
  5
FD
102
{ACAD_REACTORS
330
EF
102
}
330
EF
100
AcDbVisualStyle
  2
Linepattern
 70
    14
 71
     2
 72
     2
 73
     1
 90
        0
 40
-0.6
 41
-30.0
 62
     5
 63
     7
 74
     1
 91
        4
 64
     7
 65
   257
 75
     7
175
     7
 42
1.0
 92
        8
 66
     7
 43
1.0
 76
     1
 77
     6
 78
     2
 67
     7
 79
     5
170
     0
171
     0
290
     0
174
     0
 93
        1
 44
0.0
173
     0
291
     1
 45
0.0
1001
ACAD
1000
AcDbSavedByObjectVersion
1070
     0
  0
VISUALSTYLE
  5
F9
102
{ACAD_REACTORS
330
EF
102
}
330
EF
100
AcDbVisualStyle
  2
Realistic
 70
     8
 71
     2
 72
     2
 73
     1
 90
        0
 40
-0.6
 41
-30.0
 62
     5
 63
     7
 74
     1
 91
        0
 64
     7
 65
   257
 75
     1
175
     1
 42
1.0
 92
        8
 66
     8
 43
1.0
 76
     1
 77
     6
 78
     2
 67
     7
 79
     5
170
     0
171
     0
290
     0
174
     0
 93
       13
 44
0.0
173
     0
291
     0
 45
0.0
1001
ACAD
1000
AcDbSavedByObjectVersion
1070
     0
  0
VISUALSTYLE
  5
FC
102
{ACAD_REACTORS
330
EF
102
}
330
EF
100
AcDbVisualStyle
  2
Thicken
 70
    13
 71
     2
 72
     2
 73
     1
 90
        0
 40
-0.6
 41
-30.0
 62
     5
 63
     7
 74
     1
 91
        4
 64
     7
 65
   257
 75
     1
175
     1
 42
1.0
 92
       12
 66
     7
 43
1.0
 76
     1
 77
     6
 78
     2
 67
     7
 79
     5
170
     0
171
     0
290
     0
174
     0
 93
        1
 44
0.0
173
     0
291
     1
 45
0.0
1001
ACAD
1000
AcDbSavedByObjectVersion
1070
     0
  0
DICTIONARYVAR
  5
146
102
{ACAD_REACTORS
330
5E
102
}
330
5E
100
DictionaryVariables
280
     0
  1
1:1
  0
DICTIONARYVAR
  5
145
102
{ACAD_REACTORS
330
5E
102
}
330
5E
100
DictionaryVariables
280
     0
  1
STANDARD
  0
DICTIONARYVAR
  5
84
102
{ACAD_REACTORS
330
5E
102
}
330
5E
100
DictionaryVariables
280
     0
  1
STANDARD
  0
DICTIONARYVAR
  5
5F
102
{ACAD_REACTORS
330
5E
102
}
330
5E
100
DictionaryVariables
280
     0
  1
2
  0
DICTIONARYVAR
  5
63
102
{ACAD_REACTORS
330
5E
102
}
330
5E
100
DictionaryVariables
280
     0
  1
1
  0
DICTIONARYVAR
  5
3BA
102
{ACAD_REACTORS
330
5E
102
}
330
5E
100
DictionaryVariables
280
     0
  1
0
  0
DICTIONARYVAR
  5
3B8
102
{ACAD_REACTORS
330
5E
102
}
330
5E
100
DictionaryVariables
280
     0
  1
2
  0
DICTIONARYVAR
  5
3B7
102
{ACAD_REACTORS
330
5E
102
}
330
5E
100
DictionaryVariables
280
     0
  1
1
  0
DICTIONARYVAR
  5
3BC
102
{ACAD_REACTORS
330
5E
102
}
330
5E
100
DictionaryVariables
280
     0
  1
80.000000
  0
DICTIONARYVAR
  5
3BB
102
{ACAD_REACTORS
330
5E
102
}
330
5E
100
DictionaryVariables
280
     0
  1
5.000000
  0
DICTIONARYVAR
  5
3B9
102
{ACAD_REACTORS
330
5E
102
}
330
5E
100
DictionaryVariables
280
     0
  1
127
  0
DICTIONARY
  5
3C2
330
D3
100
AcDbDictionary
280
     1
281
     1
  3
ACAD_XREC_ROUNDTRIP
360
3C3
  0
DICTIONARY
  5
3C4
330
D7
100
AcDbDictionary
280
     1
281
     1
  3
ACAD_XREC_ROUNDTRIP
360
3C5
  0
DICTIONARY
  5
3BF
330
22
100
AcDbDictionary
280
     1
281
     1
  3
ACAD_XREC_ROUNDTRIP
360
3C0
  0
DICTIONARY
  5
3C8
330
ED
100
AcDbDictionary
280
     1
281
     1
  3
ACAD_XREC_ROUNDTRIP
360
3C9
  0
DICTIONARY
  5
3C6
330
EC
100
AcDbDictionary
280
     1
281
     1
  3
ACAD_XREC_ROUNDTRIP
360
3C7
  0
DICTIONARY
  5
173
330
EE
100
AcDbDictionary
280
     1
281
     1
  3
ACAD_XREC_ROUNDTRIP
360
3CA
  3
BUMPTILE
360
175
  3
DIFFUSETILE
360
174
  3
OPACITYTILE
360
176
  3
REFLECTIONTILE
360
177
  0
DICTIONARY
  5
162
330
7F
100
AcDbDictionary
280
     1
281
     1
  3
ACAD_ROUNDTRIP_2008_TABLESTYLE_CELLSTYLEMAP
360
3BD
  3
ACAD_XREC_ROUNDTRIP
360
3C1
  0
XRECORD
  5
3C3
102
{ACAD_REACTORS
330
3C2
102
}
330
3C2
100
AcDbXrecord
280
     1
102
SHADEPLOT
 70
     0
102
SHADEPLOTRESLEVEL
 70
     2
102
SHADEPLOTCUSTOMDPI
 70
   300
  0
XRECORD
  5
3C5
102
{ACAD_REACTORS
330
3C4
102
}
330
3C4
100
AcDbXrecord
280
     1
102
SHADEPLOT
 70
     0
102
SHADEPLOTRESLEVEL
 70
     2
102
SHADEPLOTCUSTOMDPI
 70
   300
  0
XRECORD
  5
3C0
102
{ACAD_REACTORS
330
3BF
102
}
330
3BF
100
AcDbXrecord
280
     1
102
SHADEPLOT
 70
     0
102
SHADEPLOTRESLEVEL
 70
     2
102
SHADEPLOTCUSTOMDPI
 70
   300
  0
XRECORD
  5
3C9
102
{ACAD_REACTORS
330
3C8
102
}
330
3C8
100
AcDbXrecord
280
     1
102
MATERIAL
148
0.0
149
0.0
149
0.0
 93
        0
 94
       63
282
     0
 72
     1
 77
     1
171
     1
175
     1
179
     1
273
     0
  0
XRECORD
  5
3C7
102
{ACAD_REACTORS
330
3C6
102
}
330
3C6
100
AcDbXrecord
280
     1
102
MATERIAL
148
0.0
149
0.0
149
0.0
 93
        0
 94
       63
282
     0
 72
     1
 77
     1
171
     1
175
     1
179
     1
273
     0
  0
XRECORD
  5
3CA
102
{ACAD_REACTORS
330
173
102
}
330
173
100
AcDbXrecord
280
     1
102
MATERIAL
148
0.0
149
0.0
149
0.0
 93
        0
 94
       63
282
     0
 72
     1
 77
     1
171
     1
175
     1
179
     1
273
     0
  0
XRECORD
  5
175
102
{ACAD_REACTORS
330
173
102
}
330
173
100
AcDbXrecord
280
     1
270
     1
271
     1
  0
XRECORD
  5
174
102
{ACAD_REACTORS
330
173
102
}
330
173
100
AcDbXrecord
280
     1
270
     1
271
     1
  0
XRECORD
  5
176
102
{ACAD_REACTORS
330
173
102
}
330
173
100
AcDbXrecord
280
     1
270
     1
271
     1
  0
XRECORD
  5
177
102
{ACAD_REACTORS
330
173
102
}
330
173
100
AcDbXrecord
280
     1
270
     1
271
     1
  0
CELLSTYLEMAP
  5
3BD
102
{ACAD_REACTORS
330
162
102
}
330
162
100
AcDbCellStyleMap
 90
        3
300
CELLSTYLE
  1
TABLEFORMAT_BEGIN
 90
        5
170
     1
 91
        0
 92
    32768
 62
   257
 93
        1
300
CONTENTFORMAT
  1
CONTENTFORMAT_BEGIN
 90
        0
 91
        0
 92
      512
 93
        0
300

 40
0.0
140
1.0
 94
        5
 62
     0
340
11
144
6.0
309
CONTENTFORMAT_END
171
     1
301
MARGIN
  1
CELLMARGIN_BEGIN
 40
1.5
 40
1.5
 40
1.5
 40
1.5
 40
4.5
 40
4.5
309
CELLMARGIN_END
 94
        6
 95
        1
302
GRIDFORMAT
  1
GRIDFORMAT_BEGIN
 90
        0
 91
        1
 62
     0
 92
       -2
340
14
 93
        0
 40
1.125
309
GRIDFORMAT_END
 95
        2
302
GRIDFORMAT
  1
GRIDFORMAT_BEGIN
 90
        0
 91
        1
 62
     0
 92
       -2
340
14
 93
        0
 40
1.125
309
GRIDFORMAT_END
 95
        4
302
GRIDFORMAT
  1
GRIDFORMAT_BEGIN
 90
        0
 91
        1
 62
     0
 92
       -2
340
14
 93
        0
 40
1.125
309
GRIDFORMAT_END
 95
        8
302
GRIDFORMAT
  1
GRIDFORMAT_BEGIN
 90
        0
 91
        1
 62
     0
 92
       -2
340
14
 93
        0
 40
1.125
309
GRIDFORMAT_END
 95
       16
302
GRIDFORMAT
  1
GRIDFORMAT_BEGIN
 90
        0
 91
        1
 62
     0
 92
       -2
340
14
 93
        0
 40
1.125
309
GRIDFORMAT_END
 95
       32
302
GRIDFORMAT
  1
GRIDFORMAT_BEGIN
 90
        0
 91
        1
 62
     0
 92
       -2
340
14
 93
        0
 40
1.125
309
GRIDFORMAT_END
309
TABLEFORMAT_END
  1
CELLSTYLE_BEGIN
 90
        1
 91
        1
300
_TITLE
309
CELLSTYLE_END
300
CELLSTYLE
  1
TABLEFORMAT_BEGIN
 90
        5
170
     1
 91
        0
 92
        0
 62
   257
 93
        1
300
CONTENTFORMAT
  1
CONTENTFORMAT_BEGIN
 90
        0
 91
        0
 92
      512
 93
        0
300

 40
0.0
140
1.0
 94
        5
 62
     0
340
11
144
4.5
309
CONTENTFORMAT_END
171
     1
301
MARGIN
  1
CELLMARGIN_BEGIN
 40
1.5
 40
1.5
 40
1.5
 40
1.5
 40
4.5
 40
4.5
309
CELLMARGIN_END
 94
        6
 95
        1
302
GRIDFORMAT
  1
GRIDFORMAT_BEGIN
 90
        0
 91
        1
 62
     0
 92
       -2
340
14
 93
        0
 40
1.125
309
GRIDFORMAT_END
 95
        2
302
GRIDFORMAT
  1
GRIDFORMAT_BEGIN
 90
        0
 91
        1
 62
     0
 92
       -2
340
14
 93
        0
 40
1.125
309
GRIDFORMAT_END
 95
        4
302
GRIDFORMAT
  1
GRIDFORMAT_BEGIN
 90
        0
 91
        1
 62
     0
 92
       -2
340
14
 93
        0
 40
1.125
309
GRIDFORMAT_END
 95
        8
302
GRIDFORMAT
  1
GRIDFORMAT_BEGIN
 90
        0
 91
        1
 62
     0
 92
       -2
340
14
 93
        0
 40
1.125
309
GRIDFORMAT_END
 95
       16
302
GRIDFORMAT
  1
GRIDFORMAT_BEGIN
 90
        0
 91
        1
 62
     0
 92
       -2
340
14
 93
        0
 40
1.125
309
GRIDFORMAT_END
 95
       32
302
GRIDFORMAT
  1
GRIDFORMAT_BEGIN
 90
        0
 91
        1
 62
     0
 92
       -2
340
14
 93
        0
 40
1.125
309
GRIDFORMAT_END
309
TABLEFORMAT_END
  1
CELLSTYLE_BEGIN
 90
        2
 91
        1
300
_HEADER
309
CELLSTYLE_END
300
CELLSTYLE
  1
TABLEFORMAT_BEGIN
 90
        5
170
     1
 91
        0
 92
        0
 62
   257
 93
        1
300
CONTENTFORMAT
  1
CONTENTFORMAT_BEGIN
 90
        0
 91
        0
 92
      512
 93
        0
300

 40
0.0
140
1.0
 94
        2
 62
     0
340
11
144
4.5
309
CONTENTFORMAT_END
171
     1
301
MARGIN
  1
CELLMARGIN_BEGIN
 40
1.5
 40
1.5
 40
1.5
 40
1.5
 40
4.5
 40
4.5
309
CELLMARGIN_END
 94
        6
 95
        1
302
GRIDFORMAT
  1
GRIDFORMAT_BEGIN
 90
        0
 91
        1
 62
     0
 92
       -2
340
14
 93
        0
 40
1.125
309
GRIDFORMAT_END
 95
        2
302
GRIDFORMAT
  1
GRIDFORMAT_BEGIN
 90
        0
 91
        1
 62
     0
 92
       -2
340
14
 93
        0
 40
1.125
309
GRIDFORMAT_END
 95
        4
302
GRIDFORMAT
  1
GRIDFORMAT_BEGIN
 90
        0
 91
        1
 62
     0
 92
       -2
340
14
 93
        0
 40
1.125
309
GRIDFORMAT_END
 95
        8
302
GRIDFORMAT
  1
GRIDFORMAT_BEGIN
 90
        0
 91
        1
 62
     0
 92
       -2
340
14
 93
        0
 40
1.125
309
GRIDFORMAT_END
 95
       16
302
GRIDFORMAT
  1
GRIDFORMAT_BEGIN
 90
        0
 91
        1
 62
     0
 92
       -2
340
14
 93
        0
 40
1.125
309
GRIDFORMAT_END
 95
       32
302
GRIDFORMAT
  1
GRIDFORMAT_BEGIN
 90
        0
 91
        1
 62
     0
 92
       -2
340
14
 93
        0
 40
1.125
309
GRIDFORMAT_END
309
TABLEFORMAT_END
  1
CELLSTYLE_BEGIN
 90
        3
 91
        2
300
_DATA
309
CELLSTYLE_END
  0
XRECORD
  5
3C1
102
{ACAD_REACTORS
330
162
102
}
330
162
100
AcDbXrecord
280
     1
102
ACAD_ROUNDTRIP_PRE2007_TABLESTYLE
 90
      512
 91
        0
  1

 92
      512
 93
        0
  2

 94
      512
 95
        0
  3

  0
ENDSEC
  0
EOF
