  0
SECTION
  2
HEADER
  9
$ACADVER
  1
AC1015
  9
$ACADMAINTVER
 70
    20
  9
$DWGCODEPAGE
  3
ANSI_1254
  9
$INSBASE
 10
0.0
 20
0.0
 30
0.0
  9
$EXTMIN
 10
2375.066494507535
 20
915.8343658866897
 30
0.0
  9
$EXTMAX
 10
2597.642435193076
 20
1021.791591503385
 30
0.0
  9
$LIMMIN
 10
0.0
 20
0.0
  9
$LIMMAX
 10
420.0
 20
297.0
  9
$ORTHOMODE
 70
     0
  9
$REGENMODE
 70
     1
  9
$FILLMODE
 70
     1
  9
$QTEXTMODE
 70
     0
  9
$MIRRTEXT
 70
     0
  9
$LTSCALE
 40
1.0
  9
$ATTMODE
 70
     1
  9
$TEXTSIZE
 40
2.5
  9
$TRACEWID
 40
1.0
  9
$TEXTSTYLE
  7
Standard
  9
$CLAYER
  8
0
  9
$CELTYPE
  6
ByLayer
  9
$CECOLOR
 62
   256
  9
$CELTSCALE
 40
1.0
  9
$DISPSILH
 70
     0
  9
$DIMSCALE
 40
1.0
  9
$DIMASZ
 40
2.5
  9
$DIMEXO
 40
0.625
  9
$DIMDLI
 40
3.75
  9
$DIMRND
 40
0.0
  9
$DIMDLE
 40
0.0
  9
$DIMEXE
 40
1.25
  9
$DIMTP
 40
0.0
  9
$DIMTM
 40
0.0
  9
$DIMTXT
 40
2.5
  9
$DIMCEN
 40
2.5
  9
$DIMTSZ
 40
0.0
  9
$DIMTOL
 70
     0
  9
$DIMLIM
 70
     0
  9
$DIMTIH
 70
     0
  9
$DIMTOH
 70
     0
  9
$DIMSE1
 70
     0
  9
$DIMSE2
 70
     0
  9
$DIMTAD
 70
     1
  9
$DIMZIN
 70
     8
  9
$DIMBLK
  1

  9
$DIMASO
 70
     1
  9
$DIMSHO
 70
     1
  9
$DIMPOST
  1

  9
$DIMAPOST
  1

  9
$DIMALT
 70
     0
  9
$DIMALTD
 70
     3
  9
$DIMALTF
 40
0.03937007874016
  9
$DIMLFAC
 40
1.0
  9
$DIMTOFL
 70
     1
  9
$DIMTVP
 40
0.0
  9
$DIMTIX
 70
     0
  9
$DIMSOXD
 70
     0
  9
$DIMSAH
 70
     0
  9
$DIMBLK1
  1

  9
$DIMBLK2
  1

  9
$DIMSTYLE
  2
ISO-25
  9
$DIMCLRD
 70
     0
  9
$DIMCLRE
 70
     0
  9
$DIMCLRT
 70
     0
  9
$DIMTFAC
 40
1.0
  9
$DIMGAP
 40
0.625
  9
$DIMJUST
 70
     0
  9
$DIMSD1
 70
     0
  9
$DIMSD2
 70
     0
  9
$DIMTOLJ
 70
     0
  9
$DIMTZIN
 70
     8
  9
$DIMALTZ
 70
     0
  9
$DIMALTTZ
 70
     0
  9
$DIMUPT
 70
     0
  9
$DIMDEC
 70
     2
  9
$DIMTDEC
 70
     2
  9
$DIMALTU
 70
     2
  9
$DIMALTTD
 70
     3
  9
$DIMTXSTY
  7
Standard
  9
$DIMAUNIT
 70
     0
  9
$DIMADEC
 70
     0
  9
$DIMALTRND
 40
0.0
  9
$DIMAZIN
 70
     0
  9
$DIMDSEP
 70
    44
  9
$DIMATFIT
 70
     3
  9
$DIMFRAC
 70
     0
  9
$DIMLDRBLK
  1

  9
$DIMLUNIT
 70
     2
  9
$DIMLWD
 70
    -2
  9
$DIMLWE
 70
    -2
  9
$DIMTMOVE
 70
     0
  9
$LUNITS
 70
     2
  9
$LUPREC
 70
     4
  9
$SKETCHINC
 40
1.0
  9
$FILLETRAD
 40
0.0
  9
$AUNITS
 70
     0
  9
$AUPREC
 70
     0
  9
$MENU
  1
.
  9
$ELEVATION
 40
0.0
  9
$PELEVATION
 40
0.0
  9
$THICKNESS
 40
0.0
  9
$LIMCHECK
 70
     0
  9
$CHAMFERA
 40
0.0
  9
$CHAMFERB
 40
0.0
  9
$CHAMFERC
 40
0.0
  9
$CHAMFERD
 40
0.0
  9
$SKPOLY
 70
     0
  9
$TDCREATE
 40
2458557.452155208
  9
$TDUCREATE
 40
2458557.327155209
  9
$TDUPDATE
 40
2459067.665162419
  9
$TDUUPDATE
 40
2459067.540162419
  9
$TDINDWG
 40
0.0003012153
  9
$TDUSRTIMER
 40
0.0003012153
  9
$USRTIMER
 70
     1
  9
$ANGBASE
 50
0.0
  9
$ANGDIR
 70
     0
  9
$PDMODE
 70
     0
  9
$PDSIZE
 40
0.0
  9
$PLINEWID
 40
0.0
  9
$SPLFRAME
 70
     0
  9
$SPLINETYPE
 70
     6
  9
$SPLINESEGS
 70
     8
  9
$HANDSEED
  5
360
  9
$SURFTAB1
 70
     6
  9
$SURFTAB2
 70
     6
  9
$SURFTYPE
 70
     6
  9
$SURFU
 70
     6
  9
$SURFV
 70
     6
  9
$UCSBASE
  2

  9
$UCSNAME
  2

  9
$UCSORG
 10
0.0
 20
0.0
 30
0.0
  9
$UCSXDIR
 10
1.0
 20
0.0
 30
0.0
  9
$UCSYDIR
 10
0.0
 20
1.0
 30
0.0
  9
$UCSORTHOREF
  2

  9
$UCSORTHOVIEW
 70
     0
  9
$UCSORGTOP
 10
0.0
 20
0.0
 30
0.0
  9
$UCSORGBOTTOM
 10
0.0
 20
0.0
 30
0.0
  9
$UCSORGLEFT
 10
0.0
 20
0.0
 30
0.0
  9
$UCSORGRIGHT
 10
0.0
 20
0.0
 30
0.0
  9
$UCSORGFRONT
 10
0.0
 20
0.0
 30
0.0
  9
$UCSORGBACK
 10
0.0
 20
0.0
 30
0.0
  9
$PUCSBASE
  2

  9
$PUCSNAME
  2

  9
$PUCSORG
 10
0.0
 20
0.0
 30
0.0
  9
$PUCSXDIR
 10
1.0
 20
0.0
 30
0.0
  9
$PUCSYDIR
 10
0.0
 20
1.0
 30
0.0
  9
$PUCSORTHOREF
  2

  9
$PUCSORTHOVIEW
 70
     0
  9
$PUCSORGTOP
 10
0.0
 20
0.0
 30
0.0
  9
$PUCSORGBOTTOM
 10
0.0
 20
0.0
 30
0.0
  9
$PUCSORGLEFT
 10
0.0
 20
0.0
 30
0.0
  9
$PUCSORGRIGHT
 10
0.0
 20
0.0
 30
0.0
  9
$PUCSORGFRONT
 10
0.0
 20
0.0
 30
0.0
  9
$PUCSORGBACK
 10
0.0
 20
0.0
 30
0.0
  9
$USERI1
 70
     0
  9
$USERI2
 70
     0
  9
$USERI3
 70
     0
  9
$USERI4
 70
     0
  9
$USERI5
 70
     0
  9
$USERR1
 40
0.0
  9
$USERR2
 40
0.0
  9
$USERR3
 40
0.0
  9
$USERR4
 40
0.0
  9
$USERR5
 40
0.0
  9
$WORLDVIEW
 70
     1
  9
$SHADEDGE
 70
     3
  9
$SHADEDIF
 70
    70
  9
$TILEMODE
 70
     1
  9
$MAXACTVP
 70
    64
  9
$PINSBASE
 10
0.0
 20
0.0
 30
0.0
  9
$PLIMCHECK
 70
     0
  9
$PEXTMIN
 10
0.0
 20
0.0
 30
0.0
  9
$PEXTMAX
 10
0.0
 20
0.0
 30
0.0
  9
$PLIMMIN
 10
0.0
 20
0.0
  9
$PLIMMAX
 10
12.0
 20
9.0
  9
$UNITMODE
 70
     0
  9
$VISRETAIN
 70
     1
  9
$PLINEGEN
 70
     0
  9
$PSLTSCALE
 70
     1
  9
$TREEDEPTH
 70
  3020
  9
$CMLSTYLE
  2
Standard
  9
$CMLJUST
 70
     0
  9
$CMLSCALE
 40
20.0
  9
$PROXYGRAPHICS
 70
     1
  9
$MEASUREMENT
 70
     1
  9
$CELWEIGHT
370
    -1
  9
$ENDCAPS
280
     0
  9
$JOINSTYLE
280
     0
  9
$LWDISPLAY
290
     0
  9
$INSUNITS
 70
     4
  9
$HYPERLINKBASE
  1

  9
$STYLESHEET
  1

  9
$XEDIT
290
     1
  9
$CEPSNTYPE
380
     0
  9
$PSTYLEMODE
290
     1
  9
$FINGERPRINTGUID
  2
{5C7AE935-7F21-4F6B-8E8B-B1B5CC76F6C0}
  9
$VERSIONGUID
  2
{0D14AF87-91FC-454D-8D73-815309DFAD09}
  9
$EXTNAMES
290
     1
  9
$PSVPSCALE
 40
0.0
  9
$OLESTARTUP
290
     0
  0
ENDSEC
  0
SECTION
  2
CLASSES
  0
CLASS
  1
ACDBDICTIONARYWDFLT
  2
AcDbDictionaryWithDefault
  3
ObjectDBX Classes
 90
        0
280
     0
281
     0
  0
CLASS
  1
ACDBPLACEHOLDER
  2
AcDbPlaceHolder
  3
ObjectDBX Classes
 90
        0
280
     0
281
     0
  0
CLASS
  1
LAYOUT
  2
AcDbLayout
  3
ObjectDBX Classes
 90
        0
280
     0
281
     0
  0
CLASS
  1
DICTIONARYVAR
  2
AcDbDictionaryVar
  3
ObjectDBX Classes
 90
        0
280
     0
281
     0
  0
CLASS
  1
TABLESTYLE
  2
AcDbTableStyle
  3
ObjectDBX Classes
 90
     4095
280
     0
281
     0
  0
CLASS
  1
MATERIAL
  2
AcDbMaterial
  3
ObjectDBX Classes
 90
     1153
280
     0
281
     0
  0
CLASS
  1
VISUALSTYLE
  2
AcDbVisualStyle
  3
ObjectDBX Classes
 90
     4095
280
     0
281
     0
  0
CLASS
  1
SCALE
  2
AcDbScale
  3
ObjectDBX Classes
 90
     1153
280
     0
281
     0
  0
CLASS
  1
MLEADERSTYLE
  2
AcDbMLeaderStyle
  3
ACDB_MLEADERSTYLE_CLASS
 90
     4095
280
     0
281
     0
  0
CLASS
  1
CELLSTYLEMAP
  2
AcDbCellStyleMap
  3
ObjectDBX Classes
 90
     1152
280
     0
281
     0
  0
ENDSEC
  0
SECTION
  2
TABLES
  0
TABLE
  2
VPORT
  5
8
330
0
100
AcDbSymbolTable
 70
     1
  0
VPORT
  5
EA
330
8
100
AcDbSymbolTableRecord
100
AcDbViewportTableRecord
  2
*Active
 70
     0
 10
0.0
 20
0.0
 11
1.0
 21
1.0
 12
2518.923448916201
 22
976.2349571140978
 13
0.0
 23
0.0
 14
10.0
 24
10.0
 15
10.0
 25
10.0
 16
0.0
 26
0.0
 36
1.0
 17
0.0
 27
0.0
 37
0.0
 40
200.9093630130051
 41
1.903110047846889
 42
50.0
 43
0.0
 44
0.0
 50
0.0
 51
0.0
 71
     0
 72
  1000
 73
     1
 74
     3
 75
     0
 76
     0
 77
     0
 78
     0
281
     0
 65
     1
110
0.0
120
0.0
130
0.0
111
1.0
121
0.0
131
0.0
112
0.0
122
1.0
132
0.0
 79
     0
146
0.0
  0
ENDTAB
  0
TABLE
  2
LTYPE
  5
5
330
0
100
AcDbSymbolTable
 70
     1
  0
LTYPE
  5
14
330
5
100
AcDbSymbolTableRecord
100
AcDbLinetypeTableRecord
  2
ByBlock
 70
     0
  3

 72
    65
 73
     0
 40
0.0
  0
LTYPE
  5
15
330
5
100
AcDbSymbolTableRecord
100
AcDbLinetypeTableRecord
  2
ByLayer
 70
     0
  3

 72
    65
 73
     0
 40
0.0
  0
LTYPE
  5
16
330
5
100
AcDbSymbolTableRecord
100
AcDbLinetypeTableRecord
  2
Continuous
 70
     0
  3
Solid line
 72
    65
 73
     0
 40
0.0
  0
ENDTAB
  0
TABLE
  2
LAYER
  5
2
330
0
100
AcDbSymbolTable
 70
     1
  0
LAYER
  5
10
102
{ACAD_XDICTIONARY
360
13C
102
}
330
2
100
AcDbSymbolTableRecord
100
AcDbLayerTableRecord
  2
0
 70
     0
 62
     7
  6
Continuous
370
    -3
390
F
  0
ENDTAB
  0
TABLE
  2
STYLE
  5
3
330
0
100
AcDbSymbolTable
 70
     2
  0
STYLE
  5
11
330
3
100
AcDbSymbolTableRecord
100
AcDbTextStyleTableRecord
  2
Standard
 70
     0
 40
0.0
 41
1.0
 50
0.0
 71
     0
 42
2.5
  3
txt
  4

  0
STYLE
  5
132
330
3
100
AcDbSymbolTableRecord
100
AcDbTextStyleTableRecord
  2
Annotative
 70
     0
 40
0.0
 41
1.0
 50
0.0
 71
     0
 42
2.5
  3
txt.shx
  4

1001
AcadAnnotative
1000
AnnotativeData
1002
{
1070
     1
1070
     1
1002
}
  0
ENDTAB
  0
TABLE
  2
VIEW
  5
6
330
0
100
AcDbSymbolTable
 70
     0
  0
ENDTAB
  0
TABLE
  2
UCS
  5
7
330
0
100
AcDbSymbolTable
 70
     0
  0
ENDTAB
  0
TABLE
  2
APPID
  5
9
330
0
100
AcDbSymbolTable
 70
     7
  0
APPID
  5
12
330
9
100
AcDbSymbolTableRecord
100
AcDbRegAppTableRecord
  2
ACAD
 70
     0
  0
APPID
  5
9E
330
9
100
AcDbSymbolTableRecord
100
AcDbRegAppTableRecord
  2
ACAD_PSEXT
 70
     0
  0
APPID
  5
133
330
9
100
AcDbSymbolTableRecord
100
AcDbRegAppTableRecord
  2
AcadAnnoPO
 70
     0
  0
APPID
  5
134
330
9
100
AcDbSymbolTableRecord
100
AcDbRegAppTableRecord
  2
AcadAnnotative
 70
     0
  0
APPID
  5
135
330
9
100
AcDbSymbolTableRecord
100
AcDbRegAppTableRecord
  2
ACAD_DSTYLE_DIMJAG
 70
     0
  0
APPID
  5
136
330
9
100
AcDbSymbolTableRecord
100
AcDbRegAppTableRecord
  2
ACAD_DSTYLE_DIMTALN
 70
     0
  0
APPID
  5
165
330
9
100
AcDbSymbolTableRecord
100
AcDbRegAppTableRecord
  2
ACAD_MLEADERVER
 70
     0
  0
ENDTAB
  0
TABLE
  2
DIMSTYLE
  5
A
330
0
100
AcDbSymbolTable
 70
     2
100
AcDbDimStyleTable
 71
     2
340
27
340
137
  0
DIMSTYLE
105
27
330
A
100
AcDbSymbolTableRecord
100
AcDbDimStyleTableRecord
  2
ISO-25
 70
     0
 41
2.5
 42
0.625
 43
3.75
 44
1.25
 73
     0
 74
     0
 77
     1
 78
     8
140
2.5
141
2.5
143
0.03937007874016
147
0.625
171
     3
172
     1
271
     2
272
     2
274
     3
278
    44
283
     0
284
     8
340
11
  0
DIMSTYLE
105
137
330
A
100
AcDbSymbolTableRecord
100
AcDbDimStyleTableRecord
  2
Annotative
 70
     0
 40
0.0
 41
2.5
 42
0.625
 43
3.75
 44
1.25
 73
     0
 74
     0
 77
     1
 78
     8
140
2.5
141
2.5
143
0.03937007874016
147
0.625
171
     3
172
     1
271
     2
272
     2
274
     3
278
    44
283
     0
284
     8
340
11
1001
AcadAnnotative
1000
AnnotativeData
1002
{
1070
     1
1070
     1
1002
}
1001
ACAD_DSTYLE_DIMJAG
1070
   388
1040
1.5
1001
ACAD_DSTYLE_DIMTALN
1070
   392
1070
     0
  0
ENDTAB
  0
TABLE
  2
BLOCK_RECORD
  5
1
330
0
100
AcDbSymbolTable
 70
     6
  0
BLOCK_RECORD
  5
1F
330
1
100
AcDbSymbolTableRecord
100
AcDbBlockTableRecord
  2
*Model_Space
340
22
  0
BLOCK_RECORD
  5
D2
330
1
100
AcDbSymbolTableRecord
100
AcDbBlockTableRecord
  2
*Paper_Space
340
D3
  0
BLOCK_RECORD
  5
D6
330
1
100
AcDbSymbolTableRecord
100
AcDbBlockTableRecord
  2
*Paper_Space0
340
D7
  0
BLOCK_RECORD
  5
1AD
330
1
100
AcDbSymbolTableRecord
100
AcDbBlockTableRecord
  2
SW_CENTERMARKSYMBOL_0
340
0
102
{BLKREFS
331
2D7
102
}
  0
BLOCK_RECORD
  5
2B8
330
1
100
AcDbSymbolTableRecord
100
AcDbBlockTableRecord
  2
1
340
0
310
2800000020000000200000000100080000000000000400000000000000000000000000000000000000000000000080000080000000808000800000008000800080800000C0C0C000C0DCC000F0CAA6000020400000206000002080000020A0000020C0000020E00000400000004020000040400000406000004080000040A0
310
000040C0000040E00000600000006020000060400000606000006080000060A0000060C0000060E00000800000008020000080400000806000008080000080A0000080C0000080E00000A0000000A0200000A0400000A0600000A0800000A0A00000A0C00000A0E00000C0000000C0200000C0400000C0600000C0800000C0
310
A00000C0C00000C0E00000E0000000E0200000E0400000E0600000E0800000E0A00000E0C00000E0E00040000000400020004000400040006000400080004000A0004000C0004000E00040200000402020004020400040206000402080004020A0004020C0004020E000404000004040200040404000404060004040800040
310
40A0004040C0004040E00040600000406020004060400040606000406080004060A0004060C0004060E00040800000408020004080400040806000408080004080A0004080C0004080E00040A0000040A0200040A0400040A0600040A0800040A0A00040A0C00040A0E00040C0000040C0200040C0400040C0600040C08000
310
40C0A00040C0C00040C0E00040E0000040E0200040E0400040E0600040E0800040E0A00040E0C00040E0E00080000000800020008000400080006000800080008000A0008000C0008000E00080200000802020008020400080206000802080008020A0008020C0008020E00080400000804020008040400080406000804080
310
008040A0008040C0008040E00080600000806020008060400080606000806080008060A0008060C0008060E00080800000808020008080400080806000808080008080A0008080C0008080E00080A0000080A0200080A0400080A0600080A0800080A0A00080A0C00080A0E00080C0000080C0200080C0400080C0600080C0
310
800080C0A00080C0C00080C0E00080E0000080E0200080E0400080E0600080E0800080E0A00080E0C00080E0E000C0000000C0002000C0004000C0006000C0008000C000A000C000C000C000E000C0200000C0202000C0204000C0206000C0208000C020A000C020C000C020E000C0400000C0402000C0404000C0406000C0
310
408000C040A000C040C000C040E000C0600000C0602000C0604000C0606000C0608000C060A000C060C000C060E000C0800000C0802000C0804000C0806000C0808000C080A000C080C000C080E000C0A00000C0A02000C0A04000C0A06000C0A08000C0A0A000C0A0C000C0A0E000C0C00000C0C02000C0C04000C0C06000
310
C0C08000C0C0A000F0FBFF00A4A0A000808080000000FF0000FF000000FFFF00FF000000FF00FF00FFFF0000FFFFFF00000000000000000000000000000000000000000000000000000000000000000000000000000000000000000000000000FF000000000000000000000000000000000000000000000000000000000000
310
00FF00000000000000000000000000000000000000000000000000FFFFFFFFFFFFFFFFFFFFFFFF00000000000000000000000000000000000000FF000000000000FF0000000000FF0000000000000000000000000000000000FF0000000000FFFFFFFF0000000000FF000000000000000000000000000000FF000000FFFFFF
310
FFFFFFFFFFFFFF000000FF0000000000000000000000000000FF00FFFFFF00000000FF000000FFFF0000FF00000000000000000000000000FF00FFFFFF0000000000FF00000000FFFFA400FF0000000000000000000000FF00FFFF00000000000000FF000000000000FF0000FF00000000000000000000FF00FFA400000000
310
000000FF000000000000FFFF00FF000000000000000000FF00FFFF0000000000000000FF00000000000000FFFF00FF00000000000000FF0000FF000000000000000000FF0000000000000000FF0000FF000000000000FF0000FF000000000000000000FF0000000000000000FF0000FF0000000000FF000000FF0000000000
310
00000000FF0000000000000000FF000000FF00000000FF000000FF000000000000000000FF0000000000000000FFFF0000FF000000FFFFFFFFFFFFFFFFFFFFFFFFFFFFFFFFFFFFFFFFFFFFFFFFFFFFFFFFFFFF000000FF000000FF000000000000000000FF0000000000000000FF000000FF0000000000FF0000FF00000000
310
0000000000FF0000000000000000FF0000FF000000000000FF0000FF000000000000000000FF00000000000000FFFF0000FF00000000000000FF00FFFF0000000000000000FF00000000000000FFFF00FF000000000000000000FF00FFFF00000000000000FF000000000000FFFF00FF00000000000000000000FF0000FF00
310
000000000000FF000000000000FF0000FF0000000000000000000000FF00FFFFFF0000000000FF00000000A4FF0000FF00000000000000000000000000FF0000FFFF00000000FF000000FFFFFF00FF0000000000000000000000000000FF000000A4FFFFFFFFFFFFFFFFFF000000FF000000000000000000000000000000FF
310
00000000FFFFFFFF000000000000FF0000000000000000000000000000000000FF000000000000FF0000000000FF00000000000000000000000000000000000000FFFFFFFFFFFFFFFFFFFFFFFF0000000000000000000000000000000000000000000000000000FF0000000000000000000000000000000000000000000000
310
0000000000000000FF0000000000000000000000000000000000000000000000000000000000000000000000000000000000000000000000
102
{BLKREFS
331
2D8
102
}
1001
ACAD
1000
DesignCenter Data
1002
{
1070
     1
1070
     4
1002
}
  0
BLOCK_RECORD
  5
2D9
330
1
100
AcDbSymbolTableRecord
100
AcDbBlockTableRecord
  2
2
340
0
310
2800000020000000200000000100080000000000000400000000000000000000000000000000000000000000000080000080000000808000800000008000800080800000C0C0C000C0DCC000F0CAA6000020400000206000002080000020A0000020C0000020E00000400000004020000040400000406000004080000040A0
310
000040C0000040E00000600000006020000060400000606000006080000060A0000060C0000060E00000800000008020000080400000806000008080000080A0000080C0000080E00000A0000000A0200000A0400000A0600000A0800000A0A00000A0C00000A0E00000C0000000C0200000C0400000C0600000C0800000C0
310
A00000C0C00000C0E00000E0000000E0200000E0400000E0600000E0800000E0A00000E0C00000E0E00040000000400020004000400040006000400080004000A0004000C0004000E00040200000402020004020400040206000402080004020A0004020C0004020E000404000004040200040404000404060004040800040
310
40A0004040C0004040E00040600000406020004060400040606000406080004060A0004060C0004060E00040800000408020004080400040806000408080004080A0004080C0004080E00040A0000040A0200040A0400040A0600040A0800040A0A00040A0C00040A0E00040C0000040C0200040C0400040C0600040C08000
310
40C0A00040C0C00040C0E00040E0000040E0200040E0400040E0600040E0800040E0A00040E0C00040E0E00080000000800020008000400080006000800080008000A0008000C0008000E00080200000802020008020400080206000802080008020A0008020C0008020E00080400000804020008040400080406000804080
310
008040A0008040C0008040E00080600000806020008060400080606000806080008060A0008060C0008060E00080800000808020008080400080806000808080008080A0008080C0008080E00080A0000080A0200080A0400080A0600080A0800080A0A00080A0C00080A0E00080C0000080C0200080C0400080C0600080C0
310
800080C0A00080C0C00080C0E00080E0000080E0200080E0400080E0600080E0800080E0A00080E0C00080E0E000C0000000C0002000C0004000C0006000C0008000C000A000C000C000C000E000C0200000C0202000C0204000C0206000C0208000C020A000C020C000C020E000C0400000C0402000C0404000C0406000C0
310
408000C040A000C040C000C040E000C0600000C0602000C0604000C0606000C0608000C060A000C060C000C060E000C0800000C0802000C0804000C0806000C0808000C080A000C080C000C080E000C0A00000C0A02000C0A04000C0A06000C0A08000C0A0A000C0A0C000C0A0E000C0C00000C0C02000C0C04000C0C06000
310
C0C08000C0C0A000F0FBFF00A4A0A000808080000000FF0000FF000000FFFF00FF000000FF00FF00FFFF0000FFFFFF00000000000000000000000000000000000000000000000000000000000000000000000000000000000000000000000000FFFF0000000000000000000000000000000000000000000000000000000000
310
00FFFF00000000000000000000000000000000000000000000000000000000FFFFFFFF00000000000000000000000000000000000000000000000000000000FFFFFFFF00000000000000000000000000000000000000000000000000000000FF00FFFF00000000000000000000000000000000000000000000000000000000
310
FF00FFFF00000000000000000000000000000000000000000000000000000000FF00FFFF00000000000000000000000000000000000000000000000000000000FF00FFFF00000000000000000000000000000000000000000000000000000000FF00FFFF000000000000000000000000000000000000000000000000000000
310
00FF00FFFF00000000000000000000000000000000000000000000000000000000FF00FFFF00000000000000000000000000000000000000000000000000000000FF00FFFF00000000000000000000000000000000000000000000000000000000FF00FFFF0000000000000000000000000000000000000000000000000000
310
0000FFFFFFFF00000000000000000000000000000000000000000000000000000000FF0000FF00000000000000000000000000000000000000000000000000000000FF0000FF00000000000000000000000000000000000000000000000000000000FFFFFFFF00000000000000000000000000000000000000000000000000
310
000000FF00FFFF00000000000000000000000000000000000000000000000000000000FF00FFFF00000000000000000000000000000000000000000000000000000000FF00FFFF00000000000000000000000000000000000000000000000000000000FF00FFFF000000000000000000000000000000000000000000000000
310
00000000FF00FFFF00000000000000000000000000000000000000000000000000000000FF00FFFF00000000000000000000000000000000000000000000000000000000FF00FFFF00000000000000000000000000000000000000000000000000000000FF00FFFF0000000000000000000000000000000000000000000000
310
0000000000FF00FFFF00000000000000000000000000000000000000000000000000000000FFFFFFFF00000000000000000000000000000000000000000000000000000000FFFFFFFF000000000000000000000000000000000000000000000000000000000000FFFF00000000000000000000000000000000000000000000
310
0000000000000000FFFF00000000000000000000000000000000000000000000000000000000000000000000000000000000000000000000
102
{BLKREFS
331
2EE
102
}
1001
ACAD
1000
DesignCenter Data
1002
{
1070
     1
1070
     4
1002
}
  0
BLOCK_RECORD
  5
2EF
330
1
100
AcDbSymbolTableRecord
100
AcDbBlockTableRecord
  2
3
340
0
310
2800000020000000200000000100080000000000000400000000000000000000000000000000000000000000000080000080000000808000800000008000800080800000C0C0C000C0DCC000F0CAA6000020400000206000002080000020A0000020C0000020E00000400000004020000040400000406000004080000040A0
310
000040C0000040E00000600000006020000060400000606000006080000060A0000060C0000060E00000800000008020000080400000806000008080000080A0000080C0000080E00000A0000000A0200000A0400000A0600000A0800000A0A00000A0C00000A0E00000C0000000C0200000C0400000C0600000C0800000C0
310
A00000C0C00000C0E00000E0000000E0200000E0400000E0600000E0800000E0A00000E0C00000E0E00040000000400020004000400040006000400080004000A0004000C0004000E00040200000402020004020400040206000402080004020A0004020C0004020E000404000004040200040404000404060004040800040
310
40A0004040C0004040E00040600000406020004060400040606000406080004060A0004060C0004060E00040800000408020004080400040806000408080004080A0004080C0004080E00040A0000040A0200040A0400040A0600040A0800040A0A00040A0C00040A0E00040C0000040C0200040C0400040C0600040C08000
310
40C0A00040C0C00040C0E00040E0000040E0200040E0400040E0600040E0800040E0A00040E0C00040E0E00080000000800020008000400080006000800080008000A0008000C0008000E00080200000802020008020400080206000802080008020A0008020C0008020E00080400000804020008040400080406000804080
310
008040A0008040C0008040E00080600000806020008060400080606000806080008060A0008060C0008060E00080800000808020008080400080806000808080008080A0008080C0008080E00080A0000080A0200080A0400080A0600080A0800080A0A00080A0C00080A0E00080C0000080C0200080C0400080C0600080C0
310
800080C0A00080C0C00080C0E00080E0000080E0200080E0400080E0600080E0800080E0A00080E0C00080E0E000C0000000C0002000C0004000C0006000C0008000C000A000C000C000C000E000C0200000C0202000C0204000C0206000C0208000C020A000C020C000C020E000C0400000C0402000C0404000C0406000C0
310
408000C040A000C040C000C040E000C0600000C0602000C0604000C0606000C0608000C060A000C060C000C060E000C0800000C0802000C0804000C0806000C0808000C080A000C080C000C080E000C0A00000C0A02000C0A04000C0A06000C0A08000C0A0A000C0A0C000C0A0E000C0C00000C0C02000C0C04000C0C06000
310
C0C08000C0C0A000F0FBFF00A4A0A000808080000000FF0000FF000000FFFF00FF000000FF00FF00FFFF0000FFFFFF0000000000000000000000000000000000000000000000000000000000000000000000000000000000000000000000000000000000000000000000000000000000000000000000000000000000000000
310
00000000000000000000000000000000000000000000000000000000000000000000000000000000000000000000000000000000000000000000000000000000000000000000000000000000000000000000000000000000000000000000000000000000000000000000000000000000000000000000000000000000000000
310
00000000000000000000000000000000000000000000000000000000000000000000000000000000000000000000000000000000000000000000000000000000000000000000000000000000000000000000000000000000000000000000000000000000000000000000000000000000000000000000000000000000000000
310
0000000000000000000000000000000000000000000000000000000000000000000000000000000000000000000000000000000000000000000000000000000000000000000000000000000000000000000000000000000000000000000000000000000000000000000000000000000000000000FFFFFFFFFFFFFFFFFFFFFF
310
FFFFFFFFFFFFFFFFFFFFFFFFFFFFFFFFFFFFFF0000FF0000000000FF0000FF00000000000000000000FF0000FF0000000000FF0000FFFFFFFFFFFFFF0000FFFFFFFFFFFFFFFFFFFFFFFF0000FFFFFFFFFFFFFF0000FFFFFFFFFFFFFFFFFFFFFFFFFFFFFFFFFFFFFFFFFFFFFFFFFFFFFFFFFFFF000000000000000000000000
310
00000000000000000000000000000000000000000000000000000000000000000000000000000000000000000000000000000000000000000000000000000000000000000000000000000000000000000000000000000000000000000000000000000000000000000000000000000000000000000000000000000000000000
310
00000000000000000000000000000000000000000000000000000000000000000000000000000000000000000000000000000000000000000000000000000000000000000000000000000000000000000000000000000000000000000000000000000000000000000000000000000000000000000000000000000000000000
310
00000000000000000000000000000000000000000000000000000000000000000000000000000000000000000000000000000000000000000000000000000000000000000000000000000000000000000000000000000000000000000000000000000000000000000000000000000000000000000000000000000000000000
310
0000000000000000000000000000000000000000000000000000000000000000000000000000000000000000000000000000000000000000
102
{BLKREFS
331
306
102
}
1001
ACAD
1000
DesignCenter Data
1002
{
1070
     1
1070
     4
1002
}
  0
BLOCK_RECORD
  5
307
330
1
100
AcDbSymbolTableRecord
100
AcDbBlockTableRecord
  2
4
340
0
310
2800000020000000200000000100080000000000000400000000000000000000000000000000000000000000000080000080000000808000800000008000800080800000C0C0C000C0DCC000F0CAA6000020400000206000002080000020A0000020C0000020E00000400000004020000040400000406000004080000040A0
310
000040C0000040E00000600000006020000060400000606000006080000060A0000060C0000060E00000800000008020000080400000806000008080000080A0000080C0000080E00000A0000000A0200000A0400000A0600000A0800000A0A00000A0C00000A0E00000C0000000C0200000C0400000C0600000C0800000C0
310
A00000C0C00000C0E00000E0000000E0200000E0400000E0600000E0800000E0A00000E0C00000E0E00040000000400020004000400040006000400080004000A0004000C0004000E00040200000402020004020400040206000402080004020A0004020C0004020E000404000004040200040404000404060004040800040
310
40A0004040C0004040E00040600000406020004060400040606000406080004060A0004060C0004060E00040800000408020004080400040806000408080004080A0004080C0004080E00040A0000040A0200040A0400040A0600040A0800040A0A00040A0C00040A0E00040C0000040C0200040C0400040C0600040C08000
310
40C0A00040C0C00040C0E00040E0000040E0200040E0400040E0600040E0800040E0A00040E0C00040E0E00080000000800020008000400080006000800080008000A0008000C0008000E00080200000802020008020400080206000802080008020A0008020C0008020E00080400000804020008040400080406000804080
310
008040A0008040C0008040E00080600000806020008060400080606000806080008060A0008060C0008060E00080800000808020008080400080806000808080008080A0008080C0008080E00080A0000080A0200080A0400080A0600080A0800080A0A00080A0C00080A0E00080C0000080C0200080C0400080C0600080C0
310
800080C0A00080C0C00080C0E00080E0000080E0200080E0400080E0600080E0800080E0A00080E0C00080E0E000C0000000C0002000C0004000C0006000C0008000C000A000C000C000C000E000C0200000C0202000C0204000C0206000C0208000C020A000C020C000C020E000C0400000C0402000C0404000C0406000C0
310
408000C040A000C040C000C040E000C0600000C0602000C0604000C0606000C0608000C060A000C060C000C060E000C0800000C0802000C0804000C0806000C0808000C080A000C080C000C080E000C0A00000C0A02000C0A04000C0A06000C0A08000C0A0A000C0A0C000C0A0E000C0C00000C0C02000C0C04000C0C06000
310
C0C08000C0C0A000F0FBFF00A4A0A000808080000000FF0000FF000000FFFF00FF000000FF00FF00FFFF0000FFFFFF0000000000000000000000000000000000000000000000000000000000000000000000000000000000000000000000000000000000000000000000000000000000000000000000000000000000000000
310
00000000000000000000000000000000000000000000000000000000000000000000000000000000000000000000000000000000000000000000000000000000000000000000000000000000000000000000000000000000000000000000000000000000000000000000000000000000000000000000000000000000000000
310
0000000000000000000000000000000000000000000000000000000000000000000000000000000000000000000000000000000000000000000000FFFFFFFFFFFFFFFFFFFFFFFFFFFFFF0000000000000000000000000000FFFFFFFFFFFFFFFFFFFFFFFFFFFFFFFF00FFFFFF00000000000000000000FFFFFFFF00FF000000
310
0000000000000000FF00FFFFFFFFFF00000000000000FFFFFFFFFF00FFFFFFFFFFFFFFFFFFFFFFFFFFFFFFFFFFFFFFFF0000000000FFFFFFFF00FFFF00FFFFFFFFFFFFFFFFFFFFFFFF0000FF00FFFFFFFF00000000FFFFFF00FFFFFFFF0000000000000000000000FFFFFFFFFFFFFFFFFF000000FFFF0000FFFFFF00000000
310
000000000000000000000000FFFF00FF00FFFF0000FF00FFFFFFFF000000000000000000000000000000000000FFFF00FFFFFF0000FFFF0000FFFF000000000000000000000000000000000000FFFF0000FFFF0000FF000000FFFF0000000000000000000000000000000000FFFFFF000000FF000000FF0000FFFFFFFF0000
310
0000000000000000000000FFFFFFFFFF0000FF0000000000FF00FFFFFFFFFFFFFF00000000000000FFFFFFFFFFFFFFFFFFFF00000000000000FF00FFFFFFFFFFFFFFFFFFFFFFFFFFFFFFFFFFFFFFFFFF00000000000000000000FFFFFFFFFFFFFFFFFFFFFFFFFFFFFFFFFFFFFF00FF00000000000000000000000000FF0000
310
FFFFFFFFFFFFFFFFFFFFFFFF0000FF000000000000000000000000000000FFFFFFFFFFFFFFFFFFFFFFFFFFFFFFFF000000000000000000000000000000000000000000000000000000000000000000000000000000000000000000000000000000000000000000000000000000000000000000000000000000000000000000
310
00000000000000000000000000000000000000000000000000000000000000000000000000000000000000000000000000000000000000000000000000000000000000000000000000000000000000000000000000000000000000000000000000000000000000000000000000000000000000000000000000000000000000
310
0000000000000000000000000000000000000000000000000000000000000000000000000000000000000000000000000000000000000000
102
{BLKREFS
331
345
102
}
1001
ACAD
1000
DesignCenter Data
1002
{
1070
     1
1070
     4
1002
}
  0
ENDTAB
  0
ENDSEC
  0
SECTION
  2
BLOCKS
  0
BLOCK
  5
20
330
1F
100
AcDbEntity
  8
0
100
AcDbBlockBegin
  2
*Model_Space
 70
     0
 10
0.0
 20
0.0
 30
0.0
  3
*Model_Space
  1

  0
ENDBLK
  5
21
330
1F
100
AcDbEntity
  8
0
100
AcDbBlockEnd
  0
BLOCK
  5
D4
330
D2
100
AcDbEntity
 67
     1
  8
0
100
AcDbBlockBegin
  2
*Paper_Space
 70
     0
 10
0.0
 20
0.0
 30
0.0
  3
*Paper_Space
  1

  0
ENDBLK
  5
D5
330
D2
100
AcDbEntity
 67
     1
  8
0
100
AcDbBlockEnd
  0
BLOCK
  5
D8
330
D6
100
AcDbEntity
 67
     1
  8
0
100
AcDbBlockBegin
  2
*Paper_Space0
 70
     0
 10
0.0
 20
0.0
 30
0.0
  3
*Paper_Space0
  1

  0
ENDBLK
  5
D9
330
D6
100
AcDbEntity
 67
     1
  8
0
100
AcDbBlockEnd
  0
BLOCK
  5
1AE
330
1AD
100
AcDbEntity
  8
0
100
AcDbBlockBegin
  2
SW_CENTERMARKSYMBOL_0
 70
     0
 10
0.0
 20
0.0
 30
0.0
  3
SW_CENTERMARKSYMBOL_0
  1

  0
LINE
  5
1AF
330
1AD
100
AcDbEntity
  8
0
  6
Continuous
 62
     0
370
     0
100
AcDbLine
 10
0.0
 20
0.0
 30
0.0
 11
0.0
 21
2.500000000000002
 31
0.0
  0
LINE
  5
1B0
330
1AD
100
AcDbEntity
  8
0
  6
Continuous
 62
     0
370
     0
100
AcDbLine
 10
0.0
 20
0.0
 30
0.0
 11
-2.500000000000002
 21
0.0
 31
0.0
  0
LINE
  5
1B1
330
1AD
100
AcDbEntity
  8
0
  6
Continuous
 62
     0
370
     0
100
AcDbLine
 10
0.0
 20
0.0
 30
0.0
 11
0.0
 21
-2.500000000000002
 31
0.0
  0
LINE
  5
1B2
330
1AD
100
AcDbEntity
  8
0
  6
Continuous
 62
     0
370
     0
100
AcDbLine
 10
0.0
 20
0.0
 30
0.0
 11
2.500000000000002
 21
0.0
 31
0.0
  0
LINE
  5
1B3
330
1AD
100
AcDbEntity
  8
0
  6
Continuous
 62
     0
370
     0
100
AcDbLine
 10
0.0
 20
5.000000000000004
 30
0.0
 11
0.0
 21
40.99999999999997
 31
0.0
  0
LINE
  5
1B4
330
1AD
100
AcDbEntity
  8
0
  6
Continuous
 62
     0
370
     0
100
AcDbLine
 10
-5.000000000000004
 20
0.0
 30
0.0
 11
-41.0
 21
0.0
 31
0.0
  0
LINE
  5
1B5
330
1AD
100
AcDbEntity
  8
0
  6
Continuous
 62
     0
370
     0
100
AcDbLine
 10
0.0
 20
-5.000000000000004
 30
0.0
 11
0.0
 21
-41.0
 31
0.0
  0
LINE
  5
1B6
330
1AD
100
AcDbEntity
  8
0
  6
Continuous
 62
     0
370
     0
100
AcDbLine
 10
5.000000000000004
 20
0.0
 30
0.0
 11
41.0
 21
0.0
 31
0.0
  0
ENDBLK
  5
1B7
330
1AD
100
AcDbEntity
  8
0
100
AcDbBlockEnd
  0
BLOCK
  5
2B9
330
2B8
100
AcDbEntity
  8
0
100
AcDbBlockBegin
  2
1
 70
     0
 10
0.0
 20
0.0
 30
0.0
  3
1
  1

  0
LINE
  5
2BB
330
2B8
100
AcDbEntity
  8
0
  6
Continuous
 62
     7
370
    15
100
AcDbLine
 10
2482.068984702977
 20
972.4507339705692
 30
0.0
 11
2481.587511805285
 21
970.9463759584405
 31
0.0
  0
SPLINE
  5
2BC
330
2B8
100
AcDbEntity
  8
0
  6
Continuous
 62
     7
370
    15
100
AcDbSpline
210
0.0
220
0.0
230
1.0
 70
     8
 71
     3
 72
    79
 73
    75
 74
     0
 42
0.0000000001
 43
0.0000000001
 40
0.0
 40
0.0
 40
0.0
 40
0.0
 40
0.0130225979625237
 40
0.0262032636919004
 40
0.0412521819556405
 40
0.0554257775340704
 40
0.0686994336764434
 40
0.0811560393492547
 40
0.0930180744664288
 40
0.1069521409468571
 40
0.1198226227185285
 40
0.1315722018519567
 40
0.1425197076547885
 40
0.1567812701784563
 40
0.1706347316610205
 40
0.1840403953876857
 40
0.1969669223823728
 40
0.2094190358594074
 40
0.2216352003761659
 40
0.2339126700313262
 40
0.2469275810194776
 40
0.2606916371188813
 40
0.2751673424072329
 40
0.2903025394497053
 40
0.3060297737675973
 40
0.318166644799406
 40
0.3305504563910615
 40
0.3431257027821766
 40
0.3555848622513756
 40
0.3718047410122705
 40
0.3874936769917063
 40
0.4025715857010533
 40
0.4169738315270583
 40
0.4306512244953906
 40
0.4435692114422821
 40
0.4557821116718749
 40
0.4680772907416142
 40
0.4807902008998062
 40
0.4941072337307635
 40
0.5080053193044992
 40
0.5224498138436026
 40
0.5373950093777569
 40
0.5527354574372131
 40
0.568068080734173
 40
0.5832651967918751
 40
0.5982677846315311
 40
0.6131861298138756
 40
0.6283109450548381
 40
0.6435956599673979
 40
0.6589791360461824
 40
0.6742361948784076
 40
0.6890186583098963
 40
0.7032693927834158
 40
0.7169482179710319
 40
0.7300259794427699
 40
0.742579261274932
 40
0.7548334846247048
 40
0.7672506876453032
 40
0.7804308111190666
 40
0.7943483765542445
 40
0.8089620088380174
 40
0.8242155629165294
 40
0.8400377098432766
 40
0.8563423918815102
 40
0.8730504648336696
 40
0.8896525981489384
 40
0.9057894011029778
 40
0.9213696106803141
 40
0.936316962130933
 40
0.9505708830170163
 40
0.9640862387747489
 40
0.9768323210555601
 40
0.9889725467204804
 40
1.0
 40
1.0
 40
1.0
 40
1.0
 10
2481.506583479066
 20
970.726212100504
 30
0.0
 10
2481.233276689122
 20
970.0336706495157
 30
0.0
 10
2480.683345722482
 20
968.6401817074445
 30
0.0
 10
2479.598158736883
 20
966.5435230636227
 30
0.0
 10
2478.32003993246
 20
964.4820281213698
 30
0.0
 10
2476.861056573787
 20
962.5370801505738
 30
0.0
 10
2475.348155999188
 20
960.8281353427528
 30
0.0
 10
2473.80410146709
 20
959.3319526012789
 30
0.0
 10
2472.127470619471
 20
957.9269415726017
 30
0.0
 10
2470.328266824469
 20
956.6400800506883
 30
0.0
 10
2468.438388373905
 20
955.5039247980193
 30
0.0
 10
2466.62325965093
 20
954.5860415977161
 30
0.0
 10
2464.677525260083
 20
953.7615523984003
 30
0.0
 10
2462.560361331942
 20
953.0459274380685
 30
0.0
 10
2460.254691191881
 20
952.4756735573394
 30
0.0
 10
2457.985957880009
 20
952.1059965862951
 30
0.0
 10
2455.775332114619
 20
951.9213439818047
 30
0.0
 10
2453.625261643928
 20
951.9041804807155
 30
0.0
 10
2451.516815266916
 20
952.0419764943953
 30
0.0
 10
2449.392069865917
 20
952.3370351835776
 30
0.0
 10
2447.208672818471
 20
952.8094501807116
 30
0.0
 10
2444.949051298777
 20
953.4901437149928
 30
0.0
 10
2442.641301442412
 20
954.4024073265509
 30
0.0
 10
2440.321934703114
 20
955.5641989956628
 30
0.0
 10
2438.231898313765
 20
956.8630289299344
 30
0.0
 10
2436.384067549357
 20
958.2353019187086
 30
0.0
 10
2434.777292466986
 20
959.6207569727706
 30
0.0
 10
2433.26443884043
 20
961.1344779795295
 30
0.0
 10
2431.725143985944
 20
962.9224713125559
 30
0.0
 10
2430.238103182878
 20
964.9808178539919
 30
0.0
 10
2428.876896355113
 20
967.2994505116905
 30
0.0
 10
2427.777245907844
 20
969.6382678880356
 30
0.0
 10
2426.926071378149
 20
971.9559471827624
 30
0.0
 10
2426.303736618346
 20
974.2170558749828
 30
0.0
 10
2425.88536738349
 20
976.3969649350771
 30
0.0
 10
2425.639768172685
 20
978.5232244602319
 30
0.0
 10
2425.549896657554
 20
980.6500375884585
 30
0.0
 10
2425.620076728469
 20
982.8409053287463
 30
0.0
 10
2425.86923283423
 20
985.1111543475528
 30
0.0
 10
2426.319593775791
 20
987.4513576848668
 30
0.0
 10
2426.99036684734
 20
989.8352942218
 30
0.0
 10
2427.895636891002
 20
992.2290817696048
 30
0.0
 10
2429.034497178507
 20
994.5777896651124
 30
0.0
 10
2430.389709625304
 20
996.8255041449177
 30
0.0
 10
2431.931377462269
 20
998.9256635178353
 30
0.0
 10
2433.639196283338
 20
1000.86147418408
 30
0.0
 10
2435.509014972327
 20
1002.635235265565
 30
0.0
 10
2437.542161660561
 20
1004.245436470929
 30
0.0
 10
2439.73455557165
 20
1005.680341601876
 30
0.0
 10
2442.055085455465
 20
1006.913488825238
 30
0.0
 10
2444.451514908312
 20
1007.919538232489
 30
0.0
 10
2446.86606928123
 20
1008.688371900153
 30
0.0
 10
2449.249564337521
 20
1009.22651169758
 30
0.0
 10
2451.572648808133
 20
1009.551804838889
 30
0.0
 10
2453.817085096976
 20
1009.685898944448
 30
0.0
 10
2455.983577085153
 20
1009.650300976676
 30
0.0
 10
2458.103848631187
 20
1009.45877397025
 30
0.0
 10
2460.239831722168
 20
1009.106749152933
 30
0.0
 10
2462.435601794064
 20
1008.5709394885
 30
0.0
 10
2464.700726326351
 20
1007.820796814968
 30
0.0
 10
2467.003558935398
 20
1006.834874657365
 30
0.0
 10
2469.306251594511
 20
1005.597128276894
 30
0.0
 10
2471.565969703244
 20
1004.098826597164
 30
0.0
 10
2473.737554610186
 20
1002.339523671359
 30
0.0
 10
2475.758452654748
 20
1000.344575502643
 30
0.0
 10
2477.566256218907
 20
998.1672400997595
 30
0.0
 10
2479.117808479373
 20
995.8783490445002
 30
0.0
 10
2480.401529444185
 20
993.5369659895068
 30
0.0
 10
2481.424967581754
 20
991.1880252449774
 30
0.0
 10
2482.203070939833
 20
988.871550219061
 30
0.0
 10
2482.758717144145
 20
986.621370144039
 30
0.0
 10
2483.11356127576
 20
984.4543866010297
 30
0.0
 10
2483.308621650372
 20
982.4087125704878
 30
0.0
 10
2483.31187399579
 20
981.0843480065434
 30
0.0
 10
2483.313422061404
 20
980.4539711617602
 30
0.0
  0
LINE
  5
2BD
330
2B8
100
AcDbEntity
  8
0
  6
Continuous
 62
     7
370
    15
100
AcDbLine
 10
2482.247828354819
 20
973.0375403492896
 30
0.0
 11
2481.906406973179
 21
971.9427612236327
 31
0.0
  0
LINE
  5
2BE
330
2B8
100
AcDbEntity
  8
0
  6
Continuous
 62
     7
370
    15
100
AcDbLine
 10
2471.585483264596
 20
957.5631124974515
 30
0.0
 11
2471.289678433898
 21
957.3613509729495
 31
0.0
  0
SPLINE
  5
2BF
330
2B8
100
AcDbEntity
  8
0
  6
Continuous
 62
     7
370
    15
100
AcDbSpline
210
0.0
220
0.0
230
1.0
 70
     8
 71
     3
 72
     9
 73
     5
 74
     0
 42
0.0000000001
 43
0.0000000001
 40
0.0
 40
0.0
 40
0.0
 40
0.0
 40
0.2387876436095733
 40
1.0
 40
1.0
 40
1.0
 40
1.0
 10
2432.713721881557
 20
1001.446866937407
 30
0.0
 10
2432.743619746857
 20
1001.482383681243
 30
0.0
 10
2432.868826666478
 20
1001.631121460548
 30
0.0
 10
2433.00480125643
 20
1001.770214948417
 30
0.0
 10
2433.108306794457
 20
1001.876094630076
 30
0.0
  0
SPLINE
  5
2C0
330
2B8
100
AcDbEntity
  8
0
  6
Continuous
 62
     7
370
    15
100
AcDbSpline
210
0.0
220
0.0
230
1.0
 70
     8
 71
     3
 72
    46
 73
    42
 74
     0
 42
0.0000000001
 43
0.0000000001
 40
0.0
 40
0.0
 40
0.0
 40
0.0
 40
0.0625000000000001
 40
0.0625000000000001
 40
0.09375
 40
0.09375
 40
0.1249999999999998
 40
0.1249999999999998
 40
0.1874999999999997
 40
0.1874999999999997
 40
0.2499999999999996
 40
0.2499999999999996
 40
0.3124999999999996
 40
0.3124999999999996
 40
0.3437499999999996
 40
0.3437499999999996
 40
0.3749999999999996
 40
0.3749999999999996
 40
0.4374999999999996
 40
0.4374999999999996
 40
0.4687499999999997
 40
0.4687499999999997
 40
0.4999999999999997
 40
0.4999999999999997
 40
0.5624999999999997
 40
0.5624999999999997
 40
0.6249999999999999
 40
0.6249999999999999
 40
0.6874999999999999
 40
0.6874999999999999
 40
0.7499999999999999
 40
0.7499999999999999
 40
0.78125
 40
0.78125
 40
0.8124999999999998
 40
0.8124999999999998
 40
0.8749999999999998
 40
0.8749999999999998
 40
0.9375
 40
0.9375
 40
1.0
 40
1.0
 40
1.0
 40
1.0
 10
2427.769605398532
 20
967.0734748716528
 30
0.0
 10
2428.329813238668
 20
966.0304484881402
 30
0.0
 10
2428.951805731848
 20
965.0207158277453
 30
0.0
 10
2429.968144815235
 20
963.5697179978604
 30
0.0
 10
2430.321169332287
 20
963.0960386950238
 30
0.0
 10
2431.055854786695
 20
962.1687562701406
 30
0.0
 10
2431.437729309076
 20
961.7150106809663
 30
0.0
 10
2432.619118313668
 20
960.3925834800971
 30
0.0
 10
2433.456278878825
 20
959.5593769811509
 30
0.0
 10
2435.232237370342
 20
957.9922304699003
 30
0.0
 10
2436.160980892899
 20
957.267357635415
 30
0.0
 10
2438.087671674856
 20
955.9383204305722
 30
0.0
 10
2439.087126463706
 20
955.3328405755037
 30
0.0
 10
2440.640556234999
 20
954.5133154217802
 30
0.0
 10
2441.16743081846
 20
954.2549610594782
 30
0.0
 10
2442.239614128503
 20
953.7683920985536
 30
0.0
 10
2442.786271690707
 20
953.5396794955103
 30
0.0
 10
2444.443862003097
 20
952.9040361458424
 30
0.0
 10
2445.569794497766
 20
952.5479558401794
 30
0.0
 10
2447.289920362953
 20
952.1150946229681
 30
0.0
 10
2447.869278512928
 20
951.9876281437678
 30
0.0
 10
2449.031323920334
 20
951.7682427434625
 30
0.0
 10
2449.614692915873
 20
951.676105269334
 30
0.0
 10
2451.371808652702
 20
951.4521331240638
 30
0.0
 10
2452.556479987471
 20
951.3726980808453
 30
0.0
 10
2454.920115069953
 20
951.3560870493376
 30
0.0
 10
2456.099587383533
 20
951.4185723958528
 30
0.0
 10
2458.453742534028
 20
951.6881137795625
 30
0.0
 10
2459.617492038197
 20
951.8936955584111
 30
0.0
 10
2461.915672863573
 20
952.4448731451915
 30
0.0
 10
2463.051631198612
 20
952.7914830680234
 30
0.0
 10
2464.711490256111
 20
953.4102919922331
 30
0.0
 10
2465.258375867869
 20
953.6332655503292
 30
0.0
 10
2466.339295953545
 20
954.1127500873576
 30
0.0
 10
2466.874384711716
 20
954.3698792305557
 30
0.0
 10
2468.445328472213
 20
955.1842482132618
 30
0.0
 10
2469.450986738627
 20
955.7857630035472
 30
0.0
 10
2471.381388344266
 20
957.1026749997482
 30
0.0
 10
2472.306127555513
 20
957.8180780155188
 30
0.0
 10
2474.073478177622
 20
959.3644735016033
 30
0.0
 10
2474.919017798914
 20
960.1986753198877
 30
0.0
 10
2475.709357124221
 20
961.0816442125523
 30
0.0
  0
SPLINE
  5
2C1
330
2B8
100
AcDbEntity
  8
0
  6
Continuous
 62
     7
370
    15
100
AcDbSpline
210
0.0
220
0.0
230
1.0
 70
     8
 71
     3
 72
    18
 73
    14
 74
     0
 42
0.0000000001
 43
0.0000000001
 40
0.0
 40
0.0
 40
0.0
 40
0.0
 40
0.2500000000000002
 40
0.2500000000000002
 40
0.3750000000000001
 40
0.3750000000000001
 40
0.5
 40
0.5
 40
0.75
 40
0.75
 40
0.875
 40
0.875
 40
1.0
 40
1.0
 40
1.0
 40
1.0
 10
2475.709357124221
 20
961.0816442125523
 30
0.0
 10
2476.916505326083
 20
962.4302729305597
 30
0.0
 10
2478.007352545416
 20
963.8805032028029
 30
0.0
 10
2479.430825213194
 20
966.1906131692475
 30
0.0
 10
2479.868529140282
 20
966.9796515687338
 30
0.0
 10
2480.670416250243
 20
968.59570438633
 30
0.0
 10
2481.035772628518
 20
969.4259268853764
 30
0.0
 10
2482.009686476386
 20
971.9488465284179
 30
0.0
 10
2482.496584899787
 20
973.6679271566286
 30
0.0
 10
2482.989241253168
 20
976.3009058568092
 30
0.0
 10
2483.113601949459
 20
977.1876805929686
 30
0.0
 10
2483.280574363735
 20
978.9799252868228
 30
0.0
 10
2483.322915769603
 20
979.8864890291897
 30
0.0
 10
2483.322798792763
 20
980.7915915033879
 30
0.0
  0
LINE
  5
2C2
330
2B8
100
AcDbEntity
  8
0
  6
Continuous
 62
     7
370
    15
100
AcDbLine
 10
2476.740816076226
 20
1012.181785886474
 30
0.0
 11
2492.779831008572
 21
984.4013971202956
 31
0.0
  0
ARC
  5
2C3
330
2B8
100
AcDbEntity
  8
0
  6
Continuous
 62
     7
370
    15
100
AcDbCircle
 10
2454.449434409943
 20
980.7915915033847
 30
0.0
 40
38.50000000000001
100
AcDbArc
 50
354.6199773286531
 51
5.380022671346851
  0
LINE
  5
2C4
330
2B8
100
AcDbEntity
  8
0
  6
Continuous
 62
     7
370
    15
100
AcDbLine
 10
2492.779831008572
 20
977.1817858864737
 30
0.0
 11
2476.740816076226
 21
949.4013971202956
 31
0.0
  0
ARC
  5
2C5
330
2B8
100
AcDbEntity
  8
0
  6
Continuous
 62
     7
370
    15
100
AcDbCircle
 10
2454.449434409943
 20
980.7915915033847
 30
0.0
 40
38.50000000000001
100
AcDbArc
 50
294.6199773286508
 51
305.3800226713414
  0
LINE
  5
2C6
330
2B8
100
AcDbEntity
  8
0
  6
Continuous
 62
     7
370
    15
100
AcDbLine
 10
2470.488449342289
 20
945.7915915033847
 30
0.0
 11
2438.410419477599
 21
945.7915915033847
 31
0.0
  0
ARC
  5
2C7
330
2B8
100
AcDbEntity
  8
0
  6
Continuous
 62
     7
370
    15
100
AcDbCircle
 10
2454.449434409943
 20
980.7915915033847
 30
0.0
 40
38.5
100
AcDbArc
 50
234.6199773286586
 51
245.3800226713492
  0
LINE
  5
2C8
330
2B8
100
AcDbEntity
  8
0
  6
Continuous
 62
     7
370
    15
100
AcDbLine
 10
2432.158052743661
 20
949.4013971202956
 30
0.0
 11
2416.119037811316
 21
977.1817858864737
 31
0.0
  0
ARC
  5
2C9
330
2B8
100
AcDbEntity
  8
0
  6
Continuous
 62
     7
370
    15
100
AcDbCircle
 10
2454.449434409943
 20
980.7915915033847
 30
0.0
 40
38.50000000000001
100
AcDbArc
 50
174.6199773286531
 51
185.3800226713469
  0
LINE
  5
2CA
330
2B8
100
AcDbEntity
  8
0
  6
Continuous
 62
     7
370
    15
100
AcDbLine
 10
2416.119037811316
 20
984.4013971202956
 30
0.0
 11
2432.158052743661
 21
1012.181785886474
 31
0.0
  0
ARC
  5
2CB
330
2B8
100
AcDbEntity
  8
0
  6
Continuous
 62
     7
370
    15
100
AcDbCircle
 10
2454.449434409943
 20
980.7915915033847
 30
0.0
 40
38.50000000000001
100
AcDbArc
 50
114.6199773286508
 51
125.3800226713414
  0
LINE
  5
2CC
330
2B8
100
AcDbEntity
  8
0
  6
Continuous
 62
     7
370
    15
100
AcDbLine
 10
2438.410419477599
 20
1015.791591503385
 30
0.0
 11
2470.488449342289
 21
1015.791591503385
 31
0.0
  0
ARC
  5
2CD
330
2B8
100
AcDbEntity
  8
0
  6
Continuous
 62
     7
370
    15
100
AcDbCircle
 10
2454.449434409943
 20
980.7915915033847
 30
0.0
 40
38.50000000000001
100
AcDbArc
 50
54.61997732865856
 51
65.38002267134918
  0
LINE
  5
2CE
330
2B8
100
AcDbEntity
  8
0
  6
Continuous
 62
     7
370
    15
100
AcDbLine
 10
2483.322798792763
 20
980.7915915033879
 30
0.0
 11
2484.449434409944
 21
980.7915915033879
 31
0.0
  0
ARC
  5
2CF
330
2B8
100
AcDbEntity
  8
0
  6
Continuous
 62
     7
370
    15
100
AcDbCircle
 10
2454.449434409943
 20
980.7915915033847
 30
0.0
 40
30.00000000000001
100
AcDbArc
 50
0.0000000000065138
 51
207.2111211253519
  0
ARC
  5
2D0
330
2B8
100
AcDbEntity
  8
0
  6
Continuous
 62
     7
370
    15
100
AcDbCircle
 10
2454.449434409943
 20
980.7915915033847
 30
0.0
 40
38.49999999999997
100
AcDbArc
 50
65.38002267134918
 51
114.6199773286508
  0
ARC
  5
2D1
330
2B8
100
AcDbEntity
  8
0
  6
Continuous
 62
     7
370
    15
100
AcDbCircle
 10
2454.449434409943
 20
980.7915915033847
 30
0.0
 40
38.50000000000001
100
AcDbArc
 50
185.3800226713469
 51
234.6199773286586
  0
ARC
  5
2D2
330
2B8
100
AcDbEntity
  8
0
  6
Continuous
 62
     7
370
    15
100
AcDbCircle
 10
2454.449434409943
 20
980.7915915033847
 30
0.0
 40
38.50000000000001
100
AcDbArc
 50
305.3800226713414
 51
354.6199773286531
  0
ARC
  5
2D3
330
2B8
100
AcDbEntity
  8
0
  6
Continuous
 62
     7
370
    15
100
AcDbCircle
 10
2454.449434409943
 20
980.7915915033847
 30
0.0
 40
38.50000000000001
100
AcDbArc
 50
245.3800226713492
 51
294.6199773286508
  0
ARC
  5
2D4
330
2B8
100
AcDbEntity
  8
0
  6
Continuous
 62
     7
370
    15
100
AcDbCircle
 10
2454.449434409943
 20
980.7915915033847
 30
0.0
 40
38.50000000000001
100
AcDbArc
 50
125.3800226713414
 51
174.6199773286531
  0
ARC
  5
2D5
330
2B8
100
AcDbEntity
  8
0
  6
Continuous
 62
     7
370
    15
100
AcDbCircle
 10
2454.449434409943
 20
980.7915915033847
 30
0.0
 40
38.50000000000001
100
AcDbArc
 50
5.380022671346851
 51
54.61997732865856
  0
SPLINE
  5
2D6
330
2B8
100
AcDbEntity
  8
0
  6
Continuous
 62
     8
370
    15
100
AcDbSpline
210
0.0
220
0.0
230
1.0
 70
     8
 71
     3
 72
    68
 73
    64
 74
     0
 42
0.0000000001
 43
0.0000000001
 40
0.0
 40
0.0
 40
0.0
 40
0.0
 40
0.0160428428279268
 40
0.0322824586566633
 40
0.0487087533634592
 40
0.0652561950763334
 40
0.0818562670304349
 40
0.0984391352692982
 40
0.1149353977672625
 40
0.1312778067314435
 40
0.1476323981935598
 40
0.1639537230288342
 40
0.1805058496423973
 40
0.1972243996807426
 40
0.2140395586378744
 40
0.2308790443680334
 40
0.2476699466710471
 40
0.2643406069620697
 40
0.2808224183025252
 40
0.2970976469829902
 40
0.313533840485862
 40
0.330172092012684
 40
0.3469446059679378
 40
0.3637801946899052
 40
0.3806060487705713
 40
0.3973496102759672
 40
0.4139404299029579
 40
0.4303118909952479
 40
0.4466193904192123
 40
0.4631580327093723
 40
0.4798676224722336
 40
0.4966785719275184
 40
0.5135187073342838
 40
0.5303151016823945
 40
0.5469959554384979
 40
0.5634924054965312
 40
0.5797722452649668
 40
0.5961926710633669
 40
0.6128195142397419
 40
0.6295852636795202
 40
0.6464189045730619
 40
0.6632476778649921
 40
0.6799989502549911
 40
0.6966020761646742
 40
0.7129901340289834
 40
0.7292861100279941
 40
0.745810977108792
 40
0.7625112966964484
 40
0.7793177151962314
 40
0.7961581754600812
 40
0.8129597420716731
 40
0.8296504826306527
 40
0.8461612851226572
 40
0.8624480409093603
 40
0.8788524209226938
 40
0.8954675551261635
 40
0.9122262237750533
 40
0.9290575927711389
 40
0.9458889617672245
 40
0.9626476304161142
 40
0.9792627646195839
 40
0.9956671446329174
 40
0.9999999999999998
 40
0.9999999999999998
 40
0.9999999999999998
 40
0.9999999999999998
 10
2475.709357124221
 20
961.0816442125523
 30
0.0
 10
2475.10975075348
 20
960.4672958802007
 30
0.0
 10
2473.903183558291
 20
959.2310639447108
 30
0.0
 10
2471.881045094361
 20
957.580877774623
 30
0.0
 10
2469.70723872043
 20
956.0924953141034
 30
0.0
 10
2467.386807054719
 20
954.8023444692292
 30
0.0
 10
2464.951086416059
 20
953.7259111761095
 30
0.0
 10
2462.42928575358
 20
952.8785247367963
 30
0.0
 10
2459.854091745369
 20
952.2683769062282
 30
0.0
 10
2457.246306812285
 20
951.8962393352071
 30
0.0
 10
2454.624897904494
 20
951.7617762548214
 30
0.0
 10
2451.990863681933
 20
951.8650589685337
 30
0.0
 10
2449.357676524437
 20
952.2097886894657
 30
0.0
 10
2446.741484796785
 20
952.8010434541078
 30
0.0
 10
2444.176680562714
 20
953.6370100598967
 30
0.0
 10
2441.697187999507
 20
954.7094623311382
 30
0.0
 10
2439.334917531001
 20
956.0040090889781
 30
0.0
 10
2437.118413061519
 20
957.500729693478
 30
0.0
 10
2435.069814210866
 20
959.1767189407393
 30
0.0
 10
2433.190400815714
 20
961.0224377984298
 30
0.0
 10
2431.480091225822
 20
963.0369669996877
 30
0.0
 10
2429.945746925633
 20
965.2212719772633
 30
0.0
 10
2428.609010147134
 20
967.5565433992458
 30
0.0
 10
2427.490799226112
 20
970.0150550169087
 30
0.0
 10
2426.606674021249
 20
972.5654671394506
 30
0.0
 10
2425.966126160626
 20
975.1741428837712
 30
0.0
 10
2425.572257552667
 20
977.8066088937922
 30
0.0
 10
2425.421203946449
 20
980.4406011111995
 30
0.0
 10
2425.508586855765
 20
983.0746467926932
 30
0.0
 10
2425.836996601471
 20
985.707955603808
 30
0.0
 10
2426.411801657189
 20
988.3263454272977
 30
0.0
 10
2427.231639596499
 20
990.8956448643195
 30
0.0
 10
2428.288708250781
 20
993.3818475417087
 30
0.0
 10
2429.569011860329
 20
995.7528647258291
 30
0.0
 10
2431.05297126759
 20
997.9798899513145
 30
0.0
 10
2432.71746258416
 20
1000.039877580115
 30
0.0
 10
2434.551946884614
 20
1001.93052148714
 30
0.0
 10
2436.555151475606
 20
1003.652216734494
 30
0.0
 10
2438.728515867689
 20
1005.198878482891
 30
0.0
 10
2441.054538707652
 20
1006.549493838629
 30
0.0
 10
2443.505775955112
 20
1007.682821114614
 30
0.0
 10
2446.05109004623
 20
1008.58291707723
 30
0.0
 10
2448.656952854521
 20
1009.239871032297
 30
0.0
 10
2451.288900163381
 20
1009.650153382802
 30
0.0
 10
2453.922868243334
 20
1009.817180280166
 30
0.0
 10
2456.556921433415
 20
1009.745691669361
 30
0.0
 10
2459.190340128032
 20
1009.433566799797
 30
0.0
 10
2461.810774272116
 20
1008.875217530287
 30
0.0
 10
2464.384417260392
 20
1008.071543027698
 30
0.0
 10
2466.877186923088
 20
1007.029920416863
 30
0.0
 10
2469.256822340671
 20
1005.763947335515
 30
0.0
 10
2471.49425976837
 20
1004.292857135383
 30
0.0
 10
2473.565651989601
 20
1002.63989436141
 30
0.0
 10
2475.467528339204
 20
1000.816647179923
 30
0.0
 10
2477.200578233665
 20
998.8247514940173
 30
0.0
 10
2478.759464345597
 20
996.6624286079083
 30
0.0
 10
2480.123785429982
 20
994.3457776953092
 30
0.0
 10
2481.272450897242
 20
991.9019500172312
 30
0.0
 10
2482.187380752035
 20
989.3618972195504
 30
0.0
 10
2482.864774315756
 20
986.7589502827359
 30
0.0
 10
2483.276573135026
 20
984.1278600099125
 30
0.0
 10
2483.456691758191
 20
982.1319783194665
 30
0.0
 10
2483.424052272403
 20
981.0232501068012
 30
0.0
 10
2483.417232550844
 20
980.7915915033879
 30
0.0
  0
INSERT
  5
2D7
330
2B8
100
AcDbEntity
  8
0
  6
Continuous
 62
     7
370
     0
100
AcDbBlockReference
  2
SW_CENTERMARKSYMBOL_0
 10
2454.449434409943
 20
980.7915915033847
 30
0.0
  0
ENDBLK
  5
2BA
330
2B8
100
AcDbEntity
  8
0
100
AcDbBlockEnd
  0
BLOCK
  5
2DA
330
2D9
100
AcDbEntity
  8
0
100
AcDbBlockBegin
  2
2
 70
     0
 10
0.0
 20
0.0
 30
0.0
  3
2
  1

  0
LINE
  5
2DC
330
2D9
100
AcDbEntity
  8
0
  6
Continuous
 62
     7
370
    15
100
AcDbLine
 10
2382.866494507534
 20
1019.291591503384
 30
0.0
 11
2380.066494507535
 21
1019.291591503384
 31
0.0
  0
LINE
  5
2DD
330
2D9
100
AcDbEntity
  8
0
  6
Continuous
 62
     7
370
    15
100
AcDbLine
 10
2380.066494507535
 20
942.2915915033847
 30
0.0
 11
2382.866494507534
 21
942.2915915033847
 31
0.0
  0
LINE
  5
2DE
330
2D9
100
AcDbEntity
  8
0
  6
Continuous
 62
     7
370
    15
100
AcDbLine
 10
2375.066494507535
 20
1015.791591503385
 30
0.0
 11
2375.066494507535
 21
1012.181785886474
 31
0.0
  0
LINE
  5
2DF
330
2D9
100
AcDbEntity
  8
0
  6
Continuous
 62
     7
370
    15
100
AcDbLine
 10
2380.066494507535
 20
1015.791591503385
 30
0.0
 11
2375.066494507535
 21
1015.791591503385
 31
0.0
  0
LINE
  5
2E0
330
2D9
100
AcDbEntity
  8
0
  6
Continuous
 62
     7
370
    15
100
AcDbLine
 10
2380.066494507535
 20
1019.291591503384
 30
0.0
 11
2380.066494507535
 21
1015.791591503385
 31
0.0
  0
LINE
  5
2E1
330
2D9
100
AcDbEntity
  8
0
  6
Continuous
 62
     7
370
    15
100
AcDbLine
 10
2380.066494507535
 20
945.7915915033847
 30
0.0
 11
2380.066494507535
 21
942.2915915033847
 31
0.0
  0
LINE
  5
2E2
330
2D9
100
AcDbEntity
  8
0
  6
Continuous
 62
     7
370
    15
100
AcDbLine
 10
2375.066494507535
 20
945.7915915033847
 30
0.0
 11
2380.066494507535
 21
945.7915915033847
 31
0.0
  0
LINE
  5
2E3
330
2D9
100
AcDbEntity
  8
0
  6
Continuous
 62
     7
370
    15
100
AcDbLine
 10
2375.066494507535
 20
949.4013971202956
 30
0.0
 11
2375.066494507535
 21
945.7915915033847
 31
0.0
  0
LINE
  5
2E4
330
2D9
100
AcDbEntity
  8
0
  6
Continuous
 62
     7
370
    15
100
AcDbLine
 10
2380.066494507535
 20
949.4013971202956
 30
0.0
 11
2375.066494507535
 21
949.4013971202956
 31
0.0
  0
LINE
  5
2E5
330
2D9
100
AcDbEntity
  8
0
  6
Continuous
 62
     7
370
    15
100
AcDbLine
 10
2380.066494507535
 20
977.1817858864737
 30
0.0
 11
2380.066494507535
 21
949.4013971202956
 31
0.0
  0
LINE
  5
2E6
330
2D9
100
AcDbEntity
  8
0
  6
Continuous
 62
     7
370
    15
100
AcDbLine
 10
2375.066494507535
 20
977.1817858864737
 30
0.0
 11
2380.066494507535
 21
977.1817858864737
 31
0.0
  0
LINE
  5
2E7
330
2D9
100
AcDbEntity
  8
0
  6
Continuous
 62
     7
370
    15
100
AcDbLine
 10
2375.066494507535
 20
984.4013971202956
 30
0.0
 11
2375.066494507535
 21
977.1817858864737
 31
0.0
  0
LINE
  5
2E8
330
2D9
100
AcDbEntity
  8
0
  6
Continuous
 62
     7
370
    15
100
AcDbLine
 10
2380.066494507535
 20
984.4013971202956
 30
0.0
 11
2375.066494507535
 21
984.4013971202956
 31
0.0
  0
LINE
  5
2E9
330
2D9
100
AcDbEntity
  8
0
  6
Continuous
 62
     7
370
    15
100
AcDbLine
 10
2380.066494507535
 20
1012.181785886474
 30
0.0
 11
2380.066494507535
 21
984.4013971202956
 31
0.0
  0
LINE
  5
2EA
330
2D9
100
AcDbEntity
  8
0
  6
Continuous
 62
     7
370
    15
100
AcDbLine
 10
2375.066494507535
 20
1012.181785886474
 30
0.0
 11
2380.066494507535
 21
1012.181785886474
 31
0.0
  0
LINE
  5
2EB
330
2D9
100
AcDbEntity
  8
0
  6
Continuous
 62
     7
370
    15
100
AcDbLine
 10
2382.866494507534
 20
1019.291591503384
 30
0.0
 11
2382.866494507534
 21
942.2915915033847
 31
0.0
  0
LINE
  5
2EC
330
2D9
100
AcDbEntity
  8
0
  6
Continuous
 62
     7
370
    15
100
AcDbLine
 10
2375.066494507535
 20
1012.181785886474
 30
0.0
 11
2375.066494507535
 21
984.4013971202956
 31
0.0
  0
LINE
  5
2ED
330
2D9
100
AcDbEntity
  8
0
  6
Continuous
 62
     7
370
    15
100
AcDbLine
 10
2375.066494507535
 20
977.1817858864737
 30
0.0
 11
2375.066494507535
 21
949.4013971202956
 31
0.0
  0
ENDBLK
  5
2DB
330
2D9
100
AcDbEntity
  8
0
100
AcDbBlockEnd
  0
BLOCK
  5
2F0
330
2EF
100
AcDbEntity
  8
0
100
AcDbBlockBegin
  2
3
 70
     0
 10
0.0
 20
0.0
 30
0.0
  3
3
  1

  0
LINE
  5
2F2
330
2EF
100
AcDbEntity
  8
0
  6
Continuous
 62
     7
370
    15
100
AcDbLine
 10
2415.949434409944
 20
923.6343658866896
 30
0.0
 11
2415.949434409944
 21
915.8343658866897
 31
0.0
  0
LINE
  5
2F3
330
2EF
100
AcDbEntity
  8
0
  6
Continuous
 62
     7
370
    15
100
AcDbLine
 10
2492.949434409944
 20
915.8343658866897
 30
0.0
 11
2492.949434409944
 21
923.6343658866896
 31
0.0
  0
LINE
  5
2F4
330
2EF
100
AcDbEntity
  8
0
  6
Continuous
 62
     7
370
    15
100
AcDbLine
 10
2470.488449342289
 20
915.8343658866897
 30
0.0
 11
2476.740816076226
 21
915.8343658866897
 31
0.0
  0
LINE
  5
2F5
330
2EF
100
AcDbEntity
  8
0
  6
Continuous
 62
     7
370
    15
100
AcDbLine
 10
2470.488449342289
 20
920.8343658866898
 30
0.0
 11
2470.488449342289
 21
915.8343658866897
 31
0.0
  0
LINE
  5
2F6
330
2EF
100
AcDbEntity
  8
0
  6
Continuous
 62
     7
370
    15
100
AcDbLine
 10
2438.410419477599
 20
915.8343658866897
 30
0.0
 11
2438.410419477599
 21
920.8343658866898
 31
0.0
  0
LINE
  5
2F7
330
2EF
100
AcDbEntity
  8
0
  6
Continuous
 62
     7
370
    15
100
AcDbLine
 10
2432.158052743661
 20
915.8343658866897
 30
0.0
 11
2438.410419477599
 21
915.8343658866897
 31
0.0
  0
LINE
  5
2F8
330
2EF
100
AcDbEntity
  8
0
  6
Continuous
 62
     7
370
    15
100
AcDbLine
 10
2432.158052743661
 20
920.8343658866898
 30
0.0
 11
2432.158052743661
 21
915.8343658866897
 31
0.0
  0
LINE
  5
2F9
330
2EF
100
AcDbEntity
  8
0
  6
Continuous
 62
     7
370
    15
100
AcDbLine
 10
2416.119037811316
 20
920.8343658866898
 30
0.0
 11
2432.158052743661
 21
920.8343658866898
 31
0.0
  0
LINE
  5
2FA
330
2EF
100
AcDbEntity
  8
0
  6
Continuous
 62
     7
370
    15
100
AcDbLine
 10
2416.119037811316
 20
915.8343658866897
 30
0.0
 11
2416.119037811316
 21
920.8343658866898
 31
0.0
  0
LINE
  5
2FB
330
2EF
100
AcDbEntity
  8
0
  6
Continuous
 62
     7
370
    15
100
AcDbLine
 10
2415.949434409944
 20
915.8343658866897
 30
0.0
 11
2416.119037811316
 21
915.8343658866897
 31
0.0
  0
LINE
  5
2FC
330
2EF
100
AcDbEntity
  8
0
  6
Continuous
 62
     7
370
    15
100
AcDbLine
 10
2492.779831008572
 20
915.8343658866897
 30
0.0
 11
2492.949434409944
 21
915.8343658866897
 31
0.0
  0
LINE
  5
2FD
330
2EF
100
AcDbEntity
  8
0
  6
Continuous
 62
     7
370
    15
100
AcDbLine
 10
2492.779831008572
 20
920.8343658866898
 30
0.0
 11
2492.779831008572
 21
915.8343658866897
 31
0.0
  0
LINE
  5
2FE
330
2EF
100
AcDbEntity
  8
0
  6
Continuous
 62
     7
370
    15
100
AcDbLine
 10
2476.740816076226
 20
920.8343658866898
 30
0.0
 11
2492.779831008572
 21
920.8343658866898
 31
0.0
  0
LINE
  5
2FF
330
2EF
100
AcDbEntity
  8
0
  6
Continuous
 62
     7
370
    15
100
AcDbLine
 10
2476.740816076226
 20
915.8343658866897
 30
0.0
 11
2476.740816076226
 21
920.8343658866898
 31
0.0
  0
LINE
  5
300
330
2EF
100
AcDbEntity
  8
0
  6
Continuous
 62
     7
370
    15
100
AcDbLine
 10
2438.410419477599
 20
920.8343658866898
 30
0.0
 11
2470.488449342289
 21
920.8343658866898
 31
0.0
  0
LINE
  5
301
330
2EF
100
AcDbEntity
  8
0
  6
Continuous
 62
     7
370
    15
100
AcDbLine
 10
2454.449434409943
 20
923.6343658866896
 30
0.0
 11
2492.949434409944
 21
923.6343658866896
 31
0.0
  0
LINE
  5
302
330
2EF
100
AcDbEntity
  8
0
  6
Continuous
 62
     7
370
    15
100
AcDbLine
 10
2415.949434409944
 20
923.6343658866896
 30
0.0
 11
2454.449434409943
 21
923.6343658866896
 31
0.0
  0
LINE
  5
303
330
2EF
100
AcDbEntity
  8
0
  6
Continuous
 62
     7
370
    15
100
AcDbLine
 10
2438.410419477599
 20
915.8343658866897
 30
0.0
 11
2470.488449342289
 21
915.8343658866897
 31
0.0
  0
LINE
  5
304
330
2EF
100
AcDbEntity
  8
0
  6
Continuous
 62
     7
370
    15
100
AcDbLine
 10
2476.740816076226
 20
915.8343658866897
 30
0.0
 11
2492.779831008572
 21
915.8343658866897
 31
0.0
  0
LINE
  5
305
330
2EF
100
AcDbEntity
  8
0
  6
Continuous
 62
     7
370
    15
100
AcDbLine
 10
2416.119037811316
 20
915.8343658866897
 30
0.0
 11
2432.158052743661
 21
915.8343658866897
 31
0.0
  0
ENDBLK
  5
2F1
330
2EF
100
AcDbEntity
  8
0
100
AcDbBlockEnd
  0
BLOCK
  5
308
330
307
100
AcDbEntity
  8
0
100
AcDbBlockBegin
  2
4
 70
     0
 10
0.0
 20
0.0
 30
0.0
  3
4
  1

  0
LINE
  5
30A
330
307
100
AcDbEntity
  8
0
  6
Continuous
 62
     7
370
    15
100
AcDbLine
 10
2597.59515730327
 20
973.1043791474322
 30
0.0
 11
2597.642435193076
 21
979.8899864571978
 31
0.0
  0
LINE
  5
30B
330
307
100
AcDbEntity
  8
0
  6
Continuous
 62
     7
370
    15
100
AcDbLine
 10
2520.644304082646
 20
980.4264615274101
 30
0.0
 11
2520.597026192839
 21
973.6408542176445
 31
0.0
  0
SPLINE
  5
30C
330
307
100
AcDbEntity
  8
0
  6
Continuous
 62
     7
370
    15
100
AcDbSpline
210
0.0
220
0.0
230
1.0
 70
     8
 71
     3
 72
    10
 73
     6
 74
     0
 42
0.0000000001
 43
0.0000000001
 40
0.0
 40
0.0
 40
0.0
 40
0.0
 40
0.3357356946316855
 40
0.8614539417871068
 40
1.0
 40
1.0
 40
1.0
 40
1.0
 10
2583.397821237373
 20
981.0251965039986
 30
0.0
 10
2583.503115756931
 20
980.9430212371147
 30
0.0
 10
2583.773287741538
 20
980.7321702352508
 30
0.0
 10
2584.069353820658
 20
980.4820999795508
 30
0.0
 10
2584.254350582775
 20
980.3130417906933
 30
0.0
 10
2584.292935483343
 20
980.2777812091965
 30
0.0
  0
SPLINE
  5
30D
330
307
100
AcDbEntity
  8
0
  6
Continuous
 62
     7
370
    15
100
AcDbSpline
210
0.0
220
0.0
230
1.0
 70
     8
 71
     3
 72
    16
 73
    12
 74
     0
 42
0.0000000001
 43
0.0000000001
 40
0.0
 40
0.0
 40
0.0
 40
0.0
 40
0.106107360245151
 40
0.275970848694995
 40
0.4484947647211443
 40
0.5990637456716338
 40
0.7235518922884477
 40
0.809657993998031
 40
0.8768995238959719
 40
0.9375681829841594
 40
1.0
 40
1.0
 40
1.0
 40
1.0
 10
2530.768640661054
 20
976.8774742718616
 30
0.0
 10
2530.824042899329
 20
977.014340751902
 30
0.0
 10
2530.968136604807
 20
977.3703118981773
 30
0.0
 10
2531.275708725653
 20
977.9418626866794
 30
0.0
 10
2531.668258508265
 20
978.5628189566677
 30
0.0
 10
2532.08106291244
 20
979.1181432131065
 30
0.0
 10
2532.450509155548
 20
979.5599538069424
 30
0.0
 10
2532.756214923521
 20
979.8958604022823
 30
0.0
 10
2533.004114681231
 20
980.1523578436301
 30
0.0
 10
2533.232912528721
 20
980.3791640942588
 30
0.0
 10
2533.3883944377
 20
980.5240795558262
 30
0.0
 10
2533.467248869445
 20
980.597575092689
 30
0.0
  0
SPLINE
  5
30E
330
307
100
AcDbEntity
  8
0
  6
Continuous
 62
     7
370
    15
100
AcDbSpline
210
0.0
220
0.0
230
1.0
 70
     8
 71
     3
 72
    17
 73
    13
 74
     0
 42
0.0000000001
 43
0.0000000001
 40
0.0
 40
0.0
 40
0.0
 40
0.0
 40
0.0578236056889428
 40
0.1241940187877439
 40
0.183972239500967
 40
0.261369661358997
 40
0.3562265554234079
 40
0.4683113425079231
 40
0.5972905126228227
 40
0.7322459152952171
 40
0.9378872757034665
 40
1.0
 40
1.0
 40
1.0
 40
1.0
 10
2584.441859848683
 20
981.4562831137005
 30
0.0
 10
2584.527596359905
 20
981.3775811893359
 30
0.0
 10
2584.711741948178
 20
981.2085445449287
 30
0.0
 10
2584.968615201288
 20
980.954299968789
 30
0.0
 10
2585.242669172667
 20
980.6713763756706
 30
0.0
 10
2585.53989308038
 20
980.346038029868
 30
0.0
 10
2585.881950005391
 20
979.9432190189548
 30
0.0
 10
2586.25369847568
 20
979.4617109526946
 30
0.0
 10
2586.628800338911
 20
978.9161657392568
 30
0.0
 10
2587.033460874382
 20
978.2266763039011
 30
0.0
 10
2587.336777233822
 20
977.6297300000251
 30
0.0
 10
2587.468501113311
 20
977.2275646505713
 30
0.0
 10
2587.49905799172
 20
977.1342716369472
 30
0.0
  0
SPLINE
  5
30F
330
307
100
AcDbEntity
  8
0
  6
Continuous
 62
     7
370
    15
100
AcDbSpline
210
0.0
220
0.0
230
1.0
 70
     8
 71
     3
 72
    14
 73
    10
 74
     0
 42
0.0000000001
 43
0.0000000001
 40
0.0
 40
0.0
 40
0.0
 40
0.0
 40
0.2209814841786879
 40
0.3695246153790144
 40
0.5219092956589528
 40
0.6662515195352197
 40
0.7905913492803898
 40
0.8951075778539079
 40
1.0
 40
1.0
 40
1.0
 40
1.0
 10
2530.544183391302
 20
977.5238537734827
 30
0.0
 10
2530.664825024404
 20
977.8779526405955
 30
0.0
 10
2530.866561623452
 20
978.4700757687494
 30
0.0
 10
2531.309569448043
 20
979.2934565917578
 30
0.0
 10
2531.757506669214
 20
979.986961425323
 30
0.0
 10
2532.25453478499
 20
980.6317239247295
 30
0.0
 10
2532.752446112535
 20
981.1926604748876
 30
0.0
 10
2533.236939785096
 20
981.6867526330741
 30
0.0
 10
2533.573902580688
 20
981.9894382243901
 30
0.0
 10
2533.742686648019
 20
982.1410529008268
 30
0.0
  0
SPLINE
  5
310
330
307
100
AcDbEntity
  8
0
  6
Continuous
 62
     7
370
    15
100
AcDbSpline
210
0.0
220
0.0
230
1.0
 70
     8
 71
     3
 72
    15
 73
    11
 74
     0
 42
0.0000000001
 43
0.0000000001
 40
0.0
 40
0.0
 40
0.0
 40
0.0
 40
0.1333962930443936
 40
0.2589167846016755
 40
0.3989539635789996
 40
0.5560708952685713
 40
0.7220932152812296
 40
0.8561136716219362
 40
0.9927959396880831
 40
0.9999999999999998
 40
0.9999999999999998
 40
0.9999999999999998
 40
0.9999999999999998
 10
2584.401623972878
 20
982.8081672232812
 30
0.0
 10
2584.625430892192
 20
982.5978950027991
 30
0.0
 10
2585.059831028791
 20
982.1897651666859
 30
0.0
 10
2585.650510928687
 20
981.5430909555589
 30
0.0
 10
2586.212056404259
 20
980.8470368203982
 30
0.0
 10
2586.739702814604
 20
980.0706769969872
 30
0.0
 10
2587.170314592061
 20
979.2934297625533
 30
0.0
 10
2587.488931642859
 20
978.5434526895214
 30
0.0
 10
2587.664295353057
 20
978.0639686543814
 30
0.0
 10
2587.720433518781
 20
977.8139619039675
 30
0.0
 10
2587.723244228709
 20
977.8014446361446
 30
0.0
  0
SPLINE
  5
311
330
307
100
AcDbEntity
  8
0
  6
Continuous
 62
     7
370
    15
100
AcDbSpline
210
0.0
220
0.0
230
1.0
 70
     8
 71
     3
 72
    19
 73
    15
 74
     0
 42
0.0000000001
 43
0.0000000001
 40
0.0
 40
0.0
 40
0.0
 40
0.0
 40
0.0972163905722096
 40
0.2255952742495185
 40
0.3478770722986817
 40
0.4632087724857693
 40
0.5634216005399367
 40
0.6336700819074864
 40
0.691936982237586
 40
0.7385093510361355
 40
0.7867169046824236
 40
0.8444532705036669
 40
0.9115876362353636
 40
1.0
 40
1.0
 40
1.0
 40
1.0
 10
2530.390612160176
 20
978.1707087466752
 30
0.0
 10
2530.431472291426
 20
978.3681747892281
 30
0.0
 10
2530.526290176156
 20
978.826404165596
 30
0.0
 10
2530.782730470917
 20
979.5269883501859
 30
0.0
 10
2531.126007117166
 20
980.2571713724416
 30
0.0
 10
2531.519769000275
 20
980.9226963825853
 30
0.0
 10
2531.908391589157
 20
981.4778666100593
 30
0.0
 10
2532.254768659026
 20
981.9165607078877
 30
0.0
 10
2532.540112058637
 20
982.2489264156359
 30
0.0
 10
2532.804180381472
 20
982.5370851224588
 30
0.0
 10
2533.080257572584
 20
982.8220186737018
 30
0.0
 10
2533.410334917818
 20
983.1416026231053
 30
0.0
 10
2533.836197745628
 20
983.5310134576836
 30
0.0
 10
2534.179243457205
 20
983.8061711956624
 30
0.0
 10
2534.374229763494
 20
983.9625701511506
 30
0.0
  0
SPLINE
  5
312
330
307
100
AcDbEntity
  8
0
  6
Continuous
 62
     7
370
    15
100
AcDbSpline
210
0.0
220
0.0
230
1.0
 70
     8
 71
     3
 72
    20
 73
    16
 74
     0
 42
0.0000000001
 43
0.0000000001
 40
0.0
 40
0.0
 40
0.0
 40
0.0
 40
0.109528381304084
 40
0.2063511442039958
 40
0.2863189473727552
 40
0.3495533187303007
 40
0.3889170253914511
 40
0.4443011692613535
 40
0.5180155819718378
 40
0.6092592989351879
 40
0.7032522714063351
 40
0.7940739238780079
 40
0.8821081245893973
 40
0.9810777040309829
 40
1.0
 40
1.0
 40
1.0
 40
1.0
 10
2583.86953687712
 20
984.5835190019526
 30
0.0
 10
2584.111314918539
 20
984.3756607629693
 30
0.0
 10
2584.566824028565
 20
983.9840564597217
 30
0.0
 10
2585.130900305189
 20
983.4231322737734
 30
0.0
 10
2585.568902699349
 20
982.9455478005153
 30
0.0
 10
2585.877386426226
 20
982.5775469772185
 30
0.0
 10
2586.129002239953
 20
982.2570203186396
 30
0.0
 10
2586.381783257556
 20
981.9136224084273
 30
0.0
 10
2586.68566573956
 20
981.4607158337523
 30
0.0
 10
2587.002464513029
 20
980.9233524851075
 30
0.0
 10
2587.291242367087
 20
980.3452222233335
 30
0.0
 10
2587.529404564202
 20
979.7693194425997
 30
0.0
 10
2587.719960851976
 20
979.1792026373839
 30
0.0
 10
2587.83570638827
 20
978.740114703058
 30
0.0
 10
2587.873340508426
 20
978.4878691581001
 30
0.0
 10
2587.879380992197
 20
978.4473823574453
 30
0.0
  0
SPLINE
  5
313
330
307
100
AcDbEntity
  8
0
  6
Continuous
 62
     7
370
    15
100
AcDbSpline
210
0.0
220
0.0
230
1.0
 70
     8
 71
     3
 72
    20
 73
    16
 74
     0
 42
0.0000000001
 43
0.0000000001
 40
0.0
 40
0.0
 40
0.0
 40
0.0
 40
0.0740436290969642
 40
0.1980995411738818
 40
0.2868001212461057
 40
0.3809018527923012
 40
0.4802891727617818
 40
0.5827142678055308
 40
0.6724565633691838
 40
0.7464155847604525
 40
0.8047310712692077
 40
0.851121120774048
 40
0.9019099820263523
 40
0.959014674147756
 40
0.9999999999999998
 40
0.9999999999999998
 40
0.9999999999999998
 40
0.9999999999999998
 10
2530.300971259441
 20
978.7968761417525
 30
0.0
 10
2530.315728061113
 20
978.9628124121602
 30
0.0
 10
2530.355209049227
 20
979.406765517009
 30
0.0
 10
2530.518295328691
 20
980.04592284289
 30
0.0
 10
2530.751969993998
 20
980.7261792404666
 30
0.0
 10
2531.028046679271
 20
981.3470247487522
 30
0.0
 10
2531.380756787618
 20
981.9914096869863
 30
0.0
 10
2531.79363875017
 20
982.6177359432689
 30
0.0
 10
2532.226328993592
 20
983.1806412217297
 30
0.0
 10
2532.626624226546
 20
983.6433422222652
 30
0.0
 10
2532.974213948414
 20
984.0108622528711
 30
0.0
 10
2533.294428243568
 20
984.3277478591041
 30
0.0
 10
2533.628612479034
 20
984.6383807828205
 30
0.0
 10
2533.964956626072
 20
984.9347866541162
 30
0.0
 10
2534.202102540831
 20
985.1257867763576
 30
0.0
 10
2534.301190121726
 20
985.2055930849871
 30
0.0
  0
SPLINE
  5
314
330
307
100
AcDbEntity
  8
0
  6
Continuous
 62
     7
370
    15
100
AcDbSpline
210
0.0
220
0.0
230
1.0
 70
     8
 71
     3
 72
    16
 73
    12
 74
     0
 42
0.0000000001
 43
0.0000000001
 40
0.0
 40
0.0
 40
0.0
 40
0.0
 40
0.0674984802596121
 40
0.1450541564675637
 40
0.2309624188780857
 40
0.3253317794697865
 40
0.426315708376605
 40
0.5920078535461407
 40
0.7561692797665835
 40
0.9248333680535132
 40
1.0
 40
1.0
 40
1.0
 40
1.0
 10
2584.250928924332
 20
985.5670224338513
 30
0.0
 10
2584.404248251785
 20
985.4295177467298
 30
0.0
 10
2584.733731310193
 20
985.1340203322092
 30
0.0
 10
2585.212078703329
 20
984.6523334217113
 30
0.0
 10
2585.706772077586
 20
984.1067726661552
 30
0.0
 10
2586.192527943774
 20
983.5015363293344
 30
0.0
 10
2586.74161630056
 20
982.7127232472772
 30
0.0
 10
2587.275342320131
 20
981.7564772037885
 30
0.0
 10
2587.701910206236
 20
980.6361117942268
 30
0.0
 10
2587.937686834813
 20
979.7097845544163
 30
0.0
 10
2587.957164574514
 20
979.1538680233635
 30
0.0
 10
2587.963169052087
 20
978.9824935007331
 30
0.0
  0
SPLINE
  5
315
330
307
100
AcDbEntity
  8
0
  6
Continuous
 62
     7
370
    15
100
AcDbSpline
210
0.0
220
0.0
230
1.0
 70
     8
 71
     3
 72
    36
 73
    32
 74
     0
 42
0.0000000001
 43
0.0000000001
 40
0.0
 40
0.0
 40
0.0
 40
0.0
 40
0.0375526326404242
 40
0.0670996487271383
 40
0.0918063719704922
 40
0.1117024045074198
 40
0.1243075081905686
 40
0.1418903966872337
 40
0.1644216773125703
 40
0.1918410512049657
 40
0.2233082465862914
 40
0.2713157455313106
 40
0.3119606020397158
 40
0.3452832232217451
 40
0.373363001205873
 40
0.4046433512140759
 40
0.4399808772307711
 40
0.487771411910479
 40
0.5410892454207459
 40
0.5945676733447153
 40
0.6463430539198994
 40
0.696335007839253
 40
0.7363706357767726
 40
0.7712414624144662
 40
0.7996626997441766
 40
0.8222813264705377
 40
0.8460154541080921
 40
0.8727722096503738
 40
0.9184674527866373
 40
0.969424614573111
 40
1.0
 40
1.0
 40
1.0
 40
1.0
 10
2533.945313208625
 20
972.6426044078099
 30
0.0
 10
2533.755515488108
 20
972.8102149680619
 30
0.0
 10
2533.416381864698
 20
973.1097042162208
 30
0.0
 10
2532.996358055196
 20
973.530186284683
 30
0.0
 10
2532.675787731962
 20
973.8735730725114
 30
0.0
 10
2532.442413686664
 20
974.1412241779627
 30
0.0
 10
2532.247142780434
 20
974.3765432315193
 30
0.0
 10
2532.050446661152
 20
974.6252977625397
 30
0.0
 10
2531.813090343855
 20
974.9461502110939
 30
0.0
 10
2531.548940992887
 20
975.3361117384057
 30
0.0
 10
2531.236332890581
 20
975.8525860397211
 30
0.0
 10
2530.937193755291
 20
976.4392398710876
 30
0.0
 10
2530.693163002276
 20
977.0401026419584
 30
0.0
 10
2530.530989666814
 20
977.5454009101325
 30
0.0
 10
2530.415536708836
 20
978.0053484517519
 30
0.0
 10
2530.328898788444
 20
978.4764280094522
 30
0.0
 10
2530.266792331554
 20
979.0464447616548
 30
0.0
 10
2530.256127000944
 20
979.7266928715703
 30
0.0
 10
2530.331391704168
 20
980.4959243996211
 30
0.0
 10
2530.503148011082
 20
981.2817642637686
 30
0.0
 10
2530.76227468477
 20
982.0457141962954
 30
0.0
 10
2531.078864226002
 20
982.7367468116017
 30
0.0
 10
2531.419337146076
 20
983.3384147666263
 30
0.0
 10
2531.743298088993
 20
983.8308922030833
 30
0.0
 10
2532.042270191267
 20
984.2362578209066
 30
0.0
 10
2532.323621915105
 20
984.5864649448069
 30
0.0
 10
2532.617179374485
 20
984.925882159521
 30
0.0
 10
2533.028709796008
 20
985.3675277253993
 30
0.0
 10
2533.606224369349
 20
985.9232349606084
 30
0.0
 10
2534.25269514441
 20
986.4839516586995
 30
0.0
 10
2534.721122486427
 20
986.8269349125998
 30
0.0
 10
2534.896786647749
 20
986.9555564943043
 30
0.0
  0
SPLINE
  5
316
330
307
100
AcDbEntity
  8
0
  6
Continuous
 62
     7
370
    15
100
AcDbSpline
210
0.0
220
0.0
230
1.0
 70
     8
 71
     3
 72
    46
 73
    42
 74
     0
 42
0.0000000001
 43
0.0000000001
 40
0.0
 40
0.0
 40
0.0
 40
0.0
 40
0.0337721141813741
 40
0.0699679702121947
 40
0.1005721013748789
 40
0.125605140939996
 40
0.1439692719425727
 40
0.1575318351273706
 40
0.166691293398923
 40
0.1780022219993774
 40
0.1938272492881456
 40
0.2141305128317197
 40
0.2373295094497015
 40
0.2640176980761242
 40
0.2900105207748952
 40
0.3142154843322041
 40
0.3368221866756213
 40
0.3753182875339309
 40
0.4080477074739883
 40
0.4362687730705515
 40
0.4607471410358638
 40
0.4816333194873195
 40
0.5034989382755411
 40
0.5335898502431359
 40
0.5678962056709151
 40
0.6066944409064455
 40
0.6520165177362491
 40
0.7042271947204752
 40
0.7309233455476231
 40
0.7590778884952303
 40
0.7886680640824403
 40
0.8195735219806948
 40
0.8478556742675142
 40
0.8714637358271966
 40
0.8933361983602178
 40
0.9088238231561332
 40
0.9201086107215367
 40
0.9325899908053136
 40
0.9589797398842925
 40
0.9900718153663154
 40
1.0
 40
1.0
 40
1.0
 40
1.0
 10
2583.203330852113
 20
987.7341308531226
 30
0.0
 10
2583.410417687247
 20
987.5752382700721
 30
0.0
 10
2583.839453472042
 20
987.2460497727775
 30
0.0
 10
2584.400100902423
 20
986.7561232355587
 30
0.0
 10
2584.881476902098
 20
986.3009933723834
 30
0.0
 10
2585.244648225688
 20
985.9282956460669
 30
0.0
 10
2585.509751946101
 20
985.6383474605834
 30
0.0
 10
2585.69309236758
 20
985.4276680212082
 30
0.0
 10
2585.840155540045
 20
985.2524676683056
 30
0.0
 10
2585.992027308628
 20
985.0653978117197
 30
0.0
 10
2586.182641268028
 20
984.8197069924729
 30
0.0
 10
2586.407909512557
 20
984.5104944376389
 30
0.0
 10
2586.655756536931
 20
984.1419401294977
 30
0.0
 10
2586.900415259129
 20
983.740400696319
 30
0.0
 10
2587.123252401675
 20
983.330526061075
 30
0.0
 10
2587.311470101878
 20
982.9401011436363
 30
0.0
 10
2587.507000259739
 20
982.4802453172393
 30
0.0
 10
2587.686011183327
 20
981.9714022926994
 30
0.0
 10
2587.830821784177
 20
981.4297297613721
 30
0.0
 10
2587.922177341399
 20
980.963166293235
 30
0.0
 10
2587.976240224302
 20
980.5606332990798
 30
0.0
 10
2588.006243302081
 20
980.192876189003
 30
0.0
 10
2588.019006020633
 20
979.7941843097673
 30
0.0
 10
2588.005661634767
 20
979.3219017181847
 30
0.0
 10
2587.947460429988
 20
978.757501288579
 30
0.0
 10
2587.825739808102
 20
978.1116794485894
 30
0.0
 10
2587.612638628469
 20
977.3709256792699
 30
0.0
 10
2587.34165436404
 20
976.7014166573598
 30
0.0
 10
2587.055191375457
 20
976.130174165668
 30
0.0
 10
2586.800407638851
 20
975.6831744202314
 30
0.0
 10
2586.50131386983
 20
975.2183792353232
 30
0.0
 10
2586.168970949791
 20
974.7582184243848
 30
0.0
 10
2585.829404578808
 20
974.334410910499
 30
0.0
 10
2585.503972370085
 20
973.961330713433
 30
0.0
 10
2585.218459802505
 20
973.6563523406381
 30
0.0
 10
2584.979847100944
 20
973.4152667245922
 30
0.0
 10
2584.780594162055
 20
973.2216716378287
 30
0.0
 10
2584.519309395858
 20
972.9759618537681
 30
0.0
 10
2584.137171797546
 20
972.6377482488668
 30
0.0
 10
2583.754624597793
 20
972.3157077555978
 30
0.0
 10
2583.50140849017
 20
972.1260805465822
 30
0.0
 10
2583.44012228034
 20
972.0801848370628
 30
0.0
  0
ARC
  5
317
330
307
100
AcDbEntity
  8
0
  6
Continuous
 62
     7
370
    15
100
AcDbCircle
 10
2555.725621970044
 20
940.2038300214703
 30
0.0
 40
58.67263291092064
100
AcDbArc
 50
101.3836391291027
 51
107.800825827516
  0
ARC
  5
318
330
307
100
AcDbEntity
  8
0
  6
Continuous
 62
     7
370
    15
100
AcDbCircle
 10
2530.109986025683
 20
980.3622915012674
 30
0.0
 40
9.465476811494157
100
AcDbArc
 50
165.7203307204326
 51
187.4218721138853
  0
LINE
  5
319
330
307
100
AcDbEntity
  8
0
  6
Continuous
 62
     7
370
    15
100
AcDbLine
 10
2520.693505362028
 20
974.7898483219904
 30
0.0
 11
2520.723811701647
 21
979.1395965974812
 31
0.0
  0
LWPOLYLINE
  5
31A
330
307
100
AcDbEntity
  8
0
  6
Continuous
 62
     7
370
    15
100
AcDbPolyline
 90
       20
 70
   128
 43
0.0
 10
2535.905055003596
 20
960.783245838726
 10
2534.539851218227
 20
961.32340721239
 10
2533.224913013797
 20
961.8931984277265
 10
2531.96293015396
 20
962.4914539518636
 10
2530.756484079898
 20
963.1169500269395
 10
2529.608042629865
 20
963.7684071733533
 10
2528.519954991115
 20
964.4444928069956
 10
2527.494446894543
 20
965.1438239651096
 10
2526.533616061848
 20
965.8649701351995
 10
2525.639427914558
 20
966.6064561812081
 10
2524.813711553668
 20
967.3667653609719
 10
2524.058156018138
 20
968.1443424287826
 10
2523.374306829889
 20
968.9375968167119
 10
2522.763562832368
 20
969.7449058881865
 10
2522.227173329156
 20
970.5646182571628
 10
2521.766235528462
 20
971.3950571661094
 10
2521.381692298734
 20
972.2345239158876
 10
2521.074330239978
 20
973.0813013405152
 10
2520.844778074743
 20
973.9336573197045
 10
2520.693505362028
 20
974.7898483219904
  0
LINE
  5
31B
330
307
100
AcDbEntity
  8
0
  6
Continuous
 62
     7
370
    15
100
AcDbLine
 10
2535.935361343216
 20
965.1329941142169
 30
0.0
 11
2535.905055003596
 21
960.783245838726
 31
0.0
  0
ARC
  5
31C
330
307
100
AcDbEntity
  8
0
  6
Continuous
 62
     7
370
    15
100
AcDbCircle
 10
2555.274168876737
 20
1016.701915978325
 30
0.0
 40
55.07579485622562
100
AcDbArc
 50
249.4435049210384
 51
256.1373930694681
  0
LINE
  5
31D
330
307
100
AcDbEntity
  8
0
  6
Continuous
 62
     7
370
    15
100
AcDbLine
 10
2542.048006628482
 20
958.8805624727349
 30
0.0
 11
2542.078312968101
 21
963.2303107482258
 31
0.0
  0
ARC
  5
31E
330
307
100
AcDbEntity
  8
0
  6
Continuous
 62
     7
370
    15
100
AcDbCircle
 10
2559.52892301716
 20
1031.611567845359
 30
0.0
 40
74.80228325593182
100
AcDbArc
 50
256.4852925421145
 51
281.2416742301261
  0
LINE
  5
31F
330
307
100
AcDbEntity
  8
0
  6
Continuous
 62
     7
370
    15
100
AcDbLine
 10
2574.141769911837
 20
962.5942179687436
 30
0.0
 11
2574.111463572217
 21
958.2444696932528
 31
0.0
  0
ARC
  5
320
330
307
100
AcDbEntity
  8
0
  6
Continuous
 62
     7
370
    15
100
AcDbCircle
 10
2562.561117305674
 20
1020.112617963149
 30
0.0
 40
58.67263291093292
100
AcDbArc
 50
281.3836391291027
 51
287.800825827516
  0
LINE
  5
321
330
307
100
AcDbEntity
  8
0
  6
Continuous
 62
     7
370
    15
100
AcDbLine
 10
2580.467564564695
 20
959.8991898675576
 30
0.0
 11
2580.497870904315
 21
964.2489381430484
 31
0.0
  0
LWPOLYLINE
  5
322
330
307
100
AcDbEntity
  8
0
  6
Continuous
 62
     7
370
    15
100
AcDbPolyline
 90
       20
 70
   128
 43
0.0
 10
2597.319471866863
 20
973.2696995713398
 10
2597.066079172904
 20
972.4215365475634
 10
2596.735051923679
 20
971.5803016561125
 10
2596.327067249914
 20
970.7477156797802
 10
2595.842959702117
 20
969.9254817096253
 10
2595.283719543469
 20
969.1152816612255
 10
2594.650490724193
 20
968.3187728342437
 10
2593.944568541558
 20
967.5375845223507
 10
2593.167396990287
 20
966.7733146804332
 10
2592.320565808807
 20
966.0275266559066
 10
2591.405807227368
 20
965.3017459908202
 10
2590.42499242469
 20
964.5974573012935
 10
2589.380127700385
 20
963.9161012406697
 10
2588.273350370981
 20
963.259071552595
 10
2587.106924397954
 20
962.6277122200562
 10
2585.883235756686
 20
962.0233147162045
 10
2584.604787555859
 20
961.4471153625895
 10
2583.274194917228
 20
960.900292800211
 10
2581.894179626278
 20
960.3839655785561
 10
2580.467564564695
 20
959.8991898675576
  0
LINE
  5
323
330
307
100
AcDbEntity
  8
0
  6
Continuous
 62
     7
370
    15
100
AcDbLine
 10
2597.349778206482
 20
977.6194478468307
 30
0.0
 11
2597.319471866863
 21
973.2696995713398
 31
0.0
  0
ARC
  5
324
330
307
100
AcDbEntity
  8
0
  6
Continuous
 62
     7
370
    15
100
AcDbCircle
 10
2588.176753250038
 20
979.9541564833408
 30
0.0
 40
9.46547681149422
100
AcDbArc
 50
345.7203307204326
 51
7.421872113885362
  0
ARC
  5
325
330
307
100
AcDbEntity
  8
0
  6
Continuous
 62
     7
370
    15
100
AcDbCircle
 10
2563.012570398986
 20
943.6145320062909
 30
0.0
 40
55.07579485621772
100
AcDbArc
 50
69.4435049210384
 51
76.13739306946813
  0
LWPOLYLINE
  5
326
330
307
100
AcDbEntity
  8
0
  6
Continuous
 62
     7
370
    15
100
AcDbPolyline
 90
       73
 70
   128
 43
0.0
 10
2597.59515730327
 20
973.1043791474322
 10
2597.585937296578
 20
972.7490994809777
 10
2597.510540560436
 20
971.9103523832464
 10
2597.359945736799
 20
971.0744677365489
 10
2597.134447622106
 20
970.2430818243342
 10
2596.834487639507
 20
969.4178221235679
 10
2596.460652974753
 20
968.600304118868
 10
2596.013675426757
 20
967.7921281401195
 10
2595.494429975057
 20
966.9948762297527
 10
2594.90393306701
 20
966.2101090458213
 10
2594.243340628043
 20
965.4393628069406
 10
2593.513945798877
 20
964.6841462850675
 10
2592.717176404142
 20
963.9459378520083
 10
2591.854592157345
 20
963.2261825854373
 10
2590.927881607656
 20
962.5262894400885
 10
2589.938858834494
 20
961.8476284896608
 10
2588.889459896383
 20
961.1915282448347
 10
2587.781739041023
 20
960.5592730526499
 10
2586.617864684007
 20
959.952100582336
 10
2585.400115164046
 20
959.3711994025163
 10
2584.13087428301
 20
958.8177066545297
 10
2582.812626639526
 20
958.2927058264221
 10
2581.447952765263
 20
957.7972246319689
 10
2580.039524073413
 20
957.3322329988759
 10
2578.590097629283
 20
956.8986411701009
 10
2577.1025107532
 20
956.4972979220103
 10
2575.579675466333
 20
956.1289889028591
 10
2574.024572790266
 20
955.7944350948487
 10
2572.440246911518
 20
955.494291402768
 10
2570.829799222395
 20
955.2291453719899
 10
2569.196382249875
 20
954.9995160383204
 10
2567.543193484388
 20
954.8058529119639
 10
2565.873469120575
 20
954.6485350975844
 10
2564.19047772229
 20
954.5278705521914
 10
2562.497513824227
 20
954.4440954822988
 10
2560.79789148272
 20
954.3973738815401
 10
2559.094937788315
 20
954.3877972096426
 10
2557.391986352841
 20
954.4153842133914
 10
2555.692370783702
 20
954.4800808899312
 10
2553.999418158191
 20
954.5817605924796
 10
2552.316442510571
 20
954.7202242782439
 10
2550.646738344707
 20
954.8952008980569
 10
2548.993574184912
 20
955.1063479269684
 10
2547.360186177661
 20
955.3532520347539
 10
2545.749771756683
 20
955.6354298950278
 10
2544.165483383832
 20
955.9523291313775
 10
2542.610422377997
 20
956.3033293986661
 10
2541.087632844121
 20
956.6877435973875
 10
2539.600095714228
 20
957.1048192186957
 10
2538.150722912103
 20
957.5537398174761
 10
2536.742351653071
 20
958.0336266105749
 10
2535.377738890008
 20
958.5435401970595
 10
2534.05955591648
 20
959.0824823971386
 10
2532.790383137558
 20
959.6493982061469
 10
2531.57270501856
 20
960.2431778597658
 10
2530.408905221583
 20
960.8626590064393
 10
2529.301261939385
 20
961.5066289827321
 10
2528.251943435703
 20
962.1738271871747
 10
2527.263003800786
 20
962.8629475479501
 10
2526.336378930409
 20
963.5726410795912
 10
2525.473882736271
 20
964.3015185236825
 10
2524.677203595173
 20
965.048153068399
 10
2523.947901043948
 20
965.8110831415571
 10
2523.287402726587
 20
966.5888152717121
 10
2522.697001599563
 20
967.3798270116963
 10
2522.177853400809
 20
968.1825699188829
 10
2521.730974387301
 20
968.9954725863342
 10
2521.357239345695
 20
969.8169437189047
 10
2521.057379879885
 20
970.6453752482762
 10
2520.831982978857
 20
971.4791454808267
 10
2520.68148986763
 20
972.3166222721721
 10
2520.606195143534
 20
973.156166222165
 10
2520.597026192839
 20
973.6408542176445
  0
LINE
  5
327
330
307
100
AcDbEntity
  8
0
  6
Continuous
 62
     7
370
    15
100
AcDbLine
 10
2544.144969363884
 20
997.7222300158643
 30
0.0
 11
2576.208426307621
 21
997.0861372363822
 31
0.0
  0
LINE
  5
328
330
307
100
AcDbEntity
  8
0
  6
Continuous
 62
     7
370
    15
100
AcDbLine
 10
2582.351377932506
 20
995.1834538703911
 30
0.0
 11
2597.562927574074
 21
981.1768513871268
 31
0.0
  0
LINE
  5
329
330
307
100
AcDbEntity
  8
0
  6
Continuous
 62
     7
370
    15
100
AcDbLine
 10
2597.349778206482
 20
977.6194478468307
 30
0.0
 11
2580.497870904315
 21
964.2489381430484
 31
0.0
  0
LINE
  5
32A
330
307
100
AcDbEntity
  8
0
  6
Continuous
 62
     7
370
    15
100
AcDbLine
 10
2574.141769911837
 20
962.5942179687436
 30
0.0
 11
2542.078312968101
 21
963.2303107482258
 31
0.0
  0
LINE
  5
32B
330
307
100
AcDbEntity
  8
0
  6
Continuous
 62
     7
370
    15
100
AcDbLine
 10
2535.935361343216
 20
965.1329941142169
 30
0.0
 11
2520.723811701647
 21
979.1395965974812
 31
0.0
  0
LINE
  5
32C
330
307
100
AcDbEntity
  8
0
  6
Continuous
 62
     7
370
    15
100
AcDbLine
 10
2520.936961069239
 20
982.6970001377773
 30
0.0
 11
2537.788868371407
 21
996.0675098415595
 31
0.0
  0
SPLINE
  5
32D
330
307
100
AcDbEntity
  8
0
  6
Continuous
 62
     7
370
    15
100
AcDbSpline
210
0.0
220
0.0
230
1.0
 70
     8
 71
     3
 72
    18
 73
    14
 74
     0
 42
0.0000000001
 43
0.0000000001
 40
0.0
 40
0.0
 40
0.0
 40
0.0
 40
0.2500000000000002
 40
0.2500000000000002
 40
0.3750000000000001
 40
0.3750000000000001
 40
0.5
 40
0.5
 40
0.75
 40
0.75
 40
0.875
 40
0.875
 40
1.0
 40
1.0
 40
1.0
 40
1.0
 10
2587.082686315346
 20
983.8251828920023
 30
0.0
 10
2586.569342965546
 20
984.6837594805293
 30
0.0
 10
2585.908452201624
 20
985.5206368708421
 30
0.0
 10
2584.690657298458
 20
986.7227724724314
 30
0.0
 10
2584.249231944526
 20
987.1131588808719
 30
0.0
 10
2583.295445108164
 20
987.873295707023
 30
0.0
 10
2582.780970293213
 20
988.2443805963827
 30
0.0
 10
2581.145930268357
 20
989.3152193188928
 30
0.0
 10
2579.93900364311
 20
989.9712173965824
 30
0.0
 10
2577.957493314197
 20
990.8704675673428
 30
0.0
 10
2577.268294954087
 20
991.1560065383072
 30
0.0
 10
2575.831044930398
 20
991.6979375288386
 30
0.0
 10
2575.081920592036
 20
991.954505139169
 30
0.0
 10
2574.311734469906
 20
992.1929904754627
 30
0.0
  0
LINE
  5
32E
330
307
100
AcDbEntity
  8
0
  6
Continuous
 62
     7
370
    15
100
AcDbLine
 10
2574.311734469906
 20
992.1929904754627
 30
0.0
 11
2574.903602457565
 21
992.6625857877587
 31
0.0
  0
LWPOLYLINE
  5
32F
330
307
100
AcDbEntity
  8
0
  6
Continuous
 62
     7
370
    15
100
AcDbPolyline
 90
       73
 70
   128
 43
0.0
 10
2574.903602457565
 20
992.6625857877587
 10
2573.602103520459
 20
993.043777199162
 10
2572.264132983383
 20
993.392465298328
 10
2570.893065825544
 20
993.7077705329411
 10
2569.492360511101
 20
993.9888975576771
 10
2568.065550265322
 20
994.2351372404317
 10
2566.61623416216
 20
994.4458684510783
 10
2565.148068045728
 20
994.6205596282451
 10
2563.664755308571
 20
994.7587701201587
 10
2562.170037550006
 20
994.8601512961699
 10
2560.667685138072
 20
994.9244474261629
 10
2559.161487698932
 20
994.9514963256232
 10
2557.655244557679
 20
994.9412297647425
 10
2556.152755154692
 20
994.8936736405256
 10
2554.657809461684
 20
994.8089479114665
 10
2553.174178421655
 20
994.6872662949571
 10
2551.705604436824
 20
994.5289357281938
 10
2550.255791928571
 20
994.3343555939398
 10
2548.828397993171
 20
994.1040167130983
 10
2547.427023176911
 20
993.8385001066345
 10
2546.055202393854
 20
993.5384755299734
 10
2544.716396009148
 20
993.2046997835676
 10
2543.413981110392
 20
992.8380148038961
 10
2542.151242989064
 20
992.4393455397133
 10
2540.931366853494
 20
992.0096976189006
 10
2539.757429794303
 20
991.5501548118093
 10
2538.632393022562
 20
991.0618762974907
 10
2537.559094400243
 20
990.5460937397124
 10
2536.540241281832
 20
990.0041081801337
 10
2535.578403685122
 20
989.4372867564774
 10
2534.676007808446
 20
988.8470592539782
 10
2533.83532991069
 20
988.2349144988042
 10
2533.058490569505
 20
987.6023966025503
 10
2532.347449332246
 20
986.9511010672756
 10
2531.703999773077
 20
986.2826707609118
 10
2531.129764968757
 20
985.598791773191
 10
2530.62619340449
 20
984.9011891625497
 10
2530.194555320171
 20
984.1916226047359
 10
2529.835939506264
 20
983.4718819540931
 10
2529.551250557362
 20
982.7437827287232
 10
2529.341206590386
 20
982.0091615309111
 10
2529.206337433163
 20
981.2698714143662
 10
2529.146983287952
 20
980.527777209966
 10
2529.163293873302
 20
979.7847508217914
 10
2529.25522804639
 20
979.0426665053216
 10
2529.422553906798
 20
978.3033961396952
 10
2529.664849381483
 20
977.5688045059691
 10
2529.981503289431
 20
976.8407445832785
 10
2530.371716883342
 20
976.1210528747684
 10
2530.834505864436
 20
975.4115447750862
 10
2531.368702865313
 20
974.7140099911174
 10
2531.97296039459
 20
974.0302080275194
 10
2532.645754235896
 20
973.3618637484383
 10
2533.38538729265
 20
972.7106630266062
 10
2534.18999386892
 20
972.0782484907907
 10
2535.057544375573
 20
971.466215382329
 10
2535.985850449832
 20
970.876107531191
 10
2536.972570475337
 20
970.3094134617288
 10
2538.015215488785
 20
969.7675626379313
 10
2539.111155458241
 20
969.2519218576556
 10
2540.257625917296
 20
968.7637918049322
 10
2541.451734938322
 20
968.3044037690404
 10
2542.690470427254
 20
967.8749165386271
 10
2543.970707721476
 20
967.476413478708
 10
2545.289217471667
 20
967.1098997979207
 10
2546.642673787707
 20
966.776300012925
 10
2548.027662628107
 20
966.476455616344
 10
2549.440690411802
 20
966.2111229541327
 10
2550.878192830567
 20
965.9809713177239
 10
2552.336543839854
 20
965.7865812557663
 10
2553.812064805348
 20
965.6284431097123
 10
2555.301033782179
 20
965.506955776952
 10
2556.799694903385
 20
965.4224257046079
  0
SPLINE
  5
330
330
307
100
AcDbEntity
  8
0
  6
Continuous
 62
     7
370
    15
100
AcDbSpline
210
0.0
220
0.0
230
1.0
 70
     8
 71
     3
 72
    46
 73
    42
 74
     0
 42
0.0000000001
 43
0.0000000001
 40
0.0
 40
0.0
 40
0.0
 40
0.0
 40
0.0625000000000001
 40
0.0625000000000001
 40
0.09375
 40
0.09375
 40
0.1249999999999998
 40
0.1249999999999998
 40
0.1874999999999997
 40
0.1874999999999997
 40
0.2499999999999996
 40
0.2499999999999996
 40
0.3124999999999996
 40
0.3124999999999996
 40
0.3437499999999996
 40
0.3437499999999996
 40
0.3749999999999996
 40
0.3749999999999996
 40
0.4374999999999996
 40
0.4374999999999996
 40
0.4687499999999997
 40
0.4687499999999997
 40
0.4999999999999997
 40
0.4999999999999997
 40
0.5624999999999997
 40
0.5624999999999997
 40
0.6249999999999999
 40
0.6249999999999999
 40
0.6874999999999999
 40
0.6874999999999999
 40
0.7499999999999999
 40
0.7499999999999999
 40
0.78125
 40
0.78125
 40
0.8124999999999998
 40
0.8124999999999998
 40
0.8749999999999998
 40
0.8749999999999998
 40
0.9375
 40
0.9375
 40
1.0
 40
1.0
 40
1.0
 40
1.0
 10
2556.799694903385
 20
965.4224257046079
 30
0.0
 10
2557.98147510847
 20
965.3810440114675
 30
0.0
 10
2559.167384695909
 20
965.3741892592305
 30
0.0
 10
2560.935920109222
 20
965.4154102472254
 30
0.0
 10
2561.524417970173
 20
965.4377199070067
 30
0.0
 10
2562.699375357675
 20
965.49956618373
 30
0.0
 10
2563.286068310242
 20
965.5391542791653
 30
0.0
 10
2565.031914320548
 20
965.683054049578
 30
0.0
 10
2566.180659698518
 20
965.8124063099227
 30
0.0
 10
2568.447081847546
 20
966.1396355699148
 30
0.0
 10
2569.551761636246
 20
966.3357113707817
 30
0.0
 10
2571.694769552636
 20
966.7885198850395
 30
0.0
 10
2572.735008954158
 20
967.0455342671219
 30
0.0
 10
2574.248398932339
 20
967.4770418036082
 30
0.0
 10
2574.74501381496
 20
967.6285618084174
 30
0.0
 10
2575.722282768162
 20
967.9472285373282
 30
0.0
 10
2576.204069174614
 20
968.1148062264345
 30
0.0
 10
2577.615719428953
 20
968.6381900314808
 30
0.0
 10
2578.510196137171
 20
969.0136495373488
 30
0.0
 10
2579.782157625694
 20
969.6165408771268
 30
0.0
 10
2580.194975691081
 20
969.8244313480003
 30
0.0
 10
2580.992114383056
 20
970.2509682383904
 30
0.0
 10
2581.37697911493
 20
970.4698412162908
 30
0.0
 10
2582.490635429097
 20
971.1432017885069
 30
0.0
 10
2583.180580870507
 20
971.6160524791975
 30
0.0
 10
2584.436429341245
 20
972.5968663532421
 30
0.0
 10
2585.002887701223
 20
973.1049522598892
 30
0.0
 10
2586.010277428379
 20
974.1572284624673
 30
0.0
 10
2586.446719468977
 20
974.6964730818932
 30
0.0
 10
2587.185067747262
 20
975.79964196978
 30
0.0
 10
2587.48691330798
 20
976.364469979658
 30
0.0
 10
2587.83237944483
 20
977.2194024724253
 30
0.0
 10
2587.929959387694
 20
977.5061142768059
 30
0.0
 10
2588.089832052629
 20
978.0830199537424
 30
0.0
 10
2588.152152656028
 20
978.3738161780139
 30
0.0
 10
2588.28451171903
 20
979.2432263324409
 30
0.0
 10
2588.301014358765
 20
979.820922285139
 30
0.0
 10
2588.194612554877
 20
980.972600871113
 30
0.0
 10
2588.071700999226
 20
981.5465833149493
 30
0.0
 10
2587.684381163994
 20
982.6907792224487
 30
0.0
 10
2587.418780455326
 20
983.263059003109
 30
0.0
 10
2587.082686315346
 20
983.8251828920023
 30
0.0
  0
LINE
  5
331
330
307
100
AcDbEntity
  8
0
  6
Continuous
 62
     7
370
    15
100
AcDbLine
 10
2574.111463572217
 20
958.2444696932528
 30
0.0
 11
2542.048006628482
 21
958.8805624727349
 31
0.0
  0
SPLINE
  5
332
330
307
100
AcDbEntity
  8
0
  6
Continuous
 62
     7
370
    15
100
AcDbSpline
210
0.0
220
0.0
230
1.0
 70
     8
 71
     3
 72
    30
 73
    26
 74
     0
 42
0.0000000001
 43
0.0000000001
 40
0.0
 40
0.0
 40
0.0
 40
0.0
 40
0.0314078588360335
 40
0.0759774198008368
 40
0.1209951055987794
 40
0.166272928187367
 40
0.211616254962747
 40
0.2568287621722436
 40
0.3017174962612779
 40
0.3460977207785846
 40
0.3899216845401782
 40
0.4341790748718401
 40
0.4789805425675245
 40
0.524143535862244
 40
0.5694763692461567
 40
0.6147829903674955
 40
0.6598680240133344
 40
0.7045417728363592
 40
0.748624859576272
 40
0.7925357180857951
 40
0.8370689700984003
 40
0.882062528752214
 40
0.9273290165042828
 40
0.9726740926501088
 40
0.9999999999999998
 40
0.9999999999999998
 40
0.9999999999999998
 40
0.9999999999999998
 10
2583.48313272935
 20
972.1122637433289
 30
0.0
 10
2583.143048800907
 20
971.8517322308585
 30
0.0
 10
2582.320366187179
 20
971.2214914940529
 30
0.0
 10
2580.781896093743
 20
970.298485386489
 30
0.0
 10
2578.910041789584
 20
969.342543132803
 30
0.0
 10
2576.849651580114
 20
968.4745502737493
 30
0.0
 10
2574.634834473223
 20
967.7037136468783
 30
0.0
 10
2572.292096719996
 20
967.0406080265419
 30
0.0
 10
2569.854056431583
 20
966.4919305842651
 30
0.0
 10
2567.351656179221
 20
966.0610794142213
 30
0.0
 10
2564.793734031338
 20
965.7463385882484
 30
0.0
 10
2562.181005930388
 20
965.5458793649181
 30
0.0
 10
2559.516258671881
 20
965.4628556278304
 30
0.0
 10
2556.826866381995
 20
965.5015122266828
 30
0.0
 10
2554.147412066702
 20
965.663511016381
 30
0.0
 10
2551.512736466345
 20
965.9473312756219
 30
0.0
 10
2548.956452860355
 20
966.3483307669567
 30
0.0
 10
2546.509508166496
 20
966.8589192996646
 30
0.0
 10
2544.188878450063
 20
967.4719085829085
 30
0.0
 10
2541.993289411364
 20
968.1845288980849
 30
0.0
 10
2539.925608604644
 20
968.9966925480909
 30
0.0
 10
2537.997535022544
 20
969.9064002683238
 30
0.0
 10
2536.249469746287
 20
970.907556894592
 30
0.0
 10
2534.870425561632
 20
971.8349870717727
 30
0.0
 10
2534.168615260798
 20
972.4504335088065
 30
0.0
 10
2533.904718966359
 20
972.6818550681169
 30
0.0
  0
SPLINE
  5
333
330
307
100
AcDbEntity
  8
0
  6
Continuous
 62
     7
370
    15
100
AcDbSpline
210
0.0
220
0.0
230
1.0
 70
     8
 71
     3
 72
    34
 73
    30
 74
     0
 42
0.0000000001
 43
0.0000000001
 40
0.0
 40
0.0
 40
0.0
 40
0.0
 40
0.0049844124621986
 40
0.0436250618168319
 40
0.0823680629640015
 40
0.1210834545952486
 40
0.1603402434218808
 40
0.1993010293325022
 40
0.237838573970006
 40
0.2759453496141524
 40
0.3144125046438954
 40
0.3526228993132867
 40
0.3911390259452765
 40
0.4298354364611651
 40
0.4685831028383153
 40
0.5079531027979775
 40
0.5471058498153003
 40
0.5859102296272437
 40
0.6242421198062304
 40
0.6624073093187788
 40
0.7003737857576233
 40
0.7387192650993742
 40
0.7773216420327276
 40
0.8160537620076928
 40
0.8554888865681403
 40
0.8947870911827507
 40
0.9338142865264797
 40
0.9724418998181169
 40
1.0
 40
1.0
 40
1.0
 40
1.0
 10
2529.153134548283
 20
980.0568996737782
 30
0.0
 10
2529.149876460666
 20
980.1081864376923
 30
0.0
 10
2529.121360707846
 20
980.5570634644451
 30
0.0
 10
2529.258283342452
 20
981.4036561665405
 30
0.0
 10
2529.57810247598
 20
982.5861995277053
 30
0.0
 10
2530.11903696903
 20
983.7563255153153
 30
0.0
 10
2530.853262697036
 20
984.901844197013
 30
0.0
 10
2531.780686708159
 20
986.0109122172524
 30
0.0
 10
2532.881605589485
 20
987.0675350010957
 30
0.0
 10
2534.150878452779
 20
988.0719692001813
 30
0.0
 10
2535.58056729366
 20
989.0182712123509
 30
0.0
 10
2537.170706385622
 20
989.9061552699178
 30
0.0
 10
2538.909326206307
 20
990.7280125432103
 30
0.0
 10
2540.791317716799
 20
991.4796505584776
 30
0.0
 10
2542.811110067917
 20
992.1569226092923
 30
0.0
 10
2544.950599710648
 20
992.7513290720003
 30
0.0
 10
2547.188692641638
 20
993.2558980815814
 30
0.0
 10
2549.487832881703
 20
993.6638805732576
 30
0.0
 10
2551.831468148787
 20
993.9753966688119
 30
0.0
 10
2554.205835413399
 20
994.1907345015392
 30
0.0
 10
2556.612535863778
 20
994.3102205106169
 30
0.0
 10
2559.045045125953
 20
994.3331654774677
 30
0.0
 10
2561.494408999504
 20
994.2575640871071
 30
0.0
 10
2563.951041711388
 20
994.0817225601408
 30
0.0
 10
2566.38919734903
 20
993.8045486070688
 30
0.0
 10
2568.784239651158
 20
993.428369699049
 30
0.0
 10
2571.093172758077
 20
992.9564666956697
 30
0.0
 10
2573.109589174613
 20
992.4596647771318
 30
0.0
 10
2574.307010798297
 20
992.0850106431663
 30
0.0
 10
2574.805587656256
 20
991.9290138937844
 30
0.0
  0
LWPOLYLINE
  5
334
330
307
100
AcDbEntity
  8
0
  6
Continuous
 62
     7
370
    15
100
AcDbPolyline
 90
        9
 70
   128
 43
0.0
 10
2574.311734469906
 20
992.1929904754627
 10
2574.312414162935
 20
992.1684619118423
 10
2574.315291107249
 20
992.1461444358195
 10
2574.320304726794
 20
992.1265079573057
 10
2574.327349456338
 20
992.1099659359532
 10
2574.336276964223
 20
992.0968666754758
 10
2574.346899275589
 20
992.0874859898738
 10
2574.358992730314
 20
992.0820213959776
 10
2574.372302692335
 20
992.0805879545961
  0
SPLINE
  5
335
330
307
100
AcDbEntity
  8
0
  6
Continuous
 62
     7
370
    15
100
AcDbSpline
210
0.0
220
0.0
230
1.0
 70
     8
 71
     3
 72
    12
 73
     8
 74
     0
 42
0.0000000001
 43
0.0000000001
 40
0.0
 40
0.0
 40
0.0
 40
0.0
 40
0.2103693484637067
 40
0.4236728390735176
 40
0.6390607897946922
 40
0.8556314108740076
 40
1.0
 40
1.0
 40
1.0
 40
1.0
 10
2574.372302692335
 20
992.0805879545961
 30
0.0
 10
2575.103760351703
 20
991.8347036591534
 30
0.0
 10
2576.576877730588
 20
991.3395055787553
 30
0.0
 10
2578.621896246295
 20
990.4709736223608
 30
0.0
 10
2580.522149711724
 20
989.5088379783388
 30
0.0
 10
2582.080282477056
 20
988.5829912614445
 30
0.0
 10
2582.911233003621
 20
987.9519684493638
 30
0.0
 10
2583.243596880312
 20
987.6995717285018
 30
0.0
  0
SPLINE
  5
336
330
307
100
AcDbEntity
  8
0
  6
Continuous
 62
     7
370
    15
100
AcDbSpline
210
0.0
220
0.0
230
1.0
 70
     8
 71
     3
 72
    30
 73
    26
 74
     0
 42
0.0000000001
 43
0.0000000001
 40
0.0
 40
0.0
 40
0.0
 40
0.0
 40
0.0239631619562683
 40
0.068650384659765
 40
0.1138120732218699
 40
0.1592606788097895
 40
0.2048013415310362
 40
0.2502368264440923
 40
0.2953726110043273
 40
0.340021799670481
 40
0.3840651120553411
 40
0.4284265086937719
 40
0.4733578354492962
 40
0.5186773139337727
 40
0.5641933916761964
 40
0.6097094694186201
 40
0.6550289479030967
 40
0.699960274658621
 40
0.7443216712970519
 40
0.788364983681912
 40
0.8330141723480657
 40
0.8781499569083008
 40
0.923585441821357
 40
0.9691261045426037
 40
1.0
 40
1.0
 40
1.0
 40
1.0
 10
2534.852187467628
 20
986.9239347187111
 30
0.0
 10
2535.106626237716
 20
987.116591069156
 30
0.0
 10
2535.835550052979
 20
987.6685187567179
 30
0.0
 10
2537.261352928207
 20
988.5074465862173
 30
0.0
 10
2539.105084590306
 20
989.4357426319997
 30
0.0
 10
2541.14293151677
 20
990.2762243345712
 30
0.0
 10
2543.338062557431
 20
991.0210562779903
 30
0.0
 10
2545.665376527495
 20
991.6595003537166
 30
0.0
 10
2548.092325941343
 20
992.1850873180146
 30
0.0
 10
2550.586850173511
 20
992.5940673745733
 30
0.0
 10
2553.137202551307
 20
992.8884301445817
 30
0.0
 10
2555.742365124529
 20
993.0674660010067
 30
0.0
 10
2558.401023807383
 20
993.1282729492762
 30
0.0
 10
2561.08883240805
 20
993.0668618003664
 30
0.0
 10
2563.771358201426
 20
992.8816338046701
 30
0.0
 10
2566.413711727142
 20
992.5741956579289
 30
0.0
 10
2568.982035052475
 20
992.1493060157736
 30
0.0
 10
2571.44495385431
 20
991.614628682797
 30
0.0
 10
2573.782084787969
 20
990.9783792973575
 30
0.0
 10
2575.994115059581
 20
990.243191992808
 30
0.0
 10
2578.078873421138
 20
989.4069235576768
 30
0.0
 10
2580.027051482006
 20
988.4711232635925
 30
0.0
 10
2581.800099826148
 20
987.4419717375424
 30
0.0
 10
2583.239615328649
 20
986.4600375572599
 30
0.0
 10
2583.989233413437
 20
985.7976049318926
 30
0.0
 10
2584.292102800297
 20
985.5299612248474
 30
0.0
  0
SPLINE
  5
337
330
307
100
AcDbEntity
  8
0
  6
Continuous
 62
     7
370
    15
100
AcDbSpline
210
0.0
220
0.0
230
1.0
 70
     8
 71
     3
 72
    30
 73
    26
 74
     0
 42
0.0000000001
 43
0.0000000001
 40
0.0
 40
0.0
 40
0.0
 40
0.0
 40
0.0305023740710505
 40
0.074762938960272
 40
0.1195429941765103
 40
0.1646588422548977
 40
0.2099182759564181
 40
0.2551253911794825
 40
0.300085634897608
 40
0.3446107668357392
 40
0.3885234237233823
 40
0.4324360806110255
 40
0.4769612125491566
 40
0.5219214562672823
 40
0.5671285714903468
 40
0.612388005191867
 40
0.6575038532702545
 40
0.7022839084864928
 40
0.7465444733757142
 40
0.7902836891975945
 40
0.8345033812778538
 40
0.8792543987528908
 40
0.9243537711476937
 40
0.9696097131870363
 40
0.9999999999999998
 40
0.9999999999999998
 40
0.9999999999999998
 40
0.9999999999999998
 10
2534.257948194244
 20
985.1707878741017
 30
0.0
 10
2534.570262950952
 20
985.4217484172062
 30
0.0
 10
2535.33576300802
 20
986.0368660379478
 30
0.0
 10
2536.790738841609
 20
986.943709963481
 30
0.0
 10
2538.583735784968
 20
987.8915248105633
 30
0.0
 10
2540.574150404351
 20
988.7560097267831
 30
0.0
 10
2542.72937984201
 20
989.5275785306639
 30
0.0
 10
2545.024591708587
 20
990.1951290812808
 30
0.0
 10
2547.428144883503
 20
990.751320463331
 30
0.0
 10
2549.90720163749
 20
991.1914558029241
 30
0.0
 10
2552.442883240014
 20
991.5161798208123
 30
0.0
 10
2555.033437281515
 20
991.7262253812678
 30
0.0
 10
2557.678717919021
 20
991.8189376302008
 30
0.0
 10
2560.362066262642
 20
991.7904132795086
 30
0.0
 10
2563.049420120755
 20
991.6381756905336
 30
0.0
 10
2565.705865960099
 20
991.3629913093695
 30
0.0
 10
2568.297124978505
 20
990.9687815541804
 30
0.0
 10
2570.791033911718
 20
990.4624960278601
 30
0.0
 10
2573.161779559774
 20
989.8528506208702
 30
0.0
 10
2575.407197459115
 20
989.1442090799698
 30
0.0
 10
2577.526181475926
 20
988.3350239457067
 30
0.0
 10
2579.514075157897
 20
987.4252418502553
 30
0.0
 10
2581.334297499131
 20
986.4191741924585
 30
0.0
 10
2582.817368517169
 20
985.4579422317053
 30
0.0
 10
2583.596283827938
 20
984.8073410205595
 30
0.0
 10
2583.909207023932
 20
984.5459670207242
 30
0.0
  0
SPLINE
  5
338
330
307
100
AcDbEntity
  8
0
  6
Continuous
 62
     7
370
    15
100
AcDbSpline
210
0.0
220
0.0
230
1.0
 70
     8
 71
     3
 72
    31
 73
    27
 74
     0
 42
0.0000000001
 43
0.0000000001
 40
0.0
 40
0.0
 40
0.0
 40
0.0
 40
0.0160131514957945
 40
0.0594281453481665
 40
0.1034009104702658
 40
0.1477535465207671
 40
0.1922985875950489
 40
0.2368436286693306
 40
0.2811962647198319
 40
0.3251690298419312
 40
0.368584023694303
 40
0.4116877192792679
 40
0.4553843654253264
 40
0.4995572264643088
 40
0.5440233940707408
 40
0.5885924956297084
 40
0.6330715039954875
 40
0.6772697164022618
 40
0.7210035851702969
 40
0.764131682497987
 40
0.8075034789848402
 40
0.8514444635702476
 40
0.8957775250599294
 40
0.9403156964762382
 40
0.9848667502382294
 40
0.9999999999999998
 40
0.9999999999999998
 40
0.9999999999999998
 40
0.9999999999999998
 10
2534.329635193598
 20
983.9281696334895
 30
0.0
 10
2534.490827355739
 20
984.0634972158252
 30
0.0
 10
2535.089045092158
 20
984.5657261015499
 30
0.0
 10
2536.33998828216
 20
985.3735735753003
 30
0.0
 10
2538.07452434308
 20
986.341985912934
 30
0.0
 10
2540.017636990024
 20
987.2290093363393
 30
0.0
 10
2542.13053054867
 20
988.0267333380428
 30
0.0
 10
2544.391560132793
 20
988.722810434406
 30
0.0
 10
2546.769326570701
 20
989.3092867406604
 30
0.0
 10
2549.231557489359
 20
989.7806547770086
 30
0.0
 10
2551.752455313347
 20
990.1357956300445
 30
0.0
 10
2554.328407159944
 20
990.3766623262875
 30
0.0
 10
2556.959131505735
 20
990.5009648036925
 30
0.0
 10
2559.635589688373
 20
990.5051497556186
 30
0.0
 10
2562.325280734815
 20
990.3859572037115
 30
0.0
 10
2564.993372488761
 20
990.1433056329905
 30
0.0
 10
2567.605275318257
 20
989.7802751044018
 30
0.0
 10
2570.128109084853
 20
989.3030478961819
 30
0.0
 10
2572.532663401114
 20
988.7203125943319
 30
0.0
 10
2574.811272697656
 20
988.0380078393002
 30
0.0
 10
2576.964786030281
 20
987.2559786259456
 30
0.0
 10
2578.987717289389
 20
986.3720689714604
 30
0.0
 10
2580.862894656688
 20
985.3927757851163
 30
0.0
 10
2582.543659648287
 20
984.3238495860477
 30
0.0
 10
2583.742245390436
 20
983.444110470311
 30
0.0
 10
2584.300604980791
 20
982.9050939167004
 30
0.0
 10
2584.442179811004
 20
982.7684236089323
 30
0.0
  0
SPLINE
  5
339
330
307
100
AcDbEntity
  8
0
  6
Continuous
 62
     7
370
    15
100
AcDbSpline
210
0.0
220
0.0
230
1.0
 70
     8
 71
     3
 72
    31
 73
    27
 74
     0
 42
0.0000000001
 43
0.0000000001
 40
0.0
 40
0.0
 40
0.0
 40
0.0
 40
0.0245608458214651
 40
0.0668575028852119
 40
0.1097440957216193
 40
0.1530497880852976
 40
0.1965932670035432
 40
0.2401871390634975
 40
0.2836427094971924
 40
0.3267748443535065
 40
0.3694066062930556
 40
0.4115362049777542
 40
0.4541285982407888
 40
0.4972327639540689
 40
0.5406724650146066
 40
0.5842629739066684
 40
0.6278156828521852
 40
0.6711429604160243
 40
0.7140629457574988
 40
0.7564039790414282
 40
0.7986588870707086
 40
0.8415113267350129
 40
0.8847946264293128
 40
0.928328040683511
 40
0.9719244354596511
 40
1.0
 40
1.0
 40
1.0
 40
1.0
 10
2533.700639847575
 20
982.1024273688955
 30
0.0
 10
2533.941091110646
 20
982.3180531242673
 30
0.0
 10
2534.595627649466
 20
982.9050117195331
 30
0.0
 10
2535.898123350377
 20
983.800925703907
 30
0.0
 10
2537.580874949466
 20
984.7864079757915
 30
0.0
 10
2539.473036274788
 20
985.6957123056638
 30
0.0
 10
2541.542286527911
 20
986.5186281817859
 30
0.0
 10
2543.76683030785
 20
987.2426853491752
 30
0.0
 10
2546.116523681358
 20
987.8590525827176
 30
0.0
 10
2548.559518054022
 20
988.3614806193639
 30
0.0
 10
2551.065431493199
 20
988.7472877896156
 30
0.0
 10
2553.626765997639
 20
989.0187854304775
 30
0.0
 10
2556.242889150941
 20
989.1744430081219
 30
0.0
 10
2558.910061110441
 20
989.2110940545499
 30
0.0
 10
2561.599603870867
 20
989.1249420447024
 30
0.0
 10
2564.276874573508
 20
988.9150424429816
 30
0.0
 10
2566.907071916838
 20
988.5836332211873
 30
0.0
 10
2569.45672059129
 20
988.1360925291575
 30
0.0
 10
2571.895097642708
 20
987.5805884166735
 30
0.0
 10
2574.20711514406
 20
986.9245571191845
 30
0.0
 10
2576.394083956694
 20
986.1693474226122
 30
0.0
 10
2578.45285946913
 20
985.3126683111389
 30
0.0
 10
2580.370015741385
 20
984.3578259996965
 30
0.0
 10
2582.106019134576
 20
983.3117908213703
 30
0.0
 10
2583.493042783058
 20
982.3297349144651
 30
0.0
 10
2584.204009262301
 20
981.6744454711638
 30
0.0
 10
2584.482511279888
 20
981.4177534366017
 30
0.0
  0
SPLINE
  5
33A
330
307
100
AcDbEntity
  8
0
  6
Continuous
 62
     7
370
    15
100
AcDbSpline
210
0.0
220
0.0
230
1.0
 70
     8
 71
     3
 72
    31
 73
    27
 74
     0
 42
0.0000000001
 43
0.0000000001
 40
0.0
 40
0.0
 40
0.0
 40
0.0
 40
0.0230162835509687
 40
0.0662008150443857
 40
0.109979409107893
 40
0.1542351111493128
 40
0.1987846698201319
 40
0.2434373554840011
 40
0.2879997789955003
 40
0.3322808799482188
 40
0.3760967664403493
 40
0.4193057454390883
 40
0.462758880626084
 40
0.5067822713569284
 40
0.5511984742861396
 40
0.5958201718015075
 40
0.640454775821881
 40
0.6849093648250485
 40
0.7289956421776243
 40
0.7725346013364066
 40
0.8157007949230852
 40
0.8594413333329709
 40
0.9036708203960504
 40
0.9409434571569622
 40
0.9783194332214135
 40
1.0
 40
1.0
 40
1.0
 40
1.0
 10
2533.426086872967
 20
980.5569354654995
 30
0.0
 10
2533.636442813093
 20
980.7567308617324
 30
0.0
 10
2534.241481183207
 20
981.3313943621821
 30
0.0
 10
2535.473916242057
 20
982.2227214686817
 30
0.0
 10
2537.100622512147
 20
983.2258534034588
 30
0.0
 10
2538.941470553757
 20
984.1561398580934
 30
0.0
 10
2540.964997067232
 20
985.0035119828543
 30
0.0
 10
2543.15104558967
 20
985.7548771451384
 30
0.0
 10
2545.47035539393
 20
986.4007032191853
 30
0.0
 10
2547.891728052505
 20
986.9339543525068
 30
0.0
 10
2550.382401990122
 20
987.3506998093697
 30
0.0
 10
2552.929094281962
 20
987.6526642307904
 30
0.0
 10
2555.530602297222
 20
987.839469291082
 30
0.0
 10
2558.186132399427
 20
987.9082865781851
 30
0.0
 10
2560.873055265268
 20
987.8551098473964
 30
0.0
 10
2563.557021653331
 20
987.6781211793755
 30
0.0
 10
2566.203126058667
 20
987.3787170045423
 30
0.0
 10
2568.777395291927
 20
986.9614476384706
 30
0.0
 10
2571.248250708491
 20
986.4338031290326
 30
0.0
 10
2573.593767923342
 20
985.8041784161242
 30
0.0
 10
2575.814160474539
 20
985.0756462353079
 30
0.0
 10
2577.907467205228
 20
984.2461503400082
 30
0.0
 10
2579.758592656615
 20
983.3677744168619
 30
0.0
 10
2581.362176082644
 20
982.4621180925657
 30
0.0
 10
2582.566948909631
 20
981.6876243793583
 30
0.0
 10
2583.20652538891
 20
981.1798325429013
 30
0.0
 10
2583.44132376859
 20
980.993414336045
 30
0.0
  0
SPLINE
  5
33B
330
307
100
AcDbEntity
  8
0
  6
Continuous
 62
     7
370
    15
100
AcDbSpline
210
0.0
220
0.0
230
1.0
 70
     8
 71
     3
 72
    14
 73
    10
 74
     0
 42
0.0000000001
 43
0.0000000001
 40
0.0
 40
0.0
 40
0.0
 40
0.0
 40
0.0445949912406725
 40
0.2230280701488441
 40
0.4017190613785586
 40
0.5804073952130078
 40
0.7611917403807337
 40
0.9419751131627517
 40
0.9999999999999998
 40
0.9999999999999998
 40
0.9999999999999998
 40
0.9999999999999998
 10
2583.960591741
 20
980.5920231192651
 30
0.0
 10
2584.026578901091
 20
980.5345472923489
 30
0.0
 10
2584.356593294192
 20
980.2470997023684
 30
0.0
 10
2584.915636034922
 20
979.7196074318376
 30
0.0
 10
2585.587209706221
 20
978.9985993981145
 30
0.0
 10
2586.185448284898
 20
978.2583155701308
 30
0.0
 10
2586.693471918252
 20
977.4996186658277
 30
0.0
 10
2587.051985694938
 20
976.9038123259557
 30
0.0
 10
2587.189234385512
 20
976.5575074384463
 30
0.0
 10
2587.222582644705
 20
976.473363355905
 30
0.0
  0
LINE
  5
33C
330
307
100
AcDbEntity
  8
0
  6
Continuous
 62
     7
370
    15
100
AcDbLine
 10
2597.319471866863
 20
973.2696995713398
 30
0.0
 11
2580.467564564695
 21
959.8991898675576
 31
0.0
  0
LINE
  5
33D
330
307
100
AcDbEntity
  8
0
  6
Continuous
 62
     7
370
    15
100
AcDbLine
 10
2535.905055003596
 20
960.783245838726
 30
0.0
 11
2520.693505362028
 21
974.7898483219904
 31
0.0
  0
SPLINE
  5
33E
330
307
100
AcDbEntity
  8
0
  6
Continuous
 62
     8
370
    15
100
AcDbSpline
210
0.0
220
0.0
230
1.0
 70
     8
 71
     3
 72
    17
 73
    13
 74
     0
 42
0.0000000001
 43
0.0000000001
 40
0.0
 40
0.0
 40
0.0
 40
0.0
 40
0.1053443412252005
 40
0.2119807802639583
 40
0.3198430346797511
 40
0.4285007934636668
 40
0.5375041454912543
 40
0.6463945303802959
 40
0.7547162239956544
 40
0.8620276478392888
 40
0.9694190673067184
 40
1.0
 40
1.0
 40
1.0
 40
1.0
 10
2587.082686315346
 20
983.8251828920023
 30
0.0
 10
2587.29037861997
 20
983.4075020827793
 30
0.0
 10
2587.708310672866
 20
982.5670174130699
 30
0.0
 10
2588.049960374868
 20
981.2709349728402
 30
0.0
 10
2588.17427504595
 20
979.9536449345351
 30
0.0
 10
2588.052810722183
 20
978.6270838824956
 30
0.0
 10
2587.689227429002
 20
977.3085109273585
 30
0.0
 10
2587.084436809329
 20
976.0148430186841
 30
0.0
 10
2586.253805396888
 20
974.7604147010397
 30
0.0
 10
2585.188509985026
 20
973.5605026556394
 30
0.0
 10
2584.259739986134
 20
972.6760004469413
 30
0.0
 10
2583.624034013294
 20
972.2145435310224
 30
0.0
 10
2583.48313272935
 20
972.1122637433289
 30
0.0
  0
SPLINE
  5
33F
330
307
100
AcDbEntity
  8
0
  6
Continuous
 62
     8
370
    15
100
AcDbSpline
210
0.0
220
0.0
230
1.0
 70
     8
 71
     3
 72
    47
 73
    43
 74
     0
 42
0.0000000001
 43
0.0000000001
 40
0.0
 40
0.0
 40
0.0
 40
0.0
 40
0.0102823129988996
 40
0.0360815546938224
 40
0.0615955906285664
 40
0.0867746088659761
 40
0.112171062794569
 40
0.1378867696764142
 40
0.1638173142587082
 40
0.189852862340839
 40
0.215880882005523
 40
0.241789035833018
 40
0.2674680606897897
 40
0.2928144531426939
 40
0.3180184282869108
 40
0.3435764150678926
 40
0.3694057633569008
 40
0.3953992082513675
 40
0.4214453034305092
 40
0.4474312442105013
 40
0.4732457772100976
 40
0.4987820111641004
 40
0.523971725977924
 40
0.5493433628861668
 40
0.5750409602259944
 40
0.6009605533882834
 40
0.6269925876675579
 40
0.6530246219468326
 40
0.6789442151091214
 40
0.7046418124489491
 40
0.730013449357192
 40
0.7552031641710155
 40
0.7807393981250185
 40
0.8065539311246146
 40
0.8325398719046068
 40
0.8585859670837484
 40
0.8845794119782151
 40
0.9104087602672233
 40
0.9359667470482049
 40
0.961170722192422
 40
0.986517114645326
 40
1.0
 40
1.0
 40
1.0
 40
1.0
 10
2533.904718966359
 20
972.6818550681169
 30
0.0
 10
2533.723664402792
 20
972.8311561562167
 30
0.0
 10
2533.08832776807
 20
973.3550670094162
 30
0.0
 10
2532.231185088884
 20
974.3091559690544
 30
0.0
 10
2531.342175495565
 20
975.5241993141069
 30
0.0
 10
2530.699866831473
 20
976.7700444959666
 30
0.0
 10
2530.286415813872
 20
978.0401031826352
 30
0.0
 10
2530.11223606633
 20
979.3345416408726
 30
0.0
 10
2530.184801228073
 20
980.6403904519921
 30
0.0
 10
2530.508099284596
 20
981.9409447190381
 30
0.0
 10
2531.079250494332
 20
983.2192555384615
 30
0.0
 10
2531.889099716398
 20
984.4590046359078
 30
0.0
 10
2532.922539817437
 20
985.6451142188593
 30
0.0
 10
2534.164025842767
 20
986.7687000637566
 30
0.0
 10
2535.608505027147
 20
987.829866456482
 30
0.0
 10
2537.257394724726
 20
988.8264326764415
 30
0.0
 10
2539.108964339453
 20
989.7521580220647
 30
0.0
 10
2541.14468983311
 20
990.5933355144565
 30
0.0
 10
2543.340391386005
 20
991.3379803406606
 30
0.0
 10
2545.667552920493
 20
991.9764744123609
 30
0.0
 10
2548.094542800898
 20
992.5020481044326
 30
0.0
 10
2550.589056357835
 20
992.9110316621232
 30
0.0
 10
2553.139411552854
 20
993.2053935086573
 30
0.0
 10
2555.744573364414
 20
993.384429612931
 30
0.0
 10
2558.403232266139
 20
993.4452364968608
 30
0.0
 10
2561.091040764334
 20
993.3838253534277
 30
0.0
 10
2563.7735667469
 20
993.1985974012878
 30
0.0
 10
2566.4159196194
 20
992.8911590749027
 30
0.0
 10
2568.984245351396
 20
992.4662701030342
 30
0.0
 10
2571.447155295131
 20
991.9315903007214
 30
0.0
 10
2573.784318746061
 20
991.2953499805789
 30
0.0
 10
2575.996228267593
 20
990.5601290126741
 30
0.0
 10
2578.081444313895
 20
989.7239881733941
 30
0.0
 10
2580.027887395749
 20
988.7877041923804
 30
0.0
 10
2581.807471331927
 20
987.7603746943909
 30
0.0
 10
2583.394709556291
 20
986.6541703369406
 30
0.0
 10
2584.769251065717
 20
985.4833932029254
 30
0.0
 10
2585.914942061522
 20
984.263878143825
 30
0.0
 10
2586.827293530421
 20
983.0120817844882
 30
0.0
 10
2587.49357524259
 20
981.7344040432915
 30
0.0
 10
2587.89614853662
 20
980.6404280887889
 30
0.0
 10
2587.981859988851
 20
979.9693779710921
 30
0.0
 10
2588.01162200734
 20
979.7363658648926
 30
0.0
  0
SPLINE
  5
340
330
307
100
AcDbEntity
  8
0
  6
Continuous
 62
     8
370
    15
100
AcDbSpline
210
0.0
220
0.0
230
1.0
 70
     8
 71
     3
 72
    40
 73
    36
 74
     0
 42
0.0000000001
 43
0.0000000001
 40
0.0
 40
0.0
 40
0.0
 40
0.0
 40
0.0192943131481445
 40
0.0508092028285344
 40
0.0822150620733038
 40
0.1133783373308368
 40
0.1441716134137587
 40
0.1746303001456578
 40
0.2054520388349761
 40
0.2366355351103311
 40
0.2680528675302722
 40
0.2995701887001721
 40
0.3310510768404524
 40
0.3623600510199843
 40
0.3933660263196512
 40
0.4239454922422435
 40
0.4545249581648358
 40
0.4855309334645027
 40
0.5168399076440347
 40
0.5483207957843148
 40
0.5798381169542148
 40
0.6112554493741558
 40
0.6424389456495108
 40
0.6732606843388292
 40
0.7037193710707283
 40
0.7345126471536502
 40
0.7656759224111834
 40
0.7970817816559527
 40
0.8285966713363425
 40
0.8600842325643792
 40
0.8914088123245546
 40
0.9224389296023741
 40
0.9530504784650153
 40
0.9835997608396539
 40
0.9999999999999998
 40
0.9999999999999998
 40
0.9999999999999998
 40
0.9999999999999998
 10
2530.272626540136
 20
979.4883574231699
 30
0.0
 10
2530.316678510295
 20
979.7551758389971
 30
0.0
 10
2530.432683960691
 20
980.4578093509585
 30
0.0
 10
2530.900714858238
 20
981.5762292714072
 30
0.0
 10
2531.639687354532
 20
982.8282163954645
 30
0.0
 10
2532.617529330881
 20
984.029908462085
 30
0.0
 10
2533.803731293375
 20
985.170115331541
 30
0.0
 10
2535.194305252278
 20
986.2481303713554
 30
0.0
 10
2536.788190273192
 20
987.2621151067273
 30
0.0
 10
2538.587235658835
 20
988.2080969948288
 30
0.0
 10
2540.576010420735
 20
989.0730788640414
 30
0.0
 10
2542.731681621812
 20
989.8445137930883
 30
0.0
 10
2545.026775249023
 20
990.5121001757155
 30
0.0
 10
2547.430359866848
 20
991.068282029142
 30
0.0
 10
2549.909408313676
 20
991.5084198860498
 30
0.0
 10
2552.445092105772
 20
991.8331432409106
 30
0.0
 10
2555.035645558658
 20
992.0431889778184
 30
0.0
 10
2557.680926367656
 20
992.1359011820904
 30
0.0
 10
2560.364274621756
 20
992.1073768308618
 30
0.0
 10
2563.051628665276
 20
991.9551392897348
 30
0.0
 10
2565.708073852527
 20
991.6799547174919
 30
0.0
 10
2568.299335280709
 20
991.2857456748863
 30
0.0
 10
2570.793235328589
 20
990.7794575194056
 30
0.0
 10
2573.164013585981
 20
990.1698217619372
 30
0.0
 10
2575.409311021017
 20
989.4611445739807
 30
0.0
 10
2577.528750146204
 20
988.6520941126223
 30
0.0
 10
2579.514917007874
 20
987.7418010269932
 30
0.0
 10
2581.341655542644
 20
986.7376616016217
 30
0.0
 10
2582.982403581324
 20
985.6511703265462
 30
0.0
 10
2584.415440566156
 20
984.4961193428572
 30
0.0
 10
2585.623052816768
 20
983.2879728597051
 30
0.0
 10
2586.598840503297
 20
982.043413374083
 30
0.0
 10
2587.327099047027
 20
980.7722756362846
 30
0.0
 10
2587.782280892804
 20
979.6824083825333
 30
0.0
 10
2587.900611078047
 20
979.0130582538695
 30
0.0
 10
2587.941945755685
 20
978.7792432578228
 30
0.0
  0
SPLINE
  5
341
330
307
100
AcDbEntity
  8
0
  6
Continuous
 62
     8
370
    15
100
AcDbSpline
210
0.0
220
0.0
230
1.0
 70
     8
 71
     3
 72
    40
 73
    36
 74
     0
 42
0.0000000001
 43
0.0000000001
 40
0.0
 40
0.0
 40
0.0
 40
0.0
 40
0.000894992806628
 40
0.0331793480746212
 40
0.0653891414560929
 40
0.0973864734440261
 40
0.1290388514111403
 40
0.1602617159732022
 40
0.1917100745099629
 40
0.223562463758591
 40
0.2556900187067628
 40
0.2879569453704461
 40
0.3202238720341293
 40
0.3523514269823011
 40
0.3842038162309292
 40
0.4156521747676898
 40
0.4468750393297518
 40
0.4785274172968658
 40
0.510524749284799
 40
0.5427345426662706
 40
0.5750188979342639
 40
0.6072379927290953
 40
0.63925368839356
 40
0.6709330291736961
 40
0.7021735695358919
 40
0.733590637356747
 40
0.7654200058555445
 40
0.7975333816514873
 40
0.8297953321664305
 40
0.8620666142184735
 40
0.8942077435443666
 40
0.9260825797234925
 40
0.9575616991668754
 40
0.9887713052320025
 40
1.0
 40
1.0
 40
1.0
 40
1.0
 10
2530.322491323231
 20
978.5993774856418
 30
0.0
 10
2530.324217939499
 20
978.6114670454644
 30
0.0
 10
2530.388227394892
 20
979.0596535676916
 30
0.0
 10
2530.744402982766
 20
979.9305420517727
 30
0.0
 10
2531.405194058911
 20
981.1939393875473
 30
0.0
 10
2532.327775106522
 20
982.4101504294656
 30
0.0
 10
2533.457758426088
 20
983.5671163226914
 30
0.0
 10
2534.794536600168
 20
984.6617986606579
 30
0.0
 10
2536.333741681982
 20
985.6930549826801
 30
0.0
 10
2538.079032047636
 20
986.6582647551254
 30
0.0
 10
2540.019224067755
 20
987.5461579230686
 30
0.0
 10
2542.132905770006
 20
988.3436472204982
 30
0.0
 10
2544.393724040015
 20
989.0397872448971
 30
0.0
 10
2546.771546768613
 20
989.6262467881161
 30
0.0
 10
2549.233762789673
 20
990.0976192609407
 30
0.0
 10
2551.754664538279
 20
990.4527589450141
 30
0.0
 10
2554.330615343615
 20
990.6936259522138
 30
0.0
 10
2556.961339966572
 20
990.8179283437602
 30
0.0
 10
2559.637798094555
 20
990.8221133245488
 30
0.0
 10
2562.327489077311
 20
990.7029207441945
 30
0.0
 10
2564.995581142133
 20
990.4602692583443
 30
0.0
 10
2567.607482796259
 20
990.0972384199391
 30
0.0
 10
2570.130320910593
 20
989.6200123548501
 30
0.0
 10
2572.534859259173
 20
989.0372728554538
 30
0.0
 10
2574.813527333252
 20
988.3549835515207
 30
0.0
 10
2576.966819764439
 20
987.5728962689308
 30
0.0
 10
2578.990589500729
 20
986.6892070282458
 30
0.0
 10
2580.86259730675
 20
985.7090806468447
 30
0.0
 10
2582.555265893578
 20
984.643283592738
 30
0.0
 10
2584.045681405311
 20
983.505070343922
 30
0.0
 10
2585.314218300823
 20
982.3094534356844
 30
0.0
 10
2586.354259723235
 20
981.0731110927495
 30
0.0
 10
2587.141462485868
 20
979.8083231910013
 30
0.0
 10
2587.623062602352
 20
978.800132953491
 30
0.0
 10
2587.760018130759
 20
978.2110166757238
 30
0.0
 10
2587.796255015721
 20
978.0551431667461
 30
0.0
  0
SPLINE
  5
342
330
307
100
AcDbEntity
  8
0
  6
Continuous
 62
     8
370
    15
100
AcDbSpline
210
0.0
220
0.0
230
1.0
 70
     8
 71
     3
 72
    39
 73
    35
 74
     0
 42
0.0000000001
 43
0.0000000001
 40
0.0
 40
0.0
 40
0.0
 40
0.0
 40
0.0126299428244858
 40
0.0457813037685167
 40
0.0787516284679954
 40
0.1114028762345971
 40
0.1436049827240402
 40
0.1758070892134834
 40
0.2084583369800851
 40
0.2414286616795637
 40
0.2745800226235946
 40
0.3077697498459155
 40
0.3408541826075002
 40
0.3736923711590616
 40
0.4061496061538014
 40
0.4382245245370082
 40
0.4706517866118655
 40
0.5034686811561713
 40
0.5365410319406023
 40
0.569728198651097
 40
0.6028865867774568
 40
0.6358733451377123
 40
0.6685500159301218
 40
0.7007859077791446
 40
0.732956229088693
 40
0.7655814747037924
 40
0.7985347509844606
 40
0.8316784493043995
 40
0.8648700971696481
 40
0.8979659841528999
 40
0.9308248668365804
 40
0.9633115167830274
 40
0.9953909797752318
 40
0.9999999999999998
 40
0.9999999999999998
 40
0.9999999999999998
 40
0.9999999999999998
 10
2530.474811228383
 20
977.786895670739
 30
0.0
 10
2530.518365629033
 20
977.9518035808209
 30
0.0
 10
2530.676242610296
 20
978.5495655208553
 30
0.0
 10
2531.205177133571
 20
979.5552579515153
 30
0.0
 10
2532.048577709407
 20
980.7864041393822
 30
0.0
 10
2533.127774193086
 20
981.9598618377796
 30
0.0
 10
2534.409123951002
 20
983.0711499108105
 30
0.0
 10
2535.894405748499
 20
984.1195312296623
 30
0.0
 10
2537.584697587945
 20
985.102924266456
 30
0.0
 10
2539.474807728837
 20
986.0127969345095
 30
0.0
 10
2541.544612450211
 20
986.8355591796493
 30
0.0
 10
2543.769007311102
 20
987.5596576092405
 30
0.0
 10
2546.118740422824
 20
988.1760138321862
 30
0.0
 10
2548.56172426015
 20
988.6784447879803
 30
0.0
 10
2551.067640476218
 20
989.0642511886817
 30
0.0
 10
2553.628974247212
 20
989.3357490332627
 30
0.0
 10
2556.245097595646
 20
989.4914065549617
 30
0.0
 10
2558.912269514042
 20
989.5280576199054
 30
0.0
 10
2561.601812240093
 20
989.4419055926913
 30
0.0
 10
2564.279083122673
 20
989.2320060419313
 30
0.0
 10
2566.90927978208
 20
988.9005966341018
 30
0.0
 10
2569.458930991335
 20
988.4530566295708
 30
0.0
 10
2571.897298719866
 20
987.8975499890268
 30
0.0
 10
2574.209350471635
 20
987.2415279789851
 30
0.0
 10
2576.396191465197
 20
986.4862836226411
 30
0.0
 10
2578.455452024301
 20
985.6297360377483
 30
0.0
 10
2580.370771550343
 20
984.674395669184
 30
0.0
 10
2582.113684917605
 20
983.6302342183062
 30
0.0
 10
2583.660230357747
 20
982.5099412366212
 30
0.0
 10
2584.9886599595
 20
981.3280031373235
 30
0.0
 10
2586.093139018375
 20
980.1011392723406
 30
0.0
 10
2586.937486111106
 20
978.8425831601298
 30
0.0
 10
2587.43427825012
 20
977.9314074666064
 30
0.0
 10
2587.578754367366
 20
977.4379691162224
 30
0.0
 10
2587.596904295845
 20
977.3759805264202
 30
0.0
  0
SPLINE
  5
343
330
307
100
AcDbEntity
  8
0
  6
Continuous
 62
     8
370
    15
100
AcDbSpline
210
0.0
220
0.0
230
1.0
 70
     8
 71
     3
 72
    37
 73
    33
 74
     0
 42
0.0000000001
 43
0.0000000001
 40
0.0
 40
0.0
 40
0.0
 40
0.0
 40
0.0219593786477501
 40
0.0560723532435166
 40
0.089893157441215
 40
0.1232849626244512
 40
0.1564373387492732
 40
0.1900457713620141
 40
0.2240204754749639
 40
0.2582207706773087
 40
0.2925002355439752
 40
0.3267104069687142
 40
0.360704609597253
 40
0.39434167127178
 40
0.4275128155263865
 40
0.460871396289075
 40
0.4946677570999231
 40
0.5287656762997666
 40
0.563021351843752
 40
0.5972869355954592
 40
0.6314143234387669
 40
0.6652589617430778
 40
0.6986834287964078
 40
0.7318217270752858
 40
0.7654009447052794
 40
0.7993555238153173
 40
0.8335452906578959
 40
0.8678240942643093
 40
0.9020434886394607
 40
0.9360565610993621
 40
0.9697216627916775
 40
1.0
 40
1.0
 40
1.0
 40
1.0
 10
2530.683054777434
 20
977.0912242110282
 30
0.0
 10
2530.792814345641
 20
977.3658323980717
 30
0.0
 10
2531.073080803957
 20
978.0670328971591
 30
0.0
 10
2531.79777434452
 20
979.1575191159029
 30
0.0
 10
2532.809072631866
 20
980.3484605913865
 30
0.0
 10
2534.038986216077
 20
981.4759676693384
 30
0.0
 10
2535.469401212453
 20
982.541422746512
 30
0.0
 10
2537.104664421428
 20
983.5423430808379
 30
0.0
 10
2538.943181810964
 20
984.4732319087334
 30
0.0
 10
2540.967339410347
 20
985.3204409249459
 30
0.0
 10
2543.153218143093
 20
986.071849970561
 30
0.0
 10
2545.472573333176
 20
986.7176643143155
 30
0.0
 10
2547.893933938191
 20
987.2509185630013
 30
0.0
 10
2550.384611056295
 20
987.6676631977062
 30
0.0
 10
2552.93130251035
 20
987.9696278361697
 30
0.0
 10
2555.532810747537
 20
988.156432837181
 30
0.0
 10
2558.188340801951
 20
988.2252501439309
 30
0.0
 10
2560.875263632965
 20
988.1720733945693
 30
0.0
 10
2563.559230209988
 20
987.9950847812667
 30
0.0
 10
2566.205333894649
 20
987.6956804062931
 30
0.0
 10
2568.779605803819
 20
987.2784117811262
 30
0.0
 10
2571.250451361931
 20
986.750764542675
 30
0.0
 10
2573.596004762463
 20
986.1211498465186
 30
0.0
 10
2575.81626313582
 20
985.3925805232561
 30
0.0
 10
2577.91007812422
 20
984.5632253213311
 30
0.0
 10
2579.866628800552
 20
983.6333761851596
 30
0.0
 10
2581.658247391721
 20
982.6117736758732
 30
0.0
 10
2583.258732133416
 20
981.5103688957981
 30
0.0
 10
2584.649017956392
 20
980.3435464918397
 30
0.0
 10
2585.806499257813
 20
979.1262879352824
 30
0.0
 10
2586.721225109662
 20
977.9141079840208
 30
0.0
 10
2587.13246901352
 20
977.0967609292174
 30
0.0
 10
2587.327200197985
 20
976.7097327967452
 30
0.0
  0
LINE
  5
344
330
307
100
AcDbEntity
  8
0
  6
Continuous
 62
     8
370
    15
100
AcDbLine
 10
2583.44132376859
 20
980.993414336045
 30
0.0
 11
2583.960591741
 21
980.5920231192651
 31
0.0
  0
ENDBLK
  5
309
330
307
100
AcDbEntity
  8
0
100
AcDbBlockEnd
  0
ENDSEC
  0
SECTION
  2
ENTITIES
  0
INSERT
  5
2D8
330
1F
100
AcDbEntity
  8
0
100
AcDbBlockReference
  2
1
 10
0.0
 20
0.0
 30
0.0
  0
INSERT
  5
2EE
330
1F
100
AcDbEntity
  8
0
100
AcDbBlockReference
  2
2
 10
0.0
 20
0.0
 30
0.0
  0
INSERT
  5
306
330
1F
100
AcDbEntity
  8
0
100
AcDbBlockReference
  2
3
 10
0.0
 20
0.0
 30
0.0
  0
INSERT
  5
345
330
1F
100
AcDbEntity
  8
0
100
AcDbBlockReference
  2
4
 10
0.0
 20
0.0
 30
0.0
  0
ENDSEC
  0
SECTION
  2
OBJECTS
  0
DICTIONARY
  5
C
330
0
100
AcDbDictionary
281
     1
  3
ACAD_COLOR
350
6B
  3
ACAD_GROUP
350
D
  3
ACAD_LAYOUT
350
1A
  3
ACAD_MATERIAL
350
6A
  3
ACAD_MLEADERSTYLE
350
12D
  3
ACAD_MLINESTYLE
350
17
  3
ACAD_PLOTSETTINGS
350
19
  3
ACAD_PLOTSTYLENAME
350
E
  3
ACAD_SCALELIST
350
10C
  3
ACAD_TABLESTYLE
350
7E
  3
ACAD_VISUALSTYLE
350
EF
  3
ACDB_RECOMPOSE_DATA
350
15D
  3
AcDbVariableDictionary
350
5E
  3
DWGPROPS
350
353
  0
DICTIONARY
  5
13C
330
10
100
AcDbDictionary
280
     1
281
     1
  3
ADSK_XREC_LAYER_RECONCILED
360
346
  0
DICTIONARY
  5
6B
102
{ACAD_REACTORS
330
C
102
}
330
C
100
AcDbDictionary
281
     1
  0
DICTIONARY
  5
D
102
{ACAD_REACTORS
330
C
102
}
330
C
100
AcDbDictionary
281
     1
  0
DICTIONARY
  5
1A
102
{ACAD_REACTORS
330
C
102
}
330
C
100
AcDbDictionary
281
     1
  3
Layout1
350
D3
  3
Layout2
350
D7
  3
Model
350
22
  0
DICTIONARY
  5
6A
102
{ACAD_REACTORS
330
C
102
}
330
C
100
AcDbDictionary
281
     1
  3
ByBlock
350
ED
  3
ByLayer
350
EC
  3
Global
350
EE
  0
DICTIONARY
  5
12D
102
{ACAD_REACTORS
330
C
102
}
330
C
100
AcDbDictionary
281
     1
  3
Annotative
350
13B
  3
Standard
350
12E
  0
DICTIONARY
  5
17
102
{ACAD_REACTORS
330
C
102
}
330
C
100
AcDbDictionary
281
     1
  3
Standard
350
18
  0
DICTIONARY
  5
19
102
{ACAD_REACTORS
330
C
102
}
330
C
100
AcDbDictionary
281
     1
  0
ACDBDICTIONARYWDFLT
  5
E
102
{ACAD_REACTORS
330
C
102
}
330
C
100
AcDbDictionary
281
     1
  3
Normal
350
F
100
AcDbDictionaryWithDefault
340
F
  0
DICTIONARY
  5
10C
102
{ACAD_REACTORS
330
C
102
}
330
C
100
AcDbDictionary
281
     1
  3
A0
350
10D
  3
A1
350
188
  3
A2
350
189
  3
A3
350
18A
  3
A4
350
18B
  3
A5
350
18C
  3
A6
350
18D
  3
A7
350
18E
  3
A8
350
18F
  3
A9
350
190
  3
B0
350
191
  3
B1
350
192
  3
B2
350
193
  3
B3
350
194
  3
B4
350
195
  3
B5
350
196
  3
B6
350
197
  3
B7
350
198
  3
B8
350
199
  3
B9
350
19A
  3
C0
350
19B
  3
C1
350
19C
  3
C2
350
19D
  3
C3
350
19E
  3
C4
350
19F
  3
C5
350
1A0
  3
C6
350
1A1
  3
C7
350
1A2
  3
C8
350
1A3
  3
C9
350
1A4
  3
D0
350
1A5
  3
D1
350
1A6
  3
D2
350
1A7
  0
DICTIONARY
  5
7E
102
{ACAD_REACTORS
330
C
102
}
330
C
100
AcDbDictionary
281
     1
  3
Standard
350
7F
  0
DICTIONARY
  5
EF
102
{ACAD_REACTORS
330
C
102
}
330
C
100
AcDbDictionary
281
     1
  3
2dWireframe
350
F5
  3
3D Hidden
350
F7
  3
3dWireframe
350
F6
  3
Basic
350
F4
  3
Brighten
350
FB
  3
ColorChange
350
FF
  3
Conceptual
350
F8
  3
Dim
350
FA
  3
Facepattern
350
FE
  3
Flat
350
F0
  3
FlatWithEdges
350
F1
  3
Gouraud
350
F2
  3
GouraudWithEdges
350
F3
  3
Linepattern
350
FD
  3
Realistic
350
F9
  3
Thicken
350
FC
  0
XRECORD
  5
15D
102
{ACAD_REACTORS
330
C
102
}
330
C
100
AcDbXrecord
280
     1
 90
        1
330
7F
  0
DICTIONARY
  5
5E
102
{ACAD_REACTORS
330
C
102
}
330
C
100
AcDbDictionary
281
     1
  3
CANNOSCALE
350
146
  3
CMLEADERSTYLE
350
145
  3
CTABLESTYLE
350
84
  3
DIMASSOC
350
5F
  3
HIDETEXT
350
63
  3
INDEXCTL
350
34F
  3
LIGHTINGUNITS
350
34D
  3
MSLTSCALE
350
34C
  3
PSOLHEIGHT
350
351
  3
PSOLWIDTH
350
350
  3
SORTENTS
350
34E
  0
XRECORD
  5
353
102
{ACAD_REACTORS
330
C
102
}
330
C
100
AcDbXrecord
280
     1
  1
DWGPROPS COOKIE
  2

  3

  4

  6

  7

  8
orhan kara
  9

300
=
301
=
302
=
303
=
304
=
305
=
306
=
307
=
308
=
309
=
 40
0.0003012152777778
 41
2458557.452155208
 42
2459067.665162419
  1

 90
        0
  0
XRECORD
  5
346
102
{ACAD_REACTORS
330
13C
102
}
330
13C
100
AcDbXrecord
280
     1
290
     1
  0
LAYOUT
  5
D3
102
{ACAD_XDICTIONARY
360
357
102
}
102
{ACAD_REACTORS
330
1A
102
}
330
1A
100
AcDbPlotSettings
  1

  2
C:\Documents and Settings\basas\Application Data\Autodesk\AutoCAD 2005\R16.1\enu\plotters\Default Windows System Printer.pc3
  4

  6

 40
0.0
 41
0.0
 42
0.0
 43
0.0
 44
0.0
 45
0.0
 46
0.0
 47
0.0
 48
0.0
 49
0.0
140
0.0
141
0.0
142
1.0
143
1.0
 70
   688
 72
     0
 73
     0
 74
     5
  7

 75
    16
147
1.0
148
0.0
149
0.0
100
AcDbLayout
  1
Layout1
 70
     1
 71
     1
 10
0.0
 20
0.0
 11
12.0
 21
9.0
 12
0.0
 22
0.0
 32
0.0
 14
0.0
 24
0.0
 34
0.0
 15
0.0
 25
0.0
 35
0.0
146
0.0
 13
0.0
 23
0.0
 33
0.0
 16
1.0
 26
0.0
 36
0.0
 17
0.0
 27
1.0
 37
0.0
 76
     0
330
D2
  0
LAYOUT
  5
D7
102
{ACAD_XDICTIONARY
360
359
102
}
102
{ACAD_REACTORS
330
1A
102
}
330
1A
100
AcDbPlotSettings
  1

  2
C:\Documents and Settings\basas\Application Data\Autodesk\AutoCAD 2005\R16.1\enu\plotters\Default Windows System Printer.pc3
  4

  6

 40
0.0
 41
0.0
 42
0.0
 43
0.0
 44
0.0
 45
0.0
 46
0.0
 47
0.0
 48
0.0
 49
0.0
140
0.0
141
0.0
142
1.0
143
1.0
 70
   688
 72
     0
 73
     0
 74
     5
  7

 75
    16
147
1.0
148
0.0
149
0.0
100
AcDbLayout
  1
Layout2
 70
     1
 71
     2
 10
0.0
 20
0.0
 11
12.0
 21
9.0
 12
0.0
 22
0.0
 32
0.0
 14
0.0
 24
0.0
 34
0.0
 15
0.0
 25
0.0
 35
0.0
146
0.0
 13
0.0
 23
0.0
 33
0.0
 16
1.0
 26
0.0
 36
0.0
 17
0.0
 27
1.0
 37
0.0
 76
     0
330
D6
  0
LAYOUT
  5
22
102
{ACAD_XDICTIONARY
360
354
102
}
102
{ACAD_REACTORS
330
1A
102
}
330
1A
100
AcDbPlotSettings
  1

  2
none_device
  4
ISO_A4_(210.00_x_297.00_MM)
  6

 40
7.5
 41
20.0
 42
7.5
 43
20.0
 44
210.0
 45
297.0
 46
11.54999923706054
 47
-13.65000009536743
 48
0.0
 49
0.0
140
0.0
141
0.0
142
1.0
143
8.704084754739808
 70
 11952
 72
     1
 73
     0
 74
     0
  7

 75
     0
147
0.1148885871608098
148
0.0
149
0.0
100
AcDbLayout
  1
Model
 70
     1
 71
     0
 10
0.0
 20
0.0
 11
12.0
 21
9.0
 12
0.0
 22
0.0
 32
0.0
 14
0.0
 24
0.0
 34
0.0
 15
0.0
 25
0.0
 35
0.0
146
0.0
 13
0.0
 23
0.0
 33
0.0
 16
1.0
 26
0.0
 36
0.0
 17
0.0
 27
1.0
 37
0.0
 76
     0
330
1F
331
EA
1001
ACAD_PSEXT
1000
None
1000
None
1000
Not applicable
1000
The layout will not be plotted unless a new plotter configuration name is selected.
1070
     0
  0
MATERIAL
  5
ED
102
{ACAD_XDICTIONARY
360
35D
102
}
102
{ACAD_REACTORS
330
6A
102
}
330
6A
100
AcDbMaterial
  1
ByBlock
  0
MATERIAL
  5
EC
102
{ACAD_XDICTIONARY
360
35B
102
}
102
{ACAD_REACTORS
330
6A
102
}
330
6A
100
AcDbMaterial
  1
ByLayer
  0
MATERIAL
  5
EE
102
{ACAD_XDICTIONARY
360
173
102
}
102
{ACAD_REACTORS
330
6A
102
}
330
6A
100
AcDbMaterial
  1
Global
 43
0.0007999999797903
 43
0.0
 43
0.0
 43
0.0
 43
0.0
 43
0.0007999999797903
 43
0.0
 43
0.0
 43
0.0
 43
0.0
 43
1.0
 43
0.0
 43
0.0
 43
0.0
 43
0.0
 43
1.0
 49
0.0007999999797903
 49
0.0
 49
0.0
 49
0.0
 49
0.0
 49
0.0007999999797903
 49
0.0
 49
0.0
 49
0.0
 49
0.0
 49
1.0
 49
0.0
 49
0.0
 49
0.0
 49
0.0
 49
1.0
142
0.0007999999797903
142
0.0
142
0.0
142
0.0
142
0.0
142
0.0007999999797903
142
0.0
142
0.0
142
0.0
142
0.0
142
1.0
142
0.0
142
0.0
142
0.0
142
0.0
142
1.0
144
0.0007999999797903
144
0.0
144
0.0
144
0.0
144
0.0
144
0.0007999999797903
144
0.0
144
0.0
144
0.0
144
0.0
144
1.0
144
0.0
144
0.0
144
0.0
144
0.0
144
1.0
1001
ACAD
1070
    -1
1070
     3
1070
     0
1000

1071
        0
1070
     0
  0
MLEADERSTYLE
  5
13B
102
{ACAD_REACTORS
330
12D
102
}
330
12D
100
AcDbMLeaderStyle
170
     2
171
     1
172
     0
 90
        2
 40
0.0
 41
0.0
173
     1
 91
-1056964608
340
14
 92
       -2
290
     1
 42
2.0
291
     1
 43
8.0
  3
Standard
 44
4.0
300

342
11
174
     1
178
     1
175
     1
176
     0
 93
-1056964608
 45
4.0
292
     0
297
     0
 46
4.0
 94
-1056964608
 47
1.0
 49
1.0
140
1.0
293
     1
141
0.0
294
     1
177
     0
142
1.0
295
     0
296
     1
143
3.75
1001
ACAD_MLEADERVER
1070
     2
  0
MLEADERSTYLE
  5
12E
102
{ACAD_REACTORS
330
12D
102
}
330
12D
100
AcDbMLeaderStyle
170
     2
171
     1
172
     0
 90
        2
 40
0.0
 41
0.0
173
     1
 91
-1056964608
340
14
 92
       -2
290
     1
 42
2.0
291
     1
 43
8.0
  3
Standard
 44
4.0
300

342
11
174
     1
178
     1
175
     1
176
     0
 93
-1056964608
 45
4.0
292
     0
297
     0
 46
4.0
 94
-1056964608
 47
1.0
 49
1.0
140
1.0
293
     1
141
0.0
294
     1
177
     0
142
1.0
295
     0
296
     0
143
3.75
1001
ACAD_MLEADERVER
1070
     2
  0
MLINESTYLE
  5
18
102
{ACAD_REACTORS
330
17
102
}
330
17
100
AcDbMlineStyle
  2
STANDARD
 70
     0
  3

 62
   256
 51
90.0
 52
90.0
 71
     2
 49
0.5
 62
   256
  6
BYLAYER
 49
-0.5
 62
   256
  6
BYLAYER
  0
ACDBPLACEHOLDER
  5
F
102
{ACAD_REACTORS
330
E
102
}
330
E
  0
SCALE
  5
10D
102
{ACAD_REACTORS
330
10C
102
}
330
10C
100
AcDbScale
 70
     0
300
1:1
140
1.0
141
1.0
290
     1
  0
SCALE
  5
188
102
{ACAD_REACTORS
330
10C
102
}
330
10C
100
AcDbScale
 70
     0
300
1:2
140
1.0
141
2.0
290
     0
  0
SCALE
  5
189
102
{ACAD_REACTORS
330
10C
102
}
330
10C
100
AcDbScale
 70
     0
300
1:4
140
1.0
141
4.0
290
     0
  0
SCALE
  5
18A
102
{ACAD_REACTORS
330
10C
102
}
330
10C
100
AcDbScale
 70
     0
300
1:5
140
1.0
141
5.0
290
     0
  0
SCALE
  5
18B
102
{ACAD_REACTORS
330
10C
102
}
330
10C
100
AcDbScale
 70
     0
300
1:8
140
1.0
141
8.0
290
     0
  0
SCALE
  5
18C
102
{ACAD_REACTORS
330
10C
102
}
330
10C
100
AcDbScale
 70
     0
300
1:10
140
1.0
141
10.0
290
     0
  0
SCALE
  5
18D
102
{ACAD_REACTORS
330
10C
102
}
330
10C
100
AcDbScale
 70
     0
300
1:16
140
1.0
141
16.0
290
     0
  0
SCALE
  5
18E
102
{ACAD_REACTORS
330
10C
102
}
330
10C
100
AcDbScale
 70
     0
300
1:20
140
1.0
141
20.0
290
     0
  0
SCALE
  5
18F
102
{ACAD_REACTORS
330
10C
102
}
330
10C
100
AcDbScale
 70
     0
300
1:30
140
1.0
141
30.0
290
     0
  0
SCALE
  5
190
102
{ACAD_REACTORS
330
10C
102
}
330
10C
100
AcDbScale
 70
     0
300
1:40
140
1.0
141
40.0
290
     0
  0
SCALE
  5
191
102
{ACAD_REACTORS
330
10C
102
}
330
10C
100
AcDbScale
 70
     0
300
1:50
140
1.0
141
50.0
290
     0
  0
SCALE
  5
192
102
{ACAD_REACTORS
330
10C
102
}
330
10C
100
AcDbScale
 70
     0
300
1:100
140
1.0
141
100.0
290
     0
  0
SCALE
  5
193
102
{ACAD_REACTORS
330
10C
102
}
330
10C
100
AcDbScale
 70
     0
300
2:1
140
2.0
141
1.0
290
     0
  0
SCALE
  5
194
102
{ACAD_REACTORS
330
10C
102
}
330
10C
100
AcDbScale
 70
     0
300
4:1
140
4.0
141
1.0
290
     0
  0
SCALE
  5
195
102
{ACAD_REACTORS
330
10C
102
}
330
10C
100
AcDbScale
 70
     0
300
8:1
140
8.0
141
1.0
290
     0
  0
SCALE
  5
196
102
{ACAD_REACTORS
330
10C
102
}
330
10C
100
AcDbScale
 70
     0
300
10:1
140
10.0
141
1.0
290
     0
  0
SCALE
  5
197
102
{ACAD_REACTORS
330
10C
102
}
330
10C
100
AcDbScale
 70
     0
300
100:1
140
100.0
141
1.0
290
     0
  0
SCALE
  5
198
102
{ACAD_REACTORS
330
10C
102
}
330
10C
100
AcDbScale
 70
     0
300
1/128" = 1'-0"
140
0.0078125
141
12.0
290
     0
  0
SCALE
  5
199
102
{ACAD_REACTORS
330
10C
102
}
330
10C
100
AcDbScale
 70
     0
300
1/64" = 1'-0"
140
0.015625
141
12.0
290
     0
  0
SCALE
  5
19A
102
{ACAD_REACTORS
330
10C
102
}
330
10C
100
AcDbScale
 70
     0
300
1/32" = 1'-0"
140
0.03125
141
12.0
290
     0
  0
SCALE
  5
19B
102
{ACAD_REACTORS
330
10C
102
}
330
10C
100
AcDbScale
 70
     0
300
1/16" = 1'-0"
140
0.0625
141
12.0
290
     0
  0
SCALE
  5
19C
102
{ACAD_REACTORS
330
10C
102
}
330
10C
100
AcDbScale
 70
     0
300
3/32" = 1'-0"
140
0.09375
141
12.0
290
     0
  0
SCALE
  5
19D
102
{ACAD_REACTORS
330
10C
102
}
330
10C
100
AcDbScale
 70
     0
300
1/8" = 1'-0"
140
0.125
141
12.0
290
     0
  0
SCALE
  5
19E
102
{ACAD_REACTORS
330
10C
102
}
330
10C
100
AcDbScale
 70
     0
300
3/16" = 1'-0"
140
0.1875
141
12.0
290
     0
  0
SCALE
  5
19F
102
{ACAD_REACTORS
330
10C
102
}
330
10C
100
AcDbScale
 70
     0
300
1/4" = 1'-0"
140
0.25
141
12.0
290
     0
  0
SCALE
  5
1A0
102
{ACAD_REACTORS
330
10C
102
}
330
10C
100
AcDbScale
 70
     0
300
3/8" = 1'-0"
140
0.375
141
12.0
290
     0
  0
SCALE
  5
1A1
102
{ACAD_REACTORS
330
10C
102
}
330
10C
100
AcDbScale
 70
     0
300
1/2" = 1'-0"
140
0.5
141
12.0
290
     0
  0
SCALE
  5
1A2
102
{ACAD_REACTORS
330
10C
102
}
330
10C
100
AcDbScale
 70
     0
300
3/4" = 1'-0"
140
0.75
141
12.0
290
     0
  0
SCALE
  5
1A3
102
{ACAD_REACTORS
330
10C
102
}
330
10C
100
AcDbScale
 70
     0
300
1" = 1'-0"
140
1.0
141
12.0
290
     0
  0
SCALE
  5
1A4
102
{ACAD_REACTORS
330
10C
102
}
330
10C
100
AcDbScale
 70
     0
300
1-1/2" = 1'-0"
140
1.5
141
12.0
290
     0
  0
SCALE
  5
1A5
102
{ACAD_REACTORS
330
10C
102
}
330
10C
100
AcDbScale
 70
     0
300
3" = 1'-0"
140
3.0
141
12.0
290
     0
  0
SCALE
  5
1A6
102
{ACAD_REACTORS
330
10C
102
}
330
10C
100
AcDbScale
 70
     0
300
6" = 1'-0"
140
6.0
141
12.0
290
     0
  0
SCALE
  5
1A7
102
{ACAD_REACTORS
330
10C
102
}
330
10C
100
AcDbScale
 70
     0
300
1'-0" = 1'-0"
140
12.0
141
12.0
290
     0
  0
TABLESTYLE
  5
7F
102
{ACAD_XDICTIONARY
360
162
102
}
102
{ACAD_REACTORS
330
7E
102
}
330
7E
100
AcDbTableStyle
  3
Standard
 70
     0
 71
     0
 40
1.5
 41
1.5
280
     0
281
     0
  7
Standard
140
4.5
170
     2
 62
     0
 63
     7
283
     0
274
    -2
284
     1
 64
     0
275
    -2
285
     1
 65
     0
276
    -2
286
     1
 66
     0
277
    -2
287
     1
 67
     0
278
    -2
288
     1
 68
     0
279
    -2
289
     1
 69
     0
  7
Standard
140
6.0
170
     5
 62
     0
 63
     7
283
     0
274
    -2
284
     1
 64
     0
275
    -2
285
     1
 65
     0
276
    -2
286
     1
 66
     0
277
    -2
287
     1
 67
     0
278
    -2
288
     1
 68
     0
279
    -2
289
     1
 69
     0
  7
Standard
140
4.5
170
     5
 62
     0
 63
     7
283
     0
274
    -2
284
     1
 64
     0
275
    -2
285
     1
 65
     0
276
    -2
286
     1
 66
     0
277
    -2
287
     1
 67
     0
278
    -2
288
     1
 68
     0
279
    -2
289
     1
 69
     0
  0
VISUALSTYLE
  5
F5
102
{ACAD_REACTORS
330
EF
102
}
330
EF
100
AcDbVisualStyle
  2
2dWireframe
 70
     4
 71
     0
 72
     2
 73
     1
 90
        0
 40
-0.6
 41
-30.0
 62
     5
 63
     7
 74
     1
 91
        4
 64
     7
 65
   257
 75
     1
175
     1
 42
1.0
 92
        0
 66
   257
 43
1.0
 76
     1
 77
     6
 78
     2
 67
     7
 79
     5
170
     0
171
     0
290
     0
174
     0
 93
        1
 44
0.0
173
     0
291
     0
 45
0.0
1001
ACAD
1000
AcDbSavedByObjectVersion
1070
     0
  0
VISUALSTYLE
  5
F7
102
{ACAD_REACTORS
330
EF
102
}
330
EF
100
AcDbVisualStyle
  2
3D Hidden
 70
     6
 71
     1
 72
     2
 73
     2
 90
        0
 40
-0.6
 41
-30.0
 62
     5
 63
     7
 74
     2
 91
        2
 64
     7
 65
   257
 75
     2
175
     1
 42
40.0
 92
        0
 66
   257
 43
1.0
 76
     1
 77
     6
 78
     2
 67
     7
 79
     3
170
     0
171
     0
290
     0
174
     0
 93
        1
 44
0.0
173
     0
291
     0
 45
0.0
1001
ACAD
1000
AcDbSavedByObjectVersion
1070
     0
  0
VISUALSTYLE
  5
F6
102
{ACAD_REACTORS
330
EF
102
}
330
EF
100
AcDbVisualStyle
  2
3dWireframe
 70
     5
 71
     0
 72
     2
 73
     1
 90
        0
 40
-0.6
 41
-30.0
 62
     5
 63
     7
 74
     1
 91
        4
 64
     7
 65
   257
 75
     1
175
     1
 42
1.0
 92
        0
 66
   257
 43
1.0
 76
     1
 77
     6
 78
     2
 67
     7
 79
     5
170
     0
171
     0
290
     0
174
     0
 93
        1
 44
0.0
173
     0
291
     0
 45
0.0
1001
ACAD
1000
AcDbSavedByObjectVersion
1070
     0
  0
VISUALSTYLE
  5
F4
102
{ACAD_REACTORS
330
EF
102
}
330
EF
100
AcDbVisualStyle
  2
Basic
 70
     7
 71
     1
 72
     0
 73
     1
 90
        0
 40
-0.6
 41
-30.0
 62
     5
 63
     7
 74
     0
 91
        4
 64
     7
 65
   257
 75
     1
175
     1
 42
1.0
 92
        8
 66
     7
 43
1.0
 76
     1
 77
     6
 78
     2
 67
     7
 79
     5
170
     0
171
     0
290
     0
174
     0
 93
        1
 44
0.0
173
     0
291
     1
 45
0.0
1001
ACAD
1000
AcDbSavedByObjectVersion
1070
     0
  0
VISUALSTYLE
  5
FB
102
{ACAD_REACTORS
330
EF
102
}
330
EF
100
AcDbVisualStyle
  2
Brighten
 70
    12
 71
     2
 72
     2
 73
     1
 90
        0
 40
-0.6
 41
-30.0
 62
     5
 63
     7
 74
     1
 91
        4
 64
     7
 65
   257
 75
     1
175
     1
 42
1.0
 92
        8
 66
     7
 43
1.0
 76
     1
 77
     6
 78
     2
 67
     7
 79
     5
170
     0
171
     0
290
     0
174
     0
 93
        1
 44
50.0
173
     0
291
     1
 45
0.0
1001
ACAD
1000
AcDbSavedByObjectVersion
1070
     0
  0
VISUALSTYLE
  5
FF
102
{ACAD_REACTORS
330
EF
102
}
330
EF
100
AcDbVisualStyle
  2
ColorChange
 70
    16
 71
     2
 72
     2
 73
     3
 90
        0
 40
-0.6
 41
-30.0
 62
     5
 63
     8
 74
     1
 91
        4
 64
     7
 65
   257
 75
     1
175
     1
 42
1.0
 92
        8
 66
     8
 43
1.0
 76
     1
 77
     6
 78
     2
 67
     7
 79
     5
170
     0
171
     0
290
     0
174
     0
 93
        1
 44
0.0
173
     0
291
     1
 45
0.0
1001
ACAD
1000
AcDbSavedByObjectVersion
1070
     0
  0
VISUALSTYLE
  5
F8
102
{ACAD_REACTORS
330
EF
102
}
330
EF
100
AcDbVisualStyle
  2
Conceptual
 70
     9
 71
     3
 72
     2
 73
     1
 90
        0
 40
-0.6
 41
-30.0
 62
     5
 63
     7
 74
     2
 91
        2
 64
     7
 65
   257
 75
     1
175
     1
 42
40.0
 92
        8
 66
     7
 43
1.0
 76
     1
 77
     6
 78
     2
 67
     7
 79
     3
170
     0
171
     0
290
     0
174
     0
 93
        1
 44
0.0
173
     0
291
     0
 45
0.0
1001
ACAD
1000
AcDbSavedByObjectVersion
1070
     0
  0
VISUALSTYLE
  5
FA
102
{ACAD_REACTORS
330
EF
102
}
330
EF
100
AcDbVisualStyle
  2
Dim
 70
    11
 71
     2
 72
     2
 73
     1
 90
        0
 40
-0.6
 41
-30.0
 62
     5
 63
     7
 74
     1
 91
        4
 64
     7
 65
   257
 75
     1
175
     1
 42
1.0
 92
        8
 66
     7
 43
1.0
 76
     1
 77
     6
 78
     2
 67
     7
 79
     5
170
     0
171
     0
290
     0
174
     0
 93
        1
 44
-50.0
173
     0
291
     1
 45
0.0
1001
ACAD
1000
AcDbSavedByObjectVersion
1070
     0
  0
VISUALSTYLE
  5
FE
102
{ACAD_REACTORS
330
EF
102
}
330
EF
100
AcDbVisualStyle
  2
Facepattern
 70
    15
 71
     2
 72
     2
 73
     1
 90
        0
 40
-0.6
 41
-30.0
 62
     5
 63
     7
 74
     1
 91
        4
 64
     7
 65
   257
 75
     1
175
     1
 42
1.0
 92
        8
 66
     7
 43
1.0
 76
     1
 77
     6
 78
     2
 67
     7
 79
     5
170
     0
171
     0
290
     0
174
     0
 93
        1
 44
0.0
173
     0
291
     1
 45
0.0
1001
ACAD
1000
AcDbSavedByObjectVersion
1070
     0
  0
VISUALSTYLE
  5
F0
102
{ACAD_REACTORS
330
EF
102
}
330
EF
100
AcDbVisualStyle
  2
Flat
 70
     0
 71
     2
 72
     1
 73
     1
 90
        2
 40
-0.6
 41
30.0
 62
     5
 63
     7
 74
     0
 91
        4
 64
     7
 65
   257
 75
     1
175
     1
 42
1.0
 92
        8
 66
     7
 43
1.0
 76
     1
 77
     6
 78
     2
 67
     7
 79
     5
170
     0
171
     0
290
     0
174
     0
 93
        1
 44
0.0
173
     0
291
     1
 45
0.0
1001
ACAD
1000
AcDbSavedByObjectVersion
1070
     0
  0
VISUALSTYLE
  5
F1
102
{ACAD_REACTORS
330
EF
102
}
330
EF
100
AcDbVisualStyle
  2
FlatWithEdges
 70
     1
 71
     2
 72
     1
 73
     1
 90
        2
 40
-0.6
 41
30.0
 62
     5
 63
     7
 74
     1
 91
        4
 64
     7
 65
   257
 75
     1
175
     1
 42
1.0
 92
        0
 66
   257
 43
1.0
 76
     1
 77
     6
 78
     2
 67
     7
 79
     5
170
     0
171
     0
290
     0
174
     0
 93
        1
 44
0.0
173
     0
291
     1
 45
0.0
1001
ACAD
1000
AcDbSavedByObjectVersion
1070
     0
  0
VISUALSTYLE
  5
F2
102
{ACAD_REACTORS
330
EF
102
}
330
EF
100
AcDbVisualStyle
  2
Gouraud
 70
     2
 71
     2
 72
     2
 73
     1
 90
        2
 40
-0.6
 41
30.0
 62
     5
 63
     7
 74
     0
 91
        4
 64
     7
 65
   257
 75
     1
175
     1
 42
1.0
 92
        0
 66
     7
 43
1.0
 76
     1
 77
     6
 78
     2
 67
     7
 79
     5
170
     0
171
     0
290
     0
174
     0
 93
        1
 44
0.0
173
     0
291
     1
 45
0.0
1001
ACAD
1000
AcDbSavedByObjectVersion
1070
     0
  0
VISUALSTYLE
  5
F3
102
{ACAD_REACTORS
330
EF
102
}
330
EF
100
AcDbVisualStyle
  2
GouraudWithEdges
 70
     3
 71
     2
 72
     2
 73
     1
 90
        2
 40
-0.6
 41
30.0
 62
     5
 63
     7
 74
     1
 91
        4
 64
     7
 65
   257
 75
     1
175
     1
 42
1.0
 92
        0
 66
   257
 43
1.0
 76
     1
 77
     6
 78
     2
 67
     7
 79
     5
170
     0
171
     0
290
     0
174
     0
 93
        1
 44
0.0
173
     0
291
     1
 45
0.0
1001
ACAD
1000
AcDbSavedByObjectVersion
1070
     0
  0
VISUALSTYLE
  5
FD
102
{ACAD_REACTORS
330
EF
102
}
330
EF
100
AcDbVisualStyle
  2
Linepattern
 70
    14
 71
     2
 72
     2
 73
     1
 90
        0
 40
-0.6
 41
-30.0
 62
     5
 63
     7
 74
     1
 91
        4
 64
     7
 65
   257
 75
     7
175
     7
 42
1.0
 92
        8
 66
     7
 43
1.0
 76
     1
 77
     6
 78
     2
 67
     7
 79
     5
170
     0
171
     0
290
     0
174
     0
 93
        1
 44
0.0
173
     0
291
     1
 45
0.0
1001
ACAD
1000
AcDbSavedByObjectVersion
1070
     0
  0
VISUALSTYLE
  5
F9
102
{ACAD_REACTORS
330
EF
102
}
330
EF
100
AcDbVisualStyle
  2
Realistic
 70
     8
 71
     2
 72
     2
 73
     1
 90
        0
 40
-0.6
 41
-30.0
 62
     5
 63
     7
 74
     1
 91
        0
 64
     7
 65
   257
 75
     1
175
     1
 42
1.0
 92
        8
 66
     8
 43
1.0
 76
     1
 77
     6
 78
     2
 67
     7
 79
     5
170
     0
171
     0
290
     0
174
     0
 93
       13
 44
0.0
173
     0
291
     0
 45
0.0
1001
ACAD
1000
AcDbSavedByObjectVersion
1070
     0
  0
VISUALSTYLE
  5
FC
102
{ACAD_REACTORS
330
EF
102
}
330
EF
100
AcDbVisualStyle
  2
Thicken
 70
    13
 71
     2
 72
     2
 73
     1
 90
        0
 40
-0.6
 41
-30.0
 62
     5
 63
     7
 74
     1
 91
        4
 64
     7
 65
   257
 75
     1
175
     1
 42
1.0
 92
       12
 66
     7
 43
1.0
 76
     1
 77
     6
 78
     2
 67
     7
 79
     5
170
     0
171
     0
290
     0
174
     0
 93
        1
 44
0.0
173
     0
291
     1
 45
0.0
1001
ACAD
1000
AcDbSavedByObjectVersion
1070
     0
  0
DICTIONARYVAR
  5
146
102
{ACAD_REACTORS
330
5E
102
}
330
5E
100
DictionaryVariables
280
     0
  1
1:1
  0
DICTIONARYVAR
  5
145
102
{ACAD_REACTORS
330
5E
102
}
330
5E
100
DictionaryVariables
280
     0
  1
STANDARD
  0
DICTIONARYVAR
  5
84
102
{ACAD_REACTORS
330
5E
102
}
330
5E
100
DictionaryVariables
280
     0
  1
STANDARD
  0
DICTIONARYVAR
  5
5F
102
{ACAD_REACTORS
330
5E
102
}
330
5E
100
DictionaryVariables
280
     0
  1
2
  0
DICTIONARYVAR
  5
63
102
{ACAD_REACTORS
330
5E
102
}
330
5E
100
DictionaryVariables
280
     0
  1
1
  0
DICTIONARYVAR
  5
34F
102
{ACAD_REACTORS
330
5E
102
}
330
5E
100
DictionaryVariables
280
     0
  1
0
  0
DICTIONARYVAR
  5
34D
102
{ACAD_REACTORS
330
5E
102
}
330
5E
100
DictionaryVariables
280
     0
  1
2
  0
DICTIONARYVAR
  5
34C
102
{ACAD_REACTORS
330
5E
102
}
330
5E
100
DictionaryVariables
280
     0
  1
1
  0
DICTIONARYVAR
  5
351
102
{ACAD_REACTORS
330
5E
102
}
330
5E
100
DictionaryVariables
280
     0
  1
80.000000
  0
DICTIONARYVAR
  5
350
102
{ACAD_REACTORS
330
5E
102
}
330
5E
100
DictionaryVariables
280
     0
  1
5.000000
  0
DICTIONARYVAR
  5
34E
102
{ACAD_REACTORS
330
5E
102
}
330
5E
100
DictionaryVariables
280
     0
  1
127
  0
DICTIONARY
  5
357
330
D3
100
AcDbDictionary
280
     1
281
     1
  3
ACAD_XREC_ROUNDTRIP
360
358
  0
DICTIONARY
  5
359
330
D7
100
AcDbDictionary
280
     1
281
     1
  3
ACAD_XREC_ROUNDTRIP
360
35A
  0
DICTIONARY
  5
354
330
22
100
AcDbDictionary
280
     1
281
     1
  3
ACAD_XREC_ROUNDTRIP
360
355
  0
DICTIONARY
  5
35D
330
ED
100
AcDbDictionary
280
     1
281
     1
  3
ACAD_XREC_ROUNDTRIP
360
35E
  0
DICTIONARY
  5
35B
330
EC
100
AcDbDictionary
280
     1
281
     1
  3
ACAD_XREC_ROUNDTRIP
360
35C
  0
DICTIONARY
  5
173
330
EE
100
AcDbDictionary
280
     1
281
     1
  3
ACAD_XREC_ROUNDTRIP
360
35F
  3
BUMPTILE
360
175
  3
DIFFUSETILE
360
174
  3
OPACITYTILE
360
176
  3
REFLECTIONTILE
360
177
  0
DICTIONARY
  5
162
330
7F
100
AcDbDictionary
280
     1
281
     1
  3
ACAD_ROUNDTRIP_2008_TABLESTYLE_CELLSTYLEMAP
360
352
  3
ACAD_XREC_ROUNDTRIP
360
356
  0
XRECORD
  5
358
102
{ACAD_REACTORS
330
357
102
}
330
357
100
AcDbXrecord
280
     1
102
SHADEPLOT
 70
     0
102
SHADEPLOTRESLEVEL
 70
     2
102
SHADEPLOTCUSTOMDPI
 70
   300
  0
XRECORD
  5
35A
102
{ACAD_REACTORS
330
359
102
}
330
359
100
AcDbXrecord
280
     1
102
SHADEPLOT
 70
     0
102
SHADEPLOTRESLEVEL
 70
     2
102
SHADEPLOTCUSTOMDPI
 70
   300
  0
XRECORD
  5
355
102
{ACAD_REACTORS
330
354
102
}
330
354
100
AcDbXrecord
280
     1
102
SHADEPLOT
 70
     0
102
SHADEPLOTRESLEVEL
 70
     2
102
SHADEPLOTCUSTOMDPI
 70
   300
  0
XRECORD
  5
35E
102
{ACAD_REACTORS
330
35D
102
}
330
35D
100
AcDbXrecord
280
     1
102
MATERIAL
148
0.0
149
0.0
149
0.0
 93
        0
 94
       63
282
     0
 72
     1
 77
     1
171
     1
175
     1
179
     1
273
     0
  0
XRECORD
  5
35C
102
{ACAD_REACTORS
330
35B
102
}
330
35B
100
AcDbXrecord
280
     1
102
MATERIAL
148
0.0
149
0.0
149
0.0
 93
        0
 94
       63
282
     0
 72
     1
 77
     1
171
     1
175
     1
179
     1
273
     0
  0
XRECORD
  5
35F
102
{ACAD_REACTORS
330
173
102
}
330
173
100
AcDbXrecord
280
     1
102
MATERIAL
148
0.0
149
0.0
149
0.0
 93
        0
 94
       63
282
     0
 72
     1
 77
     1
171
     1
175
     1
179
     1
273
     0
  0
XRECORD
  5
175
102
{ACAD_REACTORS
330
173
102
}
330
173
100
AcDbXrecord
280
     1
270
     1
271
     1
  0
XRECORD
  5
174
102
{ACAD_REACTORS
330
173
102
}
330
173
100
AcDbXrecord
280
     1
270
     1
271
     1
  0
XRECORD
  5
176
102
{ACAD_REACTORS
330
173
102
}
330
173
100
AcDbXrecord
280
     1
270
     1
271
     1
  0
XRECORD
  5
177
102
{ACAD_REACTORS
330
173
102
}
330
173
100
AcDbXrecord
280
     1
270
     1
271
     1
  0
CELLSTYLEMAP
  5
352
102
{ACAD_REACTORS
330
162
102
}
330
162
100
AcDbCellStyleMap
 90
        3
300
CELLSTYLE
  1
TABLEFORMAT_BEGIN
 90
        5
170
     1
 91
        0
 92
    32768
 62
   257
 93
        1
300
CONTENTFORMAT
  1
CONTENTFORMAT_BEGIN
 90
        0
 91
        0
 92
      512
 93
        0
300

 40
0.0
140
1.0
 94
        5
 62
     0
340
11
144
6.0
309
CONTENTFORMAT_END
171
     1
301
MARGIN
  1
CELLMARGIN_BEGIN
 40
1.5
 40
1.5
 40
1.5
 40
1.5
 40
4.5
 40
4.5
309
CELLMARGIN_END
 94
        6
 95
        1
302
GRIDFORMAT
  1
GRIDFORMAT_BEGIN
 90
        0
 91
        1
 62
     0
 92
       -2
340
14
 93
        0
 40
1.125
309
GRIDFORMAT_END
 95
        2
302
GRIDFORMAT
  1
GRIDFORMAT_BEGIN
 90
        0
 91
        1
 62
     0
 92
       -2
340
14
 93
        0
 40
1.125
309
GRIDFORMAT_END
 95
        4
302
GRIDFORMAT
  1
GRIDFORMAT_BEGIN
 90
        0
 91
        1
 62
     0
 92
       -2
340
14
 93
        0
 40
1.125
309
GRIDFORMAT_END
 95
        8
302
GRIDFORMAT
  1
GRIDFORMAT_BEGIN
 90
        0
 91
        1
 62
     0
 92
       -2
340
14
 93
        0
 40
1.125
309
GRIDFORMAT_END
 95
       16
302
GRIDFORMAT
  1
GRIDFORMAT_BEGIN
 90
        0
 91
        1
 62
     0
 92
       -2
340
14
 93
        0
 40
1.125
309
GRIDFORMAT_END
 95
       32
302
GRIDFORMAT
  1
GRIDFORMAT_BEGIN
 90
        0
 91
        1
 62
     0
 92
       -2
340
14
 93
        0
 40
1.125
309
GRIDFORMAT_END
309
TABLEFORMAT_END
  1
CELLSTYLE_BEGIN
 90
        1
 91
        1
300
_TITLE
309
CELLSTYLE_END
300
CELLSTYLE
  1
TABLEFORMAT_BEGIN
 90
        5
170
     1
 91
        0
 92
        0
 62
   257
 93
        1
300
CONTENTFORMAT
  1
CONTENTFORMAT_BEGIN
 90
        0
 91
        0
 92
      512
 93
        0
300

 40
0.0
140
1.0
 94
        5
 62
     0
340
11
144
4.5
309
CONTENTFORMAT_END
171
     1
301
MARGIN
  1
CELLMARGIN_BEGIN
 40
1.5
 40
1.5
 40
1.5
 40
1.5
 40
4.5
 40
4.5
309
CELLMARGIN_END
 94
        6
 95
        1
302
GRIDFORMAT
  1
GRIDFORMAT_BEGIN
 90
        0
 91
        1
 62
     0
 92
       -2
340
14
 93
        0
 40
1.125
309
GRIDFORMAT_END
 95
        2
302
GRIDFORMAT
  1
GRIDFORMAT_BEGIN
 90
        0
 91
        1
 62
     0
 92
       -2
340
14
 93
        0
 40
1.125
309
GRIDFORMAT_END
 95
        4
302
GRIDFORMAT
  1
GRIDFORMAT_BEGIN
 90
        0
 91
        1
 62
     0
 92
       -2
340
14
 93
        0
 40
1.125
309
GRIDFORMAT_END
 95
        8
302
GRIDFORMAT
  1
GRIDFORMAT_BEGIN
 90
        0
 91
        1
 62
     0
 92
       -2
340
14
 93
        0
 40
1.125
309
GRIDFORMAT_END
 95
       16
302
GRIDFORMAT
  1
GRIDFORMAT_BEGIN
 90
        0
 91
        1
 62
     0
 92
       -2
340
14
 93
        0
 40
1.125
309
GRIDFORMAT_END
 95
       32
302
GRIDFORMAT
  1
GRIDFORMAT_BEGIN
 90
        0
 91
        1
 62
     0
 92
       -2
340
14
 93
        0
 40
1.125
309
GRIDFORMAT_END
309
TABLEFORMAT_END
  1
CELLSTYLE_BEGIN
 90
        2
 91
        1
300
_HEADER
309
CELLSTYLE_END
300
CELLSTYLE
  1
TABLEFORMAT_BEGIN
 90
        5
170
     1
 91
        0
 92
        0
 62
   257
 93
        1
300
CONTENTFORMAT
  1
CONTENTFORMAT_BEGIN
 90
        0
 91
        0
 92
      512
 93
        0
300

 40
0.0
140
1.0
 94
        2
 62
     0
340
11
144
4.5
309
CONTENTFORMAT_END
171
     1
301
MARGIN
  1
CELLMARGIN_BEGIN
 40
1.5
 40
1.5
 40
1.5
 40
1.5
 40
4.5
 40
4.5
309
CELLMARGIN_END
 94
        6
 95
        1
302
GRIDFORMAT
  1
GRIDFORMAT_BEGIN
 90
        0
 91
        1
 62
     0
 92
       -2
340
14
 93
        0
 40
1.125
309
GRIDFORMAT_END
 95
        2
302
GRIDFORMAT
  1
GRIDFORMAT_BEGIN
 90
        0
 91
        1
 62
     0
 92
       -2
340
14
 93
        0
 40
1.125
309
GRIDFORMAT_END
 95
        4
302
GRIDFORMAT
  1
GRIDFORMAT_BEGIN
 90
        0
 91
        1
 62
     0
 92
       -2
340
14
 93
        0
 40
1.125
309
GRIDFORMAT_END
 95
        8
302
GRIDFORMAT
  1
GRIDFORMAT_BEGIN
 90
        0
 91
        1
 62
     0
 92
       -2
340
14
 93
        0
 40
1.125
309
GRIDFORMAT_END
 95
       16
302
GRIDFORMAT
  1
GRIDFORMAT_BEGIN
 90
        0
 91
        1
 62
     0
 92
       -2
340
14
 93
        0
 40
1.125
309
GRIDFORMAT_END
 95
       32
302
GRIDFORMAT
  1
GRIDFORMAT_BEGIN
 90
        0
 91
        1
 62
     0
 92
       -2
340
14
 93
        0
 40
1.125
309
GRIDFORMAT_END
309
TABLEFORMAT_END
  1
CELLSTYLE_BEGIN
 90
        3
 91
        2
300
_DATA
309
CELLSTYLE_END
  0
XRECORD
  5
356
102
{ACAD_REACTORS
330
162
102
}
330
162
100
AcDbXrecord
280
     1
102
ACAD_ROUNDTRIP_PRE2007_TABLESTYLE
 90
      512
 91
        0
  1

 92
      512
 93
        0
  2

 94
      512
 95
        0
  3

  0
ENDSEC
  0
EOF
