  0
SECTION
  2
HEADER
  9
$ACADVER
  1
AC1015
  9
$ACADMAINTVER
 70
    20
  9
$DWGCODEPAGE
  3
ANSI_1254
  9
$INSBASE
 10
0.0
 20
0.0
 30
0.0
  9
$EXTMIN
 10
1904.158543304104
 20
1024.431328517265
 30
0.0
  9
$EXTMAX
 10
2109.81099558734
 20
1124.140050257612
 30
0.0
  9
$LIMMIN
 10
0.0
 20
0.0
  9
$LIMMAX
 10
420.0
 20
297.0
  9
$ORTHOMODE
 70
     0
  9
$REGENMODE
 70
     1
  9
$FILLMODE
 70
     1
  9
$QTEXTMODE
 70
     0
  9
$MIRRTEXT
 70
     0
  9
$LTSCALE
 40
1.0
  9
$ATTMODE
 70
     1
  9
$TEXTSIZE
 40
2.5
  9
$TRACEWID
 40
1.0
  9
$TEXTSTYLE
  7
Standard
  9
$CLAYER
  8
0
  9
$CELTYPE
  6
ByLayer
  9
$CECOLOR
 62
   256
  9
$CELTSCALE
 40
1.0
  9
$DISPSILH
 70
     0
  9
$DIMSCALE
 40
1.0
  9
$DIMASZ
 40
2.5
  9
$DIMEXO
 40
0.625
  9
$DIMDLI
 40
3.75
  9
$DIMRND
 40
0.0
  9
$DIMDLE
 40
0.0
  9
$DIMEXE
 40
1.25
  9
$DIMTP
 40
0.0
  9
$DIMTM
 40
0.0
  9
$DIMTXT
 40
2.5
  9
$DIMCEN
 40
2.5
  9
$DIMTSZ
 40
0.0
  9
$DIMTOL
 70
     0
  9
$DIMLIM
 70
     0
  9
$DIMTIH
 70
     0
  9
$DIMTOH
 70
     0
  9
$DIMSE1
 70
     0
  9
$DIMSE2
 70
     0
  9
$DIMTAD
 70
     1
  9
$DIMZIN
 70
     8
  9
$DIMBLK
  1

  9
$DIMASO
 70
     1
  9
$DIMSHO
 70
     1
  9
$DIMPOST
  1

  9
$DIMAPOST
  1

  9
$DIMALT
 70
     0
  9
$DIMALTD
 70
     3
  9
$DIMALTF
 40
0.03937007874016
  9
$DIMLFAC
 40
1.0
  9
$DIMTOFL
 70
     1
  9
$DIMTVP
 40
0.0
  9
$DIMTIX
 70
     0
  9
$DIMSOXD
 70
     0
  9
$DIMSAH
 70
     0
  9
$DIMBLK1
  1

  9
$DIMBLK2
  1

  9
$DIMSTYLE
  2
ISO-25
  9
$DIMCLRD
 70
     0
  9
$DIMCLRE
 70
     0
  9
$DIMCLRT
 70
     0
  9
$DIMTFAC
 40
1.0
  9
$DIMGAP
 40
0.625
  9
$DIMJUST
 70
     0
  9
$DIMSD1
 70
     0
  9
$DIMSD2
 70
     0
  9
$DIMTOLJ
 70
     0
  9
$DIMTZIN
 70
     8
  9
$DIMALTZ
 70
     0
  9
$DIMALTTZ
 70
     0
  9
$DIMUPT
 70
     0
  9
$DIMDEC
 70
     2
  9
$DIMTDEC
 70
     2
  9
$DIMALTU
 70
     2
  9
$DIMALTTD
 70
     3
  9
$DIMTXSTY
  7
Standard
  9
$DIMAUNIT
 70
     0
  9
$DIMADEC
 70
     0
  9
$DIMALTRND
 40
0.0
  9
$DIMAZIN
 70
     0
  9
$DIMDSEP
 70
    44
  9
$DIMATFIT
 70
     3
  9
$DIMFRAC
 70
     0
  9
$DIMLDRBLK
  1

  9
$DIMLUNIT
 70
     2
  9
$DIMLWD
 70
    -2
  9
$DIMLWE
 70
    -2
  9
$DIMTMOVE
 70
     0
  9
$LUNITS
 70
     2
  9
$LUPREC
 70
     4
  9
$SKETCHINC
 40
1.0
  9
$FILLETRAD
 40
0.0
  9
$AUNITS
 70
     0
  9
$AUPREC
 70
     0
  9
$MENU
  1
.
  9
$ELEVATION
 40
0.0
  9
$PELEVATION
 40
0.0
  9
$THICKNESS
 40
0.0
  9
$LIMCHECK
 70
     0
  9
$CHAMFERA
 40
0.0
  9
$CHAMFERB
 40
0.0
  9
$CHAMFERC
 40
0.0
  9
$CHAMFERD
 40
0.0
  9
$SKPOLY
 70
     0
  9
$TDCREATE
 40
2458557.442514097
  9
$TDUCREATE
 40
2458557.317514098
  9
$TDUPDATE
 40
2459067.666680151
  9
$TDUUPDATE
 40
2459067.541680151
  9
$TDINDWG
 40
0.0011037847
  9
$TDUSRTIMER
 40
0.0011036111
  9
$USRTIMER
 70
     1
  9
$ANGBASE
 50
0.0
  9
$ANGDIR
 70
     0
  9
$PDMODE
 70
     0
  9
$PDSIZE
 40
0.0
  9
$PLINEWID
 40
0.0
  9
$SPLFRAME
 70
     0
  9
$SPLINETYPE
 70
     6
  9
$SPLINESEGS
 70
     8
  9
$HANDSEED
  5
361
  9
$SURFTAB1
 70
     6
  9
$SURFTAB2
 70
     6
  9
$SURFTYPE
 70
     6
  9
$SURFU
 70
     6
  9
$SURFV
 70
     6
  9
$UCSBASE
  2

  9
$UCSNAME
  2

  9
$UCSORG
 10
0.0
 20
0.0
 30
0.0
  9
$UCSXDIR
 10
1.0
 20
0.0
 30
0.0
  9
$UCSYDIR
 10
0.0
 20
1.0
 30
0.0
  9
$UCSORTHOREF
  2

  9
$UCSORTHOVIEW
 70
     0
  9
$UCSORGTOP
 10
0.0
 20
0.0
 30
0.0
  9
$UCSORGBOTTOM
 10
0.0
 20
0.0
 30
0.0
  9
$UCSORGLEFT
 10
0.0
 20
0.0
 30
0.0
  9
$UCSORGRIGHT
 10
0.0
 20
0.0
 30
0.0
  9
$UCSORGFRONT
 10
0.0
 20
0.0
 30
0.0
  9
$UCSORGBACK
 10
0.0
 20
0.0
 30
0.0
  9
$PUCSBASE
  2

  9
$PUCSNAME
  2

  9
$PUCSORG
 10
0.0
 20
0.0
 30
0.0
  9
$PUCSXDIR
 10
1.0
 20
0.0
 30
0.0
  9
$PUCSYDIR
 10
0.0
 20
1.0
 30
0.0
  9
$PUCSORTHOREF
  2

  9
$PUCSORTHOVIEW
 70
     0
  9
$PUCSORGTOP
 10
0.0
 20
0.0
 30
0.0
  9
$PUCSORGBOTTOM
 10
0.0
 20
0.0
 30
0.0
  9
$PUCSORGLEFT
 10
0.0
 20
0.0
 30
0.0
  9
$PUCSORGRIGHT
 10
0.0
 20
0.0
 30
0.0
  9
$PUCSORGFRONT
 10
0.0
 20
0.0
 30
0.0
  9
$PUCSORGBACK
 10
0.0
 20
0.0
 30
0.0
  9
$USERI1
 70
     0
  9
$USERI2
 70
     0
  9
$USERI3
 70
     0
  9
$USERI4
 70
     0
  9
$USERI5
 70
     0
  9
$USERR1
 40
0.0
  9
$USERR2
 40
0.0
  9
$USERR3
 40
0.0
  9
$USERR4
 40
0.0
  9
$USERR5
 40
0.0
  9
$WORLDVIEW
 70
     1
  9
$SHADEDGE
 70
     3
  9
$SHADEDIF
 70
    70
  9
$TILEMODE
 70
     1
  9
$MAXACTVP
 70
    64
  9
$PINSBASE
 10
0.0
 20
0.0
 30
0.0
  9
$PLIMCHECK
 70
     0
  9
$PEXTMIN
 10
0.0
 20
0.0
 30
0.0
  9
$PEXTMAX
 10
0.0
 20
0.0
 30
0.0
  9
$PLIMMIN
 10
0.0
 20
0.0
  9
$PLIMMAX
 10
12.0
 20
9.0
  9
$UNITMODE
 70
     0
  9
$VISRETAIN
 70
     1
  9
$PLINEGEN
 70
     0
  9
$PSLTSCALE
 70
     1
  9
$TREEDEPTH
 70
  3020
  9
$CMLSTYLE
  2
Standard
  9
$CMLJUST
 70
     0
  9
$CMLSCALE
 40
20.0
  9
$PROXYGRAPHICS
 70
     1
  9
$MEASUREMENT
 70
     1
  9
$CELWEIGHT
370
    -1
  9
$ENDCAPS
280
     0
  9
$JOINSTYLE
280
     0
  9
$LWDISPLAY
290
     0
  9
$INSUNITS
 70
     4
  9
$HYPERLINKBASE
  1

  9
$STYLESHEET
  1

  9
$XEDIT
290
     1
  9
$CEPSNTYPE
380
     0
  9
$PSTYLEMODE
290
     1
  9
$FINGERPRINTGUID
  2
{5D366AB9-2FAF-44F2-BAF3-05F60A271A58}
  9
$VERSIONGUID
  2
{588F9F23-0768-4348-B7F6-7BE4F51266B4}
  9
$EXTNAMES
290
     1
  9
$PSVPSCALE
 40
0.0
  9
$OLESTARTUP
290
     0
  0
ENDSEC
  0
SECTION
  2
CLASSES
  0
CLASS
  1
ACDBDICTIONARYWDFLT
  2
AcDbDictionaryWithDefault
  3
ObjectDBX Classes
 90
        0
280
     0
281
     0
  0
CLASS
  1
ACDBPLACEHOLDER
  2
AcDbPlaceHolder
  3
ObjectDBX Classes
 90
        0
280
     0
281
     0
  0
CLASS
  1
LAYOUT
  2
AcDbLayout
  3
ObjectDBX Classes
 90
        0
280
     0
281
     0
  0
CLASS
  1
DICTIONARYVAR
  2
AcDbDictionaryVar
  3
ObjectDBX Classes
 90
        0
280
     0
281
     0
  0
CLASS
  1
TABLESTYLE
  2
AcDbTableStyle
  3
ObjectDBX Classes
 90
     4095
280
     0
281
     0
  0
CLASS
  1
MATERIAL
  2
AcDbMaterial
  3
ObjectDBX Classes
 90
     1153
280
     0
281
     0
  0
CLASS
  1
VISUALSTYLE
  2
AcDbVisualStyle
  3
ObjectDBX Classes
 90
     4095
280
     0
281
     0
  0
CLASS
  1
SCALE
  2
AcDbScale
  3
ObjectDBX Classes
 90
     1153
280
     0
281
     0
  0
CLASS
  1
MLEADERSTYLE
  2
AcDbMLeaderStyle
  3
ACDB_MLEADERSTYLE_CLASS
 90
     4095
280
     0
281
     0
  0
CLASS
  1
CELLSTYLEMAP
  2
AcDbCellStyleMap
  3
ObjectDBX Classes
 90
     1152
280
     0
281
     0
  0
ENDSEC
  0
SECTION
  2
TABLES
  0
TABLE
  2
VPORT
  5
8
330
0
100
AcDbSymbolTable
 70
     1
  0
VPORT
  5
EA
330
8
100
AcDbSymbolTableRecord
100
AcDbViewportTableRecord
  2
*Active
 70
     0
 10
0.0
 20
0.0
 11
1.0
 21
1.0
 12
2003.912392786006
 22
1086.414105716275
 13
0.0
 23
0.0
 14
10.0
 24
10.0
 15
10.0
 25
10.0
 16
0.0
 26
0.0
 36
1.0
 17
0.0
 27
0.0
 37
0.0
 40
168.5738217193074
 41
1.903110047846889
 42
50.0
 43
0.0
 44
0.0
 50
0.0
 51
0.0
 71
     0
 72
  1000
 73
     1
 74
     3
 75
     0
 76
     0
 77
     0
 78
     0
281
     0
 65
     1
110
0.0
120
0.0
130
0.0
111
1.0
121
0.0
131
0.0
112
0.0
122
1.0
132
0.0
 79
     0
146
0.0
  0
ENDTAB
  0
TABLE
  2
LTYPE
  5
5
330
0
100
AcDbSymbolTable
 70
     1
  0
LTYPE
  5
14
330
5
100
AcDbSymbolTableRecord
100
AcDbLinetypeTableRecord
  2
ByBlock
 70
     0
  3

 72
    65
 73
     0
 40
0.0
  0
LTYPE
  5
15
330
5
100
AcDbSymbolTableRecord
100
AcDbLinetypeTableRecord
  2
ByLayer
 70
     0
  3

 72
    65
 73
     0
 40
0.0
  0
LTYPE
  5
16
330
5
100
AcDbSymbolTableRecord
100
AcDbLinetypeTableRecord
  2
Continuous
 70
     0
  3
Solid line
 72
    65
 73
     0
 40
0.0
  0
ENDTAB
  0
TABLE
  2
LAYER
  5
2
330
0
100
AcDbSymbolTable
 70
     1
  0
LAYER
  5
10
102
{ACAD_XDICTIONARY
360
13C
102
}
330
2
100
AcDbSymbolTableRecord
100
AcDbLayerTableRecord
  2
0
 70
     0
 62
     7
  6
Continuous
370
    -3
390
F
  0
ENDTAB
  0
TABLE
  2
STYLE
  5
3
330
0
100
AcDbSymbolTable
 70
     2
  0
STYLE
  5
11
330
3
100
AcDbSymbolTableRecord
100
AcDbTextStyleTableRecord
  2
Standard
 70
     0
 40
0.0
 41
1.0
 50
0.0
 71
     0
 42
2.5
  3
txt
  4

  0
STYLE
  5
132
330
3
100
AcDbSymbolTableRecord
100
AcDbTextStyleTableRecord
  2
Annotative
 70
     0
 40
0.0
 41
1.0
 50
0.0
 71
     0
 42
2.5
  3
txt.shx
  4

1001
AcadAnnotative
1000
AnnotativeData
1002
{
1070
     1
1070
     1
1002
}
  0
ENDTAB
  0
TABLE
  2
VIEW
  5
6
330
0
100
AcDbSymbolTable
 70
     0
  0
ENDTAB
  0
TABLE
  2
UCS
  5
7
330
0
100
AcDbSymbolTable
 70
     0
  0
ENDTAB
  0
TABLE
  2
APPID
  5
9
330
0
100
AcDbSymbolTable
 70
     7
  0
APPID
  5
12
330
9
100
AcDbSymbolTableRecord
100
AcDbRegAppTableRecord
  2
ACAD
 70
     0
  0
APPID
  5
9E
330
9
100
AcDbSymbolTableRecord
100
AcDbRegAppTableRecord
  2
ACAD_PSEXT
 70
     0
  0
APPID
  5
133
330
9
100
AcDbSymbolTableRecord
100
AcDbRegAppTableRecord
  2
AcadAnnoPO
 70
     0
  0
APPID
  5
134
330
9
100
AcDbSymbolTableRecord
100
AcDbRegAppTableRecord
  2
AcadAnnotative
 70
     0
  0
APPID
  5
135
330
9
100
AcDbSymbolTableRecord
100
AcDbRegAppTableRecord
  2
ACAD_DSTYLE_DIMJAG
 70
     0
  0
APPID
  5
136
330
9
100
AcDbSymbolTableRecord
100
AcDbRegAppTableRecord
  2
ACAD_DSTYLE_DIMTALN
 70
     0
  0
APPID
  5
165
330
9
100
AcDbSymbolTableRecord
100
AcDbRegAppTableRecord
  2
ACAD_MLEADERVER
 70
     0
  0
ENDTAB
  0
TABLE
  2
DIMSTYLE
  5
A
330
0
100
AcDbSymbolTable
 70
     2
100
AcDbDimStyleTable
 71
     2
340
27
340
137
  0
DIMSTYLE
105
27
330
A
100
AcDbSymbolTableRecord
100
AcDbDimStyleTableRecord
  2
ISO-25
 70
     0
 41
2.5
 42
0.625
 43
3.75
 44
1.25
 73
     0
 74
     0
 77
     1
 78
     8
140
2.5
141
2.5
143
0.03937007874016
147
0.625
171
     3
172
     1
271
     2
272
     2
274
     3
278
    44
283
     0
284
     8
340
11
  0
DIMSTYLE
105
137
330
A
100
AcDbSymbolTableRecord
100
AcDbDimStyleTableRecord
  2
Annotative
 70
     0
 40
0.0
 41
2.5
 42
0.625
 43
3.75
 44
1.25
 73
     0
 74
     0
 77
     1
 78
     8
140
2.5
141
2.5
143
0.03937007874016
147
0.625
171
     3
172
     1
271
     2
272
     2
274
     3
278
    44
283
     0
284
     8
340
11
1001
AcadAnnotative
1000
AnnotativeData
1002
{
1070
     1
1070
     1
1002
}
1001
ACAD_DSTYLE_DIMJAG
1070
   388
1040
1.5
1001
ACAD_DSTYLE_DIMTALN
1070
   392
1070
     0
  0
ENDTAB
  0
TABLE
  2
BLOCK_RECORD
  5
1
330
0
100
AcDbSymbolTable
 70
     6
  0
BLOCK_RECORD
  5
1F
330
1
100
AcDbSymbolTableRecord
100
AcDbBlockTableRecord
  2
*Model_Space
340
22
  0
BLOCK_RECORD
  5
D2
330
1
100
AcDbSymbolTableRecord
100
AcDbBlockTableRecord
  2
*Paper_Space
340
D3
  0
BLOCK_RECORD
  5
D6
330
1
100
AcDbSymbolTableRecord
100
AcDbBlockTableRecord
  2
*Paper_Space0
340
D7
  0
BLOCK_RECORD
  5
1AD
330
1
100
AcDbSymbolTableRecord
100
AcDbBlockTableRecord
  2
SW_CENTERMARKSYMBOL_0
340
0
102
{BLKREFS
331
2D5
102
}
  0
BLOCK_RECORD
  5
2B8
330
1
100
AcDbSymbolTableRecord
100
AcDbBlockTableRecord
  2
1
340
0
310
2800000020000000200000000100080000000000000400000000000000000000000000000000000000000000000080000080000000808000800000008000800080800000C0C0C000C0DCC000F0CAA6000020400000206000002080000020A0000020C0000020E00000400000004020000040400000406000004080000040A0
310
000040C0000040E00000600000006020000060400000606000006080000060A0000060C0000060E00000800000008020000080400000806000008080000080A0000080C0000080E00000A0000000A0200000A0400000A0600000A0800000A0A00000A0C00000A0E00000C0000000C0200000C0400000C0600000C0800000C0
310
A00000C0C00000C0E00000E0000000E0200000E0400000E0600000E0800000E0A00000E0C00000E0E00040000000400020004000400040006000400080004000A0004000C0004000E00040200000402020004020400040206000402080004020A0004020C0004020E000404000004040200040404000404060004040800040
310
40A0004040C0004040E00040600000406020004060400040606000406080004060A0004060C0004060E00040800000408020004080400040806000408080004080A0004080C0004080E00040A0000040A0200040A0400040A0600040A0800040A0A00040A0C00040A0E00040C0000040C0200040C0400040C0600040C08000
310
40C0A00040C0C00040C0E00040E0000040E0200040E0400040E0600040E0800040E0A00040E0C00040E0E00080000000800020008000400080006000800080008000A0008000C0008000E00080200000802020008020400080206000802080008020A0008020C0008020E00080400000804020008040400080406000804080
310
008040A0008040C0008040E00080600000806020008060400080606000806080008060A0008060C0008060E00080800000808020008080400080806000808080008080A0008080C0008080E00080A0000080A0200080A0400080A0600080A0800080A0A00080A0C00080A0E00080C0000080C0200080C0400080C0600080C0
310
800080C0A00080C0C00080C0E00080E0000080E0200080E0400080E0600080E0800080E0A00080E0C00080E0E000C0000000C0002000C0004000C0006000C0008000C000A000C000C000C000E000C0200000C0202000C0204000C0206000C0208000C020A000C020C000C020E000C0400000C0402000C0404000C0406000C0
310
408000C040A000C040C000C040E000C0600000C0602000C0604000C0606000C0608000C060A000C060C000C060E000C0800000C0802000C0804000C0806000C0808000C080A000C080C000C080E000C0A00000C0A02000C0A04000C0A06000C0A08000C0A0A000C0A0C000C0A0E000C0C00000C0C02000C0C04000C0C06000
310
C0C08000C0C0A000F0FBFF00A4A0A000808080000000FF0000FF000000FFFF00FF000000FF00FF00FFFF0000FFFFFF00000000000000000000000000000000000000000000000000000000000000000000000000000000000000000000000000FF000000000000000000000000000000000000000000000000000000000000
310
00FF00000000000000000000000000000000000000000000000000FFFFFFFFFFFFFFFFFFFFFFFF00000000000000000000000000000000000000FF000000000000FF0000000000FF0000000000000000000000000000000000FF00000000000000FF000000000000FF000000000000000000000000000000FF00000000FFFF
310
FFFFFFFFFFFFFF000000FF0000000000000000000000000000FF0000FFFFFF0000FFFF0000FFFFFFFF00FF00000000000000000000000000FF0000FFFF00FFFFFF00FF00000000FFFFFF00FF0000000000000000000000FF0000FFFFFFFF00000000FF0000000000FFFFFF00FF00000000000000000000FF00FFFFFF000000
310
000000FF000000000000FFFF00FF000000000000000000FF00FFFF0000000000000000FF00000000000000FFFF00FF00000000000000FF0000FFFF0000000000000000FF00000000000000FFFF0000FF000000000000FF0000FF000000000000000000FF0000000000000000FF0000FF0000000000FF0000FFFF0000000000
310
00000000FF0000000000000000FF000000FF00000000FF0000FFFF000000000000000000FF0000000000000000FF000000FF000000FFFFFFFFFFFFFFFFFFFFFFFFFFFFFFFFFFFFFFFFFFFFFFFFFFFFFFFFFFFF000000FF000000FF000000000000000000FF0000000000000000FF000000FF0000000000FF0000FF00000000
310
0000000000FF0000000000000000FF0000FF000000000000FF0000FFFF0000000000000000FF00000000000000FFFF0000FF00000000000000FF00FFFF0000000000000000FF00000000000000FF0000FF000000000000000000FF00FFFF00000000000000FF000000000000FFFF00FF00000000000000000000FF0000FFFF
310
000000000000FF0000000000FFFF0000FF0000000000000000000000FF0000FFFF0000000000FF00000000FFFF0000FF00000000000000000000000000FF0000FFFFFF000000FF0000FFFFFF0000FF0000000000000000000000000000FF00000000FFFFFFFFFFFFFFFF00000000FF000000000000000000000000000000FF
310
00000000000000FF000000000000FF0000000000000000000000000000000000FF000000000000FF0000000000FF00000000000000000000000000000000000000FFFFFFFFFFFFFFFFFFFFFFFF0000000000000000000000000000000000000000000000000000FF0000000000000000000000000000000000000000000000
310
0000000000000000FF0000000000000000000000000000000000000000000000000000000000000000000000000000000000000000000000
102
{BLKREFS
331
2D6
102
}
1001
ACAD
1000
DesignCenter Data
1002
{
1070
     1
1070
     4
1002
}
  0
BLOCK_RECORD
  5
2D7
330
1
100
AcDbSymbolTableRecord
100
AcDbBlockTableRecord
  2
2
340
0
310
2800000020000000200000000100080000000000000400000000000000000000000000000000000000000000000080000080000000808000800000008000800080800000C0C0C000C0DCC000F0CAA6000020400000206000002080000020A0000020C0000020E00000400000004020000040400000406000004080000040A0
310
000040C0000040E00000600000006020000060400000606000006080000060A0000060C0000060E00000800000008020000080400000806000008080000080A0000080C0000080E00000A0000000A0200000A0400000A0600000A0800000A0A00000A0C00000A0E00000C0000000C0200000C0400000C0600000C0800000C0
310
A00000C0C00000C0E00000E0000000E0200000E0400000E0600000E0800000E0A00000E0C00000E0E00040000000400020004000400040006000400080004000A0004000C0004000E00040200000402020004020400040206000402080004020A0004020C0004020E000404000004040200040404000404060004040800040
310
40A0004040C0004040E00040600000406020004060400040606000406080004060A0004060C0004060E00040800000408020004080400040806000408080004080A0004080C0004080E00040A0000040A0200040A0400040A0600040A0800040A0A00040A0C00040A0E00040C0000040C0200040C0400040C0600040C08000
310
40C0A00040C0C00040C0E00040E0000040E0200040E0400040E0600040E0800040E0A00040E0C00040E0E00080000000800020008000400080006000800080008000A0008000C0008000E00080200000802020008020400080206000802080008020A0008020C0008020E00080400000804020008040400080406000804080
310
008040A0008040C0008040E00080600000806020008060400080606000806080008060A0008060C0008060E00080800000808020008080400080806000808080008080A0008080C0008080E00080A0000080A0200080A0400080A0600080A0800080A0A00080A0C00080A0E00080C0000080C0200080C0400080C0600080C0
310
800080C0A00080C0C00080C0E00080E0000080E0200080E0400080E0600080E0800080E0A00080E0C00080E0E000C0000000C0002000C0004000C0006000C0008000C000A000C000C000C000E000C0200000C0202000C0204000C0206000C0208000C020A000C020C000C020E000C0400000C0402000C0404000C0406000C0
310
408000C040A000C040C000C040E000C0600000C0602000C0604000C0606000C0608000C060A000C060C000C060E000C0800000C0802000C0804000C0806000C0808000C080A000C080C000C080E000C0A00000C0A02000C0A04000C0A06000C0A08000C0A0A000C0A0C000C0A0E000C0C00000C0C02000C0C04000C0C06000
310
C0C08000C0C0A000F0FBFF00A4A0A000808080000000FF0000FF000000FFFF00FF000000FF00FF00FFFF0000FFFFFF00000000000000000000000000000000000000000000000000000000000000000000000000000000000000000000000000FFFF0000000000000000000000000000000000000000000000000000000000
310
00FFFF00000000000000000000000000000000000000000000000000000000FFFFFFFF00000000000000000000000000000000000000000000000000000000FFFFFFFF00000000000000000000000000000000000000000000000000000000FF00FFFF00000000000000000000000000000000000000000000000000000000
310
FF00FFFF00000000000000000000000000000000000000000000000000000000FF00FFFF00000000000000000000000000000000000000000000000000000000FF00FFFF00000000000000000000000000000000000000000000000000000000FF00FFFF000000000000000000000000000000000000000000000000000000
310
00FF00FFFF00000000000000000000000000000000000000000000000000000000FF00FFFF00000000000000000000000000000000000000000000000000000000FF00FFFF00000000000000000000000000000000000000000000000000000000FF00FFFF0000000000000000000000000000000000000000000000000000
310
0000FFFFFFFF00000000000000000000000000000000000000000000000000000000FF0000FF00000000000000000000000000000000000000000000000000000000FF0000FF00000000000000000000000000000000000000000000000000000000FFFFFFFF00000000000000000000000000000000000000000000000000
310
000000FF00FFFF00000000000000000000000000000000000000000000000000000000FF00FFFF00000000000000000000000000000000000000000000000000000000FF00FFFF00000000000000000000000000000000000000000000000000000000FF00FFFF000000000000000000000000000000000000000000000000
310
00000000FF00FFFF00000000000000000000000000000000000000000000000000000000FF00FFFF00000000000000000000000000000000000000000000000000000000FF00FFFF00000000000000000000000000000000000000000000000000000000FF00FFFF0000000000000000000000000000000000000000000000
310
0000000000FF00FFFF00000000000000000000000000000000000000000000000000000000FFFFFFFF00000000000000000000000000000000000000000000000000000000FFFFFFFF000000000000000000000000000000000000000000000000000000000000FFFF00000000000000000000000000000000000000000000
310
0000000000000000FFFF00000000000000000000000000000000000000000000000000000000000000000000000000000000000000000000
102
{BLKREFS
331
2EB
102
}
1001
ACAD
1000
DesignCenter Data
1002
{
1070
     1
1070
     4
1002
}
  0
BLOCK_RECORD
  5
2EC
330
1
100
AcDbSymbolTableRecord
100
AcDbBlockTableRecord
  2
3
340
0
310
2800000020000000200000000100080000000000000400000000000000000000000000000000000000000000000080000080000000808000800000008000800080800000C0C0C000C0DCC000F0CAA6000020400000206000002080000020A0000020C0000020E00000400000004020000040400000406000004080000040A0
310
000040C0000040E00000600000006020000060400000606000006080000060A0000060C0000060E00000800000008020000080400000806000008080000080A0000080C0000080E00000A0000000A0200000A0400000A0600000A0800000A0A00000A0C00000A0E00000C0000000C0200000C0400000C0600000C0800000C0
310
A00000C0C00000C0E00000E0000000E0200000E0400000E0600000E0800000E0A00000E0C00000E0E00040000000400020004000400040006000400080004000A0004000C0004000E00040200000402020004020400040206000402080004020A0004020C0004020E000404000004040200040404000404060004040800040
310
40A0004040C0004040E00040600000406020004060400040606000406080004060A0004060C0004060E00040800000408020004080400040806000408080004080A0004080C0004080E00040A0000040A0200040A0400040A0600040A0800040A0A00040A0C00040A0E00040C0000040C0200040C0400040C0600040C08000
310
40C0A00040C0C00040C0E00040E0000040E0200040E0400040E0600040E0800040E0A00040E0C00040E0E00080000000800020008000400080006000800080008000A0008000C0008000E00080200000802020008020400080206000802080008020A0008020C0008020E00080400000804020008040400080406000804080
310
008040A0008040C0008040E00080600000806020008060400080606000806080008060A0008060C0008060E00080800000808020008080400080806000808080008080A0008080C0008080E00080A0000080A0200080A0400080A0600080A0800080A0A00080A0C00080A0E00080C0000080C0200080C0400080C0600080C0
310
800080C0A00080C0C00080C0E00080E0000080E0200080E0400080E0600080E0800080E0A00080E0C00080E0E000C0000000C0002000C0004000C0006000C0008000C000A000C000C000C000E000C0200000C0202000C0204000C0206000C0208000C020A000C020C000C020E000C0400000C0402000C0404000C0406000C0
310
408000C040A000C040C000C040E000C0600000C0602000C0604000C0606000C0608000C060A000C060C000C060E000C0800000C0802000C0804000C0806000C0808000C080A000C080C000C080E000C0A00000C0A02000C0A04000C0A06000C0A08000C0A0A000C0A0C000C0A0E000C0C00000C0C02000C0C04000C0C06000
310
C0C08000C0C0A000F0FBFF00A4A0A000808080000000FF0000FF000000FFFF00FF000000FF00FF00FFFF0000FFFFFF0000000000000000000000000000000000000000000000000000000000000000000000000000000000000000000000000000000000000000000000000000000000000000000000000000000000000000
310
00000000000000000000000000000000000000000000000000000000000000000000000000000000000000000000000000000000000000000000000000000000000000000000000000000000000000000000000000000000000000000000000000000000000000000000000000000000000000000000000000000000000000
310
00000000000000000000000000000000000000000000000000000000000000000000000000000000000000000000000000000000000000000000000000000000000000000000000000000000000000000000000000000000000000000000000000000000000000000000000000000000000000000000000000000000000000
310
0000000000000000000000000000000000000000000000000000000000000000000000000000000000000000000000000000000000000000000000000000000000000000000000000000000000000000000000000000000000000000000000000000000000000000000000000000000000000000FFFFFFFFFFFFFFFFFFFFFF
310
FFFFFFFFFFFFFFFFFFFFFFFFFFFFFFFFFFFFFF0000FF0000000000FF0000FF00000000000000000000FF0000FF0000000000FF0000FFFFFFFFFFFFFF0000FFFFFFFFFFFFFFFFFFFFFFFF0000FFFFFFFFFFFFFF0000FFFFFFFFFFFFFFFFFFFFFFFFFFFFFFFFFFFFFFFFFFFFFFFFFFFFFFFFFFFF000000000000000000000000
310
00000000000000000000000000000000000000000000000000000000000000000000000000000000000000000000000000000000000000000000000000000000000000000000000000000000000000000000000000000000000000000000000000000000000000000000000000000000000000000000000000000000000000
310
00000000000000000000000000000000000000000000000000000000000000000000000000000000000000000000000000000000000000000000000000000000000000000000000000000000000000000000000000000000000000000000000000000000000000000000000000000000000000000000000000000000000000
310
00000000000000000000000000000000000000000000000000000000000000000000000000000000000000000000000000000000000000000000000000000000000000000000000000000000000000000000000000000000000000000000000000000000000000000000000000000000000000000000000000000000000000
310
0000000000000000000000000000000000000000000000000000000000000000000000000000000000000000000000000000000000000000
102
{BLKREFS
331
302
102
}
1001
ACAD
1000
DesignCenter Data
1002
{
1070
     1
1070
     4
1002
}
  0
BLOCK_RECORD
  5
303
330
1
100
AcDbSymbolTableRecord
100
AcDbBlockTableRecord
  2
4
340
0
310
2800000020000000200000000100080000000000000400000000000000000000000000000000000000000000000080000080000000808000800000008000800080800000C0C0C000C0DCC000F0CAA6000020400000206000002080000020A0000020C0000020E00000400000004020000040400000406000004080000040A0
310
000040C0000040E00000600000006020000060400000606000006080000060A0000060C0000060E00000800000008020000080400000806000008080000080A0000080C0000080E00000A0000000A0200000A0400000A0600000A0800000A0A00000A0C00000A0E00000C0000000C0200000C0400000C0600000C0800000C0
310
A00000C0C00000C0E00000E0000000E0200000E0400000E0600000E0800000E0A00000E0C00000E0E00040000000400020004000400040006000400080004000A0004000C0004000E00040200000402020004020400040206000402080004020A0004020C0004020E000404000004040200040404000404060004040800040
310
40A0004040C0004040E00040600000406020004060400040606000406080004060A0004060C0004060E00040800000408020004080400040806000408080004080A0004080C0004080E00040A0000040A0200040A0400040A0600040A0800040A0A00040A0C00040A0E00040C0000040C0200040C0400040C0600040C08000
310
40C0A00040C0C00040C0E00040E0000040E0200040E0400040E0600040E0800040E0A00040E0C00040E0E00080000000800020008000400080006000800080008000A0008000C0008000E00080200000802020008020400080206000802080008020A0008020C0008020E00080400000804020008040400080406000804080
310
008040A0008040C0008040E00080600000806020008060400080606000806080008060A0008060C0008060E00080800000808020008080400080806000808080008080A0008080C0008080E00080A0000080A0200080A0400080A0600080A0800080A0A00080A0C00080A0E00080C0000080C0200080C0400080C0600080C0
310
800080C0A00080C0C00080C0E00080E0000080E0200080E0400080E0600080E0800080E0A00080E0C00080E0E000C0000000C0002000C0004000C0006000C0008000C000A000C000C000C000E000C0200000C0202000C0204000C0206000C0208000C020A000C020C000C020E000C0400000C0402000C0404000C0406000C0
310
408000C040A000C040C000C040E000C0600000C0602000C0604000C0606000C0608000C060A000C060C000C060E000C0800000C0802000C0804000C0806000C0808000C080A000C080C000C080E000C0A00000C0A02000C0A04000C0A06000C0A08000C0A0A000C0A0C000C0A0E000C0C00000C0C02000C0C04000C0C06000
310
C0C08000C0C0A000F0FBFF00A4A0A000808080000000FF0000FF000000FFFF00FF000000FF00FF00FFFF0000FFFFFF0000000000000000000000000000000000000000000000000000000000000000000000000000000000000000000000000000000000000000000000000000000000000000000000000000000000000000
310
00000000000000000000000000000000000000000000000000000000000000000000000000000000000000000000000000000000000000000000000000000000000000000000000000000000000000000000000000000000000000000000000000000000000000000000000000000000000000000000000000000000000000
310
0000000000000000000000000000000000000000000000000000000000000000000000000000000000000000000000000000000000000000000000FFFFFFFFFFFFFFFFFFFFFFFFFF00000000000000000000000000000000FFFFFF0000FFFFFFFFFFFFFFFFFFFFFFFFFFFF0000000000000000000000FFFFFFFFFF0000FF00
310
000000000000000000FF0000FFFF0000000000000000FFFFFF0000FFFFFFFFFFFFFFFFFFFFFFFFFFFFFFFF00FFFFFFFF0000000000FFFFFF00FFFF0000FFFFFFFFFFFFFFFFFFFFFF000000FFFF00FFFFFF00000000FF0000FF00FFFFFFFF000000000000000000FFFFFFFF0000FF00FFFF000000FFFFFFFF00FFFF00000000
310
0000000000000000000000FFFFFF00FF00FFFF0000FFFF0000FFFF000000000000000000000000000000000000FFFF00FF00FF0000FFFF0000FFFF000000000000000000000000000000000000FFFF0000FFFF0000FF000000FFFFFF00000000000000000000000000000000FFFFFF000000FF000000FF0000FFFFFFFFFF00
310
0000000000000000000000FFFFFFFFFF000000FF00000000FF0000FFFFFFFFFFFFFFFFFFFFFFFFFFFFFFFFFFFFFFFFFF0000FF000000000000FF0000FFFFFFFFFFFFFFFFFFFFFFFFFFFFFFFFFFFFFF00FFFF0000000000000000FF000000FFFFFFFFFFFFFFFFFFFFFFFFFFFFFF0000FF0000000000000000000000FFFFFFFF
310
FFFFFFFFFFFFFFFFFFFFFF000000FFFF0000000000000000000000000000000000000000FFFFFFFFFFFFFFFFFFFF000000000000000000000000000000000000000000000000000000000000000000000000000000000000000000000000000000000000000000000000000000000000000000000000000000000000000000
310
00000000000000000000000000000000000000000000000000000000000000000000000000000000000000000000000000000000000000000000000000000000000000000000000000000000000000000000000000000000000000000000000000000000000000000000000000000000000000000000000000000000000000
310
0000000000000000000000000000000000000000000000000000000000000000000000000000000000000000000000000000000000000000
102
{BLKREFS
331
344
102
}
1001
ACAD
1000
DesignCenter Data
1002
{
1070
     1
1070
     4
1002
}
  0
ENDTAB
  0
ENDSEC
  0
SECTION
  2
BLOCKS
  0
BLOCK
  5
20
330
1F
100
AcDbEntity
  8
0
100
AcDbBlockBegin
  2
*Model_Space
 70
     0
 10
0.0
 20
0.0
 30
0.0
  3
*Model_Space
  1

  0
ENDBLK
  5
21
330
1F
100
AcDbEntity
  8
0
100
AcDbBlockEnd
  0
BLOCK
  5
D4
330
D2
100
AcDbEntity
 67
     1
  8
0
100
AcDbBlockBegin
  2
*Paper_Space
 70
     0
 10
0.0
 20
0.0
 30
0.0
  3
*Paper_Space
  1

  0
ENDBLK
  5
D5
330
D2
100
AcDbEntity
 67
     1
  8
0
100
AcDbBlockEnd
  0
BLOCK
  5
D8
330
D6
100
AcDbEntity
 67
     1
  8
0
100
AcDbBlockBegin
  2
*Paper_Space0
 70
     0
 10
0.0
 20
0.0
 30
0.0
  3
*Paper_Space0
  1

  0
ENDBLK
  5
D9
330
D6
100
AcDbEntity
 67
     1
  8
0
100
AcDbBlockEnd
  0
BLOCK
  5
1AE
330
1AD
100
AcDbEntity
  8
0
100
AcDbBlockBegin
  2
SW_CENTERMARKSYMBOL_0
 70
     0
 10
0.0
 20
0.0
 30
0.0
  3
SW_CENTERMARKSYMBOL_0
  1

  0
LINE
  5
1AF
330
1AD
100
AcDbEntity
  8
0
  6
Continuous
 62
     0
370
     0
100
AcDbLine
 10
0.0
 20
0.0
 30
0.0
 11
0.0
 21
2.500000000000002
 31
0.0
  0
LINE
  5
1B0
330
1AD
100
AcDbEntity
  8
0
  6
Continuous
 62
     0
370
     0
100
AcDbLine
 10
0.0
 20
0.0
 30
0.0
 11
-2.500000000000002
 21
0.0
 31
0.0
  0
LINE
  5
1B1
330
1AD
100
AcDbEntity
  8
0
  6
Continuous
 62
     0
370
     0
100
AcDbLine
 10
0.0
 20
0.0
 30
0.0
 11
0.0
 21
-2.500000000000002
 31
0.0
  0
LINE
  5
1B2
330
1AD
100
AcDbEntity
  8
0
  6
Continuous
 62
     0
370
     0
100
AcDbLine
 10
0.0
 20
0.0
 30
0.0
 11
2.500000000000002
 21
0.0
 31
0.0
  0
LINE
  5
1B3
330
1AD
100
AcDbEntity
  8
0
  6
Continuous
 62
     0
370
     0
100
AcDbLine
 10
0.0
 20
5.000000000000004
 30
0.0
 11
0.0
 21
38.00000000000001
 31
0.0
  0
LINE
  5
1B4
330
1AD
100
AcDbEntity
  8
0
  6
Continuous
 62
     0
370
     0
100
AcDbLine
 10
-5.000000000000004
 20
0.0
 30
0.0
 11
-38.00000000000001
 21
0.0
 31
0.0
  0
LINE
  5
1B5
330
1AD
100
AcDbEntity
  8
0
  6
Continuous
 62
     0
370
     0
100
AcDbLine
 10
0.0
 20
-5.000000000000004
 30
0.0
 11
0.0
 21
-38.00000000000001
 31
0.0
  0
LINE
  5
1B6
330
1AD
100
AcDbEntity
  8
0
  6
Continuous
 62
     0
370
     0
100
AcDbLine
 10
5.000000000000004
 20
0.0
 30
0.0
 11
38.00000000000001
 21
0.0
 31
0.0
  0
ENDBLK
  5
1B7
330
1AD
100
AcDbEntity
  8
0
100
AcDbBlockEnd
  0
BLOCK
  5
2B9
330
2B8
100
AcDbEntity
  8
0
100
AcDbBlockBegin
  2
1
 70
     0
 10
0.0
 20
0.0
 30
0.0
  3
1
  1

  0
SPLINE
  5
2BB
330
2B8
100
AcDbEntity
  8
0
  6
Continuous
 62
     7
370
    15
100
AcDbSpline
210
0.0
220
0.0
230
1.0
 70
     8
 71
     3
 72
    78
 73
    74
 74
     0
 42
0.0000000001
 43
0.0000000001
 40
0.0
 40
0.0
 40
0.0
 40
0.0
 40
0.0041429182251665
 40
0.0183887753391281
 40
0.0326139982304048
 40
0.046783185304289
 40
0.0610221066340482
 40
0.0752686327452471
 40
0.0895157088013387
 40
0.1037625164305064
 40
0.1180096914817426
 40
0.1322568395448701
 40
0.146503048559878
 40
0.160744327001515
 40
0.1749177670836881
 40
0.1891365452028756
 40
0.2033825525205509
 40
0.2176294852776455
 40
0.2318762496362066
 40
0.2461233986701126
 40
0.2603706756191681
 40
0.2746171602768376
 40
0.2888624401491792
 40
0.3030753596209302
 40
0.3172544573201031
 40
0.3314965734151434
 40
0.3457433191941768
 40
0.359990012922436
 40
0.3742370903081368
 40
0.3884844506900303
 40
0.4027311803462549
 40
0.4169773253073784
 40
0.4312140946246709
 40
0.4453818965205833
 40
0.4596108644647502
 40
0.4738572195586594
 40
0.4881038171802472
 40
0.5023507762180377
 40
0.5165981748412786
 40
0.5308451044105996
 40
0.5450914749809794
 40
0.5593357682858544
 40
0.5735331621178577
 40
0.5877272094999779
 40
0.6019712097009663
 40
0.6162176858676487
 40
0.6304644810121377
 40
0.6447118727555208
 40
0.6589589536759281
 40
0.6732054659752535
 40
0.6874518290193164
 40
0.7016822231142456
 40
0.7158497365421719
 40
0.7300853768689409
 40
0.7443316146851988
 40
0.7585782144007107
 40
0.7728255540382802
 40
0.7870727390188722
 40
0.8013193691646048
 40
0.815566096131662
 40
0.8298086231746836
 40
0.8439903750713902
 40
0.8582004664045786
 40
0.8724456246820754
 40
0.886692001291021
 40
0.9009392433154895
 40
0.9151864861103662
 40
0.929433207884961
 40
0.9436801066314533
 40
0.9579262170498402
 40
0.9721474945878455
 40
0.9863191838370831
 40
1.0
 40
1.0
 40
1.0
 40
1.0
 10
1986.039069016112
 20
1108.674029130293
 30
0.0
 10
1986.224232220846
 20
1108.56978038595
 30
0.0
 10
1987.046098448433
 20
1108.107061443671
 30
0.0
 10
1988.408177333869
 20
1107.12880050051
 30
0.0
 10
1990.10485914857
 20
1105.748247481957
 30
0.0
 10
1991.673066331041
 20
1104.220446431667
 30
0.0
 10
1993.111647890355
 20
1102.569780845937
 30
0.0
 10
1994.409472931085
 20
1100.80093155933
 30
0.0
 10
1995.555682720603
 20
1098.929924105332
 30
0.0
 10
1996.541903628816
 20
1096.9697902634
 30
0.0
 10
1997.361299591269
 20
1094.934276401441
 30
0.0
 10
1998.008141582904
 20
1092.837563004902
 30
0.0
 10
1998.477882272014
 20
1090.694520740889
 30
0.0
 10
1998.766877358745
 20
1088.523530354017
 30
0.0
 10
1998.874321741827
 20
1086.33745954379
 30
0.0
 10
1998.79979587558
 20
1084.149759160498
 30
0.0
 10
1998.542896896624
 20
1081.972113695781
 30
0.0
 10
1998.105075578203
 20
1079.822058201171
 30
0.0
 10
1997.489527261948
 20
1077.715930254577
 30
0.0
 10
1996.700541023965
 20
1075.668431597059
 30
0.0
 10
1995.743617211909
 20
1073.693846227126
 30
0.0
 10
1994.625464621239
 20
1071.805987347171
 30
0.0
 10
1993.354856658199
 20
1070.019339779651
 30
0.0
 10
1991.942141493634
 20
1068.347333629224
 30
0.0
 10
1990.395544896095
 20
1066.798578669496
 30
0.0
 10
1988.72418215696
 20
1065.382653433413
 30
0.0
 10
1986.937796596194
 20
1064.108949488892
 30
0.0
 10
1985.051232911889
 20
1062.988466978338
 30
0.0
 10
1983.077801568553
 20
1062.029141282725
 30
0.0
 10
1981.031263350425
 20
1061.237669447045
 30
0.0
 10
1978.925913109989
 20
1060.619573614279
 30
0.0
 10
1976.776896387193
 20
1060.179241028239
 30
0.0
 10
1974.602681010025
 20
1059.920001026279
 30
0.0
 10
1972.415348263285
 20
1059.842373637473
 30
0.0
 10
1970.22861430272
 20
1059.946763125185
 30
0.0
 10
1968.05416827587
 20
1060.233494866123
 30
0.0
 10
1965.910293045913
 20
1060.700688361493
 30
0.0
 10
1963.812776852458
 20
1061.344989912653
 30
0.0
 10
1961.776258432244
 20
1062.161914114406
 30
0.0
 10
1959.814957949589
 20
1063.14575546034
 30
0.0
 10
1957.942633431017
 20
1064.289587763882
 30
0.0
 10
1956.174216922503
 20
1065.584006180826
 30
0.0
 10
1954.521681714987
 20
1067.019318036741
 30
0.0
 10
1952.99409237144
 20
1068.58692522067
 30
0.0
 10
1951.600614253892
 20
1070.278149678684
 30
0.0
 10
1950.351415912601
 20
1072.081863332766
 30
0.0
 10
1949.256840353994
 20
1073.98358352125
 30
0.0
 10
1948.324597771636
 20
1075.969960083146
 30
0.0
 10
1947.561199908074
 20
1078.027125398115
 30
0.0
 10
1946.971963830232
 20
1080.140719769342
 30
0.0
 10
1946.561129104875
 20
1082.295237935351
 30
0.0
 10
1946.331649189709
 20
1084.472461107308
 30
0.0
 10
1946.283866508845
 20
1086.660649619707
 30
0.0
 10
1946.418136351473
 20
1088.84607646918
 30
0.0
 10
1946.734633839044
 20
1091.016729175406
 30
0.0
 10
1947.231111771633
 20
1093.154026242372
 30
0.0
 10
1947.904049059195
 20
1095.24254057999
 30
0.0
 10
1948.748754105482
 20
1097.26768645689
 30
0.0
 10
1949.75932778031
 20
1099.215338813359
 30
0.0
 10
1950.928617812982
 20
1101.071768064861
 30
0.0
 10
1952.246571637409
 20
1102.821619525221
 30
0.0
 10
1953.704213470064
 20
1104.454390485358
 30
0.0
 10
1955.292550784414
 20
1105.960538589648
 30
0.0
 10
1957.003358013466
 20
1107.331307076308
 30
0.0
 10
1958.824053610846
 20
1108.555758454531
 30
0.0
 10
1960.740578291964
 20
1109.624226305952
 30
0.0
 10
1962.739517612731
 20
1110.529190476789
 30
0.0
 10
1964.806933477379
 20
1111.264433802328
 30
0.0
 10
1966.928355228358
 20
1111.824482088941
 30
0.0
 10
1969.087928854204
 20
1112.206540067719
 30
0.0
 10
1971.267476974468
 20
1112.403221451919
 30
0.0
 10
1973.428616441243
 20
1112.432056848953
 30
0.0
 10
1974.851581614449
 20
1112.300304806694
 30
0.0
 10
1975.550525018383
 20
1112.235589785816
 30
0.0
  0
SPLINE
  5
2BC
330
2B8
100
AcDbEntity
  8
0
  6
Continuous
 62
     7
370
    15
100
AcDbSpline
210
0.0
220
0.0
230
1.0
 70
     8
 71
     3
 72
     9
 73
     5
 74
     0
 42
0.0000000001
 43
0.0000000001
 40
0.0
 40
0.0
 40
0.0
 40
0.0
 40
0.7998770450777672
 40
1.0
 40
1.0
 40
1.0
 40
1.0
 10
1984.617469667759
 20
1109.463763804021
 30
0.0
 10
1985.069383633257
 20
1109.240411879793
 30
0.0
 10
1985.634362923862
 20
1108.961179058195
 30
0.0
 10
1986.159273513424
 20
1108.614186277838
 30
0.0
 10
1986.264320171677
 20
1108.544745057296
 30
0.0
  0
LINE
  5
2BD
330
2B8
100
AcDbEntity
  8
0
  6
Continuous
 62
     7
370
    15
100
AcDbLine
 10
1961.375936258379
 20
1109.878401800284
 30
0.0
 11
1961.657484776522
 21
1110.016713891547
 31
0.0
  0
SPLINE
  5
2BE
330
2B8
100
AcDbEntity
  8
0
  6
Continuous
 62
     7
370
    15
100
AcDbSpline
210
0.0
220
0.0
230
1.0
 70
     8
 71
     3
 72
    40
 73
    36
 74
     0
 42
0.0000000001
 43
0.0000000001
 40
0.0
 40
0.0
 40
0.0
 40
0.0
 40
0.03125
 40
0.03125
 40
0.0625
 40
0.0625
 40
0.1250000000000001
 40
0.1250000000000001
 40
0.1875000000000002
 40
0.1875000000000002
 40
0.2187500000000001
 40
0.2187500000000001
 40
0.25
 40
0.25
 40
0.3749999999999999
 40
0.3749999999999999
 40
0.40625
 40
0.40625
 40
0.4375
 40
0.4375
 40
0.5
 40
0.5
 40
0.5625
 40
0.5625
 40
0.625
 40
0.625
 40
0.75
 40
0.75
 40
0.8125
 40
0.8125
 40
0.875
 40
0.875
 40
0.9375
 40
0.9375
 40
1.0
 40
1.0
 40
1.0
 40
1.0
 10
1980.644094110982
 20
1059.849930960497
 30
0.0
 10
1981.120207283004
 20
1060.008333793566
 30
0.0
 10
1981.592818384551
 20
1060.18015355654
 30
0.0
 10
1982.522642175555
 20
1060.547238109867
 30
0.0
 10
1982.980794497103
 20
1060.74278465146
 30
0.0
 10
1984.335333208349
 20
1061.364796918413
 30
0.0
 10
1985.211858704851
 20
1061.826533420494
 30
0.0
 10
1986.912387768797
 20
1062.843279633192
 30
0.0
 10
1987.736394035428
 20
1063.398284550348
 30
0.0
 10
1988.931963111123
 20
1064.302609524271
 30
0.0
 10
1989.324884712134
 20
1064.61707250222
 30
0.0
 10
1990.089112884844
 20
1065.263902169381
 30
0.0
 10
1990.460810757877
 20
1065.596441083937
 30
0.0
 10
1992.268250570637
 20
1067.303852506837
 30
0.0
 10
1993.552241409505
 20
1068.811651376191
 30
0.0
 10
1994.9484261904
 20
1070.879301601469
 30
0.0
 10
1995.217800010426
 20
1071.303114401922
 30
0.0
 10
1995.731979202655
 20
1072.164502249913
 30
0.0
 10
1995.97589216452
 20
1072.600429357229
 30
0.0
 10
1996.668967272708
 20
1073.923566241999
 30
0.0
 10
1997.079581332422
 20
1074.826085634948
 30
0.0
 10
1997.799593323512
 20
1076.671323043992
 30
0.0
 10
1998.108992582566
 20
1077.614040532791
 30
0.0
 10
1998.624482240701
 20
1079.540505275093
 30
0.0
 10
1998.830681751502
 20
1080.528729166465
 30
0.0
 10
1999.277492259918
 20
1083.485100575455
 30
0.0
 10
1999.356464502576
 20
1085.464579821255
 30
0.0
 10
1999.142212588229
 20
1088.446816670709
 30
0.0
 10
1999.012865459063
 20
1089.448325879733
 30
0.0
 10
1998.645560635391
 20
1091.408560558618
 30
0.0
 10
1998.407867307733
 20
1092.371835579527
 30
0.0
 10
1997.826579885815
 20
1094.265380732052
 30
0.0
 10
1997.48298489535
 20
1095.195650584358
 30
0.0
 10
1996.68799787272
 20
1097.022594409149
 30
0.0
 10
1996.234683495396
 20
1097.922122662299
 30
0.0
 10
1995.731662954358
 20
1098.792229305291
 30
0.0
  0
SPLINE
  5
2BF
330
2B8
100
AcDbEntity
  8
0
  6
Continuous
 62
     7
370
    15
100
AcDbSpline
210
0.0
220
0.0
230
1.0
 70
     8
 71
     3
 72
    26
 73
    22
 74
     0
 42
0.0000000001
 43
0.0000000001
 40
0.0
 40
0.0
 40
0.0
 40
0.0
 40
0.0625000000000001
 40
0.0625000000000001
 40
0.1250000000000001
 40
0.1250000000000001
 40
0.25
 40
0.25
 40
0.375
 40
0.375
 40
0.5
 40
0.5
 40
0.625
 40
0.625
 40
0.75
 40
0.75
 40
0.8749999999999998
 40
0.8749999999999998
 40
0.9374999999999998
 40
0.9374999999999998
 40
1.0
 40
1.0
 40
1.0
 40
1.0
 10
1995.731662954358
 20
1098.792229305291
 30
0.0
 10
1995.291884032662
 20
1099.55294289449
 30
0.0
 10
1994.822925448264
 20
1100.296680393012
 30
0.0
 10
1993.813841214873
 20
1101.735401401394
 30
0.0
 10
1993.275270911764
 20
1102.43067625963
 30
0.0
 10
1991.561388532422
 20
1104.433273224229
 30
0.0
 10
1990.288175992397
 20
1105.656575228425
 30
0.0
 10
1987.525293463298
 20
1107.827843406969
 30
0.0
 10
1986.034786741064
 20
1108.776713701806
 30
0.0
 10
1982.900549061386
 20
1110.35969264088
 30
0.0
 10
1981.252620939897
 20
1110.996004086126
 30
0.0
 10
1977.864802315822
 20
1111.930130042646
 30
0.0
 10
1976.124241899344
 20
1112.228304944558
 30
0.0
 10
1972.618927686411
 20
1112.475028293242
 30
0.0
 10
1970.854007309576
 20
1112.423407800047
 30
0.0
 10
1967.368092929317
 20
1111.974392200164
 30
0.0
 10
1965.649118547759
 20
1111.577243602547
 30
0.0
 10
1963.151047460677
 20
1110.737114323791
 30
0.0
 10
1962.331846101081
 20
1110.416389690113
 30
0.0
 10
1960.727451635673
 20
1109.699275040971
 30
0.0
 10
1959.943585397383
 20
1109.300594869922
 30
0.0
 10
1959.174112797786
 20
1108.8762997855
 30
0.0
  0
LINE
  5
2C0
330
2B8
100
AcDbEntity
  8
0
  6
Continuous
 62
     7
370
    15
100
AcDbLine
 10
1958.294042738861
 20
1118.640050257613
 30
0.0
 11
1986.859756453032
 21
1118.640050257613
 31
0.0
  0
ARC
  5
2C1
330
2B8
100
AcDbEntity
  8
0
  6
Continuous
 62
     7
370
    15
100
AcDbCircle
 10
1972.576899595946
 20
1086.140050257613
 30
0.0
 40
35.50000000000002
100
AcDbArc
 50
53.72416914998304
 51
66.27583085001915
  0
LINE
  5
2C2
330
2B8
100
AcDbEntity
  8
0
  6
Continuous
 62
     7
370
    15
100
AcDbLine
 10
1993.581296790398
 20
1114.759367134465
 30
0.0
 11
2007.864153647483
 21
1090.020733380759
 31
0.0
  0
ARC
  5
2C3
330
2B8
100
AcDbEntity
  8
0
  6
Continuous
 62
     7
370
    15
100
AcDbCircle
 10
1972.576899595946
 20
1086.140050257613
 30
0.0
 40
35.50000000000002
100
AcDbArc
 50
353.7241691499823
 51
6.275830850017666
  0
LINE
  5
2C4
330
2B8
100
AcDbEntity
  8
0
  6
Continuous
 62
     7
370
    15
100
AcDbLine
 10
2007.864153647483
 20
1082.259367134466
 30
0.0
 11
1993.581296790398
 21
1057.520733380759
 31
0.0
  0
ARC
  5
2C5
330
2B8
100
AcDbEntity
  8
0
  6
Continuous
 62
     7
370
    15
100
AcDbCircle
 10
1972.576899595946
 20
1086.140050257613
 30
0.0
 40
35.50000000000002
100
AcDbArc
 50
293.7241691499808
 51
306.275830850017
  0
LINE
  5
2C6
330
2B8
100
AcDbEntity
  8
0
  6
Continuous
 62
     7
370
    15
100
AcDbLine
 10
1986.859756453032
 20
1053.640050257612
 30
0.0
 11
1958.294042738861
 21
1053.640050257612
 31
0.0
  0
ARC
  5
2C7
330
2B8
100
AcDbEntity
  8
0
  6
Continuous
 62
     7
370
    15
100
AcDbCircle
 10
1972.576899595946
 20
1086.140050257613
 30
0.0
 40
35.49999999999999
100
AcDbArc
 50
233.724169149983
 51
246.2758308500191
  0
LINE
  5
2C8
330
2B8
100
AcDbEntity
  8
0
  6
Continuous
 62
     7
370
    15
100
AcDbLine
 10
1951.572502401495
 20
1057.520733380759
 30
0.0
 11
1937.289645544409
 21
1082.259367134466
 31
0.0
  0
ARC
  5
2C9
330
2B8
100
AcDbEntity
  8
0
  6
Continuous
 62
     7
370
    15
100
AcDbCircle
 10
1972.576899595946
 20
1086.140050257613
 30
0.0
 40
35.49999999999997
100
AcDbArc
 50
173.7241691499823
 51
186.2758308500176
  0
LINE
  5
2CA
330
2B8
100
AcDbEntity
  8
0
  6
Continuous
 62
     7
370
    15
100
AcDbLine
 10
1937.289645544409
 20
1090.020733380759
 30
0.0
 11
1951.572502401495
 21
1114.759367134465
 31
0.0
  0
ARC
  5
2CB
330
2B8
100
AcDbEntity
  8
0
  6
Continuous
 62
     7
370
    15
100
AcDbCircle
 10
1972.576899595946
 20
1086.140050257613
 30
0.0
 40
35.5
100
AcDbArc
 50
113.7241691499808
 51
126.2758308500169
  0
ARC
  5
2CC
330
2B8
100
AcDbEntity
  8
0
  6
Continuous
 62
     7
370
    15
100
AcDbCircle
 10
1972.576899595946
 20
1086.140050257613
 30
0.0
 40
27.49999999999999
100
AcDbArc
 50
205.3277798117094
 51
287.0587739912338
  0
SPLINE
  5
2CD
330
2B8
100
AcDbEntity
  8
0
  6
Continuous
 62
     7
370
    15
100
AcDbSpline
210
0.0
220
0.0
230
1.0
 70
     8
 71
     3
 72
    36
 73
    32
 74
     0
 42
0.0000000001
 43
0.0000000001
 40
0.0
 40
0.0
 40
0.0
 40
0.0
 40
0.0625000000000002
 40
0.0625000000000002
 40
0.1250000000000004
 40
0.1250000000000004
 40
0.2500000000000009
 40
0.2500000000000009
 40
0.2812500000000008
 40
0.2812500000000008
 40
0.3125000000000008
 40
0.3125000000000008
 40
0.3750000000000006
 40
0.3750000000000006
 40
0.5000000000000007
 40
0.5000000000000007
 40
0.5625000000000006
 40
0.5625000000000006
 40
0.6250000000000006
 40
0.6250000000000006
 40
0.6875000000000005
 40
0.6875000000000005
 40
0.7500000000000004
 40
0.7500000000000004
 40
0.8125000000000003
 40
0.8125000000000003
 40
0.8437500000000003
 40
0.8437500000000003
 40
0.8750000000000001
 40
0.8750000000000001
 40
1.0
 40
1.0
 40
1.0
 40
1.0
 10
1959.174112797785
 20
1108.876299785499
 30
0.0
 10
1958.44044724931
 20
1108.471749076363
 30
0.0
 10
1957.728089131771
 20
1108.03333207387
 30
0.0
 10
1956.345871264528
 20
1107.088950639221
 30
0.0
 10
1955.678438875929
 20
1106.584305457545
 30
0.0
 10
1953.766362843695
 20
1104.991510293262
 30
0.0
 10
1952.602947896917
 20
1103.818931817327
 30
0.0
 10
1951.283219055667
 20
1102.2193788858
 30
0.0
 10
1951.026101407443
 20
1101.892676213431
 30
0.0
 10
1950.525747001334
 20
1101.225463231822
 30
0.0
 10
1950.281943900992
 20
1100.884074514314
 30
0.0
 10
1949.578011191234
 20
1099.848069495167
 30
0.0
 10
1949.144074254474
 20
1099.140367406316
 30
0.0
 10
1947.945370844858
 20
1096.967584852066
 30
0.0
 10
1947.282842466496
 20
1095.453246923453
 30
0.0
 10
1946.498301906514
 20
1093.080924154451
 30
0.0
 10
1946.271922051623
 20
1092.271950175413
 30
0.0
 10
1945.897569853674
 20
1090.644527484888
 30
0.0
 10
1945.748472990508
 20
1089.823139800137
 30
0.0
 10
1945.526859644468
 20
1088.164926699684
 30
0.0
 10
1945.455092319997
 20
1087.331680974088
 30
0.0
 10
1945.38914622349
 20
1085.674309142783
 30
0.0
 10
1945.394377967761
 20
1084.847574510936
 30
0.0
 10
1945.47857928008
 20
1083.197871356462
 30
0.0
 10
1945.557801317988
 20
1082.374915728561
 30
0.0
 10
1945.73301103063
 20
1081.143361686077
 30
0.0
 10
1945.800824600183
 20
1080.733324298225
 30
0.0
 10
1945.955567013303
 20
1079.914225822147
 30
0.0
 10
1946.042734314795
 20
1079.504226733065
 30
0.0
 10
1946.523791846309
 20
1077.471342230756
 30
0.0
 10
1947.051661108481
 20
1075.89761670603
 30
0.0
 10
1947.720330515361
 20
1074.375655945023
 30
0.0
  0
ARC
  5
2CE
330
2B8
100
AcDbEntity
  8
0
  6
Continuous
 62
     7
370
    15
100
AcDbCircle
 10
1972.576899595946
 20
1086.140050257613
 30
0.0
 40
35.50000000000002
100
AcDbArc
 50
6.275830850017666
 51
53.72416914998304
  0
ARC
  5
2CF
330
2B8
100
AcDbEntity
  8
0
  6
Continuous
 62
     7
370
    15
100
AcDbCircle
 10
1972.576899595946
 20
1086.140050257613
 30
0.0
 40
35.5
100
AcDbArc
 50
246.2758308500191
 51
293.7241691499808
  0
ARC
  5
2D0
330
2B8
100
AcDbEntity
  8
0
  6
Continuous
 62
     7
370
    15
100
AcDbCircle
 10
1972.576899595946
 20
1086.140050257613
 30
0.0
 40
35.49999999999999
100
AcDbArc
 50
126.2758308500169
 51
173.7241691499823
  0
ARC
  5
2D1
330
2B8
100
AcDbEntity
  8
0
  6
Continuous
 62
     7
370
    15
100
AcDbCircle
 10
1972.576899595946
 20
1086.140050257613
 30
0.0
 40
35.50000000000002
100
AcDbArc
 50
306.275830850017
 51
353.7241691499823
  0
ARC
  5
2D2
330
2B8
100
AcDbEntity
  8
0
  6
Continuous
 62
     7
370
    15
100
AcDbCircle
 10
1972.576899595946
 20
1086.140050257613
 30
0.0
 40
35.50000000000002
100
AcDbArc
 50
66.27583085001915
 51
113.7241691499808
  0
ARC
  5
2D3
330
2B8
100
AcDbEntity
  8
0
  6
Continuous
 62
     7
370
    15
100
AcDbCircle
 10
1972.576899595946
 20
1086.140050257613
 30
0.0
 40
35.50000000000002
100
AcDbArc
 50
186.2758308500176
 51
233.724169149983
  0
SPLINE
  5
2D4
330
2B8
100
AcDbEntity
  8
0
  6
Continuous
 62
     8
370
    15
100
AcDbSpline
210
0.0
220
0.0
230
1.0
 70
     8
 71
     3
 72
   206
 73
   202
 74
     0
 42
0.0000000001
 43
0.0000000001
 40
0.0
 40
0.0
 40
0.0
 40
0.0
 40
0.0005681484269068
 40
0.0055882690950651
 40
0.0105603609567275
 40
0.0154670657809366
 40
0.0204635843228276
 40
0.0255275672788862
 40
0.0306406591426144
 40
0.0357833850403655
 40
0.0409355788927788
 40
0.0459853149214022
 40
0.0510054355895606
 40
0.055977527451223
 40
0.0608842322754319
 40
0.0658807508173231
 40
0.0709447337733817
 40
0.0760578256371098
 40
0.081200551534861
 40
0.0863527453872742
 40
0.0914024814158976
 40
0.0964226020840558
 40
0.1013946939457181
 40
0.1063013987699273
 40
0.1112979173118185
 40
0.116361900267877
 40
0.1214749921316051
 40
0.1266177180293563
 40
0.1317699118817694
 40
0.1368196479103929
 40
0.1418397685785512
 40
0.1468118604402136
 40
0.1517185652644227
 40
0.1567150838063137
 40
0.1617790667623723
 40
0.1668921586261005
 40
0.1720348845238517
 40
0.1771870783762649
 40
0.1822368144048884
 40
0.1872569350730467
 40
0.1922290269347092
 40
0.1971357317589181
 40
0.2021322503008093
 40
0.2071962332568678
 40
0.212309325120596
 40
0.2174520510183472
 40
0.2226042448707603
 40
0.2276539808993837
 40
0.2326741015675421
 40
0.2376461934292044
 40
0.2425528982534135
 40
0.2475494167953047
 40
0.2526133997513633
 40
0.2577264916150914
 40
0.2628692175128426
 40
0.2680214113652557
 40
0.2730711473938791
 40
0.2780912680620374
 40
0.2830633599236998
 40
0.2879700647479089
 40
0.2929665832897999
 40
0.2980305662458585
 40
0.3031436581095867
 40
0.3082863840073378
 40
0.3134385778597511
 40
0.3184883138883745
 40
0.3235084345565329
 40
0.3284805264181953
 40
0.3333872312424043
 40
0.3383837497842953
 40
0.3434477327403537
 40
0.3485608246040818
 40
0.3537035505018328
 40
0.3588557443542466
 40
0.36390548038287
 40
0.3689256010510284
 40
0.3738976929126907
 40
0.3788043977368997
 40
0.3838009162787908
 40
0.3888648992348492
 40
0.3939779910985773
 40
0.3991207169963283
 40
0.4042729108487419
 40
0.4093226468773654
 40
0.4143427675455238
 40
0.4193148594071862
 40
0.4242215642313951
 40
0.4292180827732861
 40
0.4342820657293446
 40
0.4393951575930726
 40
0.4445378834908237
 40
0.4496900773432375
 40
0.4547398133718608
 40
0.4597599340400193
 40
0.4647320259016816
 40
0.4696387307258905
 40
0.4746352492677816
 40
0.4796992322238401
 40
0.4848123240875681
 40
0.4899550499853192
 40
0.4951072438377329
 40
0.5001569798663564
 40
0.5051771005345147
 40
0.5101491923961771
 40
0.5150558972203861
 40
0.520052415762277
 40
0.5251163987183355
 40
0.5302294905820637
 40
0.5353722164798147
 40
0.5405244103322282
 40
0.5455741463608517
 40
0.55059426702901
 40
0.5555663588906726
 40
0.5604730637148814
 40
0.5654695822567725
 40
0.5705335652128309
 40
0.5756466570765589
 40
0.5807893829743099
 40
0.5859415768267234
 40
0.590991312855347
 40
0.5960114335235054
 40
0.6009835253851678
 40
0.6058902302093766
 40
0.6108867487512678
 40
0.6159507317073261
 40
0.6210638235710542
 40
0.6262065494688052
 40
0.6313587433212189
 40
0.6352395099494935
 40
0.6396836985310584
 40
0.6447038191992166
 40
0.6496759110608786
 40
0.6545826158850882
 40
0.659579134426979
 40
0.6646431173830375
 40
0.6697562092467657
 40
0.6748989351445167
 40
0.6800511289969304
 40
0.6851008650255539
 40
0.6901209856937123
 40
0.6950930775553747
 40
0.6999997823795838
 40
0.7049963009214748
 40
0.7100602838775331
 40
0.7151733757412612
 40
0.7203161016390122
 40
0.7254682954914259
 40
0.7305180315200494
 40
0.7355381521882078
 40
0.7405102440498701
 40
0.7454169488740791
 40
0.7504134674159701
 40
0.7554774503720285
 40
0.7605905422357565
 40
0.7657332681335075
 40
0.7708854619859213
 40
0.7759351980145445
 40
0.7809553186827026
 40
0.7859274105443648
 40
0.7908341153685745
 40
0.7958306339104653
 40
0.8008946168665238
 40
0.8060077087302518
 40
0.8111504346280028
 40
0.8163026284804168
 40
0.8213523645090402
 40
0.8263724851771986
 40
0.8313445770388611
 40
0.8362512818630701
 40
0.8412478004049612
 40
0.8463117833610194
 40
0.8514248752247477
 40
0.8565676011224987
 40
0.8617197949749122
 40
0.8667695310035357
 40
0.8717896516716942
 40
0.8767617435333564
 40
0.8816684483575654
 40
0.8866649668994565
 40
0.8917289498555149
 40
0.8968420417192429
 40
0.9019847676169939
 40
0.9071369614694075
 40
0.9121866974980308
 40
0.917206818166189
 40
0.9221789100278511
 40
0.9270856148520609
 40
0.9320821333939516
 40
0.9371461163500102
 40
0.9422592082137382
 40
0.9474019341114892
 40
0.952554127963903
 40
0.9576038639925265
 40
0.962623984660685
 40
0.9675960765223475
 40
0.9725027813465562
 40
0.9778962549413728
 40
0.9833665931635341
 40
0.9888905662361015
 40
0.9944435170640595
 40
1.0
 40
1.0
 40
1.0
 40
1.0
 10
1958.959796985881
 20
1108.729105755982
 30
0.0
 10
1958.884171921362
 20
1108.687331767941
 30
0.0
 10
1958.140328955599
 20
1108.276445676748
 30
0.0
 10
1956.830478268542
 20
1107.337878819706
 30
0.0
 10
1955.06195026174
 20
1105.921681124416
 30
0.0
 10
1953.434436028491
 20
1104.3456854096
 30
0.0
 10
1951.93543453709
 20
1102.630077874119
 30
0.0
 10
1950.573390871446
 20
1100.764089240403
 30
0.0
 10
1949.368860683252
 20
1098.766839303666
 30
0.0
 10
1948.340099907152
 20
1096.658576827364
 30
0.0
 10
1947.506253859015
 20
1094.476218523561
 30
0.0
 10
1946.873052312487
 20
1092.246970175388
 30
0.0
 10
1946.441272492284
 20
1089.998053688923
 30
0.0
 10
1946.207413857381
 20
1087.741975149026
 30
0.0
 10
1946.166941792693
 20
1085.477846514976
 30
0.0
 10
1946.32120601991
 20
1083.204476586686
 30
0.0
 10
1946.677247777605
 20
1080.921994618639
 30
0.0
 10
1947.237867196738
 20
1078.657971996596
 30
0.0
 10
1948.0011680154
 20
1076.439767582098
 30
0.0
 10
1948.954716109622
 20
1074.306987424342
 30
0.0
 10
1950.083290067673
 20
1072.282930115084
 30
0.0
 10
1951.36820013838
 20
1070.387391466848
 30
0.0
 10
1952.798125437504
 20
1068.62674003527
 30
0.0
 10
1954.37048810551
 20
1066.997141245471
 30
0.0
 10
1956.087084671274
 20
1065.498707236313
 30
0.0
 10
1957.952802692213
 20
1064.136508299442
 30
0.0
 10
1959.950126233369
 20
1062.932020343727
 30
0.0
 10
1962.058368802037
 20
1061.903248145096
 30
0.0
 10
1964.240732437937
 20
1061.06940515639
 30
0.0
 10
1966.469979385643
 20
1060.436202806309
 30
0.0
 10
1968.718896242021
 20
1060.004423198352
 30
0.0
 10
1970.974974684197
 20
1059.770564507379
 30
0.0
 10
1973.239103344108
 20
1059.73009245753
 30
0.0
 10
1975.512473265358
 20
1059.884356680708
 30
0.0
 10
1977.794955235332
 20
1060.240398439509
 30
0.0
 10
1980.058977856851
 20
1060.80101785834
 30
0.0
 10
1982.27718227149
 20
1061.564318677083
 30
0.0
 10
1984.409962429209
 20
1062.517866771284
 30
0.0
 10
1986.434019738477
 20
1063.64644072934
 30
0.0
 10
1988.32955838671
 20
1064.931350800046
 30
0.0
 10
1990.090209818289
 20
1066.361276099171
 30
0.0
 10
1991.719808608088
 20
1067.933638767176
 30
0.0
 10
1993.218242617246
 20
1069.650235332941
 30
0.0
 10
1994.580441554116
 20
1071.515953353879
 30
0.0
 10
1995.784929509831
 20
1073.513276895035
 30
0.0
 10
1996.813701708463
 20
1075.621519463703
 30
0.0
 10
1997.647544697168
 20
1077.803883099603
 30
0.0
 10
1998.28074704725
 20
1080.03313004731
 30
0.0
 10
1998.712526655206
 20
1082.282046903687
 30
0.0
 10
1998.94638534618
 20
1084.538125345864
 30
0.0
 10
1998.986857396029
 20
1086.802254005775
 30
0.0
 10
1998.832593172851
 20
1089.075623927024
 30
0.0
 10
1998.47655141405
 20
1091.358105896998
 30
0.0
 10
1997.915931995218
 20
1093.622128518517
 30
0.0
 10
1997.152631176475
 20
1095.840332933157
 30
0.0
 10
1996.199083082274
 20
1097.973113090875
 30
0.0
 10
1995.070509124218
 20
1099.997170400143
 30
0.0
 10
1993.785599053513
 20
1101.892709048377
 30
0.0
 10
1992.355673754387
 20
1103.653360479955
 30
0.0
 10
1990.783311086382
 20
1105.282959269754
 30
0.0
 10
1989.066714520618
 20
1106.781393278912
 30
0.0
 10
1987.200996499679
 20
1108.143592215783
 30
0.0
 10
1985.203672958523
 20
1109.348080171497
 30
0.0
 10
1983.095430389855
 20
1110.376852370129
 30
0.0
 10
1980.913066753955
 20
1111.210695358834
 30
0.0
 10
1978.683819806249
 20
1111.843897708916
 30
0.0
 10
1976.434902949871
 20
1112.275677316873
 30
0.0
 10
1974.178824507695
 20
1112.509536007846
 30
0.0
 10
1971.914695847783
 20
1112.550008057695
 30
0.0
 10
1969.641325926534
 20
1112.395743834517
 30
0.0
 10
1967.35884395656
 20
1112.039702075716
 30
0.0
 10
1965.094821335042
 20
1111.479082656884
 30
0.0
 10
1962.876616920402
 20
1110.715781838142
 30
0.0
 10
1960.743836762684
 20
1109.762233743941
 30
0.0
 10
1958.719779453415
 20
1108.633659785884
 30
0.0
 10
1956.824240805181
 20
1107.348749715179
 30
0.0
 10
1955.063589373603
 20
1105.918824416054
 30
0.0
 10
1953.433990583804
 20
1104.346461748049
 30
0.0
 10
1951.935556574647
 20
1102.629865182284
 30
0.0
 10
1950.573357637776
 20
1100.764147161346
 30
0.0
 10
1949.368869682061
 20
1098.766823620189
 30
0.0
 10
1948.34009748343
 20
1096.658581051521
 30
0.0
 10
1947.506254494724
 20
1094.476217415621
 30
0.0
 10
1946.873052144642
 20
1092.246970467916
 30
0.0
 10
1946.441272536686
 20
1089.998053611538
 30
0.0
 10
1946.207413845712
 20
1087.741975169361
 30
0.0
 10
1946.166941795863
 20
1085.47784650945
 30
0.0
 10
1946.321206019041
 20
1083.2044765882
 30
0.0
 10
1946.677247777842
 20
1080.921994618227
 30
0.0
 10
1947.237867196674
 20
1078.657971996708
 30
0.0
 10
1948.001168015417
 20
1076.439767582068
 30
0.0
 10
1948.954716109618
 20
1074.30698742435
 30
0.0
 10
1950.083290067674
 20
1072.282930115081
 30
0.0
 10
1951.36820013838
 20
1070.387391466848
 30
0.0
 10
1952.798125437504
 20
1068.62674003527
 30
0.0
 10
1954.37048810551
 20
1066.997141245471
 30
0.0
 10
1956.087084671274
 20
1065.498707236313
 30
0.0
 10
1957.952802692213
 20
1064.136508299442
 30
0.0
 10
1959.950126233369
 20
1062.932020343728
 30
0.0
 10
1962.058368802037
 20
1061.903248145096
 30
0.0
 10
1964.240732437937
 20
1061.06940515639
 30
0.0
 10
1966.469979385643
 20
1060.436202806309
 30
0.0
 10
1968.718896242021
 20
1060.004423198352
 30
0.0
 10
1970.974974684197
 20
1059.770564507379
 30
0.0
 10
1973.239103344108
 20
1059.73009245753
 30
0.0
 10
1975.512473265358
 20
1059.884356680708
 30
0.0
 10
1977.794955235332
 20
1060.240398439508
 30
0.0
 10
1980.05897785685
 20
1060.801017858342
 30
0.0
 10
1982.277182271493
 20
1061.564318677079
 30
0.0
 10
1984.409962429199
 20
1062.517866771301
 30
0.0
 10
1986.43401973851
 20
1063.646440729279
 30
0.0
 10
1988.329558386588
 20
1064.931350800274
 30
0.0
 10
1990.090209818738
 20
1066.361276098335
 30
0.0
 10
1991.719808606422
 20
1067.933638770275
 30
0.0
 10
1993.218242623629
 20
1069.650235321068
 30
0.0
 10
1994.580441529851
 20
1071.515953399015
 30
0.0
 10
1995.784929601549
 20
1073.513276724433
 30
0.0
 10
1996.813701363812
 20
1075.621520104777
 30
0.0
 10
1997.647545974941
 20
1077.803880722854
 30
0.0
 10
1998.280742395873
 20
1080.033138699207
 30
0.0
 10
1998.712543842761
 20
1082.282014933594
 30
0.0
 10
1998.946322221264
 20
1084.538242762766
 30
0.0
 10
1998.987091406852
 20
1086.801818728742
 30
0.0
 10
1998.831696500544
 20
1089.077291802274
 30
0.0
 10
1998.479960159444
 20
1091.351765384379
 30
0.0
 10
1997.90304776144
 20
1093.646094123872
 30
0.0
 10
1997.201046488042
 20
1095.750276956985
 30
0.0
 10
1996.109590379593
 20
1098.112218525129
 30
0.0
 10
1995.758911617386
 20
1098.741717851642
 30
0.0
 10
1995.102514889229
 20
1099.931793808577
 30
0.0
 10
1993.762260115977
 20
1101.932201323174
 30
0.0
 10
1992.361806877292
 20
1103.642982502177
 30
0.0
 10
1990.781644350225
 20
1105.285779586757
 30
0.0
 10
1989.067171152866
 20
1106.780620602512
 30
0.0
 10
1987.200872148078
 20
1108.143802633572
 30
0.0
 10
1985.203706629686
 20
1109.348023195861
 30
0.0
 10
1983.095421320929
 20
1110.376867715837
 30
0.0
 10
1980.913069132613
 20
1111.210691333861
 30
0.0
 10
1978.683819178217
 20
1111.843898771622
 30
0.0
 10
1976.434903116012
 20
1112.275677035742
 30
0.0
 10
1974.178824464036
 20
1112.509536081723
 30
0.0
 10
1971.914695859648
 20
1112.550008037618
 30
0.0
 10
1969.641325923284
 20
1112.395743840018
 30
0.0
 10
1967.358843957445
 20
1112.039702074219
 30
0.0
 10
1965.094821334802
 20
1111.47908265729
 30
0.0
 10
1962.876616920466
 20
1110.715781838032
 30
0.0
 10
1960.743836762667
 20
1109.762233743969
 30
0.0
 10
1958.719779453419
 20
1108.633659785877
 30
0.0
 10
1956.82424080518
 20
1107.348749715181
 30
0.0
 10
1955.063589373603
 20
1105.918824416053
 30
0.0
 10
1953.433990583804
 20
1104.346461748049
 30
0.0
 10
1951.935556574647
 20
1102.629865182284
 30
0.0
 10
1950.573357637776
 20
1100.764147161346
 30
0.0
 10
1949.368869682061
 20
1098.76682362019
 30
0.0
 10
1948.34009748343
 20
1096.658581051521
 30
0.0
 10
1947.506254494724
 20
1094.476217415621
 30
0.0
 10
1946.873052144642
 20
1092.246970467916
 30
0.0
 10
1946.441272536686
 20
1089.998053611538
 30
0.0
 10
1946.207413845712
 20
1087.741975169361
 30
0.0
 10
1946.166941795863
 20
1085.47784650945
 30
0.0
 10
1946.321206019041
 20
1083.204476588201
 30
0.0
 10
1946.677247777842
 20
1080.921994618227
 30
0.0
 10
1947.237867196674
 20
1078.657971996708
 30
0.0
 10
1948.001168015417
 20
1076.439767582068
 30
0.0
 10
1948.954716109618
 20
1074.30698742435
 30
0.0
 10
1950.083290067674
 20
1072.282930115081
 30
0.0
 10
1951.36820013838
 20
1070.387391466848
 30
0.0
 10
1952.798125437504
 20
1068.62674003527
 30
0.0
 10
1954.37048810551
 20
1066.997141245471
 30
0.0
 10
1956.087084671274
 20
1065.498707236313
 30
0.0
 10
1957.952802692213
 20
1064.136508299442
 30
0.0
 10
1959.950126233369
 20
1062.932020343728
 30
0.0
 10
1962.058368802037
 20
1061.903248145096
 30
0.0
 10
1964.240732437937
 20
1061.06940515639
 30
0.0
 10
1966.469979385643
 20
1060.436202806309
 30
0.0
 10
1968.718896242021
 20
1060.004423198352
 30
0.0
 10
1970.974974684197
 20
1059.770564507379
 30
0.0
 10
1973.239103344108
 20
1059.73009245753
 30
0.0
 10
1975.512473265358
 20
1059.884356680708
 30
0.0
 10
1977.794955235332
 20
1060.240398439509
 30
0.0
 10
1980.05897785685
 20
1060.80101785834
 30
0.0
 10
1982.277182271491
 20
1061.564318677083
 30
0.0
 10
1984.409962429207
 20
1062.517866771285
 30
0.0
 10
1986.434019738483
 20
1063.646440729339
 30
0.0
 10
1988.329558386687
 20
1064.93135080005
 30
0.0
 10
1990.090209818376
 20
1066.361276099154
 30
0.0
 10
1991.719808607766
 20
1067.933638767238
 30
0.0
 10
1993.218242618481
 20
1069.650235332705
 30
0.0
 10
1994.58044154942
 20
1071.515953354777
 30
0.0
 10
1995.784929527584
 20
1073.513276891641
 30
0.0
 10
1996.813701641753
 20
1075.62151947646
 30
0.0
 10
1997.647544944488
 20
1077.803883052311
 30
0.0
 10
1998.280746146949
 20
1080.033130219464
 30
0.0
 10
1998.712529981957
 20
1082.28204626755
 30
0.0
 10
1998.946373127989
 20
1084.538127682211
 30
0.0
 10
1998.987984241335
 20
1086.862664430451
 30
0.0
 10
1998.81696296698
 20
1089.257895123306
 30
0.0
 10
1998.407613323973
 20
1091.719872641023
 30
0.0
 10
1997.756122636701
 20
1094.153126670147
 30
0.0
 10
1996.885455898972
 20
1096.533915683528
 30
0.0
 10
1996.116342112656
 20
1098.039298558706
 30
0.0
 10
1995.731662954358
 20
1098.792229305291
 30
0.0
  0
INSERT
  5
2D5
330
2B8
100
AcDbEntity
  8
0
  6
Continuous
 62
     7
370
     0
100
AcDbBlockReference
  2
SW_CENTERMARKSYMBOL_0
 10
1972.576899595946
 20
1086.140050257613
 30
0.0
  0
ENDBLK
  5
2BA
330
2B8
100
AcDbEntity
  8
0
100
AcDbBlockEnd
  0
BLOCK
  5
2D8
330
2D7
100
AcDbEntity
  8
0
100
AcDbBlockBegin
  2
2
 70
     0
 10
0.0
 20
0.0
 30
0.0
  3
2
  1

  0
LINE
  5
2DA
330
2D7
100
AcDbEntity
  8
0
  6
Continuous
 62
     7
370
    15
100
AcDbLine
 10
1911.558543304104
 20
1121.640050257613
 30
0.0
 11
1909.558543304104
 21
1121.640050257613
 31
0.0
  0
LINE
  5
2DB
330
2D7
100
AcDbEntity
  8
0
  6
Continuous
 62
     7
370
    15
100
AcDbLine
 10
1909.558543304104
 20
1053.640050257612
 30
0.0
 11
1909.558543304104
 21
1050.640050257612
 31
0.0
  0
LINE
  5
2DC
330
2D7
100
AcDbEntity
  8
0
  6
Continuous
 62
     7
370
    15
100
AcDbLine
 10
1904.158543304104
 20
1053.640050257612
 30
0.0
 11
1909.558543304104
 21
1053.640050257612
 31
0.0
  0
LINE
  5
2DD
330
2D7
100
AcDbEntity
  8
0
  6
Continuous
 62
     7
370
    15
100
AcDbLine
 10
1904.158543304104
 20
1057.520733380759
 30
0.0
 11
1904.158543304104
 21
1053.640050257612
 31
0.0
  0
LINE
  5
2DE
330
2D7
100
AcDbEntity
  8
0
  6
Continuous
 62
     7
370
    15
100
AcDbLine
 10
1909.558543304104
 20
1057.520733380759
 30
0.0
 11
1904.158543304104
 21
1057.520733380759
 31
0.0
  0
LINE
  5
2DF
330
2D7
100
AcDbEntity
  8
0
  6
Continuous
 62
     7
370
    15
100
AcDbLine
 10
1909.558543304104
 20
1082.259367134466
 30
0.0
 11
1909.558543304104
 21
1057.520733380759
 31
0.0
  0
LINE
  5
2E0
330
2D7
100
AcDbEntity
  8
0
  6
Continuous
 62
     7
370
    15
100
AcDbLine
 10
1904.158543304104
 20
1082.259367134466
 30
0.0
 11
1909.558543304104
 21
1082.259367134466
 31
0.0
  0
LINE
  5
2E1
330
2D7
100
AcDbEntity
  8
0
  6
Continuous
 62
     7
370
    15
100
AcDbLine
 10
1904.158543304104
 20
1090.020733380759
 30
0.0
 11
1904.158543304104
 21
1082.259367134466
 31
0.0
  0
LINE
  5
2E2
330
2D7
100
AcDbEntity
  8
0
  6
Continuous
 62
     7
370
    15
100
AcDbLine
 10
1909.558543304104
 20
1090.020733380759
 30
0.0
 11
1904.158543304104
 21
1090.020733380759
 31
0.0
  0
LINE
  5
2E3
330
2D7
100
AcDbEntity
  8
0
  6
Continuous
 62
     7
370
    15
100
AcDbLine
 10
1909.558543304104
 20
1114.759367134465
 30
0.0
 11
1909.558543304104
 21
1090.020733380759
 31
0.0
  0
LINE
  5
2E4
330
2D7
100
AcDbEntity
  8
0
  6
Continuous
 62
     7
370
    15
100
AcDbLine
 10
1904.158543304104
 20
1114.759367134465
 30
0.0
 11
1909.558543304104
 21
1114.759367134465
 31
0.0
  0
LINE
  5
2E5
330
2D7
100
AcDbEntity
  8
0
  6
Continuous
 62
     7
370
    15
100
AcDbLine
 10
1904.158543304104
 20
1118.640050257613
 30
0.0
 11
1904.158543304104
 21
1114.759367134465
 31
0.0
  0
LINE
  5
2E6
330
2D7
100
AcDbEntity
  8
0
  6
Continuous
 62
     7
370
    15
100
AcDbLine
 10
1909.558543304104
 20
1118.640050257613
 30
0.0
 11
1904.158543304104
 21
1118.640050257613
 31
0.0
  0
LINE
  5
2E7
330
2D7
100
AcDbEntity
  8
0
  6
Continuous
 62
     7
370
    15
100
AcDbLine
 10
1909.558543304104
 20
1121.640050257613
 30
0.0
 11
1909.558543304104
 21
1118.640050257613
 31
0.0
  0
LINE
  5
2E8
330
2D7
100
AcDbEntity
  8
0
  6
Continuous
 62
     7
370
    15
100
AcDbLine
 10
1911.558543304104
 20
1121.640050257613
 30
0.0
 11
1911.558543304104
 21
1050.640050257612
 31
0.0
  0
LINE
  5
2E9
330
2D7
100
AcDbEntity
  8
0
  6
Continuous
 62
     7
370
    15
100
AcDbLine
 10
1904.158543304104
 20
1114.759367134465
 30
0.0
 11
1904.158543304104
 21
1090.020733380759
 31
0.0
  0
LINE
  5
2EA
330
2D7
100
AcDbEntity
  8
0
  6
Continuous
 62
     7
370
    15
100
AcDbLine
 10
1904.158543304104
 20
1082.259367134466
 30
0.0
 11
1904.158543304104
 21
1057.520733380759
 31
0.0
  0
ENDBLK
  5
2D9
330
2D7
100
AcDbEntity
  8
0
100
AcDbBlockEnd
  0
BLOCK
  5
2ED
330
2EC
100
AcDbEntity
  8
0
100
AcDbBlockBegin
  2
3
 70
     0
 10
0.0
 20
0.0
 30
0.0
  3
3
  1

  0
LINE
  5
2EF
330
2EC
100
AcDbEntity
  8
0
  6
Continuous
 62
     7
370
    15
100
AcDbLine
 10
1937.076899595946
 20
1031.831328517265
 30
0.0
 11
1937.076899595946
 21
1024.431328517265
 31
0.0
  0
LINE
  5
2F0
330
2EC
100
AcDbEntity
  8
0
  6
Continuous
 62
     7
370
    15
100
AcDbLine
 10
2008.076899595946
 20
1024.431328517265
 30
0.0
 11
2008.076899595946
 21
1031.831328517265
 31
0.0
  0
LINE
  5
2F1
330
2EC
100
AcDbEntity
  8
0
  6
Continuous
 62
     7
370
    15
100
AcDbLine
 10
2007.864153647483
 20
1024.431328517265
 30
0.0
 11
2008.076899595946
 21
1024.431328517265
 31
0.0
  0
LINE
  5
2F2
330
2EC
100
AcDbEntity
  8
0
  6
Continuous
 62
     7
370
    15
100
AcDbLine
 10
2007.864153647483
 20
1029.831328517265
 30
0.0
 11
2007.864153647483
 21
1024.431328517265
 31
0.0
  0
LINE
  5
2F3
330
2EC
100
AcDbEntity
  8
0
  6
Continuous
 62
     7
370
    15
100
AcDbLine
 10
1993.581296790398
 20
1029.831328517265
 30
0.0
 11
2007.864153647483
 21
1029.831328517265
 31
0.0
  0
LINE
  5
2F4
330
2EC
100
AcDbEntity
  8
0
  6
Continuous
 62
     7
370
    15
100
AcDbLine
 10
1993.581296790398
 20
1024.431328517265
 30
0.0
 11
1993.581296790398
 21
1029.831328517265
 31
0.0
  0
LINE
  5
2F5
330
2EC
100
AcDbEntity
  8
0
  6
Continuous
 62
     7
370
    15
100
AcDbLine
 10
1986.859756453032
 20
1024.431328517265
 30
0.0
 11
1993.581296790398
 21
1024.431328517265
 31
0.0
  0
LINE
  5
2F6
330
2EC
100
AcDbEntity
  8
0
  6
Continuous
 62
     7
370
    15
100
AcDbLine
 10
1986.859756453032
 20
1029.831328517265
 30
0.0
 11
1986.859756453032
 21
1024.431328517265
 31
0.0
  0
LINE
  5
2F7
330
2EC
100
AcDbEntity
  8
0
  6
Continuous
 62
     7
370
    15
100
AcDbLine
 10
1958.294042738861
 20
1029.831328517265
 30
0.0
 11
1986.859756453032
 21
1029.831328517265
 31
0.0
  0
LINE
  5
2F8
330
2EC
100
AcDbEntity
  8
0
  6
Continuous
 62
     7
370
    15
100
AcDbLine
 10
1958.294042738861
 20
1024.431328517265
 30
0.0
 11
1958.294042738861
 21
1029.831328517265
 31
0.0
  0
LINE
  5
2F9
330
2EC
100
AcDbEntity
  8
0
  6
Continuous
 62
     7
370
    15
100
AcDbLine
 10
1951.572502401495
 20
1024.431328517265
 30
0.0
 11
1958.294042738861
 21
1024.431328517265
 31
0.0
  0
LINE
  5
2FA
330
2EC
100
AcDbEntity
  8
0
  6
Continuous
 62
     7
370
    15
100
AcDbLine
 10
1951.572502401495
 20
1029.831328517265
 30
0.0
 11
1951.572502401495
 21
1024.431328517265
 31
0.0
  0
LINE
  5
2FB
330
2EC
100
AcDbEntity
  8
0
  6
Continuous
 62
     7
370
    15
100
AcDbLine
 10
1937.289645544409
 20
1029.831328517265
 30
0.0
 11
1951.572502401495
 21
1029.831328517265
 31
0.0
  0
LINE
  5
2FC
330
2EC
100
AcDbEntity
  8
0
  6
Continuous
 62
     7
370
    15
100
AcDbLine
 10
1937.289645544409
 20
1024.431328517265
 30
0.0
 11
1937.289645544409
 21
1029.831328517265
 31
0.0
  0
LINE
  5
2FD
330
2EC
100
AcDbEntity
  8
0
  6
Continuous
 62
     7
370
    15
100
AcDbLine
 10
1937.076899595946
 20
1024.431328517265
 30
0.0
 11
1937.289645544409
 21
1024.431328517265
 31
0.0
  0
LINE
  5
2FE
330
2EC
100
AcDbEntity
  8
0
  6
Continuous
 62
     7
370
    15
100
AcDbLine
 10
1937.076899595946
 20
1031.831328517265
 30
0.0
 11
2008.076899595946
 21
1031.831328517265
 31
0.0
  0
LINE
  5
2FF
330
2EC
100
AcDbEntity
  8
0
  6
Continuous
 62
     7
370
    15
100
AcDbLine
 10
1958.294042738861
 20
1024.431328517265
 30
0.0
 11
1986.859756453032
 21
1024.431328517265
 31
0.0
  0
LINE
  5
300
330
2EC
100
AcDbEntity
  8
0
  6
Continuous
 62
     7
370
    15
100
AcDbLine
 10
1937.289645544409
 20
1024.431328517265
 30
0.0
 11
1951.572502401495
 21
1024.431328517265
 31
0.0
  0
LINE
  5
301
330
2EC
100
AcDbEntity
  8
0
  6
Continuous
 62
     7
370
    15
100
AcDbLine
 10
1993.581296790398
 20
1024.431328517265
 30
0.0
 11
2007.864153647483
 21
1024.431328517265
 31
0.0
  0
ENDBLK
  5
2EE
330
2EC
100
AcDbEntity
  8
0
100
AcDbBlockEnd
  0
BLOCK
  5
304
330
303
100
AcDbEntity
  8
0
100
AcDbBlockBegin
  2
4
 70
     0
 10
0.0
 20
0.0
 30
0.0
  3
4
  1

  0
LINE
  5
306
330
303
100
AcDbEntity
  8
0
  6
Continuous
 62
     7
370
    15
100
AcDbLine
 10
2109.807846555827
 20
1084.530628882141
 30
0.0
 11
2109.620208550849
 21
1091.074139431589
 31
0.0
  0
LINE
  5
307
330
303
100
AcDbEntity
  8
0
  6
Continuous
 62
     7
370
    15
100
AcDbLine
 10
2038.649381519122
 20
1089.039020164152
 30
0.0
 11
2038.8370195241
 21
1082.495509614704
 31
0.0
  0
SPLINE
  5
308
330
303
100
AcDbEntity
  8
0
  6
Continuous
 62
     7
370
    15
100
AcDbSpline
210
0.0
220
0.0
230
1.0
 70
     8
 71
     3
 72
    13
 73
     9
 74
     0
 42
0.0000000001
 43
0.0000000001
 40
0.0
 40
0.0
 40
0.0
 40
0.0
 40
0.2107461410715637
 40
0.3822322517873574
 40
0.5530182312556987
 40
0.7234919769337265
 40
0.8988267843298839
 40
1.0
 40
1.0
 40
1.0
 40
1.0
 10
2096.030567527032
 20
1091.63675426575
 30
0.0
 10
2096.399182021331
 20
1091.378092190957
 30
0.0
 10
2097.067741585367
 20
1090.908954360971
 30
0.0
 10
2097.889143316152
 20
1090.18850354147
 30
0.0
 10
2098.567221554217
 20
1089.50201912198
 30
0.0
 10
2099.14956687115
 20
1088.791375676906
 30
0.0
 10
2099.575533547218
 20
1088.164844025506
 30
0.0
 10
2099.780566786395
 20
1087.7722396307
 30
0.0
 10
2099.855587655218
 20
1087.628587201855
 30
0.0
  0
SPLINE
  5
309
330
303
100
AcDbEntity
  8
0
  6
Continuous
 62
     7
370
    15
100
AcDbSpline
210
0.0
220
0.0
230
1.0
 70
     8
 71
     3
 72
    13
 73
     9
 74
     0
 42
0.0000000001
 43
0.0000000001
 40
0.0
 40
0.0
 40
0.0
 40
0.0
 40
0.0847373555400035
 40
0.2367233139800402
 40
0.3816731105619039
 40
0.5262668487583431
 40
0.7664797378051646
 40
0.9999999999999998
 40
0.9999999999999998
 40
0.9999999999999998
 40
0.9999999999999998
 10
2048.469473587489
 20
1086.46320108264
 30
0.0
 10
2048.514542214165
 20
1086.576847199797
 30
0.0
 10
2048.64044648148
 20
1086.894330384194
 30
0.0
 10
2048.918805579063
 20
1087.40482576219
 30
0.0
 10
2049.296870663983
 20
1087.993249782462
 30
0.0
 10
2049.833595599393
 20
1088.691707236155
 30
0.0
 10
2050.567009055255
 20
1089.494824506787
 30
0.0
 10
2051.266933391922
 20
1090.082320360151
 30
0.0
 10
2051.611951497972
 20
1090.371918386711
 30
0.0
  0
SPLINE
  5
30A
330
303
100
AcDbEntity
  8
0
  6
Continuous
 62
     7
370
    15
100
AcDbSpline
210
0.0
220
0.0
230
1.0
 70
     8
 71
     3
 72
    18
 73
    14
 74
     0
 42
0.0000000001
 43
0.0000000001
 40
0.0
 40
0.0
 40
0.0
 40
0.0
 40
0.0772353522420958
 40
0.2136272750904984
 40
0.3499651559149577
 40
0.4862205100965989
 40
0.5678620340091588
 40
0.6491462429535201
 40
0.7303556265740726
 40
0.8118823384527274
 40
0.8991001937926373
 40
0.9674457761157194
 40
1.0
 40
1.0
 40
1.0
 40
1.0
 10
2092.765914104174
 20
1094.725511653778
 30
0.0
 10
2093.062198198085
 20
1094.594049059317
 30
0.0
 10
2093.881698100621
 20
1094.230433240711
 30
0.0
 10
2095.076859220463
 20
1093.566936488135
 30
0.0
 10
2096.350745210806
 20
1092.748048553116
 30
0.0
 10
2097.314944002602
 20
1091.994268608104
 30
0.0
 10
2098.034996511922
 20
1091.334242600981
 30
0.0
 10
2098.562754478988
 20
1090.782525631696
 30
0.0
 10
2099.029104866179
 20
1090.219803839163
 30
0.0
 10
2099.443520005317
 20
1089.633613487451
 30
0.0
 10
2099.770141003809
 20
1089.070985031534
 30
0.0
 10
2099.988371538568
 20
1088.621685944473
 30
0.0
 10
2100.081506615261
 20
1088.377226273974
 30
0.0
 10
2100.111555633709
 20
1088.298354022943
 30
0.0
  0
SPLINE
  5
30B
330
303
100
AcDbEntity
  8
0
  6
Continuous
 62
     7
370
    15
100
AcDbSpline
210
0.0
220
0.0
230
1.0
 70
     8
 71
     3
 72
    17
 73
    13
 74
     0
 42
0.0000000001
 43
0.0000000001
 40
0.0
 40
0.0
 40
0.0
 40
0.0
 40
0.0421103675475055
 40
0.110374938724825
 40
0.2041034389644071
 40
0.2919544073543793
 40
0.3781523041666126
 40
0.4639356423478099
 40
0.6071984516185985
 40
0.7508664059651515
 40
0.8945310844295606
 40
0.9999999999999998
 40
0.9999999999999998
 40
0.9999999999999998
 40
0.9999999999999998
 10
2048.193449364398
 20
1087.10442041169
 30
0.0
 10
2048.21989799653
 20
1087.199897659518
 30
0.0
 10
2048.289222163496
 20
1087.450151836633
 30
0.0
 10
2048.465538258589
 20
1087.910691299176
 30
0.0
 10
2048.732466909235
 20
1088.472607392251
 30
0.0
 10
2049.092067552255
 20
1089.073668645219
 30
0.0
 10
2049.505690895311
 20
1089.652204579903
 30
0.0
 10
2050.084612240899
 20
1090.345611138622
 30
0.0
 10
2050.886594224536
 20
1091.148322736029
 30
0.0
 10
2051.982268414477
 20
1092.039449148905
 30
0.0
 10
2053.107985310159
 20
1092.820757550707
 30
0.0
 10
2053.92970495046
 20
1093.279951688042
 30
0.0
 10
2054.277574051378
 20
1093.47434822412
 30
0.0
  0
SPLINE
  5
30C
330
303
100
AcDbEntity
  8
0
  6
Continuous
 62
     7
370
    15
100
AcDbSpline
210
0.0
220
0.0
230
1.0
 70
     8
 71
     3
 72
    16
 73
    12
 74
     0
 42
0.0000000001
 43
0.0000000001
 40
0.0
 40
0.0
 40
0.0
 40
0.0
 40
0.150986219767698
 40
0.3168551862712348
 40
0.4160819369945146
 40
0.5148504789856699
 40
0.6153320896517445
 40
0.7207994444235569
 40
0.8257342479798699
 40
0.9338670607478485
 40
0.9999999999999998
 40
0.9999999999999998
 40
0.9999999999999998
 40
0.9999999999999998
 10
2095.581776957479
 20
1094.533646519509
 30
0.0
 10
2095.959777193024
 20
1094.282679419467
 30
0.0
 10
2096.753037235089
 20
1093.756007334068
 30
0.0
 10
2097.62869210453
 20
1093.013732825218
 30
0.0
 10
2098.307395890999
 20
1092.3456078676
 30
0.0
 10
2098.801941055637
 20
1091.784960909637
 30
0.0
 10
2099.243124449856
 20
1091.202139453347
 30
0.0
 10
2099.625872409552
 20
1090.598275728311
 30
0.0
 10
2099.940423780607
 20
1089.975560893339
 30
0.0
 10
2100.16858949131
 20
1089.420607737692
 30
0.0
 10
2100.252186244072
 20
1089.070739962784
 30
0.0
 10
2100.283910773465
 20
1088.937966976492
 30
0.0
  0
SPLINE
  5
30D
330
303
100
AcDbEntity
  8
0
  6
Continuous
 62
     7
370
    15
100
AcDbSpline
210
0.0
220
0.0
230
1.0
 70
     8
 71
     3
 72
    21
 73
    17
 74
     0
 42
0.0000000001
 43
0.0000000001
 40
0.0
 40
0.0
 40
0.0
 40
0.0
 40
0.0523426803081313
 40
0.1100730314759924
 40
0.1662121954124532
 40
0.2085095086976492
 40
0.2431245668137284
 40
0.2882831320797807
 40
0.3384098107359763
 40
0.3862583173628938
 40
0.4318697509362896
 40
0.4768171164029677
 40
0.5825321879664913
 40
0.6877941919626363
 40
0.8480459833291586
 40
1.0
 40
1.0
 40
1.0
 40
1.0
 10
2048.004614864023
 20
1087.73148305136
 30
0.0
 10
2048.02175891042
 20
1087.837739213013
 30
0.0
 10
2048.05781165261
 20
1088.061188561752
 30
0.0
 10
2048.139551058655
 20
1088.398913443944
 30
0.0
 10
2048.235353386694
 20
1088.71612133339
 30
0.0
 10
2048.33205604158
 20
1088.984942818482
 30
0.0
 10
2048.43134962492
 20
1089.231067409267
 30
0.0
 10
2048.549192002045
 20
1089.493202259622
 30
0.0
 10
2048.694770183591
 20
1089.781471493138
 30
0.0
 10
2048.857247549821
 20
1090.070227558269
 30
0.0
 10
2049.02901660077
 20
1090.347999192754
 30
0.0
 10
2049.293208972436
 20
1090.74047285929
 30
0.0
 10
2049.681754414799
 20
1091.248639653483
 30
0.0
 10
2050.33547241291
 20
1091.973794334983
 30
0.0
 10
2051.181588422148
 20
1092.771618211897
 30
0.0
 10
2051.946722507087
 20
1093.336587156886
 30
0.0
 10
2052.319121721021
 20
1093.611563785365
 30
0.0
  0
SPLINE
  5
30E
330
303
100
AcDbEntity
  8
0
  6
Continuous
 62
     7
370
    15
100
AcDbSpline
210
0.0
220
0.0
230
1.0
 70
     8
 71
     3
 72
    16
 73
    12
 74
     0
 42
0.0000000001
 43
0.0000000001
 40
0.0
 40
0.0
 40
0.0
 40
0.0
 40
0.1465854542772906
 40
0.3036907409928443
 40
0.3974486075348023
 40
0.4912757906127259
 40
0.5882700284565347
 40
0.683097430171179
 40
0.7685780020381722
 40
0.8887999530526352
 40
1.0
 40
1.0
 40
1.0
 40
1.0
 10
2095.948766090632
 20
1095.594763643604
 30
0.0
 10
2096.31966253069
 20
1095.332488860374
 30
0.0
 10
2097.088073115958
 20
1094.789116916305
 30
0.0
 10
2097.923533572311
 20
1094.029491089974
 30
0.0
 10
2098.559490968656
 20
1093.353183054132
 30
0.0
 10
2099.021225320203
 20
1092.783035615818
 30
0.0
 10
2099.420451580151
 20
1092.201620583682
 30
0.0
 10
2099.744490202715
 20
1091.63056116024
 30
0.0
 10
2100.028940352964
 20
1091.007493976323
 30
0.0
 10
2100.261744053333
 20
1090.338863944882
 30
0.0
 10
2100.345312081493
 20
1089.847334620674
 30
0.0
 10
2100.385467160685
 20
1089.611151006284
 30
0.0
  0
SPLINE
  5
30F
330
303
100
AcDbEntity
  8
0
  6
Continuous
 62
     7
370
    15
100
AcDbSpline
210
0.0
220
0.0
230
1.0
 70
     8
 71
     3
 72
    19
 73
    15
 74
     0
 42
0.0000000001
 43
0.0000000001
 40
0.0
 40
0.0
 40
0.0
 40
0.0
 40
0.0287740111247549
 40
0.1219995049234156
 40
0.2206423947297437
 40
0.3222512346458499
 40
0.3925254190762688
 40
0.4674696450017457
 40
0.5463670107000381
 40
0.6228724523114387
 40
0.6991110628783602
 40
0.7749947757518349
 40
0.8511841902500353
 40
1.0
 40
1.0
 40
1.0
 40
1.0
 10
2047.917970363337
 20
1088.140751752181
 30
0.0
 10
2047.914455342326
 20
1088.201772024679
 30
0.0
 10
2047.899551934481
 20
1088.460493097761
 30
0.0
 10
2047.940540900375
 20
1088.930375901486
 30
0.0
 10
2048.0481266514
 20
1089.555868978618
 30
0.0
 10
2048.221860783883
 20
1090.134112560591
 30
0.0
 10
2048.431267690533
 20
1090.65561143152
 30
0.0
 10
2048.663915602721
 20
1091.130410122168
 30
0.0
 10
2048.948395346922
 20
1091.616524832695
 30
0.0
 10
2049.280812445468
 20
1092.102789831019
 30
0.0
 10
2049.652635718354
 20
1092.57844218264
 30
0.0
 10
2050.06805268119
 20
1093.047691971807
 30
0.0
 10
2050.665993248946
 20
1093.658320850615
 30
0.0
 10
2051.195222490102
 20
1094.098315601551
 30
0.0
 10
2051.545248487627
 20
1094.389322956448
 30
0.0
  0
SPLINE
  5
310
330
303
100
AcDbEntity
  8
0
  6
Continuous
 62
     7
370
    15
100
AcDbSpline
210
0.0
220
0.0
230
1.0
 70
     8
 71
     3
 72
    31
 73
    27
 74
     0
 42
0.0000000001
 43
0.0000000001
 40
0.0
 40
0.0
 40
0.0
 40
0.0
 40
0.0362154172064323
 40
0.1005827205476495
 40
0.1649201461381637
 40
0.2292174294733247
 40
0.2933227396050195
 40
0.3469645899849219
 40
0.4023754834464523
 40
0.4192883893986152
 40
0.4333456587762892
 40
0.445219959821808
 40
0.4603879663263813
 40
0.479760936911963
 40
0.5232033883243262
 40
0.5633083547413748
 40
0.6019893773434947
 40
0.6409039620479949
 40
0.6811965360726664
 40
0.7144345389331798
 40
0.7518049237510116
 40
0.7933948333814961
 40
0.8335022021413633
 40
0.8722234302044855
 40
0.9363944866332838
 40
1.0
 40
1.0
 40
1.0
 40
1.0
 10
2092.704150258279
 20
1098.680990339365
 30
0.0
 10
2092.997799543303
 20
1098.550003230452
 30
0.0
 10
2093.813365019355
 20
1098.186206792708
 30
0.0
 10
2095.003072221773
 20
1097.522157229802
 30
0.0
 10
2096.272454851568
 20
1096.701715615519
 30
0.0
 10
2097.379358131374
 20
1095.831396165881
 30
0.0
 10
2098.272827986614
 20
1094.971408955303
 30
0.0
 10
2098.982178925136
 20
1094.126101860397
 30
0.0
 10
2099.400957044981
 20
1093.496943795719
 30
0.0
 10
2099.643099599104
 20
1093.061588037176
 30
0.0
 10
2099.7537012952
 20
1092.844841625884
 30
0.0
 10
2099.851879228095
 20
1092.63702164019
 30
0.0
 10
2099.954441743069
 20
1092.400360071164
 30
0.0
 10
2100.108007258334
 20
1091.999947903578
 30
0.0
 10
2100.264391306456
 20
1091.468051076366
 30
0.0
 10
2100.376929615574
 20
1090.832908832903
 30
0.0
 10
2100.419061312313
 20
1090.218930531117
 30
0.0
 10
2100.395933000669
 20
1089.602139934739
 30
0.0
 10
2100.310299237307
 20
1089.012967020318
 30
0.0
 10
2100.167011691866
 20
1088.430783235668
 30
0.0
 10
2099.966819228316
 20
1087.846938829992
 30
0.0
 10
2099.686682964991
 20
1087.227253354888
 30
0.0
 10
2099.332284562756
 20
1086.602517408466
 30
0.0
 10
2098.829062452228
 20
1085.867370062558
 30
0.0
 10
2098.13277867331
 20
1085.023082758039
 30
0.0
 10
2097.457935204282
 20
1084.400386615594
 30
0.0
 10
2097.122006908833
 20
1084.090416580594
 30
0.0
  0
SPLINE
  5
311
330
303
100
AcDbEntity
  8
0
  6
Continuous
 62
     7
370
    15
100
AcDbSpline
210
0.0
220
0.0
230
1.0
 70
     8
 71
     3
 72
    12
 73
     8
 74
     0
 42
0.0000000001
 43
0.0000000001
 40
0.0
 40
0.0
 40
0.0
 40
0.0
 40
0.0225584531377655
 40
0.2805713037547403
 40
0.5392861087096951
 40
0.7979907927764751
 40
1.0
 40
1.0
 40
1.0
 40
1.0
 10
2049.83396333632
 20
1094.142049303751
 30
0.0
 10
2049.855912699213
 20
1094.16971704147
 30
0.0
 10
2050.128908428376
 20
1094.513835195151
 30
0.0
 10
2050.814397864659
 20
1095.153307804672
 30
0.0
 10
2051.900127204012
 20
1096.045345652762
 30
0.0
 10
2053.054205119645
 20
1096.837907796233
 30
0.0
 10
2053.900706087761
 20
1097.30842653606
 30
0.0
 10
2054.271871343935
 20
1097.514734874951
 30
0.0
  0
ARC
  5
312
330
303
100
AcDbEntity
  8
0
  6
Continuous
 62
     7
370
    15
100
AcDbCircle
 10
2078.487336883536
 20
1122.528951895334
 30
0.0
 40
48.30887650357031
100
AcDbArc
 50
285.8984351114036
 51
293.8222193562602
  0
LINE
  5
313
330
303
100
AcDbEntity
  8
0
  6
Continuous
 62
     7
370
    15
100
AcDbLine
 10
2098.136221395027
 20
1073.560847543341
 30
0.0
 11
2097.999296364367
 21
1078.335841728073
 31
0.0
  0
LWPOLYLINE
  5
314
330
303
100
AcDbEntity
  8
0
  6
Continuous
 62
     7
370
    15
100
AcDbPolyline
 90
       19
 70
   128
 43
0.0
 10
2109.759836150201
 20
1085.99260496275
 10
2109.713887327147
 20
1085.230095398404
 10
2109.592932607846
 20
1084.467694802273
 10
2109.397227967533
 20
1083.707016634944
 10
2109.127187573937
 20
1082.949670711847
 10
2108.783382910782
 20
1082.197259796417
 10
2108.366541568363
 20
1081.451376208181
 10
2107.87754570375
 20
1080.713598452952
 10
2107.317430173894
 20
1079.985487882252
 10
2106.687380345565
 20
1079.268585389037
 10
2105.988729586771
 20
1078.564408146726
 10
2105.222956444973
 20
1077.874446398416
 10
2104.391681518041
 20
1077.200160303103
 10
2103.496664024606
 20
1076.542976845557
 10
2102.539798081039
 20
1075.90428681641
 10
2101.523108692954
 20
1075.285441868842
 10
2100.448747469709
 20
1074.687751658089
 10
2099.318988070978
 20
1074.112481069834
 10
2098.136221395027
 20
1073.560847543341
  0
LINE
  5
315
330
303
100
AcDbEntity
  8
0
  6
Continuous
 62
     7
370
    15
100
AcDbLine
 10
2109.622911119541
 20
1090.767599147482
 30
0.0
 11
2109.759836150201
 21
1085.99260496275
 31
0.0
  0
ARC
  5
316
330
303
100
AcDbEntity
  8
0
  6
Continuous
 62
     7
370
    15
100
AcDbCircle
 10
2101.465126062249
 20
1090.809104408484
 30
0.0
 40
8.157890642050887
100
AcDbArc
 50
359.7084924710392
 51
25.72546890197675
  0
ARC
  5
317
330
303
100
AcDbEntity
  8
0
  6
Continuous
 62
     7
370
    15
100
AcDbCircle
 10
2077.422294763897
 20
1045.729683057483
 30
0.0
 40
60.80889929803126
100
AcDbArc
 50
76.09351735857628
 51
82.88900959508676
  0
ARC
  5
318
330
303
100
AcDbEntity
  8
0
  6
Continuous
 62
     7
370
    15
100
AcDbCircle
 10
2069.782253186436
 20
1057.584207700404
 30
0.0
 40
48.30887650357324
100
AcDbArc
 50
105.8984351114035
 51
113.8222193562576
  0
ARC
  5
319
330
303
100
AcDbEntity
  8
0
  6
Continuous
 62
     7
370
    15
100
AcDbCircle
 10
2046.804464007721
 20
1089.304055187256
 30
0.0
 40
8.157890642050102
100
AcDbArc
 50
179.7084924710393
 51
205.7254689019709
  0
LINE
  5
31A
330
303
100
AcDbEntity
  8
0
  6
Continuous
 62
     7
370
    15
100
AcDbLine
 10
2039.592074548801
 20
1080.98805037547
 30
0.0
 11
2039.455149518142
 21
1085.763044560202
 31
0.0
  0
LWPOLYLINE
  5
31B
330
303
100
AcDbEntity
  8
0
  6
Continuous
 62
     7
370
    15
100
AcDbPolyline
 90
       19
 70
   128
 43
0.0
 10
2056.369538933171
 20
1070.581934755767
 10
2054.979211861277
 20
1070.950048274988
 10
2053.629713327267
 20
1071.348491480166
 10
2052.323899261093
 20
1071.776421150019
 10
2051.064533143714
 20
1072.232931661361
 10
2049.854280158769
 20
1072.717056905664
 10
2048.695701552279
 20
1073.227772333623
 10
2047.591249212303
 20
1073.763997123399
 10
2046.543260480039
 20
1074.324596467951
 10
2045.553953203326
 20
1074.908383976617
 10
2044.62542104304
 20
1075.51412418586
 10
2043.7596290423
 20
1076.140535173868
 10
2042.958409467866
 20
1076.786291273472
 10
2042.223457932532
 20
1077.450025877639
 10
2041.55632980672
 20
1078.130334331611
 10
2040.958436926862
 20
1078.825776905563
 10
2040.431044607546
 20
1079.534881841485
 10
2039.975268963747
 20
1080.25614846785
 10
2039.592074548801
 20
1080.98805037547
  0
LINE
  5
31C
330
303
100
AcDbEntity
  8
0
  6
Continuous
 62
     7
370
    15
100
AcDbLine
 10
2056.232613902512
 20
1075.356928940498
 30
0.0
 11
2056.369538933171
 21
1070.581934755767
 31
0.0
  0
ARC
  5
31D
330
303
100
AcDbEntity
  8
0
  6
Continuous
 62
     7
370
    15
100
AcDbCircle
 10
2070.847295306073
 20
1134.383476538253
 30
0.0
 40
60.8088992980273
100
AcDbArc
 50
256.0935173585763
 51
262.8890095950859
  0
LINE
  5
31E
330
303
100
AcDbEntity
  8
0
  6
Continuous
 62
     7
370
    15
100
AcDbLine
 10
2063.456575878183
 20
1069.267312305674
 30
0.0
 11
2063.319650847523
 21
1074.042306490405
 31
0.0
  0
ARC
  5
31F
330
303
100
AcDbEntity
  8
0
  6
Continuous
 62
     7
370
    15
100
AcDbCircle
 10
2072.607721229907
 20
1141.076581429715
 30
0.0
 40
72.39001722183394
100
AcDbArc
 50
262.7375532713695
 51
285.4216104217869
  0
LINE
  5
320
330
303
100
AcDbEntity
  8
0
  6
Continuous
 62
     7
370
    15
100
AcDbLine
 10
2091.720729987068
 20
1076.06794829011
 30
0.0
 11
2091.857655017727
 21
1071.292954105378
 31
0.0
  0
LWPOLYLINE
  5
321
330
303
100
AcDbEntity
  8
0
  6
Continuous
 62
     7
370
    15
100
AcDbPolyline
 90
       27
 70
   128
 43
0.0
 10
2059.877202371565
 20
1068.063520435992
 10
2058.457487839762
 20
1068.344617168421
 10
2057.068829683207
 20
1068.655406858107
 10
2055.713946265453
 20
1068.995281119639
 10
2054.395489834416
 20
1069.363574633189
 10
2053.116041330474
 20
1069.75956644691
 10
2051.878105334157
 20
1070.18248138823
 10
2050.684105163311
 20
1070.631491581291
 10
2049.53637812934
 20
1071.105718067555
 10
2048.437170961811
 20
1071.604232526405
 10
2047.388635410374
 20
1072.126059092379
 10
2046.392824032609
 20
1072.670176265468
 10
2045.451686176052
 20
1073.235518910753
 10
2044.567064162253
 20
1073.820980343459
 10
2043.740689680345
 20
1074.425414495337
 10
2042.974180397185
 20
1075.047638158151
 10
2042.269036790688
 20
1075.686433299862
 10
2041.626639212578
 20
1076.340549448981
 10
2041.048245186282
 20
1077.008706142429
 10
2040.534986945267
 20
1077.689595432103
 10
2040.087869216642
 20
1078.381884445242
 10
2039.707767254359
 20
1079.084217993595
 10
2039.395425125857
 20
1079.795221226258
 10
2039.151454255522
 20
1080.513502321014
 10
2038.976332227787
 20
1081.237655208891
 10
2038.870401852248
 20
1081.966262326604
 10
2038.8370195241
 20
1082.495509614704
  0
LWPOLYLINE
  5
322
330
303
100
AcDbEntity
  8
0
  6
Continuous
 62
     7
370
    15
100
AcDbPolyline
 90
       47
 70
   128
 43
0.0
 10
2109.807846555827
 20
1084.530628882141
 10
2109.81099558734
 20
1084.328241105341
 10
2109.778056419268
 20
1083.59501030325
 10
2109.675711203435
 20
1082.861619097696
 10
2109.504160285403
 20
1082.129503136405
 10
2109.263739484154
 20
1081.400095570749
 10
2108.954919434695
 20
1080.674824250294
 10
2108.578304666774
 20
1079.955108927707
 10
2108.134632421486
 20
1079.242358479529
 10
2107.624771208087
 20
1078.537968148234
 10
2107.049719103843
 20
1077.843316810974
 10
2106.410601800255
 20
1077.159764280362
 10
2105.708670399456
 20
1076.488648642576
 10
2104.945298965127
 20
1075.831283637994
 10
2104.121981832697
 20
1075.188956089481
 10
2103.240330684118
 20
1074.562923383378
 10
2102.302071392914
 20
1073.954411008104
 10
2101.309040645709
 20
1073.364610155212
 10
2100.263182346823
 20
1072.794675387566
 10
2099.16654381299
 20
1072.245722379239
 10
2098.021271765638
 20
1071.718825731524
 10
2096.829608128582
 20
1071.215016869352
 10
2095.593885639352
 20
1070.735282022228
 10
2094.31652328275
 20
1070.280560293646
 10
2093.000021555574
 20
1069.851741822742
 10
2091.646957571778
 20
1069.44966604181
 10
2090.25998001765
 20
1069.075120033074
 10
2088.841803966886
 20
1068.728836987933
 10
2087.395205565703
 20
1068.41149477171
 10
2085.923016598401
 20
1068.123714596697
 10
2084.42811894402
 20
1067.866059806099
 10
2082.913438934918
 20
1067.639034771269
 10
2081.381941628343
 20
1067.443083904374
 10
2079.836625002192
 20
1067.278590788436
 10
2078.280514086327
 20
1067.145877426456
 10
2076.716655040942
 20
1067.045203611072
 10
2075.148109193557
 20
1066.976766416005
 10
2073.577947046329
 20
1066.940699810278
 10
2072.009242265394
 20
1066.937074395965
 10
2070.445065664028
 20
1066.965897269986
 10
2068.888479191381
 20
1067.027112010211
 10
2067.342529938572
 20
1067.12059878591
 10
2065.81024417386
 20
1067.246174592332
 10
2064.294621418587
 20
1067.403593608936
 10
2062.798628575469
 20
1067.592547680608
 10
2061.325194120749
 20
1067.812666920876
 10
2059.877202371565
 20
1068.063520435992
  0
LINE
  5
323
330
303
100
AcDbEntity
  8
0
  6
Continuous
 62
     7
370
    15
100
AcDbLine
 10
2038.64667895043
 20
1089.345560448259
 30
0.0
 11
2050.270293705603
 21
1101.777317867667
 31
0.0
  0
LINE
  5
324
330
303
100
AcDbEntity
  8
0
  6
Continuous
 62
     7
370
    15
100
AcDbLine
 10
2056.548860082903
 20
1104.04521130563
 30
0.0
 11
2084.949939222448
 21
1106.070853105335
 31
0.0
  0
LINE
  5
325
330
303
100
AcDbEntity
  8
0
  6
Continuous
 62
     7
370
    15
100
AcDbLine
 10
2092.036976167459
 20
1104.756230655242
 30
0.0
 11
2108.814440551829
 21
1094.350115035538
 31
0.0
  0
LINE
  5
326
330
303
100
AcDbEntity
  8
0
  6
Continuous
 62
     7
370
    15
100
AcDbLine
 10
2109.622911119541
 20
1090.767599147482
 30
0.0
 11
2097.999296364367
 21
1078.335841728073
 31
0.0
  0
LINE
  5
327
330
303
100
AcDbEntity
  8
0
  6
Continuous
 62
     7
370
    15
100
AcDbLine
 10
2091.720729987068
 20
1076.06794829011
 30
0.0
 11
2063.319650847523
 21
1074.042306490405
 31
0.0
  0
LINE
  5
328
330
303
100
AcDbEntity
  8
0
  6
Continuous
 62
     7
370
    15
100
AcDbLine
 10
2056.232613902512
 20
1075.356928940498
 30
0.0
 11
2039.455149518142
 21
1085.763044560202
 31
0.0
  0
SPLINE
  5
329
330
303
100
AcDbEntity
  8
0
  6
Continuous
 62
     7
370
    15
100
AcDbSpline
210
0.0
220
0.0
230
1.0
 70
     8
 71
     3
 72
    26
 73
    22
 74
     0
 42
0.0000000001
 43
0.0000000001
 40
0.0
 40
0.0
 40
0.0
 40
0.0
 40
0.0625000000000001
 40
0.0625000000000001
 40
0.1250000000000001
 40
0.1250000000000001
 40
0.25
 40
0.25
 40
0.375
 40
0.375
 40
0.5
 40
0.5
 40
0.625
 40
0.625
 40
0.75
 40
0.75
 40
0.8749999999999998
 40
0.8749999999999998
 40
0.9374999999999998
 40
0.9374999999999998
 40
1.0
 40
1.0
 40
1.0
 40
1.0
 10
2072.003729118765
 20
1102.276529155479
 30
0.0
 10
2071.130158942856
 20
1102.213987889702
 30
0.0
 10
2070.260216491726
 20
1102.135872261663
 30
0.0
 10
2068.535891253404
 20
1101.940411237049
 30
0.0
 10
2067.681875313536
 20
1101.823792073431
 30
0.0
 10
2065.15587730818
 20
1101.417113383812
 30
0.0
 10
2063.520778969636
 20
1101.070216368028
 30
0.0
 10
2060.413917924712
 20
1100.235583904587
 30
0.0
 10
2058.940989177032
 20
1099.747637452054
 30
0.0
 10
2056.220197803179
 20
1098.651747161729
 30
0.0
 10
2054.9686159023
 20
1098.042349835265
 30
0.0
 10
2052.737119250112
 20
1096.726198578521
 30
0.0
 10
2051.756602826656
 20
1096.019214145751
 30
0.0
 10
2050.104975428766
 20
1094.535496526464
 30
0.0
 10
2049.433950933447
 20
1093.758662229306
 30
0.0
 10
2048.425508675223
 20
1092.165542925743
 30
0.0
 10
2048.088687620753
 20
1091.350178609639
 30
0.0
 10
2047.83933923237
 20
1090.120720335323
 30
0.0
 10
2047.798858899003
 20
1089.709880654014
 30
0.0
 10
2047.800827820481
 20
1088.890185410248
 30
0.0
 10
2047.845908168643
 20
1088.48151939141
 30
0.0
 10
2047.920234819935
 20
1088.074778801973
 30
0.0
  0
SPLINE
  5
32A
330
303
100
AcDbEntity
  8
0
  6
Continuous
 62
     7
370
    15
100
AcDbSpline
210
0.0
220
0.0
230
1.0
 70
     8
 71
     3
 72
    36
 73
    32
 74
     0
 42
0.0000000001
 43
0.0000000001
 40
0.0
 40
0.0
 40
0.0
 40
0.0
 40
0.0625000000000002
 40
0.0625000000000002
 40
0.1250000000000004
 40
0.1250000000000004
 40
0.2500000000000009
 40
0.2500000000000009
 40
0.2812500000000008
 40
0.2812500000000008
 40
0.3125000000000008
 40
0.3125000000000008
 40
0.3750000000000006
 40
0.3750000000000006
 40
0.5000000000000007
 40
0.5000000000000007
 40
0.5625000000000006
 40
0.5625000000000006
 40
0.6250000000000006
 40
0.6250000000000006
 40
0.6875000000000005
 40
0.6875000000000005
 40
0.7500000000000004
 40
0.7500000000000004
 40
0.8125000000000003
 40
0.8125000000000003
 40
0.8437500000000003
 40
0.8437500000000003
 40
0.8750000000000001
 40
0.8750000000000001
 40
1.0
 40
1.0
 40
1.0
 40
1.0
 10
2047.920234819935
 20
1088.074778801972
 30
0.0
 10
2047.991102714926
 20
1087.686965697526
 30
0.0
 10
2048.101564666684
 20
1087.302689273776
 30
0.0
 10
2048.401460211302
 20
1086.541190451592
 30
0.0
 10
2048.590676886295
 20
1086.165247892235
 30
0.0
 10
2049.267046677837
 20
1085.06332705638
 30
0.0
 10
2049.864345502012
 20
1084.358398869114
 30
0.0
 10
2050.787916682196
 20
1083.513122044106
 30
0.0
 10
2050.981611304802
 20
1083.3458878216
 30
0.0
 10
2051.387256784633
 20
1083.01512157854
 30
0.0
 10
2051.599779282324
 20
1082.851194301519
 30
0.0
 10
2052.259337490253
 20
1082.36936497272
 30
0.0
 10
2052.728980063339
 20
1082.060645459907
 30
0.0
 10
2054.22522327139
 20
1081.17094492965
 30
0.0
 10
2055.338403231759
 20
1080.626114540207
 30
0.0
 10
2057.185376178143
 20
1079.882858905885
 30
0.0
 10
2057.831948472713
 20
1079.647314473898
 30
0.0
 10
2059.165649239397
 20
1079.208743613107
 30
0.0
 10
2059.8550037624
 20
1079.004729990636
 30
0.0
 10
2061.278970428126
 20
1078.627415569459
 30
0.0
 10
2062.01061873275
 20
1078.455047132352
 30
0.0
 10
2063.497159455718
 20
1078.145621368126
 30
0.0
 10
2064.254193898547
 20
1078.007865665645
 30
0.0
 10
2065.794828388608
 20
1077.765082759932
 30
0.0
 10
2066.578519393428
 20
1077.660167615332
 30
0.0
 10
2067.774366778554
 20
1077.527817651231
 30
0.0
 10
2068.176372843943
 20
1077.487877768074
 30
0.0
 10
2068.987271654874
 20
1077.416482307359
 30
0.0
 10
2069.397117935537
 20
1077.384971627492
 30
0.0
 10
2071.449125834767
 20
1077.24999660909
 30
0.0
 10
2073.100915841477
 20
1077.213166468236
 30
0.0
 10
2074.762731244616
 20
1077.246380277925
 30
0.0
  0
LWPOLYLINE
  5
32B
330
303
100
AcDbEntity
  8
0
  6
Continuous
 62
     7
370
    15
100
AcDbPolyline
 90
       29
 70
   128
 43
0.0
 10
2074.762731244616
 20
1077.246380277925
 10
2076.161497246646
 20
1077.309322559613
 10
2077.555004187257
 20
1077.405342522065
 10
2078.939636074641
 20
1077.534191004414
 10
2080.311799946743
 20
1077.695533659522
 10
2081.667935194592
 20
1077.888951821575
 10
2083.004522801666
 20
1078.11394359247
 10
2084.318094475348
 20
1078.369925144186
 10
2085.605241646746
 20
1078.65623223375
 10
2086.862624315542
 20
1078.97212192687
 10
2088.086979716912
 20
1079.316774525771
 10
2089.275130788029
 20
1079.68929569621
 10
2090.42399441218
 20
1080.088718788175
 10
2091.530589419106
 20
1080.514007344233
 10
2092.59204432079
 20
1080.964057789016
 10
2093.605604762651
 20
1081.437702292877
 10
2094.568640670775
 20
1081.933711802269
 10
2095.47865307666
 20
1082.450799229006
 10
2096.333280601752
 20
1082.987622790107
 10
2097.130305584957
 20
1083.542789489568
 10
2097.867659837215
 20
1084.114858733031
 10
2098.543430008219
 20
1084.702346065962
 10
2099.155862551336
 20
1085.30372702564
 10
2099.703368273867
 20
1085.917441096966
 10
2100.184526460816
 20
1086.54189576182
 10
2100.598088561488
 20
1087.175470631463
 10
2100.94298142933
 20
1087.816521651268
 10
2101.21831010663
 20
1088.463385366845
 10
2101.423360146827
 20
1089.114383240525
  0
SPLINE
  5
32C
330
303
100
AcDbEntity
  8
0
  6
Continuous
 62
     7
370
    15
100
AcDbSpline
210
0.0
220
0.0
230
1.0
 70
     8
 71
     3
 72
    40
 73
    36
 74
     0
 42
0.0000000001
 43
0.0000000001
 40
0.0
 40
0.0
 40
0.0
 40
0.0
 40
0.03125
 40
0.03125
 40
0.0625
 40
0.0625
 40
0.1250000000000001
 40
0.1250000000000001
 40
0.1875000000000002
 40
0.1875000000000002
 40
0.2187500000000001
 40
0.2187500000000001
 40
0.25
 40
0.25
 40
0.3749999999999999
 40
0.3749999999999999
 40
0.40625
 40
0.40625
 40
0.4375
 40
0.4375
 40
0.5
 40
0.5
 40
0.5625
 40
0.5625
 40
0.625
 40
0.625
 40
0.75
 40
0.75
 40
0.8125
 40
0.8125
 40
0.875
 40
0.875
 40
0.9375
 40
0.9375
 40
1.0
 40
1.0
 40
1.0
 40
1.0
 10
2101.423360146827
 20
1089.114383240525
 30
0.0
 10
2101.47245401077
 20
1089.348417323965
 30
0.0
 10
2101.507871625203
 20
1089.583199874835
 30
0.0
 10
2101.551033060903
 20
1090.050034735329
 30
0.0
 10
2101.558901953997
 20
1090.282543694588
 30
0.0
 10
2101.542104370835
 20
1090.977393605526
 30
0.0
 10
2101.47714998755
 20
1091.437065299442
 30
0.0
 10
2101.24070026263
 20
1092.349349862406
 30
0.0
 10
2101.069210396306
 20
1092.801963094217
 30
0.0
 10
2100.729942225631
 20
1093.475447856596
 30
0.0
 10
2100.602683580488
 20
1093.699710600572
 30
0.0
 10
2100.323022777345
 20
1094.141861794704
 30
0.0
 10
2100.17062258103
 20
1094.359949710216
 30
0.0
 10
2099.347017408404
 20
1095.435746749126
 30
0.0
 10
2098.492686364013
 20
1096.249929117552
 30
0.0
 10
2097.172798024166
 20
1097.20776591168
 30
0.0
 10
2096.895417607393
 20
1097.396782543945
 30
0.0
 10
2096.318093133784
 20
1097.766454708781
 30
0.0
 10
2096.019290710675
 20
1097.946442737071
 30
0.0
 10
2095.093129416245
 20
1098.472181331417
 30
0.0
 10
2094.436105550622
 20
1098.803748972844
 30
0.0
 10
2093.044166122677
 20
1099.429643996956
 30
0.0
 10
2092.309251582079
 20
1099.723971868131
 30
0.0
 10
2090.759920325495
 20
1100.274617376943
 30
0.0
 10
2089.941460312932
 20
1100.531740754056
 30
0.0
 10
2087.423757484876
 20
1101.226943083759
 30
0.0
 10
2085.648395386245
 20
1101.596596454643
 30
0.0
 10
2082.838082853568
 20
1102.008486466903
 30
0.0
 10
2081.870955208384
 20
1102.121830701058
 30
0.0
 10
2079.931571988012
 20
1102.294005285877
 30
0.0
 10
2078.955269712511
 20
1102.353721292878
 30
0.0
 10
2076.989710634112
 20
1102.421475068301
 30
0.0
 10
2076.000453721583
 20
1102.429512399385
 30
0.0
 10
2074.008753403408
 20
1102.39298346464
 30
0.0
 10
2073.002921487576
 20
1102.348064055849
 30
0.0
 10
2072.003729118765
 20
1102.276529155479
 30
0.0
  0
LINE
  5
32D
330
303
100
AcDbEntity
  8
0
  6
Continuous
 62
     7
370
    15
100
AcDbLine
 10
2091.857655017727
 20
1071.292954105378
 30
0.0
 11
2063.456575878183
 21
1069.267312305674
 31
0.0
  0
LINE
  5
32E
330
303
100
AcDbEntity
  8
0
  6
Continuous
 62
     7
370
    15
100
AcDbLine
 10
2049.968527705669
 20
1087.8414316826
 30
0.0
 11
2049.545809859901
 21
1088.302774148344
 31
0.0
  0
SPLINE
  5
32F
330
303
100
AcDbEntity
  8
0
  6
Continuous
 62
     7
370
    15
100
AcDbSpline
210
0.0
220
0.0
230
1.0
 70
     8
 71
     3
 72
    14
 73
    10
 74
     0
 42
0.0000000001
 43
0.0000000001
 40
0.0
 40
0.0
 40
0.0
 40
0.0
 40
0.1166481859158398
 40
0.2737947590056001
 40
0.4318521091785133
 40
0.5902004489657467
 40
0.7453998338106498
 40
0.8996890154884786
 40
1.0
 40
1.0
 40
1.0
 40
1.0
 10
2086.766792735744
 20
1078.964595615835
 30
0.0
 10
2087.271831139017
 20
1079.110779809133
 30
0.0
 10
2088.457249213261
 20
1079.453901012951
 30
0.0
 10
2090.202104357163
 20
1080.088666777011
 30
0.0
 10
2092.001038326667
 20
1080.849030514857
 30
0.0
 10
2093.650692962294
 20
1081.676960629702
 30
0.0
 10
2095.130164367585
 20
1082.559969981214
 30
0.0
 10
2096.308134298879
 20
1083.3748991345
 30
0.0
 10
2096.920544123539
 20
1083.912194046429
 30
0.0
 10
2097.161830032168
 20
1084.123885116373
 30
0.0
  0
SPLINE
  5
330
330
303
100
AcDbEntity
  8
0
  6
Continuous
 62
     7
370
    15
100
AcDbSpline
210
0.0
220
0.0
230
1.0
 70
     8
 71
     3
 72
    20
 73
    16
 74
     0
 42
0.0000000001
 43
0.0000000001
 40
0.0
 40
0.0
 40
0.0
 40
0.0
 40
0.0746895033876227
 40
0.1543451917422203
 40
0.2350764000681246
 40
0.3165905037886094
 40
0.3985770338016362
 40
0.4807145020834998
 40
0.5612185662875061
 40
0.6412505018854498
 40
0.7205167610742647
 40
0.7987406178892477
 40
0.8783963062438443
 40
0.9591275145697485
 40
1.0
 40
1.0
 40
1.0
 40
1.0
 10
2087.463159045781
 20
1096.55372053324
 30
0.0
 10
2086.804002620555
 20
1096.704184052401
 30
0.0
 10
2085.441861754365
 20
1097.015115571045
 30
0.0
 10
2083.259869912666
 20
1097.378887487069
 30
0.0
 10
2080.954003486915
 20
1097.667051664976
 30
0.0
 10
2078.571850612493
 20
1097.85848069858
 30
0.0
 10
2076.14271823901
 20
1097.951144630238
 30
0.0
 10
2073.70870128827
 20
1097.942196088507
 30
0.0
 10
2071.298776251905
 20
1097.83403113103
 30
0.0
 10
2068.939736466817
 20
1097.631156389165
 30
0.0
 10
2066.643198500569
 20
1097.337073470234
 30
0.0
 10
2064.404696594688
 20
1096.954839010261
 30
0.0
 10
2062.231086771728
 20
1096.479255109737
 30
0.0
 10
2060.454818691422
 20
1096.020261375842
 30
0.0
 10
2059.454914943673
 20
1095.690043646714
 30
0.0
 10
2059.118835091991
 20
1095.579053438228
 30
0.0
  0
SPLINE
  5
331
330
303
100
AcDbEntity
  8
0
  6
Continuous
 62
     7
370
    15
100
AcDbSpline
210
0.0
220
0.0
230
1.0
 70
     8
 71
     3
 72
    20
 73
    16
 74
     0
 42
0.0000000001
 43
0.0000000001
 40
0.0
 40
0.0
 40
0.0
 40
0.0
 40
0.0746895033876229
 40
0.1543451917422186
 40
0.2350764000681229
 40
0.3165905037886078
 40
0.3985770338016346
 40
0.4807145020834952
 40
0.5612185662875017
 40
0.6412505018854452
 40
0.7205167610742603
 40
0.7987406178892385
 40
0.8783963062438358
 40
0.95912751456974
 40
0.9999999999999998
 40
0.9999999999999998
 40
0.9999999999999998
 40
0.9999999999999998
 10
2087.425124315042
 20
1097.880107806776
 30
0.0
 10
2086.765967889816
 20
1098.030571325937
 30
0.0
 10
2085.403827023626
 20
1098.341502844582
 30
0.0
 10
2083.221835181927
 20
1098.705274760606
 30
0.0
 10
2080.915968756176
 20
1098.993438938513
 30
0.0
 10
2078.533815881754
 20
1099.184867972117
 30
0.0
 10
2076.104683508272
 20
1099.277531903774
 30
0.0
 10
2073.670666557531
 20
1099.268583362044
 30
0.0
 10
2071.260741521166
 20
1099.160418404567
 30
0.0
 10
2068.901701736078
 20
1098.957543662701
 30
0.0
 10
2066.60516376983
 20
1098.663460743771
 30
0.0
 10
2064.366661863949
 20
1098.281226283797
 30
0.0
 10
2062.193052040989
 20
1097.805642383273
 30
0.0
 10
2060.416783960683
 20
1097.346648649378
 30
0.0
 10
2059.416880212934
 20
1097.01643092025
 30
0.0
 10
2059.080800361252
 20
1096.905440711765
 30
0.0
  0
SPLINE
  5
332
330
303
100
AcDbEntity
  8
0
  6
Continuous
 62
     7
370
    15
100
AcDbSpline
210
0.0
220
0.0
230
1.0
 70
     8
 71
     3
 72
    20
 73
    16
 74
     0
 42
0.0000000001
 43
0.0000000001
 40
0.0
 40
0.0
 40
0.0
 40
0.0
 40
0.0746895033876218
 40
0.1543451917422196
 40
0.2350764000681242
 40
0.3165905037886094
 40
0.3985770338016365
 40
0.4807145020834955
 40
0.561218566287502
 40
0.6412505018854459
 40
0.720516761074261
 40
0.7987406178892416
 40
0.8783963062438376
 40
0.9591275145697421
 40
1.0
 40
1.0
 40
1.0
 40
1.0
 10
2087.387089584304
 20
1099.206495080313
 30
0.0
 10
2086.727933159076
 20
1099.356958599474
 30
0.0
 10
2085.365792292888
 20
1099.667890118119
 30
0.0
 10
2083.183800451188
 20
1100.031662034142
 30
0.0
 10
2080.877934025438
 20
1100.31982621205
 30
0.0
 10
2078.495781151015
 20
1100.511255245654
 30
0.0
 10
2076.066648777532
 20
1100.603919177311
 30
0.0
 10
2073.632631826792
 20
1100.59497063558
 30
0.0
 10
2071.222706790427
 20
1100.486805678104
 30
0.0
 10
2068.863667005339
 20
1100.283930936238
 30
0.0
 10
2066.567129039091
 20
1099.989848017307
 30
0.0
 10
2064.32862713321
 20
1099.607613557334
 30
0.0
 10
2062.155017310249
 20
1099.13202965681
 30
0.0
 10
2060.378749229944
 20
1098.673035922915
 30
0.0
 10
2059.378845482195
 20
1098.342818193787
 30
0.0
 10
2059.042765630514
 20
1098.231827985301
 30
0.0
  0
SPLINE
  5
333
330
303
100
AcDbEntity
  8
0
  6
Continuous
 62
     7
370
    15
100
AcDbSpline
210
0.0
220
0.0
230
1.0
 70
     8
 71
     3
 72
    20
 73
    16
 74
     0
 42
0.0000000001
 43
0.0000000001
 40
0.0
 40
0.0
 40
0.0
 40
0.0
 40
0.074689503387624
 40
0.1543451917422205
 40
0.2350764000681237
 40
0.3165905037886074
 40
0.3985770338016332
 40
0.4807145020835025
 40
0.5612185662875057
 40
0.6412505018854464
 40
0.7205167610742585
 40
0.7987406178892491
 40
0.878396306243842
 40
0.9591275145697453
 40
0.9999999999999998
 40
0.9999999999999998
 40
0.9999999999999998
 40
0.9999999999999998
 10
2087.349054853564
 20
1100.53288235385
 30
0.0
 10
2086.689898428338
 20
1100.683345873011
 30
0.0
 10
2085.327757562149
 20
1100.994277391656
 30
0.0
 10
2083.14576572045
 20
1101.358049307679
 30
0.0
 10
2080.839899294699
 20
1101.646213485586
 30
0.0
 10
2078.457746420276
 20
1101.83764251919
 30
0.0
 10
2076.028614046794
 20
1101.930306450848
 30
0.0
 10
2073.594597096053
 20
1101.921357909117
 30
0.0
 10
2071.184672059689
 20
1101.81319295164
 30
0.0
 10
2068.825632274601
 20
1101.610318209775
 30
0.0
 10
2066.529094308353
 20
1101.316235290844
 30
0.0
 10
2064.290592402472
 20
1100.934000830871
 30
0.0
 10
2062.116982579511
 20
1100.458416930347
 30
0.0
 10
2060.340714499206
 20
1099.999423196452
 30
0.0
 10
2059.340810751457
 20
1099.669205467324
 30
0.0
 10
2059.004730899775
 20
1099.558215258838
 30
0.0
  0
LWPOLYLINE
  5
334
330
303
100
AcDbEntity
  8
0
  6
Continuous
 62
     7
370
    15
100
AcDbPolyline
 90
       37
 70
   128
 43
0.0
 10
2050.495461076282
 20
1089.376978039169
 10
2051.193536995063
 20
1089.927937473202
 10
2051.975071503711
 20
1090.482668850923
 10
2052.813859015786
 20
1091.019544406636
 10
2053.707750592847
 20
1091.537188687674
 10
2054.654456122146
 20
1092.034275511089
 10
2055.651550183804
 20
1092.509531361278
 10
2056.696478264633
 20
1092.961738652676
 10
2057.786563302697
 20
1093.38973884916
 10
2058.919012545823
 20
1093.792435432169
 10
2060.090924706527
 20
1094.168796709938
 10
2061.299297394979
 20
1094.51785846065
 10
2062.541034811009
 20
1094.838726402736
 10
2063.81295567541
 20
1095.130578485977
 10
2065.11180138025
 20
1095.39266699757
 10
2066.434244337282
 20
1095.624320477737
 10
2067.776896503088
 20
1095.824945439973
 10
2069.136318059105
 20
1095.994027891534
 10
2070.509026224295
 20
1096.131134650268
 10
2071.891504177884
 20
1096.235914454406
 10
2073.28021006931
 20
1096.308098862484
 10
2074.671586092296
 20
1096.347502941072
 10
2076.062067599799
 20
1096.354025738575
 10
2077.448092236487
 20
1096.327650543859
 10
2078.826109065345
 20
1096.268444929065
 10
2080.192587665025
 20
1096.176560576498
 10
2081.544027174639
 20
1096.052232890017
 10
2082.876965262819
 20
1095.895780391943
 10
2084.187986998058
 20
1095.707603907017
 10
2085.473733597634
 20
1095.488185535505
 10
2086.730911032656
 20
1095.238087418076
 10
2087.956298467239
 20
1094.957950295624
 10
2089.146756510145
 20
1094.648491867711
 10
2090.299235257774
 20
1094.310504953857
 10
2091.410782107886
 20
1093.944855462368
 10
2092.47854932405
 20
1093.552480171911
 10
2092.700075425856
 20
1093.465542164798
  0
ARC
  5
335
330
303
100
AcDbEntity
  8
0
  6
Continuous
 62
     7
370
    15
100
AcDbCircle
 10
2049.69525555935
 20
1087.607190743019
 30
0.0
 40
0.3599256641723747
100
AcDbArc
 50
6.736442158315497
 51
40.60222183289575
  0
SPLINE
  5
336
330
303
100
AcDbEntity
  8
0
  6
Continuous
 62
     7
370
    15
100
AcDbSpline
210
0.0
220
0.0
230
1.0
 70
     8
 71
     3
 72
    31
 73
    27
 74
     0
 42
0.0000000001
 43
0.0000000001
 40
0.0
 40
0.0
 40
0.0
 40
0.0
 40
0.0268607422950848
 40
0.0710854616501458
 40
0.1153916003944193
 40
0.1588166561193256
 40
0.2019870354489771
 40
0.2447443925108978
 40
0.2869394557212388
 40
0.3299068693435623
 40
0.3734544411556655
 40
0.4174243235328022
 40
0.4616490428878629
 40
0.505955181632137
 40
0.5493802373570432
 40
0.5925506166866947
 40
0.6353079737486152
 40
0.6775030369589566
 40
0.7204704505812797
 40
0.7640180223933827
 40
0.8079879047705194
 40
0.8522126241255801
 40
0.8965187628698547
 40
0.9399438185947611
 40
0.9831141979244126
 40
1.0
 40
1.0
 40
1.0
 40
1.0
 10
2096.074043646862
 20
1091.611818400888
 30
0.0
 10
2095.807869713566
 20
1091.793355466766
 30
0.0
 10
2095.103455192189
 20
1092.273783222363
 30
0.0
 10
2093.772006016312
 20
1092.985183489517
 30
0.0
 10
2092.123663056092
 20
1093.739201649609
 30
0.0
 10
2090.343461169645
 20
1094.411083877873
 30
0.0
 10
2088.46523317273
 20
1094.998829472814
 30
0.0
 10
2086.499383854278
 20
1095.500976901236
 30
0.0
 10
2084.447599171113
 20
1095.91968421423
 30
0.0
 10
2082.308048325236
 20
1096.255293274124
 30
0.0
 10
2080.078005521341
 20
1096.505524333478
 30
0.0
 10
2077.781510432039
 20
1096.664073818223
 30
0.0
 10
2075.444329366046
 20
1096.726977129575
 30
0.0
 10
2073.107705781404
 20
1096.692578181844
 30
0.0
 10
2070.799121716256
 20
1096.56333664297
 30
0.0
 10
2068.544272745409
 20
1096.343805375316
 30
0.0
 10
2066.353583994966
 20
1096.037804115014
 30
0.0
 10
2064.224613284405
 20
1095.646916327585
 30
0.0
 10
2062.156690468116
 20
1095.171131653732
 30
0.0
 10
2060.152504075305
 20
1094.608236938735
 30
0.0
 10
2058.238543334395
 20
1093.96187657434
 30
0.0
 10
2056.440688347226
 20
1093.237595245369
 30
0.0
 10
2054.787707230588
 20
1092.448747619772
 30
0.0
 10
2053.309794260671
 20
1091.602511985061
 30
0.0
 10
2052.236154431788
 20
1090.899077240772
 30
0.0
 10
2051.715485952041
 20
1090.463761574171
 30
0.0
 10
2051.569091281413
 20
1090.34136527766
 30
0.0
  0
SPLINE
  5
337
330
303
100
AcDbEntity
  8
0
  6
Continuous
 62
     7
370
    15
100
AcDbSpline
210
0.0
220
0.0
230
1.0
 70
     8
 71
     3
 72
    27
 73
    23
 74
     0
 42
0.0000000001
 43
0.0000000001
 40
0.0
 40
0.0
 40
0.0
 40
0.0
 40
0.0246974259253049
 40
0.0778531814175931
 40
0.1306971925500908
 40
0.1830356312587914
 40
0.2346857771376844
 40
0.2872813419450828
 40
0.3405870669668558
 40
0.3944097340342288
 40
0.4485443420274751
 40
0.5027786138915679
 40
0.5559343693838562
 40
0.608778380516354
 40
0.6611168192250546
 40
0.7127669651039465
 40
0.7653625299113461
 40
0.8186682549331189
 40
0.8724909220004917
 40
0.926625529993738
 40
0.980859801857831
 40
1.0
 40
1.0
 40
1.0
 40
1.0
 10
2092.807601496353
 20
1094.713112437386
 30
0.0
 10
2092.558001254373
 20
1094.82948618153
 30
0.0
 10
2091.771191609533
 20
1095.196328711698
 30
0.0
 10
2090.300704209743
 20
1095.735100067613
 30
0.0
 10
2088.428447670188
 20
1096.325843997739
 30
0.0
 10
2086.461020845148
 20
1096.827199342492
 30
0.0
 10
2084.409653653046
 20
1097.246116282626
 30
0.0
 10
2082.269989153826
 20
1097.581668275023
 30
0.0
 10
2080.039977443556
 20
1097.831914950215
 30
0.0
 10
2077.743473910475
 20
1097.990460182445
 30
0.0
 10
2075.406295077738
 20
1098.053364663292
 30
0.0
 10
2073.069671082721
 20
1098.018965330479
 30
0.0
 10
2070.761086438974
 20
1097.889724155343
 30
0.0
 10
2068.506240149555
 20
1097.670191824223
 30
0.0
 10
2066.315541393088
 20
1097.364194401954
 30
0.0
 10
2064.186607740853
 20
1096.973292434141
 30
0.0
 10
2062.118543896949
 20
1096.497561715275
 30
0.0
 10
2060.114894512258
 20
1095.934461551794
 30
0.0
 10
2058.198901572367
 20
1095.288878665087
 30
0.0
 10
2056.408692386231
 20
1094.561672209502
 30
0.0
 10
2055.081372712014
 20
1093.947533774488
 30
0.0
 10
2054.409542247307
 20
1093.558392688982
 30
0.0
 10
2054.234290988779
 20
1093.456882756697
 30
0.0
  0
SPLINE
  5
338
330
303
100
AcDbEntity
  8
0
  6
Continuous
 62
     7
370
    15
100
AcDbSpline
210
0.0
220
0.0
230
1.0
 70
     8
 71
     3
 72
    30
 73
    26
 74
     0
 42
0.0000000001
 43
0.0000000001
 40
0.0
 40
0.0
 40
0.0
 40
0.0
 40
0.0152201556235388
 40
0.0612971887822372
 40
0.1074590515102609
 40
0.1527029278250083
 40
0.1976814608457795
 40
0.2422296725213156
 40
0.2861920391576507
 40
0.3309591054294406
 40
0.3763306293108569
 40
0.4221421518670436
 40
0.4682191850257418
 40
0.5143810477537654
 40
0.5596249240685137
 40
0.6046034570892848
 40
0.6491516687648208
 40
0.6931140354011556
 40
0.7378811016729445
 40
0.7832526255543608
 40
0.8290641481105474
 40
0.8751411812692458
 40
0.9213030439972705
 40
0.9665469203120192
 40
1.0
 40
1.0
 40
1.0
 40
1.0
 10
2095.626188515493
 20
1094.510268510895
 30
0.0
 10
2095.480439169458
 20
1094.608637511742
 30
0.0
 10
2094.893452715459
 20
1095.004805814117
 30
0.0
 10
2093.693147640007
 20
1095.636942262014
 30
0.0
 10
2092.048325089593
 20
1096.392242620739
 30
0.0
 10
2090.267198573072
 20
1097.063788081558
 30
0.0
 10
2088.389214803612
 20
1097.651622628671
 30
0.0
 10
2086.423300966482
 20
1098.153746558204
 30
0.0
 10
2084.371533358415
 20
1098.572460090225
 30
0.0
 10
2082.231977863931
 20
1098.908067457165
 30
0.0
 10
2080.001936332818
 20
1099.158298979496
 30
0.0
 10
2077.705440894089
 20
1099.316848339223
 30
0.0
 10
2075.368259934801
 20
1099.37975168097
 30
0.0
 10
2073.031636276237
 20
1099.345352737806
 30
0.0
 10
2070.723052396238
 20
1099.216111151284
 30
0.0
 10
2068.468202765932
 20
1098.99658006733
 30
0.0
 10
2066.277516434709
 20
1098.690578129313
 30
0.0
 10
2064.14853677523
 20
1098.299692849827
 30
0.0
 10
2062.0806480116
 20
1097.823898632407
 30
0.0
 10
2060.076331953118
 20
1097.261040257468
 30
0.0
 10
2058.162861905582
 20
1096.614542371489
 30
0.0
 10
2056.363160768592
 20
1095.890778443942
 30
0.0
 10
2054.717043668078
 20
1095.100007111138
 30
0.0
 10
2053.341060244532
 20
1094.331720575597
 30
0.0
 10
2052.593767769395
 20
1093.808810165704
 30
0.0
 10
2052.276103198988
 20
1093.58652757054
 30
0.0
  0
SPLINE
  5
339
330
303
100
AcDbEntity
  8
0
  6
Continuous
 62
     7
370
    15
100
AcDbSpline
210
0.0
220
0.0
230
1.0
 70
     8
 71
     3
 72
    31
 73
    27
 74
     0
 42
0.0000000001
 43
0.0000000001
 40
0.0
 40
0.0
 40
0.0
 40
0.0
 40
0.0279426338404785
 40
0.0721992141831997
 40
0.1165372725724273
 40
0.1599936131801961
 40
0.2031950939151978
 40
0.2459832548272199
 40
0.2882087167920999
 40
0.3312070855963938
 40
0.3747860305561028
 40
0.4187875903276986
 40
0.4630441706704198
 40
0.5073822290596473
 40
0.5508385696674142
 40
0.5940400504024136
 40
0.6368282113144338
 40
0.6790536732793197
 40
0.7220520420836118
 40
0.7656309870433208
 40
0.8096325468149167
 40
0.853889127157638
 40
0.898227185546866
 40
0.9416835261546351
 40
0.9848850068896371
 40
1.0
 40
1.0
 40
1.0
 40
1.0
 10
2095.992157749742
 20
1095.569690407431
 30
0.0
 10
2095.715593246731
 20
1095.758451140011
 30
0.0
 10
2095.00099562138
 20
1096.246178125187
 30
0.0
 10
2093.658094916186
 20
1096.964415637851
 30
0.0
 10
2092.009508218408
 20
1097.718345024199
 30
0.0
 10
2090.229370349246
 20
1098.390250568747
 30
0.0
 10
2088.351125443106
 20
1098.977990005035
 30
0.0
 10
2086.38528059164
 20
1099.480139060416
 30
0.0
 10
2084.333494726273
 20
1099.898845942831
 30
0.0
 10
2082.193944202235
 20
1100.23445511994
 30
0.0
 10
2079.963901310259
 20
1100.484686147229
 30
0.0
 10
2077.667406244995
 20
1100.643235640673
 30
0.0
 10
2075.3302251722
 20
1100.706138949752
 30
0.0
 10
2072.993601590495
 20
1100.671740002335
 30
0.0
 10
2070.685017520499
 20
1100.542498464456
 30
0.0
 10
2068.430168565949
 20
1100.32296719257
 30
0.0
 10
2066.239479755983
 20
1100.016965947981
 30
0.0
 10
2064.110509265538
 20
1099.62607810238
 30
0.0
 10
2062.042585611675
 20
1099.150293649897
 30
0.0
 10
2060.038402408174
 20
1098.587398091963
 30
0.0
 10
2058.124429597969
 20
1097.941040917491
 30
0.0
 10
2056.326620019458
 20
1097.216747586983
 30
0.0
 10
2054.673470072662
 20
1096.427944583304
 30
0.0
 10
2053.196174093164
 20
1095.58154587763
 30
0.0
 10
2052.139232944895
 20
1094.890694772221
 30
0.0
 10
2051.633311023626
 20
1094.468478691632
 30
0.0
 10
2051.502181587119
 20
1094.359044894827
 30
0.0
  0
SPLINE
  5
33A
330
303
100
AcDbEntity
  8
0
  6
Continuous
 62
     7
370
    15
100
AcDbSpline
210
0.0
220
0.0
230
1.0
 70
     8
 71
     3
 72
    27
 73
    23
 74
     0
 42
0.0000000001
 43
0.0000000001
 40
0.0
 40
0.0
 40
0.0
 40
0.0
 40
0.0264600709966018
 40
0.0797325329781298
 40
0.1326925661473668
 40
0.1851459168797499
 40
0.2369094635962073
 40
0.2896205049622873
 40
0.3430432657399463
 40
0.3969841035389143
 40
0.4512375671478284
 40
0.5055909134452909
 40
0.558863375426816
 40
0.6118234085960502
 40
0.6642767593284304
 40
0.7160403060448923
 40
0.76875134741097
 40
0.8221741081886261
 40
0.8761149459875914
 40
0.9303684095965026
 40
0.9847217558939732
 40
0.9999999999999998
 40
0.9999999999999998
 40
0.9999999999999998
 40
0.9999999999999998
 10
2092.745800459578
 20
1098.668495933609
 30
0.0
 10
2092.479112357444
 20
1098.792974286257
 30
0.0
 10
2091.675497057206
 20
1099.168066792956
 30
0.0
 10
2090.186860466368
 20
1099.714396049441
 30
0.0
 10
2088.314274578298
 20
1100.304970327065
 30
0.0
 10
2086.346934758741
 20
1100.806370489676
 30
0.0
 10
2084.295544540372
 20
1101.225275568658
 30
0.0
 10
2082.15588630976
 20
1101.560830789986
 30
0.0
 10
2079.925872883816
 20
1101.811076581889
 30
0.0
 10
2077.629369819254
 20
1101.969622053639
 30
0.0
 10
2075.292190852758
 20
1102.032526472439
 30
0.0
 10
2072.955566919737
 20
1101.998127146075
 30
0.0
 10
2070.646982164053
 20
1101.868886006415
 30
0.0
 10
2068.392136256585
 20
1101.649353528992
 30
0.0
 10
2066.201436103498
 20
1101.343356648875
 30
0.0
 10
2064.072507616275
 20
1100.952452674144
 30
0.0
 10
2062.004424118659
 20
1100.47672959245
 30
0.0
 10
2060.000849571262
 20
1099.913600348051
 30
0.0
 10
2058.084573424869
 20
1099.268127512191
 30
0.0
 10
2056.295429754708
 20
1098.540507009125
 30
0.0
 10
2055.005628141342
 20
1097.946308730565
 30
0.0
 10
2054.368301477502
 20
1097.578279108923
 30
0.0
 10
2054.228462184891
 20
1097.497527737812
 30
0.0
  0
SPLINE
  5
33B
330
303
100
AcDbEntity
  8
0
  6
Continuous
 62
     7
370
    15
100
AcDbSpline
210
0.0
220
0.0
230
1.0
 70
     8
 71
     3
 72
    10
 73
     6
 74
     0
 42
0.0000000001
 43
0.0000000001
 40
0.0
 40
0.0
 40
0.0
 40
0.0
 40
0.0934041667801002
 40
0.3921591043588739
 40
1.0
 40
1.0
 40
1.0
 40
1.0
 10
2048.809849163323
 20
1085.83063756305
 30
0.0
 10
2048.837962971151
 20
1085.888442549196
 30
0.0
 10
2048.955999308052
 20
1086.131137841878
 30
0.0
 10
2049.328565849283
 20
1086.743668376086
 30
0.0
 10
2049.762056210943
 20
1087.285878144709
 30
0.0
 10
2050.052696383805
 20
1087.64941088919
 30
0.0
  0
LINE
  5
33C
330
303
100
AcDbEntity
  8
0
  6
Continuous
 62
     7
370
    15
100
AcDbLine
 10
2056.369538933171
 20
1070.581934755767
 30
0.0
 11
2039.592074548801
 21
1080.98805037547
 31
0.0
  0
LINE
  5
33D
330
303
100
AcDbEntity
  8
0
  6
Continuous
 62
     7
370
    15
100
AcDbLine
 10
2109.759836150201
 20
1085.99260496275
 30
0.0
 11
2098.136221395027
 21
1073.560847543341
 31
0.0
  0
SPLINE
  5
33E
330
303
100
AcDbEntity
  8
0
  6
Continuous
 62
     8
370
    15
100
AcDbSpline
210
0.0
220
0.0
230
1.0
 70
     8
 71
     3
 72
     9
 73
     5
 74
     0
 42
0.0000000001
 43
0.0000000001
 40
0.0
 40
0.0
 40
0.0
 40
0.0
 40
0.5549906591851915
 40
1.0
 40
1.0
 40
1.0
 40
1.0
 10
2049.968527705669
 20
1087.8414316826
 30
0.0
 10
2049.689435681707
 20
1087.510864564837
 30
0.0
 10
2049.186558706493
 20
1086.915238111864
 30
0.0
 10
2048.853773588896
 20
1086.298625002183
 30
0.0
 10
2048.705681103081
 20
1086.024226408706
 30
0.0
  0
SPLINE
  5
33F
330
303
100
AcDbEntity
  8
0
  6
Continuous
 62
     8
370
    15
100
AcDbSpline
210
0.0
220
0.0
230
1.0
 70
     8
 71
     3
 72
    39
 73
    35
 74
     0
 42
0.0000000001
 43
0.0000000001
 40
0.0
 40
0.0
 40
0.0
 40
0.0
 40
0.027188583625772
 40
0.0582897569618036
 40
0.0899602150014508
 40
0.1220582965713914
 40
0.1544676552008851
 40
0.1870648493048602
 40
0.2197220560873303
 40
0.2517298334356923
 40
0.2835498936720142
 40
0.3150655230755329
 40
0.3461666964115643
 40
0.3778371544512116
 40
0.4099352360211519
 40
0.4423445946506456
 40
0.4749417887546204
 40
0.507598995537091
 40
0.539606772885453
 40
0.5714268331217748
 40
0.6029424625252934
 40
0.6340436358613251
 40
0.665714093900972
 40
0.6978121754709123
 40
0.730221534100406
 40
0.7628187282043808
 40
0.7954759349868518
 40
0.8274837123352137
 40
0.8593037725715356
 40
0.8908194019750544
 40
0.9219205753110857
 40
0.9535910333507331
 40
0.9856891149206735
 40
1.0
 40
1.0
 40
1.0
 40
1.0
 10
2099.956891405581
 20
1087.852519261869
 30
0.0
 10
2099.797899109811
 20
1088.149393968616
 30
0.0
 10
2099.457034634973
 20
1088.785865317862
 30
0.0
 10
2098.70544801854
 20
1089.731241820564
 30
0.0
 10
2097.75118924822
 20
1090.69211012084
 30
0.0
 10
2096.600246894604
 20
1091.61915436924
 30
0.0
 10
2095.266327127716
 20
1092.500542007571
 30
0.0
 10
2093.759239898391
 20
1093.324537031369
 30
0.0
 10
2092.105254898097
 20
1094.076255382632
 30
0.0
 10
2090.326797230731
 20
1094.748363041681
 30
0.0
 10
2088.448438329214
 20
1095.335687783753
 30
0.0
 10
2086.483016524437
 20
1095.837604716806
 30
0.0
 10
2084.43157316881
 20
1096.256050684425
 30
0.0
 10
2082.292448357665
 20
1096.591425954984
 30
0.0
 10
2080.062872405236
 20
1096.841435751749
 30
0.0
 10
2077.766893471626
 20
1096.99978402199
 30
0.0
 10
2075.430269436014
 20
1097.062507843561
 30
0.0
 10
2073.094234991899
 20
1097.027954756869
 30
0.0
 10
2070.786264424382
 20
1096.898585602258
 30
0.0
 10
2068.532045153103
 20
1096.678953963932
 30
0.0
 10
2066.341999796657
 20
1096.37287898815
 30
0.0
 10
2064.213681288625
 20
1095.981944744625
 30
0.0
 10
2062.146438362653
 20
1095.50613637223
 30
0.0
 10
2060.142889697869
 20
1094.943259415474
 30
0.0
 10
2058.229782894321
 20
1094.296891892681
 30
0.0
 10
2056.431985905824
 20
1093.572832422013
 30
0.0
 10
2054.782005641311
 20
1092.783487014514
 30
0.0
 10
2053.296223323456
 20
1091.939520287306
 30
0.0
 10
2051.986151694288
 20
1091.052432896028
 30
0.0
 10
2050.854718373921
 20
1090.128169916192
 30
0.0
 10
2049.893607464223
 20
1089.167156742951
 30
0.0
 10
2049.117920629031
 20
1088.168561316134
 30
0.0
 10
2048.599600026079
 20
1087.329777218491
 30
0.0
 10
2048.416845526412
 20
1086.822243710229
 30
0.0
 10
2048.36049049782
 20
1086.665738314072
 30
0.0
  0
SPLINE
  5
340
330
303
100
AcDbEntity
  8
0
  6
Continuous
 62
     8
370
    15
100
AcDbSpline
210
0.0
220
0.0
230
1.0
 70
     8
 71
     3
 72
    41
 73
    37
 74
     0
 42
0.0000000001
 43
0.0000000001
 40
0.0
 40
0.0
 40
0.0
 40
0.0
 40
0.0142655400616985
 40
0.0446350833567015
 40
0.0746052425453522
 40
0.1051239840336709
 40
0.1360547982479034
 40
0.1672855697314579
 40
0.1986973459318009
 40
0.2301669524110328
 40
0.261010746374715
 40
0.2916736496797236
 40
0.3220431929747265
 40
0.3520133521633771
 40
0.3825320936516952
 40
0.4134629078659279
 40
0.4446936793494824
 40
0.4761054555498255
 40
0.5075750620290583
 40
0.5384188559927406
 40
0.5690817592977492
 40
0.599451302592752
 40
0.6294214617814021
 40
0.6599402032697208
 40
0.6908710174839534
 40
0.7221017889675079
 40
0.7535135651678512
 40
0.7849831716470839
 40
0.8158269656107654
 40
0.8464898689157733
 40
0.8768594122107757
 40
0.906829571399427
 40
0.9373483128877456
 40
0.9682791271019782
 40
0.9995098985855326
 40
1.0
 40
1.0
 40
1.0
 40
1.0
 10
2100.187076269869
 20
1088.54435629177
 30
0.0
 10
2100.128834504689
 20
1088.70939966888
 30
0.0
 10
2099.946603335562
 20
1089.225799669364
 30
0.0
 10
2099.437079116607
 20
1090.064487179323
 30
0.0
 10
2098.672324466754
 20
1091.058252301403
 30
0.0
 10
2097.71180901197
 20
1092.018326655565
 30
0.0
 10
2096.562578576371
 20
1092.945588138934
 30
0.0
 10
2095.22819318205
 20
1093.826916691164
 30
0.0
 10
2093.721231890009
 20
1094.650927695857
 30
0.0
 10
2092.067213158442
 20
1095.402641766768
 30
0.0
 10
2090.288764350542
 20
1096.074750550044
 30
0.0
 10
2088.410403108927
 20
1096.662074995168
 30
0.0
 10
2086.444981922344
 20
1097.163992006667
 30
0.0
 10
2084.39353840311
 20
1097.582437953525
 30
0.0
 10
2082.254413636503
 20
1097.917813229736
 30
0.0
 10
2080.024837671891
 20
1098.167823024955
 30
0.0
 10
2077.728858741586
 20
1098.326171295617
 30
0.0
 10
2075.392234705116
 20
1098.388895117072
 30
0.0
 10
2073.056200261096
 20
1098.354342030418
 30
0.0
 10
2070.748229694043
 20
1098.224972875774
 30
0.0
 10
2068.494010420842
 20
1098.005341237542
 30
0.0
 10
2066.303965071522
 20
1097.69926626142
 30
0.0
 10
2064.175646537112
 20
1097.308332019151
 30
0.0
 10
2062.108403711514
 20
1096.832523641978
 30
0.0
 10
2060.104854664527
 20
1096.269646703413
 30
0.0
 10
2058.19174930735
 20
1095.623279111782
 30
0.0
 10
2056.393946877129
 20
1094.899219900105
 30
0.0
 10
2054.743986845035
 20
1094.109873529671
 30
0.0
 10
2053.258130587733
 20
1093.265910321513
 30
0.0
 10
2051.948331300894
 20
1092.378809968462
 30
0.0
 10
2050.815896444123
 20
1091.454594655427
 30
0.0
 10
2049.858490964718
 20
1090.493405127129
 30
0.0
 10
2049.068703949136
 20
1089.495480779761
 30
0.0
 10
2048.483929565955
 20
1088.459714811776
 30
0.0
 10
2048.160332351912
 20
1087.750263213681
 30
0.0
 10
2048.091421947818
 20
1087.388238123961
 30
0.0
 10
2048.090357251817
 20
1087.382644677364
 30
0.0
  0
SPLINE
  5
341
330
303
100
AcDbEntity
  8
0
  6
Continuous
 62
     8
370
    15
100
AcDbSpline
210
0.0
220
0.0
230
1.0
 70
     8
 71
     3
 72
    41
 73
    37
 74
     0
 42
0.0000000001
 43
0.0000000001
 40
0.0
 40
0.0
 40
0.0
 40
0.0
 40
0.0283998693387924
 40
0.0577612705746581
 40
0.0867365455892649
 40
0.1162421922612591
 40
0.1461462325648725
 40
0.176340272808644
 40
0.2067093091682143
 40
0.2371342560828281
 40
0.266954164844941
 40
0.2965991877631173
 40
0.3259605889989831
 40
0.3549358640135906
 40
0.3844415106855848
 40
0.4143455509891982
 40
0.4445395912329696
 40
0.47490862759254
 40
0.5053335745071537
 40
0.5351534832692673
 40
0.5647985061874435
 40
0.5941599074233091
 40
0.6231351824379165
 40
0.65264082910991
 40
0.6825448694135234
 40
0.7127389096572947
 40
0.7431079460168652
 40
0.7735328929314797
 40
0.8033528016935932
 40
0.8329978246117695
 40
0.8623592258476355
 40
0.8913345008622425
 40
0.9208401475342357
 40
0.9507441878378484
 40
0.9809382280816191
 40
1.0
 40
1.0
 40
1.0
 40
1.0
 10
2100.347368136712
 20
1089.347905175236
 30
0.0
 10
2100.231738296467
 20
1089.688268399179
 30
0.0
 10
2099.996563746568
 20
1090.380518495026
 30
0.0
 10
2099.403110452753
 20
1091.391359531438
 30
0.0
 10
2098.633184742555
 20
1092.38450775009
 30
0.0
 10
2097.674077013997
 20
1093.344750044882
 30
0.0
 10
2096.524461404445
 20
1094.271965577301
 30
0.0
 10
2095.190180774229
 20
1095.153306627807
 30
0.0
 10
2093.683191146858
 20
1095.977314252118
 30
0.0
 10
2092.029180004678
 20
1096.729029228436
 30
0.0
 10
2090.250729203438
 20
1097.401137773909
 30
0.0
 10
2088.372368488335
 20
1097.988462281845
 30
0.0
 10
2086.40694716266
 20
1098.490379276751
 30
0.0
 10
2084.355503680238
 20
1098.908825228001
 30
0.0
 10
2082.21637890361
 20
1099.244200503015
 30
0.0
 10
2079.986802941739
 20
1099.494210298561
 30
0.0
 10
2077.690824010689
 20
1099.652558569135
 30
0.0
 10
2075.354199974412
 20
1099.715282390614
 30
0.0
 10
2073.018165530373
 20
1099.680729303953
 30
0.0
 10
2070.71019496321
 20
1099.551360149313
 30
0.0
 10
2068.455975690463
 20
1099.331728511068
 30
0.0
 10
2066.26593033946
 20
1099.025653534996
 30
0.0
 10
2064.137611811279
 20
1098.634719292541
 30
0.0
 10
2062.070368961978
 20
1098.158910916075
 30
0.0
 10
2060.066820005246
 20
1097.596033974822
 30
0.0
 10
2058.153714306517
 20
1096.949666393359
 30
0.0
 10
2056.355913161329
 20
1096.225607143427
 30
0.0
 10
2054.705948351464
 20
1095.43626091523
 30
0.0
 10
2053.220109554539
 20
1094.592297187266
 30
0.0
 10
2051.910245955618
 20
1093.705198748824
 30
0.0
 10
2050.778047605934
 20
1092.78097639483
 30
0.0
 10
2049.819767110383
 20
1091.819812916293
 30
0.0
 10
2049.033309771664
 20
1090.82178944243
 30
0.0
 10
2048.435856637627
 20
1089.786400928526
 30
0.0
 10
2048.054939115835
 20
1088.857987276426
 30
0.0
 10
2047.96207196564
 20
1088.276006879296
 30
0.0
 10
2047.926132807234
 20
1088.050783152306
 30
0.0
  0
SPLINE
  5
342
330
303
100
AcDbEntity
  8
0
  6
Continuous
 62
     8
370
    15
100
AcDbSpline
210
0.0
220
0.0
230
1.0
 70
     8
 71
     3
 72
    43
 73
    39
 74
     0
 42
0.0000000001
 43
0.0000000001
 40
0.0
 40
0.0
 40
0.0
 40
0.0
 40
0.0114771961709362
 40
0.0403890277255543
 40
0.0690242522312647
 40
0.0972829003282243
 40
0.1260588027400828
 40
0.1552232455690494
 40
0.1846705159554053
 40
0.2142884543907169
 40
0.2439609205811301
 40
0.2730433126401255
 40
0.3019551441947435
 40
0.3305903687004537
 40
0.3588490167974132
 40
0.3876249192092718
 40
0.4167893620382383
 40
0.4462366324245943
 40
0.475854570859906
 40
0.5055270370503192
 40
0.5346094291093131
 40
0.5635212606639297
 40
0.5921564851696384
 40
0.6204151332666021
 40
0.6491910356784594
 40
0.6783554785074261
 40
0.7078027488937822
 40
0.7374206873290939
 40
0.7670931535195073
 40
0.7961755455785027
 40
0.8250873771331209
 40
0.8537226016388311
 40
0.8819812497357908
 40
0.9107571521476494
 40
0.9399215949766158
 40
0.9693688653629719
 40
0.9989868037982834
 40
1.0
 40
1.0
 40
1.0
 40
1.0
 10
2100.407615098288
 20
1090.201783850993
 30
0.0
 10
2100.383741294246
 20
1090.344682347264
 30
0.0
 10
2100.299727766989
 20
1090.847551797422
 30
0.0
 10
2099.9496922706
 20
1091.691015596323
 30
0.0
 10
2099.369636648205
 20
1092.718109175255
 30
0.0
 10
2098.593910535499
 20
1093.710796545957
 30
0.0
 10
2097.636381860015
 20
1094.671164298141
 30
0.0
 10
2096.486334199042
 20
1095.598345503631
 30
0.0
 10
2095.152171083212
 20
1096.479695890775
 30
0.0
 10
2093.64514967197
 20
1097.303700989825
 30
0.0
 10
2091.99114704284
 20
1098.055416642514
 30
0.0
 10
2090.21269400566
 20
1098.727525010338
 30
0.0
 10
2088.334333881148
 20
1099.314849565198
 30
0.0
 10
2086.368912399455
 20
1099.816766547708
 30
0.0
 10
2084.317468958322
 20
1100.235212502238
 30
0.0
 10
2082.178344170454
 20
1100.57058777636
 30
0.0
 10
2079.948768211658
 20
1100.820597572151
 30
0.0
 10
2077.652789279775
 20
1100.978945842657
 30
0.0
 10
2075.316165243715
 20
1101.041669664154
 30
0.0
 10
2072.980130799647
 20
1101.007116577488
 30
0.0
 10
2070.672160232384
 20
1100.877747422851
 30
0.0
 10
2068.417940960058
 20
1100.658115784604
 30
0.0
 10
2066.227895607493
 20
1100.352040808534
 30
0.0
 10
2064.099577085096
 20
1099.961106566071
 30
0.0
 10
2062.032334213784
 20
1099.485298189637
 30
0.0
 10
2060.028785340866
 20
1098.922421248262
 30
0.0
 10
2058.11567932496
 20
1098.276053667261
 30
0.0
 10
2056.317879373094
 20
1097.551994415593
 30
0.0
 10
2054.667910126437
 20
1096.762648193847
 30
0.0
 10
2053.182087543786
 20
1095.91868444231
 30
0.0
 10
2051.872164222576
 20
1095.031586090695
 30
0.0
 10
2050.740185501059
 20
1094.107363417396
 30
0.0
 10
2049.781092437078
 20
1093.146201120204
 30
0.0
 10
2048.997727144499
 20
1092.148173150998
 30
0.0
 10
2048.388500110394
 20
1091.112801754474
 30
0.0
 10
2047.997727921973
 20
1090.051707884996
 30
0.0
 10
2047.809475756071
 20
1089.322784812519
 30
0.0
 10
2047.811352461526
 20
1088.952235078496
 30
0.0
 10
2047.811414537935
 20
1088.93997828202
 30
0.0
  0
SPLINE
  5
343
330
303
100
AcDbEntity
  8
0
  6
Continuous
 62
     8
370
    15
100
AcDbSpline
210
0.0
220
0.0
230
1.0
 70
     8
 71
     3
 72
    32
 73
    28
 74
     0
 42
0.0000000001
 43
0.0000000001
 40
0.0
 40
0.0
 40
0.0
 40
0.0
 40
0.0136719656240502
 40
0.0529424053663953
 40
0.0929316623831909
 40
0.1334608657196105
 40
0.1743831084722055
 40
0.2155425249674884
 40
0.2567777175194906
 40
0.297192896653232
 40
0.337371051496689
 40
0.3771648114317566
 40
0.4164352511741076
 40
0.4564245081909015
 40
0.4969537115273212
 40
0.5378759542799165
 40
0.5790353707751996
 40
0.6202705633272019
 40
0.6606857424609454
 40
0.7008638973044047
 40
0.7406576572394745
 40
0.7799280969818198
 40
0.8230943536439619
 40
0.8668757905186087
 40
0.9110864898486974
 40
0.9555291104452374
 40
0.9999999999999998
 40
0.9999999999999998
 40
0.9999999999999998
 40
0.9999999999999998
 10
2097.161830032168
 20
1084.123885116373
 30
0.0
 10
2097.293559007132
 20
1084.233340829743
 30
0.0
 10
2097.803657480374
 20
1084.657189814322
 30
0.0
 10
2098.524785204304
 20
1085.44086435976
 30
0.0
 10
2099.31771093613
 20
1086.471594438896
 30
0.0
 10
2099.91830994856
 20
1087.544190560737
 30
0.0
 10
2100.32779422975
 20
1088.643131330707
 30
0.0
 10
2100.532679840873
 20
1089.757014491733
 30
0.0
 10
2100.529323621724
 20
1090.865876410927
 30
0.0
 10
2100.321851807631
 20
1091.956853744203
 30
0.0
 10
2099.919361169489
 20
1093.017919530379
 30
0.0
 10
2099.329577519135
 20
1094.044360678178
 30
0.0
 10
2098.55642595464
 20
1095.037220716393
 30
0.0
 10
2097.598196406524
 20
1095.997541463471
 30
0.0
 10
2096.448340511074
 20
1096.924735528502
 30
0.0
 10
2095.11412524879
 20
1097.806082424488
 30
0.0
 10
2093.607117895705
 20
1098.630088443216
 30
0.0
 10
2091.953111671417
 20
1099.381803940904
 30
0.0
 10
2090.174658956374
 20
1100.053912015622
 30
0.0
 10
2088.296301038647
 20
1100.641237877666
 30
0.0
 10
2086.330870546764
 20
1101.143149993008
 30
0.0
 10
2084.224717804563
 20
1101.572780886428
 30
0.0
 10
2081.967473799825
 20
1101.922462633215
 30
0.0
 10
2079.552262129576
 20
1102.181204763693
 30
0.0
 10
2077.064733792368
 20
1102.330241854105
 30
0.0
 10
2074.535917685486
 20
1102.375356372879
 30
0.0
 10
2072.847970861658
 20
1102.309478542961
 30
0.0
 10
2072.003729118765
 20
1102.276529155479
 30
0.0
  0
ENDBLK
  5
305
330
303
100
AcDbEntity
  8
0
100
AcDbBlockEnd
  0
ENDSEC
  0
SECTION
  2
ENTITIES
  0
LINE
  5
269
330
1F
100
AcDbEntity
  8
0
  6
Continuous
 62
     7
370
    15
100
AcDbLine
 10
1909.558543304104
 20
1050.640050257612
 30
0.0
 11
1911.558543304104
 21
1050.640050257612
 31
0.0
  0
INSERT
  5
2D6
330
1F
100
AcDbEntity
  8
0
100
AcDbBlockReference
  2
1
 10
0.0
 20
0.0
 30
0.0
  0
INSERT
  5
2EB
330
1F
100
AcDbEntity
  8
0
100
AcDbBlockReference
  2
2
 10
0.0
 20
0.0
 30
0.0
  0
INSERT
  5
302
330
1F
100
AcDbEntity
  8
0
100
AcDbBlockReference
  2
3
 10
0.0
 20
0.0
 30
0.0
  0
INSERT
  5
344
330
1F
100
AcDbEntity
  8
0
100
AcDbBlockReference
  2
4
 10
0.0
 20
0.0
 30
0.0
  0
ENDSEC
  0
SECTION
  2
OBJECTS
  0
DICTIONARY
  5
C
330
0
100
AcDbDictionary
281
     1
  3
ACAD_COLOR
350
6B
  3
ACAD_GROUP
350
D
  3
ACAD_LAYOUT
350
1A
  3
ACAD_MATERIAL
350
6A
  3
ACAD_MLEADERSTYLE
350
12D
  3
ACAD_MLINESTYLE
350
17
  3
ACAD_PLOTSETTINGS
350
19
  3
ACAD_PLOTSTYLENAME
350
E
  3
ACAD_SCALELIST
350
10C
  3
ACAD_TABLESTYLE
350
7E
  3
ACAD_VISUALSTYLE
350
EF
  3
ACDB_RECOMPOSE_DATA
350
15D
  3
AcDbVariableDictionary
350
5E
  3
DWGPROPS
350
354
  0
DICTIONARY
  5
13C
330
10
100
AcDbDictionary
280
     1
281
     1
  3
ADSK_XREC_LAYER_RECONCILED
360
345
  0
DICTIONARY
  5
6B
102
{ACAD_REACTORS
330
C
102
}
330
C
100
AcDbDictionary
281
     1
  0
DICTIONARY
  5
D
102
{ACAD_REACTORS
330
C
102
}
330
C
100
AcDbDictionary
281
     1
  0
DICTIONARY
  5
1A
102
{ACAD_REACTORS
330
C
102
}
330
C
100
AcDbDictionary
281
     1
  3
Layout1
350
D3
  3
Layout2
350
D7
  3
Model
350
22
  0
DICTIONARY
  5
6A
102
{ACAD_REACTORS
330
C
102
}
330
C
100
AcDbDictionary
281
     1
  3
ByBlock
350
ED
  3
ByLayer
350
EC
  3
Global
350
EE
  0
DICTIONARY
  5
12D
102
{ACAD_REACTORS
330
C
102
}
330
C
100
AcDbDictionary
281
     1
  3
Annotative
350
13B
  3
Standard
350
12E
  0
DICTIONARY
  5
17
102
{ACAD_REACTORS
330
C
102
}
330
C
100
AcDbDictionary
281
     1
  3
Standard
350
18
  0
DICTIONARY
  5
19
102
{ACAD_REACTORS
330
C
102
}
330
C
100
AcDbDictionary
281
     1
  0
ACDBDICTIONARYWDFLT
  5
E
102
{ACAD_REACTORS
330
C
102
}
330
C
100
AcDbDictionary
281
     1
  3
Normal
350
F
100
AcDbDictionaryWithDefault
340
F
  0
DICTIONARY
  5
10C
102
{ACAD_REACTORS
330
C
102
}
330
C
100
AcDbDictionary
281
     1
  3
A0
350
10D
  3
A1
350
188
  3
A2
350
189
  3
A3
350
18A
  3
A4
350
18B
  3
A5
350
18C
  3
A6
350
18D
  3
A7
350
18E
  3
A8
350
18F
  3
A9
350
190
  3
B0
350
191
  3
B1
350
192
  3
B2
350
193
  3
B3
350
194
  3
B4
350
195
  3
B5
350
196
  3
B6
350
197
  3
B7
350
198
  3
B8
350
199
  3
B9
350
19A
  3
C0
350
19B
  3
C1
350
19C
  3
C2
350
19D
  3
C3
350
19E
  3
C4
350
19F
  3
C5
350
1A0
  3
C6
350
1A1
  3
C7
350
1A2
  3
C8
350
1A3
  3
C9
350
1A4
  3
D0
350
1A5
  3
D1
350
1A6
  3
D2
350
1A7
  0
DICTIONARY
  5
7E
102
{ACAD_REACTORS
330
C
102
}
330
C
100
AcDbDictionary
281
     1
  3
Standard
350
7F
  0
DICTIONARY
  5
EF
102
{ACAD_REACTORS
330
C
102
}
330
C
100
AcDbDictionary
281
     1
  3
2dWireframe
350
F5
  3
3D Hidden
350
F7
  3
3dWireframe
350
F6
  3
Basic
350
F4
  3
Brighten
350
FB
  3
ColorChange
350
FF
  3
Conceptual
350
F8
  3
Dim
350
FA
  3
Facepattern
350
FE
  3
Flat
350
F0
  3
FlatWithEdges
350
F1
  3
Gouraud
350
F2
  3
GouraudWithEdges
350
F3
  3
Linepattern
350
FD
  3
Realistic
350
F9
  3
Thicken
350
FC
  0
XRECORD
  5
15D
102
{ACAD_REACTORS
330
C
102
}
330
C
100
AcDbXrecord
280
     1
 90
        1
330
7F
  0
DICTIONARY
  5
5E
102
{ACAD_REACTORS
330
C
102
}
330
C
100
AcDbDictionary
281
     1
  3
CANNOSCALE
350
146
  3
CMLEADERSTYLE
350
145
  3
CTABLESTYLE
350
84
  3
DIMASSOC
350
5F
  3
HIDETEXT
350
63
  3
INDEXCTL
350
350
  3
LIGHTINGUNITS
350
34E
  3
MSLTSCALE
350
34D
  3
PSOLHEIGHT
350
352
  3
PSOLWIDTH
350
351
  3
SORTENTS
350
34F
  0
XRECORD
  5
354
102
{ACAD_REACTORS
330
C
102
}
330
C
100
AcDbXrecord
280
     1
  1
DWGPROPS COOKIE
  2

  3

  4

  6

  7

  8
orhan kara
  9

300
=
301
=
302
=
303
=
304
=
305
=
306
=
307
=
308
=
309
=
 40
0.0011036111111111
 41
2458557.442514097
 42
2459067.666680151
  1

 90
        0
  0
XRECORD
  5
345
102
{ACAD_REACTORS
330
13C
102
}
330
13C
100
AcDbXrecord
280
     1
290
     1
  0
LAYOUT
  5
D3
102
{ACAD_XDICTIONARY
360
358
102
}
102
{ACAD_REACTORS
330
1A
102
}
330
1A
100
AcDbPlotSettings
  1

  2
C:\Documents and Settings\basas\Application Data\Autodesk\AutoCAD 2005\R16.1\enu\plotters\Default Windows System Printer.pc3
  4

  6

 40
0.0
 41
0.0
 42
0.0
 43
0.0
 44
0.0
 45
0.0
 46
0.0
 47
0.0
 48
0.0
 49
0.0
140
0.0
141
0.0
142
1.0
143
1.0
 70
   688
 72
     0
 73
     0
 74
     5
  7

 75
    16
147
1.0
148
0.0
149
0.0
100
AcDbLayout
  1
Layout1
 70
     1
 71
     1
 10
0.0
 20
0.0
 11
12.0
 21
9.0
 12
0.0
 22
0.0
 32
0.0
 14
0.0
 24
0.0
 34
0.0
 15
0.0
 25
0.0
 35
0.0
146
0.0
 13
0.0
 23
0.0
 33
0.0
 16
1.0
 26
0.0
 36
0.0
 17
0.0
 27
1.0
 37
0.0
 76
     0
330
D2
  0
LAYOUT
  5
D7
102
{ACAD_XDICTIONARY
360
35A
102
}
102
{ACAD_REACTORS
330
1A
102
}
330
1A
100
AcDbPlotSettings
  1

  2
C:\Documents and Settings\basas\Application Data\Autodesk\AutoCAD 2005\R16.1\enu\plotters\Default Windows System Printer.pc3
  4

  6

 40
0.0
 41
0.0
 42
0.0
 43
0.0
 44
0.0
 45
0.0
 46
0.0
 47
0.0
 48
0.0
 49
0.0
140
0.0
141
0.0
142
1.0
143
1.0
 70
   688
 72
     0
 73
     0
 74
     5
  7

 75
    16
147
1.0
148
0.0
149
0.0
100
AcDbLayout
  1
Layout2
 70
     1
 71
     2
 10
0.0
 20
0.0
 11
12.0
 21
9.0
 12
0.0
 22
0.0
 32
0.0
 14
0.0
 24
0.0
 34
0.0
 15
0.0
 25
0.0
 35
0.0
146
0.0
 13
0.0
 23
0.0
 33
0.0
 16
1.0
 26
0.0
 36
0.0
 17
0.0
 27
1.0
 37
0.0
 76
     0
330
D6
  0
LAYOUT
  5
22
102
{ACAD_XDICTIONARY
360
355
102
}
102
{ACAD_REACTORS
330
1A
102
}
330
1A
100
AcDbPlotSettings
  1

  2
none_device
  4
ISO_A4_(210.00_x_297.00_MM)
  6

 40
7.5
 41
20.0
 42
7.5
 43
20.0
 44
210.0
 45
297.0
 46
11.54999923706054
 47
-13.65000009536743
 48
0.0
 49
0.0
140
0.0
141
0.0
142
1.0
143
8.704084754739808
 70
 11952
 72
     1
 73
     0
 74
     0
  7

 75
     0
147
0.1148885871608098
148
0.0
149
0.0
100
AcDbLayout
  1
Model
 70
     1
 71
     0
 10
0.0
 20
0.0
 11
12.0
 21
9.0
 12
0.0
 22
0.0
 32
0.0
 14
0.0
 24
0.0
 34
0.0
 15
0.0
 25
0.0
 35
0.0
146
0.0
 13
0.0
 23
0.0
 33
0.0
 16
1.0
 26
0.0
 36
0.0
 17
0.0
 27
1.0
 37
0.0
 76
     0
330
1F
331
EA
1001
ACAD_PSEXT
1000
None
1000
None
1000
Not applicable
1000
The layout will not be plotted unless a new plotter configuration name is selected.
1070
     0
  0
MATERIAL
  5
ED
102
{ACAD_XDICTIONARY
360
35E
102
}
102
{ACAD_REACTORS
330
6A
102
}
330
6A
100
AcDbMaterial
  1
ByBlock
  0
MATERIAL
  5
EC
102
{ACAD_XDICTIONARY
360
35C
102
}
102
{ACAD_REACTORS
330
6A
102
}
330
6A
100
AcDbMaterial
  1
ByLayer
  0
MATERIAL
  5
EE
102
{ACAD_XDICTIONARY
360
173
102
}
102
{ACAD_REACTORS
330
6A
102
}
330
6A
100
AcDbMaterial
  1
Global
 43
0.0007999999797903
 43
0.0
 43
0.0
 43
0.0
 43
0.0
 43
0.0007999999797903
 43
0.0
 43
0.0
 43
0.0
 43
0.0
 43
1.0
 43
0.0
 43
0.0
 43
0.0
 43
0.0
 43
1.0
 49
0.0007999999797903
 49
0.0
 49
0.0
 49
0.0
 49
0.0
 49
0.0007999999797903
 49
0.0
 49
0.0
 49
0.0
 49
0.0
 49
1.0
 49
0.0
 49
0.0
 49
0.0
 49
0.0
 49
1.0
142
0.0007999999797903
142
0.0
142
0.0
142
0.0
142
0.0
142
0.0007999999797903
142
0.0
142
0.0
142
0.0
142
0.0
142
1.0
142
0.0
142
0.0
142
0.0
142
0.0
142
1.0
144
0.0007999999797903
144
0.0
144
0.0
144
0.0
144
0.0
144
0.0007999999797903
144
0.0
144
0.0
144
0.0
144
0.0
144
1.0
144
0.0
144
0.0
144
0.0
144
0.0
144
1.0
1001
ACAD
1070
    -1
1070
     3
1070
     0
1000

1071
        0
1070
     0
  0
MLEADERSTYLE
  5
13B
102
{ACAD_REACTORS
330
12D
102
}
330
12D
100
AcDbMLeaderStyle
170
     2
171
     1
172
     0
 90
        2
 40
0.0
 41
0.0
173
     1
 91
-1056964608
340
14
 92
       -2
290
     1
 42
2.0
291
     1
 43
8.0
  3
Standard
 44
4.0
300

342
11
174
     1
178
     1
175
     1
176
     0
 93
-1056964608
 45
4.0
292
     0
297
     0
 46
4.0
 94
-1056964608
 47
1.0
 49
1.0
140
1.0
293
     1
141
0.0
294
     1
177
     0
142
1.0
295
     0
296
     1
143
3.75
1001
ACAD_MLEADERVER
1070
     2
  0
MLEADERSTYLE
  5
12E
102
{ACAD_REACTORS
330
12D
102
}
330
12D
100
AcDbMLeaderStyle
170
     2
171
     1
172
     0
 90
        2
 40
0.0
 41
0.0
173
     1
 91
-1056964608
340
14
 92
       -2
290
     1
 42
2.0
291
     1
 43
8.0
  3
Standard
 44
4.0
300

342
11
174
     1
178
     1
175
     1
176
     0
 93
-1056964608
 45
4.0
292
     0
297
     0
 46
4.0
 94
-1056964608
 47
1.0
 49
1.0
140
1.0
293
     1
141
0.0
294
     1
177
     0
142
1.0
295
     0
296
     0
143
3.75
1001
ACAD_MLEADERVER
1070
     2
  0
MLINESTYLE
  5
18
102
{ACAD_REACTORS
330
17
102
}
330
17
100
AcDbMlineStyle
  2
STANDARD
 70
     0
  3

 62
   256
 51
90.0
 52
90.0
 71
     2
 49
0.5
 62
   256
  6
BYLAYER
 49
-0.5
 62
   256
  6
BYLAYER
  0
ACDBPLACEHOLDER
  5
F
102
{ACAD_REACTORS
330
E
102
}
330
E
  0
SCALE
  5
10D
102
{ACAD_REACTORS
330
10C
102
}
330
10C
100
AcDbScale
 70
     0
300
1:1
140
1.0
141
1.0
290
     1
  0
SCALE
  5
188
102
{ACAD_REACTORS
330
10C
102
}
330
10C
100
AcDbScale
 70
     0
300
1:2
140
1.0
141
2.0
290
     0
  0
SCALE
  5
189
102
{ACAD_REACTORS
330
10C
102
}
330
10C
100
AcDbScale
 70
     0
300
1:4
140
1.0
141
4.0
290
     0
  0
SCALE
  5
18A
102
{ACAD_REACTORS
330
10C
102
}
330
10C
100
AcDbScale
 70
     0
300
1:5
140
1.0
141
5.0
290
     0
  0
SCALE
  5
18B
102
{ACAD_REACTORS
330
10C
102
}
330
10C
100
AcDbScale
 70
     0
300
1:8
140
1.0
141
8.0
290
     0
  0
SCALE
  5
18C
102
{ACAD_REACTORS
330
10C
102
}
330
10C
100
AcDbScale
 70
     0
300
1:10
140
1.0
141
10.0
290
     0
  0
SCALE
  5
18D
102
{ACAD_REACTORS
330
10C
102
}
330
10C
100
AcDbScale
 70
     0
300
1:16
140
1.0
141
16.0
290
     0
  0
SCALE
  5
18E
102
{ACAD_REACTORS
330
10C
102
}
330
10C
100
AcDbScale
 70
     0
300
1:20
140
1.0
141
20.0
290
     0
  0
SCALE
  5
18F
102
{ACAD_REACTORS
330
10C
102
}
330
10C
100
AcDbScale
 70
     0
300
1:30
140
1.0
141
30.0
290
     0
  0
SCALE
  5
190
102
{ACAD_REACTORS
330
10C
102
}
330
10C
100
AcDbScale
 70
     0
300
1:40
140
1.0
141
40.0
290
     0
  0
SCALE
  5
191
102
{ACAD_REACTORS
330
10C
102
}
330
10C
100
AcDbScale
 70
     0
300
1:50
140
1.0
141
50.0
290
     0
  0
SCALE
  5
192
102
{ACAD_REACTORS
330
10C
102
}
330
10C
100
AcDbScale
 70
     0
300
1:100
140
1.0
141
100.0
290
     0
  0
SCALE
  5
193
102
{ACAD_REACTORS
330
10C
102
}
330
10C
100
AcDbScale
 70
     0
300
2:1
140
2.0
141
1.0
290
     0
  0
SCALE
  5
194
102
{ACAD_REACTORS
330
10C
102
}
330
10C
100
AcDbScale
 70
     0
300
4:1
140
4.0
141
1.0
290
     0
  0
SCALE
  5
195
102
{ACAD_REACTORS
330
10C
102
}
330
10C
100
AcDbScale
 70
     0
300
8:1
140
8.0
141
1.0
290
     0
  0
SCALE
  5
196
102
{ACAD_REACTORS
330
10C
102
}
330
10C
100
AcDbScale
 70
     0
300
10:1
140
10.0
141
1.0
290
     0
  0
SCALE
  5
197
102
{ACAD_REACTORS
330
10C
102
}
330
10C
100
AcDbScale
 70
     0
300
100:1
140
100.0
141
1.0
290
     0
  0
SCALE
  5
198
102
{ACAD_REACTORS
330
10C
102
}
330
10C
100
AcDbScale
 70
     0
300
1/128" = 1'-0"
140
0.0078125
141
12.0
290
     0
  0
SCALE
  5
199
102
{ACAD_REACTORS
330
10C
102
}
330
10C
100
AcDbScale
 70
     0
300
1/64" = 1'-0"
140
0.015625
141
12.0
290
     0
  0
SCALE
  5
19A
102
{ACAD_REACTORS
330
10C
102
}
330
10C
100
AcDbScale
 70
     0
300
1/32" = 1'-0"
140
0.03125
141
12.0
290
     0
  0
SCALE
  5
19B
102
{ACAD_REACTORS
330
10C
102
}
330
10C
100
AcDbScale
 70
     0
300
1/16" = 1'-0"
140
0.0625
141
12.0
290
     0
  0
SCALE
  5
19C
102
{ACAD_REACTORS
330
10C
102
}
330
10C
100
AcDbScale
 70
     0
300
3/32" = 1'-0"
140
0.09375
141
12.0
290
     0
  0
SCALE
  5
19D
102
{ACAD_REACTORS
330
10C
102
}
330
10C
100
AcDbScale
 70
     0
300
1/8" = 1'-0"
140
0.125
141
12.0
290
     0
  0
SCALE
  5
19E
102
{ACAD_REACTORS
330
10C
102
}
330
10C
100
AcDbScale
 70
     0
300
3/16" = 1'-0"
140
0.1875
141
12.0
290
     0
  0
SCALE
  5
19F
102
{ACAD_REACTORS
330
10C
102
}
330
10C
100
AcDbScale
 70
     0
300
1/4" = 1'-0"
140
0.25
141
12.0
290
     0
  0
SCALE
  5
1A0
102
{ACAD_REACTORS
330
10C
102
}
330
10C
100
AcDbScale
 70
     0
300
3/8" = 1'-0"
140
0.375
141
12.0
290
     0
  0
SCALE
  5
1A1
102
{ACAD_REACTORS
330
10C
102
}
330
10C
100
AcDbScale
 70
     0
300
1/2" = 1'-0"
140
0.5
141
12.0
290
     0
  0
SCALE
  5
1A2
102
{ACAD_REACTORS
330
10C
102
}
330
10C
100
AcDbScale
 70
     0
300
3/4" = 1'-0"
140
0.75
141
12.0
290
     0
  0
SCALE
  5
1A3
102
{ACAD_REACTORS
330
10C
102
}
330
10C
100
AcDbScale
 70
     0
300
1" = 1'-0"
140
1.0
141
12.0
290
     0
  0
SCALE
  5
1A4
102
{ACAD_REACTORS
330
10C
102
}
330
10C
100
AcDbScale
 70
     0
300
1-1/2" = 1'-0"
140
1.5
141
12.0
290
     0
  0
SCALE
  5
1A5
102
{ACAD_REACTORS
330
10C
102
}
330
10C
100
AcDbScale
 70
     0
300
3" = 1'-0"
140
3.0
141
12.0
290
     0
  0
SCALE
  5
1A6
102
{ACAD_REACTORS
330
10C
102
}
330
10C
100
AcDbScale
 70
     0
300
6" = 1'-0"
140
6.0
141
12.0
290
     0
  0
SCALE
  5
1A7
102
{ACAD_REACTORS
330
10C
102
}
330
10C
100
AcDbScale
 70
     0
300
1'-0" = 1'-0"
140
12.0
141
12.0
290
     0
  0
TABLESTYLE
  5
7F
102
{ACAD_XDICTIONARY
360
162
102
}
102
{ACAD_REACTORS
330
7E
102
}
330
7E
100
AcDbTableStyle
  3
Standard
 70
     0
 71
     0
 40
1.5
 41
1.5
280
     0
281
     0
  7
Standard
140
4.5
170
     2
 62
     0
 63
     7
283
     0
274
    -2
284
     1
 64
     0
275
    -2
285
     1
 65
     0
276
    -2
286
     1
 66
     0
277
    -2
287
     1
 67
     0
278
    -2
288
     1
 68
     0
279
    -2
289
     1
 69
     0
  7
Standard
140
6.0
170
     5
 62
     0
 63
     7
283
     0
274
    -2
284
     1
 64
     0
275
    -2
285
     1
 65
     0
276
    -2
286
     1
 66
     0
277
    -2
287
     1
 67
     0
278
    -2
288
     1
 68
     0
279
    -2
289
     1
 69
     0
  7
Standard
140
4.5
170
     5
 62
     0
 63
     7
283
     0
274
    -2
284
     1
 64
     0
275
    -2
285
     1
 65
     0
276
    -2
286
     1
 66
     0
277
    -2
287
     1
 67
     0
278
    -2
288
     1
 68
     0
279
    -2
289
     1
 69
     0
  0
VISUALSTYLE
  5
F5
102
{ACAD_REACTORS
330
EF
102
}
330
EF
100
AcDbVisualStyle
  2
2dWireframe
 70
     4
 71
     0
 72
     2
 73
     1
 90
        0
 40
-0.6
 41
-30.0
 62
     5
 63
     7
 74
     1
 91
        4
 64
     7
 65
   257
 75
     1
175
     1
 42
1.0
 92
        0
 66
   257
 43
1.0
 76
     1
 77
     6
 78
     2
 67
     7
 79
     5
170
     0
171
     0
290
     0
174
     0
 93
        1
 44
0.0
173
     0
291
     0
 45
0.0
1001
ACAD
1000
AcDbSavedByObjectVersion
1070
     0
  0
VISUALSTYLE
  5
F7
102
{ACAD_REACTORS
330
EF
102
}
330
EF
100
AcDbVisualStyle
  2
3D Hidden
 70
     6
 71
     1
 72
     2
 73
     2
 90
        0
 40
-0.6
 41
-30.0
 62
     5
 63
     7
 74
     2
 91
        2
 64
     7
 65
   257
 75
     2
175
     1
 42
40.0
 92
        0
 66
   257
 43
1.0
 76
     1
 77
     6
 78
     2
 67
     7
 79
     3
170
     0
171
     0
290
     0
174
     0
 93
        1
 44
0.0
173
     0
291
     0
 45
0.0
1001
ACAD
1000
AcDbSavedByObjectVersion
1070
     0
  0
VISUALSTYLE
  5
F6
102
{ACAD_REACTORS
330
EF
102
}
330
EF
100
AcDbVisualStyle
  2
3dWireframe
 70
     5
 71
     0
 72
     2
 73
     1
 90
        0
 40
-0.6
 41
-30.0
 62
     5
 63
     7
 74
     1
 91
        4
 64
     7
 65
   257
 75
     1
175
     1
 42
1.0
 92
        0
 66
   257
 43
1.0
 76
     1
 77
     6
 78
     2
 67
     7
 79
     5
170
     0
171
     0
290
     0
174
     0
 93
        1
 44
0.0
173
     0
291
     0
 45
0.0
1001
ACAD
1000
AcDbSavedByObjectVersion
1070
     0
  0
VISUALSTYLE
  5
F4
102
{ACAD_REACTORS
330
EF
102
}
330
EF
100
AcDbVisualStyle
  2
Basic
 70
     7
 71
     1
 72
     0
 73
     1
 90
        0
 40
-0.6
 41
-30.0
 62
     5
 63
     7
 74
     0
 91
        4
 64
     7
 65
   257
 75
     1
175
     1
 42
1.0
 92
        8
 66
     7
 43
1.0
 76
     1
 77
     6
 78
     2
 67
     7
 79
     5
170
     0
171
     0
290
     0
174
     0
 93
        1
 44
0.0
173
     0
291
     1
 45
0.0
1001
ACAD
1000
AcDbSavedByObjectVersion
1070
     0
  0
VISUALSTYLE
  5
FB
102
{ACAD_REACTORS
330
EF
102
}
330
EF
100
AcDbVisualStyle
  2
Brighten
 70
    12
 71
     2
 72
     2
 73
     1
 90
        0
 40
-0.6
 41
-30.0
 62
     5
 63
     7
 74
     1
 91
        4
 64
     7
 65
   257
 75
     1
175
     1
 42
1.0
 92
        8
 66
     7
 43
1.0
 76
     1
 77
     6
 78
     2
 67
     7
 79
     5
170
     0
171
     0
290
     0
174
     0
 93
        1
 44
50.0
173
     0
291
     1
 45
0.0
1001
ACAD
1000
AcDbSavedByObjectVersion
1070
     0
  0
VISUALSTYLE
  5
FF
102
{ACAD_REACTORS
330
EF
102
}
330
EF
100
AcDbVisualStyle
  2
ColorChange
 70
    16
 71
     2
 72
     2
 73
     3
 90
        0
 40
-0.6
 41
-30.0
 62
     5
 63
     8
 74
     1
 91
        4
 64
     7
 65
   257
 75
     1
175
     1
 42
1.0
 92
        8
 66
     8
 43
1.0
 76
     1
 77
     6
 78
     2
 67
     7
 79
     5
170
     0
171
     0
290
     0
174
     0
 93
        1
 44
0.0
173
     0
291
     1
 45
0.0
1001
ACAD
1000
AcDbSavedByObjectVersion
1070
     0
  0
VISUALSTYLE
  5
F8
102
{ACAD_REACTORS
330
EF
102
}
330
EF
100
AcDbVisualStyle
  2
Conceptual
 70
     9
 71
     3
 72
     2
 73
     1
 90
        0
 40
-0.6
 41
-30.0
 62
     5
 63
     7
 74
     2
 91
        2
 64
     7
 65
   257
 75
     1
175
     1
 42
40.0
 92
        8
 66
     7
 43
1.0
 76
     1
 77
     6
 78
     2
 67
     7
 79
     3
170
     0
171
     0
290
     0
174
     0
 93
        1
 44
0.0
173
     0
291
     0
 45
0.0
1001
ACAD
1000
AcDbSavedByObjectVersion
1070
     0
  0
VISUALSTYLE
  5
FA
102
{ACAD_REACTORS
330
EF
102
}
330
EF
100
AcDbVisualStyle
  2
Dim
 70
    11
 71
     2
 72
     2
 73
     1
 90
        0
 40
-0.6
 41
-30.0
 62
     5
 63
     7
 74
     1
 91
        4
 64
     7
 65
   257
 75
     1
175
     1
 42
1.0
 92
        8
 66
     7
 43
1.0
 76
     1
 77
     6
 78
     2
 67
     7
 79
     5
170
     0
171
     0
290
     0
174
     0
 93
        1
 44
-50.0
173
     0
291
     1
 45
0.0
1001
ACAD
1000
AcDbSavedByObjectVersion
1070
     0
  0
VISUALSTYLE
  5
FE
102
{ACAD_REACTORS
330
EF
102
}
330
EF
100
AcDbVisualStyle
  2
Facepattern
 70
    15
 71
     2
 72
     2
 73
     1
 90
        0
 40
-0.6
 41
-30.0
 62
     5
 63
     7
 74
     1
 91
        4
 64
     7
 65
   257
 75
     1
175
     1
 42
1.0
 92
        8
 66
     7
 43
1.0
 76
     1
 77
     6
 78
     2
 67
     7
 79
     5
170
     0
171
     0
290
     0
174
     0
 93
        1
 44
0.0
173
     0
291
     1
 45
0.0
1001
ACAD
1000
AcDbSavedByObjectVersion
1070
     0
  0
VISUALSTYLE
  5
F0
102
{ACAD_REACTORS
330
EF
102
}
330
EF
100
AcDbVisualStyle
  2
Flat
 70
     0
 71
     2
 72
     1
 73
     1
 90
        2
 40
-0.6
 41
30.0
 62
     5
 63
     7
 74
     0
 91
        4
 64
     7
 65
   257
 75
     1
175
     1
 42
1.0
 92
        8
 66
     7
 43
1.0
 76
     1
 77
     6
 78
     2
 67
     7
 79
     5
170
     0
171
     0
290
     0
174
     0
 93
        1
 44
0.0
173
     0
291
     1
 45
0.0
1001
ACAD
1000
AcDbSavedByObjectVersion
1070
     0
  0
VISUALSTYLE
  5
F1
102
{ACAD_REACTORS
330
EF
102
}
330
EF
100
AcDbVisualStyle
  2
FlatWithEdges
 70
     1
 71
     2
 72
     1
 73
     1
 90
        2
 40
-0.6
 41
30.0
 62
     5
 63
     7
 74
     1
 91
        4
 64
     7
 65
   257
 75
     1
175
     1
 42
1.0
 92
        0
 66
   257
 43
1.0
 76
     1
 77
     6
 78
     2
 67
     7
 79
     5
170
     0
171
     0
290
     0
174
     0
 93
        1
 44
0.0
173
     0
291
     1
 45
0.0
1001
ACAD
1000
AcDbSavedByObjectVersion
1070
     0
  0
VISUALSTYLE
  5
F2
102
{ACAD_REACTORS
330
EF
102
}
330
EF
100
AcDbVisualStyle
  2
Gouraud
 70
     2
 71
     2
 72
     2
 73
     1
 90
        2
 40
-0.6
 41
30.0
 62
     5
 63
     7
 74
     0
 91
        4
 64
     7
 65
   257
 75
     1
175
     1
 42
1.0
 92
        0
 66
     7
 43
1.0
 76
     1
 77
     6
 78
     2
 67
     7
 79
     5
170
     0
171
     0
290
     0
174
     0
 93
        1
 44
0.0
173
     0
291
     1
 45
0.0
1001
ACAD
1000
AcDbSavedByObjectVersion
1070
     0
  0
VISUALSTYLE
  5
F3
102
{ACAD_REACTORS
330
EF
102
}
330
EF
100
AcDbVisualStyle
  2
GouraudWithEdges
 70
     3
 71
     2
 72
     2
 73
     1
 90
        2
 40
-0.6
 41
30.0
 62
     5
 63
     7
 74
     1
 91
        4
 64
     7
 65
   257
 75
     1
175
     1
 42
1.0
 92
        0
 66
   257
 43
1.0
 76
     1
 77
     6
 78
     2
 67
     7
 79
     5
170
     0
171
     0
290
     0
174
     0
 93
        1
 44
0.0
173
     0
291
     1
 45
0.0
1001
ACAD
1000
AcDbSavedByObjectVersion
1070
     0
  0
VISUALSTYLE
  5
FD
102
{ACAD_REACTORS
330
EF
102
}
330
EF
100
AcDbVisualStyle
  2
Linepattern
 70
    14
 71
     2
 72
     2
 73
     1
 90
        0
 40
-0.6
 41
-30.0
 62
     5
 63
     7
 74
     1
 91
        4
 64
     7
 65
   257
 75
     7
175
     7
 42
1.0
 92
        8
 66
     7
 43
1.0
 76
     1
 77
     6
 78
     2
 67
     7
 79
     5
170
     0
171
     0
290
     0
174
     0
 93
        1
 44
0.0
173
     0
291
     1
 45
0.0
1001
ACAD
1000
AcDbSavedByObjectVersion
1070
     0
  0
VISUALSTYLE
  5
F9
102
{ACAD_REACTORS
330
EF
102
}
330
EF
100
AcDbVisualStyle
  2
Realistic
 70
     8
 71
     2
 72
     2
 73
     1
 90
        0
 40
-0.6
 41
-30.0
 62
     5
 63
     7
 74
     1
 91
        0
 64
     7
 65
   257
 75
     1
175
     1
 42
1.0
 92
        8
 66
     8
 43
1.0
 76
     1
 77
     6
 78
     2
 67
     7
 79
     5
170
     0
171
     0
290
     0
174
     0
 93
       13
 44
0.0
173
     0
291
     0
 45
0.0
1001
ACAD
1000
AcDbSavedByObjectVersion
1070
     0
  0
VISUALSTYLE
  5
FC
102
{ACAD_REACTORS
330
EF
102
}
330
EF
100
AcDbVisualStyle
  2
Thicken
 70
    13
 71
     2
 72
     2
 73
     1
 90
        0
 40
-0.6
 41
-30.0
 62
     5
 63
     7
 74
     1
 91
        4
 64
     7
 65
   257
 75
     1
175
     1
 42
1.0
 92
       12
 66
     7
 43
1.0
 76
     1
 77
     6
 78
     2
 67
     7
 79
     5
170
     0
171
     0
290
     0
174
     0
 93
        1
 44
0.0
173
     0
291
     1
 45
0.0
1001
ACAD
1000
AcDbSavedByObjectVersion
1070
     0
  0
DICTIONARYVAR
  5
146
102
{ACAD_REACTORS
330
5E
102
}
330
5E
100
DictionaryVariables
280
     0
  1
1:1
  0
DICTIONARYVAR
  5
145
102
{ACAD_REACTORS
330
5E
102
}
330
5E
100
DictionaryVariables
280
     0
  1
STANDARD
  0
DICTIONARYVAR
  5
84
102
{ACAD_REACTORS
330
5E
102
}
330
5E
100
DictionaryVariables
280
     0
  1
STANDARD
  0
DICTIONARYVAR
  5
5F
102
{ACAD_REACTORS
330
5E
102
}
330
5E
100
DictionaryVariables
280
     0
  1
2
  0
DICTIONARYVAR
  5
63
102
{ACAD_REACTORS
330
5E
102
}
330
5E
100
DictionaryVariables
280
     0
  1
1
  0
DICTIONARYVAR
  5
350
102
{ACAD_REACTORS
330
5E
102
}
330
5E
100
DictionaryVariables
280
     0
  1
0
  0
DICTIONARYVAR
  5
34E
102
{ACAD_REACTORS
330
5E
102
}
330
5E
100
DictionaryVariables
280
     0
  1
2
  0
DICTIONARYVAR
  5
34D
102
{ACAD_REACTORS
330
5E
102
}
330
5E
100
DictionaryVariables
280
     0
  1
1
  0
DICTIONARYVAR
  5
352
102
{ACAD_REACTORS
330
5E
102
}
330
5E
100
DictionaryVariables
280
     0
  1
80.000000
  0
DICTIONARYVAR
  5
351
102
{ACAD_REACTORS
330
5E
102
}
330
5E
100
DictionaryVariables
280
     0
  1
5.000000
  0
DICTIONARYVAR
  5
34F
102
{ACAD_REACTORS
330
5E
102
}
330
5E
100
DictionaryVariables
280
     0
  1
127
  0
DICTIONARY
  5
358
330
D3
100
AcDbDictionary
280
     1
281
     1
  3
ACAD_XREC_ROUNDTRIP
360
359
  0
DICTIONARY
  5
35A
330
D7
100
AcDbDictionary
280
     1
281
     1
  3
ACAD_XREC_ROUNDTRIP
360
35B
  0
DICTIONARY
  5
355
330
22
100
AcDbDictionary
280
     1
281
     1
  3
ACAD_XREC_ROUNDTRIP
360
356
  0
DICTIONARY
  5
35E
330
ED
100
AcDbDictionary
280
     1
281
     1
  3
ACAD_XREC_ROUNDTRIP
360
35F
  0
DICTIONARY
  5
35C
330
EC
100
AcDbDictionary
280
     1
281
     1
  3
ACAD_XREC_ROUNDTRIP
360
35D
  0
DICTIONARY
  5
173
330
EE
100
AcDbDictionary
280
     1
281
     1
  3
ACAD_XREC_ROUNDTRIP
360
360
  3
BUMPTILE
360
175
  3
DIFFUSETILE
360
174
  3
OPACITYTILE
360
176
  3
REFLECTIONTILE
360
177
  0
DICTIONARY
  5
162
330
7F
100
AcDbDictionary
280
     1
281
     1
  3
ACAD_ROUNDTRIP_2008_TABLESTYLE_CELLSTYLEMAP
360
353
  3
ACAD_XREC_ROUNDTRIP
360
357
  0
XRECORD
  5
359
102
{ACAD_REACTORS
330
358
102
}
330
358
100
AcDbXrecord
280
     1
102
SHADEPLOT
 70
     0
102
SHADEPLOTRESLEVEL
 70
     2
102
SHADEPLOTCUSTOMDPI
 70
   300
  0
XRECORD
  5
35B
102
{ACAD_REACTORS
330
35A
102
}
330
35A
100
AcDbXrecord
280
     1
102
SHADEPLOT
 70
     0
102
SHADEPLOTRESLEVEL
 70
     2
102
SHADEPLOTCUSTOMDPI
 70
   300
  0
XRECORD
  5
356
102
{ACAD_REACTORS
330
355
102
}
330
355
100
AcDbXrecord
280
     1
102
SHADEPLOT
 70
     0
102
SHADEPLOTRESLEVEL
 70
     2
102
SHADEPLOTCUSTOMDPI
 70
   300
  0
XRECORD
  5
35F
102
{ACAD_REACTORS
330
35E
102
}
330
35E
100
AcDbXrecord
280
     1
102
MATERIAL
148
0.0
149
0.0
149
0.0
 93
        0
 94
       63
282
     0
 72
     1
 77
     1
171
     1
175
     1
179
     1
273
     0
  0
XRECORD
  5
35D
102
{ACAD_REACTORS
330
35C
102
}
330
35C
100
AcDbXrecord
280
     1
102
MATERIAL
148
0.0
149
0.0
149
0.0
 93
        0
 94
       63
282
     0
 72
     1
 77
     1
171
     1
175
     1
179
     1
273
     0
  0
XRECORD
  5
360
102
{ACAD_REACTORS
330
173
102
}
330
173
100
AcDbXrecord
280
     1
102
MATERIAL
148
0.0
149
0.0
149
0.0
 93
        0
 94
       63
282
     0
 72
     1
 77
     1
171
     1
175
     1
179
     1
273
     0
  0
XRECORD
  5
175
102
{ACAD_REACTORS
330
173
102
}
330
173
100
AcDbXrecord
280
     1
270
     1
271
     1
  0
XRECORD
  5
174
102
{ACAD_REACTORS
330
173
102
}
330
173
100
AcDbXrecord
280
     1
270
     1
271
     1
  0
XRECORD
  5
176
102
{ACAD_REACTORS
330
173
102
}
330
173
100
AcDbXrecord
280
     1
270
     1
271
     1
  0
XRECORD
  5
177
102
{ACAD_REACTORS
330
173
102
}
330
173
100
AcDbXrecord
280
     1
270
     1
271
     1
  0
CELLSTYLEMAP
  5
353
102
{ACAD_REACTORS
330
162
102
}
330
162
100
AcDbCellStyleMap
 90
        3
300
CELLSTYLE
  1
TABLEFORMAT_BEGIN
 90
        5
170
     1
 91
        0
 92
    32768
 62
   257
 93
        1
300
CONTENTFORMAT
  1
CONTENTFORMAT_BEGIN
 90
        0
 91
        0
 92
      512
 93
        0
300

 40
0.0
140
1.0
 94
        5
 62
     0
340
11
144
6.0
309
CONTENTFORMAT_END
171
     1
301
MARGIN
  1
CELLMARGIN_BEGIN
 40
1.5
 40
1.5
 40
1.5
 40
1.5
 40
4.5
 40
4.5
309
CELLMARGIN_END
 94
        6
 95
        1
302
GRIDFORMAT
  1
GRIDFORMAT_BEGIN
 90
        0
 91
        1
 62
     0
 92
       -2
340
14
 93
        0
 40
1.125
309
GRIDFORMAT_END
 95
        2
302
GRIDFORMAT
  1
GRIDFORMAT_BEGIN
 90
        0
 91
        1
 62
     0
 92
       -2
340
14
 93
        0
 40
1.125
309
GRIDFORMAT_END
 95
        4
302
GRIDFORMAT
  1
GRIDFORMAT_BEGIN
 90
        0
 91
        1
 62
     0
 92
       -2
340
14
 93
        0
 40
1.125
309
GRIDFORMAT_END
 95
        8
302
GRIDFORMAT
  1
GRIDFORMAT_BEGIN
 90
        0
 91
        1
 62
     0
 92
       -2
340
14
 93
        0
 40
1.125
309
GRIDFORMAT_END
 95
       16
302
GRIDFORMAT
  1
GRIDFORMAT_BEGIN
 90
        0
 91
        1
 62
     0
 92
       -2
340
14
 93
        0
 40
1.125
309
GRIDFORMAT_END
 95
       32
302
GRIDFORMAT
  1
GRIDFORMAT_BEGIN
 90
        0
 91
        1
 62
     0
 92
       -2
340
14
 93
        0
 40
1.125
309
GRIDFORMAT_END
309
TABLEFORMAT_END
  1
CELLSTYLE_BEGIN
 90
        1
 91
        1
300
_TITLE
309
CELLSTYLE_END
300
CELLSTYLE
  1
TABLEFORMAT_BEGIN
 90
        5
170
     1
 91
        0
 92
        0
 62
   257
 93
        1
300
CONTENTFORMAT
  1
CONTENTFORMAT_BEGIN
 90
        0
 91
        0
 92
      512
 93
        0
300

 40
0.0
140
1.0
 94
        5
 62
     0
340
11
144
4.5
309
CONTENTFORMAT_END
171
     1
301
MARGIN
  1
CELLMARGIN_BEGIN
 40
1.5
 40
1.5
 40
1.5
 40
1.5
 40
4.5
 40
4.5
309
CELLMARGIN_END
 94
        6
 95
        1
302
GRIDFORMAT
  1
GRIDFORMAT_BEGIN
 90
        0
 91
        1
 62
     0
 92
       -2
340
14
 93
        0
 40
1.125
309
GRIDFORMAT_END
 95
        2
302
GRIDFORMAT
  1
GRIDFORMAT_BEGIN
 90
        0
 91
        1
 62
     0
 92
       -2
340
14
 93
        0
 40
1.125
309
GRIDFORMAT_END
 95
        4
302
GRIDFORMAT
  1
GRIDFORMAT_BEGIN
 90
        0
 91
        1
 62
     0
 92
       -2
340
14
 93
        0
 40
1.125
309
GRIDFORMAT_END
 95
        8
302
GRIDFORMAT
  1
GRIDFORMAT_BEGIN
 90
        0
 91
        1
 62
     0
 92
       -2
340
14
 93
        0
 40
1.125
309
GRIDFORMAT_END
 95
       16
302
GRIDFORMAT
  1
GRIDFORMAT_BEGIN
 90
        0
 91
        1
 62
     0
 92
       -2
340
14
 93
        0
 40
1.125
309
GRIDFORMAT_END
 95
       32
302
GRIDFORMAT
  1
GRIDFORMAT_BEGIN
 90
        0
 91
        1
 62
     0
 92
       -2
340
14
 93
        0
 40
1.125
309
GRIDFORMAT_END
309
TABLEFORMAT_END
  1
CELLSTYLE_BEGIN
 90
        2
 91
        1
300
_HEADER
309
CELLSTYLE_END
300
CELLSTYLE
  1
TABLEFORMAT_BEGIN
 90
        5
170
     1
 91
        0
 92
        0
 62
   257
 93
        1
300
CONTENTFORMAT
  1
CONTENTFORMAT_BEGIN
 90
        0
 91
        0
 92
      512
 93
        0
300

 40
0.0
140
1.0
 94
        2
 62
     0
340
11
144
4.5
309
CONTENTFORMAT_END
171
     1
301
MARGIN
  1
CELLMARGIN_BEGIN
 40
1.5
 40
1.5
 40
1.5
 40
1.5
 40
4.5
 40
4.5
309
CELLMARGIN_END
 94
        6
 95
        1
302
GRIDFORMAT
  1
GRIDFORMAT_BEGIN
 90
        0
 91
        1
 62
     0
 92
       -2
340
14
 93
        0
 40
1.125
309
GRIDFORMAT_END
 95
        2
302
GRIDFORMAT
  1
GRIDFORMAT_BEGIN
 90
        0
 91
        1
 62
     0
 92
       -2
340
14
 93
        0
 40
1.125
309
GRIDFORMAT_END
 95
        4
302
GRIDFORMAT
  1
GRIDFORMAT_BEGIN
 90
        0
 91
        1
 62
     0
 92
       -2
340
14
 93
        0
 40
1.125
309
GRIDFORMAT_END
 95
        8
302
GRIDFORMAT
  1
GRIDFORMAT_BEGIN
 90
        0
 91
        1
 62
     0
 92
       -2
340
14
 93
        0
 40
1.125
309
GRIDFORMAT_END
 95
       16
302
GRIDFORMAT
  1
GRIDFORMAT_BEGIN
 90
        0
 91
        1
 62
     0
 92
       -2
340
14
 93
        0
 40
1.125
309
GRIDFORMAT_END
 95
       32
302
GRIDFORMAT
  1
GRIDFORMAT_BEGIN
 90
        0
 91
        1
 62
     0
 92
       -2
340
14
 93
        0
 40
1.125
309
GRIDFORMAT_END
309
TABLEFORMAT_END
  1
CELLSTYLE_BEGIN
 90
        3
 91
        2
300
_DATA
309
CELLSTYLE_END
  0
XRECORD
  5
357
102
{ACAD_REACTORS
330
162
102
}
330
162
100
AcDbXrecord
280
     1
102
ACAD_ROUNDTRIP_PRE2007_TABLESTYLE
 90
      512
 91
        0
  1

 92
      512
 93
        0
  2

 94
      512
 95
        0
  3

  0
ENDSEC
  0
EOF
