  0
SECTION
  2
HEADER
  9
$ACADVER
  1
AC1015
  9
$ACADMAINTVER
 70
    20
  9
$DWGCODEPAGE
  3
ANSI_1254
  9
$INSBASE
 10
0.0
 20
0.0
 30
0.0
  9
$EXTMIN
 10
1911.348137639189
 20
1026.999571974075
 30
0.0
  9
$EXTMAX
 10
2085.088896150184
 20
1145.665471983831
 30
0.0
  9
$LIMMIN
 10
0.0
 20
0.0
  9
$LIMMAX
 10
420.0
 20
297.0
  9
$ORTHOMODE
 70
     0
  9
$REGENMODE
 70
     1
  9
$FILLMODE
 70
     1
  9
$QTEXTMODE
 70
     0
  9
$MIRRTEXT
 70
     0
  9
$LTSCALE
 40
1.0
  9
$ATTMODE
 70
     1
  9
$TEXTSIZE
 40
2.5
  9
$TRACEWID
 40
1.0
  9
$TEXTSTYLE
  7
Standard
  9
$CLAYER
  8
0
  9
$CELTYPE
  6
ByLayer
  9
$CECOLOR
 62
   256
  9
$CELTSCALE
 40
1.0
  9
$DISPSILH
 70
     0
  9
$DIMSCALE
 40
1.0
  9
$DIMASZ
 40
2.5
  9
$DIMEXO
 40
0.625
  9
$DIMDLI
 40
3.75
  9
$DIMRND
 40
0.0
  9
$DIMDLE
 40
0.0
  9
$DIMEXE
 40
1.25
  9
$DIMTP
 40
0.0
  9
$DIMTM
 40
0.0
  9
$DIMTXT
 40
2.5
  9
$DIMCEN
 40
2.5
  9
$DIMTSZ
 40
0.0
  9
$DIMTOL
 70
     0
  9
$DIMLIM
 70
     0
  9
$DIMTIH
 70
     0
  9
$DIMTOH
 70
     0
  9
$DIMSE1
 70
     0
  9
$DIMSE2
 70
     0
  9
$DIMTAD
 70
     1
  9
$DIMZIN
 70
     8
  9
$DIMBLK
  1

  9
$DIMASO
 70
     1
  9
$DIMSHO
 70
     1
  9
$DIMPOST
  1

  9
$DIMAPOST
  1

  9
$DIMALT
 70
     0
  9
$DIMALTD
 70
     3
  9
$DIMALTF
 40
0.03937007874016
  9
$DIMLFAC
 40
1.0
  9
$DIMTOFL
 70
     1
  9
$DIMTVP
 40
0.0
  9
$DIMTIX
 70
     0
  9
$DIMSOXD
 70
     0
  9
$DIMSAH
 70
     0
  9
$DIMBLK1
  1

  9
$DIMBLK2
  1

  9
$DIMSTYLE
  2
ISO-25
  9
$DIMCLRD
 70
     0
  9
$DIMCLRE
 70
     0
  9
$DIMCLRT
 70
     0
  9
$DIMTFAC
 40
1.0
  9
$DIMGAP
 40
0.625
  9
$DIMJUST
 70
     0
  9
$DIMSD1
 70
     0
  9
$DIMSD2
 70
     0
  9
$DIMTOLJ
 70
     0
  9
$DIMTZIN
 70
     8
  9
$DIMALTZ
 70
     0
  9
$DIMALTTZ
 70
     0
  9
$DIMUPT
 70
     0
  9
$DIMDEC
 70
     2
  9
$DIMTDEC
 70
     2
  9
$DIMALTU
 70
     2
  9
$DIMALTTD
 70
     3
  9
$DIMTXSTY
  7
Standard
  9
$DIMAUNIT
 70
     0
  9
$DIMADEC
 70
     0
  9
$DIMALTRND
 40
0.0
  9
$DIMAZIN
 70
     0
  9
$DIMDSEP
 70
    44
  9
$DIMATFIT
 70
     3
  9
$DIMFRAC
 70
     0
  9
$DIMLDRBLK
  1

  9
$DIMLUNIT
 70
     2
  9
$DIMLWD
 70
    -2
  9
$DIMLWE
 70
    -2
  9
$DIMTMOVE
 70
     0
  9
$LUNITS
 70
     2
  9
$LUPREC
 70
     4
  9
$SKETCHINC
 40
1.0
  9
$FILLETRAD
 40
0.0
  9
$AUNITS
 70
     0
  9
$AUPREC
 70
     0
  9
$MENU
  1
.
  9
$ELEVATION
 40
0.0
  9
$PELEVATION
 40
0.0
  9
$THICKNESS
 40
0.0
  9
$LIMCHECK
 70
     0
  9
$CHAMFERA
 40
0.0
  9
$CHAMFERB
 40
0.0
  9
$CHAMFERC
 40
0.0
  9
$CHAMFERD
 40
0.0
  9
$SKPOLY
 70
     0
  9
$TDCREATE
 40
2459059.615493646
  9
$TDUCREATE
 40
2459059.490493646
  9
$TDUPDATE
 40
2459067.668872662
  9
$TDUUPDATE
 40
2459067.543872662
  9
$TDINDWG
 40
0.0003362037
  9
$TDUSRTIMER
 40
0.0003362037
  9
$USRTIMER
 70
     1
  9
$ANGBASE
 50
0.0
  9
$ANGDIR
 70
     0
  9
$PDMODE
 70
     0
  9
$PDSIZE
 40
0.0
  9
$PLINEWID
 40
0.0
  9
$SPLFRAME
 70
     0
  9
$SPLINETYPE
 70
     6
  9
$SPLINESEGS
 70
     8
  9
$HANDSEED
  5
317
  9
$SURFTAB1
 70
     6
  9
$SURFTAB2
 70
     6
  9
$SURFTYPE
 70
     6
  9
$SURFU
 70
     6
  9
$SURFV
 70
     6
  9
$UCSBASE
  2

  9
$UCSNAME
  2

  9
$UCSORG
 10
0.0
 20
0.0
 30
0.0
  9
$UCSXDIR
 10
1.0
 20
0.0
 30
0.0
  9
$UCSYDIR
 10
0.0
 20
1.0
 30
0.0
  9
$UCSORTHOREF
  2

  9
$UCSORTHOVIEW
 70
     0
  9
$UCSORGTOP
 10
0.0
 20
0.0
 30
0.0
  9
$UCSORGBOTTOM
 10
0.0
 20
0.0
 30
0.0
  9
$UCSORGLEFT
 10
0.0
 20
0.0
 30
0.0
  9
$UCSORGRIGHT
 10
0.0
 20
0.0
 30
0.0
  9
$UCSORGFRONT
 10
0.0
 20
0.0
 30
0.0
  9
$UCSORGBACK
 10
0.0
 20
0.0
 30
0.0
  9
$PUCSBASE
  2

  9
$PUCSNAME
  2

  9
$PUCSORG
 10
0.0
 20
0.0
 30
0.0
  9
$PUCSXDIR
 10
1.0
 20
0.0
 30
0.0
  9
$PUCSYDIR
 10
0.0
 20
1.0
 30
0.0
  9
$PUCSORTHOREF
  2

  9
$PUCSORTHOVIEW
 70
     0
  9
$PUCSORGTOP
 10
0.0
 20
0.0
 30
0.0
  9
$PUCSORGBOTTOM
 10
0.0
 20
0.0
 30
0.0
  9
$PUCSORGLEFT
 10
0.0
 20
0.0
 30
0.0
  9
$PUCSORGRIGHT
 10
0.0
 20
0.0
 30
0.0
  9
$PUCSORGFRONT
 10
0.0
 20
0.0
 30
0.0
  9
$PUCSORGBACK
 10
0.0
 20
0.0
 30
0.0
  9
$USERI1
 70
     0
  9
$USERI2
 70
     0
  9
$USERI3
 70
     0
  9
$USERI4
 70
     0
  9
$USERI5
 70
     0
  9
$USERR1
 40
0.0
  9
$USERR2
 40
0.0
  9
$USERR3
 40
0.0
  9
$USERR4
 40
0.0
  9
$USERR5
 40
0.0
  9
$WORLDVIEW
 70
     1
  9
$SHADEDGE
 70
     3
  9
$SHADEDIF
 70
    70
  9
$TILEMODE
 70
     1
  9
$MAXACTVP
 70
    64
  9
$PINSBASE
 10
0.0
 20
0.0
 30
0.0
  9
$PLIMCHECK
 70
     0
  9
$PEXTMIN
 10
0.0
 20
0.0
 30
0.0
  9
$PEXTMAX
 10
0.0
 20
0.0
 30
0.0
  9
$PLIMMIN
 10
0.0
 20
0.0
  9
$PLIMMAX
 10
12.0
 20
9.0
  9
$UNITMODE
 70
     0
  9
$VISRETAIN
 70
     1
  9
$PLINEGEN
 70
     0
  9
$PSLTSCALE
 70
     1
  9
$TREEDEPTH
 70
  3020
  9
$CMLSTYLE
  2
Standard
  9
$CMLJUST
 70
     0
  9
$CMLSCALE
 40
20.0
  9
$PROXYGRAPHICS
 70
     1
  9
$MEASUREMENT
 70
     1
  9
$CELWEIGHT
370
    -1
  9
$ENDCAPS
280
     0
  9
$JOINSTYLE
280
     0
  9
$LWDISPLAY
290
     0
  9
$INSUNITS
 70
     4
  9
$HYPERLINKBASE
  1

  9
$STYLESHEET
  1

  9
$XEDIT
290
     1
  9
$CEPSNTYPE
380
     0
  9
$PSTYLEMODE
290
     1
  9
$FINGERPRINTGUID
  2
{22F0198D-18F7-45F8-861B-F21083CCF393}
  9
$VERSIONGUID
  2
{25D48361-40CF-4147-8793-79EA83D276C5}
  9
$EXTNAMES
290
     1
  9
$PSVPSCALE
 40
0.0
  9
$OLESTARTUP
290
     0
  0
ENDSEC
  0
SECTION
  2
CLASSES
  0
CLASS
  1
ACDBDICTIONARYWDFLT
  2
AcDbDictionaryWithDefault
  3
ObjectDBX Classes
 90
        0
280
     0
281
     0
  0
CLASS
  1
ACDBPLACEHOLDER
  2
AcDbPlaceHolder
  3
ObjectDBX Classes
 90
        0
280
     0
281
     0
  0
CLASS
  1
LAYOUT
  2
AcDbLayout
  3
ObjectDBX Classes
 90
        0
280
     0
281
     0
  0
CLASS
  1
DICTIONARYVAR
  2
AcDbDictionaryVar
  3
ObjectDBX Classes
 90
        0
280
     0
281
     0
  0
CLASS
  1
TABLESTYLE
  2
AcDbTableStyle
  3
ObjectDBX Classes
 90
     4095
280
     0
281
     0
  0
CLASS
  1
MATERIAL
  2
AcDbMaterial
  3
ObjectDBX Classes
 90
     1153
280
     0
281
     0
  0
CLASS
  1
VISUALSTYLE
  2
AcDbVisualStyle
  3
ObjectDBX Classes
 90
     4095
280
     0
281
     0
  0
CLASS
  1
SCALE
  2
AcDbScale
  3
ObjectDBX Classes
 90
     1153
280
     0
281
     0
  0
CLASS
  1
MLEADERSTYLE
  2
AcDbMLeaderStyle
  3
ACDB_MLEADERSTYLE_CLASS
 90
     4095
280
     0
281
     0
  0
CLASS
  1
CELLSTYLEMAP
  2
AcDbCellStyleMap
  3
ObjectDBX Classes
 90
     1152
280
     0
281
     0
  0
ENDSEC
  0
SECTION
  2
TABLES
  0
TABLE
  2
VPORT
  5
8
330
0
100
AcDbSymbolTable
 70
     1
  0
VPORT
  5
EA
330
8
100
AcDbSymbolTableRecord
100
AcDbViewportTableRecord
  2
*Active
 70
     0
 10
0.0
 20
0.0
 11
1.0
 21
1.0
 12
1998.215500766474
 22
1093.099479669011
 13
0.0
 23
0.0
 14
10.0
 24
10.0
 15
10.0
 25
10.0
 16
0.0
 26
0.0
 36
1.0
 17
0.0
 27
0.0
 37
0.0
 40
133.3155031280453
 41
1.903110047846889
 42
50.0
 43
0.0
 44
0.0
 50
0.0
 51
0.0
 71
     0
 72
  1000
 73
     1
 74
     3
 75
     0
 76
     0
 77
     0
 78
     0
281
     0
 65
     1
110
0.0
120
0.0
130
0.0
111
1.0
121
0.0
131
0.0
112
0.0
122
1.0
132
0.0
 79
     0
146
0.0
  0
ENDTAB
  0
TABLE
  2
LTYPE
  5
5
330
0
100
AcDbSymbolTable
 70
     1
  0
LTYPE
  5
14
330
5
100
AcDbSymbolTableRecord
100
AcDbLinetypeTableRecord
  2
ByBlock
 70
     0
  3

 72
    65
 73
     0
 40
0.0
  0
LTYPE
  5
15
330
5
100
AcDbSymbolTableRecord
100
AcDbLinetypeTableRecord
  2
ByLayer
 70
     0
  3

 72
    65
 73
     0
 40
0.0
  0
LTYPE
  5
16
330
5
100
AcDbSymbolTableRecord
100
AcDbLinetypeTableRecord
  2
Continuous
 70
     0
  3
Solid line
 72
    65
 73
     0
 40
0.0
  0
ENDTAB
  0
TABLE
  2
LAYER
  5
2
330
0
100
AcDbSymbolTable
 70
     1
  0
LAYER
  5
10
102
{ACAD_XDICTIONARY
360
13C
102
}
330
2
100
AcDbSymbolTableRecord
100
AcDbLayerTableRecord
  2
0
 70
     0
 62
     7
  6
Continuous
370
    -3
390
F
  0
ENDTAB
  0
TABLE
  2
STYLE
  5
3
330
0
100
AcDbSymbolTable
 70
     2
  0
STYLE
  5
11
330
3
100
AcDbSymbolTableRecord
100
AcDbTextStyleTableRecord
  2
Standard
 70
     0
 40
0.0
 41
1.0
 50
0.0
 71
     0
 42
2.5
  3
txt
  4

  0
STYLE
  5
132
330
3
100
AcDbSymbolTableRecord
100
AcDbTextStyleTableRecord
  2
Annotative
 70
     0
 40
0.0
 41
1.0
 50
0.0
 71
     0
 42
2.5
  3
txt.shx
  4

1001
AcadAnnotative
1000
AnnotativeData
1002
{
1070
     1
1070
     1
1002
}
  0
ENDTAB
  0
TABLE
  2
VIEW
  5
6
330
0
100
AcDbSymbolTable
 70
     0
  0
ENDTAB
  0
TABLE
  2
UCS
  5
7
330
0
100
AcDbSymbolTable
 70
     0
  0
ENDTAB
  0
TABLE
  2
APPID
  5
9
330
0
100
AcDbSymbolTable
 70
     7
  0
APPID
  5
12
330
9
100
AcDbSymbolTableRecord
100
AcDbRegAppTableRecord
  2
ACAD
 70
     0
  0
APPID
  5
9E
330
9
100
AcDbSymbolTableRecord
100
AcDbRegAppTableRecord
  2
ACAD_PSEXT
 70
     0
  0
APPID
  5
133
330
9
100
AcDbSymbolTableRecord
100
AcDbRegAppTableRecord
  2
AcadAnnoPO
 70
     0
  0
APPID
  5
134
330
9
100
AcDbSymbolTableRecord
100
AcDbRegAppTableRecord
  2
AcadAnnotative
 70
     0
  0
APPID
  5
135
330
9
100
AcDbSymbolTableRecord
100
AcDbRegAppTableRecord
  2
ACAD_DSTYLE_DIMJAG
 70
     0
  0
APPID
  5
136
330
9
100
AcDbSymbolTableRecord
100
AcDbRegAppTableRecord
  2
ACAD_DSTYLE_DIMTALN
 70
     0
  0
APPID
  5
165
330
9
100
AcDbSymbolTableRecord
100
AcDbRegAppTableRecord
  2
ACAD_MLEADERVER
 70
     0
  0
ENDTAB
  0
TABLE
  2
DIMSTYLE
  5
A
330
0
100
AcDbSymbolTable
 70
     2
100
AcDbDimStyleTable
 71
     2
340
27
340
137
  0
DIMSTYLE
105
27
330
A
100
AcDbSymbolTableRecord
100
AcDbDimStyleTableRecord
  2
ISO-25
 70
     0
 41
2.5
 42
0.625
 43
3.75
 44
1.25
 73
     0
 74
     0
 77
     1
 78
     8
140
2.5
141
2.5
143
0.03937007874016
147
0.625
171
     3
172
     1
271
     2
272
     2
274
     3
278
    44
283
     0
284
     8
340
11
  0
DIMSTYLE
105
137
330
A
100
AcDbSymbolTableRecord
100
AcDbDimStyleTableRecord
  2
Annotative
 70
     0
 40
0.0
 41
2.5
 42
0.625
 43
3.75
 44
1.25
 73
     0
 74
     0
 77
     1
 78
     8
140
2.5
141
2.5
143
0.03937007874016
147
0.625
171
     3
172
     1
271
     2
272
     2
274
     3
278
    44
283
     0
284
     8
340
11
1001
AcadAnnotative
1000
AnnotativeData
1002
{
1070
     1
1070
     1
1002
}
1001
ACAD_DSTYLE_DIMJAG
1070
   388
1040
1.5
1001
ACAD_DSTYLE_DIMTALN
1070
   392
1070
     0
  0
ENDTAB
  0
TABLE
  2
BLOCK_RECORD
  5
1
330
0
100
AcDbSymbolTable
 70
     5
  0
BLOCK_RECORD
  5
1F
330
1
100
AcDbSymbolTableRecord
100
AcDbBlockTableRecord
  2
*Model_Space
340
22
  0
BLOCK_RECORD
  5
D2
330
1
100
AcDbSymbolTableRecord
100
AcDbBlockTableRecord
  2
*Paper_Space
340
D3
  0
BLOCK_RECORD
  5
D6
330
1
100
AcDbSymbolTableRecord
100
AcDbBlockTableRecord
  2
*Paper_Space0
340
D7
  0
BLOCK_RECORD
  5
1AD
330
1
100
AcDbSymbolTableRecord
100
AcDbBlockTableRecord
  2
SW_CENTERMARKSYMBOL_0
340
0
102
{BLKREFS
331
2A5
102
}
  0
BLOCK_RECORD
  5
28A
330
1
100
AcDbSymbolTableRecord
100
AcDbBlockTableRecord
  2
1
340
0
310
2800000020000000200000000100080000000000000400000000000000000000000000000000000000000000000080000080000000808000800000008000800080800000C0C0C000C0DCC000F0CAA6000020400000206000002080000020A0000020C0000020E00000400000004020000040400000406000004080000040A0
310
000040C0000040E00000600000006020000060400000606000006080000060A0000060C0000060E00000800000008020000080400000806000008080000080A0000080C0000080E00000A0000000A0200000A0400000A0600000A0800000A0A00000A0C00000A0E00000C0000000C0200000C0400000C0600000C0800000C0
310
A00000C0C00000C0E00000E0000000E0200000E0400000E0600000E0800000E0A00000E0C00000E0E00040000000400020004000400040006000400080004000A0004000C0004000E00040200000402020004020400040206000402080004020A0004020C0004020E000404000004040200040404000404060004040800040
310
40A0004040C0004040E00040600000406020004060400040606000406080004060A0004060C0004060E00040800000408020004080400040806000408080004080A0004080C0004080E00040A0000040A0200040A0400040A0600040A0800040A0A00040A0C00040A0E00040C0000040C0200040C0400040C0600040C08000
310
40C0A00040C0C00040C0E00040E0000040E0200040E0400040E0600040E0800040E0A00040E0C00040E0E00080000000800020008000400080006000800080008000A0008000C0008000E00080200000802020008020400080206000802080008020A0008020C0008020E00080400000804020008040400080406000804080
310
008040A0008040C0008040E00080600000806020008060400080606000806080008060A0008060C0008060E00080800000808020008080400080806000808080008080A0008080C0008080E00080A0000080A0200080A0400080A0600080A0800080A0A00080A0C00080A0E00080C0000080C0200080C0400080C0600080C0
310
800080C0A00080C0C00080C0E00080E0000080E0200080E0400080E0600080E0800080E0A00080E0C00080E0E000C0000000C0002000C0004000C0006000C0008000C000A000C000C000C000E000C0200000C0202000C0204000C0206000C0208000C020A000C020C000C020E000C0400000C0402000C0404000C0406000C0
310
408000C040A000C040C000C040E000C0600000C0602000C0604000C0606000C0608000C060A000C060C000C060E000C0800000C0802000C0804000C0806000C0808000C080A000C080C000C080E000C0A00000C0A02000C0A04000C0A06000C0A08000C0A0A000C0A0C000C0A0E000C0C00000C0C02000C0C04000C0C06000
310
C0C08000C0C0A000F0FBFF00A4A0A000808080000000FF0000FF000000FFFF00FF000000FF00FF00FFFF0000FFFFFF000000000000000000000000000000000000000000000000000000000000000000000000000000000000000000000000000000000000000000000000000000000000000000000000000000FFFFFFFFFF
310
FFFFFFFFFFFFFF000000000000000000000000000000000000FFFF000000000000000000000000FFFF000000000000000000000000000000FF0000000000000000FF00000000000000FF0000000000000000000000000000FF0000000000000000FF0000000000000000FF000000000000000000000000FF000000000000FF
310
FFFFFF0000000000000000FF000000000000000000000000FF00000000FFFF000000FFFFFFFF000000000000FF00000000000000000000FF000000FFFFFFFFFFFFFFFFFFFFFFFFFFFF000000FF00000000000000000000FF0000FFFF000000000000FF0000000000FFFF000000FF0000000000000000FF0000FFFF00000000
310
000000FF000000000000FFFF0000FF0000000000000000FF00FFFF0000000000000000FF00000000000000FF000000FF000000000000FF0000FFFF0000000000000000FF00000000000000FFFF0000FF000000000000FF0000FF000000000000000000FF0000000000000000FF000000FF00000000FF000000FF0000000000
310
00000000FF0000000000000000FF000000FF00000000FF000000FF000000000000000000FF0000000000000000FFFF0000FF00000000FF00FFFFFFFFFFFFFFFFFFFFFFFFFFFFFFFFFFFFFFFFFFFFFFFF00FF00000000FF000000FF000000000000000000FF0000000000000000FF000000FF0000000000FF0000FF00000000
310
0000000000FF0000000000000000FF000000FF0000000000FF0000FFFF0000000000000000FF00000000000000FFFF0000FF00000000000000FF00FFFF0000000000000000FF00000000000000FF000000FF00000000000000FF0000FFFF00000000000000FF000000000000FFFF0000FF000000000000000000FF0000FFFF
310
000000000000FF0000000000FFFF000000FF000000000000000000FF000000FFFF0000000000FF000000FFFFFF000000FF0000000000000000000000FF000000FFFFFF000000FFFFFFFFFFFF00000000FF0000000000000000000000FF00000000FFFFFFFFFFFFFFFFFF0000000000FF00000000000000000000000000FF00
310
000000000000FFFF0000000000000000FF00000000000000000000000000FF0000000000000000FF00000000000000FF000000000000000000000000000000FFFF000000000000000000000000FFFF000000000000000000000000000000000000FFFFFFFFFFFFFFFFFFFFFFFF000000000000000000000000000000000000
310
0000000000000000000000000000000000000000000000000000000000000000000000000000000000000000000000000000000000000000
102
{BLKREFS
331
2A6
102
}
1001
ACAD
1000
DesignCenter Data
1002
{
1070
     1
1070
     4
1002
}
  0
BLOCK_RECORD
  5
2A7
330
1
100
AcDbSymbolTableRecord
100
AcDbBlockTableRecord
  2
2
340
0
310
2800000020000000200000000100080000000000000400000000000000000000000000000000000000000000000080000080000000808000800000008000800080800000C0C0C000C0DCC000F0CAA6000020400000206000002080000020A0000020C0000020E00000400000004020000040400000406000004080000040A0
310
000040C0000040E00000600000006020000060400000606000006080000060A0000060C0000060E00000800000008020000080400000806000008080000080A0000080C0000080E00000A0000000A0200000A0400000A0600000A0800000A0A00000A0C00000A0E00000C0000000C0200000C0400000C0600000C0800000C0
310
A00000C0C00000C0E00000E0000000E0200000E0400000E0600000E0800000E0A00000E0C00000E0E00040000000400020004000400040006000400080004000A0004000C0004000E00040200000402020004020400040206000402080004020A0004020C0004020E000404000004040200040404000404060004040800040
310
40A0004040C0004040E00040600000406020004060400040606000406080004060A0004060C0004060E00040800000408020004080400040806000408080004080A0004080C0004080E00040A0000040A0200040A0400040A0600040A0800040A0A00040A0C00040A0E00040C0000040C0200040C0400040C0600040C08000
310
40C0A00040C0C00040C0E00040E0000040E0200040E0400040E0600040E0800040E0A00040E0C00040E0E00080000000800020008000400080006000800080008000A0008000C0008000E00080200000802020008020400080206000802080008020A0008020C0008020E00080400000804020008040400080406000804080
310
008040A0008040C0008040E00080600000806020008060400080606000806080008060A0008060C0008060E00080800000808020008080400080806000808080008080A0008080C0008080E00080A0000080A0200080A0400080A0600080A0800080A0A00080A0C00080A0E00080C0000080C0200080C0400080C0600080C0
310
800080C0A00080C0C00080C0E00080E0000080E0200080E0400080E0600080E0800080E0A00080E0C00080E0E000C0000000C0002000C0004000C0006000C0008000C000A000C000C000C000E000C0200000C0202000C0204000C0206000C0208000C020A000C020C000C020E000C0400000C0402000C0404000C0406000C0
310
408000C040A000C040C000C040E000C0600000C0602000C0604000C0606000C0608000C060A000C060C000C060E000C0800000C0802000C0804000C0806000C0808000C080A000C080C000C080E000C0A00000C0A02000C0A04000C0A06000C0A08000C0A0A000C0A0C000C0A0E000C0C00000C0C02000C0C04000C0C06000
310
C0C08000C0C0A000F0FBFF00A4A0A000808080000000FF0000FF000000FFFF00FF000000FF00FF00FFFF0000FFFFFF0000000000000000000000000000000000000000000000000000000000000000000000000000000000000000000000000000000000000000000000000000000000000000000000000000000000000000
310
00000000000000000000000000000000000000000000000000000000000000000000000000000000000000000000000000000000000000000000000000000000000000000000000000000000000000000000000000000000000000000000000000000000000000000000000000000000000000000000000000000000000000
310
00000000000000000000000000000000000000000000000000000000000000000000000000000000000000000000000000000000000000000000000000000000000000000000000000000000000000000000000000000000000000000000000000000000000000000000000000000000000000000000000000000000000000
310
0000000000000000000000000000000000000000000000000000000000000000000000000000000000000000000000000000000000000000000000000000000000000000000000000000000000000000000000000000000000000000000000000000000000000000000000000000000000000000FFFFFFFFFFFFFFFFFFFFFF
310
FFFFFFFFFFFFFFFFFFFFFFFFFFFFFFFFFFFFFF0000FFFF00000000FF0000FF00000000000000000000FF0000FF00000000FFFF0000FFFFFFFFFFFFFF0000FFFFFFFFFFFFFFFFFFFFFFFF0000FFFFFFFFFFFFFF0000FFFFFFFFFFFFFFFFFFFFFFFFFFFFFFFFFFFFFFFFFFFFFFFFFFFFFFFFFFFF000000000000000000000000
310
00000000000000000000000000000000000000000000000000000000000000000000000000000000000000000000000000000000000000000000000000000000000000000000000000000000000000000000000000000000000000000000000000000000000000000000000000000000000000000000000000000000000000
310
00000000000000000000000000000000000000000000000000000000000000000000000000000000000000000000000000000000000000000000000000000000000000000000000000000000000000000000000000000000000000000000000000000000000000000000000000000000000000000000000000000000000000
310
00000000000000000000000000000000000000000000000000000000000000000000000000000000000000000000000000000000000000000000000000000000000000000000000000000000000000000000000000000000000000000000000000000000000000000000000000000000000000000000000000000000000000
310
0000000000000000000000000000000000000000000000000000000000000000000000000000000000000000000000000000000000000000
102
{BLKREFS
331
2BD
102
}
1001
ACAD
1000
DesignCenter Data
1002
{
1070
     1
1070
     4
1002
}
  0
BLOCK_RECORD
  5
2BE
330
1
100
AcDbSymbolTableRecord
100
AcDbBlockTableRecord
  2
3
340
0
310
2800000020000000200000000100080000000000000400000000000000000000000000000000000000000000000080000080000000808000800000008000800080800000C0C0C000C0DCC000F0CAA6000020400000206000002080000020A0000020C0000020E00000400000004020000040400000406000004080000040A0
310
000040C0000040E00000600000006020000060400000606000006080000060A0000060C0000060E00000800000008020000080400000806000008080000080A0000080C0000080E00000A0000000A0200000A0400000A0600000A0800000A0A00000A0C00000A0E00000C0000000C0200000C0400000C0600000C0800000C0
310
A00000C0C00000C0E00000E0000000E0200000E0400000E0600000E0800000E0A00000E0C00000E0E00040000000400020004000400040006000400080004000A0004000C0004000E00040200000402020004020400040206000402080004020A0004020C0004020E000404000004040200040404000404060004040800040
310
40A0004040C0004040E00040600000406020004060400040606000406080004060A0004060C0004060E00040800000408020004080400040806000408080004080A0004080C0004080E00040A0000040A0200040A0400040A0600040A0800040A0A00040A0C00040A0E00040C0000040C0200040C0400040C0600040C08000
310
40C0A00040C0C00040C0E00040E0000040E0200040E0400040E0600040E0800040E0A00040E0C00040E0E00080000000800020008000400080006000800080008000A0008000C0008000E00080200000802020008020400080206000802080008020A0008020C0008020E00080400000804020008040400080406000804080
310
008040A0008040C0008040E00080600000806020008060400080606000806080008060A0008060C0008060E00080800000808020008080400080806000808080008080A0008080C0008080E00080A0000080A0200080A0400080A0600080A0800080A0A00080A0C00080A0E00080C0000080C0200080C0400080C0600080C0
310
800080C0A00080C0C00080C0E00080E0000080E0200080E0400080E0600080E0800080E0A00080E0C00080E0E000C0000000C0002000C0004000C0006000C0008000C000A000C000C000C000E000C0200000C0202000C0204000C0206000C0208000C020A000C020C000C020E000C0400000C0402000C0404000C0406000C0
310
408000C040A000C040C000C040E000C0600000C0602000C0604000C0606000C0608000C060A000C060C000C060E000C0800000C0802000C0804000C0806000C0808000C080A000C080C000C080E000C0A00000C0A02000C0A04000C0A06000C0A08000C0A0A000C0A0C000C0A0E000C0C00000C0C02000C0C04000C0C06000
310
C0C08000C0C0A000F0FBFF00A4A0A000808080000000FF0000FF000000FFFF00FF000000FF00FF00FFFF0000FFFFFF0000000000000000000000000000000000000000000000000000000000000000000000000000000000000000000000000000000000000000000000000000000000000000000000000000000000000000
310
00000000000000000000000000000000000000000000000000000000000000000000000000000000000000000000000000000000000000000000000000000000000000000000000000000000000000000000000000000000000000000000000000000000000000000000000000000000000000000000000000000000000000
310
00000000000000000000000000000000000000000000000000000000FFFFFFFFFFFFFFFFFFFFFF0000000000000000000000000000000000FFFFFFFF000000FFFFFFFFFFFF00FFFFFFFF000000000000000000000000FFFFFFFFFFFFFFFFFF0000000000FF0000FFFFFFFFFF000000000000000000FFFFFF00FF0000000000
310
FFFFFFFFFFFFFFFFFF0000FFFFFFFF000000000000FFFFFFFF00FFFFFFFFFFFF000000000000000000FFFF0000FFFFFF0000000000FF00FFFFFF000000FFFFFFFFFFFFFFFFFFFFFF000000FFFF00FFFFFF00000000FFFFFF000000FFFFFF000000000000000000FFFFFF000000FF0000FF000000FFFFFF0000FFFFFF000000
310
00000000000000000000FFFFFF0000FFFFFFFF0000FFFFFF0000FFFF00000000000000000000000000000000FFFF000000FFFF000000FF0000FFFFFF0000000000000000000000000000000000FF000000FFFF0000FF000000FFFFFFFF000000000000000000000000000000FFFF000000FF00000000FF000000FFFFFFFFFF
310
0000000000000000000000FFFFFFFF0000FFFF00000000FF000000FFFFFFFFFFFFFFFFFFFF00FFFFFFFFFFFFFFFFFF0000FF000000000000FFFF0000FFFFFFFFFFFFFFFFFFFFFFFFFFFFFFFFFFFF0000FF000000000000000000FFFF0000FFFFFFFFFFFFFFFFFFFFFFFFFFFFFF000000FF0000000000000000000000FFFF00
310
00FFFFFFFFFFFFFFFFFFFFFF00000000FF0000000000000000000000000000FFFFFF00000000000000FFFFFFFFFFFFFF000000000000000000000000000000000000FFFFFFFFFFFFFF000000000000000000000000000000000000000000000000000000000000000000000000000000000000000000000000000000000000
310
00000000000000000000000000000000000000000000000000000000000000000000000000000000000000000000000000000000000000000000000000000000000000000000000000000000000000000000000000000000000000000000000000000000000000000000000000000000000000000000000000000000000000
310
0000000000000000000000000000000000000000000000000000000000000000000000000000000000000000000000000000000000000000
102
{BLKREFS
331
2FC
102
}
1001
ACAD
1000
DesignCenter Data
1002
{
1070
     1
1070
     4
1002
}
  0
ENDTAB
  0
ENDSEC
  0
SECTION
  2
BLOCKS
  0
BLOCK
  5
20
330
1F
100
AcDbEntity
  8
0
100
AcDbBlockBegin
  2
*Model_Space
 70
     0
 10
0.0
 20
0.0
 30
0.0
  3
*Model_Space
  1

  0
ENDBLK
  5
21
330
1F
100
AcDbEntity
  8
0
100
AcDbBlockEnd
  0
BLOCK
  5
D4
330
D2
100
AcDbEntity
 67
     1
  8
0
100
AcDbBlockBegin
  2
*Paper_Space
 70
     0
 10
0.0
 20
0.0
 30
0.0
  3
*Paper_Space
  1

  0
ENDBLK
  5
D5
330
D2
100
AcDbEntity
 67
     1
  8
0
100
AcDbBlockEnd
  0
BLOCK
  5
D8
330
D6
100
AcDbEntity
 67
     1
  8
0
100
AcDbBlockBegin
  2
*Paper_Space0
 70
     0
 10
0.0
 20
0.0
 30
0.0
  3
*Paper_Space0
  1

  0
ENDBLK
  5
D9
330
D6
100
AcDbEntity
 67
     1
  8
0
100
AcDbBlockEnd
  0
BLOCK
  5
1AE
330
1AD
100
AcDbEntity
  8
0
100
AcDbBlockBegin
  2
SW_CENTERMARKSYMBOL_0
 70
     0
 10
0.0
 20
0.0
 30
0.0
  3
SW_CENTERMARKSYMBOL_0
  1

  0
LINE
  5
1AF
330
1AD
100
AcDbEntity
  8
0
  6
Continuous
 62
     0
370
     0
100
AcDbLine
 10
0.0
 20
0.0
 30
0.0
 11
0.0
 21
2.500000000000002
 31
0.0
  0
LINE
  5
1B0
330
1AD
100
AcDbEntity
  8
0
  6
Continuous
 62
     0
370
     0
100
AcDbLine
 10
0.0
 20
0.0
 30
0.0
 11
-2.500000000000002
 21
0.0
 31
0.0
  0
LINE
  5
1B1
330
1AD
100
AcDbEntity
  8
0
  6
Continuous
 62
     0
370
     0
100
AcDbLine
 10
0.0
 20
0.0
 30
0.0
 11
0.0
 21
-2.500000000000002
 31
0.0
  0
LINE
  5
1B2
330
1AD
100
AcDbEntity
  8
0
  6
Continuous
 62
     0
370
     0
100
AcDbLine
 10
0.0
 20
0.0
 30
0.0
 11
2.500000000000002
 21
0.0
 31
0.0
  0
LINE
  5
1B3
330
1AD
100
AcDbEntity
  8
0
  6
Continuous
 62
     0
370
     0
100
AcDbLine
 10
0.0
 20
5.000000000000004
 30
0.0
 11
0.0
 21
26.04999999999999
 31
0.0
  0
LINE
  5
1B4
330
1AD
100
AcDbEntity
  8
0
  6
Continuous
 62
     0
370
     0
100
AcDbLine
 10
-5.000000000000004
 20
0.0
 30
0.0
 11
-26.05
 21
0.0
 31
0.0
  0
LINE
  5
1B5
330
1AD
100
AcDbEntity
  8
0
  6
Continuous
 62
     0
370
     0
100
AcDbLine
 10
0.0
 20
-5.000000000000004
 30
0.0
 11
0.0
 21
-26.04999999999999
 31
0.0
  0
LINE
  5
1B6
330
1AD
100
AcDbEntity
  8
0
  6
Continuous
 62
     0
370
     0
100
AcDbLine
 10
5.000000000000004
 20
0.0
 30
0.0
 11
26.05
 21
0.0
 31
0.0
  0
ENDBLK
  5
1B7
330
1AD
100
AcDbEntity
  8
0
100
AcDbBlockEnd
  0
BLOCK
  5
28B
330
28A
100
AcDbEntity
  8
0
100
AcDbBlockBegin
  2
1
 70
     0
 10
0.0
 20
0.0
 30
0.0
  3
1
  1

  0
SPLINE
  5
28D
330
28A
100
AcDbEntity
  8
0
  6
Continuous
 62
     7
370
    15
100
AcDbSpline
210
0.0
220
0.0
230
1.0
 70
     8
 71
     3
 72
    50
 73
    46
 74
     0
 42
0.0000000001
 43
0.0000000001
 40
0.0
 40
0.0
 40
0.0
 40
0.0
 40
0.03125
 40
0.03125
 40
0.0625
 40
0.0625
 40
0.125
 40
0.125
 40
0.1875
 40
0.1875
 40
0.25
 40
0.25
 40
0.3125
 40
0.3125
 40
0.34375
 40
0.34375
 40
0.375
 40
0.375
 40
0.4374999999999999
 40
0.4374999999999999
 40
0.46875
 40
0.46875
 40
0.5
 40
0.5
 40
0.5625
 40
0.5625
 40
0.59375
 40
0.59375
 40
0.625
 40
0.625
 40
0.6875
 40
0.6875
 40
0.75
 40
0.75
 40
0.78125
 40
0.78125
 40
0.8125
 40
0.8125
 40
0.875
 40
0.875
 40
0.9062500000000001
 40
0.9062500000000001
 40
0.9375000000000001
 40
0.9375000000000001
 40
1.0
 40
1.0
 40
1.0
 40
1.0
 10
1944.366626054305
 20
1136.181595607649
 30
0.0
 10
1943.788842450873
 20
1136.173175458385
 30
0.0
 10
1943.212556732862
 20
1136.143366985144
 30
0.0
 10
1942.062968865485
 20
1136.041147626005
 30
0.0
 10
1941.488529000146
 20
1135.968457407388
 30
0.0
 10
1939.78755892082
 20
1135.689169346854
 30
0.0
 10
1938.678220639644
 20
1135.421575737993
 30
0.0
 10
1936.507582310071
 20
1134.727699139372
 30
0.0
 10
1935.446278660335
 20
1134.301428046268
 30
0.0
 10
1933.373629059838
 20
1133.283855719215
 30
0.0
 10
1932.384226397334
 20
1132.702948009387
 30
0.0
 10
1930.507457127653
 20
1131.409246384261
 30
0.0
 10
1929.618033129392
 20
1130.695425981433
 30
0.0
 10
1928.358819299878
 20
1129.522214951378
 30
0.0
 10
1927.949920311554
 20
1129.112207563787
 30
0.0
 10
1927.168257241399
 20
1128.267060441977
 30
0.0
 10
1926.795375125316
 20
1127.832211309031
 30
0.0
 10
1925.729270618484
 20
1126.491730649084
 30
0.0
 10
1925.08830867078
 20
1125.550358308765
 30
0.0
 10
1924.231619212213
 20
1124.066659112766
 30
0.0
 10
1923.963585248191
 20
1123.560104536632
 30
0.0
 10
1923.463480002096
 20
1122.522400577525
 30
0.0
 10
1923.232059744708
 20
1121.992100246336
 30
0.0
 10
1922.603293444794
 20
1120.391025021032
 30
0.0
 10
1922.266813970245
 20
1119.301619680366
 30
0.0
 10
1921.883950260775
 20
1117.635062486099
 30
0.0
 10
1921.776722510039
 20
1117.074112792903
 30
0.0
 10
1921.603709301566
 20
1115.941177642557
 30
0.0
 10
1921.537784290218
 20
1115.367127498523
 30
0.0
 10
1921.405273472223
 20
1113.642888454037
 30
0.0
 10
1921.403325290092
 20
1112.500174411329
 30
0.0
 10
1921.569399964037
 20
1110.228082861117
 30
0.0
 10
1921.737144710036
 20
1109.098683532101
 30
0.0
 10
1922.119909633866
 20
1107.41487486412
 30
0.0
 10
1922.269708751507
 20
1106.855336562955
 30
0.0
 10
1922.608152734275
 20
1105.758919893186
 30
0.0
 10
1922.797296093885
 20
1105.219569501734
 30
0.0
 10
1923.423397044352
 20
1103.627606056706
 30
0.0
 10
1923.918696615359
 20
1102.600934492393
 30
0.0
 10
1924.780157122008
 20
1101.113622575883
 30
0.0
 10
1925.088084201495
 20
1100.625323392959
 30
0.0
 10
1925.740526832063
 20
1099.67328903633
 30
0.0
 10
1926.083479609196
 20
1099.211592170267
 30
0.0
 10
1927.161744847895
 20
1097.868788513071
 30
0.0
 10
1927.945876838249
 20
1097.029465930785
 30
0.0
 10
1928.797836943866
 20
1096.248196840703
 30
0.0
  0
SPLINE
  5
28E
330
28A
100
AcDbEntity
  8
0
  6
Continuous
 62
     7
370
    15
100
AcDbSpline
210
0.0
220
0.0
230
1.0
 70
     8
 71
     3
 72
    66
 73
    62
 74
     0
 42
0.0000000001
 43
0.0000000001
 40
0.0
 40
0.0
 40
0.0
 40
0.0
 40
0.0119312418714025
 40
0.0239015900934402
 40
0.0412744183573823
 40
0.058862797601945
 40
0.076451177064929
 40
0.094391491859872
 40
0.112852184589576
 40
0.131458902240827
 40
0.1505295124001928
 40
0.169761259193407
 40
0.1816925010109363
 40
0.1936628493272205
 40
0.211035713657131
 40
0.228530088380488
 40
0.2462126545544916
 40
0.2641530069941773
 40
0.2815866134576548
 40
0.2990202197659862
 40
0.3167028266722751
 40
0.3346432252836705
 40
0.3520160560656061
 40
0.3696044400348803
 40
0.3871928243274657
 40
0.4051331474016956
 40
0.4225825051054397
 40
0.4400318627987602
 40
0.4576826564583032
 40
0.4756229384438477
 40
0.4929958762983492
 40
0.5104903279611843
 40
0.5281729757008034
 40
0.5461134164271677
 40
0.5635627718596961
 40
0.5810121274276887
 40
0.5986629188925284
 40
0.6166031972834264
 40
0.6339761625729669
 40
0.6514706401280071
 40
0.6691533162148391
 40
0.6870937875465611
 40
0.7045431490201556
 40
0.7219925107685043
 40
0.7396433105828317
 40
0.7575835992473654
 40
0.7756616060943098
 40
0.7937396127491403
 40
0.8099358026448502
 40
0.8261319922695268
 40
0.8380632340870558
 40
0.8500335824033403
 40
0.8674064467332504
 40
0.8849008214566076
 40
0.9025833876306112
 40
0.9205237400702969
 40
0.9379731996541053
 40
0.9554226590821059
 40
0.9730735599873343
 40
0.9910139585987298
 40
0.9999999999999998
 40
0.9999999999999998
 40
0.9999999999999998
 40
0.9999999999999998
 10
1928.797836943866
 20
1096.248196840703
 30
0.0
 10
1928.490264446482
 20
1096.549308900853
 30
0.0
 10
1927.87411133889
 20
1097.152519958968
 30
0.0
 10
1926.887643228129
 20
1098.268852146999
 30
0.0
 10
1925.851936196934
 20
1099.60986912257
 30
0.0
 10
1924.824011448586
 20
1101.204891543863
 30
0.0
 10
1923.923163945176
 20
1102.898062392194
 30
0.0
 10
1923.157449484711
 20
1104.690955817218
 30
0.0
 10
1922.538996225821
 20
1106.578683789776
 30
0.0
 10
1922.081030784885
 20
1108.553604889323
 30
0.0
 10
1921.798906416851
 20
1110.589410820708
 30
0.0
 10
1921.715440209369
 20
1112.401926786039
 30
0.0
 10
1921.759883809323
 20
1113.957695082731
 30
0.0
 10
1921.887413354549
 20
1115.441584756715
 30
0.0
 10
1922.150105874327
 20
1117.112327466967
 30
0.0
 10
1922.600024567209
 20
1118.955632697852
 30
0.0
 10
1923.209898936913
 20
1120.774068471434
 30
0.0
 10
1923.971469663261
 20
1122.532079253324
 30
0.0
 10
1924.874960092797
 20
1124.211151208766
 30
0.0
 10
1925.909676486586
 20
1125.801619106118
 30
0.0
 10
1927.08582138356
 20
1127.313897672695
 30
0.0
 10
1928.384976417796
 20
1128.71903252376
 30
0.0
 10
1929.795418904026
 20
1130.007141282896
 30
0.0
 10
1931.298785980019
 20
1131.164856861795
 30
0.0
 10
1932.911051951969
 20
1132.203638033821
 30
0.0
 10
1934.601543795106
 20
1133.099206468789
 30
0.0
 10
1936.357052073718
 20
1133.8462633212
 30
0.0
 10
1938.158672684857
 20
1134.44154866361
 30
0.0
 10
1940.021267361673
 20
1134.887352085952
 30
0.0
 10
1941.912385581186
 20
1135.172782932282
 30
0.0
 10
1943.815043396367
 20
1135.297156759936
 30
0.0
 10
1945.712207474121
 20
1135.262702568814
 30
0.0
 10
1947.62016156361
 20
1135.066721115105
 30
0.0
 10
1949.503013906848
 20
1134.709376293848
 30
0.0
 10
1951.340503589377
 20
1134.195976600861
 30
0.0
 10
1953.119179069277
 20
1133.535289252611
 30
0.0
 10
1954.852078217644
 20
1132.719781290929
 30
0.0
 10
1956.507060113402
 20
1131.761231176924
 30
0.0
 10
1958.070436128647
 20
1130.66971161965
 30
0.0
 10
1959.530296717277
 20
1129.457607345025
 30
0.0
 10
1960.897684653234
 20
1128.112623438573
 30
0.0
 10
1962.144664596949
 20
1126.65731881206
 30
0.0
 10
1963.258726018283
 20
1125.108500293538
 30
0.0
 10
1964.234854009542
 20
1123.481420988571
 30
0.0
 10
1965.078486117581
 20
1121.762037583456
 30
0.0
 10
1965.781257936016
 20
1119.955961638835
 30
0.0
 10
1966.329799475589
 20
1118.081142035113
 30
0.0
 10
1966.70262844038
 20
1116.227756989315
 30
0.0
 10
1966.913694344752
 20
1114.41801477445
 30
0.0
 10
1966.975928288452
 20
1112.818991980892
 30
0.0
 10
1966.934571035863
 20
1111.372674294828
 30
0.0
 10
1966.807052664707
 20
1109.888794452272
 30
0.0
 10
1966.544354541144
 20
1108.218049524076
 30
0.0
 10
1966.094443040589
 20
1106.374738957096
 30
0.0
 10
1965.484545832409
 20
1104.556327422206
 30
0.0
 10
1964.722832180581
 20
1102.797699184845
 30
0.0
 10
1963.818425946974
 20
1101.117986959782
 30
0.0
 10
1962.784669320354
 20
1099.52637812692
 30
0.0
 10
1961.604428531346
 20
1098.019408298854
 30
0.0
 10
1960.525376716493
 20
1096.822418387043
 30
0.0
 10
1959.800097520414
 20
1096.176095611295
 30
0.0
 10
1959.558053311065
 20
1095.960401177915
 30
0.0
  0
LINE
  5
28F
330
28A
100
AcDbEntity
  8
0
  6
Continuous
 62
     7
370
    15
100
AcDbLine
 10
1944.856311543371
 20
1135.270266963503
 30
0.0
 11
1944.89259974625
 21
1135.270582449755
 31
0.0
  0
ARC
  5
290
330
28A
100
AcDbEntity
  8
0
  6
Continuous
 62
     7
370
    15
100
AcDbCircle
 10
1944.348137639189
 20
1112.665471983831
 30
0.0
 40
33.0
100
AcDbArc
 50
112.4456051113038
 51
127.554394888701
  0
LINE
  5
291
330
28A
100
AcDbEntity
  8
0
  6
Continuous
 62
     7
370
    15
100
AcDbLine
 10
1931.748534470835
 20
1143.165471983831
 30
0.0
 11
1956.947740807543
 21
1143.165471983831
 31
0.0
  0
ARC
  5
292
330
28A
100
AcDbEntity
  8
0
  6
Continuous
 62
     7
370
    15
100
AcDbCircle
 10
1944.348137639189
 20
1112.665471983831
 30
0.0
 40
32.99999999999999
100
AcDbArc
 50
52.44560511129899
 51
67.55439488869619
  0
LINE
  5
293
330
28A
100
AcDbEntity
  8
0
  6
Continuous
 62
     7
370
    15
100
AcDbLine
 10
1964.462110870438
 20
1138.827048405229
 30
0.0
 11
1977.061714038791
 21
1117.003895562434
 31
0.0
  0
ARC
  5
294
330
28A
100
AcDbEntity
  8
0
  6
Continuous
 62
     7
370
    15
100
AcDbCircle
 10
1944.348137639189
 20
1112.665471983831
 30
0.0
 40
33.00000000000001
100
AcDbArc
 50
352.4456051112945
 51
7.554394888705437
  0
LINE
  5
295
330
28A
100
AcDbEntity
  8
0
  6
Continuous
 62
     7
370
    15
100
AcDbLine
 10
1977.061714038791
 20
1108.327048405229
 30
0.0
 11
1964.462110870438
 21
1086.503895562434
 31
0.0
  0
ARC
  5
296
330
28A
100
AcDbEntity
  8
0
  6
Continuous
 62
     7
370
    15
100
AcDbCircle
 10
1944.348137639189
 20
1112.665471983831
 30
0.0
 40
33.00000000000001
100
AcDbArc
 50
292.4456051113038
 51
307.554394888701
  0
LINE
  5
297
330
28A
100
AcDbEntity
  8
0
  6
Continuous
 62
     7
370
    15
100
AcDbLine
 10
1956.947740807543
 20
1082.165471983831
 30
0.0
 11
1931.748534470835
 21
1082.165471983831
 31
0.0
  0
ARC
  5
298
330
28A
100
AcDbEntity
  8
0
  6
Continuous
 62
     7
370
    15
100
AcDbCircle
 10
1944.348137639189
 20
1112.665471983831
 30
0.0
 40
33.00000000000001
100
AcDbArc
 50
232.445605111299
 51
247.5543948887082
  0
LINE
  5
299
330
28A
100
AcDbEntity
  8
0
  6
Continuous
 62
     7
370
    15
100
AcDbLine
 10
1924.234164407941
 20
1086.503895562434
 30
0.0
 11
1911.634561239587
 21
1108.327048405229
 31
0.0
  0
ARC
  5
29A
330
28A
100
AcDbEntity
  8
0
  6
Continuous
 62
     7
370
    15
100
AcDbCircle
 10
1944.348137639189
 20
1112.665471983831
 30
0.0
 40
33.00000000000001
100
AcDbArc
 50
172.4456051112945
 51
187.5543948887054
  0
LINE
  5
29B
330
28A
100
AcDbEntity
  8
0
  6
Continuous
 62
     7
370
    15
100
AcDbLine
 10
1911.634561239587
 20
1117.003895562434
 30
0.0
 11
1924.234164407941
 21
1138.827048405229
 31
0.0
  0
CIRCLE
  5
29C
330
28A
100
AcDbEntity
  8
0
  6
Continuous
 62
     7
370
    15
100
AcDbCircle
 10
1944.348137639189
 20
1112.665471983831
 30
0.0
 40
23.55
  0
SPLINE
  5
29D
330
28A
100
AcDbEntity
  8
0
  6
Continuous
 62
     7
370
    15
100
AcDbSpline
210
0.0
220
0.0
230
1.0
 70
     8
 71
     3
 72
    49
 73
    45
 74
     0
 42
0.0000000001
 43
0.0000000001
 40
0.0
 40
0.0
 40
0.0
 40
0.0
 40
0.0312500000000001
 40
0.0312500000000001
 40
0.0625000000000001
 40
0.0625000000000001
 40
0.1250000000000003
 40
0.1250000000000003
 40
0.1562500000000003
 40
0.1562500000000003
 40
0.1875000000000003
 40
0.1875000000000003
 40
0.2500000000000003
 40
0.2500000000000003
 40
0.3125000000000003
 40
0.3125000000000003
 40
0.3437500000000003
 40
0.3437500000000003
 40
0.3750000000000003
 40
0.3750000000000003
 40
0.4375000000000002
 40
0.4375000000000002
 40
0.4687500000000002
 40
0.4687500000000002
 40
0.5000000000000002
 40
0.5000000000000002
 40
0.5625000000000001
 40
0.5625000000000001
 40
0.59375
 40
0.59375
 40
0.625
 40
0.625
 40
0.6875
 40
0.6875
 40
0.71875
 40
0.71875
 40
0.7499999999999999
 40
0.7499999999999999
 40
0.8124999999999998
 40
0.8124999999999998
 40
0.8749999999999998
 40
0.8749999999999998
 40
0.9375
 40
1.0
 40
1.0
 40
1.0
 40
1.0
 10
1959.086857030267
 20
1095.517456428753
 30
0.0
 10
1959.539773317741
 20
1095.894482426413
 30
0.0
 10
1959.976806584798
 20
1096.288506258558
 30
0.0
 10
1960.819771808897
 20
1097.109838204173
 30
0.0
 10
1961.226333223542
 20
1097.538040907026
 30
0.0
 10
1962.386099432814
 20
1098.857884332954
 30
0.0
 10
1963.084208922282
 20
1099.788441883126
 30
0.0
 10
1964.021374549179
 20
1101.258514145067
 30
0.0
 10
1964.315348010115
 20
1101.760966215312
 30
0.0
 10
1964.865914471758
 20
1102.791097706826
 30
0.0
 10
1965.123217573665
 20
1103.320419958388
 30
0.0
 10
1965.832324780041
 20
1104.936226448319
 30
0.0
 10
1966.216346262178
 20
1106.036683012995
 30
0.0
 10
1966.813451798686
 20
1108.282398076584
 30
0.0
 10
1967.026532266464
 20
1109.427657515526
 30
0.0
 10
1967.213538057812
 20
1111.180304447989
 30
0.0
 10
1967.253265911284
 20
1111.76873131479
 30
0.0
 10
1967.287170329309
 20
1112.937269759926
 30
0.0
 10
1967.281877960804
 20
1113.51976750899
 30
0.0
 10
1967.200332784527
 20
1115.262031200914
 30
0.0
 10
1967.058789121945
 20
1116.416597628552
 30
0.0
 10
1966.713123076915
 20
1118.13782773956
 30
0.0
 10
1966.574824044573
 20
1118.712189276353
 30
0.0
 10
1966.256711558175
 20
1119.841495918904
 30
0.0
 10
1966.077002946759
 20
1120.397066914679
 30
0.0
 10
1965.477347846382
 20
1122.03716084837
 30
0.0
 10
1964.997210971318
 20
1123.095213762469
 30
0.0
 10
1964.155815280423
 20
1124.6289970442
 30
0.0
 10
1963.855067454086
 20
1125.131338427921
 30
0.0
 10
1963.211821430724
 20
1126.117660567064
 30
0.0
 10
1962.872468192236
 20
1126.596696228982
 30
0.0
 10
1961.80708085545
 20
1127.986192548513
 30
0.0
 10
1961.03186865668
 20
1128.85191812794
 30
0.0
 10
1959.774015010671
 20
1130.061833773682
 30
0.0
 10
1959.338843026313
 20
1130.450315218384
 30
0.0
 10
1958.436062297212
 20
1131.197012991212
 30
0.0
 10
1957.966794477947
 20
1131.556236780915
 30
0.0
 10
1956.531925745369
 20
1132.571171311794
 30
0.0
 10
1955.534110589168
 20
1133.169618276516
 30
0.0
 10
1953.45804621931
 20
1134.214023671817
 30
0.0
 10
1952.379184108415
 20
1134.660199784337
 30
0.0
 10
1950.140052023063
 20
1135.3926499038
 30
0.0
 10
1947.871163739453
 20
1135.948493803046
 30
0.0
 10
1945.544730238819
 20
1136.162800682609
 30
0.0
 10
1944.366626054305
 20
1136.181595607649
 30
0.0
  0
ARC
  5
29E
330
28A
100
AcDbEntity
  8
0
  6
Continuous
 62
     7
370
    15
100
AcDbCircle
 10
1944.347231325199
 20
1112.665188263862
 30
0.0
 40
22.61197189575243
100
AcDbArc
 50
226.554678362687
 51
310.6812691081491
  0
ARC
  5
29F
330
28A
100
AcDbEntity
  8
0
  6
Continuous
 62
     7
370
    15
100
AcDbCircle
 10
1944.348137639189
 20
1112.665471983831
 30
0.0
 40
33.00000000000001
100
AcDbArc
 50
187.5543948887054
 51
232.445605111299
  0
ARC
  5
2A0
330
28A
100
AcDbEntity
  8
0
  6
Continuous
 62
     7
370
    15
100
AcDbCircle
 10
1944.348137639189
 20
1112.665471983831
 30
0.0
 40
32.99999999999999
100
AcDbArc
 50
67.55439488869619
 51
112.4456051113038
  0
ARC
  5
2A1
330
28A
100
AcDbEntity
  8
0
  6
Continuous
 62
     7
370
    15
100
AcDbCircle
 10
1944.348137639189
 20
1112.665471983831
 30
0.0
 40
33.00000000000001
100
AcDbArc
 50
127.554394888701
 51
172.4456051112945
  0
ARC
  5
2A2
330
28A
100
AcDbEntity
  8
0
  6
Continuous
 62
     7
370
    15
100
AcDbCircle
 10
1944.348137639189
 20
1112.665471983831
 30
0.0
 40
33.00000000000001
100
AcDbArc
 50
7.554394888705437
 51
52.44560511129899
  0
ARC
  5
2A3
330
28A
100
AcDbEntity
  8
0
  6
Continuous
 62
     7
370
    15
100
AcDbCircle
 10
1944.348137639189
 20
1112.665471983831
 30
0.0
 40
33.00000000000001
100
AcDbArc
 50
247.5543948887082
 51
292.4456051113038
  0
ARC
  5
2A4
330
28A
100
AcDbEntity
  8
0
  6
Continuous
 62
     7
370
    15
100
AcDbCircle
 10
1944.348137639189
 20
1112.665471983831
 30
0.0
 40
33.0
100
AcDbArc
 50
307.554394888701
 51
352.4456051112945
  0
INSERT
  5
2A5
330
28A
100
AcDbEntity
  8
0
  6
Continuous
 62
     7
370
     0
100
AcDbBlockReference
  2
SW_CENTERMARKSYMBOL_0
 10
1944.348137639189
 20
1112.665471983831
 30
0.0
  0
ENDBLK
  5
28C
330
28A
100
AcDbEntity
  8
0
100
AcDbBlockEnd
  0
BLOCK
  5
2A8
330
2A7
100
AcDbEntity
  8
0
100
AcDbBlockBegin
  2
2
 70
     0
 10
0.0
 20
0.0
 30
0.0
  3
2
  1

  0
LINE
  5
2AA
330
2A7
100
AcDbEntity
  8
0
  6
Continuous
 62
     7
370
    15
100
AcDbLine
 10
1911.348137639189
 20
1034.299571974075
 30
0.0
 11
1911.348137639189
 21
1026.999571974075
 31
0.0
  0
LINE
  5
2AB
330
2A7
100
AcDbEntity
  8
0
  6
Continuous
 62
     7
370
    15
100
AcDbLine
 10
1977.348137639189
 20
1026.999571974075
 30
0.0
 11
1977.348137639189
 21
1034.299571974075
 31
0.0
  0
LINE
  5
2AC
330
2A7
100
AcDbEntity
  8
0
  6
Continuous
 62
     7
370
    15
100
AcDbLine
 10
1911.348137639189
 20
1034.299571974075
 30
0.0
 11
1977.348137639189
 21
1034.299571974075
 31
0.0
  0
LINE
  5
2AD
330
2A7
100
AcDbEntity
  8
0
  6
Continuous
 62
     7
370
    15
100
AcDbLine
 10
1964.462110870438
 20
1032.649571974075
 30
0.0
 11
1977.061714038791
 21
1032.649571974075
 31
0.0
  0
LINE
  5
2AE
330
2A7
100
AcDbEntity
  8
0
  6
Continuous
 62
     7
370
    15
100
AcDbLine
 10
1964.462110870438
 20
1026.999571974075
 30
0.0
 11
1964.462110870438
 21
1032.649571974075
 31
0.0
  0
LINE
  5
2AF
330
2A7
100
AcDbEntity
  8
0
  6
Continuous
 62
     7
370
    15
100
AcDbLine
 10
1956.947740807543
 20
1026.999571974075
 30
0.0
 11
1964.462110870438
 21
1026.999571974075
 31
0.0
  0
LINE
  5
2B0
330
2A7
100
AcDbEntity
  8
0
  6
Continuous
 62
     7
370
    15
100
AcDbLine
 10
1956.947740807543
 20
1032.649571974075
 30
0.0
 11
1956.947740807543
 21
1026.999571974075
 31
0.0
  0
LINE
  5
2B1
330
2A7
100
AcDbEntity
  8
0
  6
Continuous
 62
     7
370
    15
100
AcDbLine
 10
1931.748534470835
 20
1032.649571974075
 30
0.0
 11
1956.947740807543
 21
1032.649571974075
 31
0.0
  0
LINE
  5
2B2
330
2A7
100
AcDbEntity
  8
0
  6
Continuous
 62
     7
370
    15
100
AcDbLine
 10
1931.748534470835
 20
1026.999571974075
 30
0.0
 11
1931.748534470835
 21
1032.649571974075
 31
0.0
  0
LINE
  5
2B3
330
2A7
100
AcDbEntity
  8
0
  6
Continuous
 62
     7
370
    15
100
AcDbLine
 10
1924.234164407941
 20
1026.999571974075
 30
0.0
 11
1931.748534470835
 21
1026.999571974075
 31
0.0
  0
LINE
  5
2B4
330
2A7
100
AcDbEntity
  8
0
  6
Continuous
 62
     7
370
    15
100
AcDbLine
 10
1924.234164407941
 20
1032.649571974075
 30
0.0
 11
1924.234164407941
 21
1026.999571974075
 31
0.0
  0
LINE
  5
2B5
330
2A7
100
AcDbEntity
  8
0
  6
Continuous
 62
     7
370
    15
100
AcDbLine
 10
1911.634561239587
 20
1032.649571974075
 30
0.0
 11
1924.234164407941
 21
1032.649571974075
 31
0.0
  0
LINE
  5
2B6
330
2A7
100
AcDbEntity
  8
0
  6
Continuous
 62
     7
370
    15
100
AcDbLine
 10
1911.634561239587
 20
1026.999571974075
 30
0.0
 11
1911.634561239587
 21
1032.649571974075
 31
0.0
  0
LINE
  5
2B7
330
2A7
100
AcDbEntity
  8
0
  6
Continuous
 62
     7
370
    15
100
AcDbLine
 10
1911.348137639189
 20
1026.999571974075
 30
0.0
 11
1911.634561239587
 21
1026.999571974075
 31
0.0
  0
LINE
  5
2B8
330
2A7
100
AcDbEntity
  8
0
  6
Continuous
 62
     7
370
    15
100
AcDbLine
 10
1977.061714038791
 20
1026.999571974075
 30
0.0
 11
1977.348137639189
 21
1026.999571974075
 31
0.0
  0
LINE
  5
2B9
330
2A7
100
AcDbEntity
  8
0
  6
Continuous
 62
     7
370
    15
100
AcDbLine
 10
1977.061714038791
 20
1032.649571974075
 30
0.0
 11
1977.061714038791
 21
1026.999571974075
 31
0.0
  0
LINE
  5
2BA
330
2A7
100
AcDbEntity
  8
0
  6
Continuous
 62
     7
370
    15
100
AcDbLine
 10
1931.748534470835
 20
1026.999571974075
 30
0.0
 11
1956.947740807543
 21
1026.999571974075
 31
0.0
  0
LINE
  5
2BB
330
2A7
100
AcDbEntity
  8
0
  6
Continuous
 62
     7
370
    15
100
AcDbLine
 10
1911.634561239587
 20
1026.999571974075
 30
0.0
 11
1924.234164407941
 21
1026.999571974075
 31
0.0
  0
LINE
  5
2BC
330
2A7
100
AcDbEntity
  8
0
  6
Continuous
 62
     7
370
    15
100
AcDbLine
 10
1964.462110870438
 20
1026.999571974075
 30
0.0
 11
1977.061714038791
 21
1026.999571974075
 31
0.0
  0
ENDBLK
  5
2A9
330
2A7
100
AcDbEntity
  8
0
100
AcDbBlockEnd
  0
BLOCK
  5
2BF
330
2BE
100
AcDbEntity
  8
0
100
AcDbBlockBegin
  2
3
 70
     0
 10
0.0
 20
0.0
 30
0.0
  3
3
  1

  0
LINE
  5
2C1
330
2BE
100
AcDbEntity
  8
0
  6
Continuous
 62
     7
370
    15
100
AcDbLine
 10
2085.083746127132
 20
1115.570530556406
 30
0.0
 11
2085.013983086012
 21
1116.977719730906
 31
0.0
  0
LINE
  5
2C2
330
2BE
100
AcDbEntity
  8
0
  6
Continuous
 62
     7
370
    15
100
AcDbLine
 10
2019.094941151547
 20
1113.709706505373
 30
0.0
 11
2019.164704192668
 21
1112.302517330873
 31
0.0
  0
SPLINE
  5
2C3
330
2BE
100
AcDbEntity
  8
0
  6
Continuous
 62
     7
370
    15
100
AcDbSpline
210
0.0
220
0.0
230
1.0
 70
     8
 71
     3
 72
     9
 73
     5
 74
     0
 42
0.0000000001
 43
0.0000000001
 40
0.0
 40
0.0
 40
0.0
 40
0.0
 40
0.5000606372053644
 40
1.0
 40
1.0
 40
1.0
 40
1.0
 10
2061.188532507928
 20
1126.001185434429
 30
0.0
 10
2061.228399563589
 20
1125.993417693412
 30
0.0
 10
2061.308124006376
 20
1125.977884095206
 30
0.0
 10
2061.384584994263
 20
1125.961914805569
 30
0.0
 10
2061.422810851825
 20
1125.953931129084
 30
0.0
  0
LWPOLYLINE
  5
2C4
330
2BE
100
AcDbEntity
  8
0
  6
Continuous
 62
     7
370
    15
100
AcDbPolyline
 90
       19
 70
   128
 43
0.0
 10
2029.677355807795
 20
1100.534518347034
 10
2028.631119455054
 20
1101.026733656384
 10
2027.630871959968
 20
1101.544220486466
 10
2026.678571353979
 20
1102.085965832508
 10
2025.776081810246
 20
1102.650909202556
 10
2024.925169994429
 20
1103.237944693433
 10
2024.127501606368
 20
1103.845923155598
 10
2023.38463811939
 20
1104.47365444266
 10
2022.698033723657
 20
1105.119909741148
 10
2022.069032479516
 20
1105.783423975966
 10
2021.49886568644
 20
1106.46289828684
 10
2020.988649472702
 20
1107.157002570899
 10
2020.5393826105
 20
1107.864378086412
 10
2020.151944560814
 20
1108.583640112589
 10
2019.827093751821
 20
1109.313380660237
 10
2019.565466094234
 20
1110.052171227965
 10
2019.367573736479
 20
1110.798565598544
 10
2019.23380406214
 20
1111.551102669942
 10
2019.164704192668
 20
1112.302517330873
  0
LWPOLYLINE
  5
2C5
330
2BE
100
AcDbEntity
  8
0
  6
Continuous
 62
     7
370
    15
100
AcDbPolyline
 90
       55
 70
   128
 43
0.0
 10
2085.083746127132
 20
1115.570530556406
 10
2085.084031388165
 20
1115.564738571777
 10
2085.088896150184
 20
1114.80434461962
 10
2085.029231020715
 20
1114.042251867738
 10
2084.905152797054
 20
1113.279952148479
 10
2084.716904368149
 20
1112.518937699342
 10
2084.464854239141
 20
1111.760698241848
 10
2084.149495809991
 20
1111.006718065342
 10
2083.771446409636
 20
1110.258473121427
 10
2083.33144608753
 20
1109.517428134718
 10
2082.830356164964
 20
1108.785033735576
 10
2082.269157548995
 20
1108.06272362043
 10
2081.648948812266
 20
1107.35191174525
 10
2080.970944042506
 20
1106.653989557663
 10
2080.236470465889
 20
1105.970323273125
 10
2079.446965848934
 20
1105.302251200493
 10
2078.603975684002
 20
1104.651081122221
 10
2077.709150163928
 20
1104.018087734316
 10
2076.76424095169
 20
1103.404510151063
 10
2075.771097751443
 20
1102.811549479391
 10
2074.73166468764
 20
1102.240366467663
 10
2073.647976499314
 20
1101.692079233446
 10
2072.522154556985
 20
1101.16776107475
 10
2071.356402709974
 20
1100.668438368991
 10
2070.153002972264
 20
1100.195088563814
 10
2068.914311055354
 20
1099.748638263692
 10
2067.642751756841
 20
1099.329961416052
 10
2066.340814213763
 20
1098.939877600485
 10
2065.011047030001
 20
1098.579150424378
 10
2063.656053287262
 20
1098.248486028118
 10
2062.278485449428
 20
1097.948531702789
 10
2060.881040170233
 20
1097.679874623068
 10
2059.466453014434
 20
1097.443040697805
 10
2058.037493102819
 20
1097.238493540531
 10
2056.596957691519
 20
1097.066633561911
 10
2055.147666696248
 20
1096.927797185925
 10
2053.692457172188
 20
1096.822256191297
 10
2052.234177760321
 20
1096.750217179481
 10
2050.775683111075
 20
1096.711821170227
 10
2049.319828296216
 20
1096.707143325524
 10
2047.869463219913
 20
1096.736192802473
 10
2046.427427039912
 20
1096.79891273536
 10
2044.996542609752
 20
1096.895180346971
 10
2043.579610952901
 20
1097.024807188934
 10
2042.179405779615
 20
1097.18753951062
 10
2040.798668057275
 20
1097.383058755866
 10
2039.440100644813
 20
1097.610982186569
 10
2038.106363001736
 20
1097.87086363191
 10
2036.800065982113
 20
1098.162194361756
 10
2035.523766723704
 20
1098.484404082521
 10
2034.279963642243
 20
1098.836862053547
 10
2033.071091540669
 20
1099.218878321803
 10
2031.899516842892
 20
1099.629705072506
 10
2030.767532961398
 20
1100.068538092998
 10
2029.677355807795
 20
1100.534518347034
  0
ARC
  5
2C6
330
2BE
100
AcDbEntity
  8
0
  6
Continuous
 62
     7
370
    15
100
AcDbCircle
 10
2053.405023342115
 20
1079.112254381247
 30
0.0
 40
58.23405148010133
100
AcDbArc
 50
96.95620510789268
 51
105.2720065194738
  0
ARC
  5
2C7
330
2BE
100
AcDbEntity
  8
0
  6
Continuous
 62
     7
370
    15
100
AcDbCircle
 10
2030.123035222448
 20
1118.41960504456
 30
0.0
 40
11.34185162216139
100
AcDbArc
 50
144.1888063849447
 51
169.0180922444313
  0
LINE
  5
2C8
330
2BE
100
AcDbEntity
  8
0
  6
Continuous
 62
     7
370
    15
100
AcDbLine
 10
2019.2277681148
 20
1115.761659772949
 30
0.0
 11
2018.988882549751
 21
1120.580216643206
 31
0.0
  0
LWPOLYLINE
  5
2C9
330
2BE
100
AcDbEntity
  8
0
  6
Continuous
 62
     7
370
    15
100
AcDbPolyline
 90
       18
 70
   128
 43
0.0
 10
2026.627568096821
 20
1103.481972506822
 10
2025.687578363605
 20
1104.070423560282
 10
2024.803585203325
 20
1104.682816221207
 10
2023.977465993224
 20
1105.317849922925
 10
2023.210975200952
 20
1105.974176014934
 10
2022.505740658526
 20
1106.650400627096
 10
2021.863260105225
 20
1107.345087629866
 10
2021.284898006776
 20
1108.056761684261
 10
2020.771882657568
 20
1108.783911375111
 10
2020.325303572075
 20
1109.52499242092
 10
2019.946109170994
 20
1110.278430953528
 10
2019.635104767049
 20
1111.042626860606
 10
2019.392950854705
 20
1111.815957183893
 10
2019.220161707448
 20
1112.596779565942
 10
2019.117104285596
 20
1113.383435738075
 10
2019.083997456973
 20
1114.174255042125
 10
2019.120911532085
 20
1114.967557978486
 10
2019.2277681148
 20
1115.761659772949
  0
LINE
  5
2CA
330
2BE
100
AcDbEntity
  8
0
  6
Continuous
 62
     7
370
    15
100
AcDbLine
 10
2026.388682531773
 20
1108.300529377079
 30
0.0
 11
2026.627568096821
 21
1103.481972506822
 31
0.0
  0
ARC
  5
2CB
330
2BE
100
AcDbEntity
  8
0
  6
Continuous
 62
     7
370
    15
100
AcDbCircle
 10
2042.835262261274
 20
1136.46751693509
 30
0.0
 40
32.61700741778792
100
AcDbArc
 50
239.7195328407478
 51
251.9673684940339
  0
LINE
  5
2CC
330
2BE
100
AcDbEntity
  8
0
  6
Continuous
 62
     7
370
    15
100
AcDbLine
 10
2032.977272778193
 20
1100.634088032944
 30
0.0
 11
2032.738387213144
 21
1105.452644903201
 31
0.0
  0
ARC
  5
2CD
330
2BE
100
AcDbEntity
  8
0
  6
Continuous
 62
     7
370
    15
100
AcDbCircle
 10
2049.884986886098
 20
1155.24147084487
 30
0.0
 40
57.16499850365491
100
AcDbArc
 50
252.7962607139478
 51
277.6731698434044
  0
LINE
  5
2CE
330
2BE
100
AcDbEntity
  8
0
  6
Continuous
 62
     7
370
    15
100
AcDbLine
 10
2057.278893025979
 20
1103.406894132667
 30
0.0
 11
2057.517778591027
 21
1098.58833726241
 31
0.0
  0
ARC
  5
2CF
330
2BE
100
AcDbEntity
  8
0
  6
Continuous
 62
     7
370
    15
100
AcDbCircle
 10
2050.226129765345
 20
1161.212285595551
 30
0.0
 40
58.23405148010704
100
AcDbArc
 50
276.9562051078927
 51
285.2720065194738
  0
LINE
  5
2D0
330
2BE
100
AcDbEntity
  8
0
  6
Continuous
 62
     7
370
    15
100
AcDbLine
 10
2065.803966782172
 20
1100.216141378134
 30
0.0
 11
2065.565081217124
 21
1105.034698248391
 31
0.0
  0
LWPOLYLINE
  5
2D1
330
2BE
100
AcDbEntity
  8
0
  6
Continuous
 62
     7
370
    15
100
AcDbPolyline
 90
       18
 70
   128
 43
0.0
 10
2082.944672612986
 20
1110.450077873728
 10
2082.38084762367
 20
1109.694069975007
 10
2081.75261708406
 20
1108.950060485248
 10
2081.061315196463
 20
1108.219629491884
 10
2080.308410110736
 20
1107.504328245064
 10
2079.4955008063
 20
1106.805675863195
 10
2078.62431369632
 20
1106.125156106718
 10
2077.696698961231
 20
1105.464214226977
 10
2076.714626619435
 20
1104.824253896872
 10
2075.680182343476
 20
1104.206634229813
 10
2074.595563030602
 20
1103.612666893308
 10
2073.463072137112
 20
1103.043613323317
 10
2072.285114786398
 20
1102.500682045277
 10
2071.064192661074
 20
1101.985026107504
 10
2069.802898690041
 20
1101.49774063241
 10
2068.503911541755
 20
1101.03986049074
 10
2067.169989935421
 20
1100.612358103772
 10
2065.803966782172
 20
1100.216141378134
  0
LINE
  5
2D2
330
2BE
100
AcDbEntity
  8
0
  6
Continuous
 62
     7
370
    15
100
AcDbLine
 10
2082.705787047937
 20
1115.268634743985
 30
0.0
 11
2082.944672612986
 21
1110.450077873728
 31
0.0
  0
ARC
  5
2D3
330
2BE
100
AcDbEntity
  8
0
  6
Continuous
 62
     7
370
    15
100
AcDbCircle
 10
2073.508117885014
 20
1121.904934932233
 30
0.0
 40
11.3418516221618
100
AcDbArc
 50
324.1888063849523
 51
349.0180922444314
  0
LINE
  5
2D4
330
2BE
100
AcDbEntity
  8
0
  6
Continuous
 62
     7
370
    15
100
AcDbLine
 10
2084.88115612276
 20
1114.92576646333
 30
0.0
 11
2084.642270557711
 21
1119.744323333587
 31
0.0
  0
LINE
  5
2D5
330
2BE
100
AcDbEntity
  8
0
  6
Continuous
 62
     7
370
    15
100
AcDbLine
 10
2083.396445242643
 20
1121.811723167964
 30
0.0
 11
2083.731530321891
 21
1121.255662194599
 31
0.0
  0
ARC
  5
2D6
330
2BE
100
AcDbEntity
  8
0
  6
Continuous
 62
     7
370
    15
100
AcDbCircle
 10
2075.964660040085
 20
1116.529089008608
 30
0.0
 40
9.059500293976105
100
AcDbArc
 50
349.8062762333177
 51
15.87008627282336
  0
ARC
  5
2D7
330
2BE
100
AcDbEntity
  8
0
  6
Continuous
 62
     7
370
    15
100
AcDbCircle
 10
2060.795890846183
 20
1103.857023041693
 30
0.0
 40
32.61700741779822
100
AcDbArc
 50
59.71953284074785
 51
71.96736849403392
  0
LWPOLYLINE
  5
2D8
330
2BE
100
AcDbEntity
  8
0
  6
Continuous
 62
     7
370
    15
100
AcDbPolyline
 90
      121
 70
   128
 43
0.0
 10
2035.796674334274
 20
1110.598111449
 10
2034.91667728435
 20
1111.015749504869
 10
2034.082998942695
 20
1111.458457537617
 10
2033.297924363696
 20
1111.925022115297
 10
2032.563605382204
 20
1112.414164416833
 10
2031.882054715504
 20
1112.924543737177
 10
2031.255140446601
 20
1113.454761162087
 10
2030.68458090393
 20
1114.003363402457
 10
2030.171939951536
 20
1114.568846777679
 10
2029.718622702639
 20
1115.149661337127
 10
2029.325871668307
 20
1115.744215108466
 10
2028.994763351827
 20
1116.350878461136
 10
2028.726205298077
 20
1116.967988573055
 10
2028.520933606015
 20
1117.593853988302
 10
2028.379510911084
 20
1118.226759253277
 10
2028.302324843057
 20
1118.864969618641
 10
2028.289586963584
 20
1119.506735794145
 10
2028.341332186306
 20
1120.150298743309
 10
2028.457418681164
 20
1120.793894504824
 10
2028.637528263145
 20
1121.435759027443
 10
2028.881167264405
 20
1122.074133005125
 10
2029.187667887375
 20
1122.707266699171
 10
2029.556190035153
 20
1123.333424734132
 10
2029.985723614147
 20
1123.95089085436
 10
2030.475091302674
 20
1124.557972628138
 10
2031.022951777916
 20
1125.153006086522
 10
2031.62780339239
 20
1125.734360284163
 10
2032.287988289865
 20
1126.300441769615
 10
2033.001696949425
 20
1126.849698952873
 10
2033.766973145243
 20
1127.380626358177
 10
2034.581719308462
 20
1127.891768750413
 10
2035.443702276478
 20
1128.381725123814
 10
2036.350559413894
 20
1128.849152542015
 10
2037.29980508833
 20
1129.292769818955
 10
2038.288837483373
 20
1129.711361030513
 10
2039.314945729977
 20
1130.103778847273
 10
2040.37531733676
 20
1130.468947679277
 10
2041.467045898854
 20
1130.805866624139
 10
2042.587139064156
 20
1131.113612210449
 10
2043.732526735155
 20
1131.391340928948
 10
2044.900069483862
 20
1131.638291544521
 10
2046.086567156756
 20
1131.853787182698
 10
2047.288767646188
 20
1132.037237184912
 10
2048.503375804182
 20
1132.188138727459
 10
2049.727062474202
 20
1132.306078199701
 10
2050.956473616142
 20
1132.390732337742
 10
2052.18823949952
 20
1132.441869110472
 10
2053.418983939666
 20
1132.459348355554
 10
2054.645333551619
 20
1132.44312216359
 10
2055.863926996335
 20
1132.393235009446
 10
2057.071424193885
 20
1132.309823630343
 10
2058.264515478383
 20
1132.193116651074
 10
2059.439930669549
 20
1132.043433957356
 10
2060.594448036045
 20
1131.861185819049
 10
2061.724903126021
 20
1131.646871765632
 10
2062.82819744065
 20
1131.401079217028
 10
2063.901306926907
 20
1131.124481873529
 10
2064.941290266279
 20
1130.817837869226
 10
2065.945296936723
 20
1130.481987694022
 10
2066.910575025741
 20
1130.117851889901
 10
2067.834478773188
 20
1129.726428527792
 10
2068.714475823112
 20
1129.308790471923
 10
2069.548154164767
 20
1128.866082439176
 10
2070.333228743766
 20
1128.399517861496
 10
2071.067547725259
 20
1127.91037555996
 10
2071.749098391958
 20
1127.399996239616
 10
2072.376012660861
 20
1126.869778814706
 10
2072.946572203532
 20
1126.321176574336
 10
2073.459213155926
 20
1125.755693199114
 10
2073.912530404823
 20
1125.174878639666
 10
2074.305281439154
 20
1124.580324868327
 10
2074.636389755636
 20
1123.973661515657
 10
2074.904947809386
 20
1123.356551403738
 10
2075.110219501446
 20
1122.73068598849
 10
2075.251642196378
 20
1122.097780723516
 10
2075.328828264404
 20
1121.459570358152
 10
2075.341566143878
 20
1120.817804182648
 10
2075.289820921156
 20
1120.174241233484
 10
2075.173734426298
 20
1119.530645471969
 10
2074.993624844317
 20
1118.88878094935
 10
2074.749985843058
 20
1118.250406971668
 10
2074.443485220088
 20
1117.617273277622
 10
2074.074963072309
 20
1116.991115242661
 10
2073.645429493315
 20
1116.373649122433
 10
2073.156061804788
 20
1115.766567348655
 10
2072.608201329547
 20
1115.171533890271
 10
2072.003349715072
 20
1114.59017969263
 10
2071.343164817597
 20
1114.024098207178
 10
2070.629456158037
 20
1113.47484102392
 10
2069.864179962219
 20
1112.943913618616
 10
2069.049433799
 20
1112.43277122638
 10
2068.187450830984
 20
1111.942814852979
 10
2067.280593693568
 20
1111.475387434778
 10
2066.331348019132
 20
1111.031770157838
 10
2065.342315624088
 20
1110.61317894628
 10
2064.316207377485
 20
1110.22076112952
 10
2063.255835770702
 20
1109.855592297515
 10
2062.164107208608
 20
1109.518673352654
 10
2061.044014043306
 20
1109.210927766343
 10
2059.898626372306
 20
1108.933199047845
 10
2058.7310836236
 20
1108.686248432272
 10
2057.544585950706
 20
1108.470752794095
 10
2056.342385461273
 20
1108.287302791881
 10
2055.12777730328
 20
1108.136401249333
 10
2053.90409063326
 20
1108.018461777092
 10
2052.674679491319
 20
1107.933807639051
 10
2051.442913607942
 20
1107.882670866321
 10
2050.212169167796
 20
1107.865191621239
 10
2048.985819555843
 20
1107.881417813203
 10
2047.767226111127
 20
1107.931304967347
 10
2046.559728913577
 20
1108.014716346449
 10
2045.366637629079
 20
1108.131423325719
 10
2044.191222437913
 20
1108.281106019437
 10
2043.036705071417
 20
1108.463354157744
 10
2041.906249981441
 20
1108.677668211161
 10
2040.802955666812
 20
1108.923460759765
 10
2039.729846180555
 20
1109.200058103264
 10
2038.689862841183
 20
1109.506702107567
 10
2037.685856170739
 20
1109.842552282771
 10
2036.720578081721
 20
1110.206688086892
 10
2035.796674334274
 20
1110.598111449
  0
LINE
  5
2D9
330
2BE
100
AcDbEntity
  8
0
  6
Continuous
 62
     7
370
    15
100
AcDbLine
 10
2020.925366059525
 20
1125.055905232808
 30
0.0
 11
2038.066071890339
 21
1135.289841728402
 31
0.0
  0
LINE
  5
2DA
330
2BE
100
AcDbEntity
  8
0
  6
Continuous
 62
     7
370
    15
100
AcDbLine
 10
2046.352260081484
 20
1136.917645844126
 30
0.0
 11
2070.892765894318
 21
1134.871895073592
 31
0.0
  0
LINE
  5
2DB
330
2BE
100
AcDbEntity
  8
0
  6
Continuous
 62
     7
370
    15
100
AcDbLine
 10
2077.24247057569
 20
1132.024010599714
 30
0.0
 11
2084.642270557711
 21
1119.744323333587
 31
0.0
  0
LINE
  5
2DC
330
2BE
100
AcDbEntity
  8
0
  6
Continuous
 62
     7
370
    15
100
AcDbLine
 10
2082.705787047937
 20
1115.268634743985
 30
0.0
 11
2065.565081217124
 21
1105.034698248391
 31
0.0
  0
LINE
  5
2DD
330
2BE
100
AcDbEntity
  8
0
  6
Continuous
 62
     7
370
    15
100
AcDbLine
 10
2057.278893025979
 20
1103.406894132667
 30
0.0
 11
2032.738387213144
 21
1105.452644903201
 31
0.0
  0
LINE
  5
2DE
330
2BE
100
AcDbEntity
  8
0
  6
Continuous
 62
     7
370
    15
100
AcDbLine
 10
2026.388682531773
 20
1108.300529377079
 30
0.0
 11
2018.988882549751
 21
1120.580216643206
 31
0.0
  0
LINE
  5
2DF
330
2BE
100
AcDbEntity
  8
0
  6
Continuous
 62
     7
370
    15
100
AcDbLine
 10
2057.517778591027
 20
1098.58833726241
 30
0.0
 11
2032.977272778193
 21
1100.634088032944
 31
0.0
  0
SPLINE
  5
2E0
330
2BE
100
AcDbEntity
  8
0
  6
Continuous
 62
     7
370
    15
100
AcDbSpline
210
0.0
220
0.0
230
1.0
 70
     8
 71
     3
 72
    42
 73
    38
 74
     0
 42
0.0000000001
 43
0.0000000001
 40
0.0
 40
0.0
 40
0.0
 40
0.0
 40
0.0245157025732575
 40
0.0556299443031771
 40
0.0871977814366636
 40
0.1244160973101647
 40
0.1620225873211267
 40
0.1848720573574224
 40
0.2078103356411842
 40
0.2288046294736538
 40
0.2498677356991144
 40
0.2804372377517664
 40
0.3112205506090005
 40
0.3423350078072324
 40
0.3739030700749689
 40
0.3967947715485446
 40
0.4197757738634849
 40
0.4430322193706102
 40
0.4663823251143614
 40
0.4979504493139551
 40
0.5285197642489445
 40
0.5593028903636604
 40
0.5904171593508853
 40
0.6219850298482694
 40
0.652554387341629
 40
0.6833375498629959
 40
0.7144518522044497
 40
0.7460197565375167
 40
0.7765892300372741
 40
0.8073725170539059
 40
0.8384869555765456
 40
0.8700550034561887
 40
0.900624312325004
 40
0.9314074254426895
 40
0.9625216748664264
 40
0.9940895198119791
 40
1.0
 40
1.0
 40
1.0
 40
1.0
 10
2073.925370423587
 20
1118.477967748534
 30
0.0
 10
2073.793247793914
 20
1118.730765773275
 30
0.0
 10
2073.493440986097
 20
1119.304403832158
 30
0.0
 10
2072.840423300062
 20
1120.167021171787
 30
0.0
 10
2071.950816524213
 20
1121.116664328722
 30
0.0
 10
2070.818152442643
 20
1122.070138489637
 30
0.0
 10
2069.610792404057
 20
1122.879746494286
 30
0.0
 10
2068.472407132499
 20
1123.519304245342
 30
0.0
 10
2067.498996901875
 20
1123.99833214443
 30
0.0
 10
2066.497485174406
 20
1124.432459090394
 30
0.0
 10
2065.324150300515
 20
1124.881673595303
 30
0.0
 10
2063.922012913732
 20
1125.339513633942
 30
0.0
 10
2062.266124064196
 20
1125.780181644437
 30
0.0
 10
2060.519653134478
 20
1126.148073971425
 30
0.0
 10
2058.864618611568
 20
1126.410587254336
 30
0.0
 10
2057.332865231821
 20
1126.588160086104
 30
0.0
 10
2055.94488870777
 20
1126.701023324845
 30
0.0
 10
2054.532332631772
 20
1126.767837246985
 30
0.0
 10
2052.934507514033
 20
1126.789663842229
 30
0.0
 10
2051.180837396079
 20
1126.744550954353
 30
0.0
 10
2049.281358589942
 20
1126.612401588215
 30
0.0
 10
2047.410547816822
 20
1126.400222651922
 30
0.0
 10
2045.552703974885
 20
1126.104971653953
 30
0.0
 10
2043.745935927231
 20
1125.730896284519
 30
0.0
 10
2042.00500266204
 20
1125.282347106976
 30
0.0
 10
2040.342864799489
 20
1124.764588517599
 30
0.0
 10
2038.746330423524
 20
1124.172103424364
 30
0.0
 10
2037.249316489186
 20
1123.515421613338
 30
0.0
 10
2035.86323470936
 20
1122.800899874928
 30
0.0
 10
2034.597122726374
 20
1122.036406952651
 30
0.0
 10
2033.441881085809
 20
1121.215343973839
 30
0.0
 10
2032.423078470237
 20
1120.353044048456
 30
0.0
 10
2031.548713858446
 20
1119.457501118427
 30
0.0
 10
2030.818345609394
 20
1118.5369833639
 30
0.0
 10
2030.245370993362
 20
1117.582386702001
 30
0.0
 10
2029.902217629914
 20
1116.871072757072
 30
0.0
 10
2029.799579651208
 20
1116.478010036477
 30
0.0
 10
2029.783393235792
 20
1116.416022489957
 30
0.0
  0
SPLINE
  5
2E1
330
2BE
100
AcDbEntity
  8
0
  6
Continuous
 62
     7
370
    15
100
AcDbSpline
210
0.0
220
0.0
230
1.0
 70
     8
 71
     3
 72
    42
 73
    38
 74
     0
 42
0.0000000001
 43
0.0000000001
 40
0.0
 40
0.0
 40
0.0
 40
0.0
 40
0.0148131437594117
 40
0.0443341832736818
 40
0.0741727839675036
 40
0.1044463832783919
 40
0.140138799487207
 40
0.1762034752287422
 40
0.1981161484796818
 40
0.2201139889623173
 40
0.2402475456773904
 40
0.260447093572164
 40
0.2897632881648453
 40
0.3192845276137483
 40
0.3491233349419786
 40
0.3793971501569228
 40
0.4086075053858106
 40
0.4382346628609795
 40
0.4680735169044511
 40
0.4983473915121317
 40
0.5276634066587168
 40
0.5571844670212873
 40
0.5870230938549021
 40
0.6172967251618142
 40
0.6466127811219349
 40
0.6761338763985339
 40
0.7059725352189017
 40
0.7362461989742802
 40
0.7655623661846973
 40
0.7950835808524258
 40
0.8249223702707375
 40
0.8551961716874803
 40
0.8845121810165961
 40
0.9140332289149968
 40
0.9438718369872001
 40
0.9741454437898706
 40
1.0
 40
1.0
 40
1.0
 40
1.0
 10
2074.152549727806
 20
1119.150864636236
 30
0.0
 10
2074.093894970738
 20
1119.313908470799
 30
0.0
 10
2073.918347444034
 20
1119.801881541242
 30
0.0
 10
2073.45733912224
 20
1120.592845147728
 30
0.0
 10
2072.777685700123
 20
1121.520788391294
 30
0.0
 10
2071.882330494219
 20
1122.469490103663
 30
0.0
 10
2070.751487197183
 20
1123.423262462332
 30
0.0
 10
2069.543649020717
 20
1124.232792159557
 30
0.0
 10
2068.405341373106
 20
1124.872362625267
 30
0.0
 10
2067.431914286485
 20
1125.351387757862
 30
0.0
 10
2066.430406625995
 20
1125.785515390306
 30
0.0
 10
2065.257070884317
 20
1126.234729666812
 30
0.0
 10
2063.854932214571
 20
1126.692569965483
 30
0.0
 10
2062.199050194827
 20
1127.13323720334
 30
0.0
 10
2060.452552957352
 20
1127.501132375007
 30
0.0
 10
2058.651260354725
 20
1127.786849399929
 30
0.0
 10
2056.80728241991
 20
1127.98995503372
 30
0.0
 10
2054.938647792844
 20
1128.110023135453
 30
0.0
 10
2053.026621452649
 20
1128.14681518413
 30
0.0
 10
2051.113779825689
 20
1128.097607678985
 30
0.0
 10
2049.214273461517
 20
1127.96545759223
 30
0.0
 10
2047.343470058609
 20
1127.753278848641
 30
0.0
 10
2045.485624209009
 20
1127.458027798255
 30
0.0
 10
2043.67885670885
 20
1127.083952442827
 30
0.0
 10
2041.937923287088
 20
1126.635403262324
 30
0.0
 10
2040.275785516967
 20
1126.117644671113
 30
0.0
 10
2038.679250923991
 20
1125.525159588342
 30
0.0
 10
2037.182237768039
 20
1124.868477737104
 30
0.0
 10
2035.796153166443
 20
1124.153956145203
 30
0.0
 10
2034.530051747744
 20
1123.389462674221
 30
0.0
 10
2033.374770007458
 20
1122.568401778227
 30
0.0
 10
2032.35611787712
 20
1121.706094036483
 30
0.0
 10
2031.481205910347
 20
1120.810579536652
 30
0.0
 10
2030.752887364616
 20
1119.889955318358
 30
0.0
 10
2030.172132392908
 20
1118.935762776392
 30
0.0
 10
2029.751741461305
 20
1118.004705998932
 30
0.0
 10
2029.603941966643
 20
1117.390234381607
 30
0.0
 10
2029.535860452168
 20
1117.10718768781
 30
0.0
  0
SPLINE
  5
2E2
330
2BE
100
AcDbEntity
  8
0
  6
Continuous
 62
     7
370
    15
100
AcDbSpline
210
0.0
220
0.0
230
1.0
 70
     8
 71
     3
 72
    46
 73
    42
 74
     0
 42
0.0000000001
 43
0.0000000001
 40
0.0
 40
0.0
 40
0.0
 40
0.0
 40
0.0052082766213742
 40
0.03342220138788
 40
0.0618338195618218
 40
0.0904733495299897
 40
0.1195825912741351
 40
0.1539022359647259
 40
0.1885798226568035
 40
0.2096497092061917
 40
0.2308014873572576
 40
0.2501606842459385
 40
0.2695833342173922
 40
0.2906921339935643
 40
0.311968111165397
 40
0.3333284150692172
 40
0.358578604343673
 40
0.3839701531434118
 40
0.4120570443999866
 40
0.4405447072074405
 40
0.4692359244888717
 40
0.4983454309415779
 40
0.526533918313479
 40
0.5549195646257266
 40
0.5836105634360553
 40
0.6127198359456206
 40
0.6409083625613223
 40
0.6692940424447639
 40
0.6979850720115967
 40
0.7270943757216229
 40
0.7552830093088058
 40
0.7836688039914574
 40
0.8123599591332871
 40
0.841469395210062
 40
0.8696578769882407
 40
0.8980435113157046
 40
0.9267344920862063
 40
0.9558437410339909
 40
0.9769525964246604
 40
0.9981437993818323
 40
1.0
 40
1.0
 40
1.0
 40
1.0
 10
2074.308140993283
 20
1119.845113375854
 30
0.0
 10
2074.295661090882
 20
1119.905712679178
 30
0.0
 10
2074.21557590308
 20
1120.294586440476
 30
0.0
 10
2073.913364822868
 20
1120.997684170431
 30
0.0
 10
2073.397205110784
 20
1121.947684622177
 30
0.0
 10
2072.708062653124
 20
1122.874117405314
 30
0.0
 10
2071.815913778806
 20
1123.822629573051
 30
0.0
 10
2070.684212905637
 20
1124.776294065403
 30
0.0
 10
2069.47659953461
 20
1125.585852200106
 30
0.0
 10
2068.338256340837
 20
1126.225417779487
 30
0.0
 10
2067.364833942265
 20
1126.704444833112
 30
0.0
 10
2066.363335587794
 20
1127.138569040575
 30
0.0
 10
2065.313998262793
 20
1127.54030622135
 30
0.0
 10
2064.182375687417
 20
1127.918891814144
 30
0.0
 10
2062.967328084725
 20
1128.268973157632
 30
0.0
 10
2061.627117413929
 20
1128.597073251772
 30
0.0
 10
2060.1579952405
 20
1128.891735056869
 30
0.0
 10
2058.504208290504
 20
1129.148710983076
 30
0.0
 10
2056.740192020976
 20
1129.343013315204
 30
0.0
 10
2054.871571464302
 20
1129.463078713614
 30
0.0
 10
2052.959541297324
 20
1129.499871497526
 30
0.0
 10
2051.046700705649
 20
1129.450663793473
 30
0.0
 10
2049.147194070911
 20
1129.318513758699
 30
0.0
 10
2047.276390740439
 20
1129.106335001205
 30
0.0
 10
2045.418544870821
 20
1128.811083954619
 30
0.0
 10
2043.611777377194
 20
1128.437008598109
 30
0.0
 10
2041.870843949684
 20
1127.988459418079
 30
0.0
 10
2040.208706196244
 20
1127.470700826031
 30
0.0
 10
2038.612171541259
 20
1126.878215746182
 30
0.0
 10
2037.115158617663
 20
1126.221533884049
 30
0.0
 10
2035.729073171012
 20
1125.507012331758
 30
0.0
 10
2034.462974916806
 20
1124.74251871245
 30
0.0
 10
2033.307681164597
 20
1123.921458379477
 30
0.0
 10
2032.289074112357
 20
1123.059148524837
 30
0.0
 10
2031.413998184492
 20
1122.163641710175
 30
0.0
 10
2030.686293630796
 20
1121.242988712905
 30
0.0
 10
2030.103208040614
 20
1120.288905411467
 30
0.0
 10
2029.709921556518
 20
1119.399725772094
 30
0.0
 10
2029.480371485887
 20
1118.588343488125
 30
0.0
 10
2029.374858430252
 20
1118.084484588252
 30
0.0
 10
2029.363220499429
 20
1117.821955125587
 30
0.0
 10
2029.362283199298
 20
1117.800811427153
 30
0.0
  0
SPLINE
  5
2E3
330
2BE
100
AcDbEntity
  8
0
  6
Continuous
 62
     7
370
    15
100
AcDbSpline
210
0.0
220
0.0
230
1.0
 70
     8
 71
     3
 72
    47
 73
    43
 74
     0
 42
0.0000000001
 43
0.0000000001
 40
0.0
 40
0.0
 40
0.0
 40
0.0
 40
0.0248385193167199
 40
0.0517928414398049
 40
0.078936031004401
 40
0.1062969573060184
 40
0.1341066252350232
 40
0.1668940791534591
 40
0.2000234948545716
 40
0.2201527223140314
 40
0.2403601853479128
 40
0.2588550963998201
 40
0.2774106276896743
 40
0.2975770311059798
 40
0.3179031483306842
 40
0.3383098275444198
 40
0.3624327293032187
 40
0.3866906796315154
 40
0.4135236396195749
 40
0.4407394788266577
 40
0.4681497848761444
 40
0.4959597056958715
 40
0.5228897260695961
 40
0.5500081032788743
 40
0.5774182006108388
 40
0.6052278979317496
 40
0.6321579557972468
 40
0.6592763650789424
 40
0.6866864917942958
 40
0.7144962189227324
 40
0.7414263789839989
 40
0.7685448979397261
 40
0.7959551446238161
 40
0.8237649982095256
 40
0.8506950132392582
 40
0.8778133789988096
 40
0.9052234590963301
 40
0.9330331339073694
 40
0.9531995904552786
 40
0.9734447181860151
 40
0.9939325022280691
 40
1.0
 40
1.0
 40
1.0
 40
1.0
 10
2074.398589221976
 20
1120.47330535881
 30
0.0
 10
2074.342799567781
 20
1120.776502490187
 30
0.0
 10
2074.22646796698
 20
1121.408723789299
 30
0.0
 10
2073.852887023658
 20
1122.351441019364
 30
0.0
 10
2073.328337495886
 20
1123.300550967782
 30
0.0
 10
2072.641470264693
 20
1124.227225245705
 30
0.0
 10
2071.748676560938
 20
1125.175668970608
 30
0.0
 10
2070.617180048276
 20
1126.129355153986
 30
0.0
 10
2069.409513011854
 20
1126.938907592591
 30
0.0
 10
2068.271178531284
 20
1127.578474096799
 30
0.0
 10
2067.297754238024
 20
1128.057500949321
 30
0.0
 10
2066.296256349724
 20
1128.491625206264
 30
0.0
 10
2065.24691890095
 20
1128.893362373901
 30
0.0
 10
2064.115296361585
 20
1129.271947970517
 30
0.0
 10
2062.900248748911
 20
1129.622029312945
 30
0.0
 10
2061.560038080911
 20
1129.950129407382
 30
0.0
 10
2060.090915906602
 20
1130.244791212386
 30
0.0
 10
2058.437128956861
 20
1130.501767138621
 30
0.0
 10
2056.673112687258
 20
1130.696069470741
 30
0.0
 10
2054.804492130605
 20
1130.816134869153
 30
0.0
 10
2052.892461963621
 20
1130.852927653064
 30
0.0
 10
2050.979621371951
 20
1130.803719949011
 30
0.0
 10
2049.080114737202
 20
1130.671569914237
 30
0.0
 10
2047.209311406766
 20
1130.459391156744
 30
0.0
 10
2045.351465537011
 20
1130.164140110155
 30
0.0
 10
2043.544698043897
 20
1129.790064753656
 30
0.0
 10
2041.803764614526
 20
1129.341515573585
 30
0.0
 10
2040.141626868053
 20
1128.82375698169
 30
0.0
 10
2038.545092186625
 20
1128.231271901263
 30
0.0
 10
2037.048079362263
 20
1127.574590041297
 30
0.0
 10
2035.661993554665
 20
1126.860068481123
 30
0.0
 10
2034.395896652117
 20
1126.095574891334
 30
0.0
 10
2033.24059776922
 20
1125.274514446314
 30
0.0
 10
2032.222009971321
 20
1124.412205012164
 30
0.0
 10
2031.346864010268
 20
1123.516696668066
 30
0.0
 10
2030.61942171281
 20
1122.596049398139
 30
0.0
 10
2030.035340638657
 20
1121.641944356593
 30
0.0
 10
2029.645482413675
 20
1120.752839586055
 30
0.0
 10
2029.40639029442
 20
1119.941248915835
 30
0.0
 10
2029.287250303897
 20
1119.214588228908
 30
0.0
 10
2029.244866176112
 20
1118.655312102594
 30
0.0
 10
2029.272475747601
 20
1118.340396008146
 30
0.0
 10
2029.278784135314
 20
1118.268442235831
 30
0.0
  0
SPLINE
  5
2E4
330
2BE
100
AcDbEntity
  8
0
  6
Continuous
 62
     7
370
    15
100
AcDbSpline
210
0.0
220
0.0
230
1.0
 70
     8
 71
     3
 72
    18
 73
    14
 74
     0
 42
0.0000000001
 43
0.0000000001
 40
0.0
 40
0.0
 40
0.0
 40
0.0
 40
0.0305464081735388
 40
0.1360862929024182
 40
0.241302862955105
 40
0.3398150715626607
 40
0.4372871252661185
 40
0.5335036697997828
 40
0.6303907194218712
 40
0.7284732123791025
 40
0.8334142267801782
 40
0.9388707839790992
 40
1.0
 40
1.0
 40
1.0
 40
1.0
 10
2040.947504815637
 20
1130.431303823499
 30
0.0
 10
2041.131132749532
 20
1130.489539394066
 30
0.0
 10
2041.949207485359
 20
1130.748982758683
 30
0.0
 10
2043.492743640145
 20
1131.11792299543
 30
0.0
 10
2045.514734730927
 20
1131.521723511815
 30
0.0
 10
2047.540174657838
 20
1131.817237284541
 30
0.0
 10
2049.534934372314
 20
1132.018056044409
 30
0.0
 10
2051.535609745249
 20
1132.130278271134
 30
0.0
 10
2053.542345068945
 20
1132.153398771185
 30
0.0
 10
2055.597277127627
 20
1132.085228515613
 30
0.0
 10
2057.677638399171
 20
1131.911556926393
 30
0.0
 10
2059.477172081148
 20
1131.684228478253
 30
0.0
 10
2060.532321114159
 20
1131.47595262629
 30
0.0
 10
2060.919511640255
 20
1131.399525094092
 30
0.0
  0
SPLINE
  5
2E5
330
2BE
100
AcDbEntity
  8
0
  6
Continuous
 62
     7
370
    15
100
AcDbSpline
210
0.0
220
0.0
230
1.0
 70
     8
 71
     3
 72
    17
 73
    13
 74
     0
 42
0.0000000001
 43
0.0000000001
 40
0.0
 40
0.0
 40
0.0
 40
0.0
 40
0.0876309004147033
 40
0.1870989128556216
 40
0.2860855331178666
 40
0.3901327076232579
 40
0.4928119747576909
 40
0.5950655574446739
 40
0.6987628819139314
 40
0.8035351304996641
 40
0.9089501526204026
 40
1.0
 40
1.0
 40
1.0
 40
1.0
 10
2041.013967507536
 20
1129.084647704209
 30
0.0
 10
2041.553273783907
 20
1129.239677369158
 30
0.0
 10
2042.70473539765
 20
1129.570677982357
 30
0.0
 10
2044.555444127243
 20
1129.975773156121
 30
0.0
 10
2046.561036215027
 20
1130.324107961131
 30
0.0
 10
2048.633011172401
 20
1130.580575254165
 30
0.0
 10
2050.753206653729
 20
1130.742172739141
 30
0.0
 10
2052.880298106423
 20
1130.804226777776
 30
0.0
 10
2055.014281264711
 20
1130.765359561242
 30
0.0
 10
2057.142089579035
 20
1130.620183876848
 30
0.0
 10
2059.147830399207
 20
1130.38981865662
 30
0.0
 10
2060.405181590354
 20
1130.161871988521
 30
0.0
 10
2060.987889503212
 20
1130.056232189437
 30
0.0
  0
SPLINE
  5
2E6
330
2BE
100
AcDbEntity
  8
0
  6
Continuous
 62
     7
370
    15
100
AcDbSpline
210
0.0
220
0.0
230
1.0
 70
     8
 71
     3
 72
    18
 73
    14
 74
     0
 42
0.0000000001
 43
0.0000000001
 40
0.0
 40
0.0
 40
0.0
 40
0.0
 40
0.0457794766261904
 40
0.1512740988205541
 40
0.2563812147388891
 40
0.3606584148239529
 40
0.4636840854049787
 40
0.5598044043970632
 40
0.6570259855776616
 40
0.7553501574193308
 40
0.8544233794981407
 40
0.9538754197840187
 40
1.0
 40
1.0
 40
1.0
 40
1.0
 10
2041.080371376887
 20
1127.722444104504
 30
0.0
 10
2041.357229148914
 20
1127.808340501149
 30
0.0
 10
2042.272080367223
 20
1128.092177297724
 30
0.0
 10
2043.917719702914
 20
1128.476795333525
 30
0.0
 10
2045.98693871181
 20
1128.872961941517
 30
0.0
 10
2048.095664809482
 20
1129.162950799529
 30
0.0
 10
2050.173555479739
 20
1129.349436034035
 30
0.0
 10
2052.216641317908
 20
1129.439451740238
 30
0.0
 10
2054.225227850066
 20
1129.437905746951
 30
0.0
 10
2056.238588162956
 20
1129.346133858527
 30
0.0
 10
2058.230768263604
 20
1129.155784447482
 30
0.0
 10
2059.846461750649
 20
1128.939926611953
 30
0.0
 10
2060.76426370403
 20
1128.752424357034
 30
0.0
 10
2061.055060603115
 20
1128.693016034681
 30
0.0
  0
SPLINE
  5
2E7
330
2BE
100
AcDbEntity
  8
0
  6
Continuous
 62
     7
370
    15
100
AcDbSpline
210
0.0
220
0.0
230
1.0
 70
     8
 71
     3
 72
    18
 73
    14
 74
     0
 42
0.0000000001
 43
0.0000000001
 40
0.0
 40
0.0
 40
0.0
 40
0.0
 40
0.0152001258725444
 40
0.114754694016161
 40
0.2141019646250815
 40
0.3128665495899527
 40
0.4106861642431999
 40
0.5072192880572414
 40
0.6096437266438303
 40
0.7134923645810558
 40
0.8183553183101462
 40
0.9237975728768255
 40
1.0
 40
1.0
 40
1.0
 40
1.0
 10
2041.149899618404
 20
1126.377341605993
 30
0.0
 10
2041.24074838906
 20
1126.406738786331
 30
0.0
 10
2041.926619214461
 20
1126.628675398101
 30
0.0
 10
2043.29017624922
 20
1126.963196148435
 30
0.0
 10
2045.219981830804
 20
1127.373819498755
 30
0.0
 10
2047.198505474259
 20
1127.687619931114
 30
0.0
 10
2049.191669094037
 20
1127.913107359685
 30
0.0
 10
2051.231299506489
 20
1128.051953485752
 30
0.0
 10
2053.318658824331
 20
1128.098722507136
 30
0.0
 10
2055.45365771016
 20
1128.045382473536
 30
0.0
 10
2057.577901990481
 20
1127.884250258742
 30
0.0
 10
2059.481386392789
 20
1127.65498826462
 30
0.0
 10
2060.637149865127
 20
1127.434906762571
 30
0.0
 10
2061.122008441514
 20
1127.342579563861
 30
0.0
  0
SPLINE
  5
2E8
330
2BE
100
AcDbEntity
  8
0
  6
Continuous
 62
     7
370
    15
100
AcDbSpline
210
0.0
220
0.0
230
1.0
 70
     8
 71
     3
 72
    49
 73
    45
 74
     0
 42
0.0000000001
 43
0.0000000001
 40
0.0
 40
0.0
 40
0.0
 40
0.0
 40
0.0312500000000001
 40
0.0312500000000001
 40
0.0625000000000001
 40
0.0625000000000001
 40
0.1250000000000003
 40
0.1250000000000003
 40
0.1562500000000003
 40
0.1562500000000003
 40
0.1875000000000003
 40
0.1875000000000003
 40
0.2500000000000003
 40
0.2500000000000003
 40
0.3125000000000003
 40
0.3125000000000003
 40
0.3437500000000003
 40
0.3437500000000003
 40
0.3750000000000003
 40
0.3750000000000003
 40
0.4375000000000002
 40
0.4375000000000002
 40
0.4687500000000002
 40
0.4687500000000002
 40
0.5000000000000002
 40
0.5000000000000002
 40
0.5625000000000001
 40
0.5625000000000001
 40
0.59375
 40
0.59375
 40
0.625
 40
0.625
 40
0.6875
 40
0.6875
 40
0.71875
 40
0.71875
 40
0.7499999999999999
 40
0.7499999999999999
 40
0.8124999999999998
 40
0.8124999999999998
 40
0.8749999999999998
 40
0.8749999999999998
 40
0.9375
 40
1.0
 40
1.0
 40
1.0
 40
1.0
 10
2074.395374497686
 20
1120.408640092929
 30
0.0
 10
2074.427544752515
 20
1120.716325237754
 30
0.0
 10
2074.436472255581
 20
1121.023138918259
 30
0.0
 10
2074.408814506007
 20
1121.635059822859
 30
0.0
 10
2074.372002756301
 20
1121.940716302148
 30
0.0
 10
2074.195025614696
 20
1122.844916557811
 30
0.0
 10
2073.988904666589
 20
1123.433858097818
 30
0.0
 10
2073.550575538698
 20
1124.296963081346
 30
0.0
 10
2073.382844960128
 20
1124.581265053392
 30
0.0
 10
2073.00349596844
 20
1125.142968026386
 30
0.0
 10
2072.791158351033
 20
1125.421196618635
 30
0.0
 10
2072.091053918701
 20
1126.239514580707
 30
0.0
 10
2071.546955881856
 20
1126.75666192644
 30
0.0
 10
2070.309700781413
 20
1127.736240007958
 30
0.0
 10
2069.616540590274
 20
1128.198669595686
 30
0.0
 10
2068.461158868433
 20
1128.849864301884
 30
0.0
 10
2068.057572115925
 20
1129.059130044028
 30
0.0
 10
2067.225499368921
 20
1129.456432960981
 30
0.0
 10
2066.795628414075
 20
1129.645468994052
 30
0.0
 10
2065.465174573077
 20
1130.184191459266
 30
0.0
 10
2064.523985312577
 20
1130.505655312511
 30
0.0
 10
2063.02926664611
 20
1130.93020907709
 30
0.0
 10
2062.51487754172
 20
1131.062557820887
 30
0.0
 10
2061.472069801666
 20
1131.304022620984
 30
0.0
 10
2060.943264455378
 20
1131.413386683556
 30
0.0
 10
2059.335155702071
 20
1131.708159829249
 30
0.0
 10
2058.234281029751
 20
1131.860436410819
 30
0.0
 10
2056.539536340883
 20
1132.022140622932
 30
0.0
 10
2055.967352488728
 20
1132.064877234911
 30
0.0
 10
2054.808022123754
 20
1132.127368479335
 30
0.0
 10
2054.226633649951
 20
1132.146777285365
 30
0.0
 10
2052.485117013541
 20
1132.170156337881
 30
0.0
 10
2051.32427457359
 20
1132.139471515109
 30
0.0
 10
2049.583257670008
 20
1132.025744542545
 30
0.0
 10
2049.002959953384
 20
1131.976517918154
 30
0.0
 10
2047.842448741181
 20
1131.85495789655
 30
0.0
 10
2047.260369470592
 20
1131.782281379221
 30
0.0
 10
2045.541632368962
 20
1131.532668774481
 30
0.0
 10
2044.424967698934
 20
1131.323854877497
 30
0.0
 10
2042.248517353674
 20
1130.823511838801
 30
0.0
 10
2041.188155481397
 20
1130.531805233222
 30
0.0
 10
2039.129073582042
 20
1129.862848037328
 30
0.0
 10
2037.178991460077
 20
1129.123841136201
 30
0.0
 10
2035.439702927772
 20
1128.249365804093
 30
0.0
 10
2034.624592745557
 20
1127.777081309537
 30
0.0
  0
SPLINE
  5
2E9
330
2BE
100
AcDbEntity
  8
0
  6
Continuous
 62
     7
370
    15
100
AcDbSpline
210
0.0
220
0.0
230
1.0
 70
     8
 71
     3
 72
    50
 73
    46
 74
     0
 42
0.0000000001
 43
0.0000000001
 40
0.0
 40
0.0
 40
0.0
 40
0.0
 40
0.03125
 40
0.03125
 40
0.0625
 40
0.0625
 40
0.125
 40
0.125
 40
0.1875
 40
0.1875
 40
0.25
 40
0.25
 40
0.3125
 40
0.3125
 40
0.34375
 40
0.34375
 40
0.375
 40
0.375
 40
0.4374999999999999
 40
0.4374999999999999
 40
0.46875
 40
0.46875
 40
0.5
 40
0.5
 40
0.5625
 40
0.5625
 40
0.59375
 40
0.59375
 40
0.625
 40
0.625
 40
0.6875
 40
0.6875
 40
0.75
 40
0.75
 40
0.78125
 40
0.78125
 40
0.8125
 40
0.8125
 40
0.875
 40
0.875
 40
0.9062500000000001
 40
0.9062500000000001
 40
0.9375000000000001
 40
0.9375000000000001
 40
1.0
 40
1.0
 40
1.0
 40
1.0
 10
2034.624592745557
 20
1127.777081309537
 30
0.0
 10
2034.237741476046
 20
1127.539667402191
 30
0.0
 10
2033.867561026164
 20
1127.295841817135
 30
0.0
 10
2033.16040596047
 20
1126.795419522932
 30
0.0
 10
2032.822861876264
 20
1126.538269081392
 30
0.0
 10
2031.870230758922
 20
1125.755801810582
 30
0.0
 10
2031.311474436222
 20
1125.217447175193
 30
0.0
 10
2030.34276645708
 20
1124.108162783441
 30
0.0
 10
2029.932803645024
 20
1123.537235469176
 30
0.0
 10
2029.267628483055
 20
1122.361504113848
 30
0.0
 10
2029.019736170423
 20
1121.769023037523
 30
0.0
 10
2028.689871444558
 20
1120.582212678843
 30
0.0
 10
2028.607250759263
 20
1119.986710935824
 30
0.0
 10
2028.609277434515
 20
1119.090250048144
 30
0.0
 10
2028.631183841125
 20
1118.789616233039
 30
0.0
 10
2028.717967728987
 20
1118.194774909935
 30
0.0
 10
2028.78255226077
 20
1117.900614845837
 30
0.0
 10
2029.038341156011
 20
1117.027679129299
 30
0.0
 10
2029.291248576861
 20
1116.458396835259
 30
0.0
 10
2029.794290422703
 20
1115.623502359698
 30
0.0
 10
2029.9826674669
 20
1115.348388461823
 30
0.0
 10
2030.401882110529
 20
1114.804693458541
 30
0.0
 10
2030.63254120735
 20
1114.53665542099
 30
0.0
 10
2031.376513861049
 20
1113.755800663093
 30
0.0
 10
2031.944863089143
 20
1113.261588337324
 30
0.0
 10
2032.904020305776
 20
1112.559107616039
 30
0.0
 10
2033.241585319792
 20
1112.33144718432
 30
0.0
 10
2033.952980690493
 20
1111.889334802269
 30
0.0
 10
2034.328227056663
 20
1111.674148511913
 30
0.0
 10
2035.499887851267
 20
1111.05440931738
 30
0.0
 10
2036.334799228978
 20
1110.678560506288
 30
0.0
 10
2038.110478014014
 20
1110.000269028005
 30
0.0
 10
2039.051072217545
 20
1109.697706252185
 30
0.0
 10
2040.543640884221
 20
1109.300501470877
 30
0.0
 10
2041.055004817281
 20
1109.177688388245
 30
0.0
 10
2042.087573370779
 20
1108.95527567556
 30
0.0
 10
2042.610926094113
 20
1108.855067136068
 30
0.0
 10
2044.201801705847
 20
1108.586831436468
 30
0.0
 10
2045.290025339582
 20
1108.451012626967
 30
0.0
 10
2046.964410599464
 20
1108.312709834764
 30
0.0
 10
2047.531201775198
 20
1108.277497753103
 30
0.0
 10
2048.671695995903
 20
1108.229995263746
 30
0.0
 10
2049.242844398583
 20
1108.217739186352
 30
0.0
 10
2050.958951063632
 20
1108.214915427732
 30
0.0
 10
2052.106539142039
 20
1108.257888668108
 30
0.0
 10
2053.257780993222
 20
1108.347462470858
 30
0.0
  0
LINE
  5
2EA
330
2BE
100
AcDbEntity
  8
0
  6
Continuous
 62
     7
370
    15
100
AcDbLine
 10
2035.943038648008
 20
1121.761489482989
 30
0.0
 11
2035.037277547018
 21
1122.281908182368
 31
0.0
  0
LINE
  5
2EB
330
2BE
100
AcDbEntity
  8
0
  6
Continuous
 62
     7
370
    15
100
AcDbLine
 10
2042.677873595883
 20
1108.857926889898
 30
0.0
 11
2041.760277335296
 21
1109.035750163572
 31
0.0
  0
SPLINE
  5
2EC
330
2BE
100
AcDbEntity
  8
0
  6
Continuous
 62
     7
370
    15
100
AcDbSpline
210
0.0
220
0.0
230
1.0
 70
     8
 71
     3
 72
    57
 73
    53
 74
     0
 42
0.0000000001
 43
0.0000000001
 40
0.0
 40
0.0
 40
0.0
 40
0.0
 40
0.0217240290169936
 40
0.044264991634608
 40
0.0582492479105665
 40
0.0722793397591339
 40
0.0926415611232158
 40
0.1131462012319796
 40
0.133871414983876
 40
0.1548987724068883
 40
0.17526104062189
 40
0.1957657261691219
 40
0.2164909876621272
 40
0.2375183992016373
 40
0.2578805812451284
 40
0.278385183141589
 40
0.299110360830975
 40
0.3201376838356035
 40
0.3404998347942379
 40
0.361004399992154
 40
0.3817295347357001
 40
0.4027568095814936
 40
0.4230455767573479
 40
0.4436238460543838
 40
0.46434915540693
 40
0.4853766163081518
 40
0.5057387643542867
 40
0.5262433273453273
 40
0.5469684594846558
 40
0.5679957301172701
 40
0.5882845282161254
 40
0.6088628290928943
 40
0.6295881716703719
 40
0.6506156684432295
 40
0.6709778223438777
 40
0.69148239342279
 40
0.7122075357354384
 40
0.7332348184094779
 40
0.7580259511804647
 40
0.7830756472900311
 40
0.7982956870808963
 40
0.8135748820863019
 40
0.82755913836226
 40
0.8415892302108277
 40
0.8619514515749093
 40
0.8824560916836734
 40
0.9031813054355698
 40
0.924208662858582
 40
0.9445709310735837
 40
0.9650756166208157
 40
0.9858008781138211
 40
1.0
 40
1.0
 40
1.0
 40
1.0
 10
2039.67372672811
 20
1109.547602810091
 30
0.0
 10
2039.119501657631
 20
1109.715651564238
 30
0.0
 10
2037.990209844899
 20
1110.058068557454
 30
0.0
 10
2036.628336453108
 20
1110.601313222578
 30
0.0
 10
2035.51979805587
 20
1111.115168368507
 30
0.0
 10
2034.521553778133
 20
1111.640415901525
 30
0.0
 10
2033.478293656965
 20
1112.279427728359
 30
0.0
 10
2032.436340975213
 20
1113.048922623637
 30
0.0
 10
2031.521350841944
 20
1113.874773356096
 30
0.0
 10
2030.754754056923
 20
1114.741375209339
 30
0.0
 10
2030.140949809856
 20
1115.640698439094
 30
0.0
 10
2029.681792570531
 20
1116.564651020077
 30
0.0
 10
2029.375610775244
 20
1117.521566789081
 30
0.0
 10
2029.231905385692
 20
1118.492713692394
 30
0.0
 10
2029.249561777656
 20
1119.469339786853
 30
0.0
 10
2029.425104543202
 20
1120.442042844781
 30
0.0
 10
2029.76237929186
 20
1121.41945112289
 30
0.0
 10
2030.257969671813
 20
1122.38167893071
 30
0.0
 10
2030.905324177641
 20
1123.320712870143
 30
0.0
 10
2031.695920916518
 20
1124.229298759128
 30
0.0
 10
2032.638718686808
 20
1125.114834177113
 30
0.0
 10
2033.716488547122
 20
1125.957806982672
 30
0.0
 10
2034.920317563303
 20
1126.753600862619
 30
0.0
 10
2036.23665643063
 20
1127.495821281817
 30
0.0
 10
2037.680455239007
 20
1128.18934949127
 30
0.0
 10
2039.221414345265
 20
1128.817550838354
 30
0.0
 10
2040.846580491393
 20
1129.376775009071
 30
0.0
 10
2042.540793284675
 20
1129.863868373174
 30
0.0
 10
2044.319722390132
 20
1130.281971288772
 30
0.0
 10
2046.146782452222
 20
1130.620689489217
 30
0.0
 10
2048.009799355053
 20
1130.879221775878
 30
0.0
 10
2049.890695128997
 20
1131.056528137142
 30
0.0
 10
2051.80818465495
 20
1131.153159089871
 30
0.0
 10
2053.719481885187
 20
1131.164292416241
 30
0.0
 10
2055.610527230905
 20
1131.09071259269
 30
0.0
 10
2057.466153243473
 20
1130.934935280601
 30
0.0
 10
2059.301905885897
 20
1130.694352545479
 30
0.0
 10
2061.20663428639
 20
1130.34911368803
 30
0.0
 10
2063.152114263498
 20
1129.881337400617
 30
0.0
 10
2064.836677433298
 20
1129.356284466398
 30
0.0
 10
2066.19213007198
 20
1128.846128441607
 30
0.0
 10
2067.223690297796
 20
1128.401497942721
 30
0.0
 10
2068.173420299943
 20
1127.936743967947
 30
0.0
 10
2069.173249627394
 20
1127.384137871877
 30
0.0
 10
2070.218015618806
 20
1126.713123471329
 30
0.0
 10
2071.261778124679
 20
1125.907142448251
 30
0.0
 10
2072.178706980808
 20
1125.043967539906
 30
0.0
 10
2072.946802899512
 20
1124.139940460057
 30
0.0
 10
2073.563747377818
 20
1123.203545309563
 30
0.0
 10
2074.019857196718
 20
1122.24265368403
 30
0.0
 10
2074.310496619329
 20
1121.359405602205
 30
0.0
 10
2074.376277874507
 20
1120.792831067658
 30
0.0
 10
2074.403022399957
 20
1120.562480232648
 30
0.0
  0
SPLINE
  5
2ED
330
2BE
100
AcDbEntity
  8
0
  6
Continuous
 62
     7
370
    15
100
AcDbSpline
210
0.0
220
0.0
230
1.0
 70
     8
 71
     3
 72
    45
 73
    41
 74
     0
 42
0.0000000001
 43
0.0000000001
 40
0.0
 40
0.0
 40
0.0
 40
0.0
 40
0.0046677775468175
 40
0.0327986666395242
 40
0.0612321703939855
 40
0.090080196527174
 40
0.118015652831018
 40
0.1461464915758718
 40
0.1745799364116247
 40
0.2034278964742377
 40
0.2243472479344002
 40
0.2453482085310358
 40
0.2666008816282415
 40
0.2879391465197636
 40
0.316787361837497
 40
0.3447228141455942
 40
0.3728536498627681
 40
0.4012870911257157
 40
0.4301350454081394
 40
0.4579698666851003
 40
0.4862018656580073
 40
0.5146355956274734
 40
0.5434838601585986
 40
0.5714193204986814
 40
0.5995501673118526
 40
0.6279836225318883
 40
0.6568315933343108
 40
0.6908433049483546
 40
0.7252097474973249
 40
0.7460905845652864
 40
0.7670525784773508
 40
0.7862380064280819
 40
0.8054863175996665
 40
0.8334218704948924
 40
0.8615528120122244
 40
0.8899863652419444
 40
0.9188344385947642
 40
0.9467700557661972
 40
0.9749010596219495
 40
0.9999999999999998
 40
0.9999999999999998
 40
0.9999999999999998
 40
0.9999999999999998
 10
2029.339712429221
 20
1117.953337635094
 30
0.0
 10
2029.340129721047
 20
1118.006941532295
 30
0.0
 10
2029.343061869239
 20
1118.383595376061
 30
0.0
 10
2029.501352917421
 20
1119.089208360941
 30
0.0
 10
2029.826947935896
 20
1120.066334231901
 30
0.0
 10
2030.325702150378
 20
1121.02863871307
 30
0.0
 10
2030.972228697895
 20
1121.967651953753
 30
0.0
 10
2031.763051212398
 20
1122.87624585808
 30
0.0
 10
2032.705771000419
 20
1123.761769684023
 30
0.0
 10
2033.696051599453
 20
1124.53628882021
 30
0.0
 10
2034.686079191974
 20
1125.204003794644
 30
0.0
 10
2035.63720936465
 20
1125.773034065762
 30
0.0
 10
2036.659212656606
 20
1126.315840707248
 30
0.0
 10
2037.875783560291
 20
1126.888565829372
 30
0.0
 10
2039.288509743687
 20
1127.464504326066
 30
0.0
 10
2040.913655547724
 20
1128.023716285934
 30
0.0
 10
2042.607873781178
 20
1128.510812915636
 30
0.0
 10
2044.386801405408
 20
1128.928914942091
 30
0.0
 10
2046.213861868377
 20
1129.267633383173
 30
0.0
 10
2048.076878666654
 20
1129.526165607074
 30
0.0
 10
2049.9577744687
 20
1129.703471985207
 30
0.0
 10
2051.875263987009
 20
1129.800102933347
 30
0.0
 10
2053.786561219324
 20
1129.81123626096
 30
0.0
 10
2055.677606564461
 20
1129.73765643708
 30
0.0
 10
2057.533232577328
 20
1129.581879125093
 30
0.0
 10
2059.368985219123
 20
1129.341296389893
 30
0.0
 10
2061.273713622
 20
1128.996057532671
 30
0.0
 10
2063.219193588624
 20
1128.528281244277
 30
0.0
 10
2064.903756793839
 20
1128.00322831337
 30
0.0
 10
2066.259209348002
 20
1127.493072280673
 30
0.0
 10
2067.290769843422
 20
1127.048441807008
 30
0.0
 10
2068.240498915287
 20
1126.58368774521
 30
0.0
 10
2069.24033217467
 20
1126.031082016955
 30
0.0
 10
2070.285076741222
 20
1125.360065612206
 30
0.0
 10
2071.328925428916
 20
1124.554092651055
 30
0.0
 10
2072.245528310715
 20
1123.690887249257
 30
0.0
 10
2073.01484723056
 20
1122.786974575739
 30
0.0
 10
2073.627343373614
 20
1121.850163303219
 30
0.0
 10
2074.081453986339
 20
1120.928688635871
 30
0.0
 10
2074.253376858681
 20
1120.307784322752
 30
0.0
 10
2074.334441792802
 20
1120.015016021757
 30
0.0
  0
SPLINE
  5
2EE
330
2BE
100
AcDbEntity
  8
0
  6
Continuous
 62
     7
370
    15
100
AcDbSpline
210
0.0
220
0.0
230
1.0
 70
     8
 71
     3
 72
    44
 73
    40
 74
     0
 42
0.0000000001
 43
0.0000000001
 40
0.0
 40
0.0
 40
0.0
 40
0.0
 40
0.0149573522004836
 40
0.0444752140057016
 40
0.074423406676791
 40
0.1034242271793718
 40
0.1326278813510867
 40
0.1621456819906346
 40
0.1920938060714401
 40
0.2209901096240908
 40
0.2502987369567069
 40
0.2798167862833552
 40
0.3097651753538519
 40
0.3387921780763849
 40
0.3680225699459248
 40
0.3974874408626342
 40
0.4274355589428134
 40
0.4491527377644434
 40
0.4709546365878954
 40
0.4930178500156556
 40
0.5151699197468574
 40
0.5451183599075782
 40
0.5741191846003253
 40
0.6033228471480571
 40
0.6328406585679099
 40
0.6627887937981046
 40
0.6980975975196577
 40
0.7337746604190311
 40
0.755451822272595
 40
0.7772132360189073
 40
0.7971303315627444
 40
0.8171127084816461
 40
0.8461136292592779
 40
0.8753173901228677
 40
0.9048353032901641
 40
0.934783544981683
 40
0.9637845324867999
 40
0.9929883580661883
 40
1.0
 40
1.0
 40
1.0
 40
1.0
 10
2029.495126624002
 20
1117.234495892862
 30
0.0
 10
2029.521098135137
 20
1117.400270779073
 30
0.0
 10
2029.598323602606
 20
1117.893197163515
 30
0.0
 10
2029.901746394394
 20
1118.713260032998
 30
0.0
 10
2030.390773911673
 20
1119.675587105671
 30
0.0
 10
2031.039843474103
 20
1120.614595104466
 30
0.0
 10
2031.829981547161
 20
1121.523187930882
 30
0.0
 10
2032.772904200626
 20
1122.408721459972
 30
0.0
 10
2033.850640263919
 20
1123.251694776747
 30
0.0
 10
2035.054478089874
 20
1124.047488523344
 30
0.0
 10
2036.370814607353
 20
1124.789708978458
 30
0.0
 10
2037.814613986721
 20
1125.483237177861
 30
0.0
 10
2039.356029318782
 20
1126.111624476751
 30
0.0
 10
2040.982210125676
 20
1126.67115473525
 30
0.0
 10
2042.676531466764
 20
1127.158153703776
 30
0.0
 10
2044.454953659931
 20
1127.576058140201
 30
0.0
 10
2046.132568540136
 20
1127.887069138512
 30
0.0
 10
2047.680864305232
 20
1128.110560074384
 30
0.0
 10
2049.079890060682
 20
1128.265661247894
 30
0.0
 10
2050.499747366937
 20
1128.376058199131
 30
0.0
 10
2052.101407005006
 20
1128.447985955495
 30
0.0
 10
2053.853662629025
 20
1128.458176564736
 30
0.0
 10
2055.744680020389
 20
1128.384601224242
 30
0.0
 10
2057.60031350833
 20
1128.228822713426
 30
0.0
 10
2059.436064117574
 20
1127.988240303947
 30
0.0
 10
2061.340793099492
 20
1127.64300135495
 30
0.0
 10
2063.28627286733
 20
1127.1752250936
 30
0.0
 10
2064.970836176384
 20
1126.650172162394
 30
0.0
 10
2066.326288589153
 20
1126.140016113341
 30
0.0
 10
2067.357849512507
 20
1125.695385695553
 30
0.0
 10
2068.307577113173
 20
1125.230631440078
 30
0.0
 10
2069.307416589095
 20
1124.678026530678
 30
0.0
 10
2070.352127282702
 20
1124.007005663939
 30
0.0
 10
2071.396112224666
 20
1123.20105065124
 30
0.0
 10
2072.312199738027
 20
1122.337777361163
 30
0.0
 10
2073.083452234008
 20
1121.434119393114
 30
0.0
 10
2073.688915517821
 20
1120.496381698465
 30
0.0
 10
2074.059968346663
 20
1119.785756013765
 30
0.0
 10
2074.180060850375
 20
1119.379814197802
 30
0.0
 10
2074.203311844848
 20
1119.30122019212
 30
0.0
  0
SPLINE
  5
2EF
330
2BE
100
AcDbEntity
  8
0
  6
Continuous
 62
     7
370
    15
100
AcDbSpline
210
0.0
220
0.0
230
1.0
 70
     8
 71
     3
 72
    42
 73
    38
 74
     0
 42
0.0000000001
 43
0.0000000001
 40
0.0
 40
0.0
 40
0.0
 40
0.0
 40
0.0251549298395586
 40
0.0563905518310254
 40
0.0866653876064905
 40
0.1171523548836149
 40
0.1478838816413916
 40
0.1791194320939776
 40
0.209367188361197
 40
0.239826510460766
 40
0.2706134978699505
 40
0.3018493247037501
 40
0.3321241561282715
 40
0.3626111201039226
 40
0.393342643040536
 40
0.4245781872345378
 40
0.4472289560419779
 40
0.4699680868411114
 40
0.492979765779983
 40
0.5160841208257682
 40
0.5473200009460863
 40
0.5775675289853297
 40
0.6080266145844383
 40
0.6388133538595594
 40
0.6700489159408307
 40
0.70687559386861
 40
0.744086361901579
 40
0.7666953934695976
 40
0.7893922987969063
 40
0.8101656013600287
 40
0.8310069916497459
 40
0.8612546199044238
 40
0.8917138080458462
 40
0.9225006534423858
 40
0.9537363265615992
 40
0.9839840244122799
 40
1.0
 40
1.0
 40
1.0
 40
1.0
 10
2029.713438734213
 20
1116.556790481462
 30
0.0
 10
2029.796815081311
 20
1116.822917769591
 30
0.0
 10
2029.983722309937
 20
1117.41950319959
 30
0.0
 10
2030.462214905579
 20
1118.322657216825
 30
0.0
 10
2031.106404039773
 20
1119.262421396078
 30
0.0
 10
2031.898167199541
 20
1120.170923443071
 30
0.0
 10
2032.840545631532
 20
1121.056173158442
 30
0.0
 10
2033.919017582675
 20
1121.899636333344
 30
0.0
 10
2035.12306286159
 20
1122.695354231974
 30
0.0
 10
2036.439597754988
 20
1123.437470426642
 30
0.0
 10
2037.881693210966
 20
1124.130181194903
 30
0.0
 10
2039.423108680975
 20
1124.75856827629
 30
0.0
 10
2041.049289451787
 20
1125.318098591679
 30
0.0
 10
2042.743610802524
 20
1125.805097544992
 30
0.0
 10
2044.522032993064
 20
1126.223001985561
 30
0.0
 10
2046.199647873945
 20
1126.534012982805
 30
0.0
 10
2047.747943638908
 20
1126.757503918885
 30
0.0
 10
2049.146969394391
 20
1126.912605092345
 30
0.0
 10
2050.566826700634
 20
1127.023002043595
 30
0.0
 10
2052.168486338722
 20
1127.094929799957
 30
0.0
 10
2053.920741962659
 20
1127.105120409188
 30
0.0
 10
2055.81175935433
 20
1127.03154506874
 30
0.0
 10
2057.667392841123
 20
1126.87576655775
 30
0.0
 10
2059.503143454729
 20
1126.635184148932
 30
0.0
 10
2061.407872419108
 20
1126.289945197276
 30
0.0
 10
2063.353352264424
 20
1125.822168947674
 30
0.0
 10
2065.037915311632
 20
1125.297115976763
 30
0.0
 10
2066.393368349338
 20
1124.786960022472
 30
0.0
 10
2067.424927279233
 20
1124.342329302408
 30
0.0
 10
2068.374661758428
 20
1123.87757608995
 30
0.0
 10
2069.374472161567
 20
1123.324966772138
 30
0.0
 10
2070.419341271012
 20
1122.653969926572
 30
0.0
 10
2071.462688982864
 20
1121.847918288337
 30
0.0
 10
2072.381186756963
 20
1120.985010474929
 30
0.0
 10
2073.143396357945
 20
1120.079981299567
 30
0.0
 10
2073.681471545762
 20
1119.293756874761
 30
0.0
 10
2073.902757291702
 20
1118.806557724379
 30
0.0
 10
2073.979363986361
 20
1118.637894729875
 30
0.0
  0
SPLINE
  5
2F0
330
2BE
100
AcDbEntity
  8
0
  6
Continuous
 62
     7
370
    15
100
AcDbSpline
210
0.0
220
0.0
230
1.0
 70
     8
 71
     3
 72
    15
 73
    11
 74
     0
 42
0.0000000001
 43
0.0000000001
 40
0.0
 40
0.0
 40
0.0
 40
0.0
 40
0.0120263151426917
 40
0.1650906825625582
 40
0.3134468954779868
 40
0.4628426194401362
 40
0.6134367617405785
 40
0.7665007785974393
 40
0.8829998829510904
 40
1.0
 40
1.0
 40
1.0
 40
1.0
 10
2030.02858911881
 20
1115.922619904017
 30
0.0
 10
2030.037389692426
 20
1115.94853629957
 30
0.0
 10
2030.15819915801
 20
1116.304302415833
 30
0.0
 10
2030.536916357639
 20
1116.969051536213
 30
0.0
 10
2031.171430951995
 20
1117.909521109623
 30
0.0
 10
2031.965885949913
 20
1118.817789149162
 30
0.0
 10
2032.907134586385
 20
1119.703274412898
 30
0.0
 10
2033.911568616916
 20
1120.486862267574
 30
0.0
 10
2034.928607841059
 20
1121.175547911857
 30
0.0
 10
2035.6044116946
 20
1121.565896439335
 30
0.0
 10
2035.943038648007
 20
1121.761489482988
 30
0.0
  0
LWPOLYLINE
  5
2F1
330
2BE
100
AcDbEntity
  8
0
  6
Continuous
 62
     7
370
    15
100
AcDbPolyline
 90
       46
 70
   128
 43
0.0
 10
2067.839985554444
 20
1129.615351332116
 10
2066.916081806997
 20
1130.006774694225
 10
2065.950803717978
 20
1130.370910498345
 10
2064.946797047535
 20
1130.70676067355
 10
2063.906813708162
 20
1131.013404677853
 10
2062.833704221906
 20
1131.290002021352
 10
2061.730409907276
 20
1131.535794569956
 10
2060.599954817301
 20
1131.750108623373
 10
2059.445437450804
 20
1131.93235676168
 10
2058.270022259639
 20
1132.082039455398
 10
2057.076930975141
 20
1132.198746434667
 10
2055.869433777591
 20
1132.28215781377
 10
2054.650840332875
 20
1132.332044967914
 10
2053.424490720922
 20
1132.348271159878
 10
2052.193746280776
 20
1132.330791914796
 10
2050.961980397398
 20
1132.279655142065
 10
2049.732569255457
 20
1132.195001004025
 10
2048.508882585437
 20
1132.077061531783
 10
2047.294274427444
 20
1131.926159989236
 10
2046.092073938011
 20
1131.742709987021
 10
2044.905576265117
 20
1131.527214348845
 10
2043.738033516411
 20
1131.280263733271
 10
2042.592645845411
 20
1131.002535014773
 10
2041.47255268011
 20
1130.694789428463
 10
2040.380824118015
 20
1130.357870483601
 10
2039.320452511232
 20
1129.992701651597
 10
2038.294344264629
 20
1129.600283834836
 10
2037.305311869586
 20
1129.181692623279
 10
2036.35606619515
 20
1128.738075346339
 10
2035.449209057734
 20
1128.270647928137
 10
2034.587226089717
 20
1127.780691554737
 10
2033.772479926499
 20
1127.2695491625
 10
2033.007203730681
 20
1126.738621757196
 10
2032.293495071121
 20
1126.189364573938
 10
2031.633310173646
 20
1125.623283088486
 10
2031.028458559172
 20
1125.041928890846
 10
2030.48059808393
 20
1124.446895432462
 10
2029.991230395403
 20
1123.839813658684
 10
2029.561696816408
 20
1123.222347538455
 10
2029.19317466863
 20
1122.596189503494
 10
2028.88667404566
 20
1121.963055809449
 10
2028.643035044401
 20
1121.324681831767
 10
2028.46292546242
 20
1120.682817309147
 10
2028.346838967562
 20
1120.039221547632
 10
2028.29509374484
 20
1119.395658598469
 10
2028.297459322621
 20
1118.940656856482
  0
LWPOLYLINE
  5
2F2
330
2BE
100
AcDbEntity
  8
0
  6
Continuous
 62
     7
370
    15
100
AcDbPolyline
 90
       17
 70
   128
 43
0.0
 10
2075.339200565861
 20
1121.272805929398
 10
2075.33433504566
 20
1121.348493162475
 10
2075.257148977634
 20
1121.986703527839
 10
2075.115726282702
 20
1122.619608792814
 10
2074.910454590641
 20
1123.245474208061
 10
2074.641896536892
 20
1123.862584319981
 10
2074.31078822041
 20
1124.46924767265
 10
2073.918037186079
 20
1125.06380144399
 10
2073.464719937181
 20
1125.644616003438
 10
2072.952078984788
 20
1126.210099378659
 10
2072.381519442116
 20
1126.758701619029
 10
2071.754605173214
 20
1127.28891904394
 10
2071.073054506514
 20
1127.799298364283
 10
2070.338735525021
 20
1128.28844066582
 10
2069.553660946022
 20
1128.7550052435
 10
2068.719982604367
 20
1129.197713276247
 10
2067.839985554444
 20
1129.615351332116
  0
LWPOLYLINE
  5
2F3
330
2BE
100
AcDbEntity
  8
0
  6
Continuous
 62
     7
370
    15
100
AcDbPolyline
 90
       28
 70
   128
 43
0.0
 10
2053.257780993222
 20
1108.347462470858
 10
2054.481125339219
 20
1108.449758054553
 10
2055.696603901566
 20
1108.58635261718
 10
2056.900623044484
 20
1108.756842308664
 10
2058.089623012659
 20
1108.960723065935
 10
2059.260088455875
 20
1109.197392103221
 10
2060.408558822358
 20
1109.46614969422
 10
2061.531638590105
 20
1109.766201240881
 10
2062.626007305955
 20
1110.096659622686
 10
2063.688429402703
 20
1110.45654781947
 10
2064.715763765254
 20
1110.844801800044
 10
2065.704973017519
 20
1111.260273668064
 10
2066.6531325026
 20
1111.701735055861
 10
2067.557438929712
 20
1112.167880756179
 10
2068.415218662291
 20
1112.657332581101
 10
2069.223935622747
 20
1113.168643436748
 10
2069.981198790545
 20
1113.700301601691
 10
2070.684769271394
 20
1114.250735196458
 10
2071.332566916675
 20
1114.81831683088
 10
2071.922676473525
 20
1115.401368415577
 10
2072.453353247398
 20
1115.998166123325
 10
2072.923028260363
 20
1116.606945485655
 10
2073.330312889876
 20
1117.225906609617
 10
2073.674002974333
 20
1117.853219499263
 10
2073.953082373241
 20
1118.487029466148
 10
2074.166725971502
 20
1119.125462612827
 10
2074.314302118914
 20
1119.766631373142
 10
2074.395374497686
 20
1120.408640092929
  0
LINE
  5
2F4
330
2BE
100
AcDbEntity
  8
0
  6
Continuous
 62
     7
370
    15
100
AcDbLine
 10
2035.943038648008
 20
1121.761489482989
 30
0.0
 11
2035.950899507426
 21
1121.602928214761
 31
0.0
  0
ARC
  5
2F5
330
2BE
100
AcDbEntity
  8
0
  6
Continuous
 62
     7
370
    15
100
AcDbCircle
 10
2041.866884226493
 20
1109.797426974951
 30
0.0
 40
13.20487541476232
100
AcDbArc
 50
116.6164115017454
 51
153.1206811995041
  0
LINE
  5
2F6
330
2BE
100
AcDbEntity
  8
0
  6
Continuous
 62
     7
370
    15
100
AcDbLine
 10
2082.944672612986
 20
1110.450077873728
 30
0.0
 11
2065.803966782172
 21
1100.216141378134
 31
0.0
  0
LWPOLYLINE
  5
2F7
330
2BE
100
AcDbEntity
  8
0
  6
Continuous
 62
     7
370
    15
100
AcDbPolyline
 90
       35
 70
   128
 43
0.0
 10
2070.828176072776
 20
1122.054923753974
 10
2070.641877349935
 20
1122.173771816739
 10
2069.856802770936
 20
1122.64033639442
 10
2069.023124429281
 20
1123.083044427167
 10
2068.143127379357
 20
1123.500682483036
 10
2067.21922363191
 20
1123.892105845144
 10
2066.253945542891
 20
1124.256241649265
 10
2065.249938872448
 20
1124.59209182447
 10
2064.209955533076
 20
1124.898735828772
 10
2063.136846046819
 20
1125.175333172272
 10
2062.033551732189
 20
1125.421125720875
 10
2060.903096642214
 20
1125.635439774293
 10
2059.748579275717
 20
1125.8176879126
 10
2058.573164084552
 20
1125.967370606318
 10
2057.380072800054
 20
1126.084077585587
 10
2056.172575602504
 20
1126.167488964689
 10
2054.953982157788
 20
1126.217376118834
 10
2053.727632545835
 20
1126.233602310797
 10
2052.496888105689
 20
1126.216123065715
 10
2051.265122222311
 20
1126.164986292985
 10
2050.03571108037
 20
1126.080332154945
 10
2048.81202441035
 20
1125.962392682703
 10
2047.597416252357
 20
1125.811491140155
 10
2046.395215762924
 20
1125.628041137941
 10
2045.208718090031
 20
1125.412545499764
 10
2044.041175341324
 20
1125.165594884191
 10
2042.895787670325
 20
1124.887866165693
 10
2041.775694505023
 20
1124.580120579382
 10
2040.683965942929
 20
1124.24320163452
 10
2039.623594336146
 20
1123.878032802516
 10
2038.597486089543
 20
1123.485614985756
 10
2037.608453694499
 20
1123.067023774198
 10
2036.659208020063
 20
1122.623406497258
 10
2035.752350882647
 20
1122.155979079057
 10
2035.498746862273
 20
1122.016764028368
  0
LINE
  5
2F8
330
2BE
100
AcDbEntity
  8
0
  6
Continuous
 62
     7
370
    15
100
AcDbLine
 10
2026.627568096821
 20
1103.481972506822
 30
0.0
 11
2019.2277681148
 21
1115.761659772949
 31
0.0
  0
SPLINE
  5
2F9
330
2BE
100
AcDbEntity
  8
0
  6
Continuous
 62
     7
370
    15
100
AcDbSpline
210
0.0
220
0.0
230
1.0
 70
     8
 71
     3
 72
    22
 73
    18
 74
     0
 42
0.0000000001
 43
0.0000000001
 40
0.0
 40
0.0
 40
0.0
 40
0.0
 40
0.0027226627774934
 40
0.0765542846511137
 40
0.1503859065341751
 40
0.2245287327809202
 40
0.298360355033289
 40
0.3721919776385749
 40
0.4460236007018048
 40
0.5198552242301684
 40
0.593998060054754
 40
0.6678296831006117
 40
0.7416613056920113
 40
0.8158041364665621
 40
0.8896357584698955
 40
0.9634673803506872
 40
1.0
 40
1.0
 40
1.0
 40
1.0
 10
2041.222443088718
 20
1125.03214998377
 30
0.0
 10
2041.238768498098
 20
1125.03733779789
 30
0.0
 10
2041.697797081086
 20
1125.183205807001
 30
0.0
 10
2042.642416316063
 20
1125.429491404852
 30
0.0
 10
2044.054738323463
 20
1125.765950405974
 30
0.0
 10
2045.506333118169
 20
1126.050193793523
 30
0.0
 10
2046.984104565812
 20
1126.287432869764
 30
0.0
 10
2048.481583856929
 20
1126.474806305179
 30
0.0
 10
2049.994078502643
 20
1126.612276837937
 30
0.0
 10
2051.517527523113
 20
1126.699436233516
 30
0.0
 10
2053.043418820975
 20
1126.734952257523
 30
0.0
 10
2054.565384465233
 20
1126.718530782363
 30
0.0
 10
2056.076879839325
 20
1126.650169682377
 30
0.0
 10
2057.572241804405
 20
1126.530916167191
 30
0.0
 10
2059.042589761906
 20
1126.357977601645
 30
0.0
 10
2060.245758778176
 20
1126.180690355402
 30
0.0
 10
2060.943076755762
 20
1126.042636840777
 30
0.0
 10
2061.173901994957
 20
1125.996938555978
 30
0.0
  0
LWPOLYLINE
  5
2FA
330
2BE
100
AcDbEntity
  8
0
  6
Continuous
 62
     7
370
    15
100
AcDbPolyline
 90
       34
 70
   128
 43
0.0
 10
2070.039855745696
 20
1122.56066657029
 10
2069.953310878807
 20
1122.610251187656
 10
2069.122189550981
 20
1123.057577665165
 10
2068.244118278133
 20
1123.479783763177
 10
2067.321522132452
 20
1123.875703425702
 10
2066.356949155675
 20
1124.244243195078
 10
2065.35306332187
 20
1124.584385231897
 10
2064.312637180019
 20
1124.895190126091
 10
2063.238544196751
 20
1125.175799491414
 10
2062.13375082035
 20
1125.425438336143
 10
2061.00130828797
 20
1125.643417203468
 10
2059.844344198669
 20
1125.829134075643
 10
2058.666053875566
 20
1125.982076036649
 10
2057.46969154093
 20
1126.101820688776
 10
2056.258561328621
 20
1126.188037319203
 10
2055.036008158676
 20
1126.240487813375
 10
2053.805408499247
 20
1126.259027312623
 10
2052.570161041423
 20
1126.243604614242
 10
2051.333677312658
 20
1126.194262312905
 10
2050.09937225476
 20
1126.111136683018
 10
2048.870654792449
 20
1125.99445730236
 10
2047.650918418527
 20
1125.844546418032
 10
2046.443531821674
 20
1125.661818056466
 10
2045.251829582743
 20
1125.446776879961
 10
2044.079102965264
 20
1125.200016792898
 10
2042.928590825571
 20
1124.922219301486
 10
2041.803470667674
 20
1124.614151631566
 10
2040.706849867576
 20
1124.276664609672
 10
2039.641757091271
 20
1123.910690313206
 10
2038.611133930117
 20
1123.51723949621
 10
2037.617826776703
 20
1123.097398797846
 10
2036.664578963633
 20
1122.652327741302
 10
2035.754023186944
 20
1122.183255531398
 10
2035.475426151191
 20
1122.030163294595
  0
SPLINE
  5
2FB
330
2BE
100
AcDbEntity
  8
0
  6
Continuous
 62
     8
370
    15
100
AcDbSpline
210
0.0
220
0.0
230
1.0
 70
     8
 71
     3
 72
    17
 73
    13
 74
     0
 42
0.0000000001
 43
0.0000000001
 40
0.0
 40
0.0
 40
0.0
 40
0.0
 40
0.0462487700367119
 40
0.159208456816664
 40
0.2716134489628211
 40
0.3829252204303051
 40
0.4926364221384295
 40
0.6023476238465627
 40
0.713659395314053
 40
0.8260643874602141
 40
0.9390240742401676
 40
1.0
 40
1.0
 40
1.0
 40
1.0
 10
2061.190509908755
 20
1125.984847244626
 30
0.0
 10
2060.89930330977
 20
1126.044960066965
 30
0.0
 10
2059.896843066991
 20
1126.251894644292
 30
0.0
 10
2058.09688656118
 20
1126.483916253128
 30
0.0
 10
2055.827832235929
 20
1126.679204884315
 30
0.0
 10
2053.539484017697
 20
1126.747551819087
 30
0.0
 10
2051.257564633086
 20
1126.700575050808
 30
0.0
 10
2048.983477650766
 20
1126.538365550853
 30
0.0
 10
2046.71899627753
 20
1126.262664092154
 30
0.0
 10
2044.489716441349
 20
1125.865483197004
 30
0.0
 10
2042.640391738881
 20
1125.449606163065
 30
0.0
 10
2041.584074932184
 20
1125.126897521901
 30
0.0
 10
2041.213766090633
 20
1125.013766818772
 30
0.0
  0
ENDBLK
  5
2C0
330
2BE
100
AcDbEntity
  8
0
100
AcDbBlockEnd
  0
ENDSEC
  0
SECTION
  2
ENTITIES
  0
INSERT
  5
2A6
330
1F
100
AcDbEntity
  8
0
100
AcDbBlockReference
  2
1
 10
0.0
 20
0.0
 30
0.0
  0
INSERT
  5
2BD
330
1F
100
AcDbEntity
  8
0
100
AcDbBlockReference
  2
2
 10
0.0
 20
0.0
 30
0.0
  0
INSERT
  5
2FC
330
1F
100
AcDbEntity
  8
0
100
AcDbBlockReference
  2
3
 10
0.0
 20
0.0
 30
0.0
  0
ENDSEC
  0
SECTION
  2
OBJECTS
  0
DICTIONARY
  5
C
330
0
100
AcDbDictionary
281
     1
  3
ACAD_COLOR
350
6B
  3
ACAD_GROUP
350
D
  3
ACAD_LAYOUT
350
1A
  3
ACAD_MATERIAL
350
6A
  3
ACAD_MLEADERSTYLE
350
12D
  3
ACAD_MLINESTYLE
350
17
  3
ACAD_PLOTSETTINGS
350
19
  3
ACAD_PLOTSTYLENAME
350
E
  3
ACAD_SCALELIST
350
10C
  3
ACAD_TABLESTYLE
350
7E
  3
ACAD_VISUALSTYLE
350
EF
  3
ACDB_RECOMPOSE_DATA
350
15D
  3
AcDbVariableDictionary
350
5E
  3
DWGPROPS
350
30A
  0
DICTIONARY
  5
13C
330
10
100
AcDbDictionary
280
     1
281
     1
  3
ADSK_XREC_LAYER_RECONCILED
360
2FD
  0
DICTIONARY
  5
6B
102
{ACAD_REACTORS
330
C
102
}
330
C
100
AcDbDictionary
281
     1
  0
DICTIONARY
  5
D
102
{ACAD_REACTORS
330
C
102
}
330
C
100
AcDbDictionary
281
     1
  0
DICTIONARY
  5
1A
102
{ACAD_REACTORS
330
C
102
}
330
C
100
AcDbDictionary
281
     1
  3
Layout1
350
D3
  3
Layout2
350
D7
  3
Model
350
22
  0
DICTIONARY
  5
6A
102
{ACAD_REACTORS
330
C
102
}
330
C
100
AcDbDictionary
281
     1
  3
ByBlock
350
ED
  3
ByLayer
350
EC
  3
Global
350
EE
  0
DICTIONARY
  5
12D
102
{ACAD_REACTORS
330
C
102
}
330
C
100
AcDbDictionary
281
     1
  3
Annotative
350
13B
  3
Standard
350
12E
  0
DICTIONARY
  5
17
102
{ACAD_REACTORS
330
C
102
}
330
C
100
AcDbDictionary
281
     1
  3
Standard
350
18
  0
DICTIONARY
  5
19
102
{ACAD_REACTORS
330
C
102
}
330
C
100
AcDbDictionary
281
     1
  0
ACDBDICTIONARYWDFLT
  5
E
102
{ACAD_REACTORS
330
C
102
}
330
C
100
AcDbDictionary
281
     1
  3
Normal
350
F
100
AcDbDictionaryWithDefault
340
F
  0
DICTIONARY
  5
10C
102
{ACAD_REACTORS
330
C
102
}
330
C
100
AcDbDictionary
281
     1
  3
A0
350
10D
  3
A1
350
188
  3
A2
350
189
  3
A3
350
18A
  3
A4
350
18B
  3
A5
350
18C
  3
A6
350
18D
  3
A7
350
18E
  3
A8
350
18F
  3
A9
350
190
  3
B0
350
191
  3
B1
350
192
  3
B2
350
193
  3
B3
350
194
  3
B4
350
195
  3
B5
350
196
  3
B6
350
197
  3
B7
350
198
  3
B8
350
199
  3
B9
350
19A
  3
C0
350
19B
  3
C1
350
19C
  3
C2
350
19D
  3
C3
350
19E
  3
C4
350
19F
  3
C5
350
1A0
  3
C6
350
1A1
  3
C7
350
1A2
  3
C8
350
1A3
  3
C9
350
1A4
  3
D0
350
1A5
  3
D1
350
1A6
  3
D2
350
1A7
  0
DICTIONARY
  5
7E
102
{ACAD_REACTORS
330
C
102
}
330
C
100
AcDbDictionary
281
     1
  3
Standard
350
7F
  0
DICTIONARY
  5
EF
102
{ACAD_REACTORS
330
C
102
}
330
C
100
AcDbDictionary
281
     1
  3
2dWireframe
350
F5
  3
3D Hidden
350
F7
  3
3dWireframe
350
F6
  3
Basic
350
F4
  3
Brighten
350
FB
  3
ColorChange
350
FF
  3
Conceptual
350
F8
  3
Dim
350
FA
  3
Facepattern
350
FE
  3
Flat
350
F0
  3
FlatWithEdges
350
F1
  3
Gouraud
350
F2
  3
GouraudWithEdges
350
F3
  3
Linepattern
350
FD
  3
Realistic
350
F9
  3
Thicken
350
FC
  0
XRECORD
  5
15D
102
{ACAD_REACTORS
330
C
102
}
330
C
100
AcDbXrecord
280
     1
 90
        1
330
7F
  0
DICTIONARY
  5
5E
102
{ACAD_REACTORS
330
C
102
}
330
C
100
AcDbDictionary
281
     1
  3
CANNOSCALE
350
146
  3
CMLEADERSTYLE
350
145
  3
CTABLESTYLE
350
84
  3
DIMASSOC
350
5F
  3
HIDETEXT
350
63
  3
INDEXCTL
350
306
  3
LIGHTINGUNITS
350
304
  3
MSLTSCALE
350
303
  3
PSOLHEIGHT
350
308
  3
PSOLWIDTH
350
307
  3
SORTENTS
350
305
  0
XRECORD
  5
30A
102
{ACAD_REACTORS
330
C
102
}
330
C
100
AcDbXrecord
280
     1
  1
DWGPROPS COOKIE
  2

  3

  4

  6

  7

  8
orhan kara
  9

300
=
301
=
302
=
303
=
304
=
305
=
306
=
307
=
308
=
309
=
 40
0.0003361689814815
 41
2459059.615493646
 42
2459067.668872662
  1

 90
        0
  0
XRECORD
  5
2FD
102
{ACAD_REACTORS
330
13C
102
}
330
13C
100
AcDbXrecord
280
     1
290
     1
  0
LAYOUT
  5
D3
102
{ACAD_XDICTIONARY
360
30E
102
}
102
{ACAD_REACTORS
330
1A
102
}
330
1A
100
AcDbPlotSettings
  1

  2
C:\Documents and Settings\basas\Application Data\Autodesk\AutoCAD 2005\R16.1\enu\plotters\Default Windows System Printer.pc3
  4

  6

 40
0.0
 41
0.0
 42
0.0
 43
0.0
 44
0.0
 45
0.0
 46
0.0
 47
0.0
 48
0.0
 49
0.0
140
0.0
141
0.0
142
1.0
143
1.0
 70
   688
 72
     0
 73
     0
 74
     5
  7

 75
    16
147
1.0
148
0.0
149
0.0
100
AcDbLayout
  1
Layout1
 70
     1
 71
     1
 10
0.0
 20
0.0
 11
12.0
 21
9.0
 12
0.0
 22
0.0
 32
0.0
 14
0.0
 24
0.0
 34
0.0
 15
0.0
 25
0.0
 35
0.0
146
0.0
 13
0.0
 23
0.0
 33
0.0
 16
1.0
 26
0.0
 36
0.0
 17
0.0
 27
1.0
 37
0.0
 76
     0
330
D2
  0
LAYOUT
  5
D7
102
{ACAD_XDICTIONARY
360
310
102
}
102
{ACAD_REACTORS
330
1A
102
}
330
1A
100
AcDbPlotSettings
  1

  2
C:\Documents and Settings\basas\Application Data\Autodesk\AutoCAD 2005\R16.1\enu\plotters\Default Windows System Printer.pc3
  4

  6

 40
0.0
 41
0.0
 42
0.0
 43
0.0
 44
0.0
 45
0.0
 46
0.0
 47
0.0
 48
0.0
 49
0.0
140
0.0
141
0.0
142
1.0
143
1.0
 70
   688
 72
     0
 73
     0
 74
     5
  7

 75
    16
147
1.0
148
0.0
149
0.0
100
AcDbLayout
  1
Layout2
 70
     1
 71
     2
 10
0.0
 20
0.0
 11
12.0
 21
9.0
 12
0.0
 22
0.0
 32
0.0
 14
0.0
 24
0.0
 34
0.0
 15
0.0
 25
0.0
 35
0.0
146
0.0
 13
0.0
 23
0.0
 33
0.0
 16
1.0
 26
0.0
 36
0.0
 17
0.0
 27
1.0
 37
0.0
 76
     0
330
D6
  0
LAYOUT
  5
22
102
{ACAD_XDICTIONARY
360
30B
102
}
102
{ACAD_REACTORS
330
1A
102
}
330
1A
100
AcDbPlotSettings
  1

  2
none_device
  4
ISO_A4_(210.00_x_297.00_MM)
  6

 40
7.5
 41
20.0
 42
7.5
 43
20.0
 44
210.0
 45
297.0
 46
11.54999923706054
 47
-13.65000009536743
 48
0.0
 49
0.0
140
0.0
141
0.0
142
1.0
143
8.704084754739808
 70
 11952
 72
     1
 73
     0
 74
     0
  7

 75
     0
147
0.1148885871608098
148
0.0
149
0.0
100
AcDbLayout
  1
Model
 70
     1
 71
     0
 10
0.0
 20
0.0
 11
12.0
 21
9.0
 12
0.0
 22
0.0
 32
0.0
 14
0.0
 24
0.0
 34
0.0
 15
0.0
 25
0.0
 35
0.0
146
0.0
 13
0.0
 23
0.0
 33
0.0
 16
1.0
 26
0.0
 36
0.0
 17
0.0
 27
1.0
 37
0.0
 76
     0
330
1F
331
EA
1001
ACAD_PSEXT
1000
None
1000
None
1000
Not applicable
1000
The layout will not be plotted unless a new plotter configuration name is selected.
1070
     0
  0
MATERIAL
  5
ED
102
{ACAD_XDICTIONARY
360
314
102
}
102
{ACAD_REACTORS
330
6A
102
}
330
6A
100
AcDbMaterial
  1
ByBlock
  0
MATERIAL
  5
EC
102
{ACAD_XDICTIONARY
360
312
102
}
102
{ACAD_REACTORS
330
6A
102
}
330
6A
100
AcDbMaterial
  1
ByLayer
  0
MATERIAL
  5
EE
102
{ACAD_XDICTIONARY
360
173
102
}
102
{ACAD_REACTORS
330
6A
102
}
330
6A
100
AcDbMaterial
  1
Global
 43
0.0007999999797903
 43
0.0
 43
0.0
 43
0.0
 43
0.0
 43
0.0007999999797903
 43
0.0
 43
0.0
 43
0.0
 43
0.0
 43
1.0
 43
0.0
 43
0.0
 43
0.0
 43
0.0
 43
1.0
 49
0.0007999999797903
 49
0.0
 49
0.0
 49
0.0
 49
0.0
 49
0.0007999999797903
 49
0.0
 49
0.0
 49
0.0
 49
0.0
 49
1.0
 49
0.0
 49
0.0
 49
0.0
 49
0.0
 49
1.0
142
0.0007999999797903
142
0.0
142
0.0
142
0.0
142
0.0
142
0.0007999999797903
142
0.0
142
0.0
142
0.0
142
0.0
142
1.0
142
0.0
142
0.0
142
0.0
142
0.0
142
1.0
144
0.0007999999797903
144
0.0
144
0.0
144
0.0
144
0.0
144
0.0007999999797903
144
0.0
144
0.0
144
0.0
144
0.0
144
1.0
144
0.0
144
0.0
144
0.0
144
0.0
144
1.0
1001
ACAD
1070
    -1
1070
     3
1070
     0
1000

1071
        0
1070
     0
  0
MLEADERSTYLE
  5
13B
102
{ACAD_REACTORS
330
12D
102
}
330
12D
100
AcDbMLeaderStyle
170
     2
171
     1
172
     0
 90
        2
 40
0.0
 41
0.0
173
     1
 91
-1056964608
340
14
 92
       -2
290
     1
 42
2.0
291
     1
 43
8.0
  3
Standard
 44
4.0
300

342
11
174
     1
178
     1
175
     1
176
     0
 93
-1056964608
 45
4.0
292
     0
297
     0
 46
4.0
 94
-1056964608
 47
1.0
 49
1.0
140
1.0
293
     1
141
0.0
294
     1
177
     0
142
1.0
295
     0
296
     1
143
3.75
1001
ACAD_MLEADERVER
1070
     2
  0
MLEADERSTYLE
  5
12E
102
{ACAD_REACTORS
330
12D
102
}
330
12D
100
AcDbMLeaderStyle
170
     2
171
     1
172
     0
 90
        2
 40
0.0
 41
0.0
173
     1
 91
-1056964608
340
14
 92
       -2
290
     1
 42
2.0
291
     1
 43
8.0
  3
Standard
 44
4.0
300

342
11
174
     1
178
     1
175
     1
176
     0
 93
-1056964608
 45
4.0
292
     0
297
     0
 46
4.0
 94
-1056964608
 47
1.0
 49
1.0
140
1.0
293
     1
141
0.0
294
     1
177
     0
142
1.0
295
     0
296
     0
143
3.75
1001
ACAD_MLEADERVER
1070
     2
  0
MLINESTYLE
  5
18
102
{ACAD_REACTORS
330
17
102
}
330
17
100
AcDbMlineStyle
  2
STANDARD
 70
     0
  3

 62
   256
 51
90.0
 52
90.0
 71
     2
 49
0.5
 62
   256
  6
BYLAYER
 49
-0.5
 62
   256
  6
BYLAYER
  0
ACDBPLACEHOLDER
  5
F
102
{ACAD_REACTORS
330
E
102
}
330
E
  0
SCALE
  5
10D
102
{ACAD_REACTORS
330
10C
102
}
330
10C
100
AcDbScale
 70
     0
300
1:1
140
1.0
141
1.0
290
     1
  0
SCALE
  5
188
102
{ACAD_REACTORS
330
10C
102
}
330
10C
100
AcDbScale
 70
     0
300
1:2
140
1.0
141
2.0
290
     0
  0
SCALE
  5
189
102
{ACAD_REACTORS
330
10C
102
}
330
10C
100
AcDbScale
 70
     0
300
1:4
140
1.0
141
4.0
290
     0
  0
SCALE
  5
18A
102
{ACAD_REACTORS
330
10C
102
}
330
10C
100
AcDbScale
 70
     0
300
1:5
140
1.0
141
5.0
290
     0
  0
SCALE
  5
18B
102
{ACAD_REACTORS
330
10C
102
}
330
10C
100
AcDbScale
 70
     0
300
1:8
140
1.0
141
8.0
290
     0
  0
SCALE
  5
18C
102
{ACAD_REACTORS
330
10C
102
}
330
10C
100
AcDbScale
 70
     0
300
1:10
140
1.0
141
10.0
290
     0
  0
SCALE
  5
18D
102
{ACAD_REACTORS
330
10C
102
}
330
10C
100
AcDbScale
 70
     0
300
1:16
140
1.0
141
16.0
290
     0
  0
SCALE
  5
18E
102
{ACAD_REACTORS
330
10C
102
}
330
10C
100
AcDbScale
 70
     0
300
1:20
140
1.0
141
20.0
290
     0
  0
SCALE
  5
18F
102
{ACAD_REACTORS
330
10C
102
}
330
10C
100
AcDbScale
 70
     0
300
1:30
140
1.0
141
30.0
290
     0
  0
SCALE
  5
190
102
{ACAD_REACTORS
330
10C
102
}
330
10C
100
AcDbScale
 70
     0
300
1:40
140
1.0
141
40.0
290
     0
  0
SCALE
  5
191
102
{ACAD_REACTORS
330
10C
102
}
330
10C
100
AcDbScale
 70
     0
300
1:50
140
1.0
141
50.0
290
     0
  0
SCALE
  5
192
102
{ACAD_REACTORS
330
10C
102
}
330
10C
100
AcDbScale
 70
     0
300
1:100
140
1.0
141
100.0
290
     0
  0
SCALE
  5
193
102
{ACAD_REACTORS
330
10C
102
}
330
10C
100
AcDbScale
 70
     0
300
2:1
140
2.0
141
1.0
290
     0
  0
SCALE
  5
194
102
{ACAD_REACTORS
330
10C
102
}
330
10C
100
AcDbScale
 70
     0
300
4:1
140
4.0
141
1.0
290
     0
  0
SCALE
  5
195
102
{ACAD_REACTORS
330
10C
102
}
330
10C
100
AcDbScale
 70
     0
300
8:1
140
8.0
141
1.0
290
     0
  0
SCALE
  5
196
102
{ACAD_REACTORS
330
10C
102
}
330
10C
100
AcDbScale
 70
     0
300
10:1
140
10.0
141
1.0
290
     0
  0
SCALE
  5
197
102
{ACAD_REACTORS
330
10C
102
}
330
10C
100
AcDbScale
 70
     0
300
100:1
140
100.0
141
1.0
290
     0
  0
SCALE
  5
198
102
{ACAD_REACTORS
330
10C
102
}
330
10C
100
AcDbScale
 70
     0
300
1/128" = 1'-0"
140
0.0078125
141
12.0
290
     0
  0
SCALE
  5
199
102
{ACAD_REACTORS
330
10C
102
}
330
10C
100
AcDbScale
 70
     0
300
1/64" = 1'-0"
140
0.015625
141
12.0
290
     0
  0
SCALE
  5
19A
102
{ACAD_REACTORS
330
10C
102
}
330
10C
100
AcDbScale
 70
     0
300
1/32" = 1'-0"
140
0.03125
141
12.0
290
     0
  0
SCALE
  5
19B
102
{ACAD_REACTORS
330
10C
102
}
330
10C
100
AcDbScale
 70
     0
300
1/16" = 1'-0"
140
0.0625
141
12.0
290
     0
  0
SCALE
  5
19C
102
{ACAD_REACTORS
330
10C
102
}
330
10C
100
AcDbScale
 70
     0
300
3/32" = 1'-0"
140
0.09375
141
12.0
290
     0
  0
SCALE
  5
19D
102
{ACAD_REACTORS
330
10C
102
}
330
10C
100
AcDbScale
 70
     0
300
1/8" = 1'-0"
140
0.125
141
12.0
290
     0
  0
SCALE
  5
19E
102
{ACAD_REACTORS
330
10C
102
}
330
10C
100
AcDbScale
 70
     0
300
3/16" = 1'-0"
140
0.1875
141
12.0
290
     0
  0
SCALE
  5
19F
102
{ACAD_REACTORS
330
10C
102
}
330
10C
100
AcDbScale
 70
     0
300
1/4" = 1'-0"
140
0.25
141
12.0
290
     0
  0
SCALE
  5
1A0
102
{ACAD_REACTORS
330
10C
102
}
330
10C
100
AcDbScale
 70
     0
300
3/8" = 1'-0"
140
0.375
141
12.0
290
     0
  0
SCALE
  5
1A1
102
{ACAD_REACTORS
330
10C
102
}
330
10C
100
AcDbScale
 70
     0
300
1/2" = 1'-0"
140
0.5
141
12.0
290
     0
  0
SCALE
  5
1A2
102
{ACAD_REACTORS
330
10C
102
}
330
10C
100
AcDbScale
 70
     0
300
3/4" = 1'-0"
140
0.75
141
12.0
290
     0
  0
SCALE
  5
1A3
102
{ACAD_REACTORS
330
10C
102
}
330
10C
100
AcDbScale
 70
     0
300
1" = 1'-0"
140
1.0
141
12.0
290
     0
  0
SCALE
  5
1A4
102
{ACAD_REACTORS
330
10C
102
}
330
10C
100
AcDbScale
 70
     0
300
1-1/2" = 1'-0"
140
1.5
141
12.0
290
     0
  0
SCALE
  5
1A5
102
{ACAD_REACTORS
330
10C
102
}
330
10C
100
AcDbScale
 70
     0
300
3" = 1'-0"
140
3.0
141
12.0
290
     0
  0
SCALE
  5
1A6
102
{ACAD_REACTORS
330
10C
102
}
330
10C
100
AcDbScale
 70
     0
300
6" = 1'-0"
140
6.0
141
12.0
290
     0
  0
SCALE
  5
1A7
102
{ACAD_REACTORS
330
10C
102
}
330
10C
100
AcDbScale
 70
     0
300
1'-0" = 1'-0"
140
12.0
141
12.0
290
     0
  0
TABLESTYLE
  5
7F
102
{ACAD_XDICTIONARY
360
162
102
}
102
{ACAD_REACTORS
330
7E
102
}
330
7E
100
AcDbTableStyle
  3
Standard
 70
     0
 71
     0
 40
1.5
 41
1.5
280
     0
281
     0
  7
Standard
140
4.5
170
     2
 62
     0
 63
     7
283
     0
274
    -2
284
     1
 64
     0
275
    -2
285
     1
 65
     0
276
    -2
286
     1
 66
     0
277
    -2
287
     1
 67
     0
278
    -2
288
     1
 68
     0
279
    -2
289
     1
 69
     0
  7
Standard
140
6.0
170
     5
 62
     0
 63
     7
283
     0
274
    -2
284
     1
 64
     0
275
    -2
285
     1
 65
     0
276
    -2
286
     1
 66
     0
277
    -2
287
     1
 67
     0
278
    -2
288
     1
 68
     0
279
    -2
289
     1
 69
     0
  7
Standard
140
4.5
170
     5
 62
     0
 63
     7
283
     0
274
    -2
284
     1
 64
     0
275
    -2
285
     1
 65
     0
276
    -2
286
     1
 66
     0
277
    -2
287
     1
 67
     0
278
    -2
288
     1
 68
     0
279
    -2
289
     1
 69
     0
  0
VISUALSTYLE
  5
F5
102
{ACAD_REACTORS
330
EF
102
}
330
EF
100
AcDbVisualStyle
  2
2dWireframe
 70
     4
 71
     0
 72
     2
 73
     1
 90
        0
 40
-0.6
 41
-30.0
 62
     5
 63
     7
 74
     1
 91
        4
 64
     7
 65
   257
 75
     1
175
     1
 42
1.0
 92
        0
 66
   257
 43
1.0
 76
     1
 77
     6
 78
     2
 67
     7
 79
     5
170
     0
171
     0
290
     0
174
     0
 93
        1
 44
0.0
173
     0
291
     0
 45
0.0
1001
ACAD
1000
AcDbSavedByObjectVersion
1070
     0
  0
VISUALSTYLE
  5
F7
102
{ACAD_REACTORS
330
EF
102
}
330
EF
100
AcDbVisualStyle
  2
3D Hidden
 70
     6
 71
     1
 72
     2
 73
     2
 90
        0
 40
-0.6
 41
-30.0
 62
     5
 63
     7
 74
     2
 91
        2
 64
     7
 65
   257
 75
     2
175
     1
 42
40.0
 92
        0
 66
   257
 43
1.0
 76
     1
 77
     6
 78
     2
 67
     7
 79
     3
170
     0
171
     0
290
     0
174
     0
 93
        1
 44
0.0
173
     0
291
     0
 45
0.0
1001
ACAD
1000
AcDbSavedByObjectVersion
1070
     0
  0
VISUALSTYLE
  5
F6
102
{ACAD_REACTORS
330
EF
102
}
330
EF
100
AcDbVisualStyle
  2
3dWireframe
 70
     5
 71
     0
 72
     2
 73
     1
 90
        0
 40
-0.6
 41
-30.0
 62
     5
 63
     7
 74
     1
 91
        4
 64
     7
 65
   257
 75
     1
175
     1
 42
1.0
 92
        0
 66
   257
 43
1.0
 76
     1
 77
     6
 78
     2
 67
     7
 79
     5
170
     0
171
     0
290
     0
174
     0
 93
        1
 44
0.0
173
     0
291
     0
 45
0.0
1001
ACAD
1000
AcDbSavedByObjectVersion
1070
     0
  0
VISUALSTYLE
  5
F4
102
{ACAD_REACTORS
330
EF
102
}
330
EF
100
AcDbVisualStyle
  2
Basic
 70
     7
 71
     1
 72
     0
 73
     1
 90
        0
 40
-0.6
 41
-30.0
 62
     5
 63
     7
 74
     0
 91
        4
 64
     7
 65
   257
 75
     1
175
     1
 42
1.0
 92
        8
 66
     7
 43
1.0
 76
     1
 77
     6
 78
     2
 67
     7
 79
     5
170
     0
171
     0
290
     0
174
     0
 93
        1
 44
0.0
173
     0
291
     1
 45
0.0
1001
ACAD
1000
AcDbSavedByObjectVersion
1070
     0
  0
VISUALSTYLE
  5
FB
102
{ACAD_REACTORS
330
EF
102
}
330
EF
100
AcDbVisualStyle
  2
Brighten
 70
    12
 71
     2
 72
     2
 73
     1
 90
        0
 40
-0.6
 41
-30.0
 62
     5
 63
     7
 74
     1
 91
        4
 64
     7
 65
   257
 75
     1
175
     1
 42
1.0
 92
        8
 66
     7
 43
1.0
 76
     1
 77
     6
 78
     2
 67
     7
 79
     5
170
     0
171
     0
290
     0
174
     0
 93
        1
 44
50.0
173
     0
291
     1
 45
0.0
1001
ACAD
1000
AcDbSavedByObjectVersion
1070
     0
  0
VISUALSTYLE
  5
FF
102
{ACAD_REACTORS
330
EF
102
}
330
EF
100
AcDbVisualStyle
  2
ColorChange
 70
    16
 71
     2
 72
     2
 73
     3
 90
        0
 40
-0.6
 41
-30.0
 62
     5
 63
     8
 74
     1
 91
        4
 64
     7
 65
   257
 75
     1
175
     1
 42
1.0
 92
        8
 66
     8
 43
1.0
 76
     1
 77
     6
 78
     2
 67
     7
 79
     5
170
     0
171
     0
290
     0
174
     0
 93
        1
 44
0.0
173
     0
291
     1
 45
0.0
1001
ACAD
1000
AcDbSavedByObjectVersion
1070
     0
  0
VISUALSTYLE
  5
F8
102
{ACAD_REACTORS
330
EF
102
}
330
EF
100
AcDbVisualStyle
  2
Conceptual
 70
     9
 71
     3
 72
     2
 73
     1
 90
        0
 40
-0.6
 41
-30.0
 62
     5
 63
     7
 74
     2
 91
        2
 64
     7
 65
   257
 75
     1
175
     1
 42
40.0
 92
        8
 66
     7
 43
1.0
 76
     1
 77
     6
 78
     2
 67
     7
 79
     3
170
     0
171
     0
290
     0
174
     0
 93
        1
 44
0.0
173
     0
291
     0
 45
0.0
1001
ACAD
1000
AcDbSavedByObjectVersion
1070
     0
  0
VISUALSTYLE
  5
FA
102
{ACAD_REACTORS
330
EF
102
}
330
EF
100
AcDbVisualStyle
  2
Dim
 70
    11
 71
     2
 72
     2
 73
     1
 90
        0
 40
-0.6
 41
-30.0
 62
     5
 63
     7
 74
     1
 91
        4
 64
     7
 65
   257
 75
     1
175
     1
 42
1.0
 92
        8
 66
     7
 43
1.0
 76
     1
 77
     6
 78
     2
 67
     7
 79
     5
170
     0
171
     0
290
     0
174
     0
 93
        1
 44
-50.0
173
     0
291
     1
 45
0.0
1001
ACAD
1000
AcDbSavedByObjectVersion
1070
     0
  0
VISUALSTYLE
  5
FE
102
{ACAD_REACTORS
330
EF
102
}
330
EF
100
AcDbVisualStyle
  2
Facepattern
 70
    15
 71
     2
 72
     2
 73
     1
 90
        0
 40
-0.6
 41
-30.0
 62
     5
 63
     7
 74
     1
 91
        4
 64
     7
 65
   257
 75
     1
175
     1
 42
1.0
 92
        8
 66
     7
 43
1.0
 76
     1
 77
     6
 78
     2
 67
     7
 79
     5
170
     0
171
     0
290
     0
174
     0
 93
        1
 44
0.0
173
     0
291
     1
 45
0.0
1001
ACAD
1000
AcDbSavedByObjectVersion
1070
     0
  0
VISUALSTYLE
  5
F0
102
{ACAD_REACTORS
330
EF
102
}
330
EF
100
AcDbVisualStyle
  2
Flat
 70
     0
 71
     2
 72
     1
 73
     1
 90
        2
 40
-0.6
 41
30.0
 62
     5
 63
     7
 74
     0
 91
        4
 64
     7
 65
   257
 75
     1
175
     1
 42
1.0
 92
        8
 66
     7
 43
1.0
 76
     1
 77
     6
 78
     2
 67
     7
 79
     5
170
     0
171
     0
290
     0
174
     0
 93
        1
 44
0.0
173
     0
291
     1
 45
0.0
1001
ACAD
1000
AcDbSavedByObjectVersion
1070
     0
  0
VISUALSTYLE
  5
F1
102
{ACAD_REACTORS
330
EF
102
}
330
EF
100
AcDbVisualStyle
  2
FlatWithEdges
 70
     1
 71
     2
 72
     1
 73
     1
 90
        2
 40
-0.6
 41
30.0
 62
     5
 63
     7
 74
     1
 91
        4
 64
     7
 65
   257
 75
     1
175
     1
 42
1.0
 92
        0
 66
   257
 43
1.0
 76
     1
 77
     6
 78
     2
 67
     7
 79
     5
170
     0
171
     0
290
     0
174
     0
 93
        1
 44
0.0
173
     0
291
     1
 45
0.0
1001
ACAD
1000
AcDbSavedByObjectVersion
1070
     0
  0
VISUALSTYLE
  5
F2
102
{ACAD_REACTORS
330
EF
102
}
330
EF
100
AcDbVisualStyle
  2
Gouraud
 70
     2
 71
     2
 72
     2
 73
     1
 90
        2
 40
-0.6
 41
30.0
 62
     5
 63
     7
 74
     0
 91
        4
 64
     7
 65
   257
 75
     1
175
     1
 42
1.0
 92
        0
 66
     7
 43
1.0
 76
     1
 77
     6
 78
     2
 67
     7
 79
     5
170
     0
171
     0
290
     0
174
     0
 93
        1
 44
0.0
173
     0
291
     1
 45
0.0
1001
ACAD
1000
AcDbSavedByObjectVersion
1070
     0
  0
VISUALSTYLE
  5
F3
102
{ACAD_REACTORS
330
EF
102
}
330
EF
100
AcDbVisualStyle
  2
GouraudWithEdges
 70
     3
 71
     2
 72
     2
 73
     1
 90
        2
 40
-0.6
 41
30.0
 62
     5
 63
     7
 74
     1
 91
        4
 64
     7
 65
   257
 75
     1
175
     1
 42
1.0
 92
        0
 66
   257
 43
1.0
 76
     1
 77
     6
 78
     2
 67
     7
 79
     5
170
     0
171
     0
290
     0
174
     0
 93
        1
 44
0.0
173
     0
291
     1
 45
0.0
1001
ACAD
1000
AcDbSavedByObjectVersion
1070
     0
  0
VISUALSTYLE
  5
FD
102
{ACAD_REACTORS
330
EF
102
}
330
EF
100
AcDbVisualStyle
  2
Linepattern
 70
    14
 71
     2
 72
     2
 73
     1
 90
        0
 40
-0.6
 41
-30.0
 62
     5
 63
     7
 74
     1
 91
        4
 64
     7
 65
   257
 75
     7
175
     7
 42
1.0
 92
        8
 66
     7
 43
1.0
 76
     1
 77
     6
 78
     2
 67
     7
 79
     5
170
     0
171
     0
290
     0
174
     0
 93
        1
 44
0.0
173
     0
291
     1
 45
0.0
1001
ACAD
1000
AcDbSavedByObjectVersion
1070
     0
  0
VISUALSTYLE
  5
F9
102
{ACAD_REACTORS
330
EF
102
}
330
EF
100
AcDbVisualStyle
  2
Realistic
 70
     8
 71
     2
 72
     2
 73
     1
 90
        0
 40
-0.6
 41
-30.0
 62
     5
 63
     7
 74
     1
 91
        0
 64
     7
 65
   257
 75
     1
175
     1
 42
1.0
 92
        8
 66
     8
 43
1.0
 76
     1
 77
     6
 78
     2
 67
     7
 79
     5
170
     0
171
     0
290
     0
174
     0
 93
       13
 44
0.0
173
     0
291
     0
 45
0.0
1001
ACAD
1000
AcDbSavedByObjectVersion
1070
     0
  0
VISUALSTYLE
  5
FC
102
{ACAD_REACTORS
330
EF
102
}
330
EF
100
AcDbVisualStyle
  2
Thicken
 70
    13
 71
     2
 72
     2
 73
     1
 90
        0
 40
-0.6
 41
-30.0
 62
     5
 63
     7
 74
     1
 91
        4
 64
     7
 65
   257
 75
     1
175
     1
 42
1.0
 92
       12
 66
     7
 43
1.0
 76
     1
 77
     6
 78
     2
 67
     7
 79
     5
170
     0
171
     0
290
     0
174
     0
 93
        1
 44
0.0
173
     0
291
     1
 45
0.0
1001
ACAD
1000
AcDbSavedByObjectVersion
1070
     0
  0
DICTIONARYVAR
  5
146
102
{ACAD_REACTORS
330
5E
102
}
330
5E
100
DictionaryVariables
280
     0
  1
1:1
  0
DICTIONARYVAR
  5
145
102
{ACAD_REACTORS
330
5E
102
}
330
5E
100
DictionaryVariables
280
     0
  1
STANDARD
  0
DICTIONARYVAR
  5
84
102
{ACAD_REACTORS
330
5E
102
}
330
5E
100
DictionaryVariables
280
     0
  1
STANDARD
  0
DICTIONARYVAR
  5
5F
102
{ACAD_REACTORS
330
5E
102
}
330
5E
100
DictionaryVariables
280
     0
  1
2
  0
DICTIONARYVAR
  5
63
102
{ACAD_REACTORS
330
5E
102
}
330
5E
100
DictionaryVariables
280
     0
  1
1
  0
DICTIONARYVAR
  5
306
102
{ACAD_REACTORS
330
5E
102
}
330
5E
100
DictionaryVariables
280
     0
  1
0
  0
DICTIONARYVAR
  5
304
102
{ACAD_REACTORS
330
5E
102
}
330
5E
100
DictionaryVariables
280
     0
  1
2
  0
DICTIONARYVAR
  5
303
102
{ACAD_REACTORS
330
5E
102
}
330
5E
100
DictionaryVariables
280
     0
  1
1
  0
DICTIONARYVAR
  5
308
102
{ACAD_REACTORS
330
5E
102
}
330
5E
100
DictionaryVariables
280
     0
  1
80.000000
  0
DICTIONARYVAR
  5
307
102
{ACAD_REACTORS
330
5E
102
}
330
5E
100
DictionaryVariables
280
     0
  1
5.000000
  0
DICTIONARYVAR
  5
305
102
{ACAD_REACTORS
330
5E
102
}
330
5E
100
DictionaryVariables
280
     0
  1
127
  0
DICTIONARY
  5
30E
330
D3
100
AcDbDictionary
280
     1
281
     1
  3
ACAD_XREC_ROUNDTRIP
360
30F
  0
DICTIONARY
  5
310
330
D7
100
AcDbDictionary
280
     1
281
     1
  3
ACAD_XREC_ROUNDTRIP
360
311
  0
DICTIONARY
  5
30B
330
22
100
AcDbDictionary
280
     1
281
     1
  3
ACAD_XREC_ROUNDTRIP
360
30C
  0
DICTIONARY
  5
314
330
ED
100
AcDbDictionary
280
     1
281
     1
  3
ACAD_XREC_ROUNDTRIP
360
315
  0
DICTIONARY
  5
312
330
EC
100
AcDbDictionary
280
     1
281
     1
  3
ACAD_XREC_ROUNDTRIP
360
313
  0
DICTIONARY
  5
173
330
EE
100
AcDbDictionary
280
     1
281
     1
  3
ACAD_XREC_ROUNDTRIP
360
316
  3
BUMPTILE
360
175
  3
DIFFUSETILE
360
174
  3
OPACITYTILE
360
176
  3
REFLECTIONTILE
360
177
  0
DICTIONARY
  5
162
330
7F
100
AcDbDictionary
280
     1
281
     1
  3
ACAD_ROUNDTRIP_2008_TABLESTYLE_CELLSTYLEMAP
360
309
  3
ACAD_XREC_ROUNDTRIP
360
30D
  0
XRECORD
  5
30F
102
{ACAD_REACTORS
330
30E
102
}
330
30E
100
AcDbXrecord
280
     1
102
SHADEPLOT
 70
     0
102
SHADEPLOTRESLEVEL
 70
     2
102
SHADEPLOTCUSTOMDPI
 70
   300
  0
XRECORD
  5
311
102
{ACAD_REACTORS
330
310
102
}
330
310
100
AcDbXrecord
280
     1
102
SHADEPLOT
 70
     0
102
SHADEPLOTRESLEVEL
 70
     2
102
SHADEPLOTCUSTOMDPI
 70
   300
  0
XRECORD
  5
30C
102
{ACAD_REACTORS
330
30B
102
}
330
30B
100
AcDbXrecord
280
     1
102
SHADEPLOT
 70
     0
102
SHADEPLOTRESLEVEL
 70
     2
102
SHADEPLOTCUSTOMDPI
 70
   300
  0
XRECORD
  5
315
102
{ACAD_REACTORS
330
314
102
}
330
314
100
AcDbXrecord
280
     1
102
MATERIAL
148
0.0
149
0.0
149
0.0
 93
        0
 94
       63
282
     0
 72
     1
 77
     1
171
     1
175
     1
179
     1
273
     0
  0
XRECORD
  5
313
102
{ACAD_REACTORS
330
312
102
}
330
312
100
AcDbXrecord
280
     1
102
MATERIAL
148
0.0
149
0.0
149
0.0
 93
        0
 94
       63
282
     0
 72
     1
 77
     1
171
     1
175
     1
179
     1
273
     0
  0
XRECORD
  5
316
102
{ACAD_REACTORS
330
173
102
}
330
173
100
AcDbXrecord
280
     1
102
MATERIAL
148
0.0
149
0.0
149
0.0
 93
        0
 94
       63
282
     0
 72
     1
 77
     1
171
     1
175
     1
179
     1
273
     0
  0
XRECORD
  5
175
102
{ACAD_REACTORS
330
173
102
}
330
173
100
AcDbXrecord
280
     1
270
     1
271
     1
  0
XRECORD
  5
174
102
{ACAD_REACTORS
330
173
102
}
330
173
100
AcDbXrecord
280
     1
270
     1
271
     1
  0
XRECORD
  5
176
102
{ACAD_REACTORS
330
173
102
}
330
173
100
AcDbXrecord
280
     1
270
     1
271
     1
  0
XRECORD
  5
177
102
{ACAD_REACTORS
330
173
102
}
330
173
100
AcDbXrecord
280
     1
270
     1
271
     1
  0
CELLSTYLEMAP
  5
309
102
{ACAD_REACTORS
330
162
102
}
330
162
100
AcDbCellStyleMap
 90
        3
300
CELLSTYLE
  1
TABLEFORMAT_BEGIN
 90
        5
170
     1
 91
        0
 92
    32768
 62
   257
 93
        1
300
CONTENTFORMAT
  1
CONTENTFORMAT_BEGIN
 90
        0
 91
        0
 92
      512
 93
        0
300

 40
0.0
140
1.0
 94
        5
 62
     0
340
11
144
6.0
309
CONTENTFORMAT_END
171
     1
301
MARGIN
  1
CELLMARGIN_BEGIN
 40
1.5
 40
1.5
 40
1.5
 40
1.5
 40
4.5
 40
4.5
309
CELLMARGIN_END
 94
        6
 95
        1
302
GRIDFORMAT
  1
GRIDFORMAT_BEGIN
 90
        0
 91
        1
 62
     0
 92
       -2
340
14
 93
        0
 40
1.125
309
GRIDFORMAT_END
 95
        2
302
GRIDFORMAT
  1
GRIDFORMAT_BEGIN
 90
        0
 91
        1
 62
     0
 92
       -2
340
14
 93
        0
 40
1.125
309
GRIDFORMAT_END
 95
        4
302
GRIDFORMAT
  1
GRIDFORMAT_BEGIN
 90
        0
 91
        1
 62
     0
 92
       -2
340
14
 93
        0
 40
1.125
309
GRIDFORMAT_END
 95
        8
302
GRIDFORMAT
  1
GRIDFORMAT_BEGIN
 90
        0
 91
        1
 62
     0
 92
       -2
340
14
 93
        0
 40
1.125
309
GRIDFORMAT_END
 95
       16
302
GRIDFORMAT
  1
GRIDFORMAT_BEGIN
 90
        0
 91
        1
 62
     0
 92
       -2
340
14
 93
        0
 40
1.125
309
GRIDFORMAT_END
 95
       32
302
GRIDFORMAT
  1
GRIDFORMAT_BEGIN
 90
        0
 91
        1
 62
     0
 92
       -2
340
14
 93
        0
 40
1.125
309
GRIDFORMAT_END
309
TABLEFORMAT_END
  1
CELLSTYLE_BEGIN
 90
        1
 91
        1
300
_TITLE
309
CELLSTYLE_END
300
CELLSTYLE
  1
TABLEFORMAT_BEGIN
 90
        5
170
     1
 91
        0
 92
        0
 62
   257
 93
        1
300
CONTENTFORMAT
  1
CONTENTFORMAT_BEGIN
 90
        0
 91
        0
 92
      512
 93
        0
300

 40
0.0
140
1.0
 94
        5
 62
     0
340
11
144
4.5
309
CONTENTFORMAT_END
171
     1
301
MARGIN
  1
CELLMARGIN_BEGIN
 40
1.5
 40
1.5
 40
1.5
 40
1.5
 40
4.5
 40
4.5
309
CELLMARGIN_END
 94
        6
 95
        1
302
GRIDFORMAT
  1
GRIDFORMAT_BEGIN
 90
        0
 91
        1
 62
     0
 92
       -2
340
14
 93
        0
 40
1.125
309
GRIDFORMAT_END
 95
        2
302
GRIDFORMAT
  1
GRIDFORMAT_BEGIN
 90
        0
 91
        1
 62
     0
 92
       -2
340
14
 93
        0
 40
1.125
309
GRIDFORMAT_END
 95
        4
302
GRIDFORMAT
  1
GRIDFORMAT_BEGIN
 90
        0
 91
        1
 62
     0
 92
       -2
340
14
 93
        0
 40
1.125
309
GRIDFORMAT_END
 95
        8
302
GRIDFORMAT
  1
GRIDFORMAT_BEGIN
 90
        0
 91
        1
 62
     0
 92
       -2
340
14
 93
        0
 40
1.125
309
GRIDFORMAT_END
 95
       16
302
GRIDFORMAT
  1
GRIDFORMAT_BEGIN
 90
        0
 91
        1
 62
     0
 92
       -2
340
14
 93
        0
 40
1.125
309
GRIDFORMAT_END
 95
       32
302
GRIDFORMAT
  1
GRIDFORMAT_BEGIN
 90
        0
 91
        1
 62
     0
 92
       -2
340
14
 93
        0
 40
1.125
309
GRIDFORMAT_END
309
TABLEFORMAT_END
  1
CELLSTYLE_BEGIN
 90
        2
 91
        1
300
_HEADER
309
CELLSTYLE_END
300
CELLSTYLE
  1
TABLEFORMAT_BEGIN
 90
        5
170
     1
 91
        0
 92
        0
 62
   257
 93
        1
300
CONTENTFORMAT
  1
CONTENTFORMAT_BEGIN
 90
        0
 91
        0
 92
      512
 93
        0
300

 40
0.0
140
1.0
 94
        2
 62
     0
340
11
144
4.5
309
CONTENTFORMAT_END
171
     1
301
MARGIN
  1
CELLMARGIN_BEGIN
 40
1.5
 40
1.5
 40
1.5
 40
1.5
 40
4.5
 40
4.5
309
CELLMARGIN_END
 94
        6
 95
        1
302
GRIDFORMAT
  1
GRIDFORMAT_BEGIN
 90
        0
 91
        1
 62
     0
 92
       -2
340
14
 93
        0
 40
1.125
309
GRIDFORMAT_END
 95
        2
302
GRIDFORMAT
  1
GRIDFORMAT_BEGIN
 90
        0
 91
        1
 62
     0
 92
       -2
340
14
 93
        0
 40
1.125
309
GRIDFORMAT_END
 95
        4
302
GRIDFORMAT
  1
GRIDFORMAT_BEGIN
 90
        0
 91
        1
 62
     0
 92
       -2
340
14
 93
        0
 40
1.125
309
GRIDFORMAT_END
 95
        8
302
GRIDFORMAT
  1
GRIDFORMAT_BEGIN
 90
        0
 91
        1
 62
     0
 92
       -2
340
14
 93
        0
 40
1.125
309
GRIDFORMAT_END
 95
       16
302
GRIDFORMAT
  1
GRIDFORMAT_BEGIN
 90
        0
 91
        1
 62
     0
 92
       -2
340
14
 93
        0
 40
1.125
309
GRIDFORMAT_END
 95
       32
302
GRIDFORMAT
  1
GRIDFORMAT_BEGIN
 90
        0
 91
        1
 62
     0
 92
       -2
340
14
 93
        0
 40
1.125
309
GRIDFORMAT_END
309
TABLEFORMAT_END
  1
CELLSTYLE_BEGIN
 90
        3
 91
        2
300
_DATA
309
CELLSTYLE_END
  0
XRECORD
  5
30D
102
{ACAD_REACTORS
330
162
102
}
330
162
100
AcDbXrecord
280
     1
102
ACAD_ROUNDTRIP_PRE2007_TABLESTYLE
 90
      512
 91
        0
  1

 92
      512
 93
        0
  2

 94
      512
 95
        0
  3

  0
ENDSEC
  0
EOF
