  0
SECTION
  2
HEADER
  9
$ACADVER
  1
AC1015
  9
$ACADMAINTVER
 70
    20
  9
$DWGCODEPAGE
  3
ANSI_1254
  9
$INSBASE
 10
0.0
 20
0.0
 30
0.0
  9
$EXTMIN
 10
1950.32872615244
 20
1060.756828810634
 30
0.0
  9
$EXTMAX
 10
2095.296833349898
 20
1138.939150262648
 30
0.0
  9
$LIMMIN
 10
0.0
 20
0.0
  9
$LIMMAX
 10
420.0
 20
297.0
  9
$ORTHOMODE
 70
     0
  9
$REGENMODE
 70
     1
  9
$FILLMODE
 70
     1
  9
$QTEXTMODE
 70
     0
  9
$MIRRTEXT
 70
     0
  9
$LTSCALE
 40
1.0
  9
$ATTMODE
 70
     1
  9
$TEXTSIZE
 40
2.5
  9
$TRACEWID
 40
1.0
  9
$TEXTSTYLE
  7
Standard
  9
$CLAYER
  8
0
  9
$CELTYPE
  6
ByLayer
  9
$CECOLOR
 62
   256
  9
$CELTSCALE
 40
1.0
  9
$DISPSILH
 70
     0
  9
$DIMSCALE
 40
1.0
  9
$DIMASZ
 40
2.5
  9
$DIMEXO
 40
0.625
  9
$DIMDLI
 40
3.75
  9
$DIMRND
 40
0.0
  9
$DIMDLE
 40
0.0
  9
$DIMEXE
 40
1.25
  9
$DIMTP
 40
0.0
  9
$DIMTM
 40
0.0
  9
$DIMTXT
 40
2.5
  9
$DIMCEN
 40
2.5
  9
$DIMTSZ
 40
0.0
  9
$DIMTOL
 70
     0
  9
$DIMLIM
 70
     0
  9
$DIMTIH
 70
     0
  9
$DIMTOH
 70
     0
  9
$DIMSE1
 70
     0
  9
$DIMSE2
 70
     0
  9
$DIMTAD
 70
     1
  9
$DIMZIN
 70
     8
  9
$DIMBLK
  1

  9
$DIMASO
 70
     1
  9
$DIMSHO
 70
     1
  9
$DIMPOST
  1

  9
$DIMAPOST
  1

  9
$DIMALT
 70
     0
  9
$DIMALTD
 70
     3
  9
$DIMALTF
 40
0.03937007874016
  9
$DIMLFAC
 40
1.0
  9
$DIMTOFL
 70
     1
  9
$DIMTVP
 40
0.0
  9
$DIMTIX
 70
     0
  9
$DIMSOXD
 70
     0
  9
$DIMSAH
 70
     0
  9
$DIMBLK1
  1

  9
$DIMBLK2
  1

  9
$DIMSTYLE
  2
ISO-25
  9
$DIMCLRD
 70
     0
  9
$DIMCLRE
 70
     0
  9
$DIMCLRT
 70
     0
  9
$DIMTFAC
 40
1.0
  9
$DIMGAP
 40
0.625
  9
$DIMJUST
 70
     0
  9
$DIMSD1
 70
     0
  9
$DIMSD2
 70
     0
  9
$DIMTOLJ
 70
     0
  9
$DIMTZIN
 70
     8
  9
$DIMALTZ
 70
     0
  9
$DIMALTTZ
 70
     0
  9
$DIMUPT
 70
     0
  9
$DIMDEC
 70
     2
  9
$DIMTDEC
 70
     2
  9
$DIMALTU
 70
     2
  9
$DIMALTTD
 70
     3
  9
$DIMTXSTY
  7
Standard
  9
$DIMAUNIT
 70
     0
  9
$DIMADEC
 70
     0
  9
$DIMALTRND
 40
0.0
  9
$DIMAZIN
 70
     0
  9
$DIMDSEP
 70
    44
  9
$DIMATFIT
 70
     3
  9
$DIMFRAC
 70
     0
  9
$DIMLDRBLK
  1

  9
$DIMLUNIT
 70
     2
  9
$DIMLWD
 70
    -2
  9
$DIMLWE
 70
    -2
  9
$DIMTMOVE
 70
     0
  9
$LUNITS
 70
     2
  9
$LUPREC
 70
     4
  9
$SKETCHINC
 40
1.0
  9
$FILLETRAD
 40
0.0
  9
$AUNITS
 70
     0
  9
$AUPREC
 70
     0
  9
$MENU
  1
.
  9
$ELEVATION
 40
0.0
  9
$PELEVATION
 40
0.0
  9
$THICKNESS
 40
0.0
  9
$LIMCHECK
 70
     0
  9
$CHAMFERA
 40
0.0
  9
$CHAMFERB
 40
0.0
  9
$CHAMFERC
 40
0.0
  9
$CHAMFERD
 40
0.0
  9
$SKPOLY
 70
     0
  9
$TDCREATE
 40
2459067.675839850
  9
$TDUCREATE
 40
2459067.550839850
  9
$TDUPDATE
 40
2459067.689769907
  9
$TDUUPDATE
 40
2459067.564769907
  9
$TDINDWG
 40
0.0002628472
  9
$TDUSRTIMER
 40
0.0002628472
  9
$USRTIMER
 70
     1
  9
$ANGBASE
 50
0.0
  9
$ANGDIR
 70
     0
  9
$PDMODE
 70
     0
  9
$PDSIZE
 40
0.0
  9
$PLINEWID
 40
0.0
  9
$SPLFRAME
 70
     0
  9
$SPLINETYPE
 70
     6
  9
$SPLINESEGS
 70
     8
  9
$HANDSEED
  5
349
  9
$SURFTAB1
 70
     6
  9
$SURFTAB2
 70
     6
  9
$SURFTYPE
 70
     6
  9
$SURFU
 70
     6
  9
$SURFV
 70
     6
  9
$UCSBASE
  2

  9
$UCSNAME
  2

  9
$UCSORG
 10
0.0
 20
0.0
 30
0.0
  9
$UCSXDIR
 10
1.0
 20
0.0
 30
0.0
  9
$UCSYDIR
 10
0.0
 20
1.0
 30
0.0
  9
$UCSORTHOREF
  2

  9
$UCSORTHOVIEW
 70
     0
  9
$UCSORGTOP
 10
0.0
 20
0.0
 30
0.0
  9
$UCSORGBOTTOM
 10
0.0
 20
0.0
 30
0.0
  9
$UCSORGLEFT
 10
0.0
 20
0.0
 30
0.0
  9
$UCSORGRIGHT
 10
0.0
 20
0.0
 30
0.0
  9
$UCSORGFRONT
 10
0.0
 20
0.0
 30
0.0
  9
$UCSORGBACK
 10
0.0
 20
0.0
 30
0.0
  9
$PUCSBASE
  2

  9
$PUCSNAME
  2

  9
$PUCSORG
 10
0.0
 20
0.0
 30
0.0
  9
$PUCSXDIR
 10
1.0
 20
0.0
 30
0.0
  9
$PUCSYDIR
 10
0.0
 20
1.0
 30
0.0
  9
$PUCSORTHOREF
  2

  9
$PUCSORTHOVIEW
 70
     0
  9
$PUCSORGTOP
 10
0.0
 20
0.0
 30
0.0
  9
$PUCSORGBOTTOM
 10
0.0
 20
0.0
 30
0.0
  9
$PUCSORGLEFT
 10
0.0
 20
0.0
 30
0.0
  9
$PUCSORGRIGHT
 10
0.0
 20
0.0
 30
0.0
  9
$PUCSORGFRONT
 10
0.0
 20
0.0
 30
0.0
  9
$PUCSORGBACK
 10
0.0
 20
0.0
 30
0.0
  9
$USERI1
 70
     0
  9
$USERI2
 70
     0
  9
$USERI3
 70
     0
  9
$USERI4
 70
     0
  9
$USERI5
 70
     0
  9
$USERR1
 40
0.0
  9
$USERR2
 40
0.0
  9
$USERR3
 40
0.0
  9
$USERR4
 40
0.0
  9
$USERR5
 40
0.0
  9
$WORLDVIEW
 70
     1
  9
$SHADEDGE
 70
     3
  9
$SHADEDIF
 70
    70
  9
$TILEMODE
 70
     1
  9
$MAXACTVP
 70
    64
  9
$PINSBASE
 10
0.0
 20
0.0
 30
0.0
  9
$PLIMCHECK
 70
     0
  9
$PEXTMIN
 10
0.0
 20
0.0
 30
0.0
  9
$PEXTMAX
 10
0.0
 20
0.0
 30
0.0
  9
$PLIMMIN
 10
0.0
 20
0.0
  9
$PLIMMAX
 10
12.0
 20
9.0
  9
$UNITMODE
 70
     0
  9
$VISRETAIN
 70
     1
  9
$PLINEGEN
 70
     0
  9
$PSLTSCALE
 70
     1
  9
$TREEDEPTH
 70
  3020
  9
$CMLSTYLE
  2
Standard
  9
$CMLJUST
 70
     0
  9
$CMLSCALE
 40
20.0
  9
$PROXYGRAPHICS
 70
     1
  9
$MEASUREMENT
 70
     1
  9
$CELWEIGHT
370
    -1
  9
$ENDCAPS
280
     0
  9
$JOINSTYLE
280
     0
  9
$LWDISPLAY
290
     0
  9
$INSUNITS
 70
     4
  9
$HYPERLINKBASE
  1

  9
$STYLESHEET
  1

  9
$XEDIT
290
     1
  9
$CEPSNTYPE
380
     0
  9
$PSTYLEMODE
290
     1
  9
$FINGERPRINTGUID
  2
{C7AF851C-2D8B-4E93-9C2E-ABB4D875BB15}
  9
$VERSIONGUID
  2
{2ADCF5B4-9C03-4337-87C5-19E5D18245C1}
  9
$EXTNAMES
290
     1
  9
$PSVPSCALE
 40
0.0
  9
$OLESTARTUP
290
     0
  0
ENDSEC
  0
SECTION
  2
CLASSES
  0
CLASS
  1
ACDBDICTIONARYWDFLT
  2
AcDbDictionaryWithDefault
  3
ObjectDBX Classes
 90
        0
280
     0
281
     0
  0
CLASS
  1
ACDBPLACEHOLDER
  2
AcDbPlaceHolder
  3
ObjectDBX Classes
 90
        0
280
     0
281
     0
  0
CLASS
  1
LAYOUT
  2
AcDbLayout
  3
ObjectDBX Classes
 90
        0
280
     0
281
     0
  0
CLASS
  1
DICTIONARYVAR
  2
AcDbDictionaryVar
  3
ObjectDBX Classes
 90
        0
280
     0
281
     0
  0
CLASS
  1
TABLESTYLE
  2
AcDbTableStyle
  3
ObjectDBX Classes
 90
     4095
280
     0
281
     0
  0
CLASS
  1
MATERIAL
  2
AcDbMaterial
  3
ObjectDBX Classes
 90
     1153
280
     0
281
     0
  0
CLASS
  1
VISUALSTYLE
  2
AcDbVisualStyle
  3
ObjectDBX Classes
 90
     4095
280
     0
281
     0
  0
CLASS
  1
SCALE
  2
AcDbScale
  3
ObjectDBX Classes
 90
     1153
280
     0
281
     0
  0
CLASS
  1
MLEADERSTYLE
  2
AcDbMLeaderStyle
  3
ACDB_MLEADERSTYLE_CLASS
 90
     4095
280
     0
281
     0
  0
CLASS
  1
CELLSTYLEMAP
  2
AcDbCellStyleMap
  3
ObjectDBX Classes
 90
     1152
280
     0
281
     0
  0
ENDSEC
  0
SECTION
  2
TABLES
  0
TABLE
  2
VPORT
  5
8
330
0
100
AcDbSymbolTable
 70
     1
  0
VPORT
  5
EA
330
8
100
AcDbSymbolTableRecord
100
AcDbViewportTableRecord
  2
*Active
 70
     0
 10
0.0
 20
0.0
 11
1.0
 21
1.0
 12
2028.040279462587
 22
1112.150149123517
 13
0.0
 23
0.0
 14
10.0
 24
10.0
 15
10.0
 25
10.0
 16
0.0
 26
0.0
 36
1.0
 17
0.0
 27
0.0
 37
0.0
 40
140.5549974406883
 41
1.903110047846889
 42
50.0
 43
0.0
 44
0.0
 50
0.0
 51
0.0
 71
     0
 72
  1000
 73
     1
 74
     3
 75
     0
 76
     0
 77
     0
 78
     0
281
     0
 65
     1
110
0.0
120
0.0
130
0.0
111
1.0
121
0.0
131
0.0
112
0.0
122
1.0
132
0.0
 79
     0
146
0.0
  0
ENDTAB
  0
TABLE
  2
LTYPE
  5
5
330
0
100
AcDbSymbolTable
 70
     1
  0
LTYPE
  5
14
330
5
100
AcDbSymbolTableRecord
100
AcDbLinetypeTableRecord
  2
ByBlock
 70
     0
  3

 72
    65
 73
     0
 40
0.0
  0
LTYPE
  5
15
330
5
100
AcDbSymbolTableRecord
100
AcDbLinetypeTableRecord
  2
ByLayer
 70
     0
  3

 72
    65
 73
     0
 40
0.0
  0
LTYPE
  5
16
330
5
100
AcDbSymbolTableRecord
100
AcDbLinetypeTableRecord
  2
Continuous
 70
     0
  3
Solid line
 72
    65
 73
     0
 40
0.0
  0
ENDTAB
  0
TABLE
  2
LAYER
  5
2
330
0
100
AcDbSymbolTable
 70
     1
  0
LAYER
  5
10
102
{ACAD_XDICTIONARY
360
13C
102
}
330
2
100
AcDbSymbolTableRecord
100
AcDbLayerTableRecord
  2
0
 70
     0
 62
     7
  6
Continuous
370
    -3
390
F
  0
ENDTAB
  0
TABLE
  2
STYLE
  5
3
330
0
100
AcDbSymbolTable
 70
     2
  0
STYLE
  5
11
330
3
100
AcDbSymbolTableRecord
100
AcDbTextStyleTableRecord
  2
Standard
 70
     0
 40
0.0
 41
1.0
 50
0.0
 71
     0
 42
2.5
  3
txt
  4

  0
STYLE
  5
132
330
3
100
AcDbSymbolTableRecord
100
AcDbTextStyleTableRecord
  2
Annotative
 70
     0
 40
0.0
 41
1.0
 50
0.0
 71
     0
 42
2.5
  3
txt.shx
  4

1001
AcadAnnotative
1000
AnnotativeData
1002
{
1070
     1
1070
     1
1002
}
  0
ENDTAB
  0
TABLE
  2
VIEW
  5
6
330
0
100
AcDbSymbolTable
 70
     0
  0
ENDTAB
  0
TABLE
  2
UCS
  5
7
330
0
100
AcDbSymbolTable
 70
     0
  0
ENDTAB
  0
TABLE
  2
APPID
  5
9
330
0
100
AcDbSymbolTable
 70
     7
  0
APPID
  5
12
330
9
100
AcDbSymbolTableRecord
100
AcDbRegAppTableRecord
  2
ACAD
 70
     0
  0
APPID
  5
9E
330
9
100
AcDbSymbolTableRecord
100
AcDbRegAppTableRecord
  2
ACAD_PSEXT
 70
     0
  0
APPID
  5
133
330
9
100
AcDbSymbolTableRecord
100
AcDbRegAppTableRecord
  2
AcadAnnoPO
 70
     0
  0
APPID
  5
134
330
9
100
AcDbSymbolTableRecord
100
AcDbRegAppTableRecord
  2
AcadAnnotative
 70
     0
  0
APPID
  5
135
330
9
100
AcDbSymbolTableRecord
100
AcDbRegAppTableRecord
  2
ACAD_DSTYLE_DIMJAG
 70
     0
  0
APPID
  5
136
330
9
100
AcDbSymbolTableRecord
100
AcDbRegAppTableRecord
  2
ACAD_DSTYLE_DIMTALN
 70
     0
  0
APPID
  5
165
330
9
100
AcDbSymbolTableRecord
100
AcDbRegAppTableRecord
  2
ACAD_MLEADERVER
 70
     0
  0
ENDTAB
  0
TABLE
  2
DIMSTYLE
  5
A
330
0
100
AcDbSymbolTable
 70
     2
100
AcDbDimStyleTable
 71
     2
340
27
340
137
  0
DIMSTYLE
105
27
330
A
100
AcDbSymbolTableRecord
100
AcDbDimStyleTableRecord
  2
ISO-25
 70
     0
 41
2.5
 42
0.625
 43
3.75
 44
1.25
 73
     0
 74
     0
 77
     1
 78
     8
140
2.5
141
2.5
143
0.03937007874016
147
0.625
171
     3
172
     1
271
     2
272
     2
274
     3
278
    44
283
     0
284
     8
340
11
  0
DIMSTYLE
105
137
330
A
100
AcDbSymbolTableRecord
100
AcDbDimStyleTableRecord
  2
Annotative
 70
     0
 40
0.0
 41
2.5
 42
0.625
 43
3.75
 44
1.25
 73
     0
 74
     0
 77
     1
 78
     8
140
2.5
141
2.5
143
0.03937007874016
147
0.625
171
     3
172
     1
271
     2
272
     2
274
     3
278
    44
283
     0
284
     8
340
11
1001
AcadAnnotative
1000
AnnotativeData
1002
{
1070
     1
1070
     1
1002
}
1001
ACAD_DSTYLE_DIMJAG
1070
   388
1040
1.5
1001
ACAD_DSTYLE_DIMTALN
1070
   392
1070
     0
  0
ENDTAB
  0
TABLE
  2
BLOCK_RECORD
  5
1
330
0
100
AcDbSymbolTable
 70
     6
  0
BLOCK_RECORD
  5
1F
330
1
100
AcDbSymbolTableRecord
100
AcDbBlockTableRecord
  2
*Model_Space
340
22
  0
BLOCK_RECORD
  5
D2
330
1
100
AcDbSymbolTableRecord
100
AcDbBlockTableRecord
  2
*Paper_Space
340
D3
  0
BLOCK_RECORD
  5
D6
330
1
100
AcDbSymbolTableRecord
100
AcDbBlockTableRecord
  2
*Paper_Space0
340
D7
  0
BLOCK_RECORD
  5
1AD
330
1
100
AcDbSymbolTableRecord
100
AcDbBlockTableRecord
  2
SW_CENTERMARKSYMBOL_0
340
0
102
{BLKREFS
331
2D1
102
}
  0
BLOCK_RECORD
  5
1B8
330
1
100
AcDbSymbolTableRecord
100
AcDbBlockTableRecord
  2
SW_CENTERMARKSYMBOL_1
340
0
102
{BLKREFS
331
2D2
102
}
  0
BLOCK_RECORD
  5
2AF
330
1
100
AcDbSymbolTableRecord
100
AcDbBlockTableRecord
  2
1
340
0
310
2800000020000000200000000100080000000000000400000000000000000000000000000000000000000000000080000080000000808000800000008000800080800000C0C0C000C0DCC000F0CAA6000020400000206000002080000020A0000020C0000020E00000400000004020000040400000406000004080000040A0
310
000040C0000040E00000600000006020000060400000606000006080000060A0000060C0000060E00000800000008020000080400000806000008080000080A0000080C0000080E00000A0000000A0200000A0400000A0600000A0800000A0A00000A0C00000A0E00000C0000000C0200000C0400000C0600000C0800000C0
310
A00000C0C00000C0E00000E0000000E0200000E0400000E0600000E0800000E0A00000E0C00000E0E00040000000400020004000400040006000400080004000A0004000C0004000E00040200000402020004020400040206000402080004020A0004020C0004020E000404000004040200040404000404060004040800040
310
40A0004040C0004040E00040600000406020004060400040606000406080004060A0004060C0004060E00040800000408020004080400040806000408080004080A0004080C0004080E00040A0000040A0200040A0400040A0600040A0800040A0A00040A0C00040A0E00040C0000040C0200040C0400040C0600040C08000
310
40C0A00040C0C00040C0E00040E0000040E0200040E0400040E0600040E0800040E0A00040E0C00040E0E00080000000800020008000400080006000800080008000A0008000C0008000E00080200000802020008020400080206000802080008020A0008020C0008020E00080400000804020008040400080406000804080
310
008040A0008040C0008040E00080600000806020008060400080606000806080008060A0008060C0008060E00080800000808020008080400080806000808080008080A0008080C0008080E00080A0000080A0200080A0400080A0600080A0800080A0A00080A0C00080A0E00080C0000080C0200080C0400080C0600080C0
310
800080C0A00080C0C00080C0E00080E0000080E0200080E0400080E0600080E0800080E0A00080E0C00080E0E000C0000000C0002000C0004000C0006000C0008000C000A000C000C000C000E000C0200000C0202000C0204000C0206000C0208000C020A000C020C000C020E000C0400000C0402000C0404000C0406000C0
310
408000C040A000C040C000C040E000C0600000C0602000C0604000C0606000C0608000C060A000C060C000C060E000C0800000C0802000C0804000C0806000C0808000C080A000C080C000C080E000C0A00000C0A02000C0A04000C0A06000C0A08000C0A0A000C0A0C000C0A0E000C0C00000C0C02000C0C04000C0C06000
310
C0C08000C0C0A000F0FBFF00A4A0A000808080000000FF0000FF000000FFFF00FF000000FF00FF00FFFF0000FFFFFF0000000000000000000000000000000000000000000000000000000000000000000000000000000000000000000000000000000000000000000000000000000000000000000000000000000000000000
310
0000000000000000000000000000000000000000000000000000FFFFFFFFFFFFFFFFFFFFFFFFFFFF0000000000000000000000000000000000FF00000000FFFF00FFFFFF00000000FF000000000000000000000000000000FF000000FFFF00FFFFFFFF00FFFF000000FF0000000000000000000000000000FF00FFFF00FFFF
310
FFFFFFFFFFFF00FFFF00FF00000000000000000000000000FFFFFF00FFFFFF000000FF0000FFFFFF00FFFFFF0000000000000000000000FF00FFFFFFFF0000000000FF00000000FFFFFF00FFFF00000000000000000000FFFF00FFFF000000000000FF0000000000FFFF00FFFF000000000000000000FF00FFFFFF00000000
310
000000FF000000000000FFFF00FFFF0000000000000000FFFF00FF0000000000000000FF00000000000000FF00FFFF00000000000000FF00FFFFFF0000000000000000FF00000000000000FFFF00FFFF0000000000FF00FF00FFFF0000000000000000FF00000000000000FFFF00FF00FF00000000FF00FFFFFF0000000000
310
00000000FF0000000000000000FFFF00FFFF000000FF00FF00FFFF000000000000000000FF0000000000000000FFFF00FF00FF0000FF00FFFFFFFFFFFFFFFFFFFFFFFFFFFFFFFFFFFFFFFFFFFFFFFFFFFF00FF000000FF00FFFFFF000000000000000000FF0000000000000000FFFFFF00FF00000000FF00FF00FFFF000000
310
0000000000FF0000000000000000FF00FF00FF0000000000FF00FFFFFF0000000000000000FF00000000000000FFFFFF00FF00000000000000FFFF00FF0000000000000000FF00000000000000FF00FFFF0000000000000000FF00FFFFFF00000000000000FF000000000000FFFFFF00FF000000000000000000FFFF00FFFF
310
000000000000FF0000000000FFFF00FFFF00000000000000000000FF00FFFFFFFF0000000000FF00000000FFFFFFFF00FF0000000000000000000000FFFF0000FFFFFF000000FF0000FFFFFF00FFFFFF00000000000000000000000000FFFFFF0000FFFFFFFFFFFFFFFF00FFFF00FF0000000000000000000000000000FF00
310
00FFFF0000FFFFFFFF00FFFF000000FF000000000000000000000000000000FF000000FFFF0000FFFFFF00000000FF0000000000000000000000000000000000FFFFFFFFFFFFFFFFFFFFFFFFFFFF00000000000000000000000000000000000000000000000000000000000000000000000000000000000000000000000000
310
0000000000000000000000000000000000000000000000000000000000000000000000000000000000000000000000000000000000000000
102
{BLKREFS
331
2D3
102
}
1001
ACAD
1000
DesignCenter Data
1002
{
1070
     1
1070
     4
1002
}
  0
BLOCK_RECORD
  5
2D4
330
1
100
AcDbSymbolTableRecord
100
AcDbBlockTableRecord
  2
2
340
0
310
2800000020000000200000000100080000000000000400000000000000000000000000000000000000000000000080000080000000808000800000008000800080800000C0C0C000C0DCC000F0CAA6000020400000206000002080000020A0000020C0000020E00000400000004020000040400000406000004080000040A0
310
000040C0000040E00000600000006020000060400000606000006080000060A0000060C0000060E00000800000008020000080400000806000008080000080A0000080C0000080E00000A0000000A0200000A0400000A0600000A0800000A0A00000A0C00000A0E00000C0000000C0200000C0400000C0600000C0800000C0
310
A00000C0C00000C0E00000E0000000E0200000E0400000E0600000E0800000E0A00000E0C00000E0E00040000000400020004000400040006000400080004000A0004000C0004000E00040200000402020004020400040206000402080004020A0004020C0004020E000404000004040200040404000404060004040800040
310
40A0004040C0004040E00040600000406020004060400040606000406080004060A0004060C0004060E00040800000408020004080400040806000408080004080A0004080C0004080E00040A0000040A0200040A0400040A0600040A0800040A0A00040A0C00040A0E00040C0000040C0200040C0400040C0600040C08000
310
40C0A00040C0C00040C0E00040E0000040E0200040E0400040E0600040E0800040E0A00040E0C00040E0E00080000000800020008000400080006000800080008000A0008000C0008000E00080200000802020008020400080206000802080008020A0008020C0008020E00080400000804020008040400080406000804080
310
008040A0008040C0008040E00080600000806020008060400080606000806080008060A0008060C0008060E00080800000808020008080400080806000808080008080A0008080C0008080E00080A0000080A0200080A0400080A0600080A0800080A0A00080A0C00080A0E00080C0000080C0200080C0400080C0600080C0
310
800080C0A00080C0C00080C0E00080E0000080E0200080E0400080E0600080E0800080E0A00080E0C00080E0E000C0000000C0002000C0004000C0006000C0008000C000A000C000C000C000E000C0200000C0202000C0204000C0206000C0208000C020A000C020C000C020E000C0400000C0402000C0404000C0406000C0
310
408000C040A000C040C000C040E000C0600000C0602000C0604000C0606000C0608000C060A000C060C000C060E000C0800000C0802000C0804000C0806000C0808000C080A000C080C000C080E000C0A00000C0A02000C0A04000C0A06000C0A08000C0A0A000C0A0C000C0A0E000C0C00000C0C02000C0C04000C0C06000
310
C0C08000C0C0A000F0FBFF00A4A0A000808080000000FF0000FF000000FFFF00FF000000FF00FF00FFFF0000FFFFFF0000000000000000000000000000000000000000000000000000000000000000000000000000000000000000000000000000000000000000000000000000000000000000000000000000000000000000
310
00000000000000000000000000000000000000000000000000000000000000000000000000000000000000000000000000000000000000000000000000000000000000000000000000000000000000000000000000000000000000000000000000000000000000000000000000000000000000000000000000000000000000
310
00000000000000000000000000000000000000000000000000000000000000000000000000000000000000000000000000000000000000000000000000000000000000000000000000000000000000000000000000000000000000000000000000000000000000000000000000000000000000000000000000000000000000
310
0000000000000000000000000000000000000000000000000000000000000000000000000000000000000000000000000000000000000000000000000000000000000000000000000000000000000000000000000000000000000000000000000000000000000000000000000000000000000000FFFFFFFFFFFFFFFFFFFFFF
310
FFFFFFFFFFFFFFFFFFFFFFFFFFFFFFFFFFFFFF0000FF000000000000FFFF000000000000000000000000FFFF000000000000FF0000FFFFFFFFFFFFFFFFFFFFFFFFFFFFFFFFFFFFFFFFFFFFFFFFFFFFFFFFFFFF0000FFFFFFFFFFFFFFFFFFFFFFFFFFFFFFFFFFFFFFFFFFFFFFFFFFFFFFFFFFFF000000000000000000000000
310
00000000000000000000000000000000000000000000000000000000000000000000000000000000000000000000000000000000000000000000000000000000000000000000000000000000000000000000000000000000000000000000000000000000000000000000000000000000000000000000000000000000000000
310
00000000000000000000000000000000000000000000000000000000000000000000000000000000000000000000000000000000000000000000000000000000000000000000000000000000000000000000000000000000000000000000000000000000000000000000000000000000000000000000000000000000000000
310
00000000000000000000000000000000000000000000000000000000000000000000000000000000000000000000000000000000000000000000000000000000000000000000000000000000000000000000000000000000000000000000000000000000000000000000000000000000000000000000000000000000000000
310
0000000000000000000000000000000000000000000000000000000000000000000000000000000000000000000000000000000000000000
102
{BLKREFS
331
2EF
102
}
1001
ACAD
1000
DesignCenter Data
1002
{
1070
     1
1070
     4
1002
}
  0
BLOCK_RECORD
  5
2F0
330
1
100
AcDbSymbolTableRecord
100
AcDbBlockTableRecord
  2
3
340
0
310
2800000020000000200000000100080000000000000400000000000000000000000000000000000000000000000080000080000000808000800000008000800080800000C0C0C000C0DCC000F0CAA6000020400000206000002080000020A0000020C0000020E00000400000004020000040400000406000004080000040A0
310
000040C0000040E00000600000006020000060400000606000006080000060A0000060C0000060E00000800000008020000080400000806000008080000080A0000080C0000080E00000A0000000A0200000A0400000A0600000A0800000A0A00000A0C00000A0E00000C0000000C0200000C0400000C0600000C0800000C0
310
A00000C0C00000C0E00000E0000000E0200000E0400000E0600000E0800000E0A00000E0C00000E0E00040000000400020004000400040006000400080004000A0004000C0004000E00040200000402020004020400040206000402080004020A0004020C0004020E000404000004040200040404000404060004040800040
310
40A0004040C0004040E00040600000406020004060400040606000406080004060A0004060C0004060E00040800000408020004080400040806000408080004080A0004080C0004080E00040A0000040A0200040A0400040A0600040A0800040A0A00040A0C00040A0E00040C0000040C0200040C0400040C0600040C08000
310
40C0A00040C0C00040C0E00040E0000040E0200040E0400040E0600040E0800040E0A00040E0C00040E0E00080000000800020008000400080006000800080008000A0008000C0008000E00080200000802020008020400080206000802080008020A0008020C0008020E00080400000804020008040400080406000804080
310
008040A0008040C0008040E00080600000806020008060400080606000806080008060A0008060C0008060E00080800000808020008080400080806000808080008080A0008080C0008080E00080A0000080A0200080A0400080A0600080A0800080A0A00080A0C00080A0E00080C0000080C0200080C0400080C0600080C0
310
800080C0A00080C0C00080C0E00080E0000080E0200080E0400080E0600080E0800080E0A00080E0C00080E0E000C0000000C0002000C0004000C0006000C0008000C000A000C000C000C000E000C0200000C0202000C0204000C0206000C0208000C020A000C020C000C020E000C0400000C0402000C0404000C0406000C0
310
408000C040A000C040C000C040E000C0600000C0602000C0604000C0606000C0608000C060A000C060C000C060E000C0800000C0802000C0804000C0806000C0808000C080A000C080C000C080E000C0A00000C0A02000C0A04000C0A06000C0A08000C0A0A000C0A0C000C0A0E000C0C00000C0C02000C0C04000C0C06000
310
C0C08000C0C0A000F0FBFF00A4A0A000808080000000FF0000FF000000FFFF00FF000000FF00FF00FFFF0000FFFFFF0000000000000000000000000000000000000000000000000000000000000000000000000000000000000000000000000000000000000000000000000000000000000000000000000000000000000000
310
0000000000000000000000000000000000000000000000000000000000000000FFFF00000000000000000000000000000000000000000000000000FFFFFFFFFFFF00FFFFFFFFFF000000000000000000000000000000000000FFFFFF00FF00FF00FFFFFFFF0000FFFF0000000000000000000000000000FFFFFF00FFFFFFFF
310
FFFFFF000000FFFFFFFFFFFF0000000000000000000000FF0000FFFFFFFF0000FFFFFFFFFFFFFF000000FFFFFF00000000000000000000FF00FF00FFFFFFFFFFFF000000FFFFFFFFFFFFFFFF00FF0000000000000000FFFFFF00FFFFFF00FFFFFFFFFFFFFFFFFF00FFFF0000FFFFFF000000000000FFFF00FFFFFF00FFFFFF
310
FF00000000FFFFFFFFFFFFFFFF00FFFFFF00000000FFFFFFFFFFFFFFFFFF00000000000000000000FFFFFF00FF00FFFFFF0000000000FFFFFFFFFFFFFF00000000000000000000000000FFFF00FFFFFFFF00000000FFFFFFFFFFFFFF000000000000000000000000000000FFFF00FFFFFFFF000000FF00FF00FFFF00000000
310
000000000000000000000000FFFFFFFFFF00FF0000FFFF00FFFFFF000000000000000000000000000000000000FFFFFFFF00FF0000FFFFFFFFFFFF000000000000000000000000000000000000FFFF00FFFF0000000000FF00FFFF0000000000000000000000000000000000FFFFFF00FFFF0000000000FFFFFFFFFF000000
310
00000000000000000000000000FFFFFF00FFFF0000000000FFFFFFFFFFFF0000000000000000000000000000FFFFFFFFFF00FF0000000000FFFF00FFFFFFFF000000000000000000000000FFFFFFFF00FF00FF000000000000FFFFFFFFFFFFFFFF0000000000000000FFFFFFFFFFFFFFFFFFFF000000000000FFFF00FFFFFF
310
FFFFFFFFFFFFFFFFFFFFFFFFFFFFFF00FFFF0000000000000000FF00FF00FFFFFFFFFFFFFFFFFFFFFFFFFFFFFFFFFFFFFF00000000000000000000FF00FFFFFFFFFFFFFFFFFFFFFFFFFFFFFFFFFFFFFF000000000000000000000000FFFFFFFFFFFFFFFFFFFFFFFFFFFF00FFFFFF0000000000000000000000000000000000
310
FFFFFFFFFFFF0000FFFFFFFFFFFF000000000000000000000000000000000000000000FFFFFFFFFFFF00FFFF00000000000000000000000000000000000000000000000000000000FFFF0000000000000000000000000000000000000000000000000000000000000000000000000000000000000000000000000000000000
310
0000000000000000000000000000000000000000000000000000000000000000000000000000000000000000000000000000000000000000
102
{BLKREFS
331
32E
102
}
1001
ACAD
1000
DesignCenter Data
1002
{
1070
     1
1070
     4
1002
}
  0
ENDTAB
  0
ENDSEC
  0
SECTION
  2
BLOCKS
  0
BLOCK
  5
20
330
1F
100
AcDbEntity
  8
0
100
AcDbBlockBegin
  2
*Model_Space
 70
     0
 10
0.0
 20
0.0
 30
0.0
  3
*Model_Space
  1

  0
ENDBLK
  5
21
330
1F
100
AcDbEntity
  8
0
100
AcDbBlockEnd
  0
BLOCK
  5
D4
330
D2
100
AcDbEntity
 67
     1
  8
0
100
AcDbBlockBegin
  2
*Paper_Space
 70
     0
 10
0.0
 20
0.0
 30
0.0
  3
*Paper_Space
  1

  0
ENDBLK
  5
D5
330
D2
100
AcDbEntity
 67
     1
  8
0
100
AcDbBlockEnd
  0
BLOCK
  5
D8
330
D6
100
AcDbEntity
 67
     1
  8
0
100
AcDbBlockBegin
  2
*Paper_Space0
 70
     0
 10
0.0
 20
0.0
 30
0.0
  3
*Paper_Space0
  1

  0
ENDBLK
  5
D9
330
D6
100
AcDbEntity
 67
     1
  8
0
100
AcDbBlockEnd
  0
BLOCK
  5
1AE
330
1AD
100
AcDbEntity
  8
0
100
AcDbBlockBegin
  2
SW_CENTERMARKSYMBOL_0
 70
     0
 10
0.0
 20
0.0
 30
0.0
  3
SW_CENTERMARKSYMBOL_0
  1

  0
LINE
  5
1AF
330
1AD
100
AcDbEntity
  8
0
  6
Continuous
 62
     0
370
     0
100
AcDbLine
 10
0.0
 20
0.0
 30
0.0
 11
0.0
 21
2.500000000000002
 31
0.0
  0
LINE
  5
1B0
330
1AD
100
AcDbEntity
  8
0
  6
Continuous
 62
     0
370
     0
100
AcDbLine
 10
0.0
 20
0.0
 30
0.0
 11
-2.500000000000002
 21
0.0
 31
0.0
  0
LINE
  5
1B1
330
1AD
100
AcDbEntity
  8
0
  6
Continuous
 62
     0
370
     0
100
AcDbLine
 10
0.0
 20
0.0
 30
0.0
 11
0.0
 21
-2.500000000000002
 31
0.0
  0
LINE
  5
1B2
330
1AD
100
AcDbEntity
  8
0
  6
Continuous
 62
     0
370
     0
100
AcDbLine
 10
0.0
 20
0.0
 30
0.0
 11
2.500000000000002
 21
0.0
 31
0.0
  0
LINE
  5
1B3
330
1AD
100
AcDbEntity
  8
0
  6
Continuous
 62
     0
370
     0
100
AcDbLine
 10
0.0
 20
5.000000000000004
 30
0.0
 11
0.0
 21
21.46770528361166
 31
0.0
  0
LINE
  5
1B4
330
1AD
100
AcDbEntity
  8
0
  6
Continuous
 62
     0
370
     0
100
AcDbLine
 10
-5.000000000000004
 20
0.0
 30
0.0
 11
-21.46770528361166
 21
0.0
 31
0.0
  0
LINE
  5
1B5
330
1AD
100
AcDbEntity
  8
0
  6
Continuous
 62
     0
370
     0
100
AcDbLine
 10
0.0
 20
-5.000000000000004
 30
0.0
 11
0.0
 21
-21.46770528361166
 31
0.0
  0
LINE
  5
1B6
330
1AD
100
AcDbEntity
  8
0
  6
Continuous
 62
     0
370
     0
100
AcDbLine
 10
5.000000000000004
 20
0.0
 30
0.0
 11
21.46770528361166
 21
0.0
 31
0.0
  0
ENDBLK
  5
1B7
330
1AD
100
AcDbEntity
  8
0
100
AcDbBlockEnd
  0
BLOCK
  5
1B9
330
1B8
100
AcDbEntity
  8
0
100
AcDbBlockBegin
  2
SW_CENTERMARKSYMBOL_1
 70
     0
 10
0.0
 20
0.0
 30
0.0
  3
SW_CENTERMARKSYMBOL_1
  1

  0
LINE
  5
1BA
330
1B8
100
AcDbEntity
  8
0
  6
Continuous
 62
     0
370
     0
100
AcDbLine
 10
0.0
 20
0.0
 30
0.0
 11
0.0
 21
2.500000000000002
 31
0.0
  0
LINE
  5
1BB
330
1B8
100
AcDbEntity
  8
0
  6
Continuous
 62
     0
370
     0
100
AcDbLine
 10
0.0
 20
0.0
 30
0.0
 11
-2.499999999999974
 21
0.0
 31
0.0
  0
LINE
  5
1BC
330
1B8
100
AcDbEntity
  8
0
  6
Continuous
 62
     0
370
     0
100
AcDbLine
 10
0.0
 20
0.0
 30
0.0
 11
0.0
 21
-2.499999999999974
 31
0.0
  0
LINE
  5
1BD
330
1B8
100
AcDbEntity
  8
0
  6
Continuous
 62
     0
370
     0
100
AcDbLine
 10
0.0
 20
0.0
 30
0.0
 11
2.500000000000002
 21
0.0
 31
0.0
  0
LINE
  5
1BE
330
1B8
100
AcDbEntity
  8
0
  6
Continuous
 62
     0
370
     0
100
AcDbLine
 10
0.0
 20
5.000000000000004
 30
0.0
 11
0.0
 21
21.05000000000001
 31
0.0
  0
LINE
  5
1BF
330
1B8
100
AcDbEntity
  8
0
  6
Continuous
 62
     0
370
     0
100
AcDbLine
 10
-4.99999999999999
 20
0.0
 30
0.0
 11
-21.04999999999999
 21
0.0
 31
0.0
  0
LINE
  5
1C0
330
1B8
100
AcDbEntity
  8
0
  6
Continuous
 62
     0
370
     0
100
AcDbLine
 10
0.0
 20
-4.999999999999976
 30
0.0
 11
0.0
 21
-21.04999999999999
 31
0.0
  0
LINE
  5
1C1
330
1B8
100
AcDbEntity
  8
0
  6
Continuous
 62
     0
370
     0
100
AcDbLine
 10
5.000000000000004
 20
0.0
 30
0.0
 11
21.05000000000001
 21
0.0
 31
0.0
  0
ENDBLK
  5
1C2
330
1B8
100
AcDbEntity
  8
0
100
AcDbBlockEnd
  0
BLOCK
  5
2B0
330
2AF
100
AcDbEntity
  8
0
100
AcDbBlockBegin
  2
1
 70
     0
 10
0.0
 20
0.0
 30
0.0
  3
1
  1

  0
SPLINE
  5
2B2
330
2AF
100
AcDbEntity
  8
0
  6
Continuous
 62
     7
370
    15
100
AcDbSpline
210
0.0
220
0.0
230
1.0
 70
     8
 71
     3
 72
    77
 73
    73
 74
     0
 42
0.0000000001
 43
0.0000000001
 40
0.0
 40
0.0
 40
0.0
 40
0.0
 40
0.0031202807531921
 40
0.0176415403399531
 40
0.0311699731041791
 40
0.0436847645345666
 40
0.0551806137879917
 40
0.0677602548798355
 40
0.0792346077831771
 40
0.0904530114441149
 40
0.1018119989628529
 40
0.11328780914211
 40
0.1277565805869217
 40
0.1423160915826517
 40
0.1569122699269247
 40
0.1714902438734702
 40
0.1859955635813862
 40
0.2004794729529399
 40
0.2151822719479308
 40
0.2300466780876676
 40
0.2450176996818708
 40
0.2600379083959472
 40
0.2750487341489993
 40
0.2899918255224715
 40
0.3048103975515794
 40
0.3194504901126481
 40
0.333970358571885
 40
0.3486752337835202
 40
0.3635410040822435
 40
0.3785126422916795
 40
0.3935327011283131
 40
0.4085426092698806
 40
0.4234840319267629
 40
0.4383002177663742
 40
0.4529372394543524
 40
0.4674561331455691
 40
0.4821607256908824
 40
0.4970254800055515
 40
0.5119953608572213
 40
0.5270129300838704
 40
0.5420196427491177
 40
0.5569572067979644
 40
0.5717689281281048
 40
0.586400885204136
 40
0.6009165509509207
 40
0.6156184187594073
 40
0.6304798362374853
 40
0.6454457906700933
 40
0.6604588808866092
 40
0.6754606123432316
 40
0.6903927549065148
 40
0.7051987065131947
 40
0.7198247969095501
 40
0.7343360245420332
 40
0.7490339259016872
 40
0.76389120705203
 40
0.7788528991511407
 40
0.793861649097007
 40
0.8088590128429007
 40
0.8237868161855349
 40
0.8385887180606944
 40
0.8532111154914266
 40
0.8677195593331569
 40
0.882415156662023
 40
0.8972703717550295
 40
0.9122302664058288
 40
0.9272375127187546
 40
0.9422336853036679
 40
0.9571606656081911
 40
0.9719619984304376
 40
0.9865839584251887
 40
1.0
 40
1.0
 40
1.0
 40
1.0
 10
1960.447175214124
 20
1120.754642639371
 30
0.0
 10
1960.489321503296
 20
1120.851034714777
 30
0.0
 10
1960.727609503459
 20
1121.396019227788
 30
0.0
 10
1961.261246953459
 20
1122.305152168194
 30
0.0
 10
1962.015415524598
 20
1123.44594115795
 30
0.0
 10
1962.800544336215
 20
1124.440396142449
 30
0.0
 10
1963.630117349716
 20
1125.354211186582
 30
0.0
 10
1964.497676955769
 20
1126.18261885875
 30
0.0
 10
1965.414139426489
 20
1126.941506735682
 30
0.0
 10
1966.345835260241
 20
1127.6133966175
 30
0.0
 10
1967.320163670216
 20
1128.221959407025
 30
0.0
 10
1968.429831275047
 20
1128.815386884795
 30
0.0
 10
1969.681023265842
 20
1129.366186949142
 30
0.0
 10
1971.074279931289
 20
1129.842177608721
 30
0.0
 10
1972.5068280708
 20
1130.197848808581
 30
0.0
 10
1973.962799392942
 20
1130.429004607789
 30
0.0
 10
1975.429417469041
 20
1130.534505009861
 30
0.0
 10
1976.903900938127
 20
1130.514522210239
 30
0.0
 10
1978.383335554406
 20
1130.366837061051
 30
0.0
 10
1979.860513208589
 20
1130.088010754481
 30
0.0
 10
1981.317864023697
 20
1129.677739484843
 30
0.0
 10
1982.737980223165
 20
1129.138772260461
 30
0.0
 10
1984.104097567683
 20
1128.476903813825
 30
0.0
 10
1985.400747858732
 20
1127.700770295106
 30
0.0
 10
1986.614335376015
 20
1126.821482560661
 30
0.0
 10
1987.736354375023
 20
1125.849736345869
 30
0.0
 10
1988.768209440534
 20
1124.788117508859
 30
0.0
 10
1989.70984605374
 20
1123.635809155186
 30
0.0
 10
1990.556308422478
 20
1122.39334697148
 30
0.0
 10
1991.295688588756
 20
1121.072098191886
 30
0.0
 10
1991.917648516356
 20
1119.686336602966
 30
0.0
 10
1992.414463004143
 20
1118.252028153176
 30
0.0
 10
1992.781334872432
 20
1116.786224003527
 30
0.0
 10
1993.016541041721
 20
1115.306393889644
 30
0.0
 10
1993.12166624499
 20
1113.826015726752
 30
0.0
 10
1993.099521834536
 20
1112.345868511377
 30
0.0
 10
1992.949467003618
 20
1110.865412888837
 30
0.0
 10
1992.668385344657
 20
1109.388628255482
 30
0.0
 10
1992.255930450659
 20
1107.932014727138
 30
0.0
 10
1991.714915679574
 20
1106.512963188627
 30
0.0
 10
1991.051195058081
 20
1105.148206812487
 30
0.0
 10
1990.273455296945
 20
1103.853170164375
 30
0.0
 10
1989.392847701456
 20
1102.641397844966
 30
0.0
 10
1988.419979600547
 20
1101.521211702877
 30
0.0
 10
1987.357347575182
 20
1100.491145590146
 30
0.0
 10
1986.204097884201
 20
1099.551281102395
 30
0.0
 10
1984.960900635539
 20
1098.706684044253
 30
0.0
 10
1983.639215399115
 20
1097.969264812902
 30
0.0
 10
1982.253330696137
 20
1097.349303489554
 30
0.0
 10
1980.819213623125
 20
1096.8544651562
 30
0.0
 10
1979.353902110598
 20
1096.489488264921
 30
0.0
 10
1977.874836235237
 20
1096.256041986238
 30
0.0
 10
1976.395325189351
 20
1096.152492382241
 30
0.0
 10
1974.916055302869
 20
1096.176049237812
 30
0.0
 10
1973.436473275937
 20
1096.327392601756
 30
0.0
 10
1971.960679395001
 20
1096.609630789388
 30
0.0
 10
1970.505207016065
 20
1097.023072923381
 30
0.0
 10
1969.087412807424
 20
1097.564880473804
 30
0.0
 10
1967.723990705703
 20
1098.229182711134
 30
0.0
 10
1966.430316921583
 20
1099.007289698705
 30
0.0
 10
1965.219884210917
 20
1099.888062997163
 30
0.0
 10
1964.100920987346
 20
1100.860965961391
 30
0.0
 10
1963.071938227108
 20
1101.923562048754
 30
0.0
 10
1962.133036680947
 20
1103.076735941921
 30
0.0
 10
1961.289326422442
 20
1104.319779675041
 30
0.0
 10
1960.552741852808
 20
1105.64122136761
 30
0.0
 10
1959.933476410094
 20
1107.026792684068
 30
0.0
 10
1959.439462571297
 20
1108.460533707245
 30
0.0
 10
1959.074408839654
 20
1109.925479847568
 30
0.0
 10
1958.843774392587
 20
1111.404031384753
 30
0.0
 10
1958.734783634309
 20
1112.846797904805
 30
0.0
 10
1958.766474086485
 20
1113.79196017025
 30
0.0
 10
1958.781637807154
 20
1114.244215521499
 30
0.0
  0
LINE
  5
2B3
330
2AF
100
AcDbEntity
  8
0
  6
Continuous
 62
     7
370
    15
100
AcDbLine
 10
1960.193139056084
 20
1120.222474388243
 30
0.0
 11
1960.716804574136
 21
1121.296770274224
 31
0.0
  0
LINE
  5
2B4
330
2AF
100
AcDbEntity
  8
0
  6
Continuous
 62
     7
370
    15
100
AcDbLine
 10
1992.698800967501
 20
1109.678114631291
 30
0.0
 11
1992.626066432638
 21
1109.374051776938
 31
0.0
  0
SPLINE
  5
2B5
330
2AF
100
AcDbEntity
  8
0
  6
Continuous
 62
     7
370
    15
100
AcDbSpline
210
0.0
220
0.0
230
1.0
 70
     8
 71
     3
 72
    46
 73
    42
 74
     0
 42
0.0000000001
 43
0.0000000001
 40
0.0
 40
0.0
 40
0.0
 40
0.0
 40
0.03125
 40
0.03125
 40
0.0624999999999999
 40
0.0624999999999999
 40
0.1249999999999999
 40
0.1249999999999999
 40
0.1875
 40
0.1875
 40
0.25
 40
0.25
 40
0.3125
 40
0.3125
 40
0.34375
 40
0.34375
 40
0.375
 40
0.375
 40
0.4375000000000001
 40
0.4375000000000001
 40
0.5000000000000001
 40
0.5000000000000001
 40
0.5625000000000001
 40
0.5625000000000001
 40
0.5937500000000002
 40
0.5937500000000002
 40
0.6250000000000004
 40
0.6250000000000004
 40
0.6875000000000002
 40
0.6875000000000002
 40
0.7500000000000001
 40
0.7500000000000001
 40
0.8125000000000001
 40
0.8125000000000001
 40
0.875
 40
0.875
 40
0.90625
 40
0.90625
 40
0.9375
 40
0.9375
 40
1.0
 40
1.0
 40
1.0
 40
1.0
 10
1963.549805608724
 20
1125.334758710075
 30
0.0
 10
1963.849602744635
 20
1125.654429352256
 30
0.0
 10
1964.160980672002
 20
1125.961984549092
 30
0.0
 10
1964.806508005306
 20
1126.553272166482
 30
0.0
 10
1965.141269547578
 20
1126.837292523418
 30
0.0
 10
1966.168590823326
 20
1127.644467739619
 30
0.0
 10
1966.887250910954
 20
1128.12619457415
 30
0.0
 10
1968.390584908497
 20
1128.979446883193
 30
0.0
 10
1969.176588896617
 20
1129.351494683887
 30
0.0
 10
1970.812117264833
 20
1129.978291926693
 30
0.0
 10
1971.643306981942
 20
1130.226245344997
 30
0.0
 10
1973.331482171954
 20
1130.596406077016
 30
0.0
 10
1974.188469474678
 20
1130.718604470932
 30
0.0
 10
1975.493842353757
 20
1130.804935254531
 30
0.0
 10
1975.933213041755
 20
1130.817266521606
 30
0.0
 10
1976.804203755799
 20
1130.809274160563
 30
0.0
 10
1977.237539737282
 20
1130.789136553612
 30
0.0
 10
1978.531193500623
 20
1130.681225951553
 30
0.0
 10
1979.385191337861
 20
1130.546211094493
 30
0.0
 10
1981.076129230858
 20
1130.148673719075
 30
0.0
 10
1981.917082068424
 20
1129.883567445444
 30
0.0
 10
1983.528386025138
 20
1129.240593126766
 30
0.0
 10
1984.305121820447
 20
1128.861894437589
 30
0.0
 10
1985.42712984729
 20
1128.208580344189
 30
0.0
 10
1985.793920984386
 20
1127.976540735866
 30
0.0
 10
1986.512767040978
 20
1127.483305473571
 30
0.0
 10
1986.865708849082
 20
1127.221252669093
 30
0.0
 10
1987.885325581206
 20
1126.403560615377
 30
0.0
 10
1988.518080771986
 20
1125.81319534883
 30
0.0
 10
1989.693492684453
 20
1124.545725803465
 30
0.0
 10
1990.236113016262
 20
1123.86858649162
 30
0.0
 10
1991.2274522239
 20
1122.423907668854
 30
0.0
 10
1991.664419269825
 20
1121.673358878712
 30
0.0
 10
1992.424078412996
 20
1120.120751337432
 30
0.0
 10
1992.747057529059
 20
1119.31825071962
 30
0.0
 10
1993.144370912289
 20
1118.07433839377
 30
0.0
 10
1993.262538284439
 20
1117.651457882487
 30
0.0
 10
1993.466410081861
 20
1116.802017713318
 30
0.0
 10
1993.552380885911
 20
1116.375052944852
 30
0.0
 10
1993.763019587115
 20
1115.087511980647
 30
0.0
 10
1993.840671151824
 20
1114.220325313383
 30
0.0
 10
1993.854123125559
 20
1113.344112217517
 30
0.0
  0
CIRCLE
  5
2B6
330
2AF
100
AcDbEntity
  8
0
  6
Continuous
 62
     7
370
    15
100
AcDbCircle
 10
1975.92872615244
 20
1113.339150262648
 30
0.0
 40
22.07666845994294
  0
CIRCLE
  5
2B7
330
2AF
100
AcDbEntity
  8
0
  6
Continuous
 62
     7
370
    15
100
AcDbCircle
 10
1975.92872615244
 20
1113.339150262648
 30
0.0
 40
18.96770528361165
  0
SPLINE
  5
2B8
330
2AF
100
AcDbEntity
  8
0
  6
Continuous
 62
     7
370
    15
100
AcDbSpline
210
0.0
220
0.0
230
1.0
 70
    24
 71
     3
 72
    17
 73
    13
 74
     0
 42
0.0000000001
 43
0.0000000001
 40
0.0
 40
0.0
 40
0.0
 40
0.0
 40
0.1250000000000002
 40
0.1250000000000002
 40
0.2500000000000005
 40
0.2500000000000005
 40
0.5000000000000004
 40
0.7500000000000002
 40
0.7500000000000002
 40
0.8750000000000001
 40
0.8750000000000001
 40
1.0
 40
1.0
 40
1.0
 40
1.0
 10
1961.630640063957
 20
1092.104161818896
 30
0.0
 10
1961.164029404914
 20
1092.91235518771
 30
0.0
 10
1960.695120703124
 20
1093.724528883322
 30
0.0
 10
1959.758124935578
 20
1095.34745315919
 30
0.0
 10
1959.289627051805
 20
1096.158915297124
 30
0.0
 10
1957.884133400485
 20
1098.593301710924
 30
0.0
 10
1956.010141865392
 20
1101.839150262659
 30
0.0
 10
1954.136150330299
 20
1105.084998814394
 30
0.0
 10
1952.73065667898
 20
1107.519385228195
 30
0.0
 10
1952.262158795207
 20
1108.330847366128
 30
0.0
 10
1951.32516302766
 20
1109.953771641996
 30
0.0
 10
1950.85625432587
 20
1110.765945337608
 30
0.0
 10
1950.389643666827
 20
1111.574138706423
 30
0.0
  0
ARC
  5
2B9
330
2AF
100
AcDbEntity
  8
0
  6
Continuous
 62
     7
370
    15
100
AcDbCircle
 10
1975.92872615244
 20
1113.339150262648
 30
0.0
 40
25.6
100
AcDbArc
 50
176.0465623604651
 51
183.9534376394699
  0
SPLINE
  5
2BA
330
2AF
100
AcDbEntity
  8
0
  6
Continuous
 62
     7
370
    15
100
AcDbSpline
210
0.0
220
0.0
230
1.0
 70
    24
 71
     3
 72
    17
 73
    13
 74
     0
 42
0.0000000001
 43
0.0000000001
 40
0.0
 40
0.0
 40
0.0
 40
0.0
 40
0.1250000000000002
 40
0.1250000000000002
 40
0.2500000000000005
 40
0.2500000000000005
 40
0.5000000000000006
 40
0.7500000000000006
 40
0.7500000000000006
 40
0.8750000000000003
 40
0.8750000000000003
 40
1.0
 40
1.0
 40
1.0
 40
1.0
 10
1950.38964366684
 20
1115.104161818895
 30
0.0
 10
1950.856254325882
 20
1115.91235518771
 30
0.0
 10
1951.325163027673
 20
1116.724528883322
 30
0.0
 10
1952.262158795219
 20
1118.34745315919
 30
0.0
 10
1952.730656678992
 20
1119.158915297123
 30
0.0
 10
1954.136150330312
 20
1121.593301710924
 30
0.0
 10
1956.010141865404
 20
1124.839150262659
 30
0.0
 10
1957.884133400497
 20
1128.084998814394
 30
0.0
 10
1959.289627051817
 20
1130.519385228195
 30
0.0
 10
1959.75812493559
 20
1131.330847366128
 30
0.0
 10
1960.695120703136
 20
1132.953771641996
 30
0.0
 10
1961.164029404927
 20
1133.765945337608
 30
0.0
 10
1961.630640063969
 20
1134.574138706423
 30
0.0
  0
ARC
  5
2BB
330
2AF
100
AcDbEntity
  8
0
  6
Continuous
 62
     7
370
    15
100
AcDbCircle
 10
1975.92872615244
 20
1113.339150262648
 30
0.0
 40
25.6
100
AcDbArc
 50
116.0465623604698
 51
123.9534376394665
  0
SPLINE
  5
2BC
330
2AF
100
AcDbEntity
  8
0
  6
Continuous
 62
     7
370
    15
100
AcDbSpline
210
0.0
220
0.0
230
1.0
 70
    24
 71
     3
 72
    14
 73
    10
 74
     0
 42
0.0000000001
 43
0.0000000001
 40
0.0
 40
0.0
 40
0.0
 40
0.0
 40
0.25
 40
0.25
 40
0.5000000000000001
 40
0.5000000000000001
 40
0.75
 40
0.75
 40
1.0
 40
1.0
 40
1.0
 40
1.0
 10
1964.687729755323
 20
1136.339150262648
 30
0.0
 10
1966.545999771635
 20
1136.339150262648
 30
0.0
 10
1968.41696605905
 20
1136.339150262648
 30
0.0
 10
1972.163960498625
 20
1136.339150262648
 30
0.0
 10
1974.043166792922
 20
1136.339150262648
 30
0.0
 10
1977.814285511959
 20
1136.339150262648
 30
0.0
 10
1979.693491806281
 20
1136.339150262648
 30
0.0
 10
1983.440486245856
 20
1136.339150262648
 30
0.0
 10
1985.311452533272
 20
1136.339150262648
 30
0.0
 10
1987.169722549583
 20
1136.339150262648
 30
0.0
  0
ARC
  5
2BD
330
2AF
100
AcDbEntity
  8
0
  6
Continuous
 62
     7
370
    15
100
AcDbCircle
 10
1975.92872615244
 20
1113.339150262648
 30
0.0
 40
25.60000000000001
100
AcDbArc
 50
56.04656236046841
 51
63.95343763947195
  0
SPLINE
  5
2BE
330
2AF
100
AcDbEntity
  8
0
  6
Continuous
 62
     7
370
    15
100
AcDbSpline
210
0.0
220
0.0
230
1.0
 70
    24
 71
     3
 72
    17
 73
    13
 74
     0
 42
0.0000000001
 43
0.0000000001
 40
0.0
 40
0.0
 40
0.0
 40
0.0
 40
0.1250000000000002
 40
0.1250000000000002
 40
0.2500000000000003
 40
0.2500000000000003
 40
0.5000000000000002
 40
0.7500000000000002
 40
0.7500000000000002
 40
0.8750000000000001
 40
0.8750000000000001
 40
1.0
 40
1.0
 40
1.0
 40
1.0
 10
1990.226812240924
 20
1134.574138706401
 30
0.0
 10
1990.693422899967
 20
1133.765945337586
 30
0.0
 10
1991.162331601756
 20
1132.953771641974
 30
0.0
 10
1992.099327369303
 20
1131.330847366107
 30
0.0
 10
1992.567825253076
 20
1130.519385228173
 30
0.0
 10
1993.973318904396
 20
1128.084998814372
 30
0.0
 10
1995.847310439489
 20
1124.839150262637
 30
0.0
 10
1997.721301974581
 20
1121.593301710903
 30
0.0
 10
1999.126795625901
 20
1119.158915297102
 30
0.0
 10
1999.595293509674
 20
1118.347453159168
 30
0.0
 10
2000.532289277221
 20
1116.724528883301
 30
0.0
 10
2001.001197979011
 20
1115.912355187689
 30
0.0
 10
2001.467808638054
 20
1115.104161818874
 30
0.0
  0
ARC
  5
2BF
330
2AF
100
AcDbEntity
  8
0
  6
Continuous
 62
     7
370
    15
100
AcDbCircle
 10
1975.92872615244
 20
1113.339150262648
 30
0.0
 40
25.60000000000002
100
AcDbArc
 50
356.0465623604652
 51
3.953437639469903
  0
SPLINE
  5
2C0
330
2AF
100
AcDbEntity
  8
0
  6
Continuous
 62
     7
370
    15
100
AcDbSpline
210
0.0
220
0.0
230
1.0
 70
    24
 71
     3
 72
    17
 73
    13
 74
     0
 42
0.0000000001
 43
0.0000000001
 40
0.0
 40
0.0
 40
0.0
 40
0.0
 40
0.1250000000000002
 40
0.1250000000000002
 40
0.2500000000000003
 40
0.2500000000000003
 40
0.5000000000000004
 40
0.7500000000000002
 40
0.7500000000000002
 40
0.8750000000000001
 40
0.8750000000000001
 40
1.0
 40
1.0
 40
1.0
 40
1.0
 10
2001.467808638041
 20
1111.574138706401
 30
0.0
 10
2001.001197978999
 20
1110.765945337586
 30
0.0
 10
2000.532289277208
 20
1109.953771641974
 30
0.0
 10
1999.595293509662
 20
1108.330847366107
 30
0.0
 10
1999.126795625889
 20
1107.519385228173
 30
0.0
 10
1997.721301974569
 20
1105.084998814372
 30
0.0
 10
1995.847310439476
 20
1101.839150262637
 30
0.0
 10
1993.973318904383
 20
1098.593301710903
 30
0.0
 10
1992.567825253064
 20
1096.158915297102
 30
0.0
 10
1992.099327369291
 20
1095.347453159168
 30
0.0
 10
1991.162331601744
 20
1093.724528883301
 30
0.0
 10
1990.693422899954
 20
1092.912355187689
 30
0.0
 10
1990.226812240911
 20
1092.104161818874
 30
0.0
  0
ARC
  5
2C1
330
2AF
100
AcDbEntity
  8
0
  6
Continuous
 62
     7
370
    15
100
AcDbCircle
 10
1975.92872615244
 20
1113.339150262648
 30
0.0
 40
25.6
100
AcDbArc
 50
296.0465623604697
 51
303.9534376394665
  0
SPLINE
  5
2C2
330
2AF
100
AcDbEntity
  8
0
  6
Continuous
 62
     7
370
    15
100
AcDbSpline
210
0.0
220
0.0
230
1.0
 70
    24
 71
     3
 72
    14
 73
    10
 74
     0
 42
0.0000000001
 43
0.0000000001
 40
0.0
 40
0.0
 40
0.0
 40
0.0
 40
0.25
 40
0.25
 40
0.5
 40
0.5
 40
0.75
 40
0.75
 40
1.0
 40
1.0
 40
1.0
 40
1.0
 10
1987.169722549557
 20
1090.339150262648
 30
0.0
 10
1985.311452533246
 20
1090.339150262648
 30
0.0
 10
1983.440486245831
 20
1090.339150262648
 30
0.0
 10
1979.693491806255
 20
1090.339150262648
 30
0.0
 10
1977.814285511959
 20
1090.339150262648
 30
0.0
 10
1974.043166792922
 20
1090.339150262648
 30
0.0
 10
1972.1639604986
 20
1090.339150262648
 30
0.0
 10
1968.416966059025
 20
1090.339150262648
 30
0.0
 10
1966.545999771609
 20
1090.339150262648
 30
0.0
 10
1964.687729755298
 20
1090.339150262648
 30
0.0
  0
ARC
  5
2C3
330
2AF
100
AcDbEntity
  8
0
  6
Continuous
 62
     7
370
    15
100
AcDbCircle
 10
1975.92872615244
 20
1113.339150262648
 30
0.0
 40
25.60000000000001
100
AcDbArc
 50
236.0465623604684
 51
243.9534376394719
  0
CIRCLE
  5
2C4
330
2AF
100
AcDbEntity
  8
0
  6
Continuous
 62
     7
370
    15
100
AcDbCircle
 10
1975.930486761923
 20
1113.344114711732
 30
0.0
 40
18.55000000000001
  0
SPLINE
  5
2C5
330
2AF
100
AcDbEntity
  8
0
  6
Continuous
 62
     7
370
    15
100
AcDbSpline
210
0.0
220
0.0
230
1.0
 70
     8
 71
     3
 72
    22
 73
    18
 74
     0
 42
0.0000000001
 43
0.0000000001
 40
0.0
 40
0.0
 40
0.0
 40
0.0
 40
0.125
 40
0.125
 40
0.25
 40
0.25
 40
0.375
 40
0.375
 40
0.4375
 40
0.4375
 40
0.5
 40
0.5
 40
0.625
 40
0.625
 40
0.75
 40
0.75
 40
1.0
 40
1.0
 40
1.0
 40
1.0
 10
1959.289466200054
 20
1108.857106357424
 30
0.0
 10
1959.107846676796
 20
1109.579719033629
 30
0.0
 10
1958.969410460482
 20
1110.314621166886
 30
0.0
 10
1958.786071261861
 20
1111.786861581806
 30
0.0
 10
1958.740639516949
 20
1112.523319469374
 30
0.0
 10
1958.741733963086
 20
1113.996906823371
 30
0.0
 10
1958.788412549246
 20
1114.734037402759
 30
0.0
 10
1958.929673438549
 20
1115.840253567335
 30
0.0
 10
1958.988682015035
 20
1116.208511204568
 30
0.0
 10
1959.128971297205
 20
1116.935881147936
 30
0.0
 10
1959.210383141907
 20
1117.296139047517
 30
0.0
 10
1959.487941171387
 20
1118.366777259388
 30
0.0
 10
1959.717283934216
 20
1119.067060384263
 30
0.0
 10
1960.265125824182
 20
1120.440508522069
 30
0.0
 10
1960.585945003984
 20
1121.117049793286
 30
0.0
 10
1961.661239529927
 20
1123.058269628404
 30
0.0
 10
1962.530534533521
 20
1124.247920311245
 30
0.0
 10
1963.549805608724
 20
1125.334758710075
 30
0.0
  0
SPLINE
  5
2C6
330
2AF
100
AcDbEntity
  8
0
  6
Continuous
 62
     7
370
    15
100
AcDbSpline
210
0.0
220
0.0
230
1.0
 70
     8
 71
     3
 72
    46
 73
    42
 74
     0
 42
0.0000000001
 43
0.0000000001
 40
0.0
 40
0.0
 40
0.0
 40
0.0
 40
0.03125
 40
0.03125
 40
0.0625
 40
0.0625
 40
0.1249999999999999
 40
0.1249999999999999
 40
0.1874999999999998
 40
0.1874999999999998
 40
0.2499999999999997
 40
0.2499999999999997
 40
0.3124999999999996
 40
0.3124999999999996
 40
0.3437499999999996
 40
0.3437499999999996
 40
0.3749999999999996
 40
0.3749999999999996
 40
0.4374999999999995
 40
0.4374999999999995
 40
0.4687499999999994
 40
0.4687499999999994
 40
0.4999999999999993
 40
0.4999999999999993
 40
0.5624999999999993
 40
0.5624999999999993
 40
0.6249999999999992
 40
0.6249999999999992
 40
0.6874999999999993
 40
0.6874999999999993
 40
0.7499999999999995
 40
0.7499999999999995
 40
0.7812499999999993
 40
0.7812499999999993
 40
0.8124999999999992
 40
0.8124999999999992
 40
0.8749999999999996
 40
0.8749999999999996
 40
0.9374999999999996
 40
0.9374999999999996
 40
1.0
 40
1.0
 40
1.0
 40
1.0
 10
1991.598704970567
 20
1104.639881335828
 30
0.0
 10
1991.379705634489
 20
1104.260555368881
 30
0.0
 10
1991.147266073701
 20
1103.889961949912
 30
0.0
 10
1990.655601188761
 20
1103.166178687344
 30
0.0
 10
1990.395922100338
 20
1102.812547337194
 30
0.0
 10
1989.58519472447
 20
1101.788653312832
 30
0.0
 10
1989.000442137506
 20
1101.151418203544
 30
0.0
 10
1987.743952551682
 20
1099.966080569535
 30
0.0
 10
1987.071867075883
 20
1099.418335127761
 30
0.0
 10
1985.636432960372
 20
1098.416361249128
 30
0.0
 10
1984.888228353445
 20
1097.973014235819
 30
0.0
 10
1983.341953677521
 20
1097.202341678849
 30
0.0
 10
1982.542466059907
 20
1096.874041642464
 30
0.0
 10
1981.302942890614
 20
1096.468804688914
 30
0.0
 10
1980.881278008445
 20
1096.347917399819
 30
0.0
 10
1980.033395115873
 20
1096.138543425877
 30
0.0
 10
1979.607932633509
 20
1096.0500765697
 30
0.0
 10
1978.327093852709
 20
1095.832144444599
 30
0.0
 10
1977.467289414019
 20
1095.749900287089
 30
0.0
 10
1976.168722505077
 20
1095.721018613512
 30
0.0
 10
1975.734389681016
 20
1095.727143926881
 30
0.0
 10
1974.862638231844
 20
1095.772301134474
 30
0.0
 10
1974.425363714892
 20
1095.811461831602
 30
0.0
 10
1973.13112163797
 20
1095.976214651494
 30
0.0
 10
1972.284140579433
 20
1096.149039919476
 30
0.0
 10
1970.621233888634
 20
1096.618132362173
 30
0.0
 10
1969.803555883057
 20
1096.915178135019
 30
0.0
 10
1968.207966306954
 20
1097.635219221515
 30
0.0
 10
1967.44674299403
 20
1098.050368012805
 30
0.0
 10
1965.994626819973
 20
1098.986682500032
 30
0.0
 10
1965.3037386341
 20
1099.507855243508
 30
0.0
 10
1964.321623199685
 20
1100.371341432496
 30
0.0
 10
1964.002687459325
 20
1100.673683851878
 30
0.0
 10
1963.393572269651
 20
1101.295969593849
 30
0.0
 10
1963.102205639517
 20
1101.617056885596
 30
0.0
 10
1962.267066287354
 20
1102.609690379521
 30
0.0
 10
1961.761952834805
 20
1103.310381079519
 30
0.0
 10
1960.856034928543
 20
1104.790399076382
 30
0.0
 10
1960.454033848604
 20
1105.574392991937
 30
0.0
 10
1959.779154501725
 20
1107.180828833744
 30
0.0
 10
1959.503081817124
 20
1108.007190280335
 30
0.0
 10
1959.289466200054
 20
1108.857106357424
 30
0.0
  0
ARC
  5
2C7
330
2AF
100
AcDbEntity
  8
0
  6
Continuous
 62
     7
370
    15
100
AcDbCircle
 10
1975.930486761923
 20
1113.344114711732
 30
0.0
 40
17.92363636363638
100
AcDbArc
 50
330.946324462333
 51
359.9999920268386
  0
ARC
  5
2C8
330
2AF
100
AcDbEntity
  8
0
  6
Continuous
 62
     7
370
    15
100
AcDbCircle
 10
1975.92872615244
 20
1113.339150262648
 30
0.0
 40
25.59999999999999
100
AcDbArc
 50
303.9534376395316
 51
356.0465623604652
  0
ARC
  5
2C9
330
2AF
100
AcDbEntity
  8
0
  6
Continuous
 62
     7
370
    15
100
AcDbCircle
 10
1975.92872615244
 20
1113.339150262648
 30
0.0
 40
25.6
100
AcDbArc
 50
183.9534376395349
 51
236.0465623604684
  0
ARC
  5
2CA
330
2AF
100
AcDbEntity
  8
0
  6
Continuous
 62
     7
370
    15
100
AcDbCircle
 10
1975.92872615244
 20
1113.339150262648
 30
0.0
 40
25.6
100
AcDbArc
 50
63.95343763953021
 51
116.0465623604698
  0
ARC
  5
2CB
330
2AF
100
AcDbEntity
  8
0
  6
Continuous
 62
     7
370
    15
100
AcDbCircle
 10
1975.92872615244
 20
1113.339150262648
 30
0.0
 40
25.6
100
AcDbArc
 50
123.9534376395316
 51
176.0465623604651
  0
ARC
  5
2CC
330
2AF
100
AcDbEntity
  8
0
  6
Continuous
 62
     7
370
    15
100
AcDbCircle
 10
1975.92872615244
 20
1113.339150262648
 30
0.0
 40
25.6
100
AcDbArc
 50
243.9534376395302
 51
296.0465623604697
  0
ARC
  5
2CD
330
2AF
100
AcDbEntity
  8
0
  6
Continuous
 62
     7
370
    15
100
AcDbCircle
 10
1975.92872615244
 20
1113.339150262648
 30
0.0
 40
25.60000000000001
100
AcDbArc
 50
3.953437639534886
 51
56.04656236046841
  0
SPLINE
  5
2CE
330
2AF
100
AcDbEntity
  8
0
  6
Continuous
 62
     8
370
    15
100
AcDbSpline
210
0.0
220
0.0
230
1.0
 70
     8
 71
     3
 72
    43
 73
    39
 74
     0
 42
0.0000000001
 43
0.0000000001
 40
0.0
 40
0.0
 40
0.0
 40
0.0
 40
0.0267796661527123
 40
0.0532075093796922
 40
0.0799172722773598
 40
0.1069658008334625
 40
0.1342255657858318
 40
0.1627778743513931
 40
0.1912598832469809
 40
0.219518978678024
 40
0.2474096303260577
 40
0.2750239641609744
 40
0.3030340042133965
 40
0.3315993703108708
 40
0.3603462642113391
 40
0.3891171714476156
 40
0.4177537892671608
 40
0.4461021982255005
 40
0.4735255915326661
 40
0.5009961427828569
 40
0.5288708837940112
 40
0.5570117198647725
 40
0.5857858724703738
 40
0.61452577377255
 40
0.6430741384833246
 40
0.6712798947363022
 40
0.6991081041312962
 40
0.7267527526361205
 40
0.7547487339633581
 40
0.7829542373232785
 40
0.811220915848165
 40
0.8399085894970845
 40
0.8683483206479428
 40
0.8963925067704778
 40
0.9242634804238839
 40
0.952563431316549
 40
0.9806588456741877
 40
1.0
 40
1.0
 40
1.0
 40
1.0
 10
1986.091682018974
 20
1099.422659318697
 30
0.0
 10
1986.536518058687
 20
1099.767011680115
 30
0.0
 10
1987.420346020562
 20
1100.451192408717
 30
0.0
 10
1988.613189260865
 20
1101.636223975132
 30
0.0
 10
1989.69679026429
 20
1102.926791876657
 30
0.0
 10
1990.656414580014
 20
1104.334334245228
 30
0.0
 10
1991.490978267039
 20
1105.863387378303
 30
0.0
 10
1992.17715493778
 20
1107.497743488188
 30
0.0
 10
1992.695660380539
 20
1109.214646699753
 30
0.0
 10
1993.03102290664
 20
1110.962312558832
 30
0.0
 10
1993.184007994235
 20
1112.716884661377
 30
0.0
 10
1993.15861066731
 20
1114.472637092157
 30
0.0
 10
1992.953520085937
 20
1116.230916761703
 30
0.0
 10
1992.562838498589
 20
1117.982003148412
 30
0.0
 10
1991.986112385855
 20
1119.697841843839
 30
0.0
 10
1991.231909320021
 20
1121.345065709567
 30
0.0
 10
1990.313633517303
 20
1122.897010612375
 30
0.0
 10
1989.25590941187
 20
1124.322296241042
 30
0.0
 10
1988.075339224506
 20
1125.614303625462
 30
0.0
 10
1986.778715973347
 20
1126.774955281157
 30
0.0
 10
1985.359261604685
 20
1127.807672590073
 30
0.0
 10
1983.817974815876
 20
1128.7037248041
 30
0.0
 10
1982.175243519568
 20
1129.442432944226
 30
0.0
 10
1980.455952569545
 20
1130.007378754682
 30
0.0
 10
1978.698752394413
 20
1130.387022291601
 30
0.0
 10
1976.930817247061
 20
1130.580598284748
 30
0.0
 10
1975.171425874802
 20
1130.592304369051
 30
0.0
 10
1973.424333932622
 20
1130.426316112646
 30
0.0
 10
1971.695257272744
 20
1130.082277558429
 30
0.0
 10
1969.99803233551
 20
1129.558900940039
 30
0.0
 10
1968.350365144105
 20
1128.857769074332
 30
0.0
 10
1966.780084696142
 20
1127.986778695779
 30
0.0
 10
1965.312887224419
 20
1126.959656264902
 30
0.0
 10
1963.972826891639
 20
1125.797914177774
 30
0.0
 10
1962.758627566449
 20
1124.508442183391
 30
0.0
 10
1961.68855704815
 20
1123.097628519261
 30
0.0
 10
1960.841273072534
 20
1121.746702778954
 30
0.0
 10
1960.427822890793
 20
1120.840168836064
 30
0.0
 10
1960.259248223758
 20
1120.470550767607
 30
0.0
  0
SPLINE
  5
2CF
330
2AF
100
AcDbEntity
  8
0
  6
Continuous
 62
     8
370
    15
100
AcDbSpline
210
0.0
220
0.0
230
1.0
 70
     8
 71
     3
 72
   120
 73
   116
 74
     0
 42
0.0000000001
 43
0.0000000001
 40
0.0
 40
0.0
 40
0.0
 40
0.0
 40
0.0028134143369981
 40
0.0117651744408737
 40
0.0206989953399553
 40
0.0295678559782735
 40
0.0383267630856573
 40
0.0471393525262963
 40
0.0560680614132745
 40
0.0651066449180212
 40
0.0742073409152329
 40
0.0833203735555915
 40
0.0922342681027211
 40
0.1010652584150049
 40
0.1097695131219964
 40
0.1184504170697596
 40
0.127424794663131
 40
0.1364918537260702
 40
0.1456029140276504
 40
0.1547078597024916
 40
0.1637567756231959
 40
0.172543155884432
 40
0.1812030167932607
 40
0.1899400343507004
 40
0.1987940279835093
 40
0.2078829949614856
 40
0.2169976575365839
 40
0.2260877813968109
 40
0.2351039363459386
 40
0.243999077355551
 40
0.2526596978068947
 40
0.2614476462588175
 40
0.2703354789127631
 40
0.2792776148219161
 40
0.2883891016007143
 40
0.2974577344594045
 40
0.3064347821740368
 40
0.3152754169197609
 40
0.3241382957817685
 40
0.3329706363492134
 40
0.3418852983605194
 40
0.3508358634012967
 40
0.3597747805785833
 40
0.3688153478884397
 40
0.3777471096459092
 40
0.3865600383139887
 40
0.3954760596135252
 40
0.4045062935356799
 40
0.4134406460148453
 40
0.4223923265354864
 40
0.4313137488027641
 40
0.440158282197611
 40
0.449038770550926
 40
0.4578659912564995
 40
0.4668292333459798
 40
0.4758896088128338
 40
0.4849986536902361
 40
0.4939441305755479
 40
0.5028408862975216
 40
0.511643062212921
 40
0.5203131160552498
 40
0.5291911534647868
 40
0.5381954962429914
 40
0.5472794748918885
 40
0.5563938595836817
 40
0.5654884251484173
 40
0.5743534618123013
 40
0.5831066753747905
 40
0.5917618621584903
 40
0.6005333428368666
 40
0.6095724908772305
 40
0.6186734306513648
 40
0.6277863783256673
 40
0.6368611559932229
 40
0.6458488330782655
 40
0.6545467055159524
 40
0.663233321810003
 40
0.6720514257968526
 40
0.6809578260313316
 40
0.6900690098597312
 40
0.6991737500846105
 40
0.7082221383163818
 40
0.7171660972771172
 40
0.7259821303124148
 40
0.7347250541354908
 40
0.7435831021784022
 40
0.7525116144283009
 40
0.7614637371974303
 40
0.7705535360361427
 40
0.7795690488228137
 40
0.7884632509823485
 40
0.797282800092355
 40
0.806234503743299
 40
0.81512562827274
 40
0.824069046479877
 40
0.8330174339799238
 40
0.8419233089506423
 40
0.8508996027981448
 40
0.8597393762290266
 40
0.8686032532104626
 40
0.8775976453469469
 40
0.8866761983492546
 40
0.8956272438175963
 40
0.9045645930561658
 40
0.913441113605981
 40
0.9222115753742809
 40
0.9310243910542874
 40
0.9399413067551916
 40
0.9489721346198415
 40
0.9580693610913048
 40
0.9671833238868705
 40
0.9761023857862259
 40
0.9849425963872439
 40
0.993659842799402
 40
1.0
 40
1.0
 40
1.0
 40
1.0
 10
1959.463312811102
 20
1108.324991877077
 30
0.0
 10
1959.51215793679
 20
1108.144963385236
 30
0.0
 10
1959.716419149488
 20
1107.39211778301
 30
0.0
 10
1960.255559491258
 20
1106.124442254639
 30
0.0
 10
1961.070645869941
 20
1104.548467377877
 30
0.0
 10
1962.048487689337
 20
1103.079892095787
 30
0.0
 10
1963.161923190277
 20
1101.723215511145
 30
0.0
 10
1964.410710304919
 20
1100.483710220041
 30
0.0
 10
1965.793896510087
 20
1099.366522527137
 30
0.0
 10
1967.301453440265
 20
1098.388063150241
 30
0.0
 10
1968.913913973874
 20
1097.56690077391
 30
0.0
 10
1970.595921939871
 20
1096.922398298132
 30
0.0
 10
1972.318308688222
 20
1096.460718649458
 30
0.0
 10
1974.052033240532
 20
1096.181834626172
 30
0.0
 10
1975.789539742512
 20
1096.080419523519
 30
0.0
 10
1977.537951085089
 20
1096.153926955269
 30
0.0
 10
1979.293873408909
 20
1096.408362253942
 30
0.0
 10
1981.041575447981
 20
1096.850927782353
 30
0.0
 10
1982.741495957151
 20
1097.477068305892
 30
0.0
 10
1984.365246138882
 20
1098.277582925007
 30
0.0
 10
1985.878130455969
 20
1099.231991432172
 30
0.0
 10
1987.261557655604
 20
1100.31841189897
 30
0.0
 10
1988.513823417585
 20
1101.523959774407
 30
0.0
 10
1989.641900829441
 20
1102.852402562789
 30
0.0
 10
1990.645731741119
 20
1104.311842631224
 30
0.0
 10
1991.50542569307
 20
1105.88939717605
 30
0.0
 10
1992.200981300675
 20
1107.562881103018
 30
0.0
 10
1992.715836733945
 20
1109.295430634934
 30
0.0
 10
1993.044503956465
 20
1111.057849582629
 30
0.0
 10
1993.187260827252
 20
1112.816286010777
 30
0.0
 10
1993.151760118086
 20
1114.564817412683
 30
0.0
 10
1992.940730545903
 20
1116.300536951165
 30
0.0
 10
1992.549911390837
 20
1118.024032504536
 30
0.0
 10
1991.977259182182
 20
1119.718644465426
 30
0.0
 10
1991.226417736333
 20
1121.355556518272
 30
0.0
 10
1990.307123417407
 20
1122.906796684723
 30
0.0
 10
1989.242318239436
 20
1124.33959740016
 30
0.0
 10
1988.045371270865
 20
1125.645400566017
 30
0.0
 10
1986.728653787974
 20
1126.815962033034
 30
0.0
 10
1985.29552500275
 20
1127.849051814847
 30
0.0
 10
1983.759191509356
 20
1128.733152535169
 30
0.0
 10
1982.133545610792
 20
1129.457339183133
 30
0.0
 10
1980.433999870749
 20
1130.012739065108
 30
0.0
 10
1978.687196401117
 20
1130.388890946499
 30
0.0
 10
1976.91923360185
 20
1130.581262713735
 30
0.0
 10
1975.149213486419
 20
1130.591858039535
 30
0.0
 10
1973.380792309655
 20
1130.42099389398
 30
0.0
 10
1971.631525257201
 20
1130.066609271837
 30
0.0
 10
1969.926153112629
 20
1129.532428732548
 30
0.0
 10
1968.291506746858
 20
1128.828236232626
 30
0.0
 10
1966.743271235851
 20
1127.962405953258
 30
0.0
 10
1965.295689625043
 20
1126.945425989517
 30
0.0
 10
1963.964198509393
 20
1125.790017675736
 30
0.0
 10
1962.752152902598
 20
1124.499104719854
 30
0.0
 10
1961.67148622787
 20
1123.08120044374
 30
0.0
 10
1960.734103866292
 20
1121.54273433128
 30
0.0
 10
1959.963371921856
 20
1119.91563537508
 30
0.0
 10
1959.369687057955
 20
1118.227583398468
 30
0.0
 10
1958.957393483482
 20
1116.507284076174
 30
0.0
 10
1958.725081033878
 20
1114.772093386927
 30
0.0
 10
1958.668642563065
 20
1113.02367064974
 30
0.0
 10
1958.790176598059
 20
1111.2649482954
 30
0.0
 10
1959.096954425165
 20
1109.500957795585
 30
0.0
 10
1959.590158668551
 20
1107.76338374315
 30
0.0
 10
1960.265023791316
 20
1106.081508587114
 30
0.0
 10
1961.105775804361
 20
1104.492544588252
 30
0.0
 10
1962.092954073548
 20
1103.019156437721
 30
0.0
 10
1963.205923412076
 20
1101.676071003065
 30
0.0
 10
1964.443508119509
 20
1100.455780474619
 30
0.0
 10
1965.812183185292
 20
1099.353951640936
 30
0.0
 10
1967.311684145824
 20
1098.38215852825
 30
0.0
 10
1968.924755765252
 20
1097.562084248878
 30
0.0
 10
1970.617183889545
 20
1096.914920826018
 30
0.0
 10
1972.36080275848
 20
1096.450567190497
 30
0.0
 10
1974.116006426502
 20
1096.174440889255
 30
0.0
 10
1975.864261687204
 20
1096.079973430665
 30
0.0
 10
1977.601946796538
 20
1096.160543334545
 30
0.0
 10
1979.336426258408
 20
1096.41797879434
 30
0.0
 10
1981.062910479241
 20
1096.85813672915
 30
0.0
 10
1982.752396768691
 20
1097.481751616605
 30
0.0
 10
1984.375559477805
 20
1098.283364936241
 30
0.0
 10
1985.896588909682
 20
1099.244362381048
 30
0.0
 10
1987.294715425956
 20
1100.34592175414
 30
0.0
 10
1988.558190860467
 20
1101.570573991456
 30
0.0
 10
1989.687592022365
 20
1102.912330791446
 30
0.0
 10
1990.679379303091
 20
1104.36792447154
 30
0.0
 10
1991.52342941317
 20
1105.92973451684
 30
0.0
 10
1992.20800953549
 20
1107.58439446396
 30
0.0
 10
1992.718595243447
 20
1109.306896022335
 30
0.0
 10
1993.046038756705
 20
1111.069413464458
 30
0.0
 10
1993.188454461311
 20
1112.838349365584
 30
0.0
 10
1993.149717141006
 20
1114.608292607611
 30
0.0
 10
1992.930001293958
 20
1116.36487017044
 30
0.0
 10
1992.529063415632
 20
1118.097502846136
 30
0.0
 10
1991.952303799496
 20
1119.779612238146
 30
0.0
 10
1991.204835276724
 20
1121.39421111499
 30
0.0
 10
1990.294177678736
 20
1122.925215639515
 30
0.0
 10
1989.234914147939
 20
1124.348547362032
 30
0.0
 10
1988.037122230324
 20
1125.653519029151
 30
0.0
 10
1986.711576580703
 20
1126.830344528565
 30
0.0
 10
1985.259059974938
 20
1127.873862430348
 30
0.0
 10
1983.700714588519
 20
1128.763395150805
 30
0.0
 10
1982.061984812746
 20
1129.484701586612
 30
0.0
 10
1980.370417473182
 20
1130.029199508944
 30
0.0
 10
1978.643671965838
 20
1130.394746755834
 30
0.0
 10
1976.897006484916
 20
1130.581975574493
 30
0.0
 10
1975.137629523552
 20
1130.591331652403
 30
0.0
 10
1973.369227251062
 20
1130.419271944125
 30
0.0
 10
1971.609535026116
 20
1130.06150726911
 30
0.0
 10
1969.884212760219
 20
1129.518086844303
 30
0.0
 10
1968.232543058263
 20
1128.799327311629
 30
0.0
 10
1966.678200075254
 20
1127.922459408814
 30
0.0
 10
1965.247862962982
 20
1126.902411360473
 30
0.0
 10
1964.041198855906
 20
1125.869340843095
 30
0.0
 10
1963.372042341729
 20
1125.128035483114
 30
0.0
 10
1963.090283440873
 20
1124.815897173164
 30
0.0
  0
LWPOLYLINE
  5
2D0
330
2AF
100
AcDbEntity
  8
0
  6
Continuous
 62
     8
370
    15
100
AcDbPolyline
 90
       54
 70
   128
 43
0.0
 10
1959.191905081449
 20
1109.280355344089
 10
1959.62334933451
 20
1107.764322759012
 10
1960.299371218338
 20
1106.08291397251
 10
1961.146143059228
 20
1104.48522140654
 10
1962.147308668785
 20
1102.996128870757
 10
1963.282034439784
 20
1101.636277030641
 10
1964.512823568606
 20
1100.433120307111
 10
1965.87695197813
 20
1099.344713022258
 10
1967.362071642732
 20
1098.389547795321
 10
1968.947760464472
 20
1097.586629418479
 10
1970.640603661973
 20
1096.940641113099
 10
1972.38441176971
 20
1096.477515722552
 10
1974.149775473977
 20
1096.201014740572
 10
1975.907704230859
 20
1096.108793703162
 10
1977.66506909606
 20
1096.196285885951
 10
1979.399168095824
 20
1096.461429524949
 10
1981.113725711582
 20
1096.906631835606
 10
1982.780856533779
 20
1097.528639906939
 10
1984.373687918546
 20
1098.318497801236
 10
1985.893902247745
 20
1099.280432364314
 10
1987.289899284833
 20
1100.381840357031
 10
1988.547726893524
 20
1101.602647138481
 10
1989.685628988791
 20
1102.958890995759
 10
1990.690564025769
 20
1104.444849097228
 10
1991.527853677627
 20
1106.010701140341
 10
1992.201010042709
 20
1107.65844135833
 10
1992.699440844445
 20
1109.361780184039
 10
1993.018178159674
 20
1111.092978996724
 10
1993.1588992678
 20
1112.855635603161
 10
1993.119353728658
 20
1114.608892048686
 10
1992.897231129548
 20
1116.375021321285
 10
1992.488551025123
 20
1118.12818381323
 10
1991.895266794293
 20
1119.83892862979
 10
1991.140715008491
 20
1121.450024037618
 10
1990.229057203396
 20
1122.967403787843
 10
1989.178107856871
 20
1124.369419452956
 10
1988.009066139105
 20
1125.6390213621
 10
1986.690172717507
 20
1126.80836246084
 10
1985.236943278351
 20
1127.850895071964
 10
1983.668593364805
 20
1128.744715853071
 10
1982.008881471828
 20
1129.472038541623
 10
1980.284949359706
 20
1130.020309265546
 10
1978.557408656621
 20
1130.378083441048
 10
1976.823797562353
 20
1130.556284973672
 10
1975.103003052037
 20
1130.559575205777
 10
1973.369701826064
 20
1130.388151493681
 10
1971.793841886016
 20
1130.07567107935
 10
1970.243201579137
 20
1129.614074655193
 10
1968.73877039317
 20
1129.007320800639
 10
1967.300535844817
 20
1128.263255319706
 10
1965.946606172344
 20
1127.393276170168
 10
1964.692464022965
 20
1126.411771511282
 10
1963.549805608724
 20
1125.334758710075
 10
1963.549805608724
 20
1125.334758710075
  0
INSERT
  5
2D1
330
2AF
100
AcDbEntity
  8
0
  6
Continuous
 62
     7
370
     0
100
AcDbBlockReference
  2
SW_CENTERMARKSYMBOL_0
 10
1975.92872615244
 20
1113.339150262648
 30
0.0
  0
INSERT
  5
2D2
330
2AF
100
AcDbEntity
  8
0
  6
Continuous
 62
     7
370
     0
100
AcDbBlockReference
  2
SW_CENTERMARKSYMBOL_1
 10
1975.930486761923
 20
1113.344114711732
 30
0.0
  0
ENDBLK
  5
2B1
330
2AF
100
AcDbEntity
  8
0
100
AcDbBlockEnd
  0
BLOCK
  5
2D5
330
2D4
100
AcDbEntity
  8
0
100
AcDbBlockBegin
  2
2
 70
     0
 10
0.0
 20
0.0
 30
0.0
  3
2
  1

  0
LINE
  5
2D7
330
2D4
100
AcDbEntity
  8
0
  6
Continuous
 62
     7
370
    15
100
AcDbLine
 10
1950.32872615244
 20
1067.756828810634
 30
0.0
 11
1950.32872615244
 21
1062.039216616666
 31
0.0
  0
LINE
  5
2D8
330
2D4
100
AcDbEntity
  8
0
  6
Continuous
 62
     7
370
    15
100
AcDbLine
 10
2001.52872615244
 20
1062.039216616666
 30
0.0
 11
2001.52872615244
 21
1067.756828810634
 31
0.0
  0
LINE
  5
2D9
330
2D4
100
AcDbEntity
  8
0
  6
Continuous
 62
     7
370
    15
100
AcDbLine
 10
1950.32872615244
 20
1062.039216616666
 30
0.0
 11
1953.852057692498
 21
1060.756828810634
 31
0.0
  0
LINE
  5
2DA
330
2D4
100
AcDbEntity
  8
0
  6
Continuous
 62
     7
370
    15
100
AcDbLine
 10
1998.005394612383
 20
1060.756828810634
 30
0.0
 11
2001.52872615244
 21
1062.039216616666
 31
0.0
  0
LINE
  5
2DB
330
2D4
100
AcDbEntity
  8
0
  6
Continuous
 62
     7
370
    15
100
AcDbLine
 10
1975.92872615244
 20
1067.756828810634
 30
0.0
 11
2001.52872615244
 21
1067.756828810634
 31
0.0
  0
LINE
  5
2DC
330
2D4
100
AcDbEntity
  8
0
  6
Continuous
 62
     7
370
    15
100
AcDbLine
 10
1950.32872615244
 20
1067.756828810634
 30
0.0
 11
1975.92872615244
 21
1067.756828810634
 31
0.0
  0
LINE
  5
2DD
330
2D4
100
AcDbEntity
  8
0
  6
Continuous
 62
     7
370
    15
100
AcDbLine
 10
2001.467808638043
 20
1062.039216616671
 30
0.0
 11
2001.52872615244
 21
1062.039216616671
 31
0.0
  0
LINE
  5
2DE
330
2D4
100
AcDbEntity
  8
0
  6
Continuous
 62
     7
370
    15
100
AcDbLine
 10
2001.467808638041
 20
1065.856828810634
 30
0.0
 11
2001.467808638043
 21
1062.039216616671
 31
0.0
  0
LINE
  5
2DF
330
2D4
100
AcDbEntity
  8
0
  6
Continuous
 62
     7
370
    15
100
AcDbLine
 10
1990.226812240924
 20
1065.856828810634
 30
0.0
 11
2001.467808638041
 21
1065.856828810634
 31
0.0
  0
LINE
  5
2E0
330
2D4
100
AcDbEntity
  8
0
  6
Continuous
 62
     7
370
    15
100
AcDbLine
 10
1990.226812240924
 20
1065.856828810634
 30
0.0
 11
1990.226812240924
 21
1062.039216616666
 31
0.0
  0
LINE
  5
2E1
330
2D4
100
AcDbEntity
  8
0
  6
Continuous
 62
     7
370
    15
100
AcDbLine
 10
1987.169722549582
 20
1062.039216616671
 30
0.0
 11
1990.226812240924
 21
1062.039216616666
 31
0.0
  0
LINE
  5
2E2
330
2D4
100
AcDbEntity
  8
0
  6
Continuous
 62
     7
370
    15
100
AcDbLine
 10
1987.169722549557
 20
1065.856828810634
 30
0.0
 11
1987.169722549582
 21
1062.039216616671
 31
0.0
  0
LINE
  5
2E3
330
2D4
100
AcDbEntity
  8
0
  6
Continuous
 62
     7
370
    15
100
AcDbLine
 10
1964.687729755323
 20
1065.856828810634
 30
0.0
 11
1987.169722549557
 21
1065.856828810634
 31
0.0
  0
LINE
  5
2E4
330
2D4
100
AcDbEntity
  8
0
  6
Continuous
 62
     7
370
    15
100
AcDbLine
 10
1964.687729755323
 20
1065.856828810634
 30
0.0
 11
1964.687729755323
 21
1062.039216616666
 31
0.0
  0
LINE
  5
2E5
330
2D4
100
AcDbEntity
  8
0
  6
Continuous
 62
     7
370
    15
100
AcDbLine
 10
1961.63064006398
 20
1062.039216616671
 30
0.0
 11
1964.687729755323
 21
1062.039216616666
 31
0.0
  0
LINE
  5
2E6
330
2D4
100
AcDbEntity
  8
0
  6
Continuous
 62
     7
370
    15
100
AcDbLine
 10
1961.630640063957
 20
1065.856828810634
 30
0.0
 11
1961.63064006398
 21
1062.039216616671
 31
0.0
  0
LINE
  5
2E7
330
2D4
100
AcDbEntity
  8
0
  6
Continuous
 62
     7
370
    15
100
AcDbLine
 10
1950.38964366684
 20
1065.856828810634
 30
0.0
 11
1961.630640063957
 21
1065.856828810634
 31
0.0
  0
LINE
  5
2E8
330
2D4
100
AcDbEntity
  8
0
  6
Continuous
 62
     7
370
    15
100
AcDbLine
 10
1950.38964366684
 20
1065.856828810634
 30
0.0
 11
1950.38964366684
 21
1062.039216616666
 31
0.0
  0
LINE
  5
2E9
330
2D4
100
AcDbEntity
  8
0
  6
Continuous
 62
     7
370
    15
100
AcDbLine
 10
1950.32872615244
 20
1062.039216616671
 30
0.0
 11
1950.38964366684
 21
1062.039216616666
 31
0.0
  0
SPLINE
  5
2EA
330
2D4
100
AcDbEntity
  8
0
  6
Continuous
 62
     7
370
    15
100
AcDbSpline
210
0.0
220
0.0
230
1.0
 70
     8
 71
     3
 72
    17
 73
    13
 74
     0
 42
0.0000000001
 43
0.0000000001
 40
0.0
 40
0.0
 40
0.0
 40
0.0
 40
0.1250000000000002
 40
0.1250000000000002
 40
0.2500000000000005
 40
0.2500000000000005
 40
0.5000000000000006
 40
0.7500000000000006
 40
0.7500000000000006
 40
0.8750000000000003
 40
0.8750000000000003
 40
1.0
 40
1.0
 40
1.0
 40
1.0
 10
1950.38964366684
 20
1062.039216616666
 30
0.0
 10
1950.856254325882
 20
1061.890069328071
 30
0.0
 10
1951.325163027673
 20
1061.755244942339
 30
0.0
 10
1952.262158795219
 20
1061.520445832515
 30
0.0
 10
1952.730656678992
 20
1061.420327340781
 30
0.0
 10
1954.136150330312
 20
1061.177395450748
 30
0.0
 10
1956.010141865404
 20
1061.0083925644
 30
0.0
 10
1957.884133400497
 20
1061.177395450749
 30
0.0
 10
1959.289627051817
 20
1061.420327340783
 30
0.0
 10
1959.75812493559
 20
1061.520445832518
 30
0.0
 10
1960.695120703136
 20
1061.755244942342
 30
0.0
 10
1961.164029404927
 20
1061.890069328074
 30
0.0
 10
1961.630640063969
 20
1062.03921661667
 30
0.0
  0
SPLINE
  5
2EB
330
2D4
100
AcDbEntity
  8
0
  6
Continuous
 62
     7
370
    15
100
AcDbSpline
210
0.0
220
0.0
230
1.0
 70
     8
 71
     3
 72
    14
 73
    10
 74
     0
 42
0.0000000001
 43
0.0000000001
 40
0.0
 40
0.0
 40
0.0
 40
0.0
 40
0.25
 40
0.25
 40
0.5000000000000001
 40
0.5000000000000001
 40
0.75
 40
0.75
 40
1.0
 40
1.0
 40
1.0
 40
1.0
 10
1964.687729755323
 20
1062.039216616666
 30
0.0
 10
1966.545999771635
 20
1061.742228186333
 30
0.0
 10
1968.41696605905
 20
1061.503114053791
 30
0.0
 10
1972.163960498625
 20
1061.178405220311
 30
0.0
 10
1974.043166792922
 20
1061.092894007574
 30
0.0
 10
1977.814285511959
 20
1061.092894007574
 30
0.0
 10
1979.693491806281
 20
1061.178405220312
 30
0.0
 10
1983.440486245856
 20
1061.503114053794
 30
0.0
 10
1985.311452533272
 20
1061.742228186336
 30
0.0
 10
1987.169722549583
 20
1062.03921661667
 30
0.0
  0
SPLINE
  5
2EC
330
2D4
100
AcDbEntity
  8
0
  6
Continuous
 62
     7
370
    15
100
AcDbSpline
210
0.0
220
0.0
230
1.0
 70
     8
 71
     3
 72
    17
 73
    13
 74
     0
 42
0.0000000001
 43
0.0000000001
 40
0.0
 40
0.0
 40
0.0
 40
0.0
 40
0.1250000000000002
 40
0.1250000000000002
 40
0.2500000000000003
 40
0.2500000000000003
 40
0.5000000000000002
 40
0.7500000000000002
 40
0.7500000000000002
 40
0.8750000000000001
 40
0.8750000000000001
 40
1.0
 40
1.0
 40
1.0
 40
1.0
 10
1990.226812240924
 20
1062.039216616666
 30
0.0
 10
1990.693422899967
 20
1061.890069328071
 30
0.0
 10
1991.162331601756
 20
1061.755244942339
 30
0.0
 10
1992.099327369303
 20
1061.520445832515
 30
0.0
 10
1992.567825253076
 20
1061.420327340781
 30
0.0
 10
1993.973318904396
 20
1061.177395450748
 30
0.0
 10
1995.847310439489
 20
1061.0083925644
 30
0.0
 10
1997.721301974581
 20
1061.177395450749
 30
0.0
 10
1999.126795625901
 20
1061.420327340783
 30
0.0
 10
1999.595293509674
 20
1061.520445832518
 30
0.0
 10
2000.532289277221
 20
1061.755244942342
 30
0.0
 10
2001.001197979011
 20
1061.890069328074
 30
0.0
 10
2001.467808638054
 20
1062.03921661667
 30
0.0
  0
LINE
  5
2ED
330
2D4
100
AcDbEntity
  8
0
  6
Continuous
 62
     7
370
    15
100
AcDbLine
 10
1975.92872615244
 20
1060.756828810634
 30
0.0
 11
1998.005394612383
 21
1060.756828810634
 31
0.0
  0
LINE
  5
2EE
330
2D4
100
AcDbEntity
  8
0
  6
Continuous
 62
     7
370
    15
100
AcDbLine
 10
1953.852057692498
 20
1060.756828810634
 30
0.0
 11
1975.92872615244
 21
1060.756828810634
 31
0.0
  0
ENDBLK
  5
2D6
330
2D4
100
AcDbEntity
  8
0
100
AcDbBlockEnd
  0
BLOCK
  5
2F1
330
2F0
100
AcDbEntity
  8
0
100
AcDbBlockBegin
  2
3
 70
     0
 10
0.0
 20
0.0
 30
0.0
  3
3
  1

  0
LINE
  5
2F3
330
2F0
100
AcDbEntity
  8
0
  6
Continuous
 62
     7
370
    15
100
AcDbLine
 10
2095.248341127735
 20
1111.111501447072
 30
0.0
 11
2095.296833349898
 21
1112.280408126335
 31
0.0
  0
LINE
  5
2F4
330
2F0
100
AcDbEntity
  8
0
  6
Continuous
 62
     7
370
    15
100
AcDbLine
 10
2044.140834530433
 20
1114.402620364272
 30
0.0
 11
2044.09234230827
 21
1113.233713685009
 31
0.0
  0
SPLINE
  5
2F5
330
2F0
100
AcDbEntity
  8
0
  6
Continuous
 62
     7
370
    15
100
AcDbSpline
210
0.0
220
0.0
230
1.0
 70
     8
 71
     3
 72
    16
 73
    12
 74
     0
 42
0.0000000001
 43
0.0000000001
 40
0.0
 40
0.0
 40
0.0
 40
0.0
 40
0.0639170447880465
 40
0.1906005361554312
 40
0.3275017725146383
 40
0.4742617624200754
 40
0.6234242725084814
 40
0.7696592335257848
 40
0.9125738261476582
 40
0.9989258872873097
 40
1.0
 40
1.0
 40
1.0
 40
1.0
 10
2052.691002034661
 20
1114.930212467742
 30
0.0
 10
2052.716310812107
 20
1115.080267901544
 30
0.0
 10
2052.79178155026
 20
1115.527732990556
 30
0.0
 10
2053.00437844578
 20
1116.284933319267
 30
0.0
 10
2053.341932570902
 20
1117.217863044133
 30
0.0
 10
2053.797538844789
 20
1118.175877695529
 30
0.0
 10
2054.36119756113
 20
1119.121442102352
 30
0.0
 10
2055.013342011275
 20
1120.021317892038
 30
0.0
 10
2055.653194317828
 20
1120.751971979654
 30
0.0
 10
2056.07148706159
 20
1121.186006004981
 30
0.0
 10
2056.241746946334
 20
1121.34335518479
 30
0.0
 10
2056.243838749036
 20
1121.345288367348
 30
0.0
  0
SPLINE
  5
2F6
330
2F0
100
AcDbEntity
  8
0
  6
Continuous
 62
     7
370
    15
100
AcDbSpline
210
0.0
220
0.0
230
1.0
 70
     8
 71
     3
 72
    27
 73
    23
 74
     0
 42
0.0000000001
 43
0.0000000001
 40
0.0
 40
0.0
 40
0.0
 40
0.0
 40
0.0618387853050742
 40
0.1195274086109593
 40
0.1713455855264767
 40
0.2113844985952839
 40
0.2472715291963712
 40
0.2790898296448654
 40
0.3073488685934324
 40
0.3328723397914051
 40
0.3641866880829623
 40
0.4036019652688962
 40
0.4511531791087857
 40
0.5068472395412674
 40
0.5699433378168728
 40
0.6349911338417744
 40
0.7007536451180699
 40
0.7671030360894579
 40
0.8339050910483328
 40
0.9010206935278549
 40
0.9678724787551757
 40
1.0
 40
1.0
 40
1.0
 40
1.0
 10
2079.645993855335
 20
1124.308462980818
 30
0.0
 10
2079.909111832183
 20
1124.150013253692
 30
0.0
 10
2080.417689252914
 20
1123.843747773461
 30
0.0
 10
2081.106802270459
 20
1123.365146747354
 30
0.0
 10
2081.683825840547
 20
1122.926685126042
 30
0.0
 10
2082.156319471778
 20
1122.535898881103
 30
0.0
 10
2082.540493105052
 20
1122.195845345994
 30
0.0
 10
2082.870809533903
 20
1121.884906883662
 30
0.0
 10
2083.155852035868
 20
1121.601418097595
 30
0.0
 10
2083.430467329281
 20
1121.314339917829
 30
0.0
 10
2083.730328717584
 20
1120.9836713779
 30
0.0
 10
2084.082203245222
 20
1120.568436352852
 30
0.0
 10
2084.481425154061
 20
1120.055101143131
 30
0.0
 10
2084.911157979098
 20
1119.44042741335
 30
0.0
 10
2085.339342436205
 20
1118.742461424449
 30
0.0
 10
2085.736246597337
 20
1117.987573765439
 30
0.0
 10
2086.081638771759
 20
1117.203392905989
 30
0.0
 10
2086.369307033838
 20
1116.398201606941
 30
0.0
 10
2086.597191316952
 20
1115.576346557378
 30
0.0
 10
2086.758781848684
 20
1114.744204645595
 30
0.0
 10
2086.848283752192
 20
1114.051795462845
 30
0.0
 10
2086.862891081963
 20
1113.638236467413
 30
0.0
 10
2086.867632449772
 20
1113.504000071086
 30
0.0
  0
SPLINE
  5
2F7
330
2F0
100
AcDbEntity
  8
0
  6
Continuous
 62
     7
370
    15
100
AcDbSpline
210
0.0
220
0.0
230
1.0
 70
     8
 71
     3
 72
    27
 73
    23
 74
     0
 42
0.0000000001
 43
0.0000000001
 40
0.0
 40
0.0
 40
0.0
 40
0.0
 40
0.0148658530715836
 40
0.0506314578553553
 40
0.0928021421543971
 40
0.1415262243326444
 40
0.1979652993477112
 40
0.2623406956724596
 40
0.3344954179811354
 40
0.3870483377260325
 40
0.4358470409061995
 40
0.4773960709626406
 40
0.5117681896380971
 40
0.5390484160865748
 40
0.5861137106068354
 40
0.6354091063883313
 40
0.6843632853559325
 40
0.7397744240852524
 40
0.8017110727699261
 40
0.8701685297024518
 40
0.9450631206347821
 40
1.0
 40
1.0
 40
1.0
 40
1.0
 10
2052.654756933118
 20
1115.426557608898
 30
0.0
 10
2052.663383393446
 20
1115.495112428942
 30
0.0
 10
2052.692764166982
 20
1115.728602593626
 30
0.0
 10
2052.771706645807
 20
1116.153966176208
 30
0.0
 10
2052.904421619842
 20
1116.730857644572
 30
0.0
 10
2053.101582419462
 20
1117.394588350578
 30
0.0
 10
2053.381807202855
 20
1118.14689053279
 30
0.0
 10
2053.770338726755
 20
1118.984775135587
 30
0.0
 10
2054.226083751812
 20
1119.781545887527
 30
0.0
 10
2054.705030621803
 20
1120.488484129219
 30
0.0
 10
2055.139113648905
 20
1121.053028282698
 30
0.0
 10
2055.547930098661
 20
1121.53080718981
 30
0.0
 10
2055.906508219415
 20
1121.915114614557
 30
0.0
 10
2056.301305761099
 20
1122.310147982353
 30
0.0
 10
2056.773284228547
 20
1122.745505456325
 30
0.0
 10
2057.361216351582
 20
1123.234147107754
 30
0.0
 10
2058.017118689471
 20
1123.724431441382
 30
0.0
 10
2058.764313364955
 20
1124.223056308703
 30
0.0
 10
2059.642718194252
 20
1124.738445266836
 30
0.0
 10
2060.663750391018
 20
1125.251743933051
 30
0.0
 10
2061.693264748643
 20
1125.694122529734
 30
0.0
 10
2062.400076960339
 20
1125.931724098306
 30
0.0
 10
2062.699157430728
 20
1126.032262809604
 30
0.0
  0
SPLINE
  5
2F8
330
2F0
100
AcDbEntity
  8
0
  6
Continuous
 62
     7
370
    15
100
AcDbSpline
210
0.0
220
0.0
230
1.0
 70
     8
 71
     3
 72
    35
 73
    31
 74
     0
 42
0.0000000001
 43
0.0000000001
 40
0.0
 40
0.0
 40
0.0
 40
0.0
 40
0.0396272550494145
 40
0.1250278768608521
 40
0.2065176755457837
 40
0.2457299461606153
 40
0.283907091878907
 40
0.3214819917822783
 40
0.3565293890205869
 40
0.3863377012833275
 40
0.4108009225696378
 40
0.429851059862017
 40
0.4434549395629433
 40
0.4533142806793194
 40
0.4676079295556934
 40
0.4863525655824821
 40
0.5127817927772331
 40
0.5448852894060511
 40
0.582328021912781
 40
0.6202902121556756
 40
0.6571846536127485
 40
0.6929799277961873
 40
0.7276503544202804
 40
0.7611756636320944
 40
0.8244519518198053
 40
0.882261081317141
 40
0.9319628749555787
 40
0.9574284477974785
 40
0.9809367319144758
 40
1.0
 40
1.0
 40
1.0
 40
1.0
 10
2076.548411629269
 20
1126.710674175967
 30
0.0
 10
2076.790362823112
 20
1126.62225710533
 30
0.0
 10
2077.553742573552
 20
1126.343292574323
 30
0.0
 10
2078.754182449769
 20
1125.781670663322
 30
0.0
 10
2079.888793152607
 20
1125.14481326213
 30
0.0
 10
2080.717103520439
 20
1124.606193224866
 30
0.0
 10
2081.294720137439
 20
1124.196394761861
 30
0.0
 10
2081.829551149909
 20
1123.782753975086
 30
0.0
 10
2082.303764490353
 20
1123.384539811729
 30
0.0
 10
2082.700881603951
 20
1123.025509653565
 30
0.0
 10
2083.015253073705
 20
1122.723016590231
 30
0.0
 10
2083.252692378366
 20
1122.482717601514
 30
0.0
 10
2083.425185579116
 20
1122.301332124515
 30
0.0
 10
2083.575544512741
 20
1122.138770704007
 30
0.0
 10
2083.743111302026
 20
1121.952308127393
 30
0.0
 10
2083.969206519631
 20
1121.690484295187
 30
0.0
 10
2084.251870679324
 20
1121.344478378508
 30
0.0
 10
2084.584651035343
 20
1120.905898384004
 30
0.0
 10
2084.932556321475
 20
1120.403545048083
 30
0.0
 10
2085.26709565812
 20
1119.86730079733
 30
0.0
 10
2085.567859858528
 20
1119.328696938127
 30
0.0
 10
2085.831957012969
 20
1118.797439132305
 30
0.0
 10
2086.061313872655
 20
1118.275582055658
 30
0.0
 10
2086.318445635341
 20
1117.608037416224
 30
0.0
 10
2086.565493002002
 20
1116.811452516923
 30
0.0
 10
2086.760234672988
 20
1115.920659676458
 30
0.0
 10
2086.857790091627
 20
1115.222105353945
 30
0.0
 10
2086.901010574254
 20
1114.702618518998
 30
0.0
 10
2086.919844514628
 20
1114.344058503054
 30
0.0
 10
2086.920745288789
 20
1114.119664865424
 30
0.0
 10
2086.921148649682
 20
1114.019182833422
 30
0.0
  0
SPLINE
  5
2F9
330
2F0
100
AcDbEntity
  8
0
  6
Continuous
 62
     7
370
    15
100
AcDbSpline
210
0.0
220
0.0
230
1.0
 70
     8
 71
     3
 72
    27
 73
    23
 74
     0
 42
0.0000000001
 43
0.0000000001
 40
0.0
 40
0.0
 40
0.0
 40
0.0
 40
0.091970534264192
 40
0.1900638631355454
 40
0.2910075432489309
 40
0.3679037216367726
 40
0.4445793611156058
 40
0.5204055179729474
 40
0.5646225169533973
 40
0.6084453606762608
 40
0.6481748518388933
 40
0.6776589265293365
 40
0.6946722867285099
 40
0.7051927822694211
 40
0.7170463241269461
 40
0.7323177049115984
 40
0.7510322828380128
 40
0.7732187808063756
 40
0.8151701695858088
 40
0.8658863293264392
 40
0.9254626750824886
 40
1.0
 40
1.0
 40
1.0
 40
1.0
 10
2052.641444105466
 20
1115.89504966037
 30
0.0
 10
2052.686860209904
 20
1116.281292630967
 30
0.0
 10
2052.780715924967
 20
1117.079492094392
 30
0.0
 10
2053.106046261695
 20
1118.279032119967
 30
0.0
 10
2053.541331222914
 20
1119.387881060895
 30
0.0
 10
2054.055358797619
 20
1120.377541072673
 30
0.0
 10
2054.601566216331
 20
1121.239990316052
 30
0.0
 10
2055.1388809206
 20
1121.950414254345
 30
0.0
 10
2055.629584677579
 20
1122.5204187166
 30
0.0
 10
2056.036299160188
 20
1122.951722599871
 30
0.0
 10
2056.415710569337
 20
1123.321556667148
 30
0.0
 10
2056.717115527078
 20
1123.595860686165
 30
0.0
 10
2056.921630692529
 20
1123.773678929266
 30
0.0
 10
2057.065054063641
 20
1123.895048433939
 30
0.0
 10
2057.203807133926
 20
1124.00991285589
 30
0.0
 10
2057.375139641045
 20
1124.148020878749
 30
0.0
 10
2057.588685685314
 20
1124.31451784273
 30
0.0
 10
2057.909916393651
 20
1124.555099157803
 30
0.0
 10
2058.368442561701
 20
1124.877689509751
 30
0.0
 10
2059.00109123342
 20
1125.282703053053
 30
0.0
 10
2059.799940616085
 20
1125.744588826839
 30
0.0
 10
2060.414296688407
 20
1126.039843251163
 30
0.0
 10
2060.755741806923
 20
1126.203938938416
 30
0.0
  0
SPLINE
  5
2FA
330
2F0
100
AcDbEntity
  8
0
  6
Continuous
 62
     7
370
    15
100
AcDbSpline
210
0.0
220
0.0
230
1.0
 70
     8
 71
     3
 72
    31
 73
    27
 74
     0
 42
0.0000000001
 43
0.0000000001
 40
0.0
 40
0.0
 40
0.0
 40
0.0
 40
0.0483009670892827
 40
0.1048926062182221
 40
0.1580579825974272
 40
0.2047831217245189
 40
0.245346460386263
 40
0.2802845505582025
 40
0.3094813373466863
 40
0.329847839615515
 40
0.3506377989891162
 40
0.3776014209479222
 40
0.4101933731702346
 40
0.4464468342617359
 40
0.486197484410531
 40
0.5294152305937806
 40
0.5830275750258411
 40
0.6369890238086591
 40
0.6909981654786108
 40
0.7449299400447968
 40
0.7986604502918575
 40
0.8500165738837527
 40
0.8962570645659827
 40
0.9376342917560744
 40
0.9739701359868405
 40
1.0
 40
1.0
 40
1.0
 40
1.0
 10
2077.277575959652
 20
1127.388677896243
 30
0.0
 10
2077.587992617447
 20
1127.259133046626
 30
0.0
 10
2078.262107737945
 20
1126.977807480757
 30
0.0
 10
2079.228627642612
 20
1126.483154139906
 30
0.0
 10
2080.14663038684
 20
1125.949242050628
 30
0.0
 10
2080.931556894327
 20
1125.429865921707
 30
0.0
 10
2081.583567405828
 20
1124.95013433887
 30
0.0
 10
2082.117525685725
 20
1124.519079319217
 30
0.0
 10
2082.53091152589
 20
1124.158112198278
 30
0.0
 10
2082.863351705486
 20
1123.849533852153
 30
0.0
 10
2083.175547088105
 20
1123.544537129546
 30
0.0
 10
2083.530298813831
 20
1123.176511063101
 30
0.0
 10
2083.932800363657
 20
1122.725836662778
 30
0.0
 10
2084.361177678024
 20
1122.20062492219
 30
0.0
 10
2084.796834844881
 20
1121.607746737836
 30
0.0
 10
2085.251362919443
 20
1120.909971622876
 30
0.0
 10
2085.694273017344
 20
1120.118057737951
 30
0.0
 10
2086.096714352666
 20
1119.247529802685
 30
0.0
 10
2086.425546762301
 20
1118.357228315488
 30
0.0
 10
2086.678148244519
 20
1117.454247911688
 30
0.0
 10
2086.851229672721
 20
1116.556403765545
 30
0.0
 10
2086.945042964766
 20
1115.696923132039
 30
0.0
 10
2086.971021564599
 20
1114.905919009926
 30
0.0
 10
2086.944037343135
 20
1114.201309906968
 30
0.0
 10
2086.889860544361
 20
1113.613179656701
 30
0.0
 10
2086.831410704201
 20
1113.262208422113
 30
0.0
 10
2086.807015224157
 20
1113.115721935129
 30
0.0
  0
SPLINE
  5
2FB
330
2F0
100
AcDbEntity
  8
0
  6
Continuous
 62
     7
370
    15
100
AcDbSpline
210
0.0
220
0.0
230
1.0
 70
     8
 71
     3
 72
    56
 73
    52
 74
     0
 42
0.0000000001
 43
0.0000000001
 40
0.0
 40
0.0
 40
0.0
 40
0.0
 40
0.0268098772878879
 40
0.0432097558227017
 40
0.0579856176839317
 40
0.0698375888632874
 40
0.0787021851993344
 40
0.0839088497073257
 40
0.0910140491662971
 40
0.1001194634248093
 40
0.1175457214076824
 40
0.139515067978329
 40
0.160369500666442
 40
0.1835713981567431
 40
0.2064231922523998
 40
0.228551135347287
 40
0.2499353527417643
 40
0.2838783430914245
 40
0.3156680122590221
 40
0.3452842797610232
 40
0.3680633590620244
 40
0.3873988001209321
 40
0.4034516255673784
 40
0.416910813079647
 40
0.4315702680774481
 40
0.4479751004600659
 40
0.4661376590262278
 40
0.4895583760742702
 40
0.5158466046242673
 40
0.5462446676325211
 40
0.5807823906694568
 40
0.619364400849984
 40
0.6618225771019351
 40
0.6786245369995653
 40
0.6939266884791145
 40
0.7069024270304246
 40
0.7175741510770485
 40
0.7268175389175222
 40
0.7332236758718058
 40
0.7379118633438799
 40
0.743305630865258
 40
0.7494905606631428
 40
0.7564904197044083
 40
0.7762622165657274
 40
0.800172938916439
 40
0.8314693790230249
 40
0.8648819252182136
 40
0.9003660866727612
 40
0.9378472510005162
 40
0.9772169495062522
 40
1.0
 40
1.0
 40
1.0
 40
1.0
 10
2058.300422697231
 20
1105.953028248658
 30
0.0
 10
2058.064978324106
 20
1106.126160921755
 30
0.0
 10
2057.685510198856
 20
1106.405200637198
 30
0.0
 10
2057.206723225329
 20
1106.80323113732
 30
0.0
 10
2056.862597078901
 20
1107.106274306775
 30
0.0
 10
2056.587958187395
 20
1107.36237061038
 30
0.0
 10
2056.392522878842
 20
1107.552639845026
 30
0.0
 10
2056.235872491104
 20
1107.709777309917
 30
0.0
 10
2056.080131298159
 20
1107.870154859532
 30
0.0
 10
2055.841029623684
 20
1108.125108509868
 30
0.0
 10
2055.509364326156
 20
1108.499835000321
 30
0.0
 10
2055.12205947299
 20
1108.977814520346
 30
0.0
 10
2054.727923760525
 20
1109.515383651191
 30
0.0
 10
2054.360855106946
 20
1110.073456019791
 30
0.0
 10
2054.022132200801
 20
1110.654974026186
 30
0.0
 10
2053.726753978439
 20
1111.231913456875
 30
0.0
 10
2053.421482533003
 20
1111.916135850665
 30
0.0
 10
2053.135382518992
 20
1112.69947264353
 30
0.0
 10
2052.898327999217
 20
1113.570189220417
 30
0.0
 10
2052.752590108815
 20
1114.346727670944
 30
0.0
 10
2052.675008034655
 20
1115.011753218396
 30
0.0
 10
2052.642559065632
 20
1115.552143444867
 30
0.0
 10
2052.636837696603
 20
1116.005923052898
 30
0.0
 10
2052.647898732815
 20
1116.415810869494
 30
0.0
 10
2052.674632382221
 20
1116.828296237016
 30
0.0
 10
2052.723203463463
 20
1117.283064139247
 30
0.0
 10
2052.805276008855
 20
1117.81640783726
 30
0.0
 10
2052.936192498164
 20
1118.436316058807
 30
0.0
 10
2053.139514325975
 20
1119.160000305257
 30
0.0
 10
2053.433787770373
 20
1119.971271814578
 30
0.0
 10
2053.847866426215
 20
1120.871029146992
 30
0.0
 10
2054.408403442497
 20
1121.843744088199
 30
0.0
 10
2054.972053441877
 20
1122.631806459308
 30
0.0
 10
2055.448576287211
 20
1123.208922790123
 30
0.0
 10
2055.751818163833
 20
1123.549894309935
 30
0.0
 10
2056.02509287571
 20
1123.838152468183
 30
0.0
 10
2056.263677786202
 20
1124.076941103019
 30
0.0
 10
2056.459811037899
 20
1124.26484239823
 30
0.0
 10
2056.614493975727
 20
1124.40806476355
 30
0.0
 10
2056.741770323519
 20
1124.52310774049
 30
0.0
 10
2056.86890761405
 20
1124.635545907852
 30
0.0
 10
2057.01616288973
 20
1124.76256591961
 30
0.0
 10
2057.281449269984
 20
1124.984959799325
 30
0.0
 10
2057.701998136808
 20
1125.317725524194
 30
0.0
 10
2058.353174281271
 20
1125.786601601125
 30
0.0
 10
2059.164064523239
 20
1126.304332675837
 30
0.0
 10
2060.131395115141
 20
1126.838406084734
 30
0.0
 10
2061.210030768598
 20
1127.345542000536
 30
0.0
 10
2062.401835131236
 20
1127.807272228504
 30
0.0
 10
2063.496271786238
 20
1128.157894412904
 30
0.0
 10
2064.203813589482
 20
1128.322490914957
 30
0.0
 10
2064.463173969984
 20
1128.382826306033
 30
0.0
  0
LINE
  5
2FC
330
2F0
100
AcDbEntity
  8
0
  6
Continuous
 62
     7
370
    15
100
AcDbLine
 10
2071.363528331806
 20
1102.440815393067
 30
0.0
 11
2071.051014568102
 21
1102.417297704198
 31
0.0
  0
ARC
  5
2FD
330
2F0
100
AcDbEntity
  8
0
  6
Continuous
 62
     7
370
    15
100
AcDbCircle
 10
2062.966786075549
 20
1113.172876657402
 30
0.0
 40
18.87454181346131
100
AcDbArc
 50
179.815322088864
 51
237.092743543857
  0
LWPOLYLINE
  5
2FE
330
2F0
100
AcDbEntity
  8
0
  6
Continuous
 62
     7
370
    15
100
AcDbPolyline
 90
       53
 70
   128
 43
0.0
 10
2095.248341127735
 20
1111.111501447072
 10
2095.243057490307
 20
1110.99454241127
 10
2095.174478137491
 20
1110.104499393795
 10
2095.05597323996
 20
1109.218504795187
 10
2094.887774776613
 20
1108.338292991476
 10
2094.670212003842
 20
1107.465587038605
 10
2094.403710810992
 20
1106.602095299458
 10
2094.088792886661
 20
1105.749508099665
 10
2093.726074697476
 20
1104.909494418707
 10
2093.316266281325
 20
1104.08369862281
 10
2092.860169857428
 20
1103.273737246025
 10
2092.358678255953
 20
1102.481195825784
 10
2091.812773170258
 20
1101.707625799133
 10
2091.223523235186
 20
1100.954541465726
 10
2090.592081935156
 20
1100.223417023513
 10
2089.919685346165
 20
1099.51568368292
 10
2089.207649716111
 20
1098.832726865199
 10
2088.457368888177
 20
1098.175883490392
 10
2087.670311572319
 20
1097.546439360248
 10
2086.848018470191
 20
1096.945626641214
 10
2085.992099259156
 20
1096.3746214524
 10
2085.104229441264
 20
1095.834541563277
 10
2084.186147063378
 20
1095.326444205592
 10
2083.239649314865
 20
1094.851324003781
 10
2082.266589009515
 20
1094.410111027952
 10
2081.268870958572
 20
1094.003668973223
 10
2080.248448241973
 20
1093.632793469005
 10
2079.207318385105
 20
1093.298210521512
 10
2078.147519448553
 20
1093.000575092577
 10
2077.071126038506
 20
1092.740469817528
 10
2075.980245245611
 20
1092.518403864656
 10
2074.877012520246
 20
1092.334811938491
 10
2073.76358749228
 20
1092.190053428852
 10
2072.642149743493
 20
1092.084411707318
 10
2071.514894540939
 20
1092.01809357252
 10
2070.384028539614
 20
1091.991228845322
 10
2069.251765462821
 20
1092.003870114688
 10
2068.120321768704
 20
1092.055992634739
 10
2066.991912311427
 20
1092.147494373197
 10
2065.868746005492
 20
1092.27819621111
 10
2064.753021501687
 20
1092.447842293492
 10
2063.646922883124
 20
1092.656100530172
 10
2062.552615389789
 20
1092.90256324587
 10
2061.472241179992
 20
1093.186747978247
 10
2060.40791513698
 20
1093.508098422345
 10
2059.361720728965
 20
1093.865985519578
 10
2058.33570593063
 20
1094.259708689147
 10
2057.331879214123
 20
1094.688497199457
 10
2056.352205617383
 20
1095.151511676865
 10
2055.39860289748
 20
1095.647845748788
 10
2054.472937776519
 20
1096.176527817972
 10
2053.577022287445
 20
1096.736522964439
 10
2052.712610226899
 20
1097.326734971393
  0
ARC
  5
2FF
330
2F0
100
AcDbEntity
  8
0
  6
Continuous
 62
     7
370
    15
100
AcDbCircle
 10
2069.37140695736
 20
1103.910401210989
 30
0.0
 40
31.95762552985884
100
AcDbArc
 50
76.86154228651552
 51
83.15992343748694
  0
ARC
  5
300
330
2F0
100
AcDbEntity
  8
0
  6
Continuous
 62
     7
370
    15
100
AcDbCircle
 10
2065.262627506864
 20
1112.689394397884
 30
0.0
 40
22.17015035185954
100
AcDbArc
 50
127.1818051715119
 51
135.2201109953147
  0
ARC
  5
301
330
2F0
100
AcDbEntity
  8
0
  6
Continuous
 62
     7
370
    15
100
AcDbCircle
 10
2060.850339681641
 20
1113.731877660052
 30
0.0
 40
16.6911901468356
100
AcDbArc
 50
137.3310254780723
 51
197.6796186302472
  0
LINE
  5
302
330
2F0
100
AcDbEntity
  8
0
  6
Continuous
 62
     7
370
    15
100
AcDbLine
 10
2044.94748158546
 20
1108.662860705006
 30
0.0
 11
2045.044915532114
 21
1111.011509332566
 31
0.0
  0
ARC
  5
303
330
2F0
100
AcDbEntity
  8
0
  6
Continuous
 62
     7
370
    15
100
AcDbCircle
 10
2061.860369482785
 20
1116.535820640359
 30
0.0
 40
17.69964708666738
100
AcDbArc
 50
198.1866886847592
 51
207.5281730364415
  0
LINE
  5
304
330
2F0
100
AcDbEntity
  8
0
  6
Continuous
 62
     7
370
    15
100
AcDbLine
 10
2046.067177384325
 20
1106.006665730634
 30
0.0
 11
2046.164611330969
 21
1108.355314358211
 31
0.0
  0
ARC
  5
305
330
2F0
100
AcDbEntity
  8
0
  6
Continuous
 62
     7
370
    15
100
AcDbCircle
 10
2067.719609383286
 20
1118.559863005265
 30
0.0
 40
25.02819556591007
100
AcDbArc
 50
210.1034094287828
 51
258.8963484621211
  0
LINE
  5
306
330
2F0
100
AcDbEntity
  8
0
  6
Continuous
 62
     7
370
    15
100
AcDbLine
 10
2062.899566722931
 20
1094.000185441466
 30
0.0
 11
2062.997000669585
 21
1096.348834069026
 31
0.0
  0
ARC
  5
307
330
2F0
100
AcDbEntity
  8
0
  6
Continuous
 62
     7
370
    15
100
AcDbCircle
 10
2070.26112881592
 20
1127.469924532367
 30
0.0
 40
31.95762552746719
100
AcDbArc
 50
256.8615422861806
 51
263.1599234376308
  0
LINE
  5
308
330
2F0
100
AcDbEntity
  8
0
  6
Continuous
 62
     7
370
    15
100
AcDbLine
 10
2066.357590025666
 20
1093.391110521166
 30
0.0
 11
2066.455023972293
 21
1095.739759148727
 31
0.0
  0
ARC
  5
309
330
2F0
100
AcDbEntity
  8
0
  6
Continuous
 62
     7
370
    15
100
AcDbCircle
 10
2070.37164120685
 20
1122.809459303342
 30
0.0
 40
29.69093888638257
100
AcDbArc
 50
262.2301338606613
 51
305.6367955605656
  0
LINE
  5
30A
330
2F0
100
AcDbEntity
  8
0
  6
Continuous
 62
     7
370
    15
100
AcDbLine
 10
2087.670919077638
 20
1098.678838981763
 30
0.0
 11
2087.768353024292
 21
1101.027487609324
 31
0.0
  0
ARC
  5
30B
330
2F0
100
AcDbEntity
  8
0
  6
Continuous
 62
     7
370
    15
100
AcDbCircle
 10
2074.369908267557
 20
1118.690931346996
 30
0.0
 40
22.17015035071232
100
AcDbArc
 50
307.1818051712331
 51
315.2201109954437
  0
LINE
  5
30C
330
2F0
100
AcDbEntity
  8
0
  6
Continuous
 62
     7
370
    15
100
AcDbLine
 10
2090.009246581507
 20
1100.725959035836
 30
0.0
 11
2090.106680528145
 21
1103.074607663376
 31
0.0
  0
ARC
  5
30D
330
2F0
100
AcDbEntity
  8
0
  6
Continuous
 62
     7
370
    15
100
AcDbCircle
 10
2078.448231088589
 20
1112.949036425806
 30
0.0
 40
16.8244078679961
100
AcDbArc
 50
313.4055074321939
 51
17.54261993129586
  0
LINE
  5
30E
330
2F0
100
AcDbEntity
  8
0
  6
Continuous
 62
     7
370
    15
100
AcDbLine
 10
2094.490186294872
 20
1118.020167785601
 30
0.0
 11
2094.587620241527
 21
1120.368816413162
 31
0.0
  0
ARC
  5
30F
330
2F0
100
AcDbEntity
  8
0
  6
Continuous
 62
     7
370
    15
100
AcDbCircle
 10
2077.772166290497
 20
1114.844505105197
 30
0.0
 40
17.69964708706143
100
AcDbArc
 50
18.18668868492399
 51
27.52817303638332
  0
SPLINE
  5
310
330
2F0
100
AcDbEntity
  8
0
  6
Continuous
 62
     7
370
    15
100
AcDbSpline
210
0.0
220
0.0
230
1.0
 70
     8
 71
     3
 72
    17
 73
    13
 74
     0
 42
0.0000000001
 43
0.0000000001
 40
0.0
 40
0.0
 40
0.0
 40
0.0
 40
0.1250000000000002
 40
0.1250000000000002
 40
0.2500000000000005
 40
0.2500000000000005
 40
0.5000000000000004
 40
0.7500000000000002
 40
0.7500000000000002
 40
0.8750000000000001
 40
0.8750000000000001
 40
1.0
 40
1.0
 40
1.0
 40
1.0
 10
2094.587620241527
 20
1120.368816413162
 30
0.0
 10
2094.405424240559
 20
1119.742696085676
 30
0.0
 10
2094.221946630498
 20
1119.104228581589
 30
0.0
 10
2093.854429494052
 20
1117.80711765457
 30
0.0
 10
2093.670229874695
 20
1117.147930638339
 30
0.0
 10
2093.116165439123
 20
1115.135041793721
 30
0.0
 10
2092.373459305344
 20
1112.355889469763
 30
0.0
 10
2091.622126513132
 20
1109.368791248261
 30
0.0
 10
2091.055661754211
 20
1107.056992183784
 30
0.0
 10
2090.86635164207
 20
1106.274616563651
 30
0.0
 10
2090.486849315521
 20
1104.68860221794
 30
0.0
 10
2090.296489669601
 20
1103.884243003317
 30
0.0
 10
2090.106680528156
 20
1103.074607663374
 30
0.0
  0
SPLINE
  5
311
330
2F0
100
AcDbEntity
  8
0
  6
Continuous
 62
     7
370
    15
100
AcDbSpline
210
0.0
220
0.0
230
1.0
 70
     8
 71
     3
 72
    17
 73
    13
 74
     0
 42
0.0000000001
 43
0.0000000001
 40
0.0
 40
0.0
 40
0.0
 40
0.0
 40
0.1250000000000002
 40
0.1250000000000002
 40
0.2500000000000005
 40
0.2500000000000005
 40
0.5000000000000006
 40
0.7500000000000006
 40
0.7500000000000006
 40
0.8750000000000003
 40
0.8750000000000003
 40
1.0
 40
1.0
 40
1.0
 40
1.0
 10
2087.768353024292
 20
1101.027487609324
 30
0.0
 10
2086.887449185951
 20
1100.899752966042
 30
0.0
 10
2086.001822624502
 20
1100.762125679901
 30
0.0
 10
2084.231237911945
 20
1100.465817601371
 30
0.0
 10
2083.345504504533
 20
1100.307032009383
 30
0.0
 10
2080.686838704796
 20
1099.795347437498
 30
0.0
 10
2077.137997418796
 20
1099.017800810516
 30
0.0
 10
2073.580529474364
 20
1098.032308285991
 30
0.0
 10
2070.909463351278
 20
1097.221713494246
 30
0.0
 10
2070.018619451083
 20
1096.939739298357
 30
0.0
 10
2068.236049548423
 20
1096.354527801134
 30
0.0
 10
2067.343540951115
 20
1096.051008804457
 30
0.0
 10
2066.455023972297
 20
1095.739759148718
 30
0.0
  0
SPLINE
  5
312
330
2F0
100
AcDbEntity
  8
0
  6
Continuous
 62
     7
370
    15
100
AcDbSpline
210
0.0
220
0.0
230
1.0
 70
     8
 71
     3
 72
    14
 73
    10
 74
     0
 42
0.0000000001
 43
0.0000000001
 40
0.0
 40
0.0
 40
0.0
 40
0.0
 40
0.25
 40
0.25
 40
0.5000000000000001
 40
0.5000000000000001
 40
0.75
 40
0.75
 40
1.0
 40
1.0
 40
1.0
 40
1.0
 10
2062.997000669585
 20
1096.348834069026
 30
0.0
 10
2061.613283684142
 20
1097.523952312531
 30
0.0
 10
2060.218583851314
 20
1098.670245903173
 30
0.0
 10
2057.421476183163
 20
1100.871089057028
 30
0.0
 10
2056.016686724865
 20
1101.927284539983
 30
0.0
 10
2053.193229787488
 20
1103.941245801453
 30
0.0
 10
2051.784075456828
 20
1104.892225886821
 30
0.0
 10
2048.970393206686
 20
1106.693538173021
 30
0.0
 10
2047.563487925819
 20
1107.545619019838
 30
0.0
 10
2046.164611330961
 20
1108.355314358205
 30
0.0
  0
SPLINE
  5
313
330
2F0
100
AcDbEntity
  8
0
  6
Continuous
 62
     7
370
    15
100
AcDbSpline
210
0.0
220
0.0
230
1.0
 70
     8
 71
     3
 72
    17
 73
    13
 74
     0
 42
0.0000000001
 43
0.0000000001
 40
0.0
 40
0.0
 40
0.0
 40
0.0
 40
0.1250000000000002
 40
0.1250000000000002
 40
0.2500000000000003
 40
0.2500000000000003
 40
0.5000000000000002
 40
0.7500000000000002
 40
0.7500000000000002
 40
0.8750000000000001
 40
0.8750000000000001
 40
1.0
 40
1.0
 40
1.0
 40
1.0
 10
2045.044915532114
 20
1111.011509332566
 30
0.0
 10
2045.234724673559
 20
1111.821144672508
 30
0.0
 10
2045.425084319479
 20
1112.625503887131
 30
0.0
 10
2045.804586646028
 20
1114.211518232842
 30
0.0
 10
2045.993896758168
 20
1114.993893852975
 30
0.0
 10
2046.560361517089
 20
1117.305692917451
 30
0.0
 10
2047.311694309301
 20
1120.292791138952
 30
0.0
 10
2048.05440044308
 20
1123.071943462909
 30
0.0
 10
2048.608464878651
 20
1125.084832307526
 30
0.0
 10
2048.792664498009
 20
1125.744019323758
 30
0.0
 10
2049.160181634455
 20
1127.041130250776
 30
0.0
 10
2049.343659244517
 20
1127.679597754863
 30
0.0
 10
2049.525855245484
 20
1128.305718082348
 30
0.0
  0
SPLINE
  5
314
330
2F0
100
AcDbEntity
  8
0
  6
Continuous
 62
     7
370
    15
100
AcDbSpline
210
0.0
220
0.0
230
1.0
 70
     8
 71
     3
 72
    17
 73
    13
 74
     0
 42
0.0000000001
 43
0.0000000001
 40
0.0
 40
0.0
 40
0.0
 40
0.0
 40
0.1250000000000002
 40
0.1250000000000002
 40
0.2500000000000003
 40
0.2500000000000003
 40
0.5000000000000004
 40
0.7500000000000002
 40
0.7500000000000002
 40
0.8750000000000001
 40
0.8750000000000001
 40
1.0
 40
1.0
 40
1.0
 40
1.0
 10
2051.864182749349
 20
1130.352838136404
 30
0.0
 10
2052.752699728166
 20
1130.664087792142
 30
0.0
 10
2053.645208325475
 20
1130.967606788819
 30
0.0
 10
2055.427778228134
 20
1131.552818286042
 30
0.0
 10
2056.31862212833
 20
1131.834792481931
 30
0.0
 10
2058.989688251416
 20
1132.645387273675
 30
0.0
 10
2062.547156195848
 20
1133.6308797982
 30
0.0
 10
2066.095997481848
 20
1134.40842642518
 30
0.0
 10
2068.754663281584
 20
1134.920110997065
 30
0.0
 10
2069.640396688997
 20
1135.078896589052
 30
0.0
 10
2071.410981401553
 20
1135.375204667583
 30
0.0
 10
2072.296607963003
 20
1135.512831953723
 30
0.0
 10
2073.177511801343
 20
1135.640566597005
 30
0.0
  0
SPLINE
  5
315
330
2F0
100
AcDbEntity
  8
0
  6
Continuous
 62
     7
370
    15
100
AcDbSpline
210
0.0
220
0.0
230
1.0
 70
     8
 71
     3
 72
    14
 73
    10
 74
     0
 42
0.0000000001
 43
0.0000000001
 40
0.0
 40
0.0
 40
0.0
 40
0.0
 40
0.25
 40
0.25
 40
0.5
 40
0.5
 40
0.75
 40
0.75
 40
1.0
 40
1.0
 40
1.0
 40
1.0
 10
2076.635535104055
 20
1135.031491676702
 30
0.0
 10
2078.034411698913
 20
1134.221796338334
 30
0.0
 10
2079.44131697978
 20
1133.369715491517
 30
0.0
 10
2082.254999229922
 20
1131.568403205316
 30
0.0
 10
2083.664153560564
 20
1130.617423119961
 30
0.0
 10
2086.48761049794
 20
1128.603461858491
 30
0.0
 10
2087.892399956258
 20
1127.547266375522
 30
0.0
 10
2090.689507624409
 20
1125.346423221666
 30
0.0
 10
2092.084207457236
 20
1124.200129631024
 30
0.0
 10
2093.467924442679
 20
1123.025011387517
 30
0.0
  0
LWPOLYLINE
  5
316
330
2F0
100
AcDbEntity
  8
0
  6
Continuous
 62
     7
370
    15
100
AcDbPolyline
 90
      133
 70
   128
 43
0.0
 10
2055.225160712333
 20
1103.676472761554
 10
2054.455246839789
 20
1104.251965414696
 10
2053.720204763131
 20
1104.855156473606
 10
2053.021699589075
 20
1105.484679516528
 10
2052.361313656506
 20
1106.139108471296
 10
2051.740542951962
 20
1106.816960845839
 10
2051.16079372075
 20
1107.516701086509
 10
2050.623379281347
 20
1108.2367440566
 10
2050.129517050306
 20
1108.975458627196
 10
2049.680325784427
 20
1109.731171372197
 10
2049.2768230464
 20
1110.502170359174
 10
2048.919922899707
 20
1111.286709027441
 10
2048.610433837973
 20
1112.083010144581
 10
2048.349056953462
 20
1112.889269832447
 10
2048.136384348889
 20
1113.703661653523
 10
2047.972897796103
 20
1114.524340748399
 10
2047.85896764473
 20
1115.349448014968
 10
2047.794851983207
 20
1116.177114319888
 10
2047.780696054128
 20
1117.005464732772
 10
2047.816531925227
 20
1117.832622773511
 10
2047.902278416728
 20
1118.656714663099
 10
2048.037741285251
 20
1119.47587356835
 10
2048.222613663828
 20
1120.288243830875
 10
2048.45647675706
 20
1121.091985170744
 10
2048.738800789823
 20
1121.885276855311
 10
2049.068946207379
 20
1122.66632182376
 10
2049.446165124168
 20
1123.433350758029
 10
2049.869603018021
 20
1124.184626090877
 10
2050.338300665913
 20
1124.918445942042
 10
2050.851196316925
 20
1125.633147973537
 10
2051.407128097441
 20
1126.327113155389
 10
2052.004836643172
 20
1126.998769433259
 10
2052.642967952019
 20
1127.646595289651
 10
2053.320076451323
 20
1128.269123190635
 10
2054.034628272551
 20
1128.864942910291
 10
2054.785004726005
 20
1129.432704725318
 10
2055.569505967671
 20
1129.971122472593
 10
2056.386354849912
 20
1130.478976462744
 10
2057.233700947287
 20
1130.955116243142
 10
2058.109624748349
 20
1131.398463204041
 10
2059.01214200396
 20
1131.808013021979
 10
2059.939208222258
 20
1132.182837934893
 10
2060.888723300081
 20
1132.522088843799
 10
2061.858536280382
 20
1132.824997236274
 10
2062.846450224836
 20
1133.090876927383
 10
2063.850227190612
 20
1133.31912561411
 10
2064.867593300034
 20
1133.509226239767
 10
2065.896243891645
 20
1133.660748165294
 10
2066.933848741004
 20
1133.773348144794
 10
2067.978057339399
 20
1133.8467711031
 10
2069.026504218504
 20
1133.880850713594
 10
2070.07681430892
 20
1133.875509774998
 10
2071.126608320475
 20
1133.830760386255
 10
2072.173508132086
 20
1133.746703919124
 10
2073.215142178961
 20
1133.623530788538
 10
2074.249150824957
 20
1133.461520021255
 10
2075.273191707921
 20
1133.261038623771
 10
2076.284945045884
 20
1133.022540750933
 10
2077.282118892123
 20
1132.746566677131
 10
2078.262454327151
 20
1132.433741572407
 10
2079.223730575899
 20
1132.084774086236
 10
2080.163770038483
 20
1131.700454742214
 10
2081.080443223173
 20
1131.281654147268
 10
2081.971673570373
 20
1130.829321019444
 10
2082.835442156694
 20
1130.344480038762
 10
2083.669792268472
 20
1129.828229525985
 10
2084.472833834349
 20
1129.281738954569
 10
2085.242747706893
 20
1128.706246301427
 10
2085.977789783552
 20
1128.103055242517
 10
2086.676294957607
 20
1127.473532199595
 10
2087.336680890176
 20
1126.819103244828
 10
2087.95745159472
 20
1126.141250870284
 10
2088.537200825932
 20
1125.441510629614
 10
2089.074615265336
 20
1124.721467659523
 10
2089.568477496376
 20
1123.982753088927
 10
2090.017668762255
 20
1123.227040343926
 10
2090.421171500282
 20
1122.456041356949
 10
2090.778071646975
 20
1121.671502688682
 10
2091.08756070871
 20
1120.875201571542
 10
2091.348937593219
 20
1120.068941883677
 10
2091.561610197794
 20
1119.254550062601
 10
2091.72509675058
 20
1118.433870967724
 10
2091.839026901952
 20
1117.608763701155
 10
2091.903142563475
 20
1116.781097396235
 10
2091.917298492554
 20
1115.952746983351
 10
2091.881462621455
 20
1115.125588942613
 10
2091.795716129954
 20
1114.301497053025
 10
2091.660253261431
 20
1113.482338147773
 10
2091.475380882855
 20
1112.669967885248
 10
2091.241517789622
 20
1111.866226545379
 10
2090.959193756859
 20
1111.072934860812
 10
2090.629048339303
 20
1110.291889892363
 10
2090.251829422514
 20
1109.524860958094
 10
2089.828391528662
 20
1108.773585625246
 10
2089.359693880769
 20
1108.039765774082
 10
2088.846798229758
 20
1107.325063742587
 10
2088.290866449241
 20
1106.631098560734
 10
2087.69315790351
 20
1105.959442282864
 10
2087.055026594663
 20
1105.311616426473
 10
2086.377918095359
 20
1104.689088525488
 10
2085.663366274131
 20
1104.093268805832
 10
2084.912989820677
 20
1103.525506990806
 10
2084.128488579011
 20
1102.987089243531
 10
2083.311639696769
 20
1102.479235253379
 10
2082.464293599395
 20
1102.003095472982
 10
2081.588369798333
 20
1101.559748512083
 10
2080.685852542722
 20
1101.150198694145
 10
2079.758786324424
 20
1100.775373781231
 10
2078.809271246601
 20
1100.436122872325
 10
2077.8394582663
 20
1100.13321447985
 10
2076.851544321846
 20
1099.867334788741
 10
2075.84776735607
 20
1099.639086102014
 10
2074.830401246648
 20
1099.448985476357
 10
2073.801750655038
 20
1099.29746355083
 10
2072.764145805678
 20
1099.184863571329
 10
2071.719937207282
 20
1099.111440613024
 10
2070.671490328178
 20
1099.07736100253
 10
2069.621180237763
 20
1099.082701941126
 10
2068.571386226207
 20
1099.127451329869
 10
2067.524486414596
 20
1099.211507797
 10
2066.482852367721
 20
1099.334680927585
 10
2065.448843721725
 20
1099.496691694868
 10
2064.424802838761
 20
1099.697173092352
 10
2063.413049500798
 20
1099.93567096519
 10
2062.415875654559
 20
1100.211645038992
 10
2061.435540219531
 20
1100.524470143717
 10
2060.474263970783
 20
1100.873437629888
 10
2059.534224508199
 20
1101.257756973909
 10
2058.617551323508
 20
1101.676557568856
 10
2057.72632097631
 20
1102.12889069668
 10
2056.862552389988
 20
1102.613731677362
 10
2056.02820227821
 20
1103.129982190138
 10
2055.225160712333
 20
1103.676472761554
  0
LINE
  5
317
330
2F0
100
AcDbEntity
  8
0
  6
Continuous
 62
     7
370
    15
100
AcDbLine
 10
2066.357590025666
 20
1093.391110521166
 30
0.0
 11
2087.670919077638
 21
1098.678838981763
 31
0.0
  0
LWPOLYLINE
  5
318
330
2F0
100
AcDbEntity
  8
0
  6
Continuous
 62
     7
370
    15
100
AcDbPolyline
 90
      123
 70
   128
 43
0.0
 10
2057.284573320143
 20
1105.479413043479
 10
2058.032293909327
 20
1104.972534364932
 10
2058.811350271546
 20
1104.496169045454
 10
2059.619676489381
 20
1104.051580320233
 10
2060.455129027012
 20
1103.639947158647
 10
2061.315492414501
 20
1103.262361137841
 10
2062.19848512281
 20
1102.919823548063
 10
2063.101765614013
 20
1102.613242737423
 10
2064.022938550628
 20
1102.343431703118
 10
2064.959561147627
 20
1102.111105935507
 10
2065.90914965026
 20
1101.91688152076
 10
2066.869185920523
 20
1101.761273507108
 10
2067.837124114815
 20
1101.644694539032
 10
2068.81039743505
 20
1101.567453762997
 10
2069.786424935347
 20
1101.529756007656
 10
2070.762618366235
 20
1101.531701240678
 10
2071.736389038226
 20
1101.573284303656
 10
2072.705154686554
 20
1101.654394925781
 10
2073.666346318871
 20
1101.774818016266
 10
2074.617415027764
 20
1101.934234234722
 10
2075.555838749988
 20
1102.132220837996
 10
2076.479128954533
 20
1102.368252801209
 10
2077.384837241757
 20
1102.641704210026
 10
2078.270561836099
 20
1102.951849920468
 10
2079.133953955163
 20
1103.297867481867
 10
2079.97272403826
 20
1103.678839317852
 10
2080.784647817916
 20
1104.093755159603
 10
2081.567572218225
 20
1104.541514724895
 10
2082.319421064426
 20
1105.020930635856
 10
2083.038200588535
 20
1105.530731567674
 10
2083.722004716472
 20
1106.069565619925
 10
2084.369020122615
 20
1106.636003901567
 10
2084.977531038421
 20
1107.228544320107
 10
2085.545923802334
 20
1107.845615564876
 10
2086.072691138923
 20
1108.485581273862
 10
2086.556436155909
 20
1109.146744373052
 10
2086.995876048469
 20
1109.827351576765
 10
2087.389845501006
 20
1110.525598037048
 10
2087.737299777355
 20
1111.239632129812
 10
2088.037317491237
 20
1111.967560365005
 10
2088.28910304961
 20
1112.707452407807
 10
2088.491988762436
 20
1113.45734619753
 10
2088.645436613277
 20
1114.215253150652
 10
2088.749039686017
 20
1114.979163434182
 10
2088.802523243935
 20
1115.747051295375
 10
2088.805745458246
 20
1116.516880433668
 10
2088.75869778422
 20
1117.286609400578
 10
2088.661504983829
 20
1118.054197013257
 10
2088.514424794908
 20
1118.817607767346
 10
2088.317847247678
 20
1119.574817234763
 10
2088.072293630454
 20
1120.323817432124
 10
2087.778415107287
 20
1121.062622145554
 10
2087.43699099119
 20
1121.789272197766
 10
2087.048926677541
 20
1122.501840643452
 10
2086.615251243137
 20
1123.198437879192
 10
2086.137114717269
 20
1123.877216654344
 10
2085.61578503205
 20
1124.536376969621
 10
2085.052644660084
 20
1125.174170850362
 10
2084.449186948404
 20
1125.788906981853
 10
2083.807012158375
 20
1126.378955194383
 10
2083.1278232221
 20
1126.942750786166
 10
2082.413421226538
 20
1127.478798672645
 10
2081.665700637356
 20
1127.985677351191
 10
2080.886644275136
 20
1128.46204267067
 10
2080.078318057301
 20
1128.90663139589
 10
2079.242865519669
 20
1129.318264557476
 10
2078.382502132181
 20
1129.695850578283
 10
2077.499509423871
 20
1130.038388168061
 10
2076.59622893267
 20
1130.3449689787
 10
2075.675055996054
 20
1130.614780013005
 10
2074.738433399055
 20
1130.847105780617
 10
2073.788844896423
 20
1131.041330195364
 10
2072.828808626158
 20
1131.196938209015
 10
2071.860870431867
 20
1131.313517177091
 10
2070.887597111632
 20
1131.390757953126
 10
2069.911569611335
 20
1131.428455708468
 10
2068.935376180447
 20
1131.426510475446
 10
2067.961605508455
 20
1131.384927412468
 10
2066.992839860128
 20
1131.303816790343
 10
2066.031648227811
 20
1131.183393699858
 10
2065.080579518919
 20
1131.023977481402
 10
2064.142155796694
 20
1130.825990878127
 10
2063.218865592149
 20
1130.589958914914
 10
2062.313157304926
 20
1130.316507506097
 10
2061.427432710583
 20
1130.006361795655
 10
2060.564040591519
 20
1129.660344234257
 10
2059.725270508422
 20
1129.279372398271
 10
2058.913346728767
 20
1128.864456556521
 10
2058.130422328457
 20
1128.416696991228
 10
2057.378573482257
 20
1127.937281080267
 10
2056.659793958147
 20
1127.427480148449
 10
2055.97598983021
 20
1126.888646096199
 10
2055.328974424067
 20
1126.322207814556
 10
2054.720463508261
 20
1125.729667396016
 10
2054.152070744348
 20
1125.112596151248
 10
2053.625303407759
 20
1124.472630442261
 10
2053.141558390773
 20
1123.811467343071
 10
2052.702118498213
 20
1123.130860139358
 10
2052.308149045677
 20
1122.432613679075
 10
2051.960694769327
 20
1121.718579586311
 10
2051.660677055445
 20
1120.990651351118
 10
2051.408891497072
 20
1120.250759308317
 10
2051.206005784246
 20
1119.500865518594
 10
2051.052557933406
 20
1118.742958565472
 10
2050.948954860665
 20
1117.979048281942
 10
2050.895471302748
 20
1117.211160420748
 10
2050.892249088436
 20
1116.441331282455
 10
2050.939296762462
 20
1115.671602315546
 10
2051.036489562853
 20
1114.904014702867
 10
2051.183569751774
 20
1114.140603948778
 10
2051.380147299004
 20
1113.383394481361
 10
2051.625700916228
 20
1112.634394283999
 10
2051.919579439395
 20
1111.89558957057
 10
2052.261003555492
 20
1111.168939518358
 10
2052.649067869142
 20
1110.456371072672
 10
2053.082743303545
 20
1109.759773836931
 10
2053.560879829412
 20
1109.080995061779
 10
2054.082209514632
 20
1108.421834746503
 10
2054.645349886598
 20
1107.784040865761
 10
2055.248807598279
 20
1107.169304734271
 10
2055.890982388306
 20
1106.579256521741
 10
2056.570171324582
 20
1106.015460929958
 10
2057.284573320143
 20
1105.479413043479
  0
LWPOLYLINE
  5
319
330
2F0
100
AcDbEntity
  8
0
  6
Continuous
 62
     7
370
    15
100
AcDbPolyline
 90
       63
 70
   128
 43
0.0
 10
2088.798712508253
 20
1115.653758244167
 10
2088.799275024959
 20
1115.668752865522
 10
2088.802497239271
 20
1116.438582003815
 10
2088.755449565245
 20
1117.208310970724
 10
2088.658256764854
 20
1117.975898583403
 10
2088.511176575933
 20
1118.739309337492
 10
2088.314599028703
 20
1119.496518804909
 10
2088.069045411479
 20
1120.245519002271
 10
2087.775166888312
 20
1120.9843237157
 10
2087.433742772216
 20
1121.710973767912
 10
2087.045678458566
 20
1122.423542213598
 10
2086.612003024162
 20
1123.120139449338
 10
2086.133866498295
 20
1123.79891822449
 10
2085.612536813075
 20
1124.458078539767
 10
2085.049396441109
 20
1125.095872420508
 10
2084.445938729428
 20
1125.710608551999
 10
2083.803763939401
 20
1126.300656764529
 10
2083.124575003125
 20
1126.864452356312
 10
2082.410173007564
 20
1127.400500242791
 10
2081.662452418381
 20
1127.907378921337
 10
2080.883396056161
 20
1128.383744240816
 10
2080.075069838327
 20
1128.828332966036
 10
2079.239617300695
 20
1129.239966127622
 10
2078.379253913206
 20
1129.617552148429
 10
2077.496261204897
 20
1129.960089738207
 10
2076.592980713694
 20
1130.266670548846
 10
2075.671807777079
 20
1130.536481583152
 10
2074.73518518008
 20
1130.768807350763
 10
2073.785596677447
 20
1130.96303176551
 10
2072.825560407183
 20
1131.118639779161
 10
2071.857622212892
 20
1131.235218747238
 10
2070.884348892657
 20
1131.312459523273
 10
2069.908321392361
 20
1131.350157278614
 10
2068.932127961472
 20
1131.348212045592
 10
2067.95835728948
 20
1131.306628982614
 10
2066.989591641153
 20
1131.225518360489
 10
2066.028400008836
 20
1131.105095270004
 10
2065.077331299944
 20
1130.945679051548
 10
2064.138907577719
 20
1130.747692448274
 10
2063.215617373174
 20
1130.51166048506
 10
2062.30990908595
 20
1130.238209076244
 10
2061.424184491608
 20
1129.928063365801
 10
2060.560792372544
 20
1129.582045804403
 10
2059.722022289447
 20
1129.201073968418
 10
2058.910098509791
 20
1128.786158126667
 10
2058.127174109482
 20
1128.338398561375
 10
2057.375325263282
 20
1127.858982650414
 10
2056.656545739172
 20
1127.349181718596
 10
2055.972741611236
 20
1126.810347666345
 10
2055.325726205092
 20
1126.243909384702
 10
2054.717215289286
 20
1125.651368966162
 10
2054.148822525373
 20
1125.034297721394
 10
2053.622055188784
 20
1124.394332012408
 10
2053.138310171798
 20
1123.733168913217
 10
2052.698870279238
 20
1123.052561709505
 10
2052.304900826702
 20
1122.354315249222
 10
2051.957446550352
 20
1121.640281156458
 10
2051.65742883647
 20
1120.912352921265
 10
2051.405643278097
 20
1120.172460878463
 10
2051.202757565272
 20
1119.42256708874
 10
2051.04930971443
 20
1118.664660135618
 10
2050.94570664169
 20
1117.900749852088
 10
2050.896033814259
 20
1117.226154925927
  0
LWPOLYLINE
  5
31A
330
2F0
100
AcDbEntity
  8
0
  6
Continuous
 62
     7
370
    15
100
AcDbPolyline
 90
      122
 70
   128
 43
0.0
 10
2057.553411151759
 20
1105.641410249461
 10
2058.290839332646
 20
1105.14171975799
 10
2059.059405088453
 20
1104.672376549859
 10
2059.857036501783
 20
1104.234645891381
 10
2060.681583299364
 20
1103.82970782702
 10
2061.530822648808
 20
1103.458653998206
 10
2062.402465150972
 20
1103.122484700459
 10
2063.294161011776
 20
1102.822106186774
 10
2064.203506376828
 20
1102.558328224515
 10
2065.128049811793
 20
1102.331861912434
 10
2066.065298911029
 20
1102.143317763671
 10
2067.012727016667
 20
1101.993204059915
 10
2067.967780030038
 20
1101.881925481173
 10
2068.927883297069
 20
1101.809782014818
 10
2069.890448549095
 20
1101.776968146882
 10
2070.852880880377
 20
1101.78357233775
 10
2071.812585743505
 20
1101.829576783693
 10
2072.766975943841
 20
1101.914857464856
 10
2073.713478614141
 20
1102.039184479602
 10
2074.649542150543
 20
1102.202222664279
 10
2075.572643091248
 20
1102.403532496766
 10
2076.48029291932
 20
1102.642571281346
 10
2077.370044771296
 20
1102.918694611716
 10
2078.239500033487
 20
1103.231158108197
 10
2079.086314808225
 20
1103.579119424444
 10
2079.90820623259
 20
1103.961640518268
 10
2080.702958632613
 20
1104.377690180428
 10
2081.468429496332
 20
1104.826146814593
 10
2082.202555249633
 20
1105.305801460961
 10
2082.903356819276
 20
1105.81536105541
 10
2083.56894496813
 20
1106.35345191536
 10
2084.197525388219
 20
1106.918623442987
 10
2084.787403537864
 20
1107.509352035772
 10
2085.33698920986
 20
1108.124045193871
 10
2085.844800818403
 20
1108.761045813203
 10
2086.309469393176
 20
1109.418636652721
 10
2086.729742269852
 20
1110.095044963781
 10
2087.10448646706
 20
1110.788447269164
 10
2087.432691740699
 20
1111.496974278846
 10
2087.713473307375
 20
1112.218715929276
 10
2087.946074229629
 20
1112.951726532565
 10
2088.129867456494
 20
1113.694030021723
 10
2088.264357513927
 20
1114.443625277779
 10
2088.34918184051
 20
1115.198491524451
 10
2088.384111764856
 20
1115.956593775795
 10
2088.369053122064
 20
1116.715888322173
 10
2088.304046507572
 20
1117.474328239729
 10
2088.189267167721
 20
1118.229868908536
 10
2088.025024527317
 20
1118.980473524529
 10
2087.811761355482
 20
1119.724118590368
 10
2087.550052572023
 20
1120.45879937043
 10
2087.240603697549
 20
1121.182535295221
 10
2086.884248951518
 20
1121.893375300645
 10
2086.481949003321
 20
1122.58940308772
 10
2086.034788382493
 20
1123.268742288589
 10
2085.543972555011
 20
1123.929561524872
 10
2085.01082467357
 20
1124.570079344739
 10
2084.436782010601
 20
1125.188569025389
 10
2083.823392083633
 20
1125.783363227993
 10
2083.172308483462
 20
1126.352858492537
 10
2082.485286416366
 20
1126.895519560473
 10
2081.764177972373
 20
1127.409883513504
 10
2081.010927132357
 20
1127.89456371735
 10
2080.227564527411
 20
1128.348253559873
 10
2079.416201964621
 20
1128.769729973468
 10
2078.579026734009
 20
1129.15785673224
 10
2077.718295711985
 20
1129.511587515067
 10
2076.836329277211
 20
1129.829968726298
 10
2075.935505055266
 20
1130.112142066476
 10
2075.018251508987
 20
1130.357346846164
 10
2074.087041391766
 20
1130.564922036628
 10
2073.144385081446
 20
1130.734308051851
 10
2072.192823812778
 20
1130.865048257086
 10
2071.234922826709
 20
1130.956790199852
 10
2070.273264454943
 20
1131.009286560092
 10
2069.310441158432
 20
1131.022395816901
 10
2068.349048538557
 20
1130.996082630038
 10
2067.391678339851
 20
1130.930417935205
 10
2066.440911463107
 20
1130.825578752808
 10
2065.499311007732
 20
1130.681847710748
 10
2064.569415362083
 20
1130.499612282504
 10
2063.653731360414
 20
1130.279363742571
 10
2062.754727524905
 20
1130.021695842074
 10
2061.874827410953
 20
1129.727303208116
 10
2061.016403073703
 20
1129.396979471192
 10
2060.1817686734
 20
1129.031615125695
 10
2059.373174236826
 20
1128.632195129306
 10
2058.592799591624
 20
1128.199796247717
 10
2057.842748489868
 20
1127.735584151868
 10
2057.125042936723
 20
1127.240810275496
 10
2056.44161773947
 20
1126.716808441498
 10
2055.794315291614
 20
1126.164991266175
 10
2055.184880606113
 20
1125.586846351073
 10
2054.614956611132
 20
1124.983932272667
 10
2054.086079721
 20
1124.35787438072
 10
2053.599675694309
 20
1123.710360416622
 10
2053.157055790319
 20
1123.043135963543
 10
2052.759413234038
 20
1122.357999740643
 10
2052.407819999496
 20
1121.656798754048
 10
2052.103223919891
 20
1120.941423317649
 10
2051.846446132403
 20
1120.213801957145
 10
2051.638178864549
 20
1119.475896211082
 10
2051.478983568061
 20
1118.729695342892
 10
2051.369289405314
 20
1117.977210978189
 10
2051.309392092377
 20
1117.220471681782
 10
2051.299453101815
 20
1116.461517489025
 10
2051.339499227391
 20
1115.70239440624
 10
2051.429422511829
 20
1114.945148895047
 10
2051.568980537854
 20
1114.191822355466
 10
2051.7577970817
 20
1113.44444562266
 10
2051.995363127347
 20
1112.705033492167
 10
2052.281038238738
 20
1111.975579288364
 10
2052.614052286279
 20
1111.258049490819
 10
2052.993507522974
 20
1110.554378433008
 10
2053.418381004591
 20
1109.866463087696
 10
2053.887527347342
 20
1109.196157953032
 10
2054.399681815628
 20
1108.545270053152
 10
2054.953463731553
 20
1107.915554066756
 10
2055.547380196978
 20
1107.308707596813
 10
2056.179830118114
 20
1106.726366594117
 10
2056.849108521791
 20
1106.170100947053
 10
2057.553411151759
 20
1105.641410249461
  0
SPLINE
  5
31B
330
2F0
100
AcDbEntity
  8
0
  6
Continuous
 62
     7
370
    15
100
AcDbSpline
210
0.0
220
0.0
230
1.0
 70
     8
 71
     3
 72
    16
 73
    12
 74
     0
 42
0.0000000001
 43
0.0000000001
 40
0.0
 40
0.0
 40
0.0
 40
0.0
 40
0.0718942865877855
 40
0.1973861733917171
 40
0.3131365050130157
 40
0.4297045062057406
 40
0.5465818839253224
 40
0.6632522075866056
 40
0.7792044998505494
 40
0.893946472394361
 40
1.0
 40
1.0
 40
1.0
 40
1.0
 10
2058.28887944245
 20
1105.971054300717
 30
0.0
 10
2058.53423499991
 20
1105.792692569337
 30
0.0
 10
2059.207860080649
 20
1105.302999419748
 30
0.0
 10
2060.397453696528
 20
1104.638365023874
 30
0.0
 10
2061.825278971372
 20
1103.968145498118
 30
0.0
 10
2063.293654626409
 20
1103.422887533021
 30
0.0
 10
2064.822271215259
 20
1102.98570056979
 30
0.0
 10
2066.392698518986
 20
1102.663005863902
 30
0.0
 10
2067.983129062815
 20
1102.460617003495
 30
0.0
 10
2069.541157291313
 20
1102.368102198453
 30
0.0
 10
2070.562081227607
 20
1102.400929018597
 30
0.0
 10
2071.052456188998
 20
1102.416696550426
 30
0.0
  0
SPLINE
  5
31C
330
2F0
100
AcDbEntity
  8
0
  6
Continuous
 62
     7
370
    15
100
AcDbSpline
210
0.0
220
0.0
230
1.0
 70
     8
 71
     3
 72
    46
 73
    42
 74
     0
 42
0.0000000001
 43
0.0000000001
 40
0.0
 40
0.0
 40
0.0
 40
0.0
 40
0.03125
 40
0.03125
 40
0.0624999999999999
 40
0.0624999999999999
 40
0.1249999999999999
 40
0.1249999999999999
 40
0.1875
 40
0.1875
 40
0.25
 40
0.25
 40
0.3125
 40
0.3125
 40
0.34375
 40
0.34375
 40
0.375
 40
0.375
 40
0.4375000000000001
 40
0.4375000000000001
 40
0.5000000000000001
 40
0.5000000000000001
 40
0.5625000000000001
 40
0.5625000000000001
 40
0.5937500000000002
 40
0.5937500000000002
 40
0.6250000000000004
 40
0.6250000000000004
 40
0.6875000000000002
 40
0.6875000000000002
 40
0.7500000000000001
 40
0.7500000000000001
 40
0.8125000000000001
 40
0.8125000000000001
 40
0.875
 40
0.875
 40
0.90625
 40
0.90625
 40
0.9375
 40
0.9375
 40
1.0
 40
1.0
 40
1.0
 40
1.0
 10
2071.150670152521
 20
1102.41841442985
 30
0.0
 10
2070.714456945613
 20
1102.393138310134
 30
0.0
 10
2070.277598546589
 20
1102.381072849176
 30
0.0
 10
2069.402613097904
 20
1102.382918237596
 30
0.0
 10
2068.963837006128
 20
1102.396989018451
 30
0.0
 10
2067.659993968595
 20
1102.477534120299
 30
0.0
 10
2066.802827942121
 20
1102.581972114568
 30
0.0
 10
2065.112069619826
 20
1102.890010333677
 30
0.0
 10
2064.277135492465
 20
1103.094017979348
 30
0.0
 10
2062.637408945782
 20
1103.603979557294
 30
0.0
 10
2061.850845551141
 20
1103.904083014653
 30
0.0
 10
2060.341700991752
 20
1104.590988411606
 30
0.0
 10
2059.619124365583
 20
1104.977796501157
 30
0.0
 10
2058.584598151972
 20
1105.62486458339
 30
0.0
 10
2058.247470574899
 20
1105.852358842682
 30
0.0
 10
2057.600649357584
 20
1106.322145255425
 30
0.0
 10
2057.289547749705
 20
1106.565245935923
 30
0.0
 10
2056.392463406857
 20
1107.31869930085
 30
0.0
 10
2055.842505995804
 20
1107.853073180765
 30
0.0
 10
2054.839824953441
 20
1108.986655101052
 30
0.0
 10
2054.38580843965
 20
1109.589504525901
 30
0.0
 10
2053.605329981014
 20
1110.82289107241
 30
0.0
 10
2053.274638022798
 20
1111.457319626999
 30
0.0
 10
2052.867347252055
 20
1112.435394500819
 30
0.0
 10
2052.746434426811
 20
1112.765842541304
 30
0.0
 10
2052.534955158589
 20
1113.435776847149
 30
0.0
 10
2052.444292483578
 20
1113.776233830331
 30
0.0
 10
2052.222548460373
 20
1114.794952317443
 30
0.0
 10
2052.139865908783
 20
1115.47523723427
 30
0.0
 10
2052.099414925041
 20
1116.837991511519
 30
0.0
 10
2052.141696944462
 20
1117.520461754216
 30
0.0
 10
2052.356447631373
 20
1118.887678886885
 30
0.0
 10
2052.526460110429
 20
1119.556296520621
 30
0.0
 10
2052.986164124026
 20
1120.862374890689
 30
0.0
 10
2053.275933463544
 20
1121.500245155017
 30
0.0
 10
2053.802444477541
 20
1122.433795650836
 30
0.0
 10
2053.994092794021
 20
1122.742138343383
 30
0.0
 10
2054.404131719109
 20
1123.34362053136
 30
0.0
 10
2054.62259123835
 20
1123.637137216516
 30
0.0
 10
2055.317766701067
 20
1124.496295315211
 30
0.0
 10
2055.834062877995
 20
1125.040661239027
 30
0.0
 10
2056.404404844249
 20
1125.555976029611
 30
0.0
  0
SPLINE
  5
31D
330
2F0
100
AcDbEntity
  8
0
  6
Continuous
 62
     7
370
    15
100
AcDbSpline
210
0.0
220
0.0
230
1.0
 70
     8
 71
     3
 72
    23
 73
    19
 74
     0
 42
0.0000000001
 43
0.0000000001
 40
0.0
 40
0.0
 40
0.0
 40
0.0
 40
0.0412717525989046
 40
0.082543505565887
 40
0.1476717984988037
 40
0.213255616239337
 40
0.2795449335911452
 40
0.3468006496305156
 40
0.4121565038979315
 40
0.4775123571966639
 40
0.5438016732079162
 40
0.6110574136499709
 40
0.6764129214717533
 40
0.7417684307038729
 40
0.8080574069146299
 40
0.8753127844071888
 40
0.9404406594941207
 40
1.0
 40
1.0
 40
1.0
 40
1.0
 10
2056.404404844249
 20
1125.555976029611
 30
0.0
 10
2056.616414207799
 20
1125.7334422234
 30
0.0
 10
2057.040432936788
 20
1126.08837461256
 30
0.0
 10
2057.852928892594
 20
1126.681310866125
 30
0.0
 10
2058.85594824428
 20
1127.321700064049
 30
0.0
 10
2060.082841640749
 20
1127.974504880923
 30
0.0
 10
2061.39211801016
 20
1128.548732492825
 30
0.0
 10
2062.760832948406
 20
1129.031265592102
 30
0.0
 10
2064.173395634057
 20
1129.417853183113
 30
0.0
 10
2065.618423249342
 20
1129.708577336627
 30
0.0
 10
2067.107421153561
 20
1129.90384539126
 30
0.0
 10
2068.616057006394
 20
1129.998510387249
 30
0.0
 10
2070.126070581293
 20
1129.991824084893
 30
0.0
 10
2071.626460021696
 20
1129.886137009612
 30
0.0
 10
2073.128835881531
 20
1129.679679288885
 30
0.0
 10
2074.604424040347
 20
1129.371340513439
 30
0.0
 10
2076.00140605645
 20
1128.987782528422
 30
0.0
 10
2076.872030039213
 20
1128.664719487566
 30
0.0
 10
2077.287900984725
 20
1128.510401969418
 30
0.0
  0
SPLINE
  5
31E
330
2F0
100
AcDbEntity
  8
0
  6
Continuous
 62
     7
370
    15
100
AcDbSpline
210
0.0
220
0.0
230
1.0
 70
     8
 71
     3
 72
    21
 73
    17
 74
     0
 42
0.0000000001
 43
0.0000000001
 40
0.0
 40
0.0
 40
0.0
 40
0.0
 40
0.0510216482842405
 40
0.1020432961637745
 40
0.1794643477083974
 40
0.2582704023654185
 40
0.3370764577978243
 40
0.4173162747569604
 40
0.4947373230324309
 40
0.5735354787352467
 40
0.6523353617717268
 40
0.7325475424423848
 40
0.8104207675133887
 40
0.888826774206176
 40
0.9689118984804267
 40
1.0
 40
1.0
 40
1.0
 40
1.0
 10
2071.300188117296
 20
1126.163821112001
 30
0.0
 10
2071.61361668375
 20
1126.135885935901
 30
0.0
 10
2072.240473814173
 20
1126.080015583923
 30
0.0
 10
2073.333719499566
 20
1125.922160438694
 30
0.0
 10
2074.580690434168
 20
1125.675894081899
 30
0.0
 10
2075.962256021531
 20
1125.303287812056
 30
0.0
 10
2077.317769331673
 20
1124.836038468558
 30
0.0
 10
2078.612615402554
 20
1124.283253546945
 30
0.0
 10
2079.845930096761
 20
1123.647581686852
 30
0.0
 10
2081.002274708865
 20
1122.937903703186
 30
0.0
 10
2082.094267476795
 20
1122.146522902133
 30
0.0
 10
2083.095539028699
 20
1121.290033395993
 30
0.0
 10
2084.004781932706
 20
1120.374350877462
 30
0.0
 10
2084.809072137401
 20
1119.402332901414
 30
0.0
 10
2085.392136816009
 20
1118.591215253624
 30
0.0
 10
2085.66511382611
 20
1118.090768185305
 30
0.0
 10
2085.741448185772
 20
1117.950824874728
 30
0.0
  0
LWPOLYLINE
  5
31F
330
2F0
100
AcDbEntity
  8
0
  6
Continuous
 62
     7
370
    15
100
AcDbPolyline
 90
       62
 70
   128
 43
0.0
 10
2051.300347118366
 20
1116.960183622295
 10
2051.352073506345
 20
1117.562221142776
 10
2051.461767669092
 20
1118.31470550748
 10
2051.62096296558
 20
1119.06090637567
 10
2051.829230233434
 20
1119.798812121732
 10
2052.086008020922
 20
1120.526433482237
 10
2052.390604100527
 20
1121.241808918636
 10
2052.74219733507
 20
1121.94300990523
 10
2053.13983989135
 20
1122.62814612813
 10
2053.58245979534
 20
1123.29537058121
 10
2054.068863822031
 20
1123.942884545307
 10
2054.597740712162
 20
1124.568942437255
 10
2055.167664707144
 20
1125.17185651566
 10
2055.777099392645
 20
1125.750001430763
 10
2056.424401840502
 20
1126.301818606085
 10
2057.107827037754
 20
1126.825820440083
 10
2057.825532590899
 20
1127.320594316455
 10
2058.575583692654
 20
1127.784806412305
 10
2059.355958337857
 20
1128.217205293893
 10
2060.164552774431
 20
1128.616625290282
 10
2060.999187174735
 20
1128.981989635779
 10
2061.857611511985
 20
1129.312313372703
 10
2062.737511625936
 20
1129.606706006661
 10
2063.636515461446
 20
1129.864373907158
 10
2064.552199463114
 20
1130.084622447092
 10
2065.482095108764
 20
1130.266857875336
 10
2066.423695564138
 20
1130.410588917395
 10
2067.374462440882
 20
1130.515428099792
 10
2068.331832639589
 20
1130.581092794625
 10
2069.293225259464
 20
1130.607405981488
 10
2070.256048555975
 20
1130.59429672468
 10
2071.217706927741
 20
1130.541800364439
 10
2072.17560791381
 20
1130.450058421673
 10
2073.127169182477
 20
1130.319318216439
 10
2074.069825492798
 20
1130.149932201215
 10
2075.001035610018
 20
1129.942357010751
 10
2075.918289156297
 20
1129.697152231063
 10
2076.819113378243
 20
1129.414978890885
 10
2077.701079813017
 20
1129.096597679654
 10
2078.56181083504
 20
1128.742866896826
 10
2079.398986065652
 20
1128.354740138054
 10
2080.210348628442
 20
1127.93326372446
 10
2080.993711233388
 20
1127.479573881937
 10
2081.746962073404
 20
1126.994893678091
 10
2082.468070517397
 20
1126.48052972506
 10
2083.155092584494
 20
1125.937868657123
 10
2083.806176184664
 20
1125.36837339258
 10
2084.419566111632
 20
1124.773579189977
 10
2084.993608774601
 20
1124.155089509326
 10
2085.526756656042
 20
1123.514571689459
 10
2086.017572483524
 20
1122.853752453176
 10
2086.464733104352
 20
1122.174413252307
 10
2086.867033052548
 20
1121.478385465231
 10
2087.22338779858
 20
1120.767545459808
 10
2087.532836673054
 20
1120.043809535016
 10
2087.794545456513
 20
1119.309128754954
 10
2088.007808628348
 20
1118.565483689116
 10
2088.172051268752
 20
1117.814879073123
 10
2088.286830608603
 20
1117.059338404316
 10
2088.351837223095
 20
1116.30089848676
 10
2088.366895865887
 20
1115.541603940382
 10
2088.36472172054
 20
1115.422563965259
  0
ARC
  5
320
330
2F0
100
AcDbEntity
  8
0
  6
Continuous
 62
     7
370
    15
100
AcDbCircle
 10
2068.350794612413
 20
1111.535456355154
 30
0.0
 40
18.41985886033628
100
AcDbArc
 50
104.1147863137815
 51
130.4331447785643
  0
SPLINE
  5
321
330
2F0
100
AcDbEntity
  8
0
  6
Continuous
 62
     7
370
    15
100
AcDbSpline
210
0.0
220
0.0
230
1.0
 70
     8
 71
     3
 72
    22
 73
    18
 74
     0
 42
0.0000000001
 43
0.0000000001
 40
0.0
 40
0.0
 40
0.0
 40
0.0
 40
0.125
 40
0.125
 40
0.25
 40
0.25
 40
0.375
 40
0.375
 40
0.4375
 40
0.4375
 40
0.5
 40
0.5
 40
0.625
 40
0.625
 40
0.75
 40
0.75
 40
1.0
 40
1.0
 40
1.0
 40
1.0
 10
2085.255393799574
 20
1109.698854509998
 30
0.0
 10
2084.912706452169
 20
1109.182805527691
 30
0.0
 10
2084.529546853515
 20
1108.682691672933
 30
0.0
 10
2083.691585086671
 20
1107.731002507075
 30
0.0
 10
2083.237761988971
 20
1107.279655366378
 30
0.0
 10
2082.260821529141
 20
1106.425681646378
 30
0.0
 10
2081.737589330733
 20
1106.02313580807
 30
0.0
 10
2080.899056357335
 20
1105.457062563375
 30
0.0
 10
2080.610938265634
 20
1105.275017193521
 30
0.0
 10
2080.024084790351
 20
1104.928124388752
 30
0.0
 10
2079.724492368138
 20
1104.762682639469
 30
0.0
 10
2078.807480231279
 20
1104.29003096894
 30
0.0
 10
2078.171894551402
 20
1104.006405168518
 30
0.0
 10
2076.851934686652
 20
1103.502493664508
 30
0.0
 10
2076.163586993894
 20
1103.281489032925
 30
0.0
 10
2074.072622056808
 20
1102.730002551516
 30
0.0
 10
2072.633738037982
 20
1102.504349933008
 30
0.0
 10
2071.150670152521
 20
1102.41841442985
 30
0.0
  0
SPLINE
  5
322
330
2F0
100
AcDbEntity
  8
0
  6
Continuous
 62
     7
370
    15
100
AcDbSpline
210
0.0
220
0.0
230
1.0
 70
     8
 71
     3
 72
    46
 73
    42
 74
     0
 42
0.0000000001
 43
0.0000000001
 40
0.0
 40
0.0
 40
0.0
 40
0.0
 40
0.03125
 40
0.03125
 40
0.0625
 40
0.0625
 40
0.1249999999999999
 40
0.1249999999999999
 40
0.1874999999999998
 40
0.1874999999999998
 40
0.2499999999999997
 40
0.2499999999999997
 40
0.3124999999999996
 40
0.3124999999999996
 40
0.3437499999999996
 40
0.3437499999999996
 40
0.3749999999999996
 40
0.3749999999999996
 40
0.4374999999999995
 40
0.4374999999999995
 40
0.4687499999999994
 40
0.4687499999999994
 40
0.4999999999999993
 40
0.4999999999999993
 40
0.5624999999999993
 40
0.5624999999999993
 40
0.6249999999999992
 40
0.6249999999999992
 40
0.6874999999999993
 40
0.6874999999999993
 40
0.7499999999999995
 40
0.7499999999999995
 40
0.7812499999999993
 40
0.7812499999999993
 40
0.8124999999999992
 40
0.8124999999999992
 40
0.8749999999999996
 40
0.8749999999999996
 40
0.9374999999999996
 40
0.9374999999999996
 40
1.0
 40
1.0
 40
1.0
 40
1.0
 10
2063.858830234842
 20
1129.399203343548
 30
0.0
 10
2064.274066059339
 20
1129.502224558672
 30
0.0
 10
2064.693580113398
 20
1129.593003886368
 30
0.0
 10
2065.54113454062
 20
1129.750165010706
 30
0.0
 10
2065.969807108507
 20
1129.816560512212
 30
0.0
 10
2067.255042130427
 20
1129.977366012216
 30
0.0
 10
2068.114961340338
 20
1130.034623028471
 30
0.0
 10
2069.840883019883
 20
1130.050993652023
 30
0.0
 10
2070.706909860271
 20
1130.009714077209
 30
0.0
 10
2072.445346035532
 20
1129.824183856984
 30
0.0
 10
2073.29920897247
 20
1129.681710542051
 30
0.0
 10
2074.96741544436
 20
1129.302850513383
 30
0.0
 10
2075.783465820687
 20
1129.06627188437
 30
0.0
 10
2076.979937079356
 20
1128.639309834649
 30
0.0
 10
2077.375716969092
 20
1128.484224810512
 30
0.0
 10
2078.149223171068
 20
1128.152833511849
 30
0.0
 10
2078.52637068065
 20
1127.976919227154
 30
0.0
 10
2079.629702309546
 20
1127.419271391358
 30
0.0
 10
2080.327921999487
 20
1127.007788677002
 30
0.0
 10
2081.319297601912
 20
1126.331039604965
 30
0.0
 10
2081.640427454025
 20
1126.09553252776
 30
0.0
 10
2082.263199820308
 20
1125.603787322834
 30
0.0
 10
2082.564649119412
 20
1125.347551460917
 30
0.0
 10
2083.424521003494
 20
1124.5608201452
 30
0.0
 10
2083.944178867747
 20
1124.008266671
 30
0.0
 10
2084.878473906423
 20
1122.848158786714
 30
0.0
 10
2085.293907339936
 20
1122.239217001623
 30
0.0
 10
2086.011570452487
 20
1120.969530379587
 30
0.0
 10
2086.306503168747
 20
1120.322248216763
 30
0.0
 10
2086.773485007658
 20
1119.003762786918
 30
0.0
 10
2086.945525961546
 20
1118.332557929726
 30
0.0
 10
2087.108858004132
 20
1117.307310171128
 30
0.0
 10
2087.14737185303
 20
1116.961649457623
 30
0.0
 10
2087.191210521828
 20
1116.275478230886
 30
0.0
 10
2087.19666641222
 20
1115.933670298168
 30
0.0
 10
2087.164408023497
 20
1114.912020228998
 30
0.0
 10
2087.078443693476
 20
1114.235922640552
 30
0.0
 10
2086.776328545906
 20
1112.89383086341
 30
0.0
 10
2086.557982427515
 20
1112.224491366929
 30
0.0
 10
2085.999146843707
 20
1110.932473600545
 30
0.0
 10
2085.65845272113
 20
1110.305816359784
 30
0.0
 10
2085.255393799574
 20
1109.698854509998
 30
0.0
  0
LINE
  5
323
330
2F0
100
AcDbEntity
  8
0
  6
Continuous
 62
     7
370
    15
100
AcDbLine
 10
2046.067177384325
 20
1106.006665730634
 30
0.0
 11
2062.899566722931
 21
1094.000185441466
 31
0.0
  0
SPLINE
  5
324
330
2F0
100
AcDbEntity
  8
0
  6
Continuous
 62
     7
370
    15
100
AcDbSpline
210
0.0
220
0.0
230
1.0
 70
     8
 71
     3
 72
    22
 73
    18
 74
     0
 42
0.0000000001
 43
0.0000000001
 40
0.0
 40
0.0
 40
0.0
 40
0.0
 40
0.1249999999999999
 40
0.1249999999999999
 40
0.2499999999999997
 40
0.2499999999999997
 40
0.3749999999999996
 40
0.3749999999999996
 40
0.4374999999999998
 40
0.4374999999999998
 40
0.4999999999999999
 40
0.4999999999999999
 40
0.6249999999999999
 40
0.6249999999999999
 40
0.7499999999999997
 40
0.7499999999999997
 40
1.0
 40
1.0
 40
1.0
 40
1.0
 10
2055.731683833793
 20
1120.851532659815
 30
0.0
 10
2056.180752419642
 20
1121.316741735095
 30
0.0
 10
2056.666966033117
 20
1121.760835440693
 30
0.0
 10
2057.701093207167
 20
1122.590860688297
 30
0.0
 10
2058.248014341237
 20
1122.976750038773
 30
0.0
 10
2059.400831090809
 20
1123.691004592164
 30
0.0
 10
2060.006713499682
 20
1124.019382676924
 30
0.0
 10
2060.961133929623
 20
1124.467474330186
 30
0.0
 10
2061.286218269704
 20
1124.609009758333
 30
0.0
 10
2061.943443051029
 20
1124.873698305533
 30
0.0
 10
2062.276517114351
 20
1124.997300622883
 30
0.0
 10
2063.28894884416
 20
1125.342225528393
 30
0.0
 10
2063.981465194915
 20
1125.537765713636
 30
0.0
 10
2065.401926314189
 20
1125.85942958906
 30
0.0
 10
2066.133698330746
 20
1125.98565328345
 30
0.0
 10
2068.3295639255
 20
1126.249823866011
 30
0.0
 10
2069.807917287971
 20
1126.278067465102
 30
0.0
 10
2071.300188117296
 20
1126.163821112001
 30
0.0
  0
SPLINE
  5
325
330
2F0
100
AcDbEntity
  8
0
  6
Continuous
 62
     7
370
    15
100
AcDbSpline
210
0.0
220
0.0
230
1.0
 70
     8
 71
     3
 72
    20
 73
    16
 74
     0
 42
0.0000000001
 43
0.0000000001
 40
0.0
 40
0.0
 40
0.0
 40
0.0
 40
0.0352257545315042
 40
0.1189062171524913
 40
0.2031753225184658
 40
0.2877155971003249
 40
0.3722033865822518
 40
0.4563162375647277
 40
0.5397402112185814
 40
0.622176719635749
 40
0.7038804605924444
 40
0.7865898305856705
 40
0.8702140591973817
 40
0.9544501349878558
 40
1.0
 40
1.0
 40
1.0
 40
1.0
 10
2079.657493301815
 20
1124.295742668273
 30
0.0
 10
2079.488483742963
 20
1124.398048577484
 30
0.0
 10
2078.917983903489
 20
1124.743387061168
 30
0.0
 10
2077.86662020927
 20
1125.246235194499
 30
0.0
 10
2076.514898497213
 20
1125.799491043967
 30
0.0
 10
2075.10229660095
 20
1126.254815843678
 30
0.0
 10
2073.650530387815
 20
1126.612816071518
 30
0.0
 10
2072.174937863074
 20
1126.868491355268
 30
0.0
 10
2070.693061604417
 20
1127.021280495572
 30
0.0
 10
2069.218269687322
 20
1127.072633083521
 30
0.0
 10
2067.751579320608
 20
1127.024452733256
 30
0.0
 10
2066.291488273561
 20
1126.878885390172
 30
0.0
 10
2064.844644466227
 20
1126.627570091744
 30
0.0
 10
2063.63533191573
 20
1126.344335054551
 30
0.0
 10
2062.933399129875
 20
1126.107748017545
 30
0.0
 10
2062.687047765116
 20
1126.024715082447
 30
0.0
  0
SPLINE
  5
326
330
2F0
100
AcDbEntity
  8
0
  6
Continuous
 62
     7
370
    15
100
AcDbSpline
210
0.0
220
0.0
230
1.0
 70
     8
 71
     3
 72
    19
 73
    15
 74
     0
 42
0.0000000001
 43
0.0000000001
 40
0.0
 40
0.0
 40
0.0
 40
0.0
 40
0.0381772129634799
 40
0.1297138848621126
 40
0.2210520951309004
 40
0.3118455689233404
 40
0.4017603245955933
 40
0.4904829590682425
 40
0.5792807157969739
 40
0.6692544378866114
 40
0.7600882315732129
 40
0.8514472128195373
 40
0.9429846336839201
 40
1.0
 40
1.0
 40
1.0
 40
1.0
 10
2076.558035858771
 20
1126.70557260715
 30
0.0
 10
2076.36677263267
 20
1126.778662202558
 30
0.0
 10
2075.716921735683
 20
1127.026997128746
 30
0.0
 10
2074.55682421417
 20
1127.349562006063
 30
0.0
 10
2073.095753893825
 20
1127.670857484722
 30
0.0
 10
2071.614935948554
 20
1127.883782956933
 30
0.0
 10
2070.135401998454
 20
1127.995575568516
 30
0.0
 10
2068.663903119622
 20
1128.006451143575
 30
0.0
 10
2067.200026483876
 20
1127.918948218098
 30
0.0
 10
2065.743593825425
 20
1127.731560662096
 30
0.0
 10
2064.302728080862
 20
1127.443704850487
 30
0.0
 10
2062.898035335392
 20
1127.051590616857
 30
0.0
 10
2061.703436447986
 20
1126.636011189581
 30
0.0
 10
2061.009208427055
 20
1126.3146255557
 30
0.0
 10
2060.742759943175
 20
1126.191276004391
 30
0.0
  0
SPLINE
  5
327
330
2F0
100
AcDbEntity
  8
0
  6
Continuous
 62
     7
370
    15
100
AcDbSpline
210
0.0
220
0.0
230
1.0
 70
     8
 71
     3
 72
    17
 73
    13
 74
     0
 42
0.0000000001
 43
0.0000000001
 40
0.0
 40
0.0
 40
0.0
 40
0.0
 40
0.0371603125816889
 40
0.1515173337921755
 40
0.2658875719006905
 40
0.3798336169307041
 40
0.4929277144772557
 40
0.6047611806671787
 40
0.7152982701299601
 40
0.8269320744204675
 40
0.9398796385442205
 40
1.0
 40
1.0
 40
1.0
 40
1.0
 10
2077.28805551085
 20
1127.381982440117
 30
0.0
 10
2077.142697983981
 20
1127.44466358792
 30
0.0
 10
2076.550017691818
 20
1127.700239489584
 30
0.0
 10
2075.452609175141
 20
1128.053770628753
 30
0.0
 10
2074.01029763583
 20
1128.435894390386
 30
0.0
 10
2072.537097550791
 20
1128.709972797462
 30
0.0
 10
2071.055300373865
 20
1128.882916726855
 30
0.0
 10
2069.57901372819
 20
1128.953116627458
 30
0.0
 10
2068.110320675559
 20
1128.925126382907
 30
0.0
 10
2066.650944507959
 20
1128.79389498478
 30
0.0
 10
2065.424485659911
 20
1128.614077899019
 30
0.0
 10
2064.703350779738
 20
1128.439583852946
 30
0.0
 10
2064.452842838944
 20
1128.378968085543
 30
0.0
  0
LINE
  5
328
330
2F0
100
AcDbEntity
  8
0
  6
Continuous
 62
     7
370
    15
100
AcDbLine
 10
2090.009246581507
 20
1100.725959035836
 30
0.0
 11
2094.490186294872
 21
1118.020167785601
 31
0.0
  0
SPLINE
  5
329
330
2F0
100
AcDbEntity
  8
0
  6
Continuous
 62
     8
370
    15
100
AcDbSpline
210
0.0
220
0.0
230
1.0
 70
     8
 71
     3
 72
    22
 73
    18
 74
     0
 42
0.0000000001
 43
0.0000000001
 40
0.0
 40
0.0
 40
0.0
 40
0.0
 40
0.0646261313264829
 40
0.1284032246376154
 40
0.1928606616676533
 40
0.2581356262130112
 40
0.3239203577960988
 40
0.392824325176041
 40
0.4615586416097015
 40
0.5297550112761409
 40
0.59706223258011
 40
0.6637026288692894
 40
0.7312979646948083
 40
0.8002334432133658
 40
0.8696069943938004
 40
0.9390384958483227
 40
1.0
 40
1.0
 40
1.0
 40
1.0
 10
2071.300188117296
 20
1126.163821112001
 30
0.0
 10
2070.739235248605
 20
1126.206539425338
 30
0.0
 10
2069.624699135562
 20
1126.291414832097
 30
0.0
 10
2067.947203289014
 20
1126.254988907969
 30
0.0
 10
2066.281614148254
 20
1126.09962058528
 30
0.0
 10
2064.631383045874
 20
1125.810719984611
 30
0.0
 10
2062.994319665801
 20
1125.385146906221
 30
0.0
 10
2061.398615004537
 20
1124.819620370391
 30
0.0
 10
2059.873772768159
 20
1124.116786499603
 30
0.0
 10
2058.465651346168
 20
1123.297936671105
 30
0.0
 10
2057.189501860646
 20
1122.377107012933
 30
0.0
 10
2056.046015766151
 20
1121.359768196126
 30
0.0
 10
2055.03575574482
 20
1120.245779634384
 30
0.0
 10
2054.167980765704
 20
1119.037548483229
 30
0.0
 10
2053.467605892681
 20
1117.75008360256
 30
0.0
 10
2052.948961046594
 20
1116.46269265201
 30
0.0
 10
2052.758263535921
 20
1115.593805128696
 30
0.0
 10
2052.669108392709
 20
1115.1875817265
 30
0.0
  0
SPLINE
  5
32A
330
2F0
100
AcDbEntity
  8
0
  6
Continuous
 62
     8
370
    15
100
AcDbSpline
210
0.0
220
0.0
230
1.0
 70
     8
 71
     3
 72
    37
 73
    33
 74
     0
 42
0.0000000001
 43
0.0000000001
 40
0.0
 40
0.0
 40
0.0
 40
0.0
 40
0.0214513372199844
 40
0.0561647921660024
 40
0.0913054228259894
 40
0.1266875373596313
 40
0.1621176148755467
 40
0.1967734739333573
 40
0.2311070140022095
 40
0.2649478254156583
 40
0.2986978526475767
 40
0.3335888605412705
 40
0.3688401998175748
 40
0.4042626091818916
 40
0.4396612458123784
 40
0.4748420473257739
 40
0.5090021503370648
 40
0.5426703654511029
 40
0.5766385538176287
 40
0.6110615272794568
 40
0.6463980411796882
 40
0.6818344556326532
 40
0.7171754673141866
 40
0.7522288991792705
 40
0.7868118473506448
 40
0.8204830154498464
 40
0.8546492153467493
 40
0.8892037497487443
 40
0.9239694069039758
 40
0.9593934743465073
 40
0.9946509323000569
 40
1.0
 40
1.0
 40
1.0
 40
1.0
 10
2086.902091748875
 20
1113.824842477085
 30
0.0
 10
2086.884687969952
 20
1114.116239026009
 30
0.0
 10
2086.839120664932
 20
1114.87918571042
 30
0.0
 10
2086.560808831276
 20
1116.107943211402
 30
0.0
 10
2086.087006377917
 20
1117.496411834399
 30
0.0
 10
2085.422705977016
 20
1118.849797062785
 30
0.0
 10
2084.591413479041
 20
1120.137906510636
 30
0.0
 10
2083.608212877358
 20
1121.341242568434
 30
0.0
 10
2082.495563769787
 20
1122.444132856332
 30
0.0
 10
2081.262458359239
 20
1123.445432122625
 30
0.0
 10
2079.90532515501
 20
1124.351047566585
 30
0.0
 10
2078.422753382078
 20
1125.156627769491
 30
0.0
 10
2076.821738918918
 20
1125.849238367312
 30
0.0
 10
2075.134906603306
 20
1126.410119709703
 30
0.0
 10
2073.389594752377
 20
1126.829167598678
 30
0.0
 10
2071.625330985754
 20
1127.099359287924
 30
0.0
 10
2069.870522984187
 20
1127.223298022363
 30
0.0
 10
2068.13496844725
 20
1127.20722726411
 30
0.0
 10
2066.411008418746
 20
1127.054071684945
 30
0.0
 10
2064.69332647633
 20
1126.759272669888
 30
0.0
 10
2063.005339867311
 20
1126.319476095264
 30
0.0
 10
2061.376709924636
 20
1125.736623038958
 30
0.0
 10
2059.844238194851
 20
1125.022881756025
 30
0.0
 10
2058.431371375858
 20
1124.192002622217
 30
0.0
 10
2057.160282226305
 20
1123.263455334076
 30
0.0
 10
2056.029278404123
 20
1122.244854704218
 30
0.0
 10
2055.037886510583
 20
1121.140676410457
 30
0.0
 10
2054.19044583933
 20
1119.947909843979
 30
0.0
 10
2053.493651846711
 20
1118.675628029974
 30
0.0
 10
2052.986118040761
 20
1117.340087561447
 30
0.0
 10
2052.704940310984
 20
1116.3537967867
 30
0.0
 10
2052.650497331256
 20
1115.81661519649
 30
0.0
 10
2052.643325597658
 20
1115.74585266148
 30
0.0
  0
SPLINE
  5
32B
330
2F0
100
AcDbEntity
  8
0
  6
Continuous
 62
     8
370
    15
100
AcDbSpline
210
0.0
220
0.0
230
1.0
 70
     8
 71
     3
 72
    37
 73
    33
 74
     0
 42
0.0000000001
 43
0.0000000001
 40
0.0
 40
0.0
 40
0.0
 40
0.0
 40
0.0250873447982949
 40
0.0588303454862772
 40
0.0936030354947826
 40
0.1286134320652216
 40
0.1636700218154094
 40
0.1985797754029069
 40
0.2331544618422888
 40
0.2666142990590968
 40
0.3000308350276448
 40
0.3339531908766966
 40
0.3682152134768655
 40
0.4032650178899253
 40
0.438290034410724
 40
0.4730982705027759
 40
0.5075047777312955
 40
0.5414191668387899
 40
0.5750523121872488
 40
0.609128328787615
 40
0.643475414078893
 40
0.6779133266541675
 40
0.7128808651707172
 40
0.7475626327442468
 40
0.7817777305815024
 40
0.8157056456734533
 40
0.8501419459433792
 40
0.8843452044483505
 40
0.9187496314523665
 40
0.9531731748245563
 40
0.9874331767880633
 40
1.0
 40
1.0
 40
1.0
 40
1.0
 10
2086.953389281876
 20
1114.641674551159
 30
0.0
 10
2086.931994163563
 20
1114.986090163193
 30
0.0
 10
2086.881822166001
 20
1115.79375193887
 30
0.0
 10
2086.595598799346
 20
1117.066671655658
 30
0.0
 10
2086.122029166228
 20
1118.446826350417
 30
0.0
 10
2085.456916965955
 20
1119.799923324426
 30
0.0
 10
2084.619492603646
 20
1121.095232069663
 30
0.0
 10
2083.622198019462
 20
1122.311641480588
 30
0.0
 10
2082.491641612846
 20
1123.424576049423
 30
0.0
 10
2081.24589005773
 20
1124.427634086243
 30
0.0
 10
2079.892106803729
 20
1125.323375021837
 30
0.0
 10
2078.423595124899
 20
1126.115592882657
 30
0.0
 10
2076.840053790928
 20
1126.798086478835
 30
0.0
 10
2075.162702716495
 20
1127.354765233585
 30
0.0
 10
2073.417102866479
 20
1127.772861055313
 30
0.0
 10
2071.642379960072
 20
1128.043671708413
 30
0.0
 10
2069.866545441595
 20
1128.166853028742
 30
0.0
 10
2068.109949931649
 20
1128.145851744061
 30
0.0
 10
2066.376184577114
 20
1127.9858055981
 30
0.0
 10
2064.67006452323
 20
1127.686729915486
 30
0.0
 10
2063.004212340028
 20
1127.247526794861
 30
0.0
 10
2061.396260908903
 20
1126.669535903582
 30
0.0
 10
2059.873638202541
 20
1125.959243725054
 30
0.0
 10
2058.461620726631
 20
1125.127651718673
 30
0.0
 10
2057.183840860167
 20
1124.192914468981
 30
0.0
 10
2056.041065407848
 20
1123.16035095118
 30
0.0
 10
2055.04244076806
 20
1122.03963339488
 30
0.0
 10
2054.196242949425
 20
1120.836305133056
 30
0.0
 10
2053.511907920508
 20
1119.568869857111
 30
0.0
 10
2053.012251724683
 20
1118.2483514074
 30
0.0
 10
2052.723053234271
 20
1117.181487845344
 30
0.0
 10
2052.664960723892
 20
1116.554858852948
 30
0.0
 10
2052.649370550841
 20
1116.38669165952
 30
0.0
  0
SPLINE
  5
32C
330
2F0
100
AcDbEntity
  8
0
  6
Continuous
 62
     8
370
    15
100
AcDbSpline
210
0.0
220
0.0
230
1.0
 70
     8
 71
     3
 72
    48
 73
    44
 74
     0
 42
0.0000000001
 43
0.0000000001
 40
0.0
 40
0.0
 40
0.0
 40
0.0
 40
0.009195743167639
 40
0.0342935391980064
 40
0.0586836805663494
 40
0.0834134685662026
 40
0.1084357765677662
 40
0.1336227962652938
 40
0.1592991242973792
 40
0.1848669865624256
 40
0.2101885544233572
 40
0.2351338825581535
 40
0.2600678046387647
 40
0.2849269196784793
 40
0.3100293532281914
 40
0.3352448011507598
 40
0.3604393985318679
 40
0.3859325772017971
 40
0.4111306570701538
 40
0.4359697863337084
 40
0.4610572506962573
 40
0.4864778121113888
 40
0.5116403314196935
 40
0.5368636182893685
 40
0.562013559058718
 40
0.5869583585520936
 40
0.6120159457957938
 40
0.6368670922071695
 40
0.6620916416728975
 40
0.6876014756724621
 40
0.7132606434322366
 40
0.7384711415829282
 40
0.7635561558656349
 40
0.7883859267579414
 40
0.8128423610490745
 40
0.837819961999579
 40
0.8631644803849534
 40
0.8887452458879506
 40
0.9144240105815299
 40
0.9400593215088919
 40
0.9650594535534544
 40
0.9897554515277509
 40
1.0
 40
1.0
 40
1.0
 40
1.0
 10
2086.881970852422
 20
1113.383663762543
 30
0.0
 10
2086.913214130041
 20
1113.553860672807
 30
0.0
 10
2087.029729189906
 20
1114.188573311809
 30
0.0
 10
2087.042246252378
 20
1115.292404256325
 30
0.0
 10
2086.925617908155
 20
1116.682390952657
 30
0.0
 10
2086.623059856237
 20
1118.058850203061
 30
0.0
 10
2086.145156607759
 20
1119.421371901264
 30
0.0
 10
2085.486301411778
 20
1120.757734482693
 30
0.0
 10
2084.652461563837
 20
1122.044899650557
 30
0.0
 10
2083.654261086818
 20
1123.260732085394
 30
0.0
 10
2082.516233629887
 20
1124.379489086534
 30
0.0
 10
2081.25345160091
 20
1125.393137250015
 30
0.0
 10
2079.879125893015
 20
1126.296372146793
 30
0.0
 10
2078.396956932253
 20
1127.088661333112
 30
0.0
 10
2076.818950980404
 20
1127.761802205079
 30
0.0
 10
2075.159379819043
 20
1128.307287940987
 30
0.0
 10
2073.433965106142
 20
1128.718166108055
 30
0.0
 10
2071.6697939497
 20
1128.986389490306
 30
0.0
 10
2069.894002448612
 20
1129.108614400971
 30
0.0
 10
2068.126878145523
 20
1129.086553450435
 30
0.0
 10
2066.372103633247
 20
1128.9223246852
 30
0.0
 10
2064.646368694327
 20
1128.61479677967
 30
0.0
 10
2062.972924757321
 20
1128.166978698209
 30
0.0
 10
2061.378094590617
 20
1127.586800618765
 30
0.0
 10
2059.877226521286
 20
1126.880913781564
 30
0.0
 10
2058.48415926481
 20
1126.05764381645
 30
0.0
 10
2057.214987598456
 20
1125.127904208834
 30
0.0
 10
2056.073053719849
 20
1124.094718300166
 30
0.0
 10
2055.069471631203
 20
1122.966552988445
 30
0.0
 10
2054.214758817045
 20
1121.747392601315
 30
0.0
 10
2053.530491825434
 20
1120.46225828338
 30
0.0
 10
2053.025843848983
 20
1119.132845216454
 30
0.0
 10
2052.703913173546
 20
1117.781580802632
 30
0.0
 10
2052.562665664809
 20
1116.422265479342
 30
0.0
 10
2052.598012954281
 20
1115.057293129671
 30
0.0
 10
2052.811426342522
 20
1113.690008850595
 30
0.0
 10
2053.20958616639
 20
1112.324815103069
 30
0.0
 10
2053.792307195937
 20
1110.984734086372
 30
0.0
 10
2054.554250239965
 20
1109.693101236175
 30
0.0
 10
2055.475457353898
 20
1108.476388810372
 30
0.0
 10
2056.544689798597
 20
1107.359784736207
 30
0.0
 10
2057.48474424921
 20
1106.523366604173
 30
0.0
 10
2058.106562641297
 20
1106.096276792221
 30
0.0
 10
2058.28887944245
 20
1105.971054300717
 30
0.0
  0
LINE
  5
32D
330
2F0
100
AcDbEntity
  8
0
  6
Continuous
 62
     8
370
    15
100
AcDbLine
 10
2071.052456188998
 20
1102.416696550426
 30
0.0
 11
2071.150670152521
 21
1102.41841442985
 31
0.0
  0
ENDBLK
  5
2F2
330
2F0
100
AcDbEntity
  8
0
100
AcDbBlockEnd
  0
ENDSEC
  0
SECTION
  2
ENTITIES
  0
INSERT
  5
2D3
330
1F
100
AcDbEntity
  8
0
100
AcDbBlockReference
  2
1
 10
0.0
 20
0.0
 30
0.0
  0
INSERT
  5
2EF
330
1F
100
AcDbEntity
  8
0
100
AcDbBlockReference
  2
2
 10
0.0
 20
0.0
 30
0.0
  0
INSERT
  5
32E
330
1F
100
AcDbEntity
  8
0
100
AcDbBlockReference
  2
3
 10
0.0
 20
0.0
 30
0.0
  0
ENDSEC
  0
SECTION
  2
OBJECTS
  0
DICTIONARY
  5
C
330
0
100
AcDbDictionary
281
     1
  3
ACAD_COLOR
350
6B
  3
ACAD_GROUP
350
D
  3
ACAD_LAYOUT
350
1A
  3
ACAD_MATERIAL
350
6A
  3
ACAD_MLEADERSTYLE
350
12D
  3
ACAD_MLINESTYLE
350
17
  3
ACAD_PLOTSETTINGS
350
19
  3
ACAD_PLOTSTYLENAME
350
E
  3
ACAD_SCALELIST
350
10C
  3
ACAD_TABLESTYLE
350
7E
  3
ACAD_VISUALSTYLE
350
EF
  3
ACDB_RECOMPOSE_DATA
350
15D
  3
AcDbVariableDictionary
350
5E
  3
DWGPROPS
350
33C
  0
DICTIONARY
  5
13C
330
10
100
AcDbDictionary
280
     1
281
     1
  3
ADSK_XREC_LAYER_RECONCILED
360
32F
  0
DICTIONARY
  5
6B
102
{ACAD_REACTORS
330
C
102
}
330
C
100
AcDbDictionary
281
     1
  0
DICTIONARY
  5
D
102
{ACAD_REACTORS
330
C
102
}
330
C
100
AcDbDictionary
281
     1
  0
DICTIONARY
  5
1A
102
{ACAD_REACTORS
330
C
102
}
330
C
100
AcDbDictionary
281
     1
  3
Layout1
350
D3
  3
Layout2
350
D7
  3
Model
350
22
  0
DICTIONARY
  5
6A
102
{ACAD_REACTORS
330
C
102
}
330
C
100
AcDbDictionary
281
     1
  3
ByBlock
350
ED
  3
ByLayer
350
EC
  3
Global
350
EE
  0
DICTIONARY
  5
12D
102
{ACAD_REACTORS
330
C
102
}
330
C
100
AcDbDictionary
281
     1
  3
Annotative
350
13B
  3
Standard
350
12E
  0
DICTIONARY
  5
17
102
{ACAD_REACTORS
330
C
102
}
330
C
100
AcDbDictionary
281
     1
  3
Standard
350
18
  0
DICTIONARY
  5
19
102
{ACAD_REACTORS
330
C
102
}
330
C
100
AcDbDictionary
281
     1
  0
ACDBDICTIONARYWDFLT
  5
E
102
{ACAD_REACTORS
330
C
102
}
330
C
100
AcDbDictionary
281
     1
  3
Normal
350
F
100
AcDbDictionaryWithDefault
340
F
  0
DICTIONARY
  5
10C
102
{ACAD_REACTORS
330
C
102
}
330
C
100
AcDbDictionary
281
     1
  3
A0
350
10D
  3
A1
350
188
  3
A2
350
189
  3
A3
350
18A
  3
A4
350
18B
  3
A5
350
18C
  3
A6
350
18D
  3
A7
350
18E
  3
A8
350
18F
  3
A9
350
190
  3
B0
350
191
  3
B1
350
192
  3
B2
350
193
  3
B3
350
194
  3
B4
350
195
  3
B5
350
196
  3
B6
350
197
  3
B7
350
198
  3
B8
350
199
  3
B9
350
19A
  3
C0
350
19B
  3
C1
350
19C
  3
C2
350
19D
  3
C3
350
19E
  3
C4
350
19F
  3
C5
350
1A0
  3
C6
350
1A1
  3
C7
350
1A2
  3
C8
350
1A3
  3
C9
350
1A4
  3
D0
350
1A5
  3
D1
350
1A6
  3
D2
350
1A7
  0
DICTIONARY
  5
7E
102
{ACAD_REACTORS
330
C
102
}
330
C
100
AcDbDictionary
281
     1
  3
Standard
350
7F
  0
DICTIONARY
  5
EF
102
{ACAD_REACTORS
330
C
102
}
330
C
100
AcDbDictionary
281
     1
  3
2dWireframe
350
F5
  3
3D Hidden
350
F7
  3
3dWireframe
350
F6
  3
Basic
350
F4
  3
Brighten
350
FB
  3
ColorChange
350
FF
  3
Conceptual
350
F8
  3
Dim
350
FA
  3
Facepattern
350
FE
  3
Flat
350
F0
  3
FlatWithEdges
350
F1
  3
Gouraud
350
F2
  3
GouraudWithEdges
350
F3
  3
Linepattern
350
FD
  3
Realistic
350
F9
  3
Thicken
350
FC
  0
XRECORD
  5
15D
102
{ACAD_REACTORS
330
C
102
}
330
C
100
AcDbXrecord
280
     1
 90
        1
330
7F
  0
DICTIONARY
  5
5E
102
{ACAD_REACTORS
330
C
102
}
330
C
100
AcDbDictionary
281
     1
  3
CANNOSCALE
350
146
  3
CMLEADERSTYLE
350
145
  3
CTABLESTYLE
350
84
  3
DIMASSOC
350
5F
  3
HIDETEXT
350
63
  3
INDEXCTL
350
338
  3
LIGHTINGUNITS
350
336
  3
MSLTSCALE
350
335
  3
PSOLHEIGHT
350
33A
  3
PSOLWIDTH
350
339
  3
SORTENTS
350
337
  0
XRECORD
  5
33C
102
{ACAD_REACTORS
330
C
102
}
330
C
100
AcDbXrecord
280
     1
  1
DWGPROPS COOKIE
  2

  3

  4

  6

  7

  8
orhan kara
  9

300
=
301
=
302
=
303
=
304
=
305
=
306
=
307
=
308
=
309
=
 40
0.000262662037037
 41
2459067.67583985
 42
2459067.689769907
  1

 90
        0
  0
XRECORD
  5
32F
102
{ACAD_REACTORS
330
13C
102
}
330
13C
100
AcDbXrecord
280
     1
290
     1
  0
LAYOUT
  5
D3
102
{ACAD_XDICTIONARY
360
340
102
}
102
{ACAD_REACTORS
330
1A
102
}
330
1A
100
AcDbPlotSettings
  1

  2
C:\Documents and Settings\basas\Application Data\Autodesk\AutoCAD 2005\R16.1\enu\plotters\Default Windows System Printer.pc3
  4

  6

 40
0.0
 41
0.0
 42
0.0
 43
0.0
 44
0.0
 45
0.0
 46
0.0
 47
0.0
 48
0.0
 49
0.0
140
0.0
141
0.0
142
1.0
143
1.0
 70
   688
 72
     0
 73
     0
 74
     5
  7

 75
    16
147
1.0
148
0.0
149
0.0
100
AcDbLayout
  1
Layout1
 70
     1
 71
     1
 10
0.0
 20
0.0
 11
12.0
 21
9.0
 12
0.0
 22
0.0
 32
0.0
 14
0.0
 24
0.0
 34
0.0
 15
0.0
 25
0.0
 35
0.0
146
0.0
 13
0.0
 23
0.0
 33
0.0
 16
1.0
 26
0.0
 36
0.0
 17
0.0
 27
1.0
 37
0.0
 76
     0
330
D2
  0
LAYOUT
  5
D7
102
{ACAD_XDICTIONARY
360
342
102
}
102
{ACAD_REACTORS
330
1A
102
}
330
1A
100
AcDbPlotSettings
  1

  2
C:\Documents and Settings\basas\Application Data\Autodesk\AutoCAD 2005\R16.1\enu\plotters\Default Windows System Printer.pc3
  4

  6

 40
0.0
 41
0.0
 42
0.0
 43
0.0
 44
0.0
 45
0.0
 46
0.0
 47
0.0
 48
0.0
 49
0.0
140
0.0
141
0.0
142
1.0
143
1.0
 70
   688
 72
     0
 73
     0
 74
     5
  7

 75
    16
147
1.0
148
0.0
149
0.0
100
AcDbLayout
  1
Layout2
 70
     1
 71
     2
 10
0.0
 20
0.0
 11
12.0
 21
9.0
 12
0.0
 22
0.0
 32
0.0
 14
0.0
 24
0.0
 34
0.0
 15
0.0
 25
0.0
 35
0.0
146
0.0
 13
0.0
 23
0.0
 33
0.0
 16
1.0
 26
0.0
 36
0.0
 17
0.0
 27
1.0
 37
0.0
 76
     0
330
D6
  0
LAYOUT
  5
22
102
{ACAD_XDICTIONARY
360
33D
102
}
102
{ACAD_REACTORS
330
1A
102
}
330
1A
100
AcDbPlotSettings
  1

  2
none_device
  4
ISO_A4_(210.00_x_297.00_MM)
  6

 40
7.5
 41
20.0
 42
7.5
 43
20.0
 44
210.0
 45
297.0
 46
11.54999923706054
 47
-13.65000009536743
 48
0.0
 49
0.0
140
0.0
141
0.0
142
1.0
143
8.704084754739808
 70
 11952
 72
     1
 73
     0
 74
     0
  7

 75
     0
147
0.1148885871608098
148
0.0
149
0.0
100
AcDbLayout
  1
Model
 70
     1
 71
     0
 10
0.0
 20
0.0
 11
12.0
 21
9.0
 12
0.0
 22
0.0
 32
0.0
 14
0.0
 24
0.0
 34
0.0
 15
0.0
 25
0.0
 35
0.0
146
0.0
 13
0.0
 23
0.0
 33
0.0
 16
1.0
 26
0.0
 36
0.0
 17
0.0
 27
1.0
 37
0.0
 76
     0
330
1F
331
EA
1001
ACAD_PSEXT
1000
None
1000
None
1000
Not applicable
1000
The layout will not be plotted unless a new plotter configuration name is selected.
1070
     0
  0
MATERIAL
  5
ED
102
{ACAD_XDICTIONARY
360
346
102
}
102
{ACAD_REACTORS
330
6A
102
}
330
6A
100
AcDbMaterial
  1
ByBlock
  0
MATERIAL
  5
EC
102
{ACAD_XDICTIONARY
360
344
102
}
102
{ACAD_REACTORS
330
6A
102
}
330
6A
100
AcDbMaterial
  1
ByLayer
  0
MATERIAL
  5
EE
102
{ACAD_XDICTIONARY
360
173
102
}
102
{ACAD_REACTORS
330
6A
102
}
330
6A
100
AcDbMaterial
  1
Global
 43
0.0007999999797903
 43
0.0
 43
0.0
 43
0.0
 43
0.0
 43
0.0007999999797903
 43
0.0
 43
0.0
 43
0.0
 43
0.0
 43
1.0
 43
0.0
 43
0.0
 43
0.0
 43
0.0
 43
1.0
 49
0.0007999999797903
 49
0.0
 49
0.0
 49
0.0
 49
0.0
 49
0.0007999999797903
 49
0.0
 49
0.0
 49
0.0
 49
0.0
 49
1.0
 49
0.0
 49
0.0
 49
0.0
 49
0.0
 49
1.0
142
0.0007999999797903
142
0.0
142
0.0
142
0.0
142
0.0
142
0.0007999999797903
142
0.0
142
0.0
142
0.0
142
0.0
142
1.0
142
0.0
142
0.0
142
0.0
142
0.0
142
1.0
144
0.0007999999797903
144
0.0
144
0.0
144
0.0
144
0.0
144
0.0007999999797903
144
0.0
144
0.0
144
0.0
144
0.0
144
1.0
144
0.0
144
0.0
144
0.0
144
0.0
144
1.0
1001
ACAD
1070
    -1
1070
     3
1070
     0
1000

1071
        0
1070
     0
  0
MLEADERSTYLE
  5
13B
102
{ACAD_REACTORS
330
12D
102
}
330
12D
100
AcDbMLeaderStyle
170
     2
171
     1
172
     0
 90
        2
 40
0.0
 41
0.0
173
     1
 91
-1056964608
340
14
 92
       -2
290
     1
 42
2.0
291
     1
 43
8.0
  3
Standard
 44
4.0
300

342
11
174
     1
178
     1
175
     1
176
     0
 93
-1056964608
 45
4.0
292
     0
297
     0
 46
4.0
 94
-1056964608
 47
1.0
 49
1.0
140
1.0
293
     1
141
0.0
294
     1
177
     0
142
1.0
295
     0
296
     1
143
3.75
1001
ACAD_MLEADERVER
1070
     2
  0
MLEADERSTYLE
  5
12E
102
{ACAD_REACTORS
330
12D
102
}
330
12D
100
AcDbMLeaderStyle
170
     2
171
     1
172
     0
 90
        2
 40
0.0
 41
0.0
173
     1
 91
-1056964608
340
14
 92
       -2
290
     1
 42
2.0
291
     1
 43
8.0
  3
Standard
 44
4.0
300

342
11
174
     1
178
     1
175
     1
176
     0
 93
-1056964608
 45
4.0
292
     0
297
     0
 46
4.0
 94
-1056964608
 47
1.0
 49
1.0
140
1.0
293
     1
141
0.0
294
     1
177
     0
142
1.0
295
     0
296
     0
143
3.75
1001
ACAD_MLEADERVER
1070
     2
  0
MLINESTYLE
  5
18
102
{ACAD_REACTORS
330
17
102
}
330
17
100
AcDbMlineStyle
  2
STANDARD
 70
     0
  3

 62
   256
 51
90.0
 52
90.0
 71
     2
 49
0.5
 62
   256
  6
BYLAYER
 49
-0.5
 62
   256
  6
BYLAYER
  0
ACDBPLACEHOLDER
  5
F
102
{ACAD_REACTORS
330
E
102
}
330
E
  0
SCALE
  5
10D
102
{ACAD_REACTORS
330
10C
102
}
330
10C
100
AcDbScale
 70
     0
300
1:1
140
1.0
141
1.0
290
     1
  0
SCALE
  5
188
102
{ACAD_REACTORS
330
10C
102
}
330
10C
100
AcDbScale
 70
     0
300
1:2
140
1.0
141
2.0
290
     0
  0
SCALE
  5
189
102
{ACAD_REACTORS
330
10C
102
}
330
10C
100
AcDbScale
 70
     0
300
1:4
140
1.0
141
4.0
290
     0
  0
SCALE
  5
18A
102
{ACAD_REACTORS
330
10C
102
}
330
10C
100
AcDbScale
 70
     0
300
1:5
140
1.0
141
5.0
290
     0
  0
SCALE
  5
18B
102
{ACAD_REACTORS
330
10C
102
}
330
10C
100
AcDbScale
 70
     0
300
1:8
140
1.0
141
8.0
290
     0
  0
SCALE
  5
18C
102
{ACAD_REACTORS
330
10C
102
}
330
10C
100
AcDbScale
 70
     0
300
1:10
140
1.0
141
10.0
290
     0
  0
SCALE
  5
18D
102
{ACAD_REACTORS
330
10C
102
}
330
10C
100
AcDbScale
 70
     0
300
1:16
140
1.0
141
16.0
290
     0
  0
SCALE
  5
18E
102
{ACAD_REACTORS
330
10C
102
}
330
10C
100
AcDbScale
 70
     0
300
1:20
140
1.0
141
20.0
290
     0
  0
SCALE
  5
18F
102
{ACAD_REACTORS
330
10C
102
}
330
10C
100
AcDbScale
 70
     0
300
1:30
140
1.0
141
30.0
290
     0
  0
SCALE
  5
190
102
{ACAD_REACTORS
330
10C
102
}
330
10C
100
AcDbScale
 70
     0
300
1:40
140
1.0
141
40.0
290
     0
  0
SCALE
  5
191
102
{ACAD_REACTORS
330
10C
102
}
330
10C
100
AcDbScale
 70
     0
300
1:50
140
1.0
141
50.0
290
     0
  0
SCALE
  5
192
102
{ACAD_REACTORS
330
10C
102
}
330
10C
100
AcDbScale
 70
     0
300
1:100
140
1.0
141
100.0
290
     0
  0
SCALE
  5
193
102
{ACAD_REACTORS
330
10C
102
}
330
10C
100
AcDbScale
 70
     0
300
2:1
140
2.0
141
1.0
290
     0
  0
SCALE
  5
194
102
{ACAD_REACTORS
330
10C
102
}
330
10C
100
AcDbScale
 70
     0
300
4:1
140
4.0
141
1.0
290
     0
  0
SCALE
  5
195
102
{ACAD_REACTORS
330
10C
102
}
330
10C
100
AcDbScale
 70
     0
300
8:1
140
8.0
141
1.0
290
     0
  0
SCALE
  5
196
102
{ACAD_REACTORS
330
10C
102
}
330
10C
100
AcDbScale
 70
     0
300
10:1
140
10.0
141
1.0
290
     0
  0
SCALE
  5
197
102
{ACAD_REACTORS
330
10C
102
}
330
10C
100
AcDbScale
 70
     0
300
100:1
140
100.0
141
1.0
290
     0
  0
SCALE
  5
198
102
{ACAD_REACTORS
330
10C
102
}
330
10C
100
AcDbScale
 70
     0
300
1/128" = 1'-0"
140
0.0078125
141
12.0
290
     0
  0
SCALE
  5
199
102
{ACAD_REACTORS
330
10C
102
}
330
10C
100
AcDbScale
 70
     0
300
1/64" = 1'-0"
140
0.015625
141
12.0
290
     0
  0
SCALE
  5
19A
102
{ACAD_REACTORS
330
10C
102
}
330
10C
100
AcDbScale
 70
     0
300
1/32" = 1'-0"
140
0.03125
141
12.0
290
     0
  0
SCALE
  5
19B
102
{ACAD_REACTORS
330
10C
102
}
330
10C
100
AcDbScale
 70
     0
300
1/16" = 1'-0"
140
0.0625
141
12.0
290
     0
  0
SCALE
  5
19C
102
{ACAD_REACTORS
330
10C
102
}
330
10C
100
AcDbScale
 70
     0
300
3/32" = 1'-0"
140
0.09375
141
12.0
290
     0
  0
SCALE
  5
19D
102
{ACAD_REACTORS
330
10C
102
}
330
10C
100
AcDbScale
 70
     0
300
1/8" = 1'-0"
140
0.125
141
12.0
290
     0
  0
SCALE
  5
19E
102
{ACAD_REACTORS
330
10C
102
}
330
10C
100
AcDbScale
 70
     0
300
3/16" = 1'-0"
140
0.1875
141
12.0
290
     0
  0
SCALE
  5
19F
102
{ACAD_REACTORS
330
10C
102
}
330
10C
100
AcDbScale
 70
     0
300
1/4" = 1'-0"
140
0.25
141
12.0
290
     0
  0
SCALE
  5
1A0
102
{ACAD_REACTORS
330
10C
102
}
330
10C
100
AcDbScale
 70
     0
300
3/8" = 1'-0"
140
0.375
141
12.0
290
     0
  0
SCALE
  5
1A1
102
{ACAD_REACTORS
330
10C
102
}
330
10C
100
AcDbScale
 70
     0
300
1/2" = 1'-0"
140
0.5
141
12.0
290
     0
  0
SCALE
  5
1A2
102
{ACAD_REACTORS
330
10C
102
}
330
10C
100
AcDbScale
 70
     0
300
3/4" = 1'-0"
140
0.75
141
12.0
290
     0
  0
SCALE
  5
1A3
102
{ACAD_REACTORS
330
10C
102
}
330
10C
100
AcDbScale
 70
     0
300
1" = 1'-0"
140
1.0
141
12.0
290
     0
  0
SCALE
  5
1A4
102
{ACAD_REACTORS
330
10C
102
}
330
10C
100
AcDbScale
 70
     0
300
1-1/2" = 1'-0"
140
1.5
141
12.0
290
     0
  0
SCALE
  5
1A5
102
{ACAD_REACTORS
330
10C
102
}
330
10C
100
AcDbScale
 70
     0
300
3" = 1'-0"
140
3.0
141
12.0
290
     0
  0
SCALE
  5
1A6
102
{ACAD_REACTORS
330
10C
102
}
330
10C
100
AcDbScale
 70
     0
300
6" = 1'-0"
140
6.0
141
12.0
290
     0
  0
SCALE
  5
1A7
102
{ACAD_REACTORS
330
10C
102
}
330
10C
100
AcDbScale
 70
     0
300
1'-0" = 1'-0"
140
12.0
141
12.0
290
     0
  0
TABLESTYLE
  5
7F
102
{ACAD_XDICTIONARY
360
162
102
}
102
{ACAD_REACTORS
330
7E
102
}
330
7E
100
AcDbTableStyle
  3
Standard
 70
     0
 71
     0
 40
1.5
 41
1.5
280
     0
281
     0
  7
Standard
140
4.5
170
     2
 62
     0
 63
     7
283
     0
274
    -2
284
     1
 64
     0
275
    -2
285
     1
 65
     0
276
    -2
286
     1
 66
     0
277
    -2
287
     1
 67
     0
278
    -2
288
     1
 68
     0
279
    -2
289
     1
 69
     0
  7
Standard
140
6.0
170
     5
 62
     0
 63
     7
283
     0
274
    -2
284
     1
 64
     0
275
    -2
285
     1
 65
     0
276
    -2
286
     1
 66
     0
277
    -2
287
     1
 67
     0
278
    -2
288
     1
 68
     0
279
    -2
289
     1
 69
     0
  7
Standard
140
4.5
170
     5
 62
     0
 63
     7
283
     0
274
    -2
284
     1
 64
     0
275
    -2
285
     1
 65
     0
276
    -2
286
     1
 66
     0
277
    -2
287
     1
 67
     0
278
    -2
288
     1
 68
     0
279
    -2
289
     1
 69
     0
  0
VISUALSTYLE
  5
F5
102
{ACAD_REACTORS
330
EF
102
}
330
EF
100
AcDbVisualStyle
  2
2dWireframe
 70
     4
 71
     0
 72
     2
 73
     1
 90
        0
 40
-0.6
 41
-30.0
 62
     5
 63
     7
 74
     1
 91
        4
 64
     7
 65
   257
 75
     1
175
     1
 42
1.0
 92
        0
 66
   257
 43
1.0
 76
     1
 77
     6
 78
     2
 67
     7
 79
     5
170
     0
171
     0
290
     0
174
     0
 93
        1
 44
0.0
173
     0
291
     0
 45
0.0
1001
ACAD
1000
AcDbSavedByObjectVersion
1070
     0
  0
VISUALSTYLE
  5
F7
102
{ACAD_REACTORS
330
EF
102
}
330
EF
100
AcDbVisualStyle
  2
3D Hidden
 70
     6
 71
     1
 72
     2
 73
     2
 90
        0
 40
-0.6
 41
-30.0
 62
     5
 63
     7
 74
     2
 91
        2
 64
     7
 65
   257
 75
     2
175
     1
 42
40.0
 92
        0
 66
   257
 43
1.0
 76
     1
 77
     6
 78
     2
 67
     7
 79
     3
170
     0
171
     0
290
     0
174
     0
 93
        1
 44
0.0
173
     0
291
     0
 45
0.0
1001
ACAD
1000
AcDbSavedByObjectVersion
1070
     0
  0
VISUALSTYLE
  5
F6
102
{ACAD_REACTORS
330
EF
102
}
330
EF
100
AcDbVisualStyle
  2
3dWireframe
 70
     5
 71
     0
 72
     2
 73
     1
 90
        0
 40
-0.6
 41
-30.0
 62
     5
 63
     7
 74
     1
 91
        4
 64
     7
 65
   257
 75
     1
175
     1
 42
1.0
 92
        0
 66
   257
 43
1.0
 76
     1
 77
     6
 78
     2
 67
     7
 79
     5
170
     0
171
     0
290
     0
174
     0
 93
        1
 44
0.0
173
     0
291
     0
 45
0.0
1001
ACAD
1000
AcDbSavedByObjectVersion
1070
     0
  0
VISUALSTYLE
  5
F4
102
{ACAD_REACTORS
330
EF
102
}
330
EF
100
AcDbVisualStyle
  2
Basic
 70
     7
 71
     1
 72
     0
 73
     1
 90
        0
 40
-0.6
 41
-30.0
 62
     5
 63
     7
 74
     0
 91
        4
 64
     7
 65
   257
 75
     1
175
     1
 42
1.0
 92
        8
 66
     7
 43
1.0
 76
     1
 77
     6
 78
     2
 67
     7
 79
     5
170
     0
171
     0
290
     0
174
     0
 93
        1
 44
0.0
173
     0
291
     1
 45
0.0
1001
ACAD
1000
AcDbSavedByObjectVersion
1070
     0
  0
VISUALSTYLE
  5
FB
102
{ACAD_REACTORS
330
EF
102
}
330
EF
100
AcDbVisualStyle
  2
Brighten
 70
    12
 71
     2
 72
     2
 73
     1
 90
        0
 40
-0.6
 41
-30.0
 62
     5
 63
     7
 74
     1
 91
        4
 64
     7
 65
   257
 75
     1
175
     1
 42
1.0
 92
        8
 66
     7
 43
1.0
 76
     1
 77
     6
 78
     2
 67
     7
 79
     5
170
     0
171
     0
290
     0
174
     0
 93
        1
 44
50.0
173
     0
291
     1
 45
0.0
1001
ACAD
1000
AcDbSavedByObjectVersion
1070
     0
  0
VISUALSTYLE
  5
FF
102
{ACAD_REACTORS
330
EF
102
}
330
EF
100
AcDbVisualStyle
  2
ColorChange
 70
    16
 71
     2
 72
     2
 73
     3
 90
        0
 40
-0.6
 41
-30.0
 62
     5
 63
     8
 74
     1
 91
        4
 64
     7
 65
   257
 75
     1
175
     1
 42
1.0
 92
        8
 66
     8
 43
1.0
 76
     1
 77
     6
 78
     2
 67
     7
 79
     5
170
     0
171
     0
290
     0
174
     0
 93
        1
 44
0.0
173
     0
291
     1
 45
0.0
1001
ACAD
1000
AcDbSavedByObjectVersion
1070
     0
  0
VISUALSTYLE
  5
F8
102
{ACAD_REACTORS
330
EF
102
}
330
EF
100
AcDbVisualStyle
  2
Conceptual
 70
     9
 71
     3
 72
     2
 73
     1
 90
        0
 40
-0.6
 41
-30.0
 62
     5
 63
     7
 74
     2
 91
        2
 64
     7
 65
   257
 75
     1
175
     1
 42
40.0
 92
        8
 66
     7
 43
1.0
 76
     1
 77
     6
 78
     2
 67
     7
 79
     3
170
     0
171
     0
290
     0
174
     0
 93
        1
 44
0.0
173
     0
291
     0
 45
0.0
1001
ACAD
1000
AcDbSavedByObjectVersion
1070
     0
  0
VISUALSTYLE
  5
FA
102
{ACAD_REACTORS
330
EF
102
}
330
EF
100
AcDbVisualStyle
  2
Dim
 70
    11
 71
     2
 72
     2
 73
     1
 90
        0
 40
-0.6
 41
-30.0
 62
     5
 63
     7
 74
     1
 91
        4
 64
     7
 65
   257
 75
     1
175
     1
 42
1.0
 92
        8
 66
     7
 43
1.0
 76
     1
 77
     6
 78
     2
 67
     7
 79
     5
170
     0
171
     0
290
     0
174
     0
 93
        1
 44
-50.0
173
     0
291
     1
 45
0.0
1001
ACAD
1000
AcDbSavedByObjectVersion
1070
     0
  0
VISUALSTYLE
  5
FE
102
{ACAD_REACTORS
330
EF
102
}
330
EF
100
AcDbVisualStyle
  2
Facepattern
 70
    15
 71
     2
 72
     2
 73
     1
 90
        0
 40
-0.6
 41
-30.0
 62
     5
 63
     7
 74
     1
 91
        4
 64
     7
 65
   257
 75
     1
175
     1
 42
1.0
 92
        8
 66
     7
 43
1.0
 76
     1
 77
     6
 78
     2
 67
     7
 79
     5
170
     0
171
     0
290
     0
174
     0
 93
        1
 44
0.0
173
     0
291
     1
 45
0.0
1001
ACAD
1000
AcDbSavedByObjectVersion
1070
     0
  0
VISUALSTYLE
  5
F0
102
{ACAD_REACTORS
330
EF
102
}
330
EF
100
AcDbVisualStyle
  2
Flat
 70
     0
 71
     2
 72
     1
 73
     1
 90
        2
 40
-0.6
 41
30.0
 62
     5
 63
     7
 74
     0
 91
        4
 64
     7
 65
   257
 75
     1
175
     1
 42
1.0
 92
        8
 66
     7
 43
1.0
 76
     1
 77
     6
 78
     2
 67
     7
 79
     5
170
     0
171
     0
290
     0
174
     0
 93
        1
 44
0.0
173
     0
291
     1
 45
0.0
1001
ACAD
1000
AcDbSavedByObjectVersion
1070
     0
  0
VISUALSTYLE
  5
F1
102
{ACAD_REACTORS
330
EF
102
}
330
EF
100
AcDbVisualStyle
  2
FlatWithEdges
 70
     1
 71
     2
 72
     1
 73
     1
 90
        2
 40
-0.6
 41
30.0
 62
     5
 63
     7
 74
     1
 91
        4
 64
     7
 65
   257
 75
     1
175
     1
 42
1.0
 92
        0
 66
   257
 43
1.0
 76
     1
 77
     6
 78
     2
 67
     7
 79
     5
170
     0
171
     0
290
     0
174
     0
 93
        1
 44
0.0
173
     0
291
     1
 45
0.0
1001
ACAD
1000
AcDbSavedByObjectVersion
1070
     0
  0
VISUALSTYLE
  5
F2
102
{ACAD_REACTORS
330
EF
102
}
330
EF
100
AcDbVisualStyle
  2
Gouraud
 70
     2
 71
     2
 72
     2
 73
     1
 90
        2
 40
-0.6
 41
30.0
 62
     5
 63
     7
 74
     0
 91
        4
 64
     7
 65
   257
 75
     1
175
     1
 42
1.0
 92
        0
 66
     7
 43
1.0
 76
     1
 77
     6
 78
     2
 67
     7
 79
     5
170
     0
171
     0
290
     0
174
     0
 93
        1
 44
0.0
173
     0
291
     1
 45
0.0
1001
ACAD
1000
AcDbSavedByObjectVersion
1070
     0
  0
VISUALSTYLE
  5
F3
102
{ACAD_REACTORS
330
EF
102
}
330
EF
100
AcDbVisualStyle
  2
GouraudWithEdges
 70
     3
 71
     2
 72
     2
 73
     1
 90
        2
 40
-0.6
 41
30.0
 62
     5
 63
     7
 74
     1
 91
        4
 64
     7
 65
   257
 75
     1
175
     1
 42
1.0
 92
        0
 66
   257
 43
1.0
 76
     1
 77
     6
 78
     2
 67
     7
 79
     5
170
     0
171
     0
290
     0
174
     0
 93
        1
 44
0.0
173
     0
291
     1
 45
0.0
1001
ACAD
1000
AcDbSavedByObjectVersion
1070
     0
  0
VISUALSTYLE
  5
FD
102
{ACAD_REACTORS
330
EF
102
}
330
EF
100
AcDbVisualStyle
  2
Linepattern
 70
    14
 71
     2
 72
     2
 73
     1
 90
        0
 40
-0.6
 41
-30.0
 62
     5
 63
     7
 74
     1
 91
        4
 64
     7
 65
   257
 75
     7
175
     7
 42
1.0
 92
        8
 66
     7
 43
1.0
 76
     1
 77
     6
 78
     2
 67
     7
 79
     5
170
     0
171
     0
290
     0
174
     0
 93
        1
 44
0.0
173
     0
291
     1
 45
0.0
1001
ACAD
1000
AcDbSavedByObjectVersion
1070
     0
  0
VISUALSTYLE
  5
F9
102
{ACAD_REACTORS
330
EF
102
}
330
EF
100
AcDbVisualStyle
  2
Realistic
 70
     8
 71
     2
 72
     2
 73
     1
 90
        0
 40
-0.6
 41
-30.0
 62
     5
 63
     7
 74
     1
 91
        0
 64
     7
 65
   257
 75
     1
175
     1
 42
1.0
 92
        8
 66
     8
 43
1.0
 76
     1
 77
     6
 78
     2
 67
     7
 79
     5
170
     0
171
     0
290
     0
174
     0
 93
       13
 44
0.0
173
     0
291
     0
 45
0.0
1001
ACAD
1000
AcDbSavedByObjectVersion
1070
     0
  0
VISUALSTYLE
  5
FC
102
{ACAD_REACTORS
330
EF
102
}
330
EF
100
AcDbVisualStyle
  2
Thicken
 70
    13
 71
     2
 72
     2
 73
     1
 90
        0
 40
-0.6
 41
-30.0
 62
     5
 63
     7
 74
     1
 91
        4
 64
     7
 65
   257
 75
     1
175
     1
 42
1.0
 92
       12
 66
     7
 43
1.0
 76
     1
 77
     6
 78
     2
 67
     7
 79
     5
170
     0
171
     0
290
     0
174
     0
 93
        1
 44
0.0
173
     0
291
     1
 45
0.0
1001
ACAD
1000
AcDbSavedByObjectVersion
1070
     0
  0
DICTIONARYVAR
  5
146
102
{ACAD_REACTORS
330
5E
102
}
330
5E
100
DictionaryVariables
280
     0
  1
1:1
  0
DICTIONARYVAR
  5
145
102
{ACAD_REACTORS
330
5E
102
}
330
5E
100
DictionaryVariables
280
     0
  1
STANDARD
  0
DICTIONARYVAR
  5
84
102
{ACAD_REACTORS
330
5E
102
}
330
5E
100
DictionaryVariables
280
     0
  1
STANDARD
  0
DICTIONARYVAR
  5
5F
102
{ACAD_REACTORS
330
5E
102
}
330
5E
100
DictionaryVariables
280
     0
  1
2
  0
DICTIONARYVAR
  5
63
102
{ACAD_REACTORS
330
5E
102
}
330
5E
100
DictionaryVariables
280
     0
  1
1
  0
DICTIONARYVAR
  5
338
102
{ACAD_REACTORS
330
5E
102
}
330
5E
100
DictionaryVariables
280
     0
  1
0
  0
DICTIONARYVAR
  5
336
102
{ACAD_REACTORS
330
5E
102
}
330
5E
100
DictionaryVariables
280
     0
  1
2
  0
DICTIONARYVAR
  5
335
102
{ACAD_REACTORS
330
5E
102
}
330
5E
100
DictionaryVariables
280
     0
  1
1
  0
DICTIONARYVAR
  5
33A
102
{ACAD_REACTORS
330
5E
102
}
330
5E
100
DictionaryVariables
280
     0
  1
80.000000
  0
DICTIONARYVAR
  5
339
102
{ACAD_REACTORS
330
5E
102
}
330
5E
100
DictionaryVariables
280
     0
  1
5.000000
  0
DICTIONARYVAR
  5
337
102
{ACAD_REACTORS
330
5E
102
}
330
5E
100
DictionaryVariables
280
     0
  1
127
  0
DICTIONARY
  5
340
330
D3
100
AcDbDictionary
280
     1
281
     1
  3
ACAD_XREC_ROUNDTRIP
360
341
  0
DICTIONARY
  5
342
330
D7
100
AcDbDictionary
280
     1
281
     1
  3
ACAD_XREC_ROUNDTRIP
360
343
  0
DICTIONARY
  5
33D
330
22
100
AcDbDictionary
280
     1
281
     1
  3
ACAD_XREC_ROUNDTRIP
360
33E
  0
DICTIONARY
  5
346
330
ED
100
AcDbDictionary
280
     1
281
     1
  3
ACAD_XREC_ROUNDTRIP
360
347
  0
DICTIONARY
  5
344
330
EC
100
AcDbDictionary
280
     1
281
     1
  3
ACAD_XREC_ROUNDTRIP
360
345
  0
DICTIONARY
  5
173
330
EE
100
AcDbDictionary
280
     1
281
     1
  3
ACAD_XREC_ROUNDTRIP
360
348
  3
BUMPTILE
360
175
  3
DIFFUSETILE
360
174
  3
OPACITYTILE
360
176
  3
REFLECTIONTILE
360
177
  0
DICTIONARY
  5
162
330
7F
100
AcDbDictionary
280
     1
281
     1
  3
ACAD_ROUNDTRIP_2008_TABLESTYLE_CELLSTYLEMAP
360
33B
  3
ACAD_XREC_ROUNDTRIP
360
33F
  0
XRECORD
  5
341
102
{ACAD_REACTORS
330
340
102
}
330
340
100
AcDbXrecord
280
     1
102
SHADEPLOT
 70
     0
102
SHADEPLOTRESLEVEL
 70
     2
102
SHADEPLOTCUSTOMDPI
 70
   300
  0
XRECORD
  5
343
102
{ACAD_REACTORS
330
342
102
}
330
342
100
AcDbXrecord
280
     1
102
SHADEPLOT
 70
     0
102
SHADEPLOTRESLEVEL
 70
     2
102
SHADEPLOTCUSTOMDPI
 70
   300
  0
XRECORD
  5
33E
102
{ACAD_REACTORS
330
33D
102
}
330
33D
100
AcDbXrecord
280
     1
102
SHADEPLOT
 70
     0
102
SHADEPLOTRESLEVEL
 70
     2
102
SHADEPLOTCUSTOMDPI
 70
   300
  0
XRECORD
  5
347
102
{ACAD_REACTORS
330
346
102
}
330
346
100
AcDbXrecord
280
     1
102
MATERIAL
148
0.0
149
0.0
149
0.0
 93
        0
 94
       63
282
     0
 72
     1
 77
     1
171
     1
175
     1
179
     1
273
     0
  0
XRECORD
  5
345
102
{ACAD_REACTORS
330
344
102
}
330
344
100
AcDbXrecord
280
     1
102
MATERIAL
148
0.0
149
0.0
149
0.0
 93
        0
 94
       63
282
     0
 72
     1
 77
     1
171
     1
175
     1
179
     1
273
     0
  0
XRECORD
  5
348
102
{ACAD_REACTORS
330
173
102
}
330
173
100
AcDbXrecord
280
     1
102
MATERIAL
148
0.0
149
0.0
149
0.0
 93
        0
 94
       63
282
     0
 72
     1
 77
     1
171
     1
175
     1
179
     1
273
     0
  0
XRECORD
  5
175
102
{ACAD_REACTORS
330
173
102
}
330
173
100
AcDbXrecord
280
     1
270
     1
271
     1
  0
XRECORD
  5
174
102
{ACAD_REACTORS
330
173
102
}
330
173
100
AcDbXrecord
280
     1
270
     1
271
     1
  0
XRECORD
  5
176
102
{ACAD_REACTORS
330
173
102
}
330
173
100
AcDbXrecord
280
     1
270
     1
271
     1
  0
XRECORD
  5
177
102
{ACAD_REACTORS
330
173
102
}
330
173
100
AcDbXrecord
280
     1
270
     1
271
     1
  0
CELLSTYLEMAP
  5
33B
102
{ACAD_REACTORS
330
162
102
}
330
162
100
AcDbCellStyleMap
 90
        3
300
CELLSTYLE
  1
TABLEFORMAT_BEGIN
 90
        5
170
     1
 91
        0
 92
    32768
 62
   257
 93
        1
300
CONTENTFORMAT
  1
CONTENTFORMAT_BEGIN
 90
        0
 91
        0
 92
      512
 93
        0
300

 40
0.0
140
1.0
 94
        5
 62
     0
340
11
144
6.0
309
CONTENTFORMAT_END
171
     1
301
MARGIN
  1
CELLMARGIN_BEGIN
 40
1.5
 40
1.5
 40
1.5
 40
1.5
 40
4.5
 40
4.5
309
CELLMARGIN_END
 94
        6
 95
        1
302
GRIDFORMAT
  1
GRIDFORMAT_BEGIN
 90
        0
 91
        1
 62
     0
 92
       -2
340
14
 93
        0
 40
1.125
309
GRIDFORMAT_END
 95
        2
302
GRIDFORMAT
  1
GRIDFORMAT_BEGIN
 90
        0
 91
        1
 62
     0
 92
       -2
340
14
 93
        0
 40
1.125
309
GRIDFORMAT_END
 95
        4
302
GRIDFORMAT
  1
GRIDFORMAT_BEGIN
 90
        0
 91
        1
 62
     0
 92
       -2
340
14
 93
        0
 40
1.125
309
GRIDFORMAT_END
 95
        8
302
GRIDFORMAT
  1
GRIDFORMAT_BEGIN
 90
        0
 91
        1
 62
     0
 92
       -2
340
14
 93
        0
 40
1.125
309
GRIDFORMAT_END
 95
       16
302
GRIDFORMAT
  1
GRIDFORMAT_BEGIN
 90
        0
 91
        1
 62
     0
 92
       -2
340
14
 93
        0
 40
1.125
309
GRIDFORMAT_END
 95
       32
302
GRIDFORMAT
  1
GRIDFORMAT_BEGIN
 90
        0
 91
        1
 62
     0
 92
       -2
340
14
 93
        0
 40
1.125
309
GRIDFORMAT_END
309
TABLEFORMAT_END
  1
CELLSTYLE_BEGIN
 90
        1
 91
        1
300
_TITLE
309
CELLSTYLE_END
300
CELLSTYLE
  1
TABLEFORMAT_BEGIN
 90
        5
170
     1
 91
        0
 92
        0
 62
   257
 93
        1
300
CONTENTFORMAT
  1
CONTENTFORMAT_BEGIN
 90
        0
 91
        0
 92
      512
 93
        0
300

 40
0.0
140
1.0
 94
        5
 62
     0
340
11
144
4.5
309
CONTENTFORMAT_END
171
     1
301
MARGIN
  1
CELLMARGIN_BEGIN
 40
1.5
 40
1.5
 40
1.5
 40
1.5
 40
4.5
 40
4.5
309
CELLMARGIN_END
 94
        6
 95
        1
302
GRIDFORMAT
  1
GRIDFORMAT_BEGIN
 90
        0
 91
        1
 62
     0
 92
       -2
340
14
 93
        0
 40
1.125
309
GRIDFORMAT_END
 95
        2
302
GRIDFORMAT
  1
GRIDFORMAT_BEGIN
 90
        0
 91
        1
 62
     0
 92
       -2
340
14
 93
        0
 40
1.125
309
GRIDFORMAT_END
 95
        4
302
GRIDFORMAT
  1
GRIDFORMAT_BEGIN
 90
        0
 91
        1
 62
     0
 92
       -2
340
14
 93
        0
 40
1.125
309
GRIDFORMAT_END
 95
        8
302
GRIDFORMAT
  1
GRIDFORMAT_BEGIN
 90
        0
 91
        1
 62
     0
 92
       -2
340
14
 93
        0
 40
1.125
309
GRIDFORMAT_END
 95
       16
302
GRIDFORMAT
  1
GRIDFORMAT_BEGIN
 90
        0
 91
        1
 62
     0
 92
       -2
340
14
 93
        0
 40
1.125
309
GRIDFORMAT_END
 95
       32
302
GRIDFORMAT
  1
GRIDFORMAT_BEGIN
 90
        0
 91
        1
 62
     0
 92
       -2
340
14
 93
        0
 40
1.125
309
GRIDFORMAT_END
309
TABLEFORMAT_END
  1
CELLSTYLE_BEGIN
 90
        2
 91
        1
300
_HEADER
309
CELLSTYLE_END
300
CELLSTYLE
  1
TABLEFORMAT_BEGIN
 90
        5
170
     1
 91
        0
 92
        0
 62
   257
 93
        1
300
CONTENTFORMAT
  1
CONTENTFORMAT_BEGIN
 90
        0
 91
        0
 92
      512
 93
        0
300

 40
0.0
140
1.0
 94
        2
 62
     0
340
11
144
4.5
309
CONTENTFORMAT_END
171
     1
301
MARGIN
  1
CELLMARGIN_BEGIN
 40
1.5
 40
1.5
 40
1.5
 40
1.5
 40
4.5
 40
4.5
309
CELLMARGIN_END
 94
        6
 95
        1
302
GRIDFORMAT
  1
GRIDFORMAT_BEGIN
 90
        0
 91
        1
 62
     0
 92
       -2
340
14
 93
        0
 40
1.125
309
GRIDFORMAT_END
 95
        2
302
GRIDFORMAT
  1
GRIDFORMAT_BEGIN
 90
        0
 91
        1
 62
     0
 92
       -2
340
14
 93
        0
 40
1.125
309
GRIDFORMAT_END
 95
        4
302
GRIDFORMAT
  1
GRIDFORMAT_BEGIN
 90
        0
 91
        1
 62
     0
 92
       -2
340
14
 93
        0
 40
1.125
309
GRIDFORMAT_END
 95
        8
302
GRIDFORMAT
  1
GRIDFORMAT_BEGIN
 90
        0
 91
        1
 62
     0
 92
       -2
340
14
 93
        0
 40
1.125
309
GRIDFORMAT_END
 95
       16
302
GRIDFORMAT
  1
GRIDFORMAT_BEGIN
 90
        0
 91
        1
 62
     0
 92
       -2
340
14
 93
        0
 40
1.125
309
GRIDFORMAT_END
 95
       32
302
GRIDFORMAT
  1
GRIDFORMAT_BEGIN
 90
        0
 91
        1
 62
     0
 92
       -2
340
14
 93
        0
 40
1.125
309
GRIDFORMAT_END
309
TABLEFORMAT_END
  1
CELLSTYLE_BEGIN
 90
        3
 91
        2
300
_DATA
309
CELLSTYLE_END
  0
XRECORD
  5
33F
102
{ACAD_REACTORS
330
162
102
}
330
162
100
AcDbXrecord
280
     1
102
ACAD_ROUNDTRIP_PRE2007_TABLESTYLE
 90
      512
 91
        0
  1

 92
      512
 93
        0
  2

 94
      512
 95
        0
  3

  0
ENDSEC
  0
EOF
