  0
SECTION
  2
HEADER
  9
$ACADVER
  1
AC1015
  9
$ACADMAINTVER
 70
    20
  9
$DWGCODEPAGE
  3
ANSI_1254
  9
$INSBASE
 10
0.0
 20
0.0
 30
0.0
  9
$EXTMIN
 10
1799.603785260313
 20
815.4682952982437
 30
0.0
  9
$EXTMAX
 10
1905.321926475679
 20
883.4755322225813
 30
0.0
  9
$LIMMIN
 10
0.0
 20
0.0
  9
$LIMMAX
 10
420.0
 20
297.0
  9
$ORTHOMODE
 70
     1
  9
$REGENMODE
 70
     1
  9
$FILLMODE
 70
     1
  9
$QTEXTMODE
 70
     0
  9
$MIRRTEXT
 70
     0
  9
$LTSCALE
 40
1.0
  9
$ATTMODE
 70
     1
  9
$TEXTSIZE
 40
2.5
  9
$TRACEWID
 40
1.0
  9
$TEXTSTYLE
  7
Standard
  9
$CLAYER
  8
0
  9
$CELTYPE
  6
ByLayer
  9
$CECOLOR
 62
   256
  9
$CELTSCALE
 40
1.0
  9
$DISPSILH
 70
     0
  9
$DIMSCALE
 40
1.0
  9
$DIMASZ
 40
2.5
  9
$DIMEXO
 40
0.625
  9
$DIMDLI
 40
3.75
  9
$DIMRND
 40
0.0
  9
$DIMDLE
 40
0.0
  9
$DIMEXE
 40
1.25
  9
$DIMTP
 40
0.0
  9
$DIMTM
 40
0.0
  9
$DIMTXT
 40
2.5
  9
$DIMCEN
 40
2.5
  9
$DIMTSZ
 40
0.0
  9
$DIMTOL
 70
     0
  9
$DIMLIM
 70
     0
  9
$DIMTIH
 70
     0
  9
$DIMTOH
 70
     0
  9
$DIMSE1
 70
     0
  9
$DIMSE2
 70
     0
  9
$DIMTAD
 70
     1
  9
$DIMZIN
 70
     8
  9
$DIMBLK
  1

  9
$DIMASO
 70
     1
  9
$DIMSHO
 70
     1
  9
$DIMPOST
  1

  9
$DIMAPOST
  1

  9
$DIMALT
 70
     0
  9
$DIMALTD
 70
     3
  9
$DIMALTF
 40
0.03937007874016
  9
$DIMLFAC
 40
1.0
  9
$DIMTOFL
 70
     1
  9
$DIMTVP
 40
0.0
  9
$DIMTIX
 70
     0
  9
$DIMSOXD
 70
     0
  9
$DIMSAH
 70
     0
  9
$DIMBLK1
  1

  9
$DIMBLK2
  1

  9
$DIMSTYLE
  2
ISO-25
  9
$DIMCLRD
 70
     0
  9
$DIMCLRE
 70
     0
  9
$DIMCLRT
 70
     0
  9
$DIMTFAC
 40
1.0
  9
$DIMGAP
 40
0.625
  9
$DIMJUST
 70
     0
  9
$DIMSD1
 70
     0
  9
$DIMSD2
 70
     0
  9
$DIMTOLJ
 70
     0
  9
$DIMTZIN
 70
     8
  9
$DIMALTZ
 70
     0
  9
$DIMALTTZ
 70
     0
  9
$DIMUPT
 70
     0
  9
$DIMDEC
 70
     2
  9
$DIMTDEC
 70
     2
  9
$DIMALTU
 70
     2
  9
$DIMALTTD
 70
     3
  9
$DIMTXSTY
  7
Standard
  9
$DIMAUNIT
 70
     0
  9
$DIMADEC
 70
     0
  9
$DIMALTRND
 40
0.0
  9
$DIMAZIN
 70
     0
  9
$DIMDSEP
 70
    44
  9
$DIMATFIT
 70
     3
  9
$DIMFRAC
 70
     0
  9
$DIMLDRBLK
  1

  9
$DIMLUNIT
 70
     2
  9
$DIMLWD
 70
    -2
  9
$DIMLWE
 70
    -2
  9
$DIMTMOVE
 70
     0
  9
$LUNITS
 70
     2
  9
$LUPREC
 70
     4
  9
$SKETCHINC
 40
1.0
  9
$FILLETRAD
 40
0.0
  9
$AUNITS
 70
     0
  9
$AUPREC
 70
     0
  9
$MENU
  1
.
  9
$ELEVATION
 40
0.0
  9
$PELEVATION
 40
0.0
  9
$THICKNESS
 40
0.0
  9
$LIMCHECK
 70
     0
  9
$CHAMFERA
 40
0.0
  9
$CHAMFERB
 40
0.0
  9
$CHAMFERC
 40
0.0
  9
$CHAMFERD
 40
0.0
  9
$SKPOLY
 70
     0
  9
$TDCREATE
 40
2459003.446419051
  9
$TDUCREATE
 40
2459003.321419051
  9
$TDUPDATE
 40
2459067.655593796
  9
$TDUUPDATE
 40
2459067.530593797
  9
$TDINDWG
 40
0.0011140509
  9
$TDUSRTIMER
 40
0.0011140509
  9
$USRTIMER
 70
     1
  9
$ANGBASE
 50
0.0
  9
$ANGDIR
 70
     0
  9
$PDMODE
 70
     0
  9
$PDSIZE
 40
0.0
  9
$PLINEWID
 40
0.0
  9
$SPLFRAME
 70
     0
  9
$SPLINETYPE
 70
     6
  9
$SPLINESEGS
 70
     8
  9
$HANDSEED
  5
35D
  9
$SURFTAB1
 70
     6
  9
$SURFTAB2
 70
     6
  9
$SURFTYPE
 70
     6
  9
$SURFU
 70
     6
  9
$SURFV
 70
     6
  9
$UCSBASE
  2

  9
$UCSNAME
  2

  9
$UCSORG
 10
0.0
 20
0.0
 30
0.0
  9
$UCSXDIR
 10
1.0
 20
0.0
 30
0.0
  9
$UCSYDIR
 10
0.0
 20
1.0
 30
0.0
  9
$UCSORTHOREF
  2

  9
$UCSORTHOVIEW
 70
     0
  9
$UCSORGTOP
 10
0.0
 20
0.0
 30
0.0
  9
$UCSORGBOTTOM
 10
0.0
 20
0.0
 30
0.0
  9
$UCSORGLEFT
 10
0.0
 20
0.0
 30
0.0
  9
$UCSORGRIGHT
 10
0.0
 20
0.0
 30
0.0
  9
$UCSORGFRONT
 10
0.0
 20
0.0
 30
0.0
  9
$UCSORGBACK
 10
0.0
 20
0.0
 30
0.0
  9
$PUCSBASE
  2

  9
$PUCSNAME
  2

  9
$PUCSORG
 10
0.0
 20
0.0
 30
0.0
  9
$PUCSXDIR
 10
1.0
 20
0.0
 30
0.0
  9
$PUCSYDIR
 10
0.0
 20
1.0
 30
0.0
  9
$PUCSORTHOREF
  2

  9
$PUCSORTHOVIEW
 70
     0
  9
$PUCSORGTOP
 10
0.0
 20
0.0
 30
0.0
  9
$PUCSORGBOTTOM
 10
0.0
 20
0.0
 30
0.0
  9
$PUCSORGLEFT
 10
0.0
 20
0.0
 30
0.0
  9
$PUCSORGRIGHT
 10
0.0
 20
0.0
 30
0.0
  9
$PUCSORGFRONT
 10
0.0
 20
0.0
 30
0.0
  9
$PUCSORGBACK
 10
0.0
 20
0.0
 30
0.0
  9
$USERI1
 70
     0
  9
$USERI2
 70
     0
  9
$USERI3
 70
     0
  9
$USERI4
 70
     0
  9
$USERI5
 70
     0
  9
$USERR1
 40
0.0
  9
$USERR2
 40
0.0
  9
$USERR3
 40
0.0
  9
$USERR4
 40
0.0
  9
$USERR5
 40
0.0
  9
$WORLDVIEW
 70
     1
  9
$SHADEDGE
 70
     3
  9
$SHADEDIF
 70
    70
  9
$TILEMODE
 70
     1
  9
$MAXACTVP
 70
    64
  9
$PINSBASE
 10
0.0
 20
0.0
 30
0.0
  9
$PLIMCHECK
 70
     0
  9
$PEXTMIN
 10
0.0
 20
0.0
 30
0.0
  9
$PEXTMAX
 10
0.0
 20
0.0
 30
0.0
  9
$PLIMMIN
 10
0.0
 20
0.0
  9
$PLIMMAX
 10
12.0
 20
9.0
  9
$UNITMODE
 70
     0
  9
$VISRETAIN
 70
     1
  9
$PLINEGEN
 70
     0
  9
$PSLTSCALE
 70
     1
  9
$TREEDEPTH
 70
  3020
  9
$CMLSTYLE
  2
Standard
  9
$CMLJUST
 70
     0
  9
$CMLSCALE
 40
20.0
  9
$PROXYGRAPHICS
 70
     1
  9
$MEASUREMENT
 70
     1
  9
$CELWEIGHT
370
    -1
  9
$ENDCAPS
280
     0
  9
$JOINSTYLE
280
     0
  9
$LWDISPLAY
290
     0
  9
$INSUNITS
 70
     4
  9
$HYPERLINKBASE
  1

  9
$STYLESHEET
  1

  9
$XEDIT
290
     1
  9
$CEPSNTYPE
380
     0
  9
$PSTYLEMODE
290
     1
  9
$FINGERPRINTGUID
  2
{E675D2E6-7440-4E24-991A-33EFE419FE9B}
  9
$VERSIONGUID
  2
{FACAC280-69BF-45C6-8F85-B4A71A3DE98B}
  9
$EXTNAMES
290
     1
  9
$PSVPSCALE
 40
0.0
  9
$OLESTARTUP
290
     0
  0
ENDSEC
  0
SECTION
  2
CLASSES
  0
CLASS
  1
ACDBDICTIONARYWDFLT
  2
AcDbDictionaryWithDefault
  3
ObjectDBX Classes
 90
        0
280
     0
281
     0
  0
CLASS
  1
ACDBPLACEHOLDER
  2
AcDbPlaceHolder
  3
ObjectDBX Classes
 90
        0
280
     0
281
     0
  0
CLASS
  1
LAYOUT
  2
AcDbLayout
  3
ObjectDBX Classes
 90
        0
280
     0
281
     0
  0
CLASS
  1
DICTIONARYVAR
  2
AcDbDictionaryVar
  3
ObjectDBX Classes
 90
        0
280
     0
281
     0
  0
CLASS
  1
TABLESTYLE
  2
AcDbTableStyle
  3
ObjectDBX Classes
 90
     4095
280
     0
281
     0
  0
CLASS
  1
MATERIAL
  2
AcDbMaterial
  3
ObjectDBX Classes
 90
     1153
280
     0
281
     0
  0
CLASS
  1
VISUALSTYLE
  2
AcDbVisualStyle
  3
ObjectDBX Classes
 90
     4095
280
     0
281
     0
  0
CLASS
  1
SCALE
  2
AcDbScale
  3
ObjectDBX Classes
 90
     1153
280
     0
281
     0
  0
CLASS
  1
MLEADERSTYLE
  2
AcDbMLeaderStyle
  3
ACDB_MLEADERSTYLE_CLASS
 90
     4095
280
     0
281
     0
  0
CLASS
  1
CELLSTYLEMAP
  2
AcDbCellStyleMap
  3
ObjectDBX Classes
 90
     1152
280
     0
281
     0
  0
CLASS
  1
ACAD_EVALUATION_GRAPH
  2
AcDbEvalGraph
  3
ObjectDBX Classes
 90
    33921
280
     0
281
     0
  0
CLASS
  1
ACAECUSTOBJ
  2
AcAeEditorObj
  3
AcAeEditorObj
 90
    33792
280
     0
281
     0
  0
CLASS
  1
ACDB_DYNAMICBLOCKPURGEPREVENTER_VERSION
  2
AcDbDynamicBlockPurgePreventer
  3
ObjectDBX Classes
 90
    33921
280
     0
281
     0
  0
ENDSEC
  0
SECTION
  2
TABLES
  0
TABLE
  2
VPORT
  5
8
330
0
100
AcDbSymbolTable
 70
     1
  0
VPORT
  5
EA
330
8
100
AcDbSymbolTableRecord
100
AcDbViewportTableRecord
  2
*Active
 70
     0
 10
0.0
 20
0.0
 11
1.0
 21
1.0
 12
1859.081910301843
 22
856.92617813548
 13
0.0
 23
0.0
 14
10.0
 24
10.0
 15
10.0
 25
10.0
 16
0.0
 26
0.0
 36
1.0
 17
0.0
 27
0.0
 37
0.0
 40
136.922935500315
 41
1.903110047846889
 42
50.0
 43
0.0
 44
0.0
 50
0.0
 51
0.0
 71
     0
 72
  1000
 73
     1
 74
     3
 75
     0
 76
     0
 77
     0
 78
     0
281
     0
 65
     1
110
0.0
120
0.0
130
0.0
111
1.0
121
0.0
131
0.0
112
0.0
122
1.0
132
0.0
 79
     0
146
0.0
  0
ENDTAB
  0
TABLE
  2
LTYPE
  5
5
330
0
100
AcDbSymbolTable
 70
     1
  0
LTYPE
  5
14
330
5
100
AcDbSymbolTableRecord
100
AcDbLinetypeTableRecord
  2
ByBlock
 70
     0
  3

 72
    65
 73
     0
 40
0.0
  0
LTYPE
  5
15
330
5
100
AcDbSymbolTableRecord
100
AcDbLinetypeTableRecord
  2
ByLayer
 70
     0
  3

 72
    65
 73
     0
 40
0.0
  0
LTYPE
  5
16
330
5
100
AcDbSymbolTableRecord
100
AcDbLinetypeTableRecord
  2
Continuous
 70
     0
  3
Solid line
 72
    65
 73
     0
 40
0.0
  0
ENDTAB
  0
TABLE
  2
LAYER
  5
2
330
0
100
AcDbSymbolTable
 70
     1
  0
LAYER
  5
10
102
{ACAD_XDICTIONARY
360
13C
102
}
330
2
100
AcDbSymbolTableRecord
100
AcDbLayerTableRecord
  2
0
 70
     0
 62
     7
  6
Continuous
370
    -3
390
F
  0
ENDTAB
  0
TABLE
  2
STYLE
  5
3
330
0
100
AcDbSymbolTable
 70
     2
  0
STYLE
  5
11
330
3
100
AcDbSymbolTableRecord
100
AcDbTextStyleTableRecord
  2
Standard
 70
     0
 40
0.0
 41
1.0
 50
0.0
 71
     0
 42
2.5
  3
txt
  4

  0
STYLE
  5
132
330
3
100
AcDbSymbolTableRecord
100
AcDbTextStyleTableRecord
  2
Annotative
 70
     0
 40
0.0
 41
1.0
 50
0.0
 71
     0
 42
2.5
  3
txt.shx
  4

1001
AcadAnnotative
1000
AnnotativeData
1002
{
1070
     1
1070
     1
1002
}
  0
ENDTAB
  0
TABLE
  2
VIEW
  5
6
330
0
100
AcDbSymbolTable
 70
     0
  0
ENDTAB
  0
TABLE
  2
UCS
  5
7
330
0
100
AcDbSymbolTable
 70
     0
  0
ENDTAB
  0
TABLE
  2
APPID
  5
9
330
0
100
AcDbSymbolTable
 70
    12
  0
APPID
  5
12
330
9
100
AcDbSymbolTableRecord
100
AcDbRegAppTableRecord
  2
ACAD
 70
     0
  0
APPID
  5
9E
330
9
100
AcDbSymbolTableRecord
100
AcDbRegAppTableRecord
  2
ACAD_PSEXT
 70
     0
  0
APPID
  5
133
330
9
100
AcDbSymbolTableRecord
100
AcDbRegAppTableRecord
  2
AcadAnnoPO
 70
     0
  0
APPID
  5
134
330
9
100
AcDbSymbolTableRecord
100
AcDbRegAppTableRecord
  2
AcadAnnotative
 70
     0
  0
APPID
  5
135
330
9
100
AcDbSymbolTableRecord
100
AcDbRegAppTableRecord
  2
ACAD_DSTYLE_DIMJAG
 70
     0
  0
APPID
  5
136
330
9
100
AcDbSymbolTableRecord
100
AcDbRegAppTableRecord
  2
ACAD_DSTYLE_DIMTALN
 70
     0
  0
APPID
  5
165
330
9
100
AcDbSymbolTableRecord
100
AcDbRegAppTableRecord
  2
ACAD_MLEADERVER
 70
     0
  0
APPID
  5
334
330
9
100
AcDbSymbolTableRecord
100
AcDbRegAppTableRecord
  2
ACAUTHENVIRON
 70
     0
  0
APPID
  5
33A
330
9
100
AcDbSymbolTableRecord
100
AcDbRegAppTableRecord
  2
ACAD_EXEMPT_FROM_CAD_STANDARDS
 70
     0
  0
APPID
  5
340
330
9
100
AcDbSymbolTableRecord
100
AcDbRegAppTableRecord
  2
AcDbDynamicBlockTrueName
 70
     0
  0
APPID
  5
341
330
9
100
AcDbSymbolTableRecord
100
AcDbRegAppTableRecord
  2
AcDbDynamicBlockGUID
 70
     0
  0
APPID
  5
343
330
9
100
AcDbSymbolTableRecord
100
AcDbRegAppTableRecord
  2
AcDbBlockRepETag
 70
     0
  0
ENDTAB
  0
TABLE
  2
DIMSTYLE
  5
A
330
0
100
AcDbSymbolTable
 70
     2
100
AcDbDimStyleTable
 71
     2
340
27
340
137
  0
DIMSTYLE
105
27
330
A
100
AcDbSymbolTableRecord
100
AcDbDimStyleTableRecord
  2
ISO-25
 70
     0
 41
2.5
 42
0.625
 43
3.75
 44
1.25
 73
     0
 74
     0
 77
     1
 78
     8
140
2.5
141
2.5
143
0.03937007874016
147
0.625
171
     3
172
     1
271
     2
272
     2
274
     3
278
    44
283
     0
284
     8
340
11
  0
DIMSTYLE
105
137
330
A
100
AcDbSymbolTableRecord
100
AcDbDimStyleTableRecord
  2
Annotative
 70
     0
 40
0.0
 41
2.5
 42
0.625
 43
3.75
 44
1.25
 73
     0
 74
     0
 77
     1
 78
     8
140
2.5
141
2.5
143
0.03937007874016
147
0.625
171
     3
172
     1
271
     2
272
     2
274
     3
278
    44
283
     0
284
     8
340
11
1001
AcadAnnotative
1000
AnnotativeData
1002
{
1070
     1
1070
     1
1002
}
1001
ACAD_DSTYLE_DIMJAG
1070
   388
1040
1.5
1001
ACAD_DSTYLE_DIMTALN
1070
   392
1070
     0
  0
ENDTAB
  0
TABLE
  2
BLOCK_RECORD
  5
1
330
0
100
AcDbSymbolTable
 70
     5
  0
BLOCK_RECORD
  5
1F
330
1
100
AcDbSymbolTableRecord
100
AcDbBlockTableRecord
  2
*Model_Space
340
22
  0
BLOCK_RECORD
  5
D2
330
1
100
AcDbSymbolTableRecord
100
AcDbBlockTableRecord
  2
*Paper_Space
340
D3
  0
BLOCK_RECORD
  5
D6
330
1
100
AcDbSymbolTableRecord
100
AcDbBlockTableRecord
  2
*Paper_Space0
340
D7
  0
BLOCK_RECORD
  5
1AD
330
1
100
AcDbSymbolTableRecord
100
AcDbBlockTableRecord
  2
SW_CENTERMARKSYMBOL_0
340
0
102
{BLKREFS
331
2B5
102
}
  0
BLOCK_RECORD
  5
29C
330
1
100
AcDbSymbolTableRecord
100
AcDbBlockTableRecord
  2
1
340
0
310
2800000020000000200000000100080000000000000400000000000000000000000000000000000000000000000080000080000000808000800000008000800080800000C0C0C000C0DCC000F0CAA6000020400000206000002080000020A0000020C0000020E00000400000004020000040400000406000004080000040A0
310
000040C0000040E00000600000006020000060400000606000006080000060A0000060C0000060E00000800000008020000080400000806000008080000080A0000080C0000080E00000A0000000A0200000A0400000A0600000A0800000A0A00000A0C00000A0E00000C0000000C0200000C0400000C0600000C0800000C0
310
A00000C0C00000C0E00000E0000000E0200000E0400000E0600000E0800000E0A00000E0C00000E0E00040000000400020004000400040006000400080004000A0004000C0004000E00040200000402020004020400040206000402080004020A0004020C0004020E000404000004040200040404000404060004040800040
310
40A0004040C0004040E00040600000406020004060400040606000406080004060A0004060C0004060E00040800000408020004080400040806000408080004080A0004080C0004080E00040A0000040A0200040A0400040A0600040A0800040A0A00040A0C00040A0E00040C0000040C0200040C0400040C0600040C08000
310
40C0A00040C0C00040C0E00040E0000040E0200040E0400040E0600040E0800040E0A00040E0C00040E0E00080000000800020008000400080006000800080008000A0008000C0008000E00080200000802020008020400080206000802080008020A0008020C0008020E00080400000804020008040400080406000804080
310
008040A0008040C0008040E00080600000806020008060400080606000806080008060A0008060C0008060E00080800000808020008080400080806000808080008080A0008080C0008080E00080A0000080A0200080A0400080A0600080A0800080A0A00080A0C00080A0E00080C0000080C0200080C0400080C0600080C0
310
800080C0A00080C0C00080C0E00080E0000080E0200080E0400080E0600080E0800080E0A00080E0C00080E0E000C0000000C0002000C0004000C0006000C0008000C000A000C000C000C000E000C0200000C0202000C0204000C0206000C0208000C020A000C020C000C020E000C0400000C0402000C0404000C0406000C0
310
408000C040A000C040C000C040E000C0600000C0602000C0604000C0606000C0608000C060A000C060C000C060E000C0800000C0802000C0804000C0806000C0808000C080A000C080C000C080E000C0A00000C0A02000C0A04000C0A06000C0A08000C0A0A000C0A0C000C0A0E000C0C00000C0C02000C0C04000C0C06000
310
C0C08000C0C0A000F0FBFF00A4A0A000808080000000FF0000FF000000FFFF00FF000000FF00FF00FFFF0000FFFFFF00000000000000000000000000000000000000000000000000000000000000000000000000000000000000000000000000FF000000000000000000000000000000000000000000000000000000000000
310
00FF000000000000000000000000000000000000000000000000000000000000FFFF00000000000000000000000000000000000000000000000000FFFFFFFFFFFFFFFFFFFFFFFF000000000000000000000000000000000000FFFFFFFFFF000000FF0000FFFFFFFFFF00000000000000000000000000000000FFFFFF000000
310
0000FF00000000FFFFFF000000000000000000000000000000FFFF000000FFFFFFFFFFFFFFFF000000FFFF0000000000000000000000000000FF0000FFFFFF000000FF0000FFFFFF0000FFFF000000000000000000000000FF0000FFFF0000000000FF00000000FFFF0000FF000000000000000000000000FF0000FF000000
310
000000FF0000000000FFFF0000FF00000000000000000000FF0000FFFF000000000000FF000000000000FF0000FF000000000000000000FFFF00A4FF00000000000000FF000000000000FFFF0000FF0000000000000000FF0000FF00000000000000000000000000000000FF0000FF00000000000000FFFF0000FF00000000
310
00000000FF00000000000000FF000000FF000000000000FF0000FFFF0000000000000000FF00000000000000FF000000FF00000000FFFFFFFFFFFFFFFFFFFFFFFF00FFFFFFFF00FFFFFFFFFFFFFFFFFFFFFFFF00000000FFFF0000FF0000000000000000FF00000000000000FF0000FFFF00000000000000FF0000FF000000
310
00000000000000000000000000FF0000FF0000000000000000FFFF00FFFF00000000000000FF000000000000FF0000FFFF000000000000000000FF0000FF00000000000000FF000000000000FF0000FF0000000000000000000000FF00FFFF000000000000FF0000000000FF0000FFFF0000000000000000000000FF0000FF
310
FF0000000000FF000000FFFFFF0000FF00000000000000000000000000FF0000FFFFFF000000FF0000FFFF000000FF0000000000000000000000000000FF00000000FFFFFFFFFFFFFFFF000000FFFF000000000000000000000000000000FFFF000000000000FF00000000FFFFFF00000000000000000000000000000000FF
310
FFFFFF00000000FF0000FFFFFFFFFF000000000000000000000000000000000000FFFFFFFFFFFFFFFFFFFFFFFF000000000000000000000000000000000000000000000000FFFFFF00000000000000000000000000000000000000000000000000000000000000FF0000000000000000000000000000000000000000000000
310
0000000000000000FF0000000000000000000000000000000000000000000000000000000000000000000000000000000000000000000000
102
{BLKREFS
331
2B6
102
}
1001
ACAD
1000
DesignCenter Data
1002
{
1070
     1
1070
     4
1002
}
  0
BLOCK_RECORD
  5
2B7
102
{ACAD_XDICTIONARY
360
335
102
}
330
1
100
AcDbSymbolTableRecord
100
AcDbBlockTableRecord
  2
2
340
0
310
2800000020000000200000000100080000000000000400000000000000000000000000000000000000000000000080000080000000808000800000008000800080800000C0C0C000C0DCC000F0CAA6000020400000206000002080000020A0000020C0000020E00000400000004020000040400000406000004080000040A0
310
000040C0000040E00000600000006020000060400000606000006080000060A0000060C0000060E00000800000008020000080400000806000008080000080A0000080C0000080E00000A0000000A0200000A0400000A0600000A0800000A0A00000A0C00000A0E00000C0000000C0200000C0400000C0600000C0800000C0
310
A00000C0C00000C0E00000E0000000E0200000E0400000E0600000E0800000E0A00000E0C00000E0E00040000000400020004000400040006000400080004000A0004000C0004000E00040200000402020004020400040206000402080004020A0004020C0004020E000404000004040200040404000404060004040800040
310
40A0004040C0004040E00040600000406020004060400040606000406080004060A0004060C0004060E00040800000408020004080400040806000408080004080A0004080C0004080E00040A0000040A0200040A0400040A0600040A0800040A0A00040A0C00040A0E00040C0000040C0200040C0400040C0600040C08000
310
40C0A00040C0C00040C0E00040E0000040E0200040E0400040E0600040E0800040E0A00040E0C00040E0E00080000000800020008000400080006000800080008000A0008000C0008000E00080200000802020008020400080206000802080008020A0008020C0008020E00080400000804020008040400080406000804080
310
008040A0008040C0008040E00080600000806020008060400080606000806080008060A0008060C0008060E00080800000808020008080400080806000808080008080A0008080C0008080E00080A0000080A0200080A0400080A0600080A0800080A0A00080A0C00080A0E00080C0000080C0200080C0400080C0600080C0
310
800080C0A00080C0C00080C0E00080E0000080E0200080E0400080E0600080E0800080E0A00080E0C00080E0E000C0000000C0002000C0004000C0006000C0008000C000A000C000C000C000E000C0200000C0202000C0204000C0206000C0208000C020A000C020C000C020E000C0400000C0402000C0404000C0406000C0
310
408000C040A000C040C000C040E000C0600000C0602000C0604000C0606000C0608000C060A000C060C000C060E000C0800000C0802000C0804000C0806000C0808000C080A000C080C000C080E000C0A00000C0A02000C0A04000C0A06000C0A08000C0A0A000C0A0C000C0A0E000C0C00000C0C02000C0C04000C0C06000
310
C0C08000C0C0A000F0FBFF00A4A0A000808080000000FF0000FF000000FFFF00FF000000FF00FF00FFFF0000FFFFFF0000000000000000000000000000000000000000000000000000000000000000000000000000000000000000000000000000000000000000000000000000000000000000000000000000000000000000
310
00000000000000000000000000000000000000000000000000000000000000000000000000000000000000000000000000000000000000000000000000000000000000000000000000000000000000000000000000000000000000000000000000000000000000000000000000000000000000000000000000000000000000
310
00000000000000000000000000000000000000000000000000000000000000000000000000000000000000000000000000000000000000000000000000000000000000000000000000000000000000000000000000000000000000000000000000000000000000000000000000000000000000000000000000000000000000
310
00000000000000000000000000000000000000000000000000000000000000000000000000000000000000000000000000000000000000000000000000000000000000000000000000000000000000000000000000FFFFFFFFFFFFFFFFFFFFFFFFFFFFFFFFFFFFFFFFFFFFFFFFFFFFFFFF00000000FF00000000FF0000FF00
310
000000000000000000FF0000FF00000000FF00000000FF00000000FF0000FF00000000000000000000FF0000FF00000000FF00000000FF00000000FF0000FF00000000000000000000FF0000FF00000000FF000000FFFFFFFFFFFFFFFFFFFFFFFFFFFFFFFFFFFFFFFFFFFFFFFFFFFFFFFFFFFF0000FFFFFFFFFFFFFFFFFFFF
310
FFFFFFFFFFFFFFFFFFFFFFFFFFFFFFFFFFFFFFFF0000000000000000000000000000000000000000000000000000000000000000000000000000000000000000000000000000000000000000000000000000000000000000000000000000000000000000000000000000000000000000000000000000000000000000000000
310
00000000000000000000000000000000000000000000000000000000000000000000000000000000000000000000000000000000000000000000000000000000000000000000000000000000000000000000000000000000000000000000000000000000000000000000000000000000000000000000000000000000000000
310
00000000000000000000000000000000000000000000000000000000000000000000000000000000000000000000000000000000000000000000000000000000000000000000000000000000000000000000000000000000000000000000000000000000000000000000000000000000000000000000000000000000000000
310
0000000000000000000000000000000000000000000000000000000000000000000000000000000000000000000000000000000000000000
102
{BLKREFS
331
2CD
102
}
1001
AcDbDynamicBlockGUID
1000
{355E42F9-9693-4E65-91D6-60D5CA2E8BC5}
1001
AcDbBlockRepETag
1070
     1
1071
       18
1001
ACAD
1000
DesignCenter Data
1002
{
1070
     1
1070
     4
1002
}
  0
BLOCK_RECORD
  5
2CE
330
1
100
AcDbSymbolTableRecord
100
AcDbBlockTableRecord
  2
3
340
0
310
2800000020000000200000000100080000000000000400000000000000000000000000000000000000000000000080000080000000808000800000008000800080800000C0C0C000C0DCC000F0CAA6000020400000206000002080000020A0000020C0000020E00000400000004020000040400000406000004080000040A0
310
000040C0000040E00000600000006020000060400000606000006080000060A0000060C0000060E00000800000008020000080400000806000008080000080A0000080C0000080E00000A0000000A0200000A0400000A0600000A0800000A0A00000A0C00000A0E00000C0000000C0200000C0400000C0600000C0800000C0
310
A00000C0C00000C0E00000E0000000E0200000E0400000E0600000E0800000E0A00000E0C00000E0E00040000000400020004000400040006000400080004000A0004000C0004000E00040200000402020004020400040206000402080004020A0004020C0004020E000404000004040200040404000404060004040800040
310
40A0004040C0004040E00040600000406020004060400040606000406080004060A0004060C0004060E00040800000408020004080400040806000408080004080A0004080C0004080E00040A0000040A0200040A0400040A0600040A0800040A0A00040A0C00040A0E00040C0000040C0200040C0400040C0600040C08000
310
40C0A00040C0C00040C0E00040E0000040E0200040E0400040E0600040E0800040E0A00040E0C00040E0E00080000000800020008000400080006000800080008000A0008000C0008000E00080200000802020008020400080206000802080008020A0008020C0008020E00080400000804020008040400080406000804080
310
008040A0008040C0008040E00080600000806020008060400080606000806080008060A0008060C0008060E00080800000808020008080400080806000808080008080A0008080C0008080E00080A0000080A0200080A0400080A0600080A0800080A0A00080A0C00080A0E00080C0000080C0200080C0400080C0600080C0
310
800080C0A00080C0C00080C0E00080E0000080E0200080E0400080E0600080E0800080E0A00080E0C00080E0E000C0000000C0002000C0004000C0006000C0008000C000A000C000C000C000E000C0200000C0202000C0204000C0206000C0208000C020A000C020C000C020E000C0400000C0402000C0404000C0406000C0
310
408000C040A000C040C000C040E000C0600000C0602000C0604000C0606000C0608000C060A000C060C000C060E000C0800000C0802000C0804000C0806000C0808000C080A000C080C000C080E000C0A00000C0A02000C0A04000C0A06000C0A08000C0A0A000C0A0C000C0A0E000C0C00000C0C02000C0C04000C0C06000
310
C0C08000C0C0A000F0FBFF00A4A0A000808080000000FF0000FF000000FFFF00FF000000FF00FF00FFFF0000FFFFFF0000000000000000000000000000000000000000000000000000000000000000000000000000000000000000000000000000000000000000000000000000000000000000000000000000000000000000
310
000000000000000000000000000000000000000000000000000000000000000000000000000000000000000000000000000000000000000000000000000000000000000000000000000000000000000000000000000000000000000000FFFFFFFFFFFFFFFFFF00000000000000000000000000000000000000FFFFFFFFFFFF
310
FFFFFFFFFFFFFFFFFFFF0000000000000000000000000000FFFFFFFFFFFFFFFF00000000FF000000FFFFFFFF0000000000000000000000FFFFFFFF00000000000000000000FF0000FFFFFFFFFF0000000000000000FFFFFF0000FF0000000000FFFFFFFFFFFFFFFFFF0000FFFFFF00000000000000FFFFFF00FFFFFFFFFFFF
310
FF000000000000000000FFFF00FFFFFF0000000000FFFFFFFFFFFF0000000000FFFFFFFFFFFFFFFF00000000FF00FFFFFF00000000FF00FFFF000000FFFFFFFF00000000000000FFFFFF000000FF0000FF000000FFFFFFFF0000A4FFFF000000000000000000000000FFFFFF0000FFFFFFFF0000FF00FFFF0000FF00000000
310
000000000000000000000000FF00000000FFFF0000FFFFFF0000FFFF00000000000000000000000000000000FFFF000000FFFF000000FFFF0000FF000000000000000000000000000000000000FF000000FF00000000FF000000FFFF00000000000000000000000000000000FFFF000000FF00000000FF000000FFFFFF0000
310
000000000000000000000000FFFFFF000000FF00000000FF000000FFFFFFFF000000000000000000000000FFFFFFFF0000FF0000000000FF000000FFFFFFFFFFFFFF0000000000FFFFFFFFFFFFFF000000FF000000000000FFFF0000FFFFFFFFFFFFFFFFFFFFFFFFFFFFFFFFFFFF0000FF000000000000000000FF0000FFFF
310
FFFFFFFFFFFFFFFFFFFFFFFFFF00000000FF00000000000000000000FF000000FFFFFFFFFFFFFFFFFFFFFF0000000000FF000000000000000000000000FFFF000000000000000000000000000000FFFF000000000000000000000000000000FFFF0000000000000000FFFFFFFFFF0000000000000000000000000000000000
310
0000FFFFFFFFFFFFFFFF000000000000000000000000000000000000000000000000000000000000000000000000000000000000000000000000000000000000000000000000000000000000000000000000000000000000000000000000000000000000000000000000000000000000000000000000000000000000000000
310
0000000000000000000000000000000000000000000000000000000000000000000000000000000000000000000000000000000000000000
102
{BLKREFS
331
317
102
}
1001
ACAD
1000
DesignCenter Data
1002
{
1070
     1
1070
     4
1002
}
  0
ENDTAB
  0
ENDSEC
  0
SECTION
  2
BLOCKS
  0
BLOCK
  5
20
330
1F
100
AcDbEntity
  8
0
100
AcDbBlockBegin
  2
*Model_Space
 70
     0
 10
0.0
 20
0.0
 30
0.0
  3
*Model_Space
  1

  0
ENDBLK
  5
21
330
1F
100
AcDbEntity
  8
0
100
AcDbBlockEnd
  0
BLOCK
  5
D4
330
D2
100
AcDbEntity
 67
     1
  8
0
100
AcDbBlockBegin
  2
*Paper_Space
 70
     0
 10
0.0
 20
0.0
 30
0.0
  3
*Paper_Space
  1

  0
ENDBLK
  5
D5
330
D2
100
AcDbEntity
 67
     1
  8
0
100
AcDbBlockEnd
  0
BLOCK
  5
D8
330
D6
100
AcDbEntity
 67
     1
  8
0
100
AcDbBlockBegin
  2
*Paper_Space0
 70
     0
 10
0.0
 20
0.0
 30
0.0
  3
*Paper_Space0
  1

  0
ENDBLK
  5
D9
330
D6
100
AcDbEntity
 67
     1
  8
0
100
AcDbBlockEnd
  0
BLOCK
  5
1AE
330
1AD
100
AcDbEntity
  8
0
100
AcDbBlockBegin
  2
SW_CENTERMARKSYMBOL_0
 70
     0
 10
0.0
 20
0.0
 30
0.0
  3
SW_CENTERMARKSYMBOL_0
  1

  0
LINE
  5
1AF
330
1AD
100
AcDbEntity
  8
0
  6
Continuous
 62
     0
370
     0
100
AcDbLine
 10
0.0
 20
0.0
 30
0.0
 11
0.0
 21
2.500000000000002
 31
0.0
  0
LINE
  5
1B0
330
1AD
100
AcDbEntity
  8
0
  6
Continuous
 62
     0
370
     0
100
AcDbLine
 10
0.0
 20
0.0
 30
0.0
 11
-2.500000000000002
 21
0.0
 31
0.0
  0
LINE
  5
1B1
330
1AD
100
AcDbEntity
  8
0
  6
Continuous
 62
     0
370
     0
100
AcDbLine
 10
0.0
 20
0.0
 30
0.0
 11
0.0
 21
-2.500000000000002
 31
0.0
  0
LINE
  5
1B2
330
1AD
100
AcDbEntity
  8
0
  6
Continuous
 62
     0
370
     0
100
AcDbLine
 10
0.0
 20
0.0
 30
0.0
 11
2.500000000000002
 21
0.0
 31
0.0
  0
LINE
  5
1B3
330
1AD
100
AcDbEntity
  8
0
  6
Continuous
 62
     0
370
     0
100
AcDbLine
 10
0.0
 20
5.000000000000004
 30
0.0
 11
0.0
 21
22.25000000000016
 31
0.0
  0
LINE
  5
1B4
330
1AD
100
AcDbEntity
  8
0
  6
Continuous
 62
     0
370
     0
100
AcDbLine
 10
-5.000000000000004
 20
0.0
 30
0.0
 11
-22.25000000000016
 21
0.0
 31
0.0
  0
LINE
  5
1B5
330
1AD
100
AcDbEntity
  8
0
  6
Continuous
 62
     0
370
     0
100
AcDbLine
 10
0.0
 20
-5.000000000000004
 30
0.0
 11
0.0
 21
-22.25000000000016
 31
0.0
  0
LINE
  5
1B6
330
1AD
100
AcDbEntity
  8
0
  6
Continuous
 62
     0
370
     0
100
AcDbLine
 10
5.000000000000004
 20
0.0
 30
0.0
 11
22.25000000000016
 21
0.0
 31
0.0
  0
ENDBLK
  5
1B7
330
1AD
100
AcDbEntity
  8
0
100
AcDbBlockEnd
  0
BLOCK
  5
29D
330
29C
100
AcDbEntity
  8
0
100
AcDbBlockBegin
  2
1
 70
     0
 10
0.0
 20
0.0
 30
0.0
  3
1
  1

  0
SPLINE
  5
29F
330
29C
100
AcDbEntity
  8
0
  6
Continuous
 62
     7
370
    15
100
AcDbSpline
210
0.0
220
0.0
230
1.0
 70
     8
 71
     3
 72
    75
 73
    71
 74
     0
 42
0.0000000001
 43
0.0000000001
 40
0.0
 40
0.0
 40
0.0
 40
0.0
 40
0.0073995067500884
 40
0.0179278129339246
 40
0.0278367875429381
 40
0.0370954572143419
 40
0.0473137603991746
 40
0.0565504216203905
 40
0.0654881972546319
 40
0.0744728173026994
 40
0.0834911308260096
 40
0.0985566779514466
 40
0.1136153472257681
 40
0.1286100085664262
 40
0.1438145957906168
 40
0.1593431723240723
 40
0.1750268940353953
 40
0.1907871015288501
 40
0.2065542437827239
 40
0.222258586437103
 40
0.2378320468539318
 40
0.2532097029147805
 40
0.2684611504317981
 40
0.2839173379456036
 40
0.2995416698945225
 40
0.3152679659301775
 40
0.3310273921835887
 40
0.3467502420312152
 40
0.362369144190597
 40
0.3778192872284964
 40
0.3930559637522443
 40
0.4083971597313613
 40
0.4239369414830662
 40
0.4396111505051732
 40
0.4553532952799899
 40
0.4710971101425782
 40
0.4867733789555603
 40
0.5023144740277585
 40
0.5176562426704149
 40
0.532915113241648
 40
0.5483935998441814
 40
0.5640381114767303
 40
0.5797816419968434
 40
0.5955550917682379
 40
0.6112885709101322
 40
0.6269132442986562
 40
0.6423630765318848
 40
0.657610005488256
 40
0.6729951743163811
 40
0.6885694596517562
 40
0.7042679437601246
 40
0.7200225003334073
 40
0.7357635293942964
 40
0.7514228419569501
 40
0.7669353040530468
 40
0.7822375622800202
 40
0.7975004278681475
 40
0.8129806342698294
 40
0.8286174297565029
 40
0.8443447445905814
 40
0.8600967905086012
 40
0.8758044656776448
 40
0.891399336152282
 40
0.9068158914581838
 40
0.922053124843962
 40
0.9374633512409118
 40
0.9530611495811495
 40
0.968780214267292
 40
0.9845520959142739
 40
1.0
 40
1.0
 40
1.0
 40
1.0
 10
1834.986160484657
 20
864.3258818448494
 30
0.0
 10
1835.031975237016
 20
864.1322377369402
 30
0.0
 10
1835.142977002086
 20
863.6630692559043
 30
0.0
 10
1835.253962939083
 20
862.9220468987332
 30
0.0
 10
1835.331340425298
 20
862.1271843519505
 30
0.0
 10
1835.360863532405
 20
861.3372569293519
 30
0.0
 10
1835.345256793071
 20
860.5650060262846
 30
0.0
 10
1835.285364470876
 20
859.8036584409008
 30
0.0
 10
1835.188674425541
 20
859.0796002107447
 30
0.0
 10
1835.054446339458
 20
858.3675063538663
 30
0.0
 10
1834.842965202937
 20
857.5036229477376
 30
0.0
 10
1834.519436537788
 20
856.5006732634053
 30
0.0
 10
1834.044134497408
 20
855.3829352112055
 30
0.0
 10
1833.468727164165
 20
854.3089917247204
 30
0.0
 10
1832.791903876479
 20
853.2806807321399
 30
0.0
 10
1832.012010234835
 20
852.3042255573201
 30
0.0
 10
1831.134163371489
 20
851.3938631176221
 30
0.0
 10
1830.169892474038
 20
850.5656844459805
 30
0.0
 10
1829.131535444702
 20
849.8315675252609
 30
0.0
 10
1828.033198962402
 20
849.2007113933695
 30
0.0
 10
1826.89034104512
 20
848.6794762976973
 30
0.0
 10
1825.715773894316
 20
848.2700444623805
 30
0.0
 10
1824.511786804133
 20
847.9704474373924
 30
0.0
 10
1823.278813000202
 20
847.7814229292148
 30
0.0
 10
1822.020831576454
 20
847.7068028177285
 30
0.0
 10
1820.753208750562
 20
847.7504701708884
 30
0.0
 10
1819.492658606391
 20
847.9133750474359
 30
0.0
 10
1818.255811980072
 20
848.1933323213972
 30
0.0
 10
1817.058498835679
 20
848.5851359381545
 30
0.0
 10
1815.914701470051
 20
849.0810341523969
 30
0.0
 10
1814.827709815798
 20
849.6759791844899
 30
0.0
 10
1813.797521549602
 20
850.3689826761545
 30
0.0
 10
1812.826422312754
 20
851.1614367656855
 30
0.0
 10
1811.925644424
 20
852.0484841442181
 30
0.0
 10
1811.108442469718
 20
853.0202789264633
 30
0.0
 10
1810.386121362058
 20
854.0645962175583
 30
0.0
 10
1809.767542721445
 20
855.1673018289173
 30
0.0
 10
1809.258772484966
 20
856.3129188615562
 30
0.0
 10
1808.861346221163
 20
857.4898667063308
 30
0.0
 10
1808.573446008129
 20
858.6965345787
 30
0.0
 10
1808.396273744341
 20
859.9326284507304
 30
0.0
 10
1808.334015979203
 20
861.1928958003771
 30
0.0
 10
1808.390418130755
 20
862.4614058075264
 30
0.0
 10
1808.566193382503
 20
863.7213678691439
 30
0.0
 10
1808.858900183806
 20
864.9561043649626
 30
0.0
 10
1809.263054228381
 20
866.1497649775816
 30
0.0
 10
1809.770802517775
 20
867.2888159540539
 30
0.0
 10
1810.377581946895
 20
868.3709137431417
 30
0.0
 10
1811.082645099598
 20
869.3957974073342
 30
0.0
 10
1811.88718081076
 20
870.3605250127337
 30
0.0
 10
1812.785298468383
 20
871.2529942374626
 30
0.0
 10
1813.76668550715
 20
872.0600936409914
 30
0.0
 10
1814.818701823196
 20
872.7708016547065
 30
0.0
 10
1815.926947025289
 20
873.3766826085712
 30
0.0
 10
1817.075871895448
 20
873.8721670920011
 30
0.0
 10
1818.255307083078
 20
874.2565889909011
 30
0.0
 10
1819.464035119079
 20
874.5316407623787
 30
0.0
 10
1820.701864328485
 20
874.6958362212049
 30
0.0
 10
1821.96211406263
 20
874.7448766246632
 30
0.0
 10
1823.228746126765
 20
874.6753585915392
 30
0.0
 10
1824.485140658583
 20
874.4868913845172
 30
0.0
 10
1825.714826646057
 20
874.1821775748537
 30
0.0
 10
1826.902134058041
 20
873.7669302041741
 30
0.0
 10
1828.034365786416
 20
873.2488719386973
 30
0.0
 10
1829.110162880423
 20
872.6319289428744
 30
0.0
 10
1830.128902762048
 20
871.9162812402457
 30
0.0
 10
1831.087513012755
 20
871.1013326622156
 30
0.0
 10
1831.970500761204
 20
870.1921866277881
 30
0.0
 10
1832.769414059723
 20
869.2116921459016
 30
0.0
 10
1833.218592292605
 20
868.5019629197583
 30
0.0
 10
1833.440850776964
 20
868.1507808486781
 30
0.0
  0
LINE
  5
2A0
330
29C
100
AcDbEntity
  8
0
  6
Continuous
 62
     7
370
    15
100
AcDbLine
 10
1834.949071313121
 20
864.4725276630442
 30
0.0
 11
1835.143143963596
 21
863.5767113178982
 31
0.0
  0
LINE
  5
2A1
330
29C
100
AcDbEntity
  8
0
  6
Continuous
 62
     7
370
    15
100
AcDbLine
 10
1828.556925363221
 20
872.9412689514317
 30
0.0
 11
1828.603785260313
 21
872.9168751736715
 31
0.0
  0
SPLINE
  5
2A2
330
29C
100
AcDbEntity
  8
0
  6
Continuous
 62
     7
370
    15
100
AcDbSpline
210
0.0
220
0.0
230
1.0
 70
     8
 71
     3
 72
    44
 73
    40
 74
     0
 42
0.0000000001
 43
0.0000000001
 40
0.0
 40
0.0
 40
0.0
 40
0.0
 40
0.06250000000004
 40
0.06250000000004
 40
0.12500000000008
 40
0.12500000000008
 40
0.1562500000000881
 40
0.1562500000000881
 40
0.1875000000000962
 40
0.1875000000000962
 40
0.2500000000001123
 40
0.2500000000001123
 40
0.3125000000001285
 40
0.3125000000001285
 40
0.3437500000001366
 40
0.3437500000001366
 40
0.3750000000001447
 40
0.3750000000001447
 40
0.4375000000001547
 40
0.4375000000001547
 40
0.5000000000001645
 40
0.5000000000001645
 40
0.5625000000001746
 40
0.5625000000001746
 40
0.5937500000001591
 40
0.5937500000001591
 40
0.6250000000001437
 40
0.6250000000001437
 40
0.7500000000000422
 40
0.7500000000000422
 40
0.7812500000000369
 40
0.7812500000000369
 40
0.8125000000000316
 40
0.8125000000000316
 40
0.8750000000000209
 40
0.8750000000000209
 40
0.9375000000000104
 40
0.9375000000000104
 40
1.0
 40
1.0
 40
1.0
 40
1.0
 10
1835.372977707741
 20
860.2606401220183
 30
0.0
 10
1835.340225529327
 20
859.5857422953141
 30
0.0
 10
1835.25729551815
 20
858.9157643872251
 30
0.0
 10
1834.992232735179
 20
857.5921852556938
 30
0.0
 10
1834.811928631374
 20
856.9468684913129
 30
0.0
 10
1834.471717510255
 20
856.0029459813852
 30
0.0
 10
1834.346638898171
 20
855.6923308402218
 30
0.0
 10
1834.072866700277
 20
855.0792433815482
 30
0.0
 10
1833.923559694829
 20
854.7756744474865
 30
0.0
 10
1833.444092738892
 20
853.8863208122178
 30
0.0
 10
1833.084575070598
 20
853.3231492639464
 30
0.0
 10
1832.288740886256
 20
852.2540703608665
 30
0.0
 10
1831.852353057479
 20
851.7482161795877
 30
0.0
 10
1831.138219958562
 20
851.0338387035131
 30
0.0
 10
1830.89039962925
 20
850.8035093122337
 30
0.0
 10
1830.38287459793
 20
850.3651551830579
 30
0.0
 10
1830.122217692024
 20
850.1561439044484
 30
0.0
 10
1829.319922801997
 20
849.5590780829839
 30
0.0
 10
1828.758066504229
 20
849.2008354657729
 30
0.0
 10
1827.579691746796
 20
848.5649496490264
 30
0.0
 10
1826.959587961471
 20
848.2867249718387
 30
0.0
 10
1825.702518764481
 20
847.8295566861127
 30
0.0
 10
1825.061473026156
 20
847.648040337974
 30
0.0
 10
1824.081741420956
 20
847.4440963003962
 30
0.0
 10
1823.752110311782
 20
847.3876039707649
 30
0.0
 10
1823.086620327261
 20
847.2980486092108
 30
0.0
 10
1822.749529033525
 20
847.2649651813913
 30
0.0
 10
1821.072180567329
 20
847.1611469747855
 30
0.0
 10
1819.744399561171
 20
847.2685038843575
 30
0.0
 10
1818.102403321668
 20
847.642170496397
 30
0.0
 10
1817.775752352348
 20
847.7290274489428
 30
0.0
 10
1817.134560366246
 20
847.9243296503522
 30
0.0
 10
1816.818769942192
 20
848.0330426665053
 30
0.0
 10
1815.88557423331
 20
848.391812373787
 30
0.0
 10
1815.282298213206
 20
848.6743931493286
 30
0.0
 10
1814.113760030769
 20
849.3270586111405
 30
0.0
 10
1813.546003152413
 20
849.6988380476945
 30
0.0
 10
1812.476834846713
 20
850.5128059197746
 30
0.0
 10
1811.972108393337
 20
850.9563602498699
 30
0.0
 10
1811.49770915103
 20
851.4370600425763
 30
0.0
  0
SPLINE
  5
2A3
330
29C
100
AcDbEntity
  8
0
  6
Continuous
 62
     7
370
    15
100
AcDbSpline
210
0.0
220
0.0
230
1.0
 70
     8
 71
     3
 72
    20
 73
    16
 74
     0
 42
0.0000000001
 43
0.0000000001
 40
0.0
 40
0.0
 40
0.0
 40
0.0
 40
0.1249999999999785
 40
0.1249999999999785
 40
0.249999999999957
 40
0.249999999999957
 40
0.4999999999999983
 40
0.4999999999999983
 40
0.6249999999999987
 40
0.6249999999999987
 40
0.7499999999999992
 40
0.7499999999999992
 40
0.8749999999999996
 40
0.8749999999999996
 40
1.0
 40
1.0
 40
1.0
 40
1.0
 10
1830.942200782045
 20
871.280395946206
 30
0.0
 10
1831.316221518269
 20
870.9267658420888
 30
0.0
 10
1831.671974783237
 20
870.5543871112107
 30
0.0
 10
1832.341567203368
 20
869.7730963519218
 30
0.0
 10
1832.652398532177
 20
869.3680055070538
 30
0.0
 10
1833.514288396287
 20
868.1101744726795
 30
0.0
 10
1833.995578053309
 20
867.2153792488071
 30
0.0
 10
1834.571064259099
 20
865.7849108438728
 30
0.0
 10
1834.735768553683
 20
865.2990157888545
 30
0.0
 10
1835.009259897166
 20
864.3191155778479
 30
0.0
 10
1835.118704810402
 20
863.8236081873358
 30
0.0
 10
1835.283903137422
 20
862.8216640775546
 30
0.0
 10
1835.339623479009
 20
862.3152206261796
 30
0.0
 10
1835.396856404326
 20
861.2912993061957
 30
0.0
 10
1835.397925589728
 20
860.7747210826671
 30
0.0
 10
1835.372977707725
 20
860.2606401220207
 30
0.0
  0
LINE
  5
2A4
330
29C
100
AcDbEntity
  8
0
  6
Continuous
 62
     7
370
    15
100
AcDbLine
 10
1833.555900302952
 20
876.7541045866131
 30
0.0
 11
1841.152980933388
 21
863.5955749455009
 31
0.0
  0
SPLINE
  5
2A5
330
29C
100
AcDbEntity
  8
0
  6
Continuous
 62
     7
370
    15
100
AcDbSpline
210
0.0
220
0.0
230
1.0
 70
     8
 71
     3
 72
     8
 73
     4
 74
     0
 42
0.0000000001
 43
0.0000000001
 40
0.0
 40
0.0
 40
0.0
 40
0.0
 40
1.0
 40
1.0
 40
1.0
 40
1.0
 10
1841.152980933389
 20
863.5955749455003
 30
0.0
 10
1841.346050046154
 20
862.0234182288129
 30
0.0
 10
1841.346050046153
 20
860.4276462163419
 30
0.0
 10
1841.152980933388
 20
858.8554894996546
 30
0.0
  0
SPLINE
  5
2A6
330
29C
100
AcDbEntity
  8
0
  6
Continuous
 62
     7
370
    15
100
AcDbSpline
210
0.0
220
0.0
230
1.0
 70
     8
 71
     3
 72
     8
 73
     4
 74
     0
 42
0.0000000001
 43
0.0000000001
 40
0.0
 40
0.0
 40
0.0
 40
0.0
 40
1.0
 40
1.0
 40
1.0
 40
1.0
 10
1833.555900302952
 20
845.6969598585496
 30
0.0
 10
1832.290907203956
 20
844.7436787438679
 30
0.0
 10
1830.908928102511
 20
843.9457927376341
 30
0.0
 10
1829.45086589075
 20
843.3269171356322
 30
0.0
  0
LINE
  5
2A7
330
29C
100
AcDbEntity
  8
0
  6
Continuous
 62
     7
370
    15
100
AcDbLine
 10
1829.450865890748
 20
843.3269171356322
 30
0.0
 11
1814.256704629875
 21
843.3269171356322
 31
0.0
  0
SPLINE
  5
2A8
330
29C
100
AcDbEntity
  8
0
  6
Continuous
 62
     7
370
    15
100
AcDbSpline
210
0.0
220
0.0
230
1.0
 70
     8
 71
     3
 72
     8
 73
     4
 74
     0
 42
0.0000000001
 43
0.0000000001
 40
0.0
 40
0.0
 40
0.0
 40
0.0
 40
1.0
 40
1.0
 40
1.0
 40
1.0
 10
1814.256704629873
 20
843.3269171356329
 30
0.0
 10
1812.798642418113
 20
843.9457927376347
 30
0.0
 10
1811.41666331667
 20
844.7436787438681
 30
0.0
 10
1810.151670217674
 20
845.6969598585493
 30
0.0
  0
LINE
  5
2A9
330
29C
100
AcDbEntity
  8
0
  6
Continuous
 62
     7
370
    15
100
AcDbLine
 10
1810.151670217673
 20
845.6969598585502
 30
0.0
 11
1802.554589587236
 21
858.8554894996638
 31
0.0
  0
SPLINE
  5
2AA
330
29C
100
AcDbEntity
  8
0
  6
Continuous
 62
     7
370
    15
100
AcDbSpline
210
0.0
220
0.0
230
1.0
 70
     8
 71
     3
 72
     8
 73
     4
 74
     0
 42
0.0000000001
 43
0.0000000001
 40
0.0
 40
0.0
 40
0.0
 40
0.0
 40
1.0
 40
1.0
 40
1.0
 40
1.0
 10
1802.554589587236
 20
858.8554894996645
 30
0.0
 10
1802.361520474472
 20
860.4276462163513
 30
0.0
 10
1802.361520474473
 20
862.0234182288218
 30
0.0
 10
1802.554589587238
 20
863.5955749455083
 30
0.0
  0
LINE
  5
2AB
330
29C
100
AcDbEntity
  8
0
  6
Continuous
 62
     7
370
    15
100
AcDbLine
 10
1802.554589587234
 20
863.5955749455016
 30
0.0
 11
1810.151670217666
 21
876.7541045866078
 31
0.0
  0
SPLINE
  5
2AC
330
29C
100
AcDbEntity
  8
0
  6
Continuous
 62
     7
370
    15
100
AcDbSpline
210
0.0
220
0.0
230
1.0
 70
     8
 71
     3
 72
     8
 73
     4
 74
     0
 42
0.0000000001
 43
0.0000000001
 40
0.0
 40
0.0
 40
0.0
 40
0.0
 40
1.0
 40
1.0
 40
1.0
 40
1.0
 10
1810.15167021767
 20
876.7541045866105
 30
0.0
 10
1811.416663316668
 20
877.7073857012936
 30
0.0
 10
1812.798642418115
 20
878.5052717075286
 30
0.0
 10
1814.256704629877
 20
879.1241473095313
 30
0.0
  0
LINE
  5
2AD
330
29C
100
AcDbEntity
  8
0
  6
Continuous
 62
     7
370
    15
100
AcDbLine
 10
1814.256704629873
 20
879.1241473095313
 30
0.0
 11
1829.450865890748
 21
879.1241473095313
 31
0.0
  0
SPLINE
  5
2AE
330
29C
100
AcDbEntity
  8
0
  6
Continuous
 62
     7
370
    15
100
AcDbSpline
210
0.0
220
0.0
230
1.0
 70
     8
 71
     3
 72
     8
 73
     4
 74
     0
 42
0.0000000001
 43
0.0000000001
 40
0.0
 40
0.0
 40
0.0
 40
0.0
 40
1.0
 40
1.0
 40
1.0
 40
1.0
 10
1829.450865890748
 20
879.1241473095315
 30
0.0
 10
1830.90892810251
 20
878.505271707529
 30
0.0
 10
1832.290907203956
 20
877.7073857012945
 30
0.0
 10
1833.555900302954
 20
876.7541045866119
 30
0.0
  0
ARC
  5
2AF
330
29C
100
AcDbEntity
  8
0
  6
Continuous
 62
     7
370
    15
100
AcDbCircle
 10
1821.853785260313
 20
861.2255322225813
 30
0.0
 40
14.24999999999983
100
AcDbArc
 50
180.398159102714
 51
223.3860294709037
  0
LINE
  5
2B0
330
29C
100
AcDbEntity
  8
0
  6
Continuous
 62
     7
370
    15
100
AcDbLine
 10
1841.152980933393
 20
858.8554894996642
 30
0.0
 11
1833.555900302959
 21
845.6969598585549
 31
0.0
  0
SPLINE
  5
2B1
330
29C
100
AcDbEntity
  8
0
  6
Continuous
 62
     7
370
    15
100
AcDbSpline
210
0.0
220
0.0
230
1.0
 70
     8
 71
     3
 72
    42
 73
    38
 74
     0
 42
0.0000000001
 43
0.0000000001
 40
0.0
 40
0.0
 40
0.0
 40
0.0
 40
0.0624999999999716
 40
0.0624999999999716
 40
0.1249999999999432
 40
0.1249999999999432
 40
0.1874999999999147
 40
0.1874999999999147
 40
0.218749999999914
 40
0.218749999999914
 40
0.2499999999999133
 40
0.2499999999999133
 40
0.3124999999999031
 40
0.3124999999999031
 40
0.3437499999999118
 40
0.3437499999999118
 40
0.3749999999999205
 40
0.3749999999999205
 40
0.4999999999999306
 40
0.4999999999999306
 40
0.5624999999999166
 40
0.5624999999999166
 40
0.6249999999999028
 40
0.6249999999999028
 40
0.6874999999998889
 40
0.6874999999998889
 40
0.749999999999875
 40
0.749999999999875
 40
0.7812499999998895
 40
0.7812499999998895
 40
0.8124999999999038
 40
0.8124999999999038
 40
0.8749999999999358
 40
0.8749999999999358
 40
0.937499999999968
 40
0.937499999999968
 40
1.0
 40
1.0
 40
1.0
 40
1.0
 10
1807.604129333757
 20
861.1265071007231
 30
0.0
 10
1807.613947083653
 20
861.8020595186223
 30
0.0
 10
1807.671856217669
 20
862.4748129395552
 30
0.0
 10
1807.882881468859
 20
863.8077110110254
 30
0.0
 10
1808.034421967845
 20
864.4590131526733
 30
0.0
 10
1808.426086821594
 20
865.7324661808173
 30
0.0
 10
1808.666218720828
 20
866.3546145845719
 30
0.0
 10
1809.094314012472
 20
867.2654934384953
 30
0.0
 10
1809.249071917914
 20
867.5665686318607
 30
0.0
 10
1809.577912737651
 20
868.1538113792582
 30
0.0
 10
1809.751855768963
 20
868.4400828461068
 30
0.0
 10
1810.302285684818
 20
869.2768220882337
 30
0.0
 10
1810.707050638577
 20
869.8054638174093
 30
0.0
 10
1811.370823492342
 20
870.5547208425123
 30
0.0
 10
1811.601554240686
 20
870.797161476341
 30
0.0
 10
1812.08239227507
 20
871.2670872248695
 30
0.0
 10
1812.333151801594
 20
871.4950009361304
 30
0.0
 10
1813.615693872355
 20
872.5787111478732
 30
0.0
 10
1814.745446809209
 20
873.2848281058295
 30
0.0
 10
1816.59765130974
 20
874.0996309930796
 30
0.0
 10
1817.230940709479
 20
874.3247703725039
 30
0.0
 10
1818.515447343983
 20
874.6808719660061
 30
0.0
 10
1819.168768100351
 20
874.8124981299675
 30
0.0
 10
1820.498273215659
 20
874.979844409275
 30
0.0
 10
1821.177164559584
 20
875.0149274448498
 30
0.0
 10
1822.513979756147
 20
874.9859881180682
 30
0.0
 10
1823.177177562407
 20
874.9230504099061
 30
0.0
 10
1824.164202420213
 20
874.7563402990666
 30
0.0
 10
1824.491910320608
 20
874.6886724385612
 30
0.0
 10
1825.144669328085
 20
874.5286198811324
 30
0.0
 10
1825.470715871215
 20
874.4358307307019
 30
0.0
 10
1826.429586540223
 20
874.1243694072048
 30
0.0
 10
1827.047473175348
 20
873.872059466735
 30
0.0
 10
1828.241620244373
 20
873.2803908202333
 30
0.0
 10
1828.818003964846
 20
872.9412899312402
 30
0.0
 10
1829.926643143291
 20
872.1708070739138
 30
0.0
 10
1830.450995205723
 20
871.7448222794955
 30
0.0
 10
1830.942200782048
 20
871.2803959462039
 30
0.0
  0
CIRCLE
  5
2B2
330
29C
100
AcDbEntity
  8
0
  6
Continuous
 62
     7
370
    15
100
AcDbCircle
 10
1821.853785260313
 20
861.2255322225813
 30
0.0
 40
19.75000000000014
  0
SPLINE
  5
2B3
330
29C
100
AcDbEntity
  8
0
  6
Continuous
 62
     8
370
    15
100
AcDbSpline
210
0.0
220
0.0
230
1.0
 70
     8
 71
     3
 72
    76
 73
    72
 74
     0
 42
0.0000000001
 43
0.0000000001
 40
0.0
 40
0.0
 40
0.0
 40
0.0
 40
0.004309439342406
 40
0.0190553250346052
 40
0.0335985575078881
 40
0.0482419880196011
 40
0.063075536099524
 40
0.0780382553606704
 40
0.0930658937233271
 40
0.1080925052225685
 40
0.1230521708567979
 40
0.1378807176849427
 40
0.1525173255887346
 40
0.1670643999837445
 40
0.1818161590432324
 40
0.1967261618148395
 40
0.2117315156782483
 40
0.2267668585841645
 40
0.2417660420870366
 40
0.2566638653624888
 40
0.2713977478407284
 40
0.2859346023865944
 40
0.3005916119162292
 40
0.3154350562337072
 40
0.3304037387206438
 40
0.3454332526138057
 40
0.3604576026864762
 40
0.3754109292982295
 40
0.390229223637972
 40
0.4048519240369581
 40
0.4194080986167628
 40
0.4341715167240232
 40
0.4490893517614851
 40
0.4640985100353591
 40
0.4791335299927558
 40
0.4941282716816349
 40
0.5090176502152431
 40
0.5237393009386455
 40
0.5382715975275621
 40
0.5529419649388042
 40
0.5677950661950159
 40
0.5827694600142423
 40
0.5978005913113265
 40
0.6128224223628976
 40
0.6277691596201311
 40
0.642576964663525
 40
0.6571855396881362
 40
0.6717526325965348
 40
0.6865274783343552
 40
0.7014528988961527
 40
0.7164656055480966
 40
0.7315000438624609
 40
0.7464900891829767
 40
0.7613707790935421
 40
0.7760799707073063
 40
0.7906095297407934
 40
0.8052930326191219
 40
0.8201555505554305
 40
0.8351354032314585
 40
0.8501678936391105
 40
0.8651869483344086
 40
0.8801268465736466
 40
0.89492392654785
 40
0.9095181596666797
 40
0.9240979880155254
 40
0.9388840288490676
 40
0.953816787428464
 40
0.9688327860616325
 40
0.9838663840984724
 40
0.9988514789768268
 40
1.0
 40
1.0
 40
1.0
 40
1.0
 10
1830.689430415176
 20
871.4872947687602
 30
0.0
 10
1830.599591698728
 20
871.5692830182472
 30
0.0
 10
1830.20234606963
 20
871.9318157327972
 30
0.0
 10
1829.426767925325
 20
872.482482766828
 30
0.0
 10
1828.370687943214
 20
873.1325571404594
 30
0.0
 10
1827.252358607769
 20
873.6780339243365
 30
0.0
 10
1826.078903605327
 20
874.1244411653733
 30
0.0
 10
1824.858170398494
 20
874.4622524080662
 30
0.0
 10
1823.605910380318
 20
874.6854841382326
 30
0.0
 10
1822.338296525751
 20
874.7902966944518
 30
0.0
 10
1821.072081392277
 20
874.7761590398756
 30
0.0
 10
1819.823639798466
 20
874.6455760922296
 30
0.0
 10
1818.603953545968
 20
874.4030799978872
 30
0.0
 10
1817.413503725268
 20
874.0511750341854
 30
0.0
 10
1816.252987225117
 20
873.589071202929
 30
0.0
 10
1815.128643051479
 20
873.0156783981689
 30
0.0
 10
1814.055926691188
 20
872.3355721950142
 30
0.0
 10
1813.049660508754
 20
871.5563962595647
 30
0.0
 10
1812.123037767905
 20
870.6884588497841
 30
0.0
 10
1811.287051873355
 20
869.744282876042
 30
0.0
 10
1810.549651366725
 20
868.7374416879965
 30
0.0
 10
1809.910783315705
 20
867.6733406108697
 30
0.0
 10
1809.370120534365
 20
866.552673350692
 30
0.0
 10
1808.930597702437
 20
865.3755460341775
 30
0.0
 10
1808.599686957711
 20
864.1524650938093
 30
0.0
 10
1808.383802242522
 20
862.8987381136839
 30
0.0
 10
1808.286429694907
 20
861.6307279116034
 30
0.0
 10
1808.307948768746
 20
860.3651489347544
 30
0.0
 10
1808.445654570643
 20
859.1183423152218
 30
0.0
 10
1808.695022962899
 20
857.9004793070451
 30
0.0
 10
1809.053755800311
 20
856.7118652949284
 30
0.0
 10
1809.522838040136
 20
855.5532779763341
 30
0.0
 10
1810.103066522943
 20
854.4317033401277
 30
0.0
 10
1810.789615061267
 20
853.362717868363
 30
0.0
 10
1811.574663539768
 20
852.3610610256483
 30
0.0
 10
1812.447750519748
 20
851.439804037998
 30
0.0
 10
1813.396233050089
 20
850.6097871246446
 30
0.0
 10
1814.406715456889
 20
849.8786036187061
 30
0.0
 10
1815.474352729684
 20
849.2458545160873
 30
0.0
 10
1816.598568087326
 20
848.7113872699902
 30
0.0
 10
1817.77898557516
 20
848.2784110048195
 30
0.0
 10
1819.004443603303
 20
847.9545272339381
 30
0.0
 10
1820.259549356631
 20
847.745975854727
 30
0.0
 10
1821.527896896634
 20
847.6560521197953
 30
0.0
 10
1822.792773997371
 20
847.6849400317208
 30
0.0
 10
1824.037886248662
 20
847.8297473346637
 30
0.0
 10
1825.253926251997
 20
848.0859762700555
 30
0.0
 10
1826.44070276801
 20
848.4515384547822
 30
0.0
 10
1827.59735181829
 20
848.9276117861479
 30
0.0
 10
1828.716095247473
 20
849.5146568217085
 30
0.0
 10
1829.78129208745
 20
850.2076170812276
 30
0.0
 10
1830.778288392308
 20
850.9984971237537
 30
0.0
 10
1831.694137185537
 20
851.8766841369323
 30
0.0
 10
1832.51815304725
 20
852.8294174619254
 30
0.0
 10
1833.243129093952
 20
853.8435303950059
 30
0.0
 10
1833.869759232882
 20
854.9147024982712
 30
0.0
 10
1834.398018468764
 20
856.0424691596486
 30
0.0
 10
1834.824413532957
 20
857.2261229861371
 30
0.0
 10
1835.14124584884
 20
858.4538978079345
 30
0.0
 10
1835.342451024422
 20
859.710318128398
 30
0.0
 10
1835.424925063008
 20
860.9789373438637
 30
0.0
 10
1835.388680331888
 20
862.2430494986618
 30
0.0
 10
1835.236791647384
 20
863.486405132903
 30
0.0
 10
1834.973722273529
 20
864.700632678492
 30
0.0
 10
1834.601295944608
 20
865.885532248741
 30
0.0
 10
1834.118344083787
 20
867.0403763043944
 30
0.0
 10
1833.52402743041
 20
868.1556867097308
 30
0.0
 10
1832.826472904366
 20
869.2190695532362
 30
0.0
 10
1832.023129401228
 20
870.2037624418053
 30
0.0
 10
1831.427100174007
 20
870.8554130386266
 30
0.0
 10
1831.080165403315
 20
871.1501847848428
 30
0.0
 10
1831.055467785605
 20
871.1711690173689
 30
0.0
  0
LWPOLYLINE
  5
2B4
330
29C
100
AcDbEntity
  8
0
  6
Continuous
 62
     8
370
    15
100
AcDbPolyline
 90
       60
 70
   128
 43
0.0
 10
1830.573087856783
 20
871.5835082258228
 10
1830.172486035523
 20
871.9259433646291
 10
1829.156352399544
 20
872.6435922317671
 10
1828.091322546968
 20
873.2585164656493
 10
1826.961782029573
 20
873.7797327228747
 10
1825.775005500356
 20
874.1994912569476
 10
1824.544996028774
 20
874.5092427658015
 10
1823.287330068598
 20
874.7030887696332
 10
1822.018515141326
 20
874.7781129828142
 10
1820.755274217304
 20
874.7345238461157
 10
1819.513821075383
 20
874.5755939756067
 10
1818.309170973874
 20
874.3074010018005
 10
1817.132782931459
 20
873.9303233742415
 10
1815.98012786455
 20
873.4402663577784
 10
1814.867265323992
 20
872.8396667308317
 10
1813.809825852461
 20
872.1339829943994
 10
1812.822306007353
 20
871.3315682258661
 10
1811.917415617976
 20
870.4433486411913
 10
1811.105537863618
 20
869.4823330010779
 10
1810.394349668526
 20
868.462998430726
 10
1809.785461874663
 20
867.3944180097976
 10
1809.270289755563
 20
866.2609291362592
 10
1808.857178550394
 20
865.0710224675378
 10
1808.554524786941
 20
863.8388159916626
 10
1808.368048527956
 20
862.5799642001666
 10
1808.300472940497
 20
861.3110094586039
 10
1808.351394282672
 20
860.0486638853146
 10
1808.517355058634
 20
858.8090863464923
 10
1808.792160215409
 20
857.6070335860334
 10
1809.176310508744
 20
856.4316595584729
 10
1809.673376094933
 20
855.2810209928615
 10
1810.280731463998
 20
854.1711713710272
 10
1810.99273148925
 20
853.1176908219102
 10
1811.800851002672
 20
852.1349825137955
 10
1812.694017773704
 20
851.2356252766881
 10
1813.659112338799
 20
850.4298424852017
 10
1814.681588038642
 20
849.7251336116722
 10
1815.753819006772
 20
849.1222271821383
 10
1816.89120906175
 20
848.6131407495181
 10
1818.084190599469
 20
848.2067097992866
 10
1819.318532771442
 20
847.9111762105912
 10
1820.578505597964
 20
847.7320803669906
 10
1821.847534693446
 20
847.6719518053354
 10
1823.108921634579
 20
847.730191771954
 10
1824.346565075039
 20
847.9031589358266
 10
1825.546133776828
 20
848.1845911664716
 10
1826.720431798202
 20
848.5758155193662
 10
1827.868990981795
 20
849.0798794478399
 10
1828.9757666487
 20
849.6939684821423
 10
1830.025231850991
 20
850.4122514155346
 10
1831.003079355913
 20
851.2260322976567
 10
1831.896863420926
 20
852.1240948494989
 10
1832.696521922585
 20
853.0932113441995
 10
1833.394733543028
 20
854.1187682661778
 10
1833.991711661473
 20
855.1947508572549
 10
1834.494671334123
 20
856.3359943645307
 10
1834.89438970968
 20
857.531995057276
 10
1835.203319485631
 20
858.8825603568958
 10
1835.372977707741
 20
860.2606401220183
 10
1835.372977707741
 20
860.2606401220182
  0
INSERT
  5
2B5
330
29C
100
AcDbEntity
  8
0
  6
Continuous
 62
     7
370
     0
100
AcDbBlockReference
  2
SW_CENTERMARKSYMBOL_0
 10
1821.853785260313
 20
861.2255322225813
 30
0.0
  0
ENDBLK
  5
29E
330
29C
100
AcDbEntity
  8
0
100
AcDbBlockEnd
  0
BLOCK
  5
2B8
330
2B7
100
AcDbEntity
  8
0
100
AcDbBlockBegin
  2
2
 70
     0
 10
0.0
 20
0.0
 30
0.0
  3
2
  1

  0
LINE
  5
321
330
2B7
100
AcDbEntity
  8
0
  6
Continuous
 62
     7
370
    15
100
AcDbLine
 10
1802.103785260312
 20
822.4641836651635
 30
0.0
 11
1802.103785260312
 21
821.5641836651634
 31
0.0
1001
AcDbBlockRepETag
1070
     1
1071
        0
1005
321
  0
LINE
  5
322
330
2B7
100
AcDbEntity
  8
0
  6
Continuous
 62
     7
370
    15
100
AcDbLine
 10
1841.603785260313
 20
821.5641836651634
 30
0.0
 11
1841.603785260313
 21
822.4641836651635
 31
0.0
1001
AcDbBlockRepETag
1070
     1
1071
        1
1005
322
  0
LINE
  5
323
330
2B7
100
AcDbEntity
  8
0
  6
Continuous
 62
     7
370
    15
100
AcDbLine
 10
1802.409607310702
 20
821.5641836651634
 30
0.0
 11
1802.409607310702
 21
816.6659080426798
 31
0.0
1001
AcDbBlockRepETag
1070
     1
1071
        2
1005
323
  0
LINE
  5
324
330
2B7
100
AcDbEntity
  8
0
  6
Continuous
 62
     7
370
    15
100
AcDbLine
 10
1841.297963209924
 20
815.4682952982438
 30
0.0
 11
1841.297963209924
 21
821.5641836651634
 31
0.0
1001
AcDbBlockRepETag
1070
     1
1071
        3
1005
324
  0
LINE
  5
325
330
2B7
100
AcDbEntity
  8
0
  6
Continuous
 62
     7
370
    15
100
AcDbLine
 10
1802.103785260312
 20
822.4641836651635
 30
0.0
 11
1841.603785260313
 21
822.4641836651635
 31
0.0
1001
AcDbBlockRepETag
1070
     1
1071
        4
1005
325
  0
LINE
  5
326
330
2B7
100
AcDbEntity
  8
0
  6
Continuous
 62
     7
370
    15
100
AcDbLine
 10
1802.103785260312
 20
821.5641836651634
 30
0.0
 11
1841.603785260313
 21
821.5641836651634
 31
0.0
1001
AcDbBlockRepETag
1070
     1
1071
        5
1005
326
  0
LINE
  5
327
330
2B7
100
AcDbEntity
  8
0
  6
Continuous
 62
     7
370
    15
100
AcDbLine
 10
1829.450865890748
 20
815.4682952982438
 30
0.0
 11
1829.450865890748
 21
821.5641836651634
 31
0.0
1001
AcDbBlockRepETag
1070
     1
1071
        6
1005
327
  0
LINE
  5
328
330
2B7
100
AcDbEntity
  8
0
  6
Continuous
 62
     7
370
    15
100
AcDbLine
 10
1814.256704629873
 20
815.4682952982437
 30
0.0
 11
1829.450865890748
 21
815.4682952982437
 31
0.0
1001
AcDbBlockRepETag
1070
     1
1071
        7
1005
328
  0
LINE
  5
329
330
2B7
100
AcDbEntity
  8
0
  6
Continuous
 62
     7
370
    15
100
AcDbLine
 10
1814.256704629877
 20
815.4682952982438
 30
0.0
 11
1814.256704629877
 21
821.5641836651634
 31
0.0
1001
AcDbBlockRepETag
1070
     1
1071
        8
1005
329
  0
SPLINE
  5
32A
330
2B7
100
AcDbEntity
  8
0
  6
Continuous
 62
     7
370
    15
100
AcDbSpline
210
0.0
220
0.0
230
1.0
 70
    24
 71
     3
 72
     8
 73
     4
 74
     0
 42
0.0000000001
 43
0.0000000001
 40
0.0
 40
0.0
 40
0.0
 40
0.0
 40
1.0
 40
1.0
 40
1.0
 40
1.0
 10
1810.15167021767
 20
815.4682952982437
 30
0.0
 10
1811.416663316668
 20
815.4682952982437
 30
0.0
 10
1812.798642418115
 20
815.4682952982437
 30
0.0
 10
1814.256704629877
 20
815.4682952982437
 30
0.0
1001
AcDbBlockRepETag
1070
     1
1071
        9
1005
32A
  0
LINE
  5
32B
330
2B7
100
AcDbEntity
  8
0
  6
Continuous
 62
     7
370
    15
100
AcDbLine
 10
1810.151670217666
 20
815.4682952982437
 30
0.0
 11
1810.151670217666
 21
821.5641836651634
 31
0.0
1001
AcDbBlockRepETag
1070
     1
1071
       10
1005
32B
  0
LINE
  5
32C
330
2B7
100
AcDbEntity
  8
0
  6
Continuous
 62
     7
370
    15
100
AcDbLine
 10
1833.555900302954
 20
815.4682952982437
 30
0.0
 11
1833.555900302954
 21
821.5641836651634
 31
0.0
1001
AcDbBlockRepETag
1070
     1
1071
       11
1005
32C
  0
SPLINE
  5
32D
330
2B7
100
AcDbEntity
  8
0
  6
Continuous
 62
     7
370
    15
100
AcDbSpline
210
0.0
220
0.0
230
1.0
 70
    24
 71
     3
 72
     8
 73
     4
 74
     0
 42
0.0000000001
 43
0.0000000001
 40
0.0
 40
0.0
 40
0.0
 40
0.0
 40
1.0
 40
1.0
 40
1.0
 40
1.0
 10
1829.450865890748
 20
815.4682952982437
 30
0.0
 10
1830.90892810251
 20
815.4682952982437
 30
0.0
 10
1832.290907203956
 20
815.4682952982437
 30
0.0
 10
1833.555900302954
 20
815.4682952982437
 30
0.0
1001
AcDbBlockRepETag
1070
     1
1071
       12
1005
32D
  0
LINE
  5
32E
330
2B7
100
AcDbEntity
  8
0
  6
Continuous
 62
     7
370
    15
100
AcDbLine
 10
1802.554589587239
 20
815.4682952982437
 30
0.0
 11
1802.554589587238
 21
821.5641836651634
 31
0.0
1001
AcDbBlockRepETag
1070
     1
1071
       13
1005
32E
  0
LINE
  5
32F
330
2B7
100
AcDbEntity
  8
0
  6
Continuous
 62
     7
370
    15
100
AcDbLine
 10
1802.409607310702
 20
815.4682952982438
 30
0.0
 11
1810.151670217666
 21
815.4682952982437
 31
0.0
1001
AcDbBlockRepETag
1070
     1
1071
       14
1005
32F
  0
LINE
  5
330
330
2B7
100
AcDbEntity
  8
0
  6
Continuous
 62
     7
370
    15
100
AcDbLine
 10
1841.152980933389
 20
821.5641836651634
 30
0.0
 11
1841.152980933389
 21
815.4682952982437
 31
0.0
1001
AcDbBlockRepETag
1070
     1
1071
       15
1005
330
  0
LINE
  5
331
330
2B7
100
AcDbEntity
  8
0
  6
Continuous
 62
     7
370
    15
100
AcDbLine
 10
1833.555900302953
 20
815.4682952982437
 30
0.0
 11
1841.297963209924
 21
815.4682952982437
 31
0.0
1001
AcDbBlockRepETag
1070
     1
1071
       16
1005
331
  0
LINE
  5
338
330
2B7
100
AcDbEntity
  8
0
100
AcDbLine
 10
1802.409607310702
 20
816.6659080426798
 30
0.0
 11
1802.409607310702
 21
815.4682952982438
 31
0.0
1001
AcDbBlockRepETag
1070
     1
1071
       17
1005
338
  0
ENDBLK
  5
2B9
330
2B7
100
AcDbEntity
  8
0
100
AcDbBlockEnd
  0
BLOCK
  5
2CF
330
2CE
100
AcDbEntity
  8
0
100
AcDbBlockBegin
  2
3
 70
     0
 10
0.0
 20
0.0
 30
0.0
  3
3
  1

  0
LINE
  5
2D1
330
2CE
100
AcDbEntity
  8
0
  6
Continuous
 62
     7
370
    15
100
AcDbLine
 10
1905.310086186543
 20
856.5227692391662
 30
0.0
 11
1905.321926475679
 21
857.2148841179032
 31
0.0
  0
LINE
  5
2D2
330
2CE
100
AcDbEntity
  8
0
  6
Continuous
 62
     7
370
    15
100
AcDbLine
 10
1865.827705307169
 20
857.8905277316929
 30
0.0
 11
1865.815865018033
 21
857.1984128529559
 31
0.0
  0
SPLINE
  5
2D3
330
2CE
100
AcDbEntity
  8
0
  6
Continuous
 62
     7
370
    15
100
AcDbSpline
210
0.0
220
0.0
230
1.0
 70
     8
 71
     3
 72
    42
 73
    38
 74
     0
 42
0.0000000001
 43
0.0000000001
 40
0.0
 40
0.0
 40
0.0
 40
0.0
 40
0.022369680137194
 40
0.059414217881655
 40
0.0968592628882198
 40
0.130025637597064
 40
0.158934052776817
 40
0.1836232958677923
 40
0.2000936217242257
 40
0.2146812383349451
 40
0.2322089345409319
 40
0.2535982563904073
 40
0.282828378421231
 40
0.3152752422719077
 40
0.3459314909105493
 40
0.3745281257914008
 40
0.4007375891281209
 40
0.4232606864178547
 40
0.4420157642729662
 40
0.4608881004463277
 40
0.4892160307337682
 40
0.5211480231146738
 40
0.5567251206175385
 40
0.5968467725208782
 40
0.6416933985280818
 40
0.6910894756624934
 40
0.7193989248011683
 40
0.7431414086050219
 40
0.7619437552064184
 40
0.7760399631944477
 40
0.7899267477257133
 40
0.8055963261541613
 40
0.833863603402036
 40
0.8666415115566776
 40
0.9039809107432539
 40
0.9519778199044671
 40
1.0
 40
1.0
 40
1.0
 40
1.0
 10
1875.300289599136
 20
855.1938583012164
 30
0.0
 10
1875.203088773207
 20
855.265267232861
 30
0.0
 10
1874.944921869852
 20
855.4549304644064
 30
0.0
 10
1874.561827543655
 20
855.7831218554056
 30
0.0
 10
1874.163102080003
 20
856.1591915210078
 30
0.0
 10
1873.825746184516
 20
856.5189891932535
 30
0.0
 10
1873.554869292057
 20
856.8404821534553
 30
0.0
 10
1873.353009648825
 20
857.1051919147267
 30
0.0
 10
1873.202900527738
 20
857.3185570432229
 30
0.0
 10
1873.07909918757
 20
857.5061546439465
 30
0.0
 10
1872.951006424939
 20
857.7141819829071
 30
0.0
 10
1872.800376647871
 20
857.9815944218188
 30
0.0
 10
1872.636640953191
 20
858.3109813600817
 30
0.0
 10
1872.481731530562
 20
858.6812422686451
 30
0.0
 10
1872.355684637438
 20
859.0523657015628
 30
0.0
 10
1872.262744528523
 20
859.4004720108742
 30
0.0
 10
1872.199284710688
 20
859.7166869104619
 30
0.0
 10
1872.159913205296
 20
859.9934976843391
 30
0.0
 10
1872.136952144154
 20
860.2405616184054
 30
0.0
 10
1872.123909134581
 20
860.5116852727677
 30
0.0
 10
1872.126547961634
 20
860.8370227759465
 30
0.0
 10
1872.158039363243
 20
861.2303538114684
 30
0.0
 10
1872.22892553873
 20
861.670147698431
 30
0.0
 10
1872.352835461545
 20
862.1592832624729
 30
0.0
 10
1872.546238891604
 20
862.6979968658849
 30
0.0
 10
1872.777886702971
 20
863.180489573541
 30
0.0
 10
1873.00647960632
 20
863.571950400704
 30
0.0
 10
1873.183303229482
 20
863.8414906201203
 30
0.0
 10
1873.335775952383
 20
864.0542138908063
 30
0.0
 10
1873.469004456822
 20
864.2283825355548
 30
0.0
 10
1873.598971471106
 20
864.3893880886347
 30
0.0
 10
1873.778746842216
 20
864.6001562726553
 30
0.0
 10
1874.032200300138
 20
864.874659288827
 30
0.0
 10
1874.382863009382
 20
865.2168552182924
 30
0.0
 10
1874.839228911361
 20
865.6122143572769
 30
0.0
 10
1875.395659353787
 20
866.0393329558928
 30
0.0
 10
1875.84295587584
 20
866.3197511112313
 30
0.0
 10
1876.066662998084
 20
866.4599970900457
 30
0.0
  0
SPLINE
  5
2D4
330
2CE
100
AcDbEntity
  8
0
  6
Continuous
 62
     7
370
    15
100
AcDbSpline
210
0.0
220
0.0
230
1.0
 70
     8
 71
     3
 72
    25
 73
    21
 74
     0
 42
0.0000000001
 43
0.0000000001
 40
0.0
 40
0.0
 40
0.0
 40
0.0
 40
0.01802789307589
 40
0.0968566975003924
 40
0.1756691543813786
 40
0.2374648517024257
 40
0.299084209782849
 40
0.3571301106505313
 40
0.4048296172348671
 40
0.4371207323000075
 40
0.4619754594803068
 40
0.4840569110930781
 40
0.5103654113927395
 40
0.540974533776693
 40
0.5760761917076045
 40
0.6404694778442702
 40
0.7163121749284187
 40
0.8036932308969964
 40
0.9090223565906667
 40
1.0
 40
1.0
 40
1.0
 40
1.0
 10
1872.154173872297
 20
860.0737926769566
 30
0.0
 10
1872.15787725835
 20
860.1084534666094
 30
0.0
 10
1872.177774078298
 20
860.2946721003894
 30
0.0
 10
1872.251252335711
 20
860.6301907072289
 30
0.0
 10
1872.369553848266
 20
861.0462941867721
 30
0.0
 10
1872.511296868727
 20
861.425625830047
 30
0.0
 10
1872.661488469429
 20
861.762293551604
 30
0.0
 10
1872.820985580131
 20
862.0689098467071
 30
0.0
 10
1872.967601716129
 20
862.3187267603782
 30
0.0
 10
1873.08761150547
 20
862.5066011105131
 30
0.0
 10
1873.183014752793
 20
862.6476082884797
 30
0.0
 10
1873.274896593466
 20
862.7773492291044
 30
0.0
 10
1873.377871289583
 20
862.916264685759
 30
0.0
 10
1873.503087111433
 20
863.0766178890874
 30
0.0
 10
1873.68858189034
 20
863.3006527877903
 30
0.0
 10
1873.955651654144
 20
863.5968012067447
 30
0.0
 10
1874.332428084454
 20
863.9698453861536
 30
0.0
 10
1874.818294836753
 20
864.3920112046183
 30
0.0
 10
1875.3748990799
 20
864.8175685405355
 30
0.0
 10
1875.803450610118
 20
865.0867750532992
 30
0.0
 10
1876.002061225925
 20
865.2115378122891
 30
0.0
  0
SPLINE
  5
2D5
330
2CE
100
AcDbEntity
  8
0
  6
Continuous
 62
     7
370
    15
100
AcDbSpline
210
0.0
220
0.0
230
1.0
 70
     8
 71
     3
 72
    23
 73
    19
 74
     0
 42
0.0000000001
 43
0.0000000001
 40
0.0
 40
0.0
 40
0.0
 40
0.0
 40
0.0261470770016933
 40
0.1030516774180348
 40
0.1805210693713841
 40
0.2576328356743195
 40
0.326322825271917
 40
0.3846542879020489
 40
0.4327788248698629
 40
0.4572888204105218
 40
0.48663155267416
 40
0.5239680178660498
 40
0.56939022624466
 40
0.6229937790186064
 40
0.7016345249150869
 40
0.793325121073984
 40
0.8981045560909286
 40
1.0
 40
1.0
 40
1.0
 40
1.0
 10
1872.25320035875
 20
859.4648921543353
 30
0.0
 10
1872.264353135091
 20
859.5127224304274
 30
0.0
 10
1872.308308805914
 20
859.7012326100673
 30
0.0
 10
1872.421022487419
 20
860.0277597987693
 30
0.0
 10
1872.591446347357
 20
860.4423615269977
 30
0.0
 10
1872.79138532095
 20
860.8361116662164
 30
0.0
 10
1873.001957935074
 20
861.1903216381085
 30
0.0
 10
1873.20372411058
 20
861.4893609552545
 30
0.0
 10
1873.367619492608
 20
861.7097182144279
 30
0.0
 10
1873.502232374983
 20
861.8795667011463
 30
0.0
 10
1873.627204273776
 20
862.0301876490643
 30
0.0
 10
1873.787599312171
 20
862.2131288778085
 30
0.0
 10
1873.992733669727
 20
862.4320932095869
 30
0.0
 10
1874.275350617471
 20
862.7114144761589
 30
0.0
 10
1874.656560627335
 20
863.053027280989
 30
0.0
 10
1875.164326509292
 20
863.4538454669845
 30
0.0
 10
1875.756302352133
 20
863.8671773724089
 30
0.0
 10
1876.209198124582
 20
864.1262746357975
 30
0.0
 10
1876.432486102386
 20
864.2540155146395
 30
0.0
  0
SPLINE
  5
2D6
330
2CE
100
AcDbEntity
  8
0
  6
Continuous
 62
     7
370
    15
100
AcDbSpline
210
0.0
220
0.0
230
1.0
 70
     8
 71
     3
 72
    20
 73
    16
 74
     0
 42
0.0000000001
 43
0.0000000001
 40
0.0
 40
0.0
 40
0.0
 40
0.0
 40
0.1065111393853819
 40
0.1973297469168855
 40
0.2842594769587717
 40
0.3668512605454603
 40
0.4407488966192576
 40
0.5047584618650333
 40
0.5589871864579848
 40
0.6048664222612789
 40
0.6596966217646645
 40
0.7303258364859666
 40
0.8150572873582591
 40
0.9013632234242855
 40
1.0
 40
1.0
 40
1.0
 40
1.0
 10
1895.473383159952
 20
864.5185675182485
 30
0.0
 10
1895.67296869275
 20
864.3709161278721
 30
0.0
 10
1896.042734361416
 20
864.0973671670495
 30
0.0
 10
1896.525838801774
 20
863.6775181253609
 30
0.0
 10
1896.938205109032
 20
863.2799389336595
 30
0.0
 10
1897.292850089729
 20
862.8959428081964
 30
0.0
 10
1897.588121523275
 20
862.539159237639
 30
0.0
 10
1897.824775876815
 20
862.2219918915044
 30
0.0
 10
1898.011491695354
 20
861.9469925870637
 30
0.0
 10
1898.175219231727
 20
861.6844566874133
 30
0.0
 10
1898.341739144105
 20
861.3918285756094
 30
0.0
 10
1898.5245738406
 20
861.0289129338545
 30
0.0
 10
1898.702124933864
 20
860.6061841520345
 30
0.0
 10
1898.868131149782
 20
860.1292827854814
 30
0.0
 10
1898.935641004939
 20
859.7976084616444
 30
0.0
 10
1898.9716465031
 20
859.6207142996147
 30
0.0
  0
SPLINE
  5
2D7
330
2CE
100
AcDbEntity
  8
0
  6
Continuous
 62
     7
370
    15
100
AcDbSpline
210
0.0
220
0.0
230
1.0
 70
     8
 71
     3
 72
    24
 73
    20
 74
     0
 42
0.0000000001
 43
0.0000000001
 40
0.0
 40
0.0
 40
0.0
 40
0.0
 40
0.0947421103529554
 40
0.1994253337791783
 40
0.2837271786125819
 40
0.3577861125045608
 40
0.4213651580318408
 40
0.474557776805313
 40
0.5091433037378116
 40
0.5374499744410423
 40
0.5651569913792431
 40
0.6032154889762394
 40
0.652870035166163
 40
0.713207310821414
 40
0.7759344161013252
 40
0.8388002004243617
 40
0.9017407850507218
 40
0.9635676750612997
 40
1.0
 40
1.0
 40
1.0
 40
1.0
 10
1895.205327936201
 20
865.938250608614
 30
0.0
 10
1895.417887928886
 20
865.7907993568839
 30
0.0
 10
1895.865311438148
 20
865.4804250683779
 30
0.0
 10
1896.435774326237
 20
865.0020434263334
 30
0.0
 10
1896.92227987277
 20
864.5398992552426
 30
0.0
 10
1897.297604775059
 20
864.1357755172625
 30
0.0
 10
1897.593977988817
 20
863.779174163889
 30
0.0
 10
1897.810690373517
 20
863.4906865491924
 30
0.0
 10
1897.966091908013
 20
863.2665486408214
 30
0.0
 10
1898.081259095965
 20
863.0901143315869
 30
0.0
 10
1898.194959674064
 20
862.9058938807204
 30
0.0
 10
1898.325996812409
 20
862.678469683429
 30
0.0
 10
1898.479836503123
 20
862.3840632743627
 30
0.0
 10
1898.638383210672
 20
862.0367281335784
 30
0.0
 10
1898.783573897351
 20
861.6586987962714
 30
0.0
 10
1898.904512057836
 20
861.2718878215098
 30
0.0
 10
1898.997074235001
 20
860.8841736809131
 30
0.0
 10
1899.057141981264
 20
860.5495346938081
 30
0.0
 10
1899.076486829276
 20
860.3448800393778
 30
0.0
 10
1899.083659467374
 20
860.2689986589465
 30
0.0
  0
SPLINE
  5
2D8
330
2CE
100
AcDbEntity
  8
0
  6
Continuous
 62
     7
370
    15
100
AcDbSpline
210
0.0
220
0.0
230
1.0
 70
     8
 71
     3
 72
    38
 73
    34
 74
     0
 42
0.0000000001
 43
0.0000000001
 40
0.0
 40
0.0
 40
0.0
 40
0.0
 40
0.0275273172595971
 40
0.0654606610938745
 40
0.1016300230455543
 40
0.1311834371518076
 40
0.1583852551684451
 40
0.1816231717503757
 40
0.2009066484416601
 40
0.2162752074444838
 40
0.2295421383034477
 40
0.2456358059006829
 40
0.2682801531730958
 40
0.2952049776867374
 40
0.3263776412179223
 40
0.3611482139140664
 40
0.3995076848383261
 40
0.4411101524868584
 40
0.490839639033081
 40
0.5385316629305899
 40
0.5822610556615534
 40
0.6218418865010632
 40
0.6573908332906471
 40
0.6892034524642585
 40
0.7200430630658904
 40
0.7509577535155613
 40
0.7832344609584543
 40
0.8199210441173599
 40
0.8540538011779933
 40
0.8914159260710688
 40
0.9319675171082868
 40
0.9756274388126358
 40
1.0
 40
1.0
 40
1.0
 40
1.0
 10
1894.995070470797
 20
867.3085880517035
 30
0.0
 10
1895.150228779287
 20
867.2085036652848
 30
0.0
 10
1895.519199186107
 20
866.9705004469415
 30
0.0
 10
1896.042294718275
 20
866.5707635921716
 30
0.0
 10
1896.540756126107
 20
866.1457927676345
 30
0.0
 10
1896.952598605176
 20
865.7490096229997
 30
0.0
 10
1897.281414040408
 20
865.3973154778185
 30
0.0
 10
1897.547230339726
 20
865.0834254324047
 30
0.0
 10
1897.753069101961
 20
864.8181571093168
 30
0.0
 10
1897.913221304835
 20
864.5957027728417
 30
0.0
 10
1898.054581065321
 20
864.3862060937324
 30
0.0
 10
1898.209119254627
 20
864.1406654492213
 30
0.0
 10
1898.388025664377
 20
863.8273123341532
 30
0.0
 10
1898.582310125491
 20
863.4370789831411
 30
0.0
 10
1898.770826394551
 20
862.9821042162809
 30
0.0
 10
1898.937493302564
 20
862.4647454945913
 30
0.0
 10
1899.065209820484
 20
861.8899875661917
 30
0.0
 10
1899.140247724039
 20
861.2361973984622
 30
0.0
 10
1899.135375635395
 20
860.5341243000227
 30
0.0
 10
1899.038140836266
 20
859.8252071632851
 30
0.0
 10
1898.868089870365
 20
859.174612058344
 30
0.0
 10
1898.648802349703
 20
858.5938233807569
 30
0.0
 10
1898.39900209686
 20
858.0799879372433
 30
0.0
 10
1898.126617733423
 20
857.6166418395718
 30
0.0
 10
1897.829924008817
 20
857.1847323564396
 30
0.0
 10
1897.495761346201
 20
856.7612603867567
 30
0.0
 10
1897.102665676084
 20
856.3240351128419
 30
0.0
 10
1896.655558103193
 20
855.8888602265422
 30
0.0
 10
1896.143635845505
 20
855.45168424647
 30
0.0
 10
1895.571316992136
 20
855.0203893814364
 30
0.0
 10
1894.900520056708
 20
854.5824220882538
 30
0.0
 10
1894.266138270765
 20
854.2138474633185
 30
0.0
 10
1893.83492963904
 20
854.0107537979135
 30
0.0
 10
1893.68044962722
 20
853.9379957185897
 30
0.0
  0
LINE
  5
2D9
330
2CE
100
AcDbEntity
  8
0
  6
Continuous
 62
     7
370
    15
100
AcDbLine
 10
1881.487706294272
 20
873.5008351770231
 30
0.0
 11
1896.417883982679
 21
871.5517455640961
 31
0.0
  0
SPLINE
  5
2DA
330
2CE
100
AcDbEntity
  8
0
  6
Continuous
 62
     7
370
    15
100
AcDbSpline
210
0.0
220
0.0
230
1.0
 70
     8
 71
     3
 72
     8
 73
     4
 74
     0
 42
0.0000000001
 43
0.0000000001
 40
0.0
 40
0.0
 40
0.0
 40
0.0
 40
1.0
 40
1.0
 40
1.0
 40
1.0
 10
1896.41788398268
 20
871.5517455640961
 30
0.0
 10
1897.73604139771
 20
870.9771514617901
 30
0.0
 10
1898.946297386006
 20
870.3002163721782
 30
0.0
 10
1900.012831601161
 20
869.5409757667977
 30
0.0
  0
LINE
  5
2DB
330
2CE
100
AcDbEntity
  8
0
  6
Continuous
 62
     7
370
    15
100
AcDbLine
 10
1900.012831601157
 20
869.5409757668045
 30
0.0
 11
1905.041882638255
 21
860.3262269715516
 31
0.0
  0
SPLINE
  5
2DC
330
2CE
100
AcDbEntity
  8
0
  6
Continuous
 62
     7
370
    15
100
AcDbSpline
210
0.0
220
0.0
230
1.0
 70
     8
 71
     3
 72
     8
 73
     4
 74
     0
 42
0.0000000001
 43
0.0000000001
 40
0.0
 40
0.0
 40
0.0
 40
0.0
 40
1.0
 40
1.0
 40
1.0
 40
1.0
 10
1905.041882638254
 20
860.3262269715459
 30
0.0
 10
1904.940544086398
 20
859.3169359971227
 30
0.0
 10
1904.645118908973
 20
858.3176232121097
 30
0.0
 10
1904.164350902575
 20
857.3578656072227
 30
0.0
  0
LINE
  5
2DD
330
2CE
100
AcDbEntity
  8
0
  6
Continuous
 62
     7
370
    15
100
AcDbLine
 10
1904.164350902573
 20
857.3578656072216
 30
0.0
 11
1894.263224251264
 21
850.0922064248928
 31
0.0
  0
SPLINE
  5
2DE
330
2CE
100
AcDbEntity
  8
0
  6
Continuous
 62
     7
370
    15
100
AcDbSpline
210
0.0
220
0.0
230
1.0
 70
     8
 71
     3
 72
     8
 73
     4
 74
     0
 42
0.0000000001
 43
0.0000000001
 40
0.0
 40
0.0
 40
0.0
 40
0.0
 40
1.0
 40
1.0
 40
1.0
 40
1.0
 10
1894.263224251263
 20
850.0922064248921
 30
0.0
 10
1892.84372828438
 20
849.657509552774
 30
0.0
 10
1891.338047118661
 20
849.3351318573711
 30
0.0
 10
1889.790744897112
 20
849.134614857863
 30
0.0
  0
LINE
  5
2DF
330
2CE
100
AcDbEntity
  8
0
  6
Continuous
 62
     7
370
    15
100
AcDbLine
 10
1889.790744897111
 20
849.1346148578632
 30
0.0
 11
1874.860567208702
 21
851.0837044707903
 31
0.0
  0
SPLINE
  5
2E0
330
2CE
100
AcDbEntity
  8
0
  6
Continuous
 62
     7
370
    15
100
AcDbSpline
210
0.0
220
0.0
230
1.0
 70
     8
 71
     3
 72
     8
 73
     4
 74
     0
 42
0.0000000001
 43
0.0000000001
 40
0.0
 40
0.0
 40
0.0
 40
0.0
 40
1.0
 40
1.0
 40
1.0
 40
1.0
 10
1874.860567208702
 20
851.0837044707905
 30
0.0
 10
1873.542409793672
 20
851.6582985730964
 30
0.0
 10
1872.332153805376
 20
852.335233662708
 30
0.0
 10
1871.265619590222
 20
853.0944742680881
 30
0.0
  0
LINE
  5
2E1
330
2CE
100
AcDbEntity
  8
0
  6
Continuous
 62
     7
370
    15
100
AcDbLine
 10
1871.265619590225
 20
853.0944742680834
 30
0.0
 11
1866.236568553128
 21
862.3092230633343
 31
0.0
  0
SPLINE
  5
2E2
330
2CE
100
AcDbEntity
  8
0
  6
Continuous
 62
     7
370
    15
100
AcDbSpline
210
0.0
220
0.0
230
1.0
 70
     8
 71
     3
 72
     8
 73
     4
 74
     0
 42
0.0000000001
 43
0.0000000001
 40
0.0
 40
0.0
 40
0.0
 40
0.0
 40
1.0
 40
1.0
 40
1.0
 40
1.0
 10
1866.236568553128
 20
862.3092230633371
 30
0.0
 10
1866.337907104984
 20
863.3185140377619
 30
0.0
 10
1866.633332282411
 20
864.3178268227762
 30
0.0
 10
1867.114100288809
 20
865.2775844276641
 30
0.0
  0
LINE
  5
2E3
330
2CE
100
AcDbEntity
  8
0
  6
Continuous
 62
     7
370
    15
100
AcDbLine
 10
1867.114100288806
 20
865.2775844276623
 30
0.0
 11
1877.015226940116
 21
872.5432436099922
 31
0.0
  0
SPLINE
  5
2E4
330
2CE
100
AcDbEntity
  8
0
  6
Continuous
 62
     7
370
    15
100
AcDbSpline
210
0.0
220
0.0
230
1.0
 70
     8
 71
     3
 72
     8
 73
     4
 74
     0
 42
0.0000000001
 43
0.0000000001
 40
0.0
 40
0.0
 40
0.0
 40
0.0
 40
1.0
 40
1.0
 40
1.0
 40
1.0
 10
1877.015226940116
 20
872.5432436099922
 30
0.0
 10
1878.434722907001
 20
872.9779404821114
 30
0.0
 10
1879.940404072722
 20
873.3003181775146
 30
0.0
 10
1881.487706294274
 20
873.5008351770231
 30
0.0
  0
SPLINE
  5
2E5
330
2CE
100
AcDbEntity
  8
0
  6
Continuous
 62
     7
370
    15
100
AcDbSpline
210
0.0
220
0.0
230
1.0
 70
     8
 71
     3
 72
    44
 73
    40
 74
     0
 42
0.0000000001
 43
0.0000000001
 40
0.0
 40
0.0
 40
0.0
 40
0.0
 40
0.06250000000004
 40
0.06250000000004
 40
0.12500000000008
 40
0.12500000000008
 40
0.1562500000000881
 40
0.1562500000000881
 40
0.1875000000000962
 40
0.1875000000000962
 40
0.2500000000001123
 40
0.2500000000001123
 40
0.3125000000001285
 40
0.3125000000001285
 40
0.3437500000001366
 40
0.3437500000001366
 40
0.3750000000001447
 40
0.3750000000001447
 40
0.4375000000001547
 40
0.4375000000001547
 40
0.5000000000001645
 40
0.5000000000001645
 40
0.5625000000001746
 40
0.5625000000001746
 40
0.5937500000001591
 40
0.5937500000001591
 40
0.6250000000001437
 40
0.6250000000001437
 40
0.7500000000000422
 40
0.7500000000000422
 40
0.7812500000000369
 40
0.7812500000000369
 40
0.8125000000000316
 40
0.8125000000000316
 40
0.8750000000000209
 40
0.8750000000000209
 40
0.9375000000000104
 40
0.9375000000000104
 40
1.0
 40
1.0
 40
1.0
 40
1.0
 10
1895.180662964005
 20
867.3731224883686
 30
0.0
 10
1895.671172352266
 20
867.0711655073906
 30
0.0
 10
1896.125252510705
 20
866.7473011660622
 30
0.0
 10
1896.956348009925
 20
866.0590820334173
 30
0.0
 10
1897.328271933794
 20
865.6991160006107
 30
0.0
 10
1897.822460819619
 20
865.1360142515134
 30
0.0
 10
1897.976529466288
 20
864.9444385956295
 30
0.0
 10
1898.263102660612
 20
864.5534491264443
 30
0.0
 10
1898.396039168807
 20
864.3532767928395
 30
0.0
 10
1898.758097547457
 20
863.7467330440641
 30
0.0
 10
1898.950938614157
 20
863.3359157542738
 30
0.0
 10
1899.243145557663
 20
862.5018486991914
 30
0.0
 10
1899.342424636673
 20
862.0785873895362
 30
0.0
 10
1899.418860731688
 20
861.4340550359976
 30
0.0
 10
1899.432056093797
 20
861.2178434634351
 30
0.0
 10
1899.433786319192
 20
860.7891991131046
 30
0.0
 10
1899.4224488945
 20
860.5758925073718
 30
0.0
 10
1899.352464407702
 20
859.938966516664
 30
0.0
 10
1899.258032494518
 20
859.5183253648002
 30
0.0
 10
1898.972420870216
 20
858.6850950016783
 30
0.0
 10
1898.77934581753
 20
858.2705446662695
 30
0.0
 10
1898.306911836256
 20
857.4754965396714
 30
0.0
 10
1898.026845204667
 20
857.09195621695
 30
0.0
 10
1897.54308671465
 20
856.5369465728833
 30
0.0
 10
1897.371130403858
 20
856.3553567202049
 30
0.0
 10
1897.005390409686
 20
855.9991378088037
 30
0.0
 10
1896.810819101447
 20
855.8239107708667
 30
0.0
 10
1895.796528562105
 20
854.9777833264645
 30
0.0
 10
1894.849872055974
 20
854.3883963219492
 30
0.0
 10
1893.496487232464
 20
853.7617255071529
 30
0.0
 10
1893.217754784417
 20
853.6423702585512
 30
0.0
 10
1892.651808352274
 20
853.4186084618974
 30
0.0
 10
1892.363577125656
 20
853.3137180511348
 30
0.0
 10
1891.483373261424
 20
853.0196674984935
 30
0.0
 10
1890.875941096963
 20
852.8510606874281
 30
0.0
 10
1889.619483927492
 20
852.5691444505151
 30
0.0
 10
1888.967547942667
 20
852.4553610046577
 30
0.0
 10
1887.653510160285
 20
852.2893875604156
 30
0.0
 10
1886.988212244727
 20
852.2361917775972
 30
0.0
 10
1886.314505117342
 20
852.2132553958764
 30
0.0
  0
SPLINE
  5
2E6
330
2CE
100
AcDbEntity
  8
0
  6
Continuous
 62
     7
370
    15
100
AcDbSpline
210
0.0
220
0.0
230
1.0
 70
     8
 71
     3
 72
    20
 73
    16
 74
     0
 42
0.0000000001
 43
0.0000000001
 40
0.0
 40
0.0
 40
0.0
 40
0.0
 40
0.1249999999999785
 40
0.1249999999999785
 40
0.249999999999957
 40
0.249999999999957
 40
0.4999999999999983
 40
0.4999999999999983
 40
0.6249999999999987
 40
0.6249999999999987
 40
0.7499999999999992
 40
0.7499999999999992
 40
0.8749999999999996
 40
0.8749999999999996
 40
1.0
 40
1.0
 40
1.0
 40
1.0
 10
1883.935852342755
 20
869.9290198209231
 30
0.0
 10
1884.447777354922
 20
869.9578600947372
 30
0.0
 10
1884.96201777084
 20
869.9700118221688
 30
0.0
 10
1885.990893050587
 20
869.9587748486111
 30
0.0
 10
1886.500669854313
 20
869.9355688090767
 30
0.0
 10
1888.016268745523
 20
869.8141351311722
 30
0.0
 10
1889.008521756394
 20
869.664704909562
 30
0.0
 10
1890.468419118803
 20
869.3330828565969
 30
0.0
 10
1890.944256721175
 20
869.2057231028812
 30
0.0
 10
1891.865644814295
 20
868.9208243145847
 30
0.0
 10
1892.312763311747
 20
868.7629626065756
 30
0.0
 10
1893.180301722897
 20
868.4169283022693
 30
0.0
 10
1893.600705191145
 20
868.2287370354631
 30
0.0
 10
1894.414556829727
 20
867.8217521661085
 30
0.0
 10
1894.807033760365
 20
867.6031281702687
 30
0.0
 10
1895.180662963993
 20
867.3731224883509
 30
0.0
  0
SPLINE
  5
2E7
330
2CE
100
AcDbEntity
  8
0
  6
Continuous
 62
     7
370
    15
100
AcDbSpline
210
0.0
220
0.0
230
1.0
 70
     8
 71
     3
 72
    42
 73
    38
 74
     0
 42
0.0000000001
 43
0.0000000001
 40
0.0
 40
0.0
 40
0.0
 40
0.0
 40
0.0624999999999716
 40
0.0624999999999716
 40
0.1249999999999432
 40
0.1249999999999432
 40
0.1874999999999147
 40
0.1874999999999147
 40
0.218749999999914
 40
0.218749999999914
 40
0.2499999999999133
 40
0.2499999999999133
 40
0.3124999999999031
 40
0.3124999999999031
 40
0.3437499999999118
 40
0.3437499999999118
 40
0.3749999999999205
 40
0.3749999999999205
 40
0.4999999999999306
 40
0.4999999999999306
 40
0.5624999999999166
 40
0.5624999999999166
 40
0.6249999999999028
 40
0.6249999999999028
 40
0.6874999999998889
 40
0.6874999999998889
 40
0.749999999999875
 40
0.749999999999875
 40
0.7812499999998895
 40
0.7812499999998895
 40
0.8124999999999038
 40
0.8124999999999038
 40
0.8749999999999358
 40
0.8749999999999358
 40
0.937499999999968
 40
0.937499999999968
 40
1.0
 40
1.0
 40
1.0
 40
1.0
 10
1876.428678660519
 20
854.4617095634324
 30
0.0
 10
1875.922727824926
 20
854.7529772666839
 30
0.0
 10
1875.450238068419
 20
855.0660543228584
 30
0.0
 10
1874.576861924463
 20
855.7323865235821
 30
0.0
 10
1874.181655084208
 20
856.0811371871483
 30
0.0
 10
1873.471074930169
 20
856.8086320942063
 30
0.0
 10
1873.155708415609
 20
857.1873788921774
 30
0.0
 10
1872.743849164871
 20
857.7784884629787
 30
0.0
 10
1872.616355970467
 20
857.9802094910078
 30
0.0
 10
1872.385268698569
 20
858.3865686252911
 30
0.0
 10
1872.281504658752
 20
858.591183921618
 30
0.0
 10
1872.00559209663
 20
859.2093419671819
 30
0.0
 10
1871.868423882713
 20
859.6271482114559
 30
0.0
 10
1871.732717884608
 20
860.2623950140216
 30
0.0
 10
1871.699200927055
 20
860.4755722156156
 30
0.0
 10
1871.656136019841
 20
860.9048480266158
 30
0.0
 10
1871.64668804264
 20
861.1214403422907
 30
0.0
 10
1871.66054294465
 20
862.1944517430733
 30
0.0
 10
1871.861206347412
 20
863.0342241842233
 30
0.0
 10
1872.450219308323
 20
864.2655691463426
 30
0.0
 10
1872.692147275858
 20
864.6639056093155
 30
0.0
 10
1873.259110999088
 20
865.4292009420862
 30
0.0
 10
1873.58501394512
 20
865.7974473409042
 30
0.0
 10
1874.324455179455
 20
866.5041893664945
 30
0.0
 10
1874.74024061834
 20
866.8437091871883
 30
0.0
 10
1875.633311166168
 20
867.4706813906638
 30
0.0
 10
1876.113210378402
 20
867.7611158287133
 30
0.0
 10
1876.882830776092
 20
868.1623795278344
 30
0.0
 10
1877.147698685049
 20
868.2903803040289
 30
0.0
 10
1877.69444882672
 20
868.5346263956136
 30
0.0
 10
1877.977286468845
 20
868.6511761447993
 30
0.0
 10
1878.83834182473
 20
868.9775726158691
 30
0.0
 10
1879.432337025621
 20
869.1660070929637
 30
0.0
 10
1880.659221131148
 20
869.4860443592002
 30
0.0
 10
1881.291994842198
 20
869.6178154698275
 30
0.0
 10
1882.59877378479
 20
869.821109972795
 30
0.0
 10
1883.263535553117
 20
869.8911435698285
 30
0.0
 10
1883.935852342758
 20
869.9290198209233
 30
0.0
  0
ARC
  5
2E8
330
2CE
100
AcDbEntity
  8
0
  6
Continuous
 62
     7
370
    15
100
AcDbCircle
 10
1885.64437437391
 20
872.1237164815603
 30
0.0
 40
19.92173526221596
100
AcDbArc
 50
242.4453127941013
 51
271.9276889014298
  0
LINE
  5
2E9
330
2CE
100
AcDbEntity
  8
0
  6
Continuous
 62
     7
370
    15
100
AcDbLine
 10
1874.796157504432
 20
847.3186853781438
 30
0.0
 11
1889.726335192843
 21
845.3695957652183
 31
0.0
  0
LINE
  5
2EA
330
2CE
100
AcDbEntity
  8
0
  6
Continuous
 62
     7
370
    15
100
AcDbLine
 10
1874.860567208702
 20
851.0837044707903
 30
0.0
 11
1874.796157504435
 21
847.3186853781454
 31
0.0
  0
LINE
  5
2EB
330
2CE
100
AcDbEntity
  8
0
  6
Continuous
 62
     7
370
    15
100
AcDbLine
 10
1889.790744897112
 20
849.134614857863
 30
0.0
 11
1889.726335192844
 21
845.3695957652181
 31
0.0
  0
LINE
  5
2EC
330
2CE
100
AcDbEntity
  8
0
  6
Continuous
 62
     7
370
    15
100
AcDbLine
 10
1866.172158848857
 20
858.5442039706924
 30
0.0
 11
1871.201209885962
 21
849.3294551754397
 31
0.0
  0
SPLINE
  5
2ED
330
2CE
100
AcDbEntity
  8
0
  6
Continuous
 62
     7
370
    15
100
AcDbSpline
210
0.0
220
0.0
230
1.0
 70
     8
 71
     3
 72
     8
 73
     4
 74
     0
 42
0.0000000001
 43
0.0000000001
 40
0.0
 40
0.0
 40
0.0
 40
0.0
 40
1.0
 40
1.0
 40
1.0
 40
1.0
 10
1871.201209885955
 20
849.3294551754434
 30
0.0
 10
1872.267744101109
 20
848.5702145700631
 30
0.0
 10
1873.478000089405
 20
847.8932794804517
 30
0.0
 10
1874.796157504434
 20
847.3186853781456
 30
0.0
  0
SPLINE
  5
2EE
330
2CE
100
AcDbEntity
  8
0
  6
Continuous
 62
     7
370
    15
100
AcDbSpline
210
0.0
220
0.0
230
1.0
 70
     8
 71
     3
 72
     8
 73
     4
 74
     0
 42
0.0000000001
 43
0.0000000001
 40
0.0
 40
0.0
 40
0.0
 40
0.0
 40
1.0
 40
1.0
 40
1.0
 40
1.0
 10
1889.726335192844
 20
845.3695957652181
 30
0.0
 10
1891.273637414394
 20
845.5701127647264
 30
0.0
 10
1892.779318580113
 20
845.8924904601291
 30
0.0
 10
1894.198814546995
 20
846.3271873322474
 30
0.0
  0
LINE
  5
2EF
330
2CE
100
AcDbEntity
  8
0
  6
Continuous
 62
     7
370
    15
100
AcDbLine
 10
1894.198814546995
 20
846.3271873322476
 30
0.0
 11
1904.099941198306
 21
853.5928465145769
 31
0.0
  0
SPLINE
  5
2F0
330
2CE
100
AcDbEntity
  8
0
  6
Continuous
 62
     7
370
    15
100
AcDbSpline
210
0.0
220
0.0
230
1.0
 70
     8
 71
     3
 72
     8
 73
     4
 74
     0
 42
0.0000000001
 43
0.0000000001
 40
0.0
 40
0.0
 40
0.0
 40
0.0
 40
1.0
 40
1.0
 40
1.0
 40
1.0
 10
1904.099941198307
 20
853.5928465145779
 30
0.0
 10
1904.580709204705
 20
854.552604119465
 30
0.0
 10
1904.876134382131
 20
855.551916904478
 30
0.0
 10
1904.977472933987
 20
856.5612078789012
 30
0.0
  0
LWPOLYLINE
  5
2F1
330
2CE
100
AcDbEntity
  8
0
  6
Continuous
 62
     7
370
    15
100
AcDbPolyline
 90
       25
 70
   128
 43
0.0
 10
1872.704921462509
 20
848.1085012472737
 10
1872.054961098869
 20
848.488334460689
 10
1871.431466485877
 20
848.8859116069088
 10
1870.835658143521
 20
849.3004544099989
 10
1870.268702394607
 20
849.7311513829552
 10
1869.731709081639
 20
850.1771594162283
 10
1869.225729394244
 20
850.6376054281474
 10
1868.751753811421
 20
851.1115880740224
 10
1868.310710162632
 20
851.5981795105656
 10
1867.903461811531
 20
852.0964272121895
 10
1867.530805965889
 20
852.6053558356206
 10
1867.193472117023
 20
853.1239691291787
 10
1866.892120611785
 20
853.6512518829882
 10
1866.627341359897
 20
854.1861719162971
 10
1866.399652679178
 20
854.7276820980199
 10
1866.209500280915
 20
855.2747223965472
 10
1866.057256397355
 20
855.8262219548051
 10
1865.943219053051
 20
856.3811011865102
 10
1865.867611481458
 20
856.9382738895091
 10
1865.830581687949
 20
857.4966493720708
 10
1865.832202160085
 20
858.0551345879667
 10
1865.872469725713
 20
858.6126362761611
 10
1865.951305559184
 20
859.1680631009175
 10
1866.068555335651
 20
859.7203277881446
 10
1866.200370788292
 20
860.1933109152117
  0
LWPOLYLINE
  5
2F2
330
2CE
100
AcDbEntity
  8
0
  6
Continuous
 62
     7
370
    15
100
AcDbPolyline
 90
       57
 70
   128
 43
0.0
 10
1905.028245296184
 20
859.5290667632303
 10
1905.092375385493
 20
859.2791898947908
 10
1905.206412729798
 20
858.7243106630856
 10
1905.28202030139
 20
858.1671379600868
 10
1905.319050094899
 20
857.6087624775251
 10
1905.317429622764
 20
857.0502772616292
 10
1905.277162057135
 20
856.492775573435
 10
1905.198326223665
 20
855.9373487486784
 10
1905.081076447197
 20
855.3850840614513
 10
1904.925642249677
 20
854.8370625958133
 10
1904.732327900845
 20
854.2943571295186
 10
1904.501511822616
 20
853.7580300340026
 10
1904.233645848304
 20
853.2291311947414
 10
1903.929254338132
 20
852.7086959560492
 10
1903.588933152773
 20
852.1977430943461
 10
1903.213348486933
 20
851.6972728238528
 10
1902.803235565231
 20
851.2082648386261
 10
1902.359397202969
 20
850.7316763947608
 10
1901.882702234585
 20
850.2684404365165
 10
1901.374083812865
 20
849.8194637700349
 10
1900.834537582255
 20
849.3856252882251
 10
1900.265119729837
 20
848.9677742502873
 10
1899.666944917799
 20
848.5667286192517
 10
1899.041184101424
 20
848.1832734607737
 10
1898.389062236896
 20
847.8181594063327
 10
1897.71185588339
 20
847.4721011838367
 10
1897.010890704143
 20
847.1457762185066
 10
1896.287538871412
 20
846.8398233067869
 10
1895.543216380377
 20
846.5548413658693
 10
1894.779380277269
 20
846.2913882612863
 10
1893.997525807129
 20
846.0499797148615
 10
1893.199183486797
 20
845.8310882951609
 10
1892.385916108857
 20
845.6351424924189
 10
1891.559315682392
 20
845.4625258797445
 10
1890.721000316554
 20
845.3135763622642
 10
1889.872611053038
 20
845.1885855156524
 10
1889.015808653669
 20
845.0877980153615
 10
1888.152270349378
 20
845.0114111576562
 10
1887.283686556949
 20
844.9595744733972
 10
1886.411757569943
 20
844.9323894353282
 10
1885.538190230298
 20
844.9299092594385
 10
1884.664694587105
 20
844.9521388007884
 10
1883.792980549105
 20
844.9990345440067
 10
1882.924754537462
 20
845.0705046884737
 10
1882.061716145368
 20
845.166409328026
 10
1881.205554811
 20
845.2865607248277
 10
1880.357946510379
 20
845.4307236768769
 10
1879.520550476556
 20
845.5986159784252
 10
1878.69500595159
 20
845.7899089724088
 10
1877.882928977659
 20
846.0042281938079
 10
1877.085909233572
 20
846.2411541026826
 10
1876.305506922908
 20
846.50022290544
 10
1875.543249719837
 20
846.7809274627331
 10
1874.800629778629
 20
847.0827182822091
 10
1874.079100812694
 20
847.4050045941663
 10
1873.380075248865
 20
847.7471555080152
 10
1872.704921462509
 20
848.1085012472737
  0
LWPOLYLINE
  5
2F3
330
2CE
100
AcDbEntity
  8
0
  6
Continuous
 62
     7
370
    15
100
AcDbPolyline
 90
       21
 70
   128
 43
0.0
 10
1872.693081173373
 20
847.4163863685367
 10
1872.043120809733
 20
847.796219581952
 10
1871.419626196742
 20
848.1937967281718
 10
1870.823817854385
 20
848.6083395312618
 10
1870.256862105471
 20
849.0390365042182
 10
1869.719868792503
 20
849.4850445374911
 10
1869.213889105109
 20
849.9454905494104
 10
1868.739913522286
 20
850.4194731952852
 10
1868.298869873497
 20
850.9060646318285
 10
1867.891621522396
 20
851.4043123334525
 10
1867.518965676753
 20
851.9132409568836
 10
1867.181631827887
 20
852.4318542504417
 10
1866.880280322649
 20
852.9591370042512
 10
1866.615501070761
 20
853.4940570375599
 10
1866.387812390042
 20
854.0355672192829
 10
1866.197659991779
 20
854.58260751781
 10
1866.045416108219
 20
855.1341070760681
 10
1865.931378763915
 20
855.6889863077731
 10
1865.855771192322
 20
856.2461590107719
 10
1865.818741398814
 20
856.8045344933338
 10
1865.815865018033
 20
857.1984128529559
  0
LWPOLYLINE
  5
2F4
330
2CE
100
AcDbEntity
  8
0
  6
Continuous
 62
     7
370
    15
100
AcDbPolyline
 90
       53
 70
   128
 43
0.0
 10
1905.310086186543
 20
856.5227692391662
 10
1905.305589333628
 20
856.358162382892
 10
1905.265321768
 20
855.800660694698
 10
1905.186485934529
 20
855.2452338699414
 10
1905.069236158062
 20
854.6929691827141
 10
1904.913801960541
 20
854.1449477170761
 10
1904.720487611709
 20
853.6022422507814
 10
1904.489671533481
 20
853.0659151552654
 10
1904.221805559168
 20
852.5370163160044
 10
1903.917414048996
 20
852.0165810773121
 10
1903.577092863638
 20
851.5056282156091
 10
1903.201508197797
 20
851.0051579451156
 10
1902.791395276095
 20
850.5161499598891
 10
1902.347556913833
 20
850.0395615160236
 10
1901.870861945449
 20
849.5763255577793
 10
1901.362243523729
 20
849.1273488912979
 10
1900.822697293119
 20
848.6935104094879
 10
1900.253279440702
 20
848.2756593715501
 10
1899.655104628663
 20
847.8746137405147
 10
1899.029343812288
 20
847.4911585820366
 10
1898.37722194776
 20
847.1260445275957
 10
1897.700015594254
 20
846.7799863050995
 10
1896.999050415007
 20
846.4536613397696
 10
1896.275698582276
 20
846.1477084280497
 10
1895.531376091241
 20
845.8627264871321
 10
1894.767539988133
 20
845.5992733825491
 10
1893.985685517993
 20
845.3578648361244
 10
1893.187343197661
 20
845.1389734164239
 10
1892.374075819722
 20
844.9430276136817
 10
1891.547475393256
 20
844.7704110010075
 10
1890.709160027418
 20
844.621461483527
 10
1889.860770763902
 20
844.4964706369153
 10
1889.003968364533
 20
844.3956831366245
 10
1888.140430060242
 20
844.319296278919
 10
1887.271846267813
 20
844.26745959466
 10
1886.399917280807
 20
844.2402745565912
 10
1885.526349941162
 20
844.2377943807013
 10
1884.65285429797
 20
844.2600239220512
 10
1883.781140259969
 20
844.3069196652695
 10
1882.912914248327
 20
844.3783898097366
 10
1882.049875856232
 20
844.4742944492888
 10
1881.193714521864
 20
844.5944458460905
 10
1880.346106221244
 20
844.7386087981399
 10
1879.50871018742
 20
844.9065010996882
 10
1878.683165662454
 20
845.0977940936716
 10
1877.871088688523
 20
845.3121133150707
 10
1877.074068944437
 20
845.5490392239456
 10
1876.293666633772
 20
845.8081080267028
 10
1875.531409430701
 20
846.0888125839961
 10
1874.788789489494
 20
846.3906034034721
 10
1874.067260523558
 20
846.7128897154292
 10
1873.368234959729
 20
847.0550406292781
 10
1872.693081173373
 20
847.4163863685367
  0
SPLINE
  5
2F5
330
2CE
100
AcDbEntity
  8
0
  6
Continuous
 62
     7
370
    15
100
AcDbSpline
210
0.0
220
0.0
230
1.0
 70
     8
 71
     3
 72
    12
 73
     8
 74
     0
 42
0.0000000001
 43
0.0000000001
 40
0.0
 40
0.0
 40
0.0
 40
0.0
 40
0.2245589236511968
 40
0.4522685049477985
 40
0.6822067498635726
 40
0.9133950199324781
 40
1.0
 40
1.0
 40
1.0
 40
1.0
 10
1881.091198750079
 20
865.9142775025058
 30
0.0
 10
1880.706480182656
 20
865.8301312236005
 30
0.0
 10
1879.931645281931
 20
865.6606580575447
 30
0.0
 10
1878.819444061808
 20
865.3207901784314
 30
0.0
 10
1877.757309020324
 20
864.9136951069944
 30
0.0
 10
1876.951925353162
 20
864.5502733522091
 30
0.0
 10
1876.532260186248
 20
864.3048776986368
 30
0.0
 10
1876.417893083107
 20
864.2380025032791
 30
0.0
  0
SPLINE
  5
2F6
330
2CE
100
AcDbEntity
  8
0
  6
Continuous
 62
     7
370
    15
100
AcDbSpline
210
0.0
220
0.0
230
1.0
 70
     8
 71
     3
 72
    15
 73
    11
 74
     0
 42
0.0000000001
 43
0.0000000001
 40
0.0
 40
0.0
 40
0.0
 40
0.0
 40
0.0984026380896154
 40
0.2340225722001413
 40
0.3684898882367836
 40
0.5012511407319735
 40
0.6330110137556247
 40
0.7665839840771457
 40
0.9016254980147632
 40
1.0
 40
1.0
 40
1.0
 40
1.0
 10
1895.485938081754
 20
864.5013596719818
 30
0.0
 10
1895.275777827909
 20
864.6505921528623
 30
0.0
 10
1894.775971683136
 20
865.0054989898073
 30
0.0
 10
1893.892795035611
 20
865.5018877087965
 30
0.0
 10
1892.867002281698
 20
865.9925784164631
 30
0.0
 10
1891.786702072981
 20
866.4149096659352
 30
0.0
 10
1890.658158918293
 20
866.7731362304063
 30
0.0
 10
1889.479783435435
 20
867.0642528268251
 30
0.0
 10
1888.371291657712
 20
867.2756969391535
 30
0.0
 10
1887.650848093718
 20
867.3556538583898
 30
0.0
 10
1887.347213073061
 20
867.3893521548794
 30
0.0
  0
SPLINE
  5
2F7
330
2CE
100
AcDbEntity
  8
0
  6
Continuous
 62
     7
370
    15
100
AcDbSpline
210
0.0
220
0.0
230
1.0
 70
     8
 71
     3
 72
    15
 73
    11
 74
     0
 42
0.0000000001
 43
0.0000000001
 40
0.0
 40
0.0
 40
0.0
 40
0.0
 40
0.0380804278643705
 40
0.1827675193191759
 40
0.3254661712601629
 40
0.469147970503107
 40
0.6146952091053103
 40
0.7615098791917968
 40
0.9089615373317109
 40
1.0
 40
1.0
 40
1.0
 40
1.0
 10
1883.536572935291
 20
867.456071809698
 30
0.0
 10
1883.42789085402
 20
867.4502426152081
 30
0.0
 10
1882.906269761441
 20
867.42226531883
 30
0.0
 10
1881.995398868689
 20
867.2993653595142
 30
0.0
 10
1880.814371588577
 20
867.0872431492778
 30
0.0
 10
1879.672433337814
 20
866.8009866344357
 30
0.0
 10
1878.568757946682
 20
866.4477190092993
 30
0.0
 10
1877.520218804912
 20
866.0238916913833
 30
0.0
 10
1876.651745330711
 20
865.6064816024271
 30
0.0
 10
1876.170903164675
 20
865.3086989542217
 30
0.0
 10
1875.987352032939
 20
865.1950268473433
 30
0.0
  0
SPLINE
  5
2F8
330
2CE
100
AcDbEntity
  8
0
  6
Continuous
 62
     7
370
    15
100
AcDbSpline
210
0.0
220
0.0
230
1.0
 70
     8
 71
     3
 72
    15
 73
    11
 74
     0
 42
0.0000000001
 43
0.0000000001
 40
0.0
 40
0.0
 40
0.0
 40
0.0
 40
0.0920340196744139
 40
0.2337157551412165
 40
0.3740430807943551
 40
0.5124467186853838
 40
0.6507137521478376
 40
0.7909363906029377
 40
0.9325504187179472
 40
1.0
 40
1.0
 40
1.0
 40
1.0
 10
1895.217932426473
 20
865.9216960437023
 30
0.0
 10
1895.025295072426
 20
866.0521306469842
 30
0.0
 10
1894.536102219296
 20
866.3833627490955
 30
0.0
 10
1893.66190051605
 20
866.8512625071736
 30
0.0
 10
1892.622895789171
 20
867.3256824498974
 30
0.0
 10
1891.53013680208
 20
867.7313835646343
 30
0.0
 10
1890.389444615824
 20
868.0739476857267
 30
0.0
 10
1889.198516835446
 20
868.3473965905148
 30
0.0
 10
1888.185446719576
 20
868.5283858703668
 30
0.0
 10
1887.567425772845
 20
868.5890665311472
 30
0.0
 10
1887.368035481054
 20
868.6086437553866
 30
0.0
  0
SPLINE
  5
2F9
330
2CE
100
AcDbEntity
  8
0
  6
Continuous
 62
     7
370
    15
100
AcDbSpline
210
0.0
220
0.0
230
1.0
 70
     8
 71
     3
 72
    15
 73
    11
 74
     0
 42
0.0000000001
 43
0.0000000001
 40
0.0
 40
0.0
 40
0.0
 40
0.0
 40
0.074958387362876
 40
0.2202046129219132
 40
0.3637918301921834
 40
0.5090371521143088
 40
0.6560147613645294
 40
0.8041127623664051
 40
0.952690412653756
 40
1.0
 40
1.0
 40
1.0
 40
1.0
 10
1883.558254290423
 20
868.6751899805917
 30
0.0
 10
1883.346324919114
 20
868.6613189567637
 30
0.0
 10
1882.723741819106
 20
868.6205701687974
 30
0.0
 10
1881.717599896431
 20
868.4741642584727
 30
0.0
 10
1880.546165068414
 20
868.243263727666
 30
0.0
 10
1879.413855303045
 20
867.9402525296314
 30
0.0
 10
1878.321087431189
 20
867.5699382387481
 30
0.0
 10
1877.289743259708
 20
867.1285784095715
 30
0.0
 10
1876.52910300907
 20
866.7506693210532
 30
0.0
 10
1876.144317074635
 20
866.5033406512016
 30
0.0
 10
1876.051385733141
 20
866.4436072175643
 30
0.0
  0
SPLINE
  5
2FA
330
2CE
100
AcDbEntity
  8
0
  6
Continuous
 62
     7
370
    15
100
AcDbSpline
210
0.0
220
0.0
230
1.0
 70
     8
 71
     3
 72
    15
 73
    11
 74
     0
 42
0.0000000001
 43
0.0000000001
 40
0.0
 40
0.0
 40
0.0
 40
0.0
 40
0.0948178459642056
 40
0.2415223246439432
 40
0.3866700653730223
 40
0.529803601680948
 40
0.6738165372866294
 40
0.8182948636315744
 40
0.9640445947645124
 40
1.0
 40
1.0
 40
1.0
 40
1.0
 10
1895.008919024935
 20
867.2943485173894
 30
0.0
 10
1894.81314369154
 20
867.4210005980221
 30
0.0
 10
1894.314459998101
 20
867.7436118599027
 30
0.0
 10
1893.427541583683
 20
868.1967637955946
 30
0.0
 10
1892.375655304095
 20
868.6545862412362
 30
0.0
 10
1891.270608312517
 20
869.0437811651644
 30
0.0
 10
1890.121519437984
 20
869.3696995429675
 30
0.0
 10
1888.926453781054
 20
869.6235658620617
 30
0.0
 10
1888.010917321079
 20
869.777863767327
 30
0.0
 10
1887.492404794606
 20
869.8233419794258
 30
0.0
 10
1887.389802697706
 20
869.8323411061322
 30
0.0
  0
SPLINE
  5
2FB
330
2CE
100
AcDbEntity
  8
0
  6
Continuous
 62
     7
370
    15
100
AcDbSpline
210
0.0
220
0.0
230
1.0
 70
     8
 71
     3
 72
    11
 73
     7
 74
     0
 42
0.0000000001
 43
0.0000000001
 40
0.0
 40
0.0
 40
0.0
 40
0.0
 40
0.0950885446524945
 40
0.4280236362126312
 40
0.7602493724105239
 40
1.0
 40
1.0
 40
1.0
 40
1.0
 10
1887.44254950221
 20
867.3784625774221
 30
0.0
 10
1887.316785988812
 20
867.3944873021296
 30
0.0
 10
1886.75068460926
 20
867.4666196600686
 30
0.0
 10
1885.730087913368
 20
867.512886911774
 30
0.0
 10
1884.516558478657
 20
867.525196974784
 30
0.0
 10
1883.758281351358
 20
867.4710578195975
 30
0.0
 10
1883.440440565154
 20
867.4483647552424
 30
0.0
  0
SPLINE
  5
2FC
330
2CE
100
AcDbEntity
  8
0
  6
Continuous
 62
     7
370
    15
100
AcDbSpline
210
0.0
220
0.0
230
1.0
 70
     8
 71
     3
 72
    11
 73
     7
 74
     0
 42
0.0000000001
 43
0.0000000001
 40
0.0
 40
0.0
 40
0.0
 40
0.0
 40
0.1782375583762364
 40
0.5111317713928393
 40
0.8429520355780782
 40
1.0
 40
1.0
 40
1.0
 40
1.0
 10
1887.463145886646
 20
868.5978796972751
 30
0.0
 10
1887.226690624563
 20
868.6251998067373
 30
0.0
 10
1886.548607968671
 20
868.7035456731809
 30
0.0
 10
1885.417409688965
 20
868.7420347837296
 30
0.0
 10
1884.315315659926
 20
868.7392223540078
 30
0.0
 10
1883.669356754582
 20
868.6850276979319
 30
0.0
 10
1883.461843716819
 20
868.6676177704271
 30
0.0
  0
SPLINE
  5
2FD
330
2CE
100
AcDbEntity
  8
0
  6
Continuous
 62
     7
370
    15
100
AcDbSpline
210
0.0
220
0.0
230
1.0
 70
     8
 71
     3
 72
    11
 73
     7
 74
     0
 42
0.0000000001
 43
0.0000000001
 40
0.0
 40
0.0
 40
0.0
 40
0.0
 40
0.2499496205740594
 40
0.5034059114611655
 40
0.759342688900353
 40
1.0
 40
1.0
 40
1.0
 40
1.0
 10
1880.87140548053
 20
866.9627477163116
 30
0.0
 10
1880.46675105147
 20
866.8741073078541
 30
0.0
 10
1879.651765090619
 20
866.6955829095789
 30
0.0
 10
1878.484898944596
 20
866.3354917908817
 30
0.0
 10
1877.383032582843
 20
865.9228073610405
 30
0.0
 10
1876.714602475961
 20
865.5955537934616
 30
0.0
 10
1876.390670725881
 20
865.436961564035
 30
0.0
  0
SPLINE
  5
2FE
330
2CE
100
AcDbEntity
  8
0
  6
Continuous
 62
     7
370
    15
100
AcDbSpline
210
0.0
220
0.0
230
1.0
 70
     8
 71
     3
 72
    23
 73
    19
 74
     0
 42
0.0000000001
 43
0.0000000001
 40
0.0
 40
0.0
 40
0.0
 40
0.0
 40
0.0344068623443682
 40
0.0995679741140763
 40
0.1639024037962214
 40
0.2277516081093182
 40
0.292479359846149
 40
0.3579187012869324
 40
0.4237943763803659
 40
0.48981984397096
 40
0.5557046370200531
 40
0.6211619761593185
 40
0.6859161442740076
 40
0.7497804505902357
 40
0.8140847325673037
 40
0.879223830222571
 40
0.9449301233039491
 40
1.0
 40
1.0
 40
1.0
 40
1.0
 10
1894.847342047817
 20
866.1650328822251
 30
0.0
 10
1894.6723448157
 20
866.2678588983466
 30
0.0
 10
1894.165930725885
 20
866.5654209953784
 30
0.0
 10
1893.248365489327
 20
866.9891221930273
 30
0.0
 10
1892.116351173383
 20
867.4351249275721
 30
0.0
 10
1890.928681994996
 20
867.809611538261
 30
0.0
 10
1889.690476263895
 20
868.1171004311085
 30
0.0
 10
1888.403885265402
 20
868.3531102440472
 30
0.0
 10
1887.084402696099
 20
868.5131244206457
 30
0.0
 10
1885.748924497675
 20
868.5939119637238
 30
0.0
 10
1884.41504125789
 20
868.5944279755371
 30
0.0
 10
1883.100138891547
 20
868.5156553378492
 30
0.0
 10
1881.820144189561
 20
868.3606963560357
 30
0.0
 10
1880.57963911048
 20
868.131910612732
 30
0.0
 10
1879.378054998847
 20
867.8318283889804
 30
0.0
 10
1878.22029191237
 20
867.4572802672646
 30
0.0
 10
1877.169865420565
 20
867.0422131049907
 30
0.0
 10
1876.547140973996
 20
866.7226784279527
 30
0.0
 10
1876.263199542906
 20
866.576981347999
 30
0.0
  0
SPLINE
  5
2FF
330
2CE
100
AcDbEntity
  8
0
  6
Continuous
 62
     7
370
    15
100
AcDbSpline
210
0.0
220
0.0
230
1.0
 70
     8
 71
     3
 72
    24
 73
    20
 74
     0
 42
0.0000000001
 43
0.0000000001
 40
0.0
 40
0.0
 40
0.0
 40
0.0
 40
0.0415874178932052
 40
0.102069735851777
 40
0.1617229811398181
 40
0.2213173513516904
 40
0.2817545503753855
 40
0.3427914102295351
 40
0.4041684858795036
 40
0.4656174931210785
 40
0.5268682601012385
 40
0.5876558013498509
 40
0.6477270566719014
 40
0.7071122189002346
 40
0.7671830994933441
 40
0.8279703756628267
 40
0.8892209939605809
 40
0.9506699727876496
 40
1.0
 40
1.0
 40
1.0
 40
1.0
 10
1894.775803363208
 20
867.4406141427102
 30
0.0
 10
1894.544408224289
 20
867.5710981001385
 30
0.0
 10
1893.976485474973
 20
867.8913503240634
 30
0.0
 10
1892.991229503559
 20
868.3281191613618
 30
0.0
 10
1891.845386046802
 20
868.7562481177913
 30
0.0
 10
1890.645078436927
 20
869.1140598211175
 30
0.0
 10
1889.393843771562
 20
869.4041645344935
 30
0.0
 10
1888.097496208762
 20
869.621578626991
 30
0.0
 10
1886.772389571768
 20
869.7620122781103
 30
0.0
 10
1885.435657375534
 20
869.822758734721
 30
0.0
 10
1884.10491305368
 20
869.8032868479007
 30
0.0
 10
1882.797359641261
 20
869.7051225825829
 30
0.0
 10
1881.527256189859
 20
869.5315521142406
 30
0.0
 10
1880.296413510176
 20
869.2847890364292
 30
0.0
 10
1879.1055053489
 20
868.9662797475318
 30
0.0
 10
1877.957387825469
 20
868.5752730134989
 30
0.0
 10
1876.87014883413
 20
868.1122505897459
 30
0.0
 10
1875.913155002929
 20
867.6242065259391
 30
0.0
 10
1875.364378914172
 20
867.2651274043708
 30
0.0
 10
1875.120008249009
 20
867.1052290312809
 30
0.0
  0
LINE
  5
300
330
2CE
100
AcDbEntity
  8
0
  6
Continuous
 62
     7
370
    15
100
AcDbLine
 10
1880.87140548053
 20
866.9627477163116
 30
0.0
 11
1881.094222145978
 21
866.0910077547912
 31
0.0
  0
SPLINE
  5
301
330
2CE
100
AcDbEntity
  8
0
  6
Continuous
 62
     7
370
    15
100
AcDbSpline
210
0.0
220
0.0
230
1.0
 70
     8
 71
     3
 72
    13
 73
     9
 74
     0
 42
0.0000000001
 43
0.0000000001
 40
0.0
 40
0.0
 40
0.0
 40
0.0
 40
0.1754084452946387
 40
0.3527839967741917
 40
0.5284887184326825
 40
0.7064821023227869
 40
0.8865037531905649
 40
1.0
 40
1.0
 40
1.0
 40
1.0
 10
1887.268235702586
 20
852.2678020905338
 30
0.0
 10
1887.67358989305
 20
852.3076594318197
 30
0.0
 10
1888.48884409122
 20
852.387821091858
 30
0.0
 10
1889.682351784045
 20
852.5985379880768
 30
0.0
 10
1890.849708537603
 20
852.8729065288775
 30
0.0
 10
1891.975984526668
 20
853.2210906972668
 30
0.0
 10
1892.933005672593
 20
853.5782721439883
 30
0.0
 10
1893.482216811084
 20
853.8448823804579
 30
0.0
 10
1893.694583427967
 20
853.9479740877771
 30
0.0
  0
LWPOLYLINE
  5
302
330
2CE
100
AcDbEntity
  8
0
  6
Continuous
 62
     7
370
    15
100
AcDbPolyline
 90
       42
 70
   128
 43
0.0
 10
1898.814880940257
 20
860.3104113898002
 10
1898.579657761061
 20
860.6700946794175
 10
1898.260824810799
 20
861.1000447857058
 10
1897.907771343795
 20
861.5191880140207
 10
1897.521449129779
 20
861.9263944283218
 10
1897.102899625138
 20
862.3205662721094
 10
1896.653251165338
 20
862.7006409277809
 10
1896.17371592313
 20
863.0655937812617
 10
1895.665586640746
 20
863.4144409841809
 10
1895.130233144896
 20
863.7462421061554
 10
1894.569098653956
 20
864.0601026700217
 10
1893.983695887303
 20
864.3551765631888
 10
1893.375602987303
 20
864.6306683186107
 10
1892.746459264902
 20
864.8858352592196
 10
1892.097960780344
 20
865.1199895000573
 10
1891.431855770892
 20
865.3324998026876
 10
1890.749939937885
 20
865.522793276907
 10
1890.054051605847
 20
865.6903569251516
 10
1889.346066766692
 20
865.8347390254514
 10
1888.627894022374
 20
865.9555503491896
 10
1887.901469439641
 20
866.0524652103971
 10
1887.168751330738
 20
866.1252223437417
 10
1886.431714974144
 20
866.1736256088561
 10
1885.69234728957
 20
866.1975445190948
 10
1884.952641481575
 20
866.1969145933044
 10
1884.21459166624
 20
866.1717375296536
 10
1883.48018749538
 20
866.1220812010549
 10
1882.7514087928
 20
866.0480794721907
 10
1882.030220217034
 20
865.9499318386391
 10
1881.318565964981
 20
865.8279028890675
 10
1880.618364530683
 20
865.6823215919496
 10
1879.931503533414
 20
865.513580408724
 10
1879.259834628987
 20
865.3221342357884
 10
1878.60516851802
 20
865.1084991781768
 10
1877.969270064602
 20
864.8732511582345
 10
1877.353853538541
 20
864.6170243630322
 10
1876.760577993985
 20
864.3405095347096
 10
1876.191042796914
 20
864.0444521083566
 10
1875.646783313525
 20
863.7296502024522
 10
1875.129266771163
 20
863.3969524672783
 10
1874.63988830293
 20
863.0472557971094
 10
1874.606856363816
 20
863.0222679503267
  0
SPLINE
  5
303
330
2CE
100
AcDbEntity
  8
0
  6
Continuous
 62
     7
370
    15
100
AcDbSpline
210
0.0
220
0.0
230
1.0
 70
     8
 71
     3
 72
    12
 73
     8
 74
     0
 42
0.0000000001
 43
0.0000000001
 40
0.0
 40
0.0
 40
0.0
 40
0.0
 40
0.0615278713241174
 40
0.337359689896171
 40
0.6131914991402062
 40
0.911562647972766
 40
1.0
 40
1.0
 40
1.0
 40
1.0
 10
1888.597402098993
 20
866.3781964373569
 30
0.0
 10
1888.511591945065
 20
866.3890685868491
 30
0.0
 10
1888.041091563754
 20
866.4486810015503
 30
0.0
 10
1887.168390662327
 20
866.504951613563
 30
0.0
 10
1885.953400346475
 20
866.5288329830115
 30
0.0
 10
1885.000284314338
 20
866.5070658418514
 30
0.0
 10
1884.449354124392
 20
866.4534502077708
 30
0.0
 10
1884.323393068618
 20
866.441191881765
 30
0.0
  0
SPLINE
  5
304
330
2CE
100
AcDbEntity
  8
0
  6
Continuous
 62
     7
370
    15
100
AcDbSpline
210
0.0
220
0.0
230
1.0
 70
     8
 71
     3
 72
    30
 73
    26
 74
     0
 42
0.0000000001
 43
0.0000000001
 40
0.0
 40
0.0
 40
0.0
 40
0.0
 40
0.2499999999999921
 40
0.2499999999999921
 40
0.3750000000000914
 40
0.3750000000000914
 40
0.4375000000000389
 40
0.4375000000000389
 40
0.4687500000001129
 40
0.4687500000001129
 40
0.4843750000002837
 40
0.4843750000002837
 40
0.5000000000004544
 40
0.5000000000004544
 40
0.5156250000006252
 40
0.5156250000006252
 40
0.5312500000007958
 40
0.5312500000007958
 40
0.5625000000008598
 40
0.5625000000008598
 40
0.6250000000007815
 40
0.6250000000007815
 40
0.7500000000004161
 40
0.7500000000004161
 40
1.0
 40
1.0
 40
1.0
 40
1.0
 10
1890.122793172314
 20
866.3287239562825
 30
0.0
 10
1890.24116239433
 20
866.2944701510035
 30
0.0
 10
1890.358903796762
 20
866.2580608394533
 30
0.0
 10
1890.533828376204
 20
866.1973562822124
 30
0.0
 10
1890.591854185342
 20
866.1761874201681
 30
0.0
 10
1890.678046077669
 20
866.1409277231266
 30
0.0
 10
1890.706656558758
 20
866.1286460882932
 30
0.0
 10
1890.748746573492
 20
866.1079565325302
 30
0.0
 10
1890.762659865938
 20
866.1007315340825
 30
0.0
 10
1890.782683397611
 20
866.0882841445552
 30
0.0
 10
1890.789267053684
 20
866.0838782634606
 30
0.0
 10
1890.800951801223
 20
866.0737157911571
 30
0.0
 10
1890.806956866602
 20
866.0665782400755
 30
0.0
 10
1890.802546059802
 20
866.0560755884661
 30
0.0
 10
1890.795491547309
 20
866.0543669355089
 30
0.0
 10
1890.782738886613
 20
866.0519040814174
 30
0.0
 10
1890.776011006131
 20
866.051407921989
 30
0.0
 10
1890.755459522533
 20
866.0506715257675
 30
0.0
 10
1890.741428845752
 20
866.051263931428
 30
0.0
 10
1890.699216544597
 20
866.0540215510399
 30
0.0
 10
1890.670715746507
 20
866.0573256970684
 30
0.0
 10
1890.584787680877
 20
866.0685520133883
 30
0.0
 10
1890.527037724631
 20
866.0779750747055
 30
0.0
 10
1890.353437154906
 20
866.1076811584408
 30
0.0
 10
1890.236907075092
 20
866.1297301112099
 30
0.0
 10
1890.119769776417
 20
866.1519937039965
 30
0.0
  0
SPLINE
  5
305
330
2CE
100
AcDbEntity
  8
0
  6
Continuous
 62
     7
370
    15
100
AcDbSpline
210
0.0
220
0.0
230
1.0
 70
     8
 71
     3
 72
    16
 73
    12
 74
     0
 42
0.0000000001
 43
0.0000000001
 40
0.0
 40
0.0
 40
0.0
 40
0.0
 40
0.2500000000001573
 40
0.2500000000001573
 40
0.3750000000001706
 40
0.3750000000001706
 40
0.500000000000184
 40
0.500000000000184
 40
0.7500000000000921
 40
0.7500000000000921
 40
1.0
 40
1.0
 40
1.0
 40
1.0
 10
1880.87140548053
 20
866.9627477163118
 30
0.0
 10
1881.614101381808
 20
867.0736163071907
 30
0.0
 10
1882.377312146473
 20
867.1457799626073
 30
0.0
 10
1883.537988111809
 20
867.1916712941079
 30
0.0
 10
1883.926902620078
 20
867.1966064480448
 30
0.0
 10
1884.708733057392
 20
867.185466165723
 30
0.0
 10
1885.102516855571
 20
867.1693053339803
 30
0.0
 10
1886.280110306202
 20
867.0892970521503
 30
0.0
 10
1887.064378654
 20
866.9938094791294
 30
0.0
 10
1888.61581820749
 20
866.7205926339534
 30
0.0
 10
1889.376757177965
 20
866.5446126077307
 30
0.0
 10
1890.122793172316
 20
866.3287239562817
 30
0.0
  0
SPLINE
  5
306
330
2CE
100
AcDbEntity
  8
0
  6
Continuous
 62
     7
370
    15
100
AcDbSpline
210
0.0
220
0.0
230
1.0
 70
     8
 71
     3
 72
     8
 73
     4
 74
     0
 42
0.0000000001
 43
0.0000000001
 40
0.0
 40
0.0
 40
0.0
 40
0.0
 40
1.0
 40
1.0
 40
1.0
 40
1.0
 10
1881.094222145978
 20
866.0910077547912
 30
0.0
 10
1881.116734132614
 20
866.0029326625446
 30
0.0
 10
1881.115264194844
 20
865.9170085951176
 30
0.0
 10
1881.091198750079
 20
865.9142775025058
 30
0.0
  0
LINE
  5
307
330
2CE
100
AcDbEntity
  8
0
  6
Continuous
 62
     7
370
    15
100
AcDbLine
 10
1894.263224251264
 20
850.0922064248928
 30
0.0
 11
1894.198814546997
 21
846.3271873322479
 31
0.0
  0
LINE
  5
308
330
2CE
100
AcDbEntity
  8
0
  6
Continuous
 62
     7
370
    15
100
AcDbLine
 10
1904.164350902575
 20
857.3578656072227
 30
0.0
 11
1904.099941198307
 21
853.5928465145779
 31
0.0
  0
LINE
  5
309
330
2CE
100
AcDbEntity
  8
0
  6
Continuous
 62
     7
370
    15
100
AcDbLine
 10
1871.265619590222
 20
853.0944742680881
 30
0.0
 11
1871.201209885955
 21
849.3294551754434
 31
0.0
  0
LINE
  5
30A
330
2CE
100
AcDbEntity
  8
0
  6
Continuous
 62
     7
370
    15
100
AcDbLine
 10
1866.236568553128
 20
862.3092230633343
 30
0.0
 11
1866.17215884886
 21
858.5442039706896
 31
0.0
  0
LINE
  5
30B
330
2CE
100
AcDbEntity
  8
0
  6
Continuous
 62
     7
370
    15
100
AcDbLine
 10
1905.041882638255
 20
860.3262269715516
 30
0.0
 11
1904.977472933988
 21
856.5612078789071
 31
0.0
  0
SPLINE
  5
30C
330
2CE
100
AcDbEntity
  8
0
  6
Continuous
 62
     7
370
    15
100
AcDbSpline
210
0.0
220
0.0
230
1.0
 70
     8
 71
     3
 72
    10
 73
     6
 74
     0
 42
0.0000000001
 43
0.0000000001
 40
0.0
 40
0.0
 40
0.0
 40
0.0
 40
0.5
 40
0.5
 40
0.5577177771637493
 40
0.5577177771637493
 40
0.5577177771637493
 40
0.5577177771637493
 10
1881.094222145978
 20
866.0910077547912
 30
0.0
 10
1883.555205592323
 20
866.7207500435626
 30
0.0
 10
1886.404471397115
 20
866.8779333172276
 30
0.0
 10
1889.489070072973
 20
866.4409048477677
 30
0.0
 10
1889.806961141072
 20
866.3883802860164
 30
0.0
 10
1890.122793174561
 20
866.3287239558579
 30
0.0
  0
SPLINE
  5
30D
330
2CE
100
AcDbEntity
  8
0
  6
Continuous
 62
     7
370
    15
100
AcDbSpline
210
0.0
220
0.0
230
1.0
 70
     8
 71
     3
 72
    10
 73
     6
 74
     0
 42
0.0000000001
 43
0.0000000001
 40
0.0
 40
0.0
 40
0.0
 40
0.0
 40
0.3676914381541958
 40
0.7380009426522306
 40
1.0
 40
1.0
 40
1.0
 40
1.0
 10
1881.09119875008
 20
865.9142775025062
 30
0.0
 10
1881.481720211982
 20
866.005557144307
 30
0.0
 10
1882.265543758316
 20
866.1887663646044
 30
0.0
 10
1883.371153438593
 20
866.3623512868884
 30
0.0
 10
1884.085966064589
 20
866.4212523408284
 30
0.0
 10
1884.382150942498
 20
866.4456581792752
 30
0.0
  0
SPLINE
  5
30E
330
2CE
100
AcDbEntity
  8
0
  6
Continuous
 62
     7
370
    15
100
AcDbSpline
210
0.0
220
0.0
230
1.0
 70
     8
 71
     3
 72
     9
 73
     5
 74
     0
 42
0.0000000001
 43
0.0000000001
 40
0.0
 40
0.0
 40
0.0
 40
0.0
 40
0.1158578471216802
 40
1.0
 40
1.0
 40
1.0
 40
1.0
 10
1888.58670039852
 20
866.3784381000612
 30
0.0
 10
1888.646765653871
 20
866.3732437434257
 30
0.0
 10
1889.165204903733
 20
866.3284098649766
 30
0.0
 10
1889.671835930072
 20
866.2347777785067
 30
0.0
 10
1890.119769776415
 20
866.1519937039971
 30
0.0
  0
SPLINE
  5
30F
330
2CE
100
AcDbEntity
  8
0
  6
Continuous
 62
     8
370
    15
100
AcDbSpline
210
0.0
220
0.0
230
1.0
 70
     8
 71
     3
 72
    11
 73
     7
 74
     0
 42
0.0000000001
 43
0.0000000001
 40
0.0
 40
0.0
 40
0.0
 40
0.0
 40
0.0916977173823075
 40
0.4242702549336972
 40
0.7561341603541856
 40
1.0
 40
1.0
 40
1.0
 40
1.0
 10
1887.347213073061
 20
867.3893521548794
 30
0.0
 10
1887.231733673813
 20
867.4041312111675
 30
0.0
 10
1886.697429488748
 20
867.4725114736018
 30
0.0
 10
1885.730877206142
 20
867.5168496783566
 30
0.0
 10
1884.571121320313
 20
867.5293281904497
 30
0.0
 10
1883.844396714816
 20
867.4778688143851
 30
0.0
 10
1883.536572935291
 20
867.456071809698
 30
0.0
  0
SPLINE
  5
310
330
2CE
100
AcDbEntity
  8
0
  6
Continuous
 62
     8
370
    15
100
AcDbSpline
210
0.0
220
0.0
230
1.0
 70
     8
 71
     3
 72
    11
 73
     7
 74
     0
 42
0.0000000001
 43
0.0000000001
 40
0.0
 40
0.0
 40
0.0
 40
0.0
 40
0.1748225527167977
 40
0.5073539684618042
 40
0.8388125314511382
 40
0.9999999999999998
 40
0.9999999999999998
 40
0.9999999999999998
 40
0.9999999999999998
 10
1887.368035481054
 20
868.6086437553866
 30
0.0
 10
1887.14720421939
 20
868.6342932680004
 30
0.0
 10
1886.506327998188
 20
868.7087309295698
 30
0.0
 10
1885.434505641432
 20
868.7458715732919
 30
0.0
 10
1884.380830578894
 20
868.7437503291135
 30
0.0
 10
1883.761041375528
 20
868.6920919426659
 30
0.0
 10
1883.558254290423
 20
868.6751899805917
 30
0.0
  0
SPLINE
  5
311
330
2CE
100
AcDbEntity
  8
0
  6
Continuous
 62
     8
370
    15
100
AcDbSpline
210
0.0
220
0.0
230
1.0
 70
     8
 71
     3
 72
    10
 73
     6
 74
     0
 42
0.0000000001
 43
0.0000000001
 40
0.0
 40
0.0
 40
0.0
 40
0.0
 40
0.2742634686520826
 40
0.6378786976960001
 40
0.9999999999999998
 40
0.9999999999999998
 40
0.9999999999999998
 40
0.9999999999999998
 10
1887.389802697706
 20
869.8323411061322
 30
0.0
 10
1887.075418212418
 20
869.8648609645561
 30
0.0
 10
1886.344226533712
 20
869.9404952626379
 30
0.0
 10
1885.18618089819
 20
869.9763290295239
 30
0.0
 10
1884.352056180071
 20
869.9447679009576
 30
0.0
 10
1883.93585234278
 20
869.9290198209244
 30
0.0
  0
SPLINE
  5
312
330
2CE
100
AcDbEntity
  8
0
  6
Continuous
 62
     8
370
    15
100
AcDbSpline
210
0.0
220
0.0
230
1.0
 70
     8
 71
     3
 72
    19
 73
    15
 74
     0
 42
0.0000000001
 43
0.0000000001
 40
0.0
 40
0.0
 40
0.0
 40
0.0
 40
0.0850745593614313
 40
0.1713427511363953
 40
0.2584552762033934
 40
0.3460413755912616
 40
0.4337179783763921
 40
0.5210996380483304
 40
0.607808623108137
 40
0.693484509248016
 40
0.7782204511709839
 40
0.8639709823732301
 40
0.9507327706842932
 40
1.0
 40
1.0
 40
1.0
 40
1.0
 10
1881.094222145978
 20
866.0910077547912
 30
0.0
 10
1880.709433504326
 20
866.0069102305186
 30
0.0
 10
1879.934457471989
 20
865.8375352577788
 30
0.0
 10
1878.823329666218
 20
865.4969205733012
 30
0.0
 10
1877.757057849916
 20
865.092703601581
 30
0.0
 10
1876.754302508932
 20
864.6223560098773
 30
0.0
 10
1875.827959965134
 20
864.0931711760179
 30
0.0
 10
1874.990216938666
 20
863.5118411795026
 30
0.0
 10
1874.250310381072
 20
862.886910204828
 30
0.0
 10
1873.61433447965
 20
862.2264993274596
 30
0.0
 10
1873.079164279184
 20
861.5329494406815
 30
0.0
 10
1872.651872718404
 20
860.807188553669
 30
0.0
 10
1872.360718317676
 20
860.1636372064206
 30
0.0
 10
1872.260160515594
 20
859.7584340745246
 30
0.0
 10
1872.223740313632
 20
859.6116768901625
 30
0.0
  0
SPLINE
  5
313
330
2CE
100
AcDbEntity
  8
0
  6
Continuous
 62
     8
370
    15
100
AcDbSpline
210
0.0
220
0.0
230
1.0
 70
     8
 71
     3
 72
    39
 73
    35
 74
     0
 42
0.0000000001
 43
0.0000000001
 40
0.0
 40
0.0
 40
0.0
 40
0.0
 40
0.0126727588159063
 40
0.0444509364582204
 40
0.0757850331398781
 40
0.1072875246437746
 40
0.1392072933506796
 40
0.1714136519895208
 40
0.2037685910365198
 40
0.2361302273835089
 40
0.2683565020670565
 40
0.3003088894202865
 40
0.3318558786450825
 40
0.3631649179333614
 40
0.3949047889026662
 40
0.4269936181197155
 40
0.4592964225943274
 40
0.4916726844505121
 40
0.5239799603169609
 40
0.556077615483544
 40
0.5878304408279004
 40
0.6191468859913685
 40
0.6506790910542776
 40
0.682620682848121
 40
0.7148404234112231
 40
0.7471999565195002
 40
0.7795572784472919
 40
0.8117704435300066
 40
0.8437012659555309
 40
0.8752187796609835
 40
0.9065434977673001
 40
0.9383089704364488
 40
0.9704151947605099
 40
1.0
 40
1.0
 40
1.0
 40
1.0
 10
1899.011402770161
 20
859.7728329362
 30
0.0
 10
1898.99269677991
 20
859.8809246100161
 30
0.0
 10
1898.927083696274
 20
860.2600666890422
 30
0.0
 10
1898.695938091038
 20
860.8957238322258
 30
0.0
 10
1898.324477709341
 20
861.6727820072274
 30
0.0
 10
1897.8390741494
 20
862.4267522473658
 30
0.0
 10
1897.247028496759
 20
863.1576127839158
 30
0.0
 10
1896.548115093416
 20
863.857700794243
 30
0.0
 10
1895.750067265025
 20
864.5172084168923
 30
0.0
 10
1894.862519330828
 20
865.1271215886721
 30
0.0
 10
1893.897686860509
 20
865.6797402219096
 30
0.0
 10
1892.869527919947
 20
866.1689844528327
 30
0.0
 10
1891.789880047777
 20
866.5918303109821
 30
0.0
 10
1890.661056209214
 20
866.9494244865433
 30
0.0
 10
1889.483164180276
 20
867.2425915466632
 30
0.0
 10
1888.259524411178
 20
867.4680009874689
 30
0.0
 10
1887.004526983526
 20
867.621092372161
 30
0.0
 10
1885.734335000097
 20
867.6988505046393
 30
0.0
 10
1884.465657556122
 20
867.7002482952621
 30
0.0
 10
1883.215023310968
 20
867.6262234031939
 30
0.0
 10
1881.997630852708
 20
867.4796791024219
 30
0.0
 10
1880.817645942418
 20
867.2629871649727
 30
0.0
 10
1879.675244291642
 20
866.9780799127904
 30
0.0
 10
1878.572388799799
 20
866.623992896803
 30
0.0
 10
1877.521005975564
 20
866.2020954797032
 30
0.0
 10
1876.536006633402
 20
865.7166526377462
 30
0.0
 10
1875.630802586224
 20
865.1736597935293
 30
0.0
 10
1874.8167351968
 20
864.580614518752
 30
0.0
 10
1874.102502374249
 20
863.9462112138023
 30
0.0
 10
1873.492066017237
 20
863.2773735878597
 30
0.0
 10
1872.982933698765
 20
862.5757483547909
 30
0.0
 10
1872.579608666772
 20
861.8423413040181
 30
0.0
 10
1872.282657693131
 20
861.1019653402969
 30
0.0
 10
1872.181403841914
 20
860.6019463616398
 30
0.0
 10
1872.132846126323
 20
860.3621551925785
 30
0.0
  0
SPLINE
  5
314
330
2CE
100
AcDbEntity
  8
0
  6
Continuous
 62
     8
370
    15
100
AcDbSpline
210
0.0
220
0.0
230
1.0
 70
     8
 71
     3
 72
    49
 73
    45
 74
     0
 42
0.0000000001
 43
0.0000000001
 40
0.0
 40
0.0
 40
0.0
 40
0.0
 40
0.0060207839628089
 40
0.0305730020543762
 40
0.0548422585621254
 40
0.078815132421367
 40
0.1030420041043063
 40
0.1275642395621519
 40
0.1522800700842472
 40
0.1770827496082666
 40
0.2018632610378018
 40
0.2265131692100804
 40
0.2509274360773075
 40
0.2750070181777493
 40
0.2990628332985464
 40
0.3234588862663722
 40
0.3480970144414475
 40
0.3728724835574634
 40
0.3976769906011439
 40
0.4224014704328863
 40
0.4469389518803817
 40
0.4711872784946462
 40
0.4951586395338455
 40
0.5194068148753792
 40
0.5439441893138937
 40
0.5686686091243683
 40
0.5934731046974377
 40
0.6182486111950814
 40
0.6428868246246155
 40
0.6672830085227758
 40
0.6913389849790485
 40
0.715418396284063
 40
0.7398325349887875
 40
0.7644823608450415
 40
0.7892628379293101
 40
0.8140655319791763
 40
0.8387814255164361
 40
0.8633037708395626
 40
0.8875307964463395
 40
0.9115036487856976
 40
0.9357727566864248
 40
0.9603248706359659
 40
0.9850574613698729
 40
1.0
 40
1.0
 40
1.0
 40
1.0
 10
1899.115602311275
 20
860.5018990769682
 30
0.0
 10
1899.110845488566
 20
860.5692071232423
 30
0.0
 10
1899.086690768627
 20
860.9109913576077
 30
0.0
 10
1898.92755053618
 20
861.5189661764448
 30
0.0
 10
1898.63857635951
 20
862.3136585523875
 30
0.0
 10
1898.232848031139
 20
863.0844227278537
 30
0.0
 10
1897.722597848809
 20
863.8329326773408
 30
0.0
 10
1897.102919252756
 20
864.5570215468634
 30
0.0
 10
1896.378574242404
 20
865.247879125838
 30
0.0
 10
1895.557110382682
 20
865.8957889578315
 30
0.0
 10
1894.649037263501
 20
866.4920518252193
 30
0.0
 10
1893.667011812404
 20
867.029326821385
 30
0.0
 10
1892.625362184346
 20
867.5020170263977
 30
0.0
 10
1891.533342481531
 20
867.908383164805
 30
0.0
 10
1890.392294198999
 20
868.2499877057272
 30
0.0
 10
1889.202065155679
 20
868.5266649963841
 30
0.0
 10
1887.969130768509
 20
868.7343829271654
 30
0.0
 10
1886.708788044382
 20
868.8688563031504
 30
0.0
 10
1885.437403079805
 20
868.9275511360138
 30
0.0
 10
1884.17170825264
 20
868.9099369134103
 30
0.0
 10
1882.928075183635
 20
868.8174538952134
 30
0.0
 10
1881.720047900825
 20
868.6532291712628
 30
0.0
 10
1880.549409281648
 20
868.4193226298841
 30
0.0
 10
1879.416573621507
 20
868.1173231710182
 30
0.0
 10
1878.325126618371
 20
867.7459807573717
 30
0.0
 10
1877.288981975602
 20
867.307738385025
 30
0.0
 10
1876.322737547836
 20
866.8072867150366
 30
0.0
 10
1875.439338954972
 20
866.2510346104239
 30
0.0
 10
1874.649507056907
 20
865.6467933482266
 30
0.0
 10
1873.961311538114
 20
865.003522538176
 30
0.0
 10
1873.376266430329
 20
864.3262917405566
 30
0.0
 10
1872.893217517685
 20
863.6167686864343
 30
0.0
 10
1872.51404574375
 20
862.8755252900633
 30
0.0
 10
1872.244668769044
 20
862.1069306976183
 30
0.0
 10
1872.091116960707
 20
861.3205844081635
 30
0.0
 10
1872.056493219577
 20
860.5266897065154
 30
0.0
 10
1872.14078286683
 20
859.7356995144636
 30
0.0
 10
1872.340914385139
 20
858.9578530745459
 30
0.0
 10
1872.651405127281
 20
858.2012918747961
 30
0.0
 10
1873.069295187119
 20
857.4670052822824
 30
0.0
 10
1873.593376795598
 20
856.7560702767071
 30
0.0
 10
1874.23002564191
 20
856.0735587288341
 30
0.0
 10
1874.859434753016
 20
855.5055462268745
 30
0.0
 10
1875.311807490328
 20
855.1873929756778
 30
0.0
 10
1875.482181152892
 20
855.0675693652062
 30
0.0
  0
SPLINE
  5
315
330
2CE
100
AcDbEntity
  8
0
  6
Continuous
 62
     8
370
    15
100
AcDbSpline
210
0.0
220
0.0
230
1.0
 70
     8
 71
     3
 72
    26
 73
    22
 74
     0
 42
0.0000000001
 43
0.0000000001
 40
0.0
 40
0.0
 40
0.0
 40
0.0
 40
0.0203360955447482
 40
0.0748608765989789
 40
0.1292919770137449
 40
0.1833919966936267
 40
0.2369321199838391
 40
0.2897206309202621
 40
0.3427497746825712
 40
0.3964883383879404
 40
0.4507167007499645
 40
0.5052027369138808
 40
0.5597076072407605
 40
0.6139919775636002
 40
0.6678222715653306
 40
0.7209765520887747
 40
0.7736945964633259
 40
0.8271269935343196
 40
0.8811540236923024
 40
0.9405119129723168
 40
1.0
 40
1.0
 40
1.0
 40
1.0
 10
1893.694583427967
 20
853.9479740877769
 30
0.0
 10
1893.823901655441
 20
854.0073332945864
 30
0.0
 10
1894.299945635843
 20
854.2258453607898
 30
0.0
 10
1895.046962300854
 20
854.6669348224142
 30
0.0
 10
1895.923452047155
 20
855.2637005147955
 30
0.0
 10
1896.700634865117
 20
855.9107381091122
 30
0.0
 10
1897.376660262622
 20
856.5936391005779
 30
0.0
 10
1897.949476729672
 20
857.3089166476176
 30
0.0
 10
1898.420333905091
 20
858.0567735094104
 30
0.0
 10
1898.786818409436
 20
858.8378253776266
 30
0.0
 10
1899.04262755828
 20
859.6460090819709
 30
0.0
 10
1899.182065808203
 20
860.4712431068062
 30
0.0
 10
1899.202407343186
 20
861.3027572476728
 30
0.0
 10
1899.104045211287
 20
862.1296145495305
 30
0.0
 10
1898.890432233161
 20
862.9411705160846
 30
0.0
 10
1898.56700175014
 20
863.7297132589159
 30
0.0
 10
1898.136475667202
 20
864.4948033903439
 30
0.0
 10
1897.598975966926
 20
865.2378155873485
 30
0.0
 10
1896.931514612864
 20
865.9756405319726
 30
0.0
 10
1896.137065209412
 20
866.6997596689395
 30
0.0
 10
1895.499696461836
 20
867.1485043461352
 30
0.0
 10
1895.180662964006
 20
867.3731224883686
 30
0.0
  0
SPLINE
  5
316
330
2CE
100
AcDbEntity
  8
0
  6
Continuous
 62
     8
370
    15
100
AcDbSpline
210
0.0
220
0.0
230
1.0
 70
     8
 71
     3
 72
    11
 73
     7
 74
     0
 42
0.0000000001
 43
0.0000000001
 40
0.0
 40
0.0
 40
0.0
 40
0.0
 40
0.0902753508997789
 40
0.3958836716042011
 40
0.7182087569841019
 40
1.0
 40
1.0
 40
1.0
 40
1.0
 10
1884.382150942498
 20
866.4456581792752
 30
0.0
 10
1884.506954633221
 20
866.45797480554
 30
0.0
 10
1885.054255118026
 20
866.5119867941815
 30
0.0
 10
1886.065656502929
 20
866.5309685222311
 30
0.0
 10
1887.348093995906
 20
866.5065031685934
 30
0.0
 10
1888.192722009506
 20
866.4191732918723
 30
0.0
 10
1888.58670039852
 20
866.3784381000612
 30
0.0
  0
ENDBLK
  5
2D0
330
2CE
100
AcDbEntity
  8
0
100
AcDbBlockEnd
  0
ENDSEC
  0
SECTION
  2
ENTITIES
  0
INSERT
  5
2B6
330
1F
100
AcDbEntity
  8
0
100
AcDbBlockReference
  2
1
 10
0.0
 20
0.0
 30
0.0
  0
INSERT
  5
2CD
330
1F
100
AcDbEntity
  8
0
100
AcDbBlockReference
  2
2
 10
0.0
 20
0.0
 30
0.0
  0
INSERT
  5
317
330
1F
100
AcDbEntity
  8
0
100
AcDbBlockReference
  2
3
 10
0.0
 20
0.0
 30
0.0
  0
ENDSEC
  0
SECTION
  2
OBJECTS
  0
DICTIONARY
  5
C
330
0
100
AcDbDictionary
281
     1
  3
ACAD_COLOR
350
6B
  3
ACAD_GROUP
350
D
  3
ACAD_LAYOUT
350
1A
  3
ACAD_MATERIAL
350
6A
  3
ACAD_MLEADERSTYLE
350
12D
  3
ACAD_MLINESTYLE
350
17
  3
ACAD_PLOTSETTINGS
350
19
  3
ACAD_PLOTSTYLENAME
350
E
  3
ACAD_SCALELIST
350
10C
  3
ACAD_TABLESTYLE
350
7E
  3
ACAD_VISUALSTYLE
350
EF
  3
ACDB_RECOMPOSE_DATA
350
15D
  3
AcDbVariableDictionary
350
5E
  3
DWGPROPS
350
350
  0
DICTIONARY
  5
13C
330
10
100
AcDbDictionary
280
     1
281
     1
  3
ADSK_XREC_LAYER_RECONCILED
360
318
  0
DICTIONARY
  5
335
330
2B7
100
AcDbDictionary
280
     1
281
     1
  0
DICTIONARY
  5
6B
102
{ACAD_REACTORS
330
C
102
}
330
C
100
AcDbDictionary
281
     1
  0
DICTIONARY
  5
D
102
{ACAD_REACTORS
330
C
102
}
330
C
100
AcDbDictionary
281
     1
  0
DICTIONARY
  5
1A
102
{ACAD_REACTORS
330
C
102
}
330
C
100
AcDbDictionary
281
     1
  3
Layout1
350
D3
  3
Layout2
350
D7
  3
Model
350
22
  0
DICTIONARY
  5
6A
102
{ACAD_REACTORS
330
C
102
}
330
C
100
AcDbDictionary
281
     1
  3
ByBlock
350
ED
  3
ByLayer
350
EC
  3
Global
350
EE
  0
DICTIONARY
  5
12D
102
{ACAD_REACTORS
330
C
102
}
330
C
100
AcDbDictionary
281
     1
  3
Annotative
350
13B
  3
Standard
350
12E
  0
DICTIONARY
  5
17
102
{ACAD_REACTORS
330
C
102
}
330
C
100
AcDbDictionary
281
     1
  3
Standard
350
18
  0
DICTIONARY
  5
19
102
{ACAD_REACTORS
330
C
102
}
330
C
100
AcDbDictionary
281
     1
  0
ACDBDICTIONARYWDFLT
  5
E
102
{ACAD_REACTORS
330
C
102
}
330
C
100
AcDbDictionary
281
     1
  3
Normal
350
F
100
AcDbDictionaryWithDefault
340
F
  0
DICTIONARY
  5
10C
102
{ACAD_REACTORS
330
C
102
}
330
C
100
AcDbDictionary
281
     1
  3
A0
350
10D
  3
A1
350
188
  3
A2
350
189
  3
A3
350
18A
  3
A4
350
18B
  3
A5
350
18C
  3
A6
350
18D
  3
A7
350
18E
  3
A8
350
18F
  3
A9
350
190
  3
B0
350
191
  3
B1
350
192
  3
B2
350
193
  3
B3
350
194
  3
B4
350
195
  3
B5
350
196
  3
B6
350
197
  3
B7
350
198
  3
B8
350
199
  3
B9
350
19A
  3
C0
350
19B
  3
C1
350
19C
  3
C2
350
19D
  3
C3
350
19E
  3
C4
350
19F
  3
C5
350
1A0
  3
C6
350
1A1
  3
C7
350
1A2
  3
C8
350
1A3
  3
C9
350
1A4
  3
D0
350
1A5
  3
D1
350
1A6
  3
D2
350
1A7
  0
DICTIONARY
  5
7E
102
{ACAD_REACTORS
330
C
102
}
330
C
100
AcDbDictionary
281
     1
  3
Standard
350
7F
  0
DICTIONARY
  5
EF
102
{ACAD_REACTORS
330
C
102
}
330
C
100
AcDbDictionary
281
     1
  3
2dWireframe
350
F5
  3
3D Hidden
350
F7
  3
3dWireframe
350
F6
  3
Basic
350
F4
  3
Brighten
350
FB
  3
ColorChange
350
FF
  3
Conceptual
350
F8
  3
Dim
350
FA
  3
Facepattern
350
FE
  3
Flat
350
F0
  3
FlatWithEdges
350
F1
  3
Gouraud
350
F2
  3
GouraudWithEdges
350
F3
  3
Linepattern
350
FD
  3
Realistic
350
F9
  3
Thicken
350
FC
  0
XRECORD
  5
15D
102
{ACAD_REACTORS
330
C
102
}
330
C
100
AcDbXrecord
280
     1
 90
        1
330
7F
  0
DICTIONARY
  5
5E
102
{ACAD_REACTORS
330
C
102
}
330
C
100
AcDbDictionary
281
     1
  3
CANNOSCALE
350
146
  3
CMLEADERSTYLE
350
145
  3
CTABLESTYLE
350
84
  3
DIMASSOC
350
5F
  3
HIDETEXT
350
63
  3
INDEXCTL
350
34C
  3
LIGHTINGUNITS
350
34A
  3
MSLTSCALE
350
349
  3
PSOLHEIGHT
350
34E
  3
PSOLWIDTH
350
34D
  3
SORTENTS
350
34B
  0
XRECORD
  5
350
102
{ACAD_REACTORS
330
C
102
}
330
C
100
AcDbXrecord
280
     1
  1
DWGPROPS COOKIE
  2

  3

  4

  6

  7

  8
orhan kara
  9

300
=
301
=
302
=
303
=
304
=
305
=
306
=
307
=
308
=
309
=
 40
0.0011140509259259
 41
2459003.446419051
 42
2459067.655593796
  1

 90
        0
  0
XRECORD
  5
318
102
{ACAD_REACTORS
330
13C
102
}
330
13C
100
AcDbXrecord
280
     1
290
     1
  0
LAYOUT
  5
D3
102
{ACAD_XDICTIONARY
360
354
102
}
102
{ACAD_REACTORS
330
1A
102
}
330
1A
100
AcDbPlotSettings
  1

  2
C:\Documents and Settings\basas\Application Data\Autodesk\AutoCAD 2005\R16.1\enu\plotters\Default Windows System Printer.pc3
  4

  6

 40
0.0
 41
0.0
 42
0.0
 43
0.0
 44
0.0
 45
0.0
 46
0.0
 47
0.0
 48
0.0
 49
0.0
140
0.0
141
0.0
142
1.0
143
1.0
 70
   688
 72
     0
 73
     0
 74
     5
  7

 75
    16
147
1.0
148
0.0
149
0.0
100
AcDbLayout
  1
Layout1
 70
     1
 71
     1
 10
0.0
 20
0.0
 11
12.0
 21
9.0
 12
0.0
 22
0.0
 32
0.0
 14
0.0
 24
0.0
 34
0.0
 15
0.0
 25
0.0
 35
0.0
146
0.0
 13
0.0
 23
0.0
 33
0.0
 16
1.0
 26
0.0
 36
0.0
 17
0.0
 27
1.0
 37
0.0
 76
     0
330
D2
  0
LAYOUT
  5
D7
102
{ACAD_XDICTIONARY
360
356
102
}
102
{ACAD_REACTORS
330
1A
102
}
330
1A
100
AcDbPlotSettings
  1

  2
C:\Documents and Settings\basas\Application Data\Autodesk\AutoCAD 2005\R16.1\enu\plotters\Default Windows System Printer.pc3
  4

  6

 40
0.0
 41
0.0
 42
0.0
 43
0.0
 44
0.0
 45
0.0
 46
0.0
 47
0.0
 48
0.0
 49
0.0
140
0.0
141
0.0
142
1.0
143
1.0
 70
   688
 72
     0
 73
     0
 74
     5
  7

 75
    16
147
1.0
148
0.0
149
0.0
100
AcDbLayout
  1
Layout2
 70
     1
 71
     2
 10
0.0
 20
0.0
 11
12.0
 21
9.0
 12
0.0
 22
0.0
 32
0.0
 14
0.0
 24
0.0
 34
0.0
 15
0.0
 25
0.0
 35
0.0
146
0.0
 13
0.0
 23
0.0
 33
0.0
 16
1.0
 26
0.0
 36
0.0
 17
0.0
 27
1.0
 37
0.0
 76
     0
330
D6
  0
LAYOUT
  5
22
102
{ACAD_XDICTIONARY
360
351
102
}
102
{ACAD_REACTORS
330
1A
102
}
330
1A
100
AcDbPlotSettings
  1

  2
none_device
  4
ISO_A4_(210.00_x_297.00_MM)
  6

 40
7.5
 41
20.0
 42
7.5
 43
20.0
 44
210.0
 45
297.0
 46
11.54999923706054
 47
-13.65000009536743
 48
0.0
 49
0.0
140
0.0
141
0.0
142
1.0
143
8.704084754739808
 70
 11952
 72
     1
 73
     0
 74
     0
  7

 75
     0
147
0.1148885871608098
148
0.0
149
0.0
100
AcDbLayout
  1
Model
 70
     1
 71
     0
 10
0.0
 20
0.0
 11
12.0
 21
9.0
 12
0.0
 22
0.0
 32
0.0
 14
0.0
 24
0.0
 34
0.0
 15
0.0
 25
0.0
 35
0.0
146
0.0
 13
0.0
 23
0.0
 33
0.0
 16
1.0
 26
0.0
 36
0.0
 17
0.0
 27
1.0
 37
0.0
 76
     0
330
1F
331
EA
1001
ACAD_PSEXT
1000
None
1000
None
1000
Not applicable
1000
The layout will not be plotted unless a new plotter configuration name is selected.
1070
     0
  0
MATERIAL
  5
ED
102
{ACAD_XDICTIONARY
360
35A
102
}
102
{ACAD_REACTORS
330
6A
102
}
330
6A
100
AcDbMaterial
  1
ByBlock
  0
MATERIAL
  5
EC
102
{ACAD_XDICTIONARY
360
358
102
}
102
{ACAD_REACTORS
330
6A
102
}
330
6A
100
AcDbMaterial
  1
ByLayer
  0
MATERIAL
  5
EE
102
{ACAD_XDICTIONARY
360
173
102
}
102
{ACAD_REACTORS
330
6A
102
}
330
6A
100
AcDbMaterial
  1
Global
 43
0.0007999999797903
 43
0.0
 43
0.0
 43
0.0
 43
0.0
 43
0.0007999999797903
 43
0.0
 43
0.0
 43
0.0
 43
0.0
 43
1.0
 43
0.0
 43
0.0
 43
0.0
 43
0.0
 43
1.0
 49
0.0007999999797903
 49
0.0
 49
0.0
 49
0.0
 49
0.0
 49
0.0007999999797903
 49
0.0
 49
0.0
 49
0.0
 49
0.0
 49
1.0
 49
0.0
 49
0.0
 49
0.0
 49
0.0
 49
1.0
142
0.0007999999797903
142
0.0
142
0.0
142
0.0
142
0.0
142
0.0007999999797903
142
0.0
142
0.0
142
0.0
142
0.0
142
1.0
142
0.0
142
0.0
142
0.0
142
0.0
142
1.0
144
0.0007999999797903
144
0.0
144
0.0
144
0.0
144
0.0
144
0.0007999999797903
144
0.0
144
0.0
144
0.0
144
0.0
144
1.0
144
0.0
144
0.0
144
0.0
144
0.0
144
1.0
1001
ACAD
1070
    -1
1070
     3
1070
     0
1000

1071
        0
1070
     0
  0
MLEADERSTYLE
  5
13B
102
{ACAD_REACTORS
330
12D
102
}
330
12D
100
AcDbMLeaderStyle
170
     2
171
     1
172
     0
 90
        2
 40
0.0
 41
0.0
173
     1
 91
-1056964608
340
14
 92
       -2
290
     1
 42
2.0
291
     1
 43
8.0
  3
Standard
 44
4.0
300

342
11
174
     1
178
     1
175
     1
176
     0
 93
-1056964608
 45
4.0
292
     0
297
     0
 46
4.0
 94
-1056964608
 47
1.0
 49
1.0
140
1.0
293
     1
141
0.0
294
     1
177
     0
142
1.0
295
     0
296
     1
143
3.75
1001
ACAD_MLEADERVER
1070
     2
  0
MLEADERSTYLE
  5
12E
102
{ACAD_REACTORS
330
12D
102
}
330
12D
100
AcDbMLeaderStyle
170
     2
171
     1
172
     0
 90
        2
 40
0.0
 41
0.0
173
     1
 91
-1056964608
340
14
 92
       -2
290
     1
 42
2.0
291
     1
 43
8.0
  3
Standard
 44
4.0
300

342
11
174
     1
178
     1
175
     1
176
     0
 93
-1056964608
 45
4.0
292
     0
297
     0
 46
4.0
 94
-1056964608
 47
1.0
 49
1.0
140
1.0
293
     1
141
0.0
294
     1
177
     0
142
1.0
295
     0
296
     0
143
3.75
1001
ACAD_MLEADERVER
1070
     2
  0
MLINESTYLE
  5
18
102
{ACAD_REACTORS
330
17
102
}
330
17
100
AcDbMlineStyle
  2
STANDARD
 70
     0
  3

 62
   256
 51
90.0
 52
90.0
 71
     2
 49
0.5
 62
   256
  6
BYLAYER
 49
-0.5
 62
   256
  6
BYLAYER
  0
ACDBPLACEHOLDER
  5
F
102
{ACAD_REACTORS
330
E
102
}
330
E
  0
SCALE
  5
10D
102
{ACAD_REACTORS
330
10C
102
}
330
10C
100
AcDbScale
 70
     0
300
1:1
140
1.0
141
1.0
290
     1
  0
SCALE
  5
188
102
{ACAD_REACTORS
330
10C
102
}
330
10C
100
AcDbScale
 70
     0
300
1:2
140
1.0
141
2.0
290
     0
  0
SCALE
  5
189
102
{ACAD_REACTORS
330
10C
102
}
330
10C
100
AcDbScale
 70
     0
300
1:4
140
1.0
141
4.0
290
     0
  0
SCALE
  5
18A
102
{ACAD_REACTORS
330
10C
102
}
330
10C
100
AcDbScale
 70
     0
300
1:5
140
1.0
141
5.0
290
     0
  0
SCALE
  5
18B
102
{ACAD_REACTORS
330
10C
102
}
330
10C
100
AcDbScale
 70
     0
300
1:8
140
1.0
141
8.0
290
     0
  0
SCALE
  5
18C
102
{ACAD_REACTORS
330
10C
102
}
330
10C
100
AcDbScale
 70
     0
300
1:10
140
1.0
141
10.0
290
     0
  0
SCALE
  5
18D
102
{ACAD_REACTORS
330
10C
102
}
330
10C
100
AcDbScale
 70
     0
300
1:16
140
1.0
141
16.0
290
     0
  0
SCALE
  5
18E
102
{ACAD_REACTORS
330
10C
102
}
330
10C
100
AcDbScale
 70
     0
300
1:20
140
1.0
141
20.0
290
     0
  0
SCALE
  5
18F
102
{ACAD_REACTORS
330
10C
102
}
330
10C
100
AcDbScale
 70
     0
300
1:30
140
1.0
141
30.0
290
     0
  0
SCALE
  5
190
102
{ACAD_REACTORS
330
10C
102
}
330
10C
100
AcDbScale
 70
     0
300
1:40
140
1.0
141
40.0
290
     0
  0
SCALE
  5
191
102
{ACAD_REACTORS
330
10C
102
}
330
10C
100
AcDbScale
 70
     0
300
1:50
140
1.0
141
50.0
290
     0
  0
SCALE
  5
192
102
{ACAD_REACTORS
330
10C
102
}
330
10C
100
AcDbScale
 70
     0
300
1:100
140
1.0
141
100.0
290
     0
  0
SCALE
  5
193
102
{ACAD_REACTORS
330
10C
102
}
330
10C
100
AcDbScale
 70
     0
300
2:1
140
2.0
141
1.0
290
     0
  0
SCALE
  5
194
102
{ACAD_REACTORS
330
10C
102
}
330
10C
100
AcDbScale
 70
     0
300
4:1
140
4.0
141
1.0
290
     0
  0
SCALE
  5
195
102
{ACAD_REACTORS
330
10C
102
}
330
10C
100
AcDbScale
 70
     0
300
8:1
140
8.0
141
1.0
290
     0
  0
SCALE
  5
196
102
{ACAD_REACTORS
330
10C
102
}
330
10C
100
AcDbScale
 70
     0
300
10:1
140
10.0
141
1.0
290
     0
  0
SCALE
  5
197
102
{ACAD_REACTORS
330
10C
102
}
330
10C
100
AcDbScale
 70
     0
300
100:1
140
100.0
141
1.0
290
     0
  0
SCALE
  5
198
102
{ACAD_REACTORS
330
10C
102
}
330
10C
100
AcDbScale
 70
     0
300
1/128" = 1'-0"
140
0.0078125
141
12.0
290
     0
  0
SCALE
  5
199
102
{ACAD_REACTORS
330
10C
102
}
330
10C
100
AcDbScale
 70
     0
300
1/64" = 1'-0"
140
0.015625
141
12.0
290
     0
  0
SCALE
  5
19A
102
{ACAD_REACTORS
330
10C
102
}
330
10C
100
AcDbScale
 70
     0
300
1/32" = 1'-0"
140
0.03125
141
12.0
290
     0
  0
SCALE
  5
19B
102
{ACAD_REACTORS
330
10C
102
}
330
10C
100
AcDbScale
 70
     0
300
1/16" = 1'-0"
140
0.0625
141
12.0
290
     0
  0
SCALE
  5
19C
102
{ACAD_REACTORS
330
10C
102
}
330
10C
100
AcDbScale
 70
     0
300
3/32" = 1'-0"
140
0.09375
141
12.0
290
     0
  0
SCALE
  5
19D
102
{ACAD_REACTORS
330
10C
102
}
330
10C
100
AcDbScale
 70
     0
300
1/8" = 1'-0"
140
0.125
141
12.0
290
     0
  0
SCALE
  5
19E
102
{ACAD_REACTORS
330
10C
102
}
330
10C
100
AcDbScale
 70
     0
300
3/16" = 1'-0"
140
0.1875
141
12.0
290
     0
  0
SCALE
  5
19F
102
{ACAD_REACTORS
330
10C
102
}
330
10C
100
AcDbScale
 70
     0
300
1/4" = 1'-0"
140
0.25
141
12.0
290
     0
  0
SCALE
  5
1A0
102
{ACAD_REACTORS
330
10C
102
}
330
10C
100
AcDbScale
 70
     0
300
3/8" = 1'-0"
140
0.375
141
12.0
290
     0
  0
SCALE
  5
1A1
102
{ACAD_REACTORS
330
10C
102
}
330
10C
100
AcDbScale
 70
     0
300
1/2" = 1'-0"
140
0.5
141
12.0
290
     0
  0
SCALE
  5
1A2
102
{ACAD_REACTORS
330
10C
102
}
330
10C
100
AcDbScale
 70
     0
300
3/4" = 1'-0"
140
0.75
141
12.0
290
     0
  0
SCALE
  5
1A3
102
{ACAD_REACTORS
330
10C
102
}
330
10C
100
AcDbScale
 70
     0
300
1" = 1'-0"
140
1.0
141
12.0
290
     0
  0
SCALE
  5
1A4
102
{ACAD_REACTORS
330
10C
102
}
330
10C
100
AcDbScale
 70
     0
300
1-1/2" = 1'-0"
140
1.5
141
12.0
290
     0
  0
SCALE
  5
1A5
102
{ACAD_REACTORS
330
10C
102
}
330
10C
100
AcDbScale
 70
     0
300
3" = 1'-0"
140
3.0
141
12.0
290
     0
  0
SCALE
  5
1A6
102
{ACAD_REACTORS
330
10C
102
}
330
10C
100
AcDbScale
 70
     0
300
6" = 1'-0"
140
6.0
141
12.0
290
     0
  0
SCALE
  5
1A7
102
{ACAD_REACTORS
330
10C
102
}
330
10C
100
AcDbScale
 70
     0
300
1'-0" = 1'-0"
140
12.0
141
12.0
290
     0
  0
TABLESTYLE
  5
7F
102
{ACAD_XDICTIONARY
360
162
102
}
102
{ACAD_REACTORS
330
7E
102
}
330
7E
100
AcDbTableStyle
  3
Standard
 70
     0
 71
     0
 40
1.5
 41
1.5
280
     0
281
     0
  7
Standard
140
4.5
170
     2
 62
     0
 63
     7
283
     0
274
    -2
284
     1
 64
     0
275
    -2
285
     1
 65
     0
276
    -2
286
     1
 66
     0
277
    -2
287
     1
 67
     0
278
    -2
288
     1
 68
     0
279
    -2
289
     1
 69
     0
  7
Standard
140
6.0
170
     5
 62
     0
 63
     7
283
     0
274
    -2
284
     1
 64
     0
275
    -2
285
     1
 65
     0
276
    -2
286
     1
 66
     0
277
    -2
287
     1
 67
     0
278
    -2
288
     1
 68
     0
279
    -2
289
     1
 69
     0
  7
Standard
140
4.5
170
     5
 62
     0
 63
     7
283
     0
274
    -2
284
     1
 64
     0
275
    -2
285
     1
 65
     0
276
    -2
286
     1
 66
     0
277
    -2
287
     1
 67
     0
278
    -2
288
     1
 68
     0
279
    -2
289
     1
 69
     0
  0
VISUALSTYLE
  5
F5
102
{ACAD_REACTORS
330
EF
102
}
330
EF
100
AcDbVisualStyle
  2
2dWireframe
 70
     4
 71
     0
 72
     2
 73
     1
 90
        0
 40
-0.6
 41
-30.0
 62
     5
 63
     7
 74
     1
 91
        4
 64
     7
 65
   257
 75
     1
175
     1
 42
1.0
 92
        0
 66
   257
 43
1.0
 76
     1
 77
     6
 78
     2
 67
     7
 79
     5
170
     0
171
     0
290
     0
174
     0
 93
        1
 44
0.0
173
     0
291
     0
 45
0.0
1001
ACAD
1000
AcDbSavedByObjectVersion
1070
     0
  0
VISUALSTYLE
  5
F7
102
{ACAD_REACTORS
330
EF
102
}
330
EF
100
AcDbVisualStyle
  2
3D Hidden
 70
     6
 71
     1
 72
     2
 73
     2
 90
        0
 40
-0.6
 41
-30.0
 62
     5
 63
     7
 74
     2
 91
        2
 64
     7
 65
   257
 75
     2
175
     1
 42
40.0
 92
        0
 66
   257
 43
1.0
 76
     1
 77
     6
 78
     2
 67
     7
 79
     3
170
     0
171
     0
290
     0
174
     0
 93
        1
 44
0.0
173
     0
291
     0
 45
0.0
1001
ACAD
1000
AcDbSavedByObjectVersion
1070
     0
  0
VISUALSTYLE
  5
F6
102
{ACAD_REACTORS
330
EF
102
}
330
EF
100
AcDbVisualStyle
  2
3dWireframe
 70
     5
 71
     0
 72
     2
 73
     1
 90
        0
 40
-0.6
 41
-30.0
 62
     5
 63
     7
 74
     1
 91
        4
 64
     7
 65
   257
 75
     1
175
     1
 42
1.0
 92
        0
 66
   257
 43
1.0
 76
     1
 77
     6
 78
     2
 67
     7
 79
     5
170
     0
171
     0
290
     0
174
     0
 93
        1
 44
0.0
173
     0
291
     0
 45
0.0
1001
ACAD
1000
AcDbSavedByObjectVersion
1070
     0
  0
VISUALSTYLE
  5
F4
102
{ACAD_REACTORS
330
EF
102
}
330
EF
100
AcDbVisualStyle
  2
Basic
 70
     7
 71
     1
 72
     0
 73
     1
 90
        0
 40
-0.6
 41
-30.0
 62
     5
 63
     7
 74
     0
 91
        4
 64
     7
 65
   257
 75
     1
175
     1
 42
1.0
 92
        8
 66
     7
 43
1.0
 76
     1
 77
     6
 78
     2
 67
     7
 79
     5
170
     0
171
     0
290
     0
174
     0
 93
        1
 44
0.0
173
     0
291
     1
 45
0.0
1001
ACAD
1000
AcDbSavedByObjectVersion
1070
     0
  0
VISUALSTYLE
  5
FB
102
{ACAD_REACTORS
330
EF
102
}
330
EF
100
AcDbVisualStyle
  2
Brighten
 70
    12
 71
     2
 72
     2
 73
     1
 90
        0
 40
-0.6
 41
-30.0
 62
     5
 63
     7
 74
     1
 91
        4
 64
     7
 65
   257
 75
     1
175
     1
 42
1.0
 92
        8
 66
     7
 43
1.0
 76
     1
 77
     6
 78
     2
 67
     7
 79
     5
170
     0
171
     0
290
     0
174
     0
 93
        1
 44
50.0
173
     0
291
     1
 45
0.0
1001
ACAD
1000
AcDbSavedByObjectVersion
1070
     0
  0
VISUALSTYLE
  5
FF
102
{ACAD_REACTORS
330
EF
102
}
330
EF
100
AcDbVisualStyle
  2
ColorChange
 70
    16
 71
     2
 72
     2
 73
     3
 90
        0
 40
-0.6
 41
-30.0
 62
     5
 63
     8
 74
     1
 91
        4
 64
     7
 65
   257
 75
     1
175
     1
 42
1.0
 92
        8
 66
     8
 43
1.0
 76
     1
 77
     6
 78
     2
 67
     7
 79
     5
170
     0
171
     0
290
     0
174
     0
 93
        1
 44
0.0
173
     0
291
     1
 45
0.0
1001
ACAD
1000
AcDbSavedByObjectVersion
1070
     0
  0
VISUALSTYLE
  5
F8
102
{ACAD_REACTORS
330
EF
102
}
330
EF
100
AcDbVisualStyle
  2
Conceptual
 70
     9
 71
     3
 72
     2
 73
     1
 90
        0
 40
-0.6
 41
-30.0
 62
     5
 63
     7
 74
     2
 91
        2
 64
     7
 65
   257
 75
     1
175
     1
 42
40.0
 92
        8
 66
     7
 43
1.0
 76
     1
 77
     6
 78
     2
 67
     7
 79
     3
170
     0
171
     0
290
     0
174
     0
 93
        1
 44
0.0
173
     0
291
     0
 45
0.0
1001
ACAD
1000
AcDbSavedByObjectVersion
1070
     0
  0
VISUALSTYLE
  5
FA
102
{ACAD_REACTORS
330
EF
102
}
330
EF
100
AcDbVisualStyle
  2
Dim
 70
    11
 71
     2
 72
     2
 73
     1
 90
        0
 40
-0.6
 41
-30.0
 62
     5
 63
     7
 74
     1
 91
        4
 64
     7
 65
   257
 75
     1
175
     1
 42
1.0
 92
        8
 66
     7
 43
1.0
 76
     1
 77
     6
 78
     2
 67
     7
 79
     5
170
     0
171
     0
290
     0
174
     0
 93
        1
 44
-50.0
173
     0
291
     1
 45
0.0
1001
ACAD
1000
AcDbSavedByObjectVersion
1070
     0
  0
VISUALSTYLE
  5
FE
102
{ACAD_REACTORS
330
EF
102
}
330
EF
100
AcDbVisualStyle
  2
Facepattern
 70
    15
 71
     2
 72
     2
 73
     1
 90
        0
 40
-0.6
 41
-30.0
 62
     5
 63
     7
 74
     1
 91
        4
 64
     7
 65
   257
 75
     1
175
     1
 42
1.0
 92
        8
 66
     7
 43
1.0
 76
     1
 77
     6
 78
     2
 67
     7
 79
     5
170
     0
171
     0
290
     0
174
     0
 93
        1
 44
0.0
173
     0
291
     1
 45
0.0
1001
ACAD
1000
AcDbSavedByObjectVersion
1070
     0
  0
VISUALSTYLE
  5
F0
102
{ACAD_REACTORS
330
EF
102
}
330
EF
100
AcDbVisualStyle
  2
Flat
 70
     0
 71
     2
 72
     1
 73
     1
 90
        2
 40
-0.6
 41
30.0
 62
     5
 63
     7
 74
     0
 91
        4
 64
     7
 65
   257
 75
     1
175
     1
 42
1.0
 92
        8
 66
     7
 43
1.0
 76
     1
 77
     6
 78
     2
 67
     7
 79
     5
170
     0
171
     0
290
     0
174
     0
 93
        1
 44
0.0
173
     0
291
     1
 45
0.0
1001
ACAD
1000
AcDbSavedByObjectVersion
1070
     0
  0
VISUALSTYLE
  5
F1
102
{ACAD_REACTORS
330
EF
102
}
330
EF
100
AcDbVisualStyle
  2
FlatWithEdges
 70
     1
 71
     2
 72
     1
 73
     1
 90
        2
 40
-0.6
 41
30.0
 62
     5
 63
     7
 74
     1
 91
        4
 64
     7
 65
   257
 75
     1
175
     1
 42
1.0
 92
        0
 66
   257
 43
1.0
 76
     1
 77
     6
 78
     2
 67
     7
 79
     5
170
     0
171
     0
290
     0
174
     0
 93
        1
 44
0.0
173
     0
291
     1
 45
0.0
1001
ACAD
1000
AcDbSavedByObjectVersion
1070
     0
  0
VISUALSTYLE
  5
F2
102
{ACAD_REACTORS
330
EF
102
}
330
EF
100
AcDbVisualStyle
  2
Gouraud
 70
     2
 71
     2
 72
     2
 73
     1
 90
        2
 40
-0.6
 41
30.0
 62
     5
 63
     7
 74
     0
 91
        4
 64
     7
 65
   257
 75
     1
175
     1
 42
1.0
 92
        0
 66
     7
 43
1.0
 76
     1
 77
     6
 78
     2
 67
     7
 79
     5
170
     0
171
     0
290
     0
174
     0
 93
        1
 44
0.0
173
     0
291
     1
 45
0.0
1001
ACAD
1000
AcDbSavedByObjectVersion
1070
     0
  0
VISUALSTYLE
  5
F3
102
{ACAD_REACTORS
330
EF
102
}
330
EF
100
AcDbVisualStyle
  2
GouraudWithEdges
 70
     3
 71
     2
 72
     2
 73
     1
 90
        2
 40
-0.6
 41
30.0
 62
     5
 63
     7
 74
     1
 91
        4
 64
     7
 65
   257
 75
     1
175
     1
 42
1.0
 92
        0
 66
   257
 43
1.0
 76
     1
 77
     6
 78
     2
 67
     7
 79
     5
170
     0
171
     0
290
     0
174
     0
 93
        1
 44
0.0
173
     0
291
     1
 45
0.0
1001
ACAD
1000
AcDbSavedByObjectVersion
1070
     0
  0
VISUALSTYLE
  5
FD
102
{ACAD_REACTORS
330
EF
102
}
330
EF
100
AcDbVisualStyle
  2
Linepattern
 70
    14
 71
     2
 72
     2
 73
     1
 90
        0
 40
-0.6
 41
-30.0
 62
     5
 63
     7
 74
     1
 91
        4
 64
     7
 65
   257
 75
     7
175
     7
 42
1.0
 92
        8
 66
     7
 43
1.0
 76
     1
 77
     6
 78
     2
 67
     7
 79
     5
170
     0
171
     0
290
     0
174
     0
 93
        1
 44
0.0
173
     0
291
     1
 45
0.0
1001
ACAD
1000
AcDbSavedByObjectVersion
1070
     0
  0
VISUALSTYLE
  5
F9
102
{ACAD_REACTORS
330
EF
102
}
330
EF
100
AcDbVisualStyle
  2
Realistic
 70
     8
 71
     2
 72
     2
 73
     1
 90
        0
 40
-0.6
 41
-30.0
 62
     5
 63
     7
 74
     1
 91
        0
 64
     7
 65
   257
 75
     1
175
     1
 42
1.0
 92
        8
 66
     8
 43
1.0
 76
     1
 77
     6
 78
     2
 67
     7
 79
     5
170
     0
171
     0
290
     0
174
     0
 93
       13
 44
0.0
173
     0
291
     0
 45
0.0
1001
ACAD
1000
AcDbSavedByObjectVersion
1070
     0
  0
VISUALSTYLE
  5
FC
102
{ACAD_REACTORS
330
EF
102
}
330
EF
100
AcDbVisualStyle
  2
Thicken
 70
    13
 71
     2
 72
     2
 73
     1
 90
        0
 40
-0.6
 41
-30.0
 62
     5
 63
     7
 74
     1
 91
        4
 64
     7
 65
   257
 75
     1
175
     1
 42
1.0
 92
       12
 66
     7
 43
1.0
 76
     1
 77
     6
 78
     2
 67
     7
 79
     5
170
     0
171
     0
290
     0
174
     0
 93
        1
 44
0.0
173
     0
291
     1
 45
0.0
1001
ACAD
1000
AcDbSavedByObjectVersion
1070
     0
  0
DICTIONARYVAR
  5
146
102
{ACAD_REACTORS
330
5E
102
}
330
5E
100
DictionaryVariables
280
     0
  1
1:1
  0
DICTIONARYVAR
  5
145
102
{ACAD_REACTORS
330
5E
102
}
330
5E
100
DictionaryVariables
280
     0
  1
STANDARD
  0
DICTIONARYVAR
  5
84
102
{ACAD_REACTORS
330
5E
102
}
330
5E
100
DictionaryVariables
280
     0
  1
STANDARD
  0
DICTIONARYVAR
  5
5F
102
{ACAD_REACTORS
330
5E
102
}
330
5E
100
DictionaryVariables
280
     0
  1
2
  0
DICTIONARYVAR
  5
63
102
{ACAD_REACTORS
330
5E
102
}
330
5E
100
DictionaryVariables
280
     0
  1
1
  0
DICTIONARYVAR
  5
34C
102
{ACAD_REACTORS
330
5E
102
}
330
5E
100
DictionaryVariables
280
     0
  1
0
  0
DICTIONARYVAR
  5
34A
102
{ACAD_REACTORS
330
5E
102
}
330
5E
100
DictionaryVariables
280
     0
  1
2
  0
DICTIONARYVAR
  5
349
102
{ACAD_REACTORS
330
5E
102
}
330
5E
100
DictionaryVariables
280
     0
  1
1
  0
DICTIONARYVAR
  5
34E
102
{ACAD_REACTORS
330
5E
102
}
330
5E
100
DictionaryVariables
280
     0
  1
80.000000
  0
DICTIONARYVAR
  5
34D
102
{ACAD_REACTORS
330
5E
102
}
330
5E
100
DictionaryVariables
280
     0
  1
5.000000
  0
DICTIONARYVAR
  5
34B
102
{ACAD_REACTORS
330
5E
102
}
330
5E
100
DictionaryVariables
280
     0
  1
127
  0
DICTIONARY
  5
354
330
D3
100
AcDbDictionary
280
     1
281
     1
  3
ACAD_XREC_ROUNDTRIP
360
355
  0
DICTIONARY
  5
356
330
D7
100
AcDbDictionary
280
     1
281
     1
  3
ACAD_XREC_ROUNDTRIP
360
357
  0
DICTIONARY
  5
351
330
22
100
AcDbDictionary
280
     1
281
     1
  3
ACAD_XREC_ROUNDTRIP
360
352
  0
DICTIONARY
  5
35A
330
ED
100
AcDbDictionary
280
     1
281
     1
  3
ACAD_XREC_ROUNDTRIP
360
35B
  0
DICTIONARY
  5
358
330
EC
100
AcDbDictionary
280
     1
281
     1
  3
ACAD_XREC_ROUNDTRIP
360
359
  0
DICTIONARY
  5
173
330
EE
100
AcDbDictionary
280
     1
281
     1
  3
ACAD_XREC_ROUNDTRIP
360
35C
  3
BUMPTILE
360
175
  3
DIFFUSETILE
360
174
  3
OPACITYTILE
360
176
  3
REFLECTIONTILE
360
177
  0
DICTIONARY
  5
162
330
7F
100
AcDbDictionary
280
     1
281
     1
  3
ACAD_ROUNDTRIP_2008_TABLESTYLE_CELLSTYLEMAP
360
34F
  3
ACAD_XREC_ROUNDTRIP
360
353
  0
XRECORD
  5
355
102
{ACAD_REACTORS
330
354
102
}
330
354
100
AcDbXrecord
280
     1
102
SHADEPLOT
 70
     0
102
SHADEPLOTRESLEVEL
 70
     2
102
SHADEPLOTCUSTOMDPI
 70
   300
  0
XRECORD
  5
357
102
{ACAD_REACTORS
330
356
102
}
330
356
100
AcDbXrecord
280
     1
102
SHADEPLOT
 70
     0
102
SHADEPLOTRESLEVEL
 70
     2
102
SHADEPLOTCUSTOMDPI
 70
   300
  0
XRECORD
  5
352
102
{ACAD_REACTORS
330
351
102
}
330
351
100
AcDbXrecord
280
     1
102
SHADEPLOT
 70
     0
102
SHADEPLOTRESLEVEL
 70
     2
102
SHADEPLOTCUSTOMDPI
 70
   300
  0
XRECORD
  5
35B
102
{ACAD_REACTORS
330
35A
102
}
330
35A
100
AcDbXrecord
280
     1
102
MATERIAL
148
0.0
149
0.0
149
0.0
 93
        0
 94
       63
282
     0
 72
     1
 77
     1
171
     1
175
     1
179
     1
273
     0
  0
XRECORD
  5
359
102
{ACAD_REACTORS
330
358
102
}
330
358
100
AcDbXrecord
280
     1
102
MATERIAL
148
0.0
149
0.0
149
0.0
 93
        0
 94
       63
282
     0
 72
     1
 77
     1
171
     1
175
     1
179
     1
273
     0
  0
XRECORD
  5
35C
102
{ACAD_REACTORS
330
173
102
}
330
173
100
AcDbXrecord
280
     1
102
MATERIAL
148
0.0
149
0.0
149
0.0
 93
        0
 94
       63
282
     0
 72
     1
 77
     1
171
     1
175
     1
179
     1
273
     0
  0
XRECORD
  5
175
102
{ACAD_REACTORS
330
173
102
}
330
173
100
AcDbXrecord
280
     1
270
     1
271
     1
  0
XRECORD
  5
174
102
{ACAD_REACTORS
330
173
102
}
330
173
100
AcDbXrecord
280
     1
270
     1
271
     1
  0
XRECORD
  5
176
102
{ACAD_REACTORS
330
173
102
}
330
173
100
AcDbXrecord
280
     1
270
     1
271
     1
  0
XRECORD
  5
177
102
{ACAD_REACTORS
330
173
102
}
330
173
100
AcDbXrecord
280
     1
270
     1
271
     1
  0
CELLSTYLEMAP
  5
34F
102
{ACAD_REACTORS
330
162
102
}
330
162
100
AcDbCellStyleMap
 90
        3
300
CELLSTYLE
  1
TABLEFORMAT_BEGIN
 90
        5
170
     1
 91
        0
 92
    32768
 62
   257
 93
        1
300
CONTENTFORMAT
  1
CONTENTFORMAT_BEGIN
 90
        0
 91
        0
 92
      512
 93
        0
300

 40
0.0
140
1.0
 94
        5
 62
     0
340
11
144
6.0
309
CONTENTFORMAT_END
171
     1
301
MARGIN
  1
CELLMARGIN_BEGIN
 40
1.5
 40
1.5
 40
1.5
 40
1.5
 40
4.5
 40
4.5
309
CELLMARGIN_END
 94
        6
 95
        1
302
GRIDFORMAT
  1
GRIDFORMAT_BEGIN
 90
        0
 91
        1
 62
     0
 92
       -2
340
14
 93
        0
 40
1.125
309
GRIDFORMAT_END
 95
        2
302
GRIDFORMAT
  1
GRIDFORMAT_BEGIN
 90
        0
 91
        1
 62
     0
 92
       -2
340
14
 93
        0
 40
1.125
309
GRIDFORMAT_END
 95
        4
302
GRIDFORMAT
  1
GRIDFORMAT_BEGIN
 90
        0
 91
        1
 62
     0
 92
       -2
340
14
 93
        0
 40
1.125
309
GRIDFORMAT_END
 95
        8
302
GRIDFORMAT
  1
GRIDFORMAT_BEGIN
 90
        0
 91
        1
 62
     0
 92
       -2
340
14
 93
        0
 40
1.125
309
GRIDFORMAT_END
 95
       16
302
GRIDFORMAT
  1
GRIDFORMAT_BEGIN
 90
        0
 91
        1
 62
     0
 92
       -2
340
14
 93
        0
 40
1.125
309
GRIDFORMAT_END
 95
       32
302
GRIDFORMAT
  1
GRIDFORMAT_BEGIN
 90
        0
 91
        1
 62
     0
 92
       -2
340
14
 93
        0
 40
1.125
309
GRIDFORMAT_END
309
TABLEFORMAT_END
  1
CELLSTYLE_BEGIN
 90
        1
 91
        1
300
_TITLE
309
CELLSTYLE_END
300
CELLSTYLE
  1
TABLEFORMAT_BEGIN
 90
        5
170
     1
 91
        0
 92
        0
 62
   257
 93
        1
300
CONTENTFORMAT
  1
CONTENTFORMAT_BEGIN
 90
        0
 91
        0
 92
      512
 93
        0
300

 40
0.0
140
1.0
 94
        5
 62
     0
340
11
144
4.5
309
CONTENTFORMAT_END
171
     1
301
MARGIN
  1
CELLMARGIN_BEGIN
 40
1.5
 40
1.5
 40
1.5
 40
1.5
 40
4.5
 40
4.5
309
CELLMARGIN_END
 94
        6
 95
        1
302
GRIDFORMAT
  1
GRIDFORMAT_BEGIN
 90
        0
 91
        1
 62
     0
 92
       -2
340
14
 93
        0
 40
1.125
309
GRIDFORMAT_END
 95
        2
302
GRIDFORMAT
  1
GRIDFORMAT_BEGIN
 90
        0
 91
        1
 62
     0
 92
       -2
340
14
 93
        0
 40
1.125
309
GRIDFORMAT_END
 95
        4
302
GRIDFORMAT
  1
GRIDFORMAT_BEGIN
 90
        0
 91
        1
 62
     0
 92
       -2
340
14
 93
        0
 40
1.125
309
GRIDFORMAT_END
 95
        8
302
GRIDFORMAT
  1
GRIDFORMAT_BEGIN
 90
        0
 91
        1
 62
     0
 92
       -2
340
14
 93
        0
 40
1.125
309
GRIDFORMAT_END
 95
       16
302
GRIDFORMAT
  1
GRIDFORMAT_BEGIN
 90
        0
 91
        1
 62
     0
 92
       -2
340
14
 93
        0
 40
1.125
309
GRIDFORMAT_END
 95
       32
302
GRIDFORMAT
  1
GRIDFORMAT_BEGIN
 90
        0
 91
        1
 62
     0
 92
       -2
340
14
 93
        0
 40
1.125
309
GRIDFORMAT_END
309
TABLEFORMAT_END
  1
CELLSTYLE_BEGIN
 90
        2
 91
        1
300
_HEADER
309
CELLSTYLE_END
300
CELLSTYLE
  1
TABLEFORMAT_BEGIN
 90
        5
170
     1
 91
        0
 92
        0
 62
   257
 93
        1
300
CONTENTFORMAT
  1
CONTENTFORMAT_BEGIN
 90
        0
 91
        0
 92
      512
 93
        0
300

 40
0.0
140
1.0
 94
        2
 62
     0
340
11
144
4.5
309
CONTENTFORMAT_END
171
     1
301
MARGIN
  1
CELLMARGIN_BEGIN
 40
1.5
 40
1.5
 40
1.5
 40
1.5
 40
4.5
 40
4.5
309
CELLMARGIN_END
 94
        6
 95
        1
302
GRIDFORMAT
  1
GRIDFORMAT_BEGIN
 90
        0
 91
        1
 62
     0
 92
       -2
340
14
 93
        0
 40
1.125
309
GRIDFORMAT_END
 95
        2
302
GRIDFORMAT
  1
GRIDFORMAT_BEGIN
 90
        0
 91
        1
 62
     0
 92
       -2
340
14
 93
        0
 40
1.125
309
GRIDFORMAT_END
 95
        4
302
GRIDFORMAT
  1
GRIDFORMAT_BEGIN
 90
        0
 91
        1
 62
     0
 92
       -2
340
14
 93
        0
 40
1.125
309
GRIDFORMAT_END
 95
        8
302
GRIDFORMAT
  1
GRIDFORMAT_BEGIN
 90
        0
 91
        1
 62
     0
 92
       -2
340
14
 93
        0
 40
1.125
309
GRIDFORMAT_END
 95
       16
302
GRIDFORMAT
  1
GRIDFORMAT_BEGIN
 90
        0
 91
        1
 62
     0
 92
       -2
340
14
 93
        0
 40
1.125
309
GRIDFORMAT_END
 95
       32
302
GRIDFORMAT
  1
GRIDFORMAT_BEGIN
 90
        0
 91
        1
 62
     0
 92
       -2
340
14
 93
        0
 40
1.125
309
GRIDFORMAT_END
309
TABLEFORMAT_END
  1
CELLSTYLE_BEGIN
 90
        3
 91
        2
300
_DATA
309
CELLSTYLE_END
  0
XRECORD
  5
353
102
{ACAD_REACTORS
330
162
102
}
330
162
100
AcDbXrecord
280
     1
102
ACAD_ROUNDTRIP_PRE2007_TABLESTYLE
 90
      512
 91
        0
  1

 92
      512
 93
        0
  2

 94
      512
 95
        0
  3

  0
ENDSEC
  0
EOF
