  0
SECTION
  2
HEADER
  9
$ACADVER
  1
AC1015
  9
$ACADMAINTVER
 70
    20
  9
$DWGCODEPAGE
  3
ANSI_1254
  9
$INSBASE
 10
0.0
 20
0.0
 30
0.0
  9
$EXTMIN
 10
2053.515267432491
 20
1199.599729150873
 30
0.0
  9
$EXTMAX
 10
2140.391075686174
 20
1252.344643869662
 30
0.0
  9
$LIMMIN
 10
0.0
 20
0.0
  9
$LIMMAX
 10
420.0
 20
297.0
  9
$ORTHOMODE
 70
     1
  9
$REGENMODE
 70
     1
  9
$FILLMODE
 70
     1
  9
$QTEXTMODE
 70
     0
  9
$MIRRTEXT
 70
     0
  9
$LTSCALE
 40
1.0
  9
$ATTMODE
 70
     1
  9
$TEXTSIZE
 40
2.5
  9
$TRACEWID
 40
1.0
  9
$TEXTSTYLE
  7
Standard
  9
$CLAYER
  8
0
  9
$CELTYPE
  6
ByLayer
  9
$CECOLOR
 62
   256
  9
$CELTSCALE
 40
1.0
  9
$DISPSILH
 70
     0
  9
$DIMSCALE
 40
1.0
  9
$DIMASZ
 40
2.5
  9
$DIMEXO
 40
0.625
  9
$DIMDLI
 40
3.75
  9
$DIMRND
 40
0.0
  9
$DIMDLE
 40
0.0
  9
$DIMEXE
 40
1.25
  9
$DIMTP
 40
0.0
  9
$DIMTM
 40
0.0
  9
$DIMTXT
 40
2.5
  9
$DIMCEN
 40
2.5
  9
$DIMTSZ
 40
0.0
  9
$DIMTOL
 70
     0
  9
$DIMLIM
 70
     0
  9
$DIMTIH
 70
     0
  9
$DIMTOH
 70
     0
  9
$DIMSE1
 70
     0
  9
$DIMSE2
 70
     0
  9
$DIMTAD
 70
     1
  9
$DIMZIN
 70
     8
  9
$DIMBLK
  1

  9
$DIMASO
 70
     1
  9
$DIMSHO
 70
     1
  9
$DIMPOST
  1

  9
$DIMAPOST
  1

  9
$DIMALT
 70
     0
  9
$DIMALTD
 70
     3
  9
$DIMALTF
 40
0.03937007874016
  9
$DIMLFAC
 40
1.0
  9
$DIMTOFL
 70
     1
  9
$DIMTVP
 40
0.0
  9
$DIMTIX
 70
     0
  9
$DIMSOXD
 70
     0
  9
$DIMSAH
 70
     0
  9
$DIMBLK1
  1

  9
$DIMBLK2
  1

  9
$DIMSTYLE
  2
ISO-25
  9
$DIMCLRD
 70
     0
  9
$DIMCLRE
 70
     0
  9
$DIMCLRT
 70
     0
  9
$DIMTFAC
 40
1.0
  9
$DIMGAP
 40
0.625
  9
$DIMJUST
 70
     0
  9
$DIMSD1
 70
     0
  9
$DIMSD2
 70
     0
  9
$DIMTOLJ
 70
     0
  9
$DIMTZIN
 70
     8
  9
$DIMALTZ
 70
     0
  9
$DIMALTTZ
 70
     0
  9
$DIMUPT
 70
     0
  9
$DIMDEC
 70
     2
  9
$DIMTDEC
 70
     2
  9
$DIMALTU
 70
     2
  9
$DIMALTTD
 70
     3
  9
$DIMTXSTY
  7
Standard
  9
$DIMAUNIT
 70
     0
  9
$DIMADEC
 70
     0
  9
$DIMALTRND
 40
0.0
  9
$DIMAZIN
 70
     0
  9
$DIMDSEP
 70
    44
  9
$DIMATFIT
 70
     3
  9
$DIMFRAC
 70
     0
  9
$DIMLDRBLK
  1

  9
$DIMLUNIT
 70
     2
  9
$DIMLWD
 70
    -2
  9
$DIMLWE
 70
    -2
  9
$DIMTMOVE
 70
     0
  9
$LUNITS
 70
     2
  9
$LUPREC
 70
     4
  9
$SKETCHINC
 40
1.0
  9
$FILLETRAD
 40
0.0
  9
$AUNITS
 70
     0
  9
$AUPREC
 70
     0
  9
$MENU
  1
.
  9
$ELEVATION
 40
0.0
  9
$PELEVATION
 40
0.0
  9
$THICKNESS
 40
0.0
  9
$LIMCHECK
 70
     0
  9
$CHAMFERA
 40
0.0
  9
$CHAMFERB
 40
0.0
  9
$CHAMFERC
 40
0.0
  9
$CHAMFERD
 40
0.0
  9
$SKPOLY
 70
     0
  9
$TDCREATE
 40
2458557.406692789
  9
$TDUCREATE
 40
2458557.281692790
  9
$TDUPDATE
 40
2459067.654825718
  9
$TDUUPDATE
 40
2459067.529825718
  9
$TDINDWG
 40
0.0012656713
  9
$TDUSRTIMER
 40
0.0012656713
  9
$USRTIMER
 70
     1
  9
$ANGBASE
 50
0.0
  9
$ANGDIR
 70
     0
  9
$PDMODE
 70
     0
  9
$PDSIZE
 40
0.0
  9
$PLINEWID
 40
0.0
  9
$SPLFRAME
 70
     0
  9
$SPLINETYPE
 70
     6
  9
$SPLINESEGS
 70
     8
  9
$HANDSEED
  5
3B6
  9
$SURFTAB1
 70
     6
  9
$SURFTAB2
 70
     6
  9
$SURFTYPE
 70
     6
  9
$SURFU
 70
     6
  9
$SURFV
 70
     6
  9
$UCSBASE
  2

  9
$UCSNAME
  2

  9
$UCSORG
 10
0.0
 20
0.0
 30
0.0
  9
$UCSXDIR
 10
1.0
 20
0.0
 30
0.0
  9
$UCSYDIR
 10
0.0
 20
1.0
 30
0.0
  9
$UCSORTHOREF
  2

  9
$UCSORTHOVIEW
 70
     0
  9
$UCSORGTOP
 10
0.0
 20
0.0
 30
0.0
  9
$UCSORGBOTTOM
 10
0.0
 20
0.0
 30
0.0
  9
$UCSORGLEFT
 10
0.0
 20
0.0
 30
0.0
  9
$UCSORGRIGHT
 10
0.0
 20
0.0
 30
0.0
  9
$UCSORGFRONT
 10
0.0
 20
0.0
 30
0.0
  9
$UCSORGBACK
 10
0.0
 20
0.0
 30
0.0
  9
$PUCSBASE
  2

  9
$PUCSNAME
  2

  9
$PUCSORG
 10
0.0
 20
0.0
 30
0.0
  9
$PUCSXDIR
 10
1.0
 20
0.0
 30
0.0
  9
$PUCSYDIR
 10
0.0
 20
1.0
 30
0.0
  9
$PUCSORTHOREF
  2

  9
$PUCSORTHOVIEW
 70
     0
  9
$PUCSORGTOP
 10
0.0
 20
0.0
 30
0.0
  9
$PUCSORGBOTTOM
 10
0.0
 20
0.0
 30
0.0
  9
$PUCSORGLEFT
 10
0.0
 20
0.0
 30
0.0
  9
$PUCSORGRIGHT
 10
0.0
 20
0.0
 30
0.0
  9
$PUCSORGFRONT
 10
0.0
 20
0.0
 30
0.0
  9
$PUCSORGBACK
 10
0.0
 20
0.0
 30
0.0
  9
$USERI1
 70
     0
  9
$USERI2
 70
     0
  9
$USERI3
 70
     0
  9
$USERI4
 70
     0
  9
$USERI5
 70
     0
  9
$USERR1
 40
0.0
  9
$USERR2
 40
0.0
  9
$USERR3
 40
0.0
  9
$USERR4
 40
0.0
  9
$USERR5
 40
0.0
  9
$WORLDVIEW
 70
     1
  9
$SHADEDGE
 70
     3
  9
$SHADEDIF
 70
    70
  9
$TILEMODE
 70
     1
  9
$MAXACTVP
 70
    64
  9
$PINSBASE
 10
0.0
 20
0.0
 30
0.0
  9
$PLIMCHECK
 70
     0
  9
$PEXTMIN
 10
0.0
 20
0.0
 30
0.0
  9
$PEXTMAX
 10
0.0
 20
0.0
 30
0.0
  9
$PLIMMIN
 10
0.0
 20
0.0
  9
$PLIMMAX
 10
12.0
 20
9.0
  9
$UNITMODE
 70
     0
  9
$VISRETAIN
 70
     1
  9
$PLINEGEN
 70
     0
  9
$PSLTSCALE
 70
     1
  9
$TREEDEPTH
 70
  3020
  9
$CMLSTYLE
  2
Standard
  9
$CMLJUST
 70
     0
  9
$CMLSCALE
 40
20.0
  9
$PROXYGRAPHICS
 70
     1
  9
$MEASUREMENT
 70
     1
  9
$CELWEIGHT
370
    -1
  9
$ENDCAPS
280
     0
  9
$JOINSTYLE
280
     0
  9
$LWDISPLAY
290
     0
  9
$INSUNITS
 70
     4
  9
$HYPERLINKBASE
  1

  9
$STYLESHEET
  1

  9
$XEDIT
290
     1
  9
$CEPSNTYPE
380
     0
  9
$PSTYLEMODE
290
     1
  9
$FINGERPRINTGUID
  2
{C597CF20-63FE-4934-96B1-BD9B48DD3FDD}
  9
$VERSIONGUID
  2
{1CFA8757-4AD6-4BC1-964F-5CDB9A933737}
  9
$EXTNAMES
290
     1
  9
$PSVPSCALE
 40
0.0
  9
$OLESTARTUP
290
     0
  0
ENDSEC
  0
SECTION
  2
CLASSES
  0
CLASS
  1
ACDBDICTIONARYWDFLT
  2
AcDbDictionaryWithDefault
  3
ObjectDBX Classes
 90
        0
280
     0
281
     0
  0
CLASS
  1
ACDBPLACEHOLDER
  2
AcDbPlaceHolder
  3
ObjectDBX Classes
 90
        0
280
     0
281
     0
  0
CLASS
  1
LAYOUT
  2
AcDbLayout
  3
ObjectDBX Classes
 90
        0
280
     0
281
     0
  0
CLASS
  1
DICTIONARYVAR
  2
AcDbDictionaryVar
  3
ObjectDBX Classes
 90
        0
280
     0
281
     0
  0
CLASS
  1
TABLESTYLE
  2
AcDbTableStyle
  3
ObjectDBX Classes
 90
     4095
280
     0
281
     0
  0
CLASS
  1
MATERIAL
  2
AcDbMaterial
  3
ObjectDBX Classes
 90
     1153
280
     0
281
     0
  0
CLASS
  1
VISUALSTYLE
  2
AcDbVisualStyle
  3
ObjectDBX Classes
 90
     4095
280
     0
281
     0
  0
CLASS
  1
SCALE
  2
AcDbScale
  3
ObjectDBX Classes
 90
     1153
280
     0
281
     0
  0
CLASS
  1
MLEADERSTYLE
  2
AcDbMLeaderStyle
  3
ACDB_MLEADERSTYLE_CLASS
 90
     4095
280
     0
281
     0
  0
CLASS
  1
CELLSTYLEMAP
  2
AcDbCellStyleMap
  3
ObjectDBX Classes
 90
     1152
280
     0
281
     0
  0
CLASS
  1
ACAD_EVALUATION_GRAPH
  2
AcDbEvalGraph
  3
ObjectDBX Classes
 90
    33921
280
     0
281
     0
  0
CLASS
  1
ACAECUSTOBJ
  2
AcAeEditorObj
  3
AcAeEditorObj
 90
    33792
280
     0
281
     0
  0
CLASS
  1
ACDB_DYNAMICBLOCKPURGEPREVENTER_VERSION
  2
AcDbDynamicBlockPurgePreventer
  3
ObjectDBX Classes
 90
    33921
280
     0
281
     0
  0
ENDSEC
  0
SECTION
  2
TABLES
  0
TABLE
  2
VPORT
  5
8
330
0
100
AcDbSymbolTable
 70
     1
  0
VPORT
  5
EA
330
8
100
AcDbSymbolTableRecord
100
AcDbViewportTableRecord
  2
*Active
 70
     0
 10
0.0
 20
0.0
 11
1.0
 21
1.0
 12
2080.858455395082
 22
1253.239187456554
 13
0.0
 23
0.0
 14
10.0
 24
10.0
 15
10.0
 25
10.0
 16
0.0
 26
0.0
 36
1.0
 17
0.0
 27
0.0
 37
0.0
 40
151.7065656935873
 41
1.903110047846889
 42
50.0
 43
0.0
 44
0.0
 50
0.0
 51
0.0
 71
     0
 72
  1000
 73
     1
 74
     3
 75
     0
 76
     0
 77
     0
 78
     0
281
     0
 65
     1
110
0.0
120
0.0
130
0.0
111
1.0
121
0.0
131
0.0
112
0.0
122
1.0
132
0.0
 79
     0
146
0.0
  0
ENDTAB
  0
TABLE
  2
LTYPE
  5
5
330
0
100
AcDbSymbolTable
 70
     1
  0
LTYPE
  5
14
330
5
100
AcDbSymbolTableRecord
100
AcDbLinetypeTableRecord
  2
ByBlock
 70
     0
  3

 72
    65
 73
     0
 40
0.0
  0
LTYPE
  5
15
330
5
100
AcDbSymbolTableRecord
100
AcDbLinetypeTableRecord
  2
ByLayer
 70
     0
  3

 72
    65
 73
     0
 40
0.0
  0
LTYPE
  5
16
330
5
100
AcDbSymbolTableRecord
100
AcDbLinetypeTableRecord
  2
Continuous
 70
     0
  3
Solid line
 72
    65
 73
     0
 40
0.0
  0
ENDTAB
  0
TABLE
  2
LAYER
  5
2
330
0
100
AcDbSymbolTable
 70
     1
  0
LAYER
  5
10
102
{ACAD_XDICTIONARY
360
13C
102
}
330
2
100
AcDbSymbolTableRecord
100
AcDbLayerTableRecord
  2
0
 70
     0
 62
     7
  6
Continuous
370
    -3
390
F
  0
ENDTAB
  0
TABLE
  2
STYLE
  5
3
330
0
100
AcDbSymbolTable
 70
     2
  0
STYLE
  5
11
330
3
100
AcDbSymbolTableRecord
100
AcDbTextStyleTableRecord
  2
Standard
 70
     0
 40
0.0
 41
1.0
 50
0.0
 71
     0
 42
2.5
  3
txt
  4

  0
STYLE
  5
132
330
3
100
AcDbSymbolTableRecord
100
AcDbTextStyleTableRecord
  2
Annotative
 70
     0
 40
0.0
 41
1.0
 50
0.0
 71
     0
 42
2.5
  3
txt.shx
  4

1001
AcadAnnotative
1000
AnnotativeData
1002
{
1070
     1
1070
     1
1002
}
  0
ENDTAB
  0
TABLE
  2
VIEW
  5
6
330
0
100
AcDbSymbolTable
 70
     0
  0
ENDTAB
  0
TABLE
  2
UCS
  5
7
330
0
100
AcDbSymbolTable
 70
     0
  0
ENDTAB
  0
TABLE
  2
APPID
  5
9
330
0
100
AcDbSymbolTable
 70
    11
  0
APPID
  5
12
330
9
100
AcDbSymbolTableRecord
100
AcDbRegAppTableRecord
  2
ACAD
 70
     0
  0
APPID
  5
9E
330
9
100
AcDbSymbolTableRecord
100
AcDbRegAppTableRecord
  2
ACAD_PSEXT
 70
     0
  0
APPID
  5
133
330
9
100
AcDbSymbolTableRecord
100
AcDbRegAppTableRecord
  2
AcadAnnoPO
 70
     0
  0
APPID
  5
134
330
9
100
AcDbSymbolTableRecord
100
AcDbRegAppTableRecord
  2
AcadAnnotative
 70
     0
  0
APPID
  5
135
330
9
100
AcDbSymbolTableRecord
100
AcDbRegAppTableRecord
  2
ACAD_DSTYLE_DIMJAG
 70
     0
  0
APPID
  5
136
330
9
100
AcDbSymbolTableRecord
100
AcDbRegAppTableRecord
  2
ACAD_DSTYLE_DIMTALN
 70
     0
  0
APPID
  5
165
330
9
100
AcDbSymbolTableRecord
100
AcDbRegAppTableRecord
  2
ACAD_MLEADERVER
 70
     0
  0
APPID
  5
376
330
9
100
AcDbSymbolTableRecord
100
AcDbRegAppTableRecord
  2
ACAUTHENVIRON
 70
     0
  0
APPID
  5
37A
330
9
100
AcDbSymbolTableRecord
100
AcDbRegAppTableRecord
  2
AcDbDynamicBlockTrueName
 70
     0
  0
APPID
  5
37B
330
9
100
AcDbSymbolTableRecord
100
AcDbRegAppTableRecord
  2
AcDbDynamicBlockGUID
 70
     0
  0
APPID
  5
37D
330
9
100
AcDbSymbolTableRecord
100
AcDbRegAppTableRecord
  2
AcDbBlockRepETag
 70
     0
  0
ENDTAB
  0
TABLE
  2
DIMSTYLE
  5
A
330
0
100
AcDbSymbolTable
 70
     2
100
AcDbDimStyleTable
 71
     2
340
27
340
137
  0
DIMSTYLE
105
27
330
A
100
AcDbSymbolTableRecord
100
AcDbDimStyleTableRecord
  2
ISO-25
 70
     0
 41
2.5
 42
0.625
 43
3.75
 44
1.25
 73
     0
 74
     0
 77
     1
 78
     8
140
2.5
141
2.5
143
0.03937007874016
147
0.625
171
     3
172
     1
271
     2
272
     2
274
     3
278
    44
283
     0
284
     8
340
11
  0
DIMSTYLE
105
137
330
A
100
AcDbSymbolTableRecord
100
AcDbDimStyleTableRecord
  2
Annotative
 70
     0
 40
0.0
 41
2.5
 42
0.625
 43
3.75
 44
1.25
 73
     0
 74
     0
 77
     1
 78
     8
140
2.5
141
2.5
143
0.03937007874016
147
0.625
171
     3
172
     1
271
     2
272
     2
274
     3
278
    44
283
     0
284
     8
340
11
1001
AcadAnnotative
1000
AnnotativeData
1002
{
1070
     1
1070
     1
1002
}
1001
ACAD_DSTYLE_DIMJAG
1070
   388
1040
1.5
1001
ACAD_DSTYLE_DIMTALN
1070
   392
1070
     0
  0
ENDTAB
  0
TABLE
  2
BLOCK_RECORD
  5
1
330
0
100
AcDbSymbolTable
 70
     6
  0
BLOCK_RECORD
  5
1F
330
1
100
AcDbSymbolTableRecord
100
AcDbBlockTableRecord
  2
*Model_Space
340
22
  0
BLOCK_RECORD
  5
D2
330
1
100
AcDbSymbolTableRecord
100
AcDbBlockTableRecord
  2
*Paper_Space
340
D3
  0
BLOCK_RECORD
  5
D6
330
1
100
AcDbSymbolTableRecord
100
AcDbBlockTableRecord
  2
*Paper_Space0
340
D7
  0
BLOCK_RECORD
  5
1AD
330
1
100
AcDbSymbolTableRecord
100
AcDbBlockTableRecord
  2
SW_CENTERMARKSYMBOL_0
340
0
102
{BLKREFS
331
2E5
102
}
  0
BLOCK_RECORD
  5
2C6
330
1
100
AcDbSymbolTableRecord
100
AcDbBlockTableRecord
  2
1
340
0
310
2800000020000000200000000100080000000000000400000000000000000000000000000000000000000000000080000080000000808000800000008000800080800000C0C0C000C0DCC000F0CAA6000020400000206000002080000020A0000020C0000020E00000400000004020000040400000406000004080000040A0
310
000040C0000040E00000600000006020000060400000606000006080000060A0000060C0000060E00000800000008020000080400000806000008080000080A0000080C0000080E00000A0000000A0200000A0400000A0600000A0800000A0A00000A0C00000A0E00000C0000000C0200000C0400000C0600000C0800000C0
310
A00000C0C00000C0E00000E0000000E0200000E0400000E0600000E0800000E0A00000E0C00000E0E00040000000400020004000400040006000400080004000A0004000C0004000E00040200000402020004020400040206000402080004020A0004020C0004020E000404000004040200040404000404060004040800040
310
40A0004040C0004040E00040600000406020004060400040606000406080004060A0004060C0004060E00040800000408020004080400040806000408080004080A0004080C0004080E00040A0000040A0200040A0400040A0600040A0800040A0A00040A0C00040A0E00040C0000040C0200040C0400040C0600040C08000
310
40C0A00040C0C00040C0E00040E0000040E0200040E0400040E0600040E0800040E0A00040E0C00040E0E00080000000800020008000400080006000800080008000A0008000C0008000E00080200000802020008020400080206000802080008020A0008020C0008020E00080400000804020008040400080406000804080
310
008040A0008040C0008040E00080600000806020008060400080606000806080008060A0008060C0008060E00080800000808020008080400080806000808080008080A0008080C0008080E00080A0000080A0200080A0400080A0600080A0800080A0A00080A0C00080A0E00080C0000080C0200080C0400080C0600080C0
310
800080C0A00080C0C00080C0E00080E0000080E0200080E0400080E0600080E0800080E0A00080E0C00080E0E000C0000000C0002000C0004000C0006000C0008000C000A000C000C000C000E000C0200000C0202000C0204000C0206000C0208000C020A000C020C000C020E000C0400000C0402000C0404000C0406000C0
310
408000C040A000C040C000C040E000C0600000C0602000C0604000C0606000C0608000C060A000C060C000C060E000C0800000C0802000C0804000C0806000C0808000C080A000C080C000C080E000C0A00000C0A02000C0A04000C0A06000C0A08000C0A0A000C0A0C000C0A0E000C0C00000C0C02000C0C04000C0C06000
310
C0C08000C0C0A000F0FBFF00A4A0A000808080000000FF0000FF000000FFFF00FF000000FF00FF00FFFF0000FFFFFF00000000000000000000000000000000000000000000000000000000000000000000000000000000000000000000000000FF000000000000000000000000000000000000000000000000000000000000
310
00FF0000000000000000000000000000000000000000000000000000000000FFFFFFFF0000000000000000000000000000000000000000000000000000FFFF0000FF00FFFF00000000000000000000000000000000000000000000FFFF00000000FF000000FFFF00000000000000000000000000000000000000FFFF000000
310
0000FF00000000FFFF00000000000000000000000000000000FFFF0000000000FFFFFFFFFF00000000FFFF00000000000000000000000000FF00000000FFFFFFFFFFFFFFFFFF0000000000FF0000000000000000000000FF00000000FFFFA4000000FFA4A4FFFFFF00000000FF00000000000000000000FF000000FFFFA400
310
000000FF00000000FFFF000000FF000000000000000000FF000000FFFF000000000000FF00000000A4FFFF000000FF0000000000000000FF000000FF00000000000000FF0000000000FFFF000000FF0000000000000000FF000000FF00000000000000000000000000A4FFFF0000FF0000000000000000FF0000FFFF000000
310
00000000FF000000000000FFFF0000FF0000000000000000FF0000FFFF00000000000000FF000000000000FFFF0000FF0000000000FFFFFFFFFFFFFFFFFFFFFFFF00FFFFFFFF00FFFFFFFFFFFFFFFFFFFFFFFF0000000000FF000000FF00000000000000FF0000000000A4FFFF0000FF0000000000000000FF000000FF0000
310
0000000000000000000000A4FF000000FF0000000000000000FF000000FFFF000000000000FF0000000000FFFF000000FF0000000000000000FF00000000FF000000000000FF00000000A4FFFF000000FF000000000000000000FF000000FFFF0000000000FF000000A4FFFF000000FF00000000000000000000FF00000000
310
FFFFFF000000FFA4A4FFFFFF00000000FF0000000000000000000000FF0000000000FFFFFFFFFFFFFFFF0000000000FF00000000000000000000000000FFFF00000000000000FF000000000000FFFF00000000000000000000000000000000FFFF0000000000FF00000000FFFF000000000000000000000000000000000000
310
00FFFF00000000FF000000FFFF00000000000000000000000000000000000000000000FFFF0000FF00FFFF0000000000000000000000000000000000000000000000000000FFFFFFFF000000000000000000000000000000000000000000000000000000000000FF0000000000000000000000000000000000000000000000
310
0000000000000000FF0000000000000000000000000000000000000000000000000000000000000000000000000000000000000000000000
102
{BLKREFS
331
2E6
102
}
1001
ACAD
1000
DesignCenter Data
1002
{
1070
     1
1070
     4
1002
}
  0
BLOCK_RECORD
  5
2E7
102
{ACAD_XDICTIONARY
360
394
102
}
330
1
100
AcDbSymbolTableRecord
100
AcDbBlockTableRecord
  2
2
340
0
310
2800000020000000200000000100080000000000000400000000000000000000000000000000000000000000000080000080000000808000800000008000800080800000C0C0C000C0DCC000F0CAA6000020400000206000002080000020A0000020C0000020E00000400000004020000040400000406000004080000040A0
310
000040C0000040E00000600000006020000060400000606000006080000060A0000060C0000060E00000800000008020000080400000806000008080000080A0000080C0000080E00000A0000000A0200000A0400000A0600000A0800000A0A00000A0C00000A0E00000C0000000C0200000C0400000C0600000C0800000C0
310
A00000C0C00000C0E00000E0000000E0200000E0400000E0600000E0800000E0A00000E0C00000E0E00040000000400020004000400040006000400080004000A0004000C0004000E00040200000402020004020400040206000402080004020A0004020C0004020E000404000004040200040404000404060004040800040
310
40A0004040C0004040E00040600000406020004060400040606000406080004060A0004060C0004060E00040800000408020004080400040806000408080004080A0004080C0004080E00040A0000040A0200040A0400040A0600040A0800040A0A00040A0C00040A0E00040C0000040C0200040C0400040C0600040C08000
310
40C0A00040C0C00040C0E00040E0000040E0200040E0400040E0600040E0800040E0A00040E0C00040E0E00080000000800020008000400080006000800080008000A0008000C0008000E00080200000802020008020400080206000802080008020A0008020C0008020E00080400000804020008040400080406000804080
310
008040A0008040C0008040E00080600000806020008060400080606000806080008060A0008060C0008060E00080800000808020008080400080806000808080008080A0008080C0008080E00080A0000080A0200080A0400080A0600080A0800080A0A00080A0C00080A0E00080C0000080C0200080C0400080C0600080C0
310
800080C0A00080C0C00080C0E00080E0000080E0200080E0400080E0600080E0800080E0A00080E0C00080E0E000C0000000C0002000C0004000C0006000C0008000C000A000C000C000C000E000C0200000C0202000C0204000C0206000C0208000C020A000C020C000C020E000C0400000C0402000C0404000C0406000C0
310
408000C040A000C040C000C040E000C0600000C0602000C0604000C0606000C0608000C060A000C060C000C060E000C0800000C0802000C0804000C0806000C0808000C080A000C080C000C080E000C0A00000C0A02000C0A04000C0A06000C0A08000C0A0A000C0A0C000C0A0E000C0C00000C0C02000C0C04000C0C06000
310
C0C08000C0C0A000F0FBFF00A4A0A000808080000000FF0000FF000000FFFF00FF000000FF00FF00FFFF0000FFFFFF00000000000000000000000000000000000000000000000000000000000000000000000000000000000000000000FFFFFFFFFFFF0000000000000000000000000000000000000000000000000000FF00
310
0000FFFF0000000000000000000000000000000000000000000000000000FF000000FFFF0000000000000000000000000000000000000000000000000000FF000000FFFF0000000000000000000000000000000000000000000000000000FF000000FFFF0000000000000000000000000000000000000000000000000000FF
310
000000FFFF0000000000000000000000000000000000000000000000000000FFFFFFFFFFFF0000000000000000000000000000000000000000000000000000FF00000000FF0000000000000000000000000000000000000000000000000000FF00000000FF0000000000000000000000000000000000000000000000000000
310
FFFFFFFFFFFF0000000000000000000000000000000000000000000000000000FF000000FFFF0000000000000000000000000000000000000000000000000000FF000000FFFF0000000000000000000000000000000000000000000000000000FF000000FFFF00000000000000000000000000000000000000000000000000
310
00FF000000FFFF0000000000000000000000000000000000000000000000000000FF000000FFFF0000000000000000000000000000000000000000000000000000FF000000FFFF0000000000000000000000000000000000000000000000000000FF000000FFFF000000000000000000000000000000000000000000000000
310
0000FF000000FFFF0000000000000000000000000000000000000000000000000000FF000000FFFF0000000000000000000000000000000000000000000000000000FF000000FFFF0000000000000000000000000000000000000000000000000000FFFFFFFFFFFF0000000000000000000000000000000000000000000000
310
000000FF00000000FF0000000000000000000000000000000000000000000000000000FF00000000FF0000000000000000000000000000000000000000000000000000FFFFFFFFFFFF0000000000000000000000000000000000000000000000000000FF000000FFFF00000000000000000000000000000000000000000000
310
00000000FF000000FFFF0000000000000000000000000000000000000000000000000000FF000000FFFF0000000000000000000000000000000000000000000000000000FF000000FFFF0000000000000000000000000000000000000000000000000000FF000000FFFF000000000000000000000000000000000000000000
310
0000000000FFFFFFFFFFFF000000000000000000000000000000000000000000000000000000000000000000000000000000000000000000
1001
AcDbDynamicBlockGUID
1000
{BDEF2E55-B430-4164-A1FF-78C741E77C01}
1001
AcDbBlockRepETag
1070
     1
1071
       19
1001
ACAD
1000
DesignCenter Data
1002
{
1070
     1
1070
     4
1002
}
  0
BLOCK_RECORD
  5
2FE
102
{ACAD_XDICTIONARY
360
377
102
}
330
1
100
AcDbSymbolTableRecord
100
AcDbBlockTableRecord
  2
3
340
0
310
2800000020000000200000000100080000000000000400000000000000000000000000000000000000000000000080000080000000808000800000008000800080800000C0C0C000C0DCC000F0CAA6000020400000206000002080000020A0000020C0000020E00000400000004020000040400000406000004080000040A0
310
000040C0000040E00000600000006020000060400000606000006080000060A0000060C0000060E00000800000008020000080400000806000008080000080A0000080C0000080E00000A0000000A0200000A0400000A0600000A0800000A0A00000A0C00000A0E00000C0000000C0200000C0400000C0600000C0800000C0
310
A00000C0C00000C0E00000E0000000E0200000E0400000E0600000E0800000E0A00000E0C00000E0E00040000000400020004000400040006000400080004000A0004000C0004000E00040200000402020004020400040206000402080004020A0004020C0004020E000404000004040200040404000404060004040800040
310
40A0004040C0004040E00040600000406020004060400040606000406080004060A0004060C0004060E00040800000408020004080400040806000408080004080A0004080C0004080E00040A0000040A0200040A0400040A0600040A0800040A0A00040A0C00040A0E00040C0000040C0200040C0400040C0600040C08000
310
40C0A00040C0C00040C0E00040E0000040E0200040E0400040E0600040E0800040E0A00040E0C00040E0E00080000000800020008000400080006000800080008000A0008000C0008000E00080200000802020008020400080206000802080008020A0008020C0008020E00080400000804020008040400080406000804080
310
008040A0008040C0008040E00080600000806020008060400080606000806080008060A0008060C0008060E00080800000808020008080400080806000808080008080A0008080C0008080E00080A0000080A0200080A0400080A0600080A0800080A0A00080A0C00080A0E00080C0000080C0200080C0400080C0600080C0
310
800080C0A00080C0C00080C0E00080E0000080E0200080E0400080E0600080E0800080E0A00080E0C00080E0E000C0000000C0002000C0004000C0006000C0008000C000A000C000C000C000E000C0200000C0202000C0204000C0206000C0208000C020A000C020C000C020E000C0400000C0402000C0404000C0406000C0
310
408000C040A000C040C000C040E000C0600000C0602000C0604000C0606000C0608000C060A000C060C000C060E000C0800000C0802000C0804000C0806000C0808000C080A000C080C000C080E000C0A00000C0A02000C0A04000C0A06000C0A08000C0A0A000C0A0C000C0A0E000C0C00000C0C02000C0C04000C0C06000
310
C0C08000C0C0A000F0FBFF00A4A0A000808080000000FF0000FF000000FFFF00FF000000FF00FF00FFFF0000FFFFFF0000000000000000000000000000000000000000000000000000000000000000000000000000000000000000000000000000000000000000000000000000000000000000000000000000000000000000
310
00000000000000000000000000000000000000000000000000000000000000000000000000000000000000000000000000000000000000000000000000000000000000000000000000000000000000000000000000000000000000000000000000000000000000000000000000000000000000000000000000000000000000
310
00000000000000000000000000000000000000000000000000000000000000000000000000000000000000000000000000000000000000000000000000000000000000000000000000000000000000000000000000000000000000000000000000000000000000000000000000000000000000000000000000000000000000
310
0000000000000000000000000000000000000000000000000000000000000000000000000000000000000000000000000000000000000000000000000000000000000000000000000000000000000000000000000000FFFFFFFFFFFFFFFFFFFFFFFFFFFFFFFFFFFFFFFFFFFFFFFFFFFF000000000000FFFF00000000000000
310
0000FF0000FF000000000000000000FFFF000000000000FFFF000000000000000000FF0000FF000000000000000000FFFF000000000000FFFF000000000000000000FF0000FF000000000000000000FFFF00000000FFFFFFFFFFFFFFFFFFFFFFFFFFFF0000FFFFFFFFFFFFFFFFFFFFFFFFFFFF0000FFFFFFFFFFFFFFFFFFFF
310
FFFFFFFFFFFFFFFFFFFFFFFFFFFFFFFFFFFFFFFF0000000000000000000000000000000000000000000000000000000000000000000000000000000000000000000000000000000000000000000000000000000000000000000000000000000000000000000000000000000000000000000000000000000000000000000000
310
00000000000000000000000000000000000000000000000000000000000000000000000000000000000000000000000000000000000000000000000000000000000000000000000000000000000000000000000000000000000000000000000000000000000000000000000000000000000000000000000000000000000000
310
00000000000000000000000000000000000000000000000000000000000000000000000000000000000000000000000000000000000000000000000000000000000000000000000000000000000000000000000000000000000000000000000000000000000000000000000000000000000000000000000000000000000000
310
0000000000000000000000000000000000000000000000000000000000000000000000000000000000000000000000000000000000000000
102
{BLKREFS
331
313
102
}
1001
AcDbDynamicBlockGUID
1000
{DC4CD1A1-41A3-400D-9C44-FA371D50BA71}
1001
AcDbBlockRepETag
1070
     1
1071
       18
1001
ACAD
1000
DesignCenter Data
1002
{
1070
     1
1070
     4
1002
}
  0
BLOCK_RECORD
  5
314
330
1
100
AcDbSymbolTableRecord
100
AcDbBlockTableRecord
  2
4
340
0
310
2800000020000000200000000100080000000000000400000000000000000000000000000000000000000000000080000080000000808000800000008000800080800000C0C0C000C0DCC000F0CAA6000020400000206000002080000020A0000020C0000020E00000400000004020000040400000406000004080000040A0
310
000040C0000040E00000600000006020000060400000606000006080000060A0000060C0000060E00000800000008020000080400000806000008080000080A0000080C0000080E00000A0000000A0200000A0400000A0600000A0800000A0A00000A0C00000A0E00000C0000000C0200000C0400000C0600000C0800000C0
310
A00000C0C00000C0E00000E0000000E0200000E0400000E0600000E0800000E0A00000E0C00000E0E00040000000400020004000400040006000400080004000A0004000C0004000E00040200000402020004020400040206000402080004020A0004020C0004020E000404000004040200040404000404060004040800040
310
40A0004040C0004040E00040600000406020004060400040606000406080004060A0004060C0004060E00040800000408020004080400040806000408080004080A0004080C0004080E00040A0000040A0200040A0400040A0600040A0800040A0A00040A0C00040A0E00040C0000040C0200040C0400040C0600040C08000
310
40C0A00040C0C00040C0E00040E0000040E0200040E0400040E0600040E0800040E0A00040E0C00040E0E00080000000800020008000400080006000800080008000A0008000C0008000E00080200000802020008020400080206000802080008020A0008020C0008020E00080400000804020008040400080406000804080
310
008040A0008040C0008040E00080600000806020008060400080606000806080008060A0008060C0008060E00080800000808020008080400080806000808080008080A0008080C0008080E00080A0000080A0200080A0400080A0600080A0800080A0A00080A0C00080A0E00080C0000080C0200080C0400080C0600080C0
310
800080C0A00080C0C00080C0E00080E0000080E0200080E0400080E0600080E0800080E0A00080E0C00080E0E000C0000000C0002000C0004000C0006000C0008000C000A000C000C000C000E000C0200000C0202000C0204000C0206000C0208000C020A000C020C000C020E000C0400000C0402000C0404000C0406000C0
310
408000C040A000C040C000C040E000C0600000C0602000C0604000C0606000C0608000C060A000C060C000C060E000C0800000C0802000C0804000C0806000C0808000C080A000C080C000C080E000C0A00000C0A02000C0A04000C0A06000C0A08000C0A0A000C0A0C000C0A0E000C0C00000C0C02000C0C04000C0C06000
310
C0C08000C0C0A000F0FBFF00A4A0A000808080000000FF0000FF000000FFFF00FF000000FF00FF00FFFF0000FFFFFF0000000000000000000000000000000000000000000000000000000000000000000000000000000000000000000000000000000000000000000000000000000000000000000000000000000000000000
310
00000000000000000000000000000000000000000000000000000000000000000000000000000000000000000000000000000000000000000000000000000000000000000000000000000000000000000000000000000000000000FFFFFFFFFFFFFFFFFFFF00000000000000000000000000000000000000FFFFFFFFFF0000
310
FF00FFFFFFFFFFFFFFFF00000000000000000000000000FFFF0000FFFFFF0000FF0000000000FFFFFFFFFFFF00000000000000000000FFFF00FFFF0000FFFFFFFFFF0000000000000000FFFFFF0000000000000000FFFFFFFF0000FFFF0000000000FFFFFFFF0000000000FF00FF000000000000FFFFFF000000FF00000000
310
00000000000000FFFFFFFF00FF00FF000000000000FFFF0000FFFF00000000FFFFFFFFFFFFFF0000000000FFFF00FFFF0000000000FFFFFFFF000000FFFFFFFF0000000000FFFFFFFF00000000FFFFFF00000000FFFFFF00000000FFFF0000000000000000000000FFFFFF000000FFFFFF00000000FFFF000000FFFF000000
310
0000000000000000000000FFFF000000FFFF00000000FF000000FFFF00000000000000000000000000000000FF000000FF00FF000000FF000000FFFF00000000000000000000000000000000FF000000FFFF00000000FFFF0000FFFFFF000000000000000000000000000000FFFF0000FFFF0000000000FF0000FFFFFFFF00
310
000000000000000000000000FFFFFF000000FF0000000000FF000000FFFFFFFFFFFF00000000000000FFFFFFFFFFFF000000FF0000000000FF000000FFFFFFFFFFFFFFFFFFFFFFFFFFFFFFFFFFFF00000000FF000000000000FF000000FFFFFFFFFFFFFFFFFFFFFFFFFFFFFFFFFF000000FF00000000000000FF0000000000
310
FFFFFFFFFFFFFFFFFFFFFFFFFF000000FFFF000000000000000000FFFFFF00000000FFFFFFFFFFFFFFFFFF000000FFFF0000000000000000000000000000FFFFFFFF0000000000000000000000FF0000000000000000000000000000000000000000FFFFFFFF0000000000FFFF000000000000000000000000000000000000
310
00000000000000FFFFFFFFFF00000000000000000000000000000000000000000000000000000000000000000000000000000000000000000000000000000000000000000000000000000000000000000000000000000000000000000000000000000000000000000000000000000000000000000000000000000000000000
310
0000000000000000000000000000000000000000000000000000000000000000000000000000000000000000000000000000000000000000
102
{BLKREFS
331
35A
102
}
1001
ACAD
1000
DesignCenter Data
1002
{
1070
     1
1070
     4
1002
}
  0
ENDTAB
  0
ENDSEC
  0
SECTION
  2
BLOCKS
  0
BLOCK
  5
20
330
1F
100
AcDbEntity
  8
0
100
AcDbBlockBegin
  2
*Model_Space
 70
     0
 10
0.0
 20
0.0
 30
0.0
  3
*Model_Space
  1

  0
ENDBLK
  5
21
330
1F
100
AcDbEntity
  8
0
100
AcDbBlockEnd
  0
BLOCK
  5
D4
330
D2
100
AcDbEntity
 67
     1
  8
0
100
AcDbBlockBegin
  2
*Paper_Space
 70
     0
 10
0.0
 20
0.0
 30
0.0
  3
*Paper_Space
  1

  0
ENDBLK
  5
D5
330
D2
100
AcDbEntity
 67
     1
  8
0
100
AcDbBlockEnd
  0
BLOCK
  5
D8
330
D6
100
AcDbEntity
 67
     1
  8
0
100
AcDbBlockBegin
  2
*Paper_Space0
 70
     0
 10
0.0
 20
0.0
 30
0.0
  3
*Paper_Space0
  1

  0
ENDBLK
  5
D9
330
D6
100
AcDbEntity
 67
     1
  8
0
100
AcDbBlockEnd
  0
BLOCK
  5
1AE
330
1AD
100
AcDbEntity
  8
0
100
AcDbBlockBegin
  2
SW_CENTERMARKSYMBOL_0
 70
     0
 10
0.0
 20
0.0
 30
0.0
  3
SW_CENTERMARKSYMBOL_0
  1

  0
LINE
  5
1AF
330
1AD
100
AcDbEntity
  8
0
  6
Continuous
 62
     0
370
     0
100
AcDbLine
 10
0.0
 20
0.0
 30
0.0
 11
0.0
 21
2.500000000000002
 31
0.0
  0
LINE
  5
1B0
330
1AD
100
AcDbEntity
  8
0
  6
Continuous
 62
     0
370
     0
100
AcDbLine
 10
0.0
 20
0.0
 30
0.0
 11
-2.500000000000002
 21
0.0
 31
0.0
  0
LINE
  5
1B1
330
1AD
100
AcDbEntity
  8
0
  6
Continuous
 62
     0
370
     0
100
AcDbLine
 10
0.0
 20
0.0
 30
0.0
 11
0.0
 21
-2.500000000000002
 31
0.0
  0
LINE
  5
1B2
330
1AD
100
AcDbEntity
  8
0
  6
Continuous
 62
     0
370
     0
100
AcDbLine
 10
0.0
 20
0.0
 30
0.0
 11
2.500000000000002
 21
0.0
 31
0.0
  0
LINE
  5
1B3
330
1AD
100
AcDbEntity
  8
0
  6
Continuous
 62
     0
370
     0
100
AcDbLine
 10
0.0
 20
5.000000000000004
 30
0.0
 11
0.0
 21
18.9
 31
0.0
  0
LINE
  5
1B4
330
1AD
100
AcDbEntity
  8
0
  6
Continuous
 62
     0
370
     0
100
AcDbLine
 10
-5.000000000000004
 20
0.0
 30
0.0
 11
-18.9
 21
0.0
 31
0.0
  0
LINE
  5
1B5
330
1AD
100
AcDbEntity
  8
0
  6
Continuous
 62
     0
370
     0
100
AcDbLine
 10
0.0
 20
-5.000000000000004
 30
0.0
 11
0.0
 21
-18.9
 31
0.0
  0
LINE
  5
1B6
330
1AD
100
AcDbEntity
  8
0
  6
Continuous
 62
     0
370
     0
100
AcDbLine
 10
5.000000000000004
 20
0.0
 30
0.0
 11
18.9
 21
0.0
 31
0.0
  0
ENDBLK
  5
1B7
330
1AD
100
AcDbEntity
  8
0
100
AcDbBlockEnd
  0
BLOCK
  5
2C7
330
2C6
100
AcDbEntity
  8
0
100
AcDbBlockBegin
  2
1
 70
     0
 10
0.0
 20
0.0
 30
0.0
  3
1
  1

  0
LINE
  5
2C9
330
2C6
100
AcDbEntity
  8
0
  6
Continuous
 62
     7
370
    15
100
AcDbLine
 10
2067.766674785666
 20
1242.990824896771
 30
0.0
 11
2068.05469967778
 21
1243.131157773004
 31
0.0
  0
SPLINE
  5
2CA
330
2C6
100
AcDbEntity
  8
0
  6
Continuous
 62
     7
370
    15
100
AcDbSpline
210
0.0
220
0.0
230
1.0
 70
     8
 71
     3
 72
    70
 73
    66
 74
     0
 42
0.0000000001
 43
0.0000000001
 40
0.0
 40
0.0
 40
0.0
 40
0.0
 40
0.0094074048229493
 40
0.0202294557761184
 40
0.0302470652576941
 40
0.0411948136698137
 40
0.0509964460127282
 40
0.060413922139859
 40
0.0697971018661765
 40
0.0792661169235226
 40
0.0953558257604991
 40
0.1117800066871904
 40
0.1284670334007564
 40
0.1453378430575291
 40
0.162278027760752
 40
0.1790888714857207
 40
0.1956790160710241
 40
0.2121288580867223
 40
0.2288154433099429
 40
0.245690481153476
 40
0.2626718575277109
 40
0.2796760300784103
 40
0.2966175213958051
 40
0.3134121307528226
 40
0.3299799968817942
 40
0.3464547445956528
 40
0.363177999735325
 40
0.3800836598937204
 40
0.3970888687262839
 40
0.4141077725019372
 40
0.4310541030089884
 40
0.4478437776009848
 40
0.4643973370314562
 40
0.480913007853096
 40
0.4976752171692809
 40
0.5146068997669003
 40
0.5316244755701137
 40
0.5486417821104494
 40
0.5655726650379306
 40
0.5823334428156845
 40
0.5988452321256775
 40
0.6153798922363581
 40
0.6321518468660289
 40
0.6490819490468165
 40
0.6660863946059188
 40
0.683079162605928
 40
0.6999760246256436
 40
0.7166950675065823
 40
0.733166565379844
 40
0.7497186719782065
 40
0.7665016576518442
 40
0.7834359806979299
 40
0.8004385031253791
 40
0.817424876974703
 40
0.8343096016420206
 40
0.8510101711596666
 40
0.8674722791848548
 40
0.884064644704461
 40
0.9008822105412402
 40
0.9178446353104384
 40
0.9348673487160795
 40
0.9518639739755142
 40
0.9687489237009764
 40
0.9854399489272914
 40
1.0
 40
1.0
 40
1.0
 40
1.0
 10
2068.243341051092
 20
1243.212117052303
 30
0.0
 10
2068.425581984034
 20
1243.288218047816
 30
0.0
 10
2068.817468478018
 20
1243.451863787763
 30
0.0
 10
2069.422684143615
 20
1243.645751106142
 30
0.0
 10
2070.068342330591
 20
1243.814435627345
 30
0.0
 10
2070.702727477609
 20
1243.937461172094
 30
0.0
 10
2071.330755703784
 20
1244.019937920439
 30
0.0
 10
2071.929706950914
 20
1244.064043438849
 30
0.0
 10
2072.523211354668
 20
1244.074622924855
 30
0.0
 10
2073.256327399656
 20
1244.046725164673
 30
0.0
 10
2074.133117424505
 20
1243.946534971864
 30
0.0
 10
2075.144500214609
 20
1243.73079445247
 30
0.0
 10
2076.145605092777
 20
1243.41199618813
 30
0.0
 10
2077.120086006441
 20
1242.991049298438
 30
0.0
 10
2078.049856974612
 20
1242.473444521541
 30
0.0
 10
2078.9184254245
 20
1241.868952773511
 30
0.0
 10
2079.715132804384
 20
1241.188289767988
 30
0.0
 10
2080.439647820049
 20
1240.434888945
 30
0.0
 10
2081.090523747526
 20
1239.609344948904
 30
0.0
 10
2081.662223066327
 20
1238.713800499643
 30
0.0
 10
2082.14434731461
 20
1237.759514591151
 30
0.0
 10
2082.528565285734
 20
1236.760275487556
 30
0.0
 10
2082.809435777623
 20
1235.73129398862
 30
0.0
 10
2082.984660149459
 20
1234.688480834448
 30
0.0
 10
2083.055412360117
 20
1233.643285487395
 30
0.0
 10
2083.023671510989
 20
1232.597693100572
 30
0.0
 10
2082.888449652702
 20
1231.553198512883
 30
0.0
 10
2082.647429486804
 20
1230.51645598867
 30
0.0
 10
2082.301584431508
 20
1229.503234029884
 30
0.0
 10
2081.855132350073
 20
1228.529198973505
 30
0.0
 10
2081.315345841893
 20
1227.608882768623
 30
0.0
 10
2080.692164395699
 20
1226.754969385086
 30
0.0
 10
2079.993825428888
 20
1225.973487021359
 30
0.0
 10
2079.222791953733
 20
1225.264488963082
 30
0.0
 10
2078.379306314165
 20
1224.630064903489
 30
0.0
 10
2077.467725932345
 20
1224.077416328716
 30
0.0
 10
2076.500386789839
 20
1223.616825268345
 30
0.0
 10
2075.491596438102
 20
1223.255999977213
 30
0.0
 10
2074.456915787869
 20
1222.999636254795
 30
0.0
 10
2073.412375327502
 20
1222.849221139162
 30
0.0
 10
2072.366457951049
 20
1222.802752893206
 30
0.0
 10
2071.320771797036
 20
1222.85880250186
 30
0.0
 10
2070.276975147939
 20
1223.018980837612
 30
0.0
 10
2069.244769648823
 20
1223.284924366439
 30
0.0
 10
2068.240118241124
 20
1223.654776808326
 30
0.0
 10
2067.278398879209
 20
1224.123510475571
 30
0.0
 10
2066.373646271431
 20
1224.68315802145
 30
0.0
 10
2065.537770899482
 20
1225.323348438487
 30
0.0
 10
2064.774133957394
 20
1226.037565852097
 30
0.0
 10
2064.083053847715
 20
1226.824009174441
 30
0.0
 10
2063.467232246594
 20
1227.682721428062
 30
0.0
 10
2062.935423860785
 20
1228.606816490034
 30
0.0
 10
2062.49734581525
 20
1229.583554520707
 30
0.0
 10
2062.160050906644
 20
1230.598407027267
 30
0.0
 10
2061.927559074181
 20
1231.635745978209
 30
0.0
 10
2061.80064354744
 20
1232.680087493636
 30
0.0
 10
2061.77696763722
 20
1233.725663548813
 30
0.0
 10
2061.855863112409
 20
1234.771015389275
 30
0.0
 10
2062.039559833163
 20
1235.813826850493
 30
0.0
 10
2062.328995109567
 20
1236.841821005175
 30
0.0
 10
2062.721852603242
 20
1237.838867751034
 30
0.0
 10
2063.211844879575
 20
1238.790380837206
 30
0.0
 10
2063.792751270509
 20
1239.680164719042
 30
0.0
 10
2064.420718714456
 20
1240.474809458733
 30
0.0
 10
2064.888640291485
 20
1240.935055414136
 30
0.0
 10
2065.106647568878
 20
1241.149486576525
 30
0.0
  0
LINE
  5
2CB
330
2C6
100
AcDbEntity
  8
0
  6
Continuous
 62
     7
370
    15
100
AcDbLine
 10
2065.287632872126
 20
1241.316798393478
 30
0.0
 11
2065.816686563406
 21
1241.760972808385
 31
0.0
  0
SPLINE
  5
2CC
330
2C6
100
AcDbEntity
  8
0
  6
Continuous
 62
     7
370
    15
100
AcDbSpline
210
0.0
220
0.0
230
1.0
 70
     8
 71
     3
 72
     9
 73
     5
 74
     0
 42
0.0000000001
 43
0.0000000001
 40
0.0
 40
0.0
 40
0.0
 40
0.0
 40
0.8859794049407398
 40
1.0
 40
1.0
 40
1.0
 40
1.0
 10
2066.94188427362
 20
1242.546883483742
 30
0.0
 10
2067.224139107639
 20
1242.717352635873
 30
0.0
 10
2067.54271856044
 20
1242.909760214628
 30
0.0
 10
2067.885607453041
 20
1243.051643016978
 30
0.0
 10
2067.924703848615
 20
1243.067820578531
 30
0.0
  0
LINE
  5
2CD
330
2C6
100
AcDbEntity
  8
0
  6
Continuous
 62
     7
370
    15
100
AcDbLine
 10
2072.332059035412
 20
1244.065740838463
 30
0.0
 11
2072.415267432492
 21
1244.069643869662
 31
0.0
  0
SPLINE
  5
2CE
330
2C6
100
AcDbEntity
  8
0
  6
Continuous
 62
     7
370
    15
100
AcDbSpline
210
0.0
220
0.0
230
1.0
 70
     8
 71
     3
 72
    42
 73
    38
 74
     0
 42
0.0000000001
 43
0.0000000001
 40
0.0
 40
0.0
 40
0.0
 40
0.0
 40
0.0625000000000001
 40
0.0625000000000001
 40
0.1250000000000003
 40
0.1250000000000003
 40
0.1875000000000004
 40
0.1875000000000004
 40
0.2187500000000003
 40
0.2187500000000003
 40
0.2500000000000003
 40
0.2500000000000003
 40
0.3125000000000003
 40
0.3125000000000003
 40
0.3750000000000004
 40
0.3750000000000004
 40
0.4375000000000006
 40
0.4375000000000006
 40
0.4687500000000006
 40
0.4687500000000006
 40
0.5000000000000006
 40
0.5000000000000006
 40
0.6250000000000005
 40
0.6250000000000005
 40
0.6562500000000005
 40
0.6562500000000005
 40
0.6875000000000005
 40
0.6875000000000005
 40
0.7500000000000004
 40
0.7500000000000004
 40
0.8125000000000001
 40
0.8125000000000001
 40
0.8750000000000001
 40
0.8750000000000001
 40
0.9375000000000001
 40
0.9375000000000001
 40
1.0
 40
1.0
 40
1.0
 40
1.0
 10
2071.542496181724
 20
1244.087811547471
 30
0.0
 10
2072.075697467518
 20
1244.14469576705
 30
0.0
 10
2072.609960885175
 20
1244.160748419901
 30
0.0
 10
2073.680546180546
 20
1244.11372028449
 30
0.0
 10
2074.209632712066
 20
1244.050630632541
 30
0.0
 10
2075.24914094263
 20
1243.848870292278
 30
0.0
 10
2075.760682363932
 20
1243.71014806002
 30
0.0
 10
2076.515389794871
 20
1243.443985367624
 30
0.0
 10
2076.765484463535
 20
1243.345192264051
 30
0.0
 10
2077.253637983963
 20
1243.13110791785
 30
0.0
 10
2077.492585455458
 20
1243.015559521961
 30
0.0
 10
2078.194352785243
 20
1242.643914371139
 30
0.0
 10
2078.642177637706
 20
1242.362950452891
 30
0.0
 10
2079.497472019979
 20
1241.7340988412
 30
0.0
 10
2079.907149006322
 20
1241.383188125538
 30
0.0
 10
2080.661188113551
 20
1240.63467132452
 30
0.0
 10
2081.008659427345
 20
1240.235864615501
 30
0.0
 10
2081.485994452477
 20
1239.601206287673
 30
0.0
 10
2081.637765841295
 20
1239.383555293632
 30
0.0
 10
2081.926355252226
 20
1238.935830235298
 30
0.0
 10
2082.063657737913
 20
1238.70479699385
 30
0.0
 10
2082.703123780612
 20
1237.533519830741
 30
0.0
 10
2083.070979826193
 20
1236.542465258354
 30
0.0
 10
2083.350472685741
 20
1235.235849877031
 30
0.0
 10
2083.396980281511
 20
1234.971542547694
 30
0.0
 10
2083.47014653216
 20
1234.444537035207
 30
0.0
 10
2083.497042262403
 20
1234.180805573378
 30
0.0
 10
2083.549158173551
 20
1233.38893666072
 30
0.0
 10
2083.546001138254
 20
1232.860129264279
 30
0.0
 10
2083.464734904044
 20
1231.800744957684
 30
0.0
 10
2083.385294362076
 20
1231.26756304026
 30
0.0
 10
2083.154593581168
 20
1230.231551140841
 30
0.0
 10
2083.003420819963
 20
1229.725007342088
 30
0.0
 10
2082.63003161243
 20
1228.734651725361
 30
0.0
 10
2082.406537413879
 20
1228.248580651049
 30
0.0
 10
2081.890830506136
 20
1227.311124680039
 30
0.0
 10
2081.600701647554
 20
1226.862688671084
 30
0.0
 10
2081.278116861839
 20
1226.434658135531
 30
0.0
  0
SPLINE
  5
2CF
330
2C6
100
AcDbEntity
  8
0
  6
Continuous
 62
     7
370
    15
100
AcDbSpline
210
0.0
220
0.0
230
1.0
 70
     8
 71
     3
 72
    18
 73
    14
 74
     0
 42
0.0000000001
 43
0.0000000001
 40
0.0
 40
0.0
 40
0.0
 40
0.0
 40
0.25
 40
0.25
 40
0.3749999999999999
 40
0.3749999999999999
 40
0.5
 40
0.5
 40
0.75
 40
0.75
 40
0.875
 40
0.875
 40
1.0
 40
1.0
 40
1.0
 40
1.0
 10
2062.84764682097
 20
1238.187995396601
 30
0.0
 10
2063.276673702524
 20
1239.000353501488
 30
0.0
 10
2063.801935441183
 20
1239.763653213313
 30
0.0
 10
2064.705817817089
 20
1240.780956807966
 30
0.0
 10
2065.026784892661
 20
1241.100421890199
 30
0.0
 10
2065.708677458951
 20
1241.699468454923
 30
0.0
 10
2066.071570105352
 20
1241.980445382243
 30
0.0
 10
2067.208784742365
 20
1242.751554375679
 30
0.0
 10
2068.016251033592
 20
1243.162472865501
 30
0.0
 10
2069.299250044849
 20
1243.628689505665
 30
0.0
 10
2069.741286502999
 20
1243.759149164446
 30
0.0
 10
2070.634052113099
 20
1243.964071756737
 30
0.0
 10
2071.085736329694
 20
1244.039082430699
 30
0.0
 10
2071.542496181725
 20
1244.087811547469
 30
0.0
  0
ARC
  5
2D0
330
2C6
100
AcDbEntity
  8
0
  6
Continuous
 62
     7
370
    15
100
AcDbCircle
 10
2072.415267432492
 20
1233.444643869662
 30
0.0
 40
16.40000000000001
100
AcDbArc
 50
323.8461756986936
 51
336.1538243013066
  0
LINE
  5
2D1
330
2C6
100
AcDbEntity
  8
0
  6
Continuous
 62
     7
370
    15
100
AcDbLine
 10
2085.657218320474
 20
1223.769379703745
 30
0.0
 11
2074.173316544509
 21
1217.139145922045
 31
0.0
  0
ARC
  5
2D2
330
2C6
100
AcDbEntity
  8
0
  6
Continuous
 62
     7
370
    15
100
AcDbCircle
 10
2072.415267432492
 20
1233.444643869662
 30
0.0
 40
16.4
100
AcDbArc
 50
263.8461756986923
 51
276.1538243013077
  0
LINE
  5
2D3
330
2C6
100
AcDbEntity
  8
0
  6
Continuous
 62
     7
370
    15
100
AcDbLine
 10
2070.657218320473
 20
1217.139145922045
 30
0.0
 11
2059.173316544509
 21
1223.769379703745
 31
0.0
  0
ARC
  5
2D4
330
2C6
100
AcDbEntity
  8
0
  6
Continuous
 62
     7
370
    15
100
AcDbCircle
 10
2072.415267432492
 20
1233.444643869662
 30
0.0
 40
16.40000000000001
100
AcDbArc
 50
203.8461756986935
 51
216.1538243013064
  0
LINE
  5
2D5
330
2C6
100
AcDbEntity
  8
0
  6
Continuous
 62
     7
370
    15
100
AcDbLine
 10
2057.415267432491
 20
1226.814410087962
 30
0.0
 11
2057.415267432491
 21
1240.074877651362
 31
0.0
  0
ARC
  5
2D6
330
2C6
100
AcDbEntity
  8
0
  6
Continuous
 62
     7
370
    15
100
AcDbCircle
 10
2072.415267432492
 20
1233.444643869662
 30
0.0
 40
16.40000000000002
100
AcDbArc
 50
143.8461756986936
 51
156.1538243013065
  0
LINE
  5
2D7
330
2C6
100
AcDbEntity
  8
0
  6
Continuous
 62
     7
370
    15
100
AcDbLine
 10
2059.173316544509
 20
1243.119908035579
 30
0.0
 11
2070.657218320473
 21
1249.750141817279
 31
0.0
  0
ARC
  5
2D8
330
2C6
100
AcDbEntity
  8
0
  6
Continuous
 62
     7
370
    15
100
AcDbCircle
 10
2072.415267432492
 20
1233.444643869662
 30
0.0
 40
16.40000000000001
100
AcDbArc
 50
83.84617569869229
 51
96.1538243013077
  0
LINE
  5
2D9
330
2C6
100
AcDbEntity
  8
0
  6
Continuous
 62
     7
370
    15
100
AcDbLine
 10
2074.173316544509
 20
1249.750141817279
 30
0.0
 11
2085.657218320474
 21
1243.119908035579
 31
0.0
  0
ARC
  5
2DA
330
2C6
100
AcDbEntity
  8
0
  6
Continuous
 62
     7
370
    15
100
AcDbCircle
 10
2072.415267432492
 20
1233.444643869662
 30
0.0
 40
16.4
100
AcDbArc
 50
23.84617569869345
 51
36.15382430130641
  0
LINE
  5
2DB
330
2C6
100
AcDbEntity
  8
0
  6
Continuous
 62
     7
370
    15
100
AcDbLine
 10
2087.415267432492
 20
1240.074877651362
 30
0.0
 11
2087.415267432492
 21
1226.814410087962
 31
0.0
  0
ARC
  5
2DC
330
2C6
100
AcDbEntity
  8
0
  6
Continuous
 62
     7
370
    15
100
AcDbCircle
 10
2072.415267432492
 20
1233.444643869662
 30
0.0
 40
11.29999999999999
100
AcDbArc
 50
286.736616187481
 51
321.6581034784163
  0
SPLINE
  5
2DD
330
2C6
100
AcDbEntity
  8
0
  6
Continuous
 62
     7
370
    15
100
AcDbSpline
210
0.0
220
0.0
230
1.0
 70
     8
 71
     3
 72
    40
 73
    36
 74
     0
 42
0.0000000001
 43
0.0000000001
 40
0.0
 40
0.0
 40
0.0
 40
0.0
 40
0.0625
 40
0.0625
 40
0.125
 40
0.125
 40
0.1875
 40
0.1875
 40
0.21875
 40
0.21875
 40
0.25
 40
0.25
 40
0.3125
 40
0.3125
 40
0.3750000000000001
 40
0.3750000000000001
 40
0.4375000000000002
 40
0.4375000000000002
 40
0.5000000000000002
 40
0.5000000000000002
 40
0.6250000000000002
 40
0.6250000000000002
 40
0.6562500000000002
 40
0.6562500000000002
 40
0.6875000000000002
 40
0.6875000000000002
 40
0.7500000000000002
 40
0.7500000000000002
 40
0.8125000000000001
 40
0.8125000000000001
 40
0.875
 40
0.875
 40
0.9375
 40
0.9375
 40
1.0
 40
1.0
 40
1.0
 40
1.0
 10
2075.66935758256
 20
1222.623327069234
 30
0.0
 10
2075.152078060558
 20
1222.481306818535
 30
0.0
 10
2074.627520773061
 20
1222.376615227291
 30
0.0
 10
2073.563879027948
 20
1222.241743896901
 30
0.0
 10
2073.031359127337
 20
1222.212538668822
 30
0.0
 10
2071.971002643155
 20
1222.228447105032
 30
0.0
 10
2071.442189479446
 20
1222.273982165551
 30
0.0
 10
2070.651074280779
 20
1222.40022329401
 30
0.0
 10
2070.387110790997
 20
1222.452191937762
 30
0.0
 10
2069.867855967883
 20
1222.574017320092
 30
0.0
 10
2069.61164706331
 20
1222.643973135396
 30
0.0
 10
2068.853067667143
 20
1222.880419184288
 30
0.0
 10
2068.360694163036
 20
1223.073354880555
 30
0.0
 10
2067.402779608032
 20
1223.530207320222
 30
0.0
 10
2066.933819745007
 20
1223.796744175017
 30
0.0
 10
2066.048786107522
 20
1224.388115929975
 30
0.0
 10
2065.630934998764
 20
1224.713060469954
 30
0.0
 10
2064.843722923342
 20
1225.420468944371
 30
0.0
 10
2064.473465563466
 20
1225.803662946112
 30
0.0
 10
2063.445190727148
 20
1227.039942258673
 30
0.0
 10
2062.895067395984
 20
1227.943304473207
 30
0.0
 10
2062.373912453394
 20
1229.169873584793
 30
0.0
 10
2062.277860287296
 20
1229.421198849491
 30
0.0
 10
2062.105684127875
 20
1229.926868036667
 30
0.0
 10
2062.02931506873
 20
1230.181561636714
 30
0.0
 10
2061.82871281196
 20
1230.951094717901
 30
0.0
 10
2061.732836661892
 20
1231.471358195648
 30
0.0
 10
2061.617024923531
 20
1232.526410688346
 30
0.0
 10
2061.597413424428
 20
1233.065622841573
 30
0.0
 10
2061.637592817191
 20
1234.129229618384
 30
0.0
 10
2061.696984720356
 20
1234.655053579832
 30
0.0
 10
2061.893024041864
 20
1235.694947869846
 30
0.0
 10
2062.030168463593
 20
1236.210451741811
 30
0.0
 10
2062.383428190476
 20
1237.22297223561
 30
0.0
 10
2062.597008991603
 20
1237.713415176032
 30
0.0
 10
2062.84764682097
 20
1238.187995396601
 30
0.0
  0
ARC
  5
2DE
330
2C6
100
AcDbEntity
  8
0
  6
Continuous
 62
     7
370
    15
100
AcDbCircle
 10
2072.415267432492
 20
1233.444643869662
 30
0.0
 40
16.39999999999999
100
AcDbArc
 50
156.1538243013065
 51
203.8461756986935
  0
ARC
  5
2DF
330
2C6
100
AcDbEntity
  8
0
  6
Continuous
 62
     7
370
    15
100
AcDbCircle
 10
2072.415267432492
 20
1233.444643869662
 30
0.0
 40
16.40000000000001
100
AcDbArc
 50
276.1538243013077
 51
323.8461756986936
  0
ARC
  5
2E0
330
2C6
100
AcDbEntity
  8
0
  6
Continuous
 62
     7
370
    15
100
AcDbCircle
 10
2072.415267432492
 20
1233.444643869662
 30
0.0
 40
16.40000000000001
100
AcDbArc
 50
36.15382430130641
 51
83.84617569869229
  0
ARC
  5
2E1
330
2C6
100
AcDbEntity
  8
0
  6
Continuous
 62
     7
370
    15
100
AcDbCircle
 10
2072.415267432492
 20
1233.444643869662
 30
0.0
 40
16.4
100
AcDbArc
 50
336.1538243013066
 51
23.84617569869345
  0
ARC
  5
2E2
330
2C6
100
AcDbEntity
  8
0
  6
Continuous
 62
     7
370
    15
100
AcDbCircle
 10
2072.415267432492
 20
1233.444643869662
 30
0.0
 40
16.40000000000001
100
AcDbArc
 50
216.1538243013064
 51
263.8461756986923
  0
ARC
  5
2E3
330
2C6
100
AcDbEntity
  8
0
  6
Continuous
 62
     7
370
    15
100
AcDbCircle
 10
2072.415267432492
 20
1233.444643869662
 30
0.0
 40
16.40000000000002
100
AcDbArc
 50
96.1538243013077
 51
143.8461756986936
  0
ARC
  5
2E4
330
2C6
100
AcDbEntity
  8
0
  6
Continuous
 62
     8
370
    15
100
AcDbCircle
 10
2072.428387355647
 20
1233.44621049354
 30
0.0
 40
10.67841168728111
100
AcDbArc
 50
155.4240593028778
 51
94.75878169412945
  0
INSERT
  5
2E5
330
2C6
100
AcDbEntity
  8
0
  6
Continuous
 62
     7
370
     0
100
AcDbBlockReference
  2
SW_CENTERMARKSYMBOL_0
 10
2072.415267432492
 20
1233.444643869662
 30
0.0
  0
ENDBLK
  5
2C8
330
2C6
100
AcDbEntity
  8
0
100
AcDbBlockEnd
  0
BLOCK
  5
2E8
330
2E7
100
AcDbEntity
  8
0
100
AcDbBlockBegin
  2
2
 70
     0
 10
0.0
 20
0.0
 30
0.0
  3
2
  1

  0
LINE
  5
381
330
2E7
100
AcDbEntity
  8
0
  6
Continuous
 62
     7
370
    15
100
AcDbLine
 10
2041.978727436674
 20
1249.844643869662
 30
0.0
 11
2035.978727436674
 21
1249.844643869662
 31
0.0
1001
AcDbBlockRepETag
1070
     1
1071
        0
1005
381
  0
LINE
  5
382
330
2E7
100
AcDbEntity
  8
0
  6
Continuous
 62
     7
370
    15
100
AcDbLine
 10
2035.978727436674
 20
1217.044643869662
 30
0.0
 11
2041.978727436674
 21
1217.044643869662
 31
0.0
1001
AcDbBlockRepETag
1070
     1
1071
        1
1005
382
  0
LINE
  5
383
330
2E7
100
AcDbEntity
  8
0
  6
Continuous
 62
     7
370
    15
100
AcDbLine
 10
2035.978727436674
 20
1217.139145922045
 30
0.0
 11
2035.978727436674
 21
1217.044643869662
 31
0.0
1001
AcDbBlockRepETag
1070
     1
1071
        2
1005
383
  0
LINE
  5
384
330
2E7
100
AcDbEntity
  8
0
  6
Continuous
 62
     7
370
    15
100
AcDbLine
 10
2035.978727436675
 20
1217.139145922045
 30
0.0
 11
2041.278727436675
 21
1217.139145922045
 31
0.0
1001
AcDbBlockRepETag
1070
     1
1071
        3
1005
384
  0
LINE
  5
385
330
2E7
100
AcDbEntity
  8
0
  6
Continuous
 62
     7
370
    15
100
AcDbLine
 10
2041.278727436675
 20
1223.769379703745
 30
0.0
 11
2041.278727436675
 21
1217.139145922045
 31
0.0
1001
AcDbBlockRepETag
1070
     1
1071
        4
1005
385
  0
LINE
  5
386
330
2E7
100
AcDbEntity
  8
0
  6
Continuous
 62
     7
370
    15
100
AcDbLine
 10
2035.978727436674
 20
1223.769379703745
 30
0.0
 11
2041.278727436675
 21
1223.769379703745
 31
0.0
1001
AcDbBlockRepETag
1070
     1
1071
        5
1005
386
  0
LINE
  5
387
330
2E7
100
AcDbEntity
  8
0
  6
Continuous
 62
     7
370
    15
100
AcDbLine
 10
2035.978727436674
 20
1226.814410087962
 30
0.0
 11
2035.978727436674
 21
1223.769379703745
 31
0.0
1001
AcDbBlockRepETag
1070
     1
1071
        6
1005
387
  0
LINE
  5
388
330
2E7
100
AcDbEntity
  8
0
  6
Continuous
 62
     7
370
    15
100
AcDbLine
 10
2035.978727436674
 20
1226.814410087962
 30
0.0
 11
2041.278727436675
 21
1226.814410087962
 31
0.0
1001
AcDbBlockRepETag
1070
     1
1071
        7
1005
388
  0
LINE
  5
389
330
2E7
100
AcDbEntity
  8
0
  6
Continuous
 62
     7
370
    15
100
AcDbLine
 10
2041.278727436675
 20
1240.074877651362
 30
0.0
 11
2041.278727436675
 21
1226.814410087962
 31
0.0
1001
AcDbBlockRepETag
1070
     1
1071
        8
1005
389
  0
LINE
  5
38A
330
2E7
100
AcDbEntity
  8
0
  6
Continuous
 62
     7
370
    15
100
AcDbLine
 10
2035.978727436674
 20
1240.074877651362
 30
0.0
 11
2041.278727436675
 21
1240.074877651362
 31
0.0
1001
AcDbBlockRepETag
1070
     1
1071
        9
1005
38A
  0
LINE
  5
38B
330
2E7
100
AcDbEntity
  8
0
  6
Continuous
 62
     7
370
    15
100
AcDbLine
 10
2035.978727436674
 20
1243.119908035579
 30
0.0
 11
2035.978727436674
 21
1240.074877651362
 31
0.0
1001
AcDbBlockRepETag
1070
     1
1071
       10
1005
38B
  0
LINE
  5
38C
330
2E7
100
AcDbEntity
  8
0
  6
Continuous
 62
     7
370
    15
100
AcDbLine
 10
2035.978727436674
 20
1243.119908035579
 30
0.0
 11
2041.278727436675
 21
1243.119908035579
 31
0.0
1001
AcDbBlockRepETag
1070
     1
1071
       11
1005
38C
  0
LINE
  5
38D
330
2E7
100
AcDbEntity
  8
0
  6
Continuous
 62
     7
370
    15
100
AcDbLine
 10
2041.278727436675
 20
1249.750141817279
 30
0.0
 11
2041.278727436675
 21
1243.119908035579
 31
0.0
1001
AcDbBlockRepETag
1070
     1
1071
       12
1005
38D
  0
LINE
  5
38E
330
2E7
100
AcDbEntity
  8
0
  6
Continuous
 62
     7
370
    15
100
AcDbLine
 10
2035.978727436675
 20
1249.750141817279
 30
0.0
 11
2041.278727436675
 21
1249.750141817279
 31
0.0
1001
AcDbBlockRepETag
1070
     1
1071
       13
1005
38E
  0
LINE
  5
38F
330
2E7
100
AcDbEntity
  8
0
  6
Continuous
 62
     7
370
    15
100
AcDbLine
 10
2035.978727436674
 20
1249.844643869662
 30
0.0
 11
2035.978727436674
 21
1249.750141817279
 31
0.0
1001
AcDbBlockRepETag
1070
     1
1071
       14
1005
38F
  0
LINE
  5
390
330
2E7
100
AcDbEntity
  8
0
  6
Continuous
 62
     7
370
    15
100
AcDbLine
 10
2041.978727436674
 20
1249.844643869662
 30
0.0
 11
2041.978727436674
 21
1217.044643869662
 31
0.0
1001
AcDbBlockRepETag
1070
     1
1071
       15
1005
390
  0
LINE
  5
391
330
2E7
100
AcDbEntity
  8
0
  6
Continuous
 62
     7
370
    15
100
AcDbLine
 10
2035.978727436674
 20
1240.074877651362
 30
0.0
 11
2035.978727436674
 21
1226.814410087962
 31
0.0
1001
AcDbBlockRepETag
1070
     1
1071
       16
1005
391
  0
LINE
  5
392
330
2E7
100
AcDbEntity
  8
0
  6
Continuous
 62
     7
370
    15
100
AcDbLine
 10
2035.978727436674
 20
1223.769379703745
 30
0.0
 11
2035.978727436674
 21
1217.139145922045
 31
0.0
1001
AcDbBlockRepETag
1070
     1
1071
       17
1005
392
  0
LINE
  5
393
330
2E7
100
AcDbEntity
  8
0
  6
Continuous
 62
     7
370
    15
100
AcDbLine
 10
2035.978727436674
 20
1249.750141817279
 30
0.0
 11
2035.978727436674
 21
1243.119908035579
 31
0.0
1001
AcDbBlockRepETag
1070
     1
1071
       18
1005
393
  0
ENDBLK
  5
2E9
330
2E7
100
AcDbEntity
  8
0
100
AcDbBlockEnd
  0
BLOCK
  5
2FF
330
2FE
100
AcDbEntity
  8
0
100
AcDbBlockBegin
  2
3
 70
     0
 10
0.0
 20
0.0
 30
0.0
  3
3
  1

  0
LINE
  5
364
330
2FE
100
AcDbEntity
  8
0
  6
Continuous
 62
     7
370
    15
100
AcDbLine
 10
2056.015267432492
 20
1205.599729150873
 30
0.0
 11
2056.015267432492
 21
1204.899729150873
 31
0.0
1001
AcDbBlockRepETag
1070
     1
1071
        0
1005
364
  0
LINE
  5
365
330
2FE
100
AcDbEntity
  8
0
  6
Continuous
 62
     7
370
    15
100
AcDbLine
 10
2088.815267432492
 20
1204.899729150873
 30
0.0
 11
2088.815267432492
 21
1205.599729150873
 31
0.0
1001
AcDbBlockRepETag
1070
     1
1071
        1
1005
365
  0
LINE
  5
366
330
2FE
100
AcDbEntity
  8
0
  6
Continuous
 62
     7
370
    15
100
AcDbLine
 10
2056.015267432492
 20
1204.899729150873
 30
0.0
 11
2057.415267432491
 21
1204.899729150873
 31
0.0
1001
AcDbBlockRepETag
1070
     1
1071
        2
1005
366
  0
LINE
  5
367
330
2FE
100
AcDbEntity
  8
0
  6
Continuous
 62
     7
370
    15
100
AcDbLine
 10
2087.415267432492
 20
1204.899729150873
 30
0.0
 11
2088.815267432492
 21
1204.899729150873
 31
0.0
1001
AcDbBlockRepETag
1070
     1
1071
        3
1005
367
  0
LINE
  5
368
330
2FE
100
AcDbEntity
  8
0
  6
Continuous
 62
     7
370
    15
100
AcDbLine
 10
2087.415267432492
 20
1199.599729150873
 30
0.0
 11
2087.415267432492
 21
1204.899729150873
 31
0.0
1001
AcDbBlockRepETag
1070
     1
1071
        4
1005
368
  0
LINE
  5
369
330
2FE
100
AcDbEntity
  8
0
  6
Continuous
 62
     7
370
    15
100
AcDbLine
 10
2085.657218320474
 20
1199.599729150873
 30
0.0
 11
2087.415267432492
 21
1199.599729150873
 31
0.0
1001
AcDbBlockRepETag
1070
     1
1071
        5
1005
369
  0
LINE
  5
36A
330
2FE
100
AcDbEntity
  8
0
  6
Continuous
 62
     7
370
    15
100
AcDbLine
 10
2085.657218320474
 20
1199.599729150873
 30
0.0
 11
2085.657218320474
 21
1204.899729150873
 31
0.0
1001
AcDbBlockRepETag
1070
     1
1071
        6
1005
36A
  0
LINE
  5
36B
330
2FE
100
AcDbEntity
  8
0
  6
Continuous
 62
     7
370
    15
100
AcDbLine
 10
2074.173316544509
 20
1204.899729150873
 30
0.0
 11
2085.657218320474
 21
1204.899729150873
 31
0.0
1001
AcDbBlockRepETag
1070
     1
1071
        7
1005
36B
  0
LINE
  5
36C
330
2FE
100
AcDbEntity
  8
0
  6
Continuous
 62
     7
370
    15
100
AcDbLine
 10
2074.173316544509
 20
1199.599729150873
 30
0.0
 11
2074.173316544509
 21
1204.899729150873
 31
0.0
1001
AcDbBlockRepETag
1070
     1
1071
        8
1005
36C
  0
LINE
  5
36D
330
2FE
100
AcDbEntity
  8
0
  6
Continuous
 62
     7
370
    15
100
AcDbLine
 10
2070.657218320473
 20
1199.599729150873
 30
0.0
 11
2074.173316544509
 21
1199.599729150873
 31
0.0
1001
AcDbBlockRepETag
1070
     1
1071
        9
1005
36D
  0
LINE
  5
36E
330
2FE
100
AcDbEntity
  8
0
  6
Continuous
 62
     7
370
    15
100
AcDbLine
 10
2070.657218320473
 20
1199.599729150873
 30
0.0
 11
2070.657218320473
 21
1204.899729150873
 31
0.0
1001
AcDbBlockRepETag
1070
     1
1071
       10
1005
36E
  0
LINE
  5
36F
330
2FE
100
AcDbEntity
  8
0
  6
Continuous
 62
     7
370
    15
100
AcDbLine
 10
2059.173316544509
 20
1204.899729150873
 30
0.0
 11
2070.657218320473
 21
1204.899729150873
 31
0.0
1001
AcDbBlockRepETag
1070
     1
1071
       11
1005
36F
  0
LINE
  5
370
330
2FE
100
AcDbEntity
  8
0
  6
Continuous
 62
     7
370
    15
100
AcDbLine
 10
2059.17331654451
 20
1199.599729150873
 30
0.0
 11
2059.173316544509
 21
1204.899729150873
 31
0.0
1001
AcDbBlockRepETag
1070
     1
1071
       12
1005
370
  0
LINE
  5
371
330
2FE
100
AcDbEntity
  8
0
  6
Continuous
 62
     7
370
    15
100
AcDbLine
 10
2057.415267432491
 20
1199.599729150873
 30
0.0
 11
2059.173316544509
 21
1199.599729150873
 31
0.0
1001
AcDbBlockRepETag
1070
     1
1071
       13
1005
371
  0
LINE
  5
372
330
2FE
100
AcDbEntity
  8
0
  6
Continuous
 62
     7
370
    15
100
AcDbLine
 10
2057.415267432491
 20
1199.599729150873
 30
0.0
 11
2057.415267432491
 21
1204.899729150873
 31
0.0
1001
AcDbBlockRepETag
1070
     1
1071
       14
1005
372
  0
LINE
  5
373
330
2FE
100
AcDbEntity
  8
0
  6
Continuous
 62
     7
370
    15
100
AcDbLine
 10
2056.015267432492
 20
1205.599729150873
 30
0.0
 11
2088.815267432492
 21
1205.599729150873
 31
0.0
1001
AcDbBlockRepETag
1070
     1
1071
       15
1005
373
  0
LINE
  5
374
330
2FE
100
AcDbEntity
  8
0
  6
Continuous
 62
     7
370
    15
100
AcDbLine
 10
2059.173316544509
 20
1199.599729150873
 30
0.0
 11
2070.657218320473
 21
1199.599729150873
 31
0.0
1001
AcDbBlockRepETag
1070
     1
1071
       16
1005
374
  0
LINE
  5
375
330
2FE
100
AcDbEntity
  8
0
  6
Continuous
 62
     7
370
    15
100
AcDbLine
 10
2074.173316544509
 20
1199.599729150873
 30
0.0
 11
2085.657218320474
 21
1199.599729150873
 31
0.0
1001
AcDbBlockRepETag
1070
     1
1071
       17
1005
375
  0
ENDBLK
  5
300
330
2FE
100
AcDbEntity
  8
0
100
AcDbBlockEnd
  0
BLOCK
  5
315
330
314
100
AcDbEntity
  8
0
100
AcDbBlockBegin
  2
4
 70
     0
 10
0.0
 20
0.0
 30
0.0
  3
4
  1

  0
LINE
  5
317
330
314
100
AcDbEntity
  8
0
  6
Continuous
 62
     7
370
    15
100
AcDbLine
 10
2140.391075686174
 20
1233.004552428137
 30
0.0
 11
2140.357389774646
 21
1233.545674905104
 31
0.0
  0
LINE
  5
318
330
314
100
AcDbEntity
  8
0
  6
Continuous
 62
     7
370
    15
100
AcDbLine
 10
2107.620760587486
 20
1231.507756981731
 30
0.0
 11
2107.654446499015
 21
1230.966634504764
 31
0.0
  0
LINE
  5
319
330
314
100
AcDbEntity
  8
0
  6
Continuous
 62
     7
370
    15
100
AcDbLine
 10
2113.269659633345
 20
1236.309264220572
 30
0.0
 11
2113.297118146452
 21
1236.460339865964
 31
0.0
  0
SPLINE
  5
31A
330
314
100
AcDbEntity
  8
0
  6
Continuous
 62
     7
370
    15
100
AcDbSpline
210
0.0
220
0.0
230
1.0
 70
     8
 71
     3
 72
    19
 73
    15
 74
     0
 42
0.0000000001
 43
0.0000000001
 40
0.0
 40
0.0
 40
0.0
 40
0.0
 40
0.0836797645552179
 40
0.1740779649438928
 40
0.2589710537438185
 40
0.33671638860802
 40
0.4091148502315967
 40
0.4911489192417001
 40
0.5609352624325123
 40
0.6375567305355849
 40
0.7207170669728786
 40
0.8106756253805638
 40
0.9089468690397064
 40
1.0
 40
1.0
 40
1.0
 40
1.0
 10
2113.319890666358
 20
1236.55691695548
 30
0.0
 10
2113.359626546432
 20
1236.68987422012
 30
0.0
 10
2113.442288599502
 20
1236.966463550601
 30
0.0
 10
2113.622682528689
 20
1237.373899956554
 30
0.0
 10
2113.836819739149
 20
1237.766739546851
 30
0.0
 10
2114.072106007886
 20
1238.125529519549
 30
0.0
 10
2114.336183507747
 20
1238.47348799545
 30
0.0
 10
2114.621851317027
 20
1238.801398562711
 30
0.0
 10
2114.942325203815
 20
1239.125946704088
 30
0.0
 10
2115.292072888357
 20
1239.441857438021
 30
0.0
 10
2115.703841532244
 20
1239.772337214589
 30
0.0
 10
2116.187386506048
 20
1240.113538247068
 30
0.0
 10
2116.718900811441
 20
1240.445544427329
 30
0.0
 10
2117.110608852056
 20
1240.648391320108
 30
0.0
 10
2117.298995812753
 20
1240.745947932827
 30
0.0
  0
SPLINE
  5
31B
330
314
100
AcDbEntity
  8
0
  6
Continuous
 62
     7
370
    15
100
AcDbSpline
210
0.0
220
0.0
230
1.0
 70
     8
 71
     3
 72
    24
 73
    20
 74
     0
 42
0.0000000001
 43
0.0000000001
 40
0.0
 40
0.0
 40
0.0
 40
0.0
 40
0.0261998352379411
 40
0.0719105503525472
 40
0.12019680540543
 40
0.1704354789775845
 40
0.2225179176420097
 40
0.2851073236727885
 40
0.3446539191131789
 40
0.3997039266838255
 40
0.4502007455941029
 40
0.498316626700473
 40
0.5522187562361545
 40
0.6125566727172456
 40
0.6791429016069973
 40
0.7517232660464626
 40
0.8301703570880295
 40
0.9158817087795277
 40
1.0
 40
1.0
 40
1.0
 40
1.0
 10
2113.246601776917
 20
1234.641296631415
 30
0.0
 10
2113.249672872221
 20
1234.689515535532
 30
0.0
 10
2113.258102091392
 20
1234.821861708742
 30
0.0
 10
2113.289626793803
 20
1235.042994492125
 30
0.0
 10
2113.34202899723
 20
1235.307808983306
 30
0.0
 10
2113.416480804136
 20
1235.584105926959
 30
0.0
 10
2113.519308918933
 20
1235.885567959104
 30
0.0
 10
2113.653383796863
 20
1236.202028680499
 30
0.0
 10
2113.816878505891
 20
1236.52054923258
 30
0.0
 10
2113.992712701385
 20
1236.81373584349
 30
0.0
 10
2114.176276119124
 20
1237.082991129364
 30
0.0
 10
2114.37674474175
 20
1237.346474866985
 30
0.0
 10
2114.609605232277
 20
1237.621806665403
 30
0.0
 10
2114.892604604766
 20
1237.921286920824
 30
0.0
 10
2115.232941458747
 20
1238.241822451115
 30
0.0
 10
2115.636252895058
 20
1238.578528525477
 30
0.0
 10
2116.112063591981
 20
1238.92736093813
 30
0.0
 10
2116.646938104091
 20
1239.273811002747
 30
0.0
 10
2117.046452763051
 20
1239.487960375095
 30
0.0
 10
2117.244336300064
 20
1239.59403066388
 30
0.0
  0
SPLINE
  5
31C
330
314
100
AcDbEntity
  8
0
  6
Continuous
 62
     7
370
    15
100
AcDbSpline
210
0.0
220
0.0
230
1.0
 70
     8
 71
     3
 72
    23
 73
    19
 74
     0
 42
0.0000000001
 43
0.0000000001
 40
0.0
 40
0.0
 40
0.0
 40
0.0
 40
0.0187851682179864
 40
0.0815669968746033
 40
0.1432986249121638
 40
0.1979645631737552
 40
0.2421819821630449
 40
0.2758955915723134
 40
0.3063206322058268
 40
0.3455203174539603
 40
0.3936498624281498
 40
0.450643540954017
 40
0.5163858227479425
 40
0.5906937374107504
 40
0.686100173401689
 40
0.7797171672425197
 40
0.8702913976475642
 40
1.0
 40
1.0
 40
1.0
 40
1.0
 10
2113.385559692619
 20
1234.079357440786
 30
0.0
 10
2113.390897205114
 20
1234.109711121145
 30
0.0
 10
2113.414073194803
 20
1234.24150970406
 30
0.0
 10
2113.478293477953
 20
1234.47219841949
 30
0.0
 10
2113.574066248208
 20
1234.759238984181
 30
0.0
 10
2113.679529635219
 20
1235.014859732477
 30
0.0
 10
2113.778998302343
 20
1235.22460391956
 30
0.0
 10
2113.868574165225
 20
1235.395151680594
 30
0.0
 10
2113.960668396893
 20
1235.55741947279
 30
0.0
 10
2114.073494308456
 20
1235.74109150331
 30
0.0
 10
2114.223682799822
 20
1235.96393491204
 30
0.0
 10
2114.418125062596
 20
1236.223965492224
 30
0.0
 10
2114.66425283697
 20
1236.51803872744
 30
0.0
 10
2114.987453619864
 20
1236.860481662518
 30
0.0
 10
2115.386810428188
 20
1237.230096993516
 30
0.0
 10
2115.854441585952
 20
1237.603893840196
 30
0.0
 10
2116.420379046386
 20
1238.003879404614
 30
0.0
 10
2116.863142915939
 20
1238.25649154867
 30
0.0
 10
2117.123854483759
 20
1238.405236540427
 30
0.0
  0
SPLINE
  5
31D
330
314
100
AcDbEntity
  8
0
  6
Continuous
 62
     7
370
    15
100
AcDbSpline
210
0.0
220
0.0
230
1.0
 70
     8
 71
     3
 72
    16
 73
    12
 74
     0
 42
0.0000000001
 43
0.0000000001
 40
0.0
 40
0.0
 40
0.0
 40
0.0
 40
0.0608967719687759
 40
0.1354788184432201
 40
0.2304226987688788
 40
0.3456590464080984
 40
0.4809382820419904
 40
0.5952638730578759
 40
0.7202326884313321
 40
0.8553584205480813
 40
1.0
 40
1.0
 40
1.0
 40
1.0
 10
2113.592944048821
 20
1233.520068067341
 30
0.0
 10
2113.616350576286
 20
1233.587171707831
 30
0.0
 10
2113.668423758204
 20
1233.736459127063
 30
0.0
 10
2113.775622387471
 20
1233.989336163968
 30
0.0
 10
2113.928984266121
 20
1234.299750234421
 30
0.0
 10
2114.148468368306
 20
1234.671243149774
 30
0.0
 10
2114.420651592856
 20
1235.055403793831
 30
0.0
 10
2114.740008098277
 20
1235.439459802822
 30
0.0
 10
2115.097140288208
 20
1235.811591433507
 30
0.0
 10
2115.522324603553
 20
1236.200044956365
 30
0.0
 10
2115.853729987345
 20
1236.451871386539
 30
0.0
 10
2116.025068797021
 20
1236.582067342613
 30
0.0
  0
SPLINE
  5
31E
330
314
100
AcDbEntity
  8
0
  6
Continuous
 62
     7
370
    15
100
AcDbSpline
210
0.0
220
0.0
230
1.0
 70
     8
 71
     3
 72
    23
 73
    19
 74
     0
 42
0.0000000001
 43
0.0000000001
 40
0.0
 40
0.0
 40
0.0
 40
0.0
 40
0.127254917774219
 40
0.2145708894097182
 40
0.3046181763902778
 40
0.3966102700484799
 40
0.4687116348881843
 40
0.5324451257374864
 40
0.5876351967926285
 40
0.6341736450874659
 40
0.6720014727251106
 40
0.7013824687134016
 40
0.7347411257505018
 40
0.778658268833095
 40
0.8330651756366144
 40
0.8945426842978431
 40
0.9589982392486488
 40
1.0
 40
1.0
 40
1.0
 40
1.0
 10
2129.73328222576
 20
1239.128479551562
 30
0.0
 10
2130.028342271944
 20
1239.005217006516
 30
0.0
 10
2130.52585779155
 20
1238.797377856691
 30
0.0
 10
2131.172987984706
 20
1238.452522756897
 30
0.0
 10
2131.711438154153
 20
1238.123752421518
 30
0.0
 10
2132.181048691124
 20
1237.78897021234
 30
0.0
 10
2132.569595288503
 20
1237.471182283173
 30
0.0
 10
2132.871734240909
 20
1237.193159535306
 30
0.0
 10
2133.114880467737
 20
1236.944226340164
 30
0.0
 10
2133.306167921954
 20
1236.728827501826
 30
0.0
 10
2133.452511681461
 20
1236.549889595342
 30
0.0
 10
2133.575005042803
 20
1236.389509272372
 30
0.0
 10
2133.697701449063
 20
1236.217843303085
 30
0.0
 10
2133.838524788504
 20
1236.003124437635
 30
0.0
 10
2133.993273579122
 20
1235.7384660978
 30
0.0
 10
2134.144915566866
 20
1235.434465102607
 30
0.0
 10
2134.266891032512
 20
1235.149005722322
 30
0.0
 10
2134.32457612136
 20
1234.965462980438
 30
0.0
 10
2134.347004060058
 20
1234.894101638266
 30
0.0
  0
SPLINE
  5
31F
330
314
100
AcDbEntity
  8
0
  6
Continuous
 62
     7
370
    15
100
AcDbSpline
210
0.0
220
0.0
230
1.0
 70
     8
 71
     3
 72
    27
 73
    23
 74
     0
 42
0.0000000001
 43
0.0000000001
 40
0.0
 40
0.0
 40
0.0
 40
0.0
 40
0.096241612040415
 40
0.2084152536430737
 40
0.26557841124126
 40
0.3243122924183328
 40
0.3846362945808298
 40
0.442639656590862
 40
0.4949624694167869
 40
0.5414689803959753
 40
0.5820678561043037
 40
0.6167024560702911
 40
0.6453417426930962
 40
0.667992611252465
 40
0.6916810334901257
 40
0.7220443968726164
 40
0.7648741976781052
 40
0.8152429909739193
 40
0.8698139062943036
 40
0.9282274676064801
 40
0.9903165722460881
 40
1.0
 40
1.0
 40
1.0
 40
1.0
 10
2129.049588759697
 20
1240.437580313781
 30
0.0
 10
2129.327677043949
 20
1240.340413236909
 30
0.0
 10
2129.929888905003
 20
1240.129993850297
 30
0.0
 10
2130.632499860189
 20
1239.7972909579
 30
0.0
 10
2131.199676164701
 20
1239.485750832309
 30
0.0
 10
2131.615277849475
 20
1239.228651004462
 30
0.0
 10
2132.008811906402
 20
1238.955112552074
 30
0.0
 10
2132.363696531876
 20
1238.677526111211
 30
0.0
 10
2132.668027467045
 20
1238.411270574419
 30
0.0
 10
2132.920563333666
 20
1238.166248604586
 30
0.0
 10
2133.126773951343
 20
1237.946339580367
 30
0.0
 10
2133.291926068463
 20
1237.75460068282
 30
0.0
 10
2133.420852491003
 20
1237.593362992449
 30
0.0
 10
2133.527813215549
 20
1237.450945738437
 30
0.0
 10
2133.631824993411
 20
1237.304080919991
 30
0.0
 10
2133.755417590339
 20
1237.116675335809
 30
0.0
 10
2133.899769993941
 20
1236.874321509815
 30
0.0
 10
2134.051874238909
 20
1236.579704727962
 30
0.0
 10
2134.195269035426
 20
1236.248564192616
 30
0.0
 10
2134.316065814704
 20
1235.888025673733
 30
0.0
 10
2134.390730028311
 20
1235.617287716659
 30
0.0
 10
2134.413592428174
 20
1235.466211104251
 30
0.0
 10
2134.416676984201
 20
1235.445828105173
 30
0.0
  0
SPLINE
  5
320
330
314
100
AcDbEntity
  8
0
  6
Continuous
 62
     7
370
    15
100
AcDbSpline
210
0.0
220
0.0
230
1.0
 70
     8
 71
     3
 72
    42
 73
    38
 74
     0
 42
0.0000000001
 43
0.0000000001
 40
0.0
 40
0.0
 40
0.0
 40
0.0
 40
0.0255712047410046
 40
0.0819736396802898
 40
0.1398259318147947
 40
0.1791588011277642
 40
0.2198227638250908
 40
0.2614478578892529
 40
0.2942182771931604
 40
0.3232183635395357
 40
0.3483720662924277
 40
0.3696334147914102
 40
0.3869783116949221
 40
0.4004335821890756
 40
0.4146374698868999
 40
0.4328120242154605
 40
0.4549315577396417
 40
0.4804942772750306
 40
0.5086880426247268
 40
0.5394275900302967
 40
0.5726155597037426
 40
0.605617845006019
 40
0.6339450930417675
 40
0.6577315957387205
 40
0.6791929008663045
 40
0.7019802306570046
 40
0.7260817618582647
 40
0.7511777521800287
 40
0.7772089542276439
 40
0.8084492948441312
 40
0.8380492322116305
 40
0.8653557756886442
 40
0.8903412993127162
 40
0.9144947534728141
 40
0.941612170511577
 40
0.9718141820531778
 40
1.0
 40
1.0
 40
1.0
 40
1.0
 10
2128.382029873481
 20
1241.710845719492
 30
0.0
 10
2128.525875340568
 20
1241.670786534134
 30
0.0
 10
2128.987000915531
 20
1241.542368758765
 30
0.0
 10
2129.729514614592
 20
1241.26790618265
 30
0.0
 10
2130.497785344211
 20
1240.922709462051
 30
0.0
 10
2131.138918829884
 20
1240.574402860941
 30
0.0
 10
2131.668345706351
 20
1240.241513640097
 30
0.0
 10
2132.13097892927
 20
1239.902941821448
 30
0.0
 10
2132.513693455413
 20
1239.581094039877
 30
0.0
 10
2132.811389064389
 20
1239.299075127072
 30
0.0
 10
2133.050719627314
 20
1239.046341487919
 30
0.0
 10
2133.238937109085
 20
1238.827265658883
 30
0.0
 10
2133.382778524326
 20
1238.64503086988
 30
0.0
 10
2133.50018440953
 20
1238.485391509961
 30
0.0
 10
2133.613065160049
 20
1238.321397324783
 30
0.0
 10
2133.738219365817
 20
1238.124208928218
 30
0.0
 10
2133.875885737008
 20
1237.882668899379
 30
0.0
 10
2134.015961936039
 20
1237.600157898436
 30
0.0
 10
2134.14853434539
 20
1237.280622281681
 30
0.0
 10
2134.264704807552
 20
1236.927303308533
 30
0.0
 10
2134.354251040559
 20
1236.550930931427
 30
0.0
 10
2134.408300585481
 20
1236.18055285505
 30
0.0
 10
2134.429116581541
 20
1235.84498910005
 30
0.0
 10
2134.426630781808
 20
1235.553757820208
 30
0.0
 10
2134.407892973547
 20
1235.284070184759
 30
0.0
 10
2134.372956793288
 20
1235.013144424142
 30
0.0
 10
2134.31826628804
 20
1234.728262342689
 30
0.0
 10
2134.241390368107
 20
1234.430876493453
 30
0.0
 10
2134.134860664512
 20
1234.106488184955
 30
0.0
 10
2133.996252338347
 20
1233.766630811186
 30
0.0
 10
2133.827626325087
 20
1233.425342186935
 30
0.0
 10
2133.646938892469
 20
1233.112119379333
 30
0.0
 10
2133.457859117848
 20
1232.823637729041
 30
0.0
 10
2133.250530960382
 20
1232.539955597017
 30
0.0
 10
2133.008109220162
 20
1232.242797179156
 30
0.0
 10
2132.73290095149
 20
1231.937355759016
 30
0.0
 10
2132.523307930306
 20
1231.73709497838
 30
0.0
 10
2132.422130154222
 20
1231.640422196495
 30
0.0
  0
ARC
  5
321
330
314
100
AcDbEntity
  8
0
  6
Continuous
 62
     7
370
    15
100
AcDbCircle
 10
2120.697919683898
 20
1237.716303442013
 30
0.0
 40
15.36350148531666
100
AcDbArc
 50
221.0065557525881
 51
263.7587725458541
  0
LINE
  5
322
330
314
100
AcDbEntity
  8
0
  6
Continuous
 62
     7
370
    15
100
AcDbLine
 10
2118.820753889239
 20
1225.767899577203
 30
0.0
 11
2119.027681631488
 21
1222.443861504405
 31
0.0
  0
ARC
  5
323
330
314
100
AcDbEntity
  8
0
  6
Continuous
 62
     7
370
    15
100
AcDbCircle
 10
2122.773785598982
 20
1250.023257676053
 30
0.0
 40
24.57537092704221
100
AcDbArc
 50
260.7435665470259
 51
268.8080268919589
  0
LINE
  5
324
330
314
100
AcDbEntity
  8
0
  6
Continuous
 62
     7
370
    15
100
AcDbLine
 10
2122.262560015823
 20
1225.453204672349
 30
0.0
 11
2122.469487758071
 21
1222.129166599552
 31
0.0
  0
ARC
  5
325
330
314
100
AcDbEntity
  8
0
  6
Continuous
 62
     7
370
    15
100
AcDbCircle
 10
2123.299768106505
 20
1245.519137939737
 30
0.0
 40
23.40470304771473
100
AcDbArc
 50
267.9670093125571
 51
300.0743479389688
  0
LINE
  5
326
330
314
100
AcDbEntity
  8
0
  6
Continuous
 62
     7
370
    15
100
AcDbLine
 10
2134.82148350128
 20
1228.589310827932
 30
0.0
 11
2135.028411243529
 21
1225.265272755135
 31
0.0
  0
ARC
  5
327
330
314
100
AcDbEntity
  8
0
  6
Continuous
 62
     7
370
    15
100
AcDbCircle
 10
2127.14890521223
 20
1241.177462362698
 30
0.0
 40
14.74211710250001
100
AcDbArc
 50
301.3626391826891
 51
312.705973233377
  0
LINE
  5
328
330
314
100
AcDbEntity
  8
0
  6
Continuous
 62
     7
370
    15
100
AcDbLine
 10
2137.14754391838
 20
1230.344307665764
 30
0.0
 11
2137.354471660628
 21
1227.020269592966
 31
0.0
  0
ARC
  5
329
330
314
100
AcDbEntity
  8
0
  6
Continuous
 62
     7
370
    15
100
AcDbCircle
 10
2132.503076761541
 20
1233.136385000777
 30
0.0
 40
7.806593376662924
100
AcDbArc
 50
308.4219810293421
 51
16.45828588596468
  0
LINE
  5
32A
330
314
100
AcDbEntity
  8
0
  6
Continuous
 62
     7
370
    15
100
AcDbLine
 10
2139.782877050858
 20
1238.672165266945
 30
0.0
 11
2139.989804793106
 21
1235.348127194147
 31
0.0
  0
ARC
  5
32B
330
314
100
AcDbEntity
  8
0
  6
Continuous
 62
     7
370
    15
100
AcDbCircle
 10
2132.458097531097
 20
1236.059053849645
 30
0.0
 40
7.776936819360528
100
AcDbArc
 50
19.63383328104746
 51
37.02330354709302
  0
ARC
  5
32C
330
314
100
AcDbEntity
  8
0
  6
Continuous
 62
     7
370
    15
100
AcDbCircle
 10
2124.790509278652
 20
1221.678250356367
 30
0.0
 40
24.57537092705181
100
AcDbArc
 50
80.74356654702587
 51
88.80802689195888
  0
ARC
  5
32D
330
314
100
AcDbEntity
  8
0
  6
Continuous
 62
     7
370
    15
100
AcDbCircle
 10
2120.415389665406
 20
1230.524045669728
 30
0.0
 40
14.7421171025049
100
AcDbArc
 50
121.3626391826891
 51
132.705973233377
  0
ARC
  5
32E
330
314
100
AcDbEntity
  8
0
  6
Continuous
 62
     7
370
    15
100
AcDbCircle
 10
2114.530517710877
 20
1231.946818234132
 30
0.0
 40
6.915518728924779
100
AcDbArc
 50
150.3136244273259
 51
198.9127560216681
  0
LINE
  5
32F
330
314
100
AcDbEntity
  8
0
  6
Continuous
 62
     7
370
    15
100
AcDbLine
 10
2107.781417826776
 20
1233.029342765485
 30
0.0
 11
2107.988345569025
 21
1229.705304692688
 31
0.0
  0
ARC
  5
330
330
314
100
AcDbEntity
  8
0
  6
Continuous
 62
     7
370
    15
100
AcDbCircle
 10
2115.106197346536
 20
1235.642454182785
 30
0.0
 40
7.776936819359346
100
AcDbArc
 50
199.6338332810474
 51
217.0233035471034
  0
LINE
  5
331
330
314
100
AcDbEntity
  8
0
  6
Continuous
 62
     7
370
    15
100
AcDbLine
 10
2108.89716353626
 20
1230.9596510228
 30
0.0
 11
2109.104091278508
 21
1227.635612950003
 31
0.0
  0
LWPOLYLINE
  5
332
330
314
100
AcDbEntity
  8
0
  6
Continuous
 62
     7
370
    15
100
AcDbPolyline
 90
       55
 70
   128
 43
0.0
 10
2136.295848825795
 20
1225.564649159569
 10
2135.803933059691
 20
1225.208850099049
 10
2135.288955096218
 20
1224.866316831906
 10
2134.751923028921
 20
1224.537719883098
 10
2134.193888123292
 20
1224.223702496581
 10
2133.615942758864
 20
1223.924879376137
 10
2133.019218290828
 20
1223.641835482055
 10
2132.404882835352
 20
1223.375124886052
 10
2131.77413898294
 20
1223.125269686643
 10
2131.128221444302
 20
1222.892758987115
 10
2130.468394633354
 20
1222.678047938079
 10
2129.795950192061
 20
1222.481556846498
 10
2129.112204461998
 20
1222.303670352911
 10
2128.418495907538
 20
1222.144736678482
 10
2127.716182495754
 20
1222.005066943342
 10
2127.00663903813
 20
1221.884934557558
 10
2126.291254499304
 20
1221.784574685915
 10
2125.571429278107
 20
1221.704183787576
 10
2124.84857246621
 20
1221.643919231499
 10
2124.124099089769
 20
1221.603898988382
 10
2123.399427339441
 20
1221.584201399731
 10
2122.675975794206
 20
1221.5848650245
 10
2121.955160644438
 20
1221.605888563613
 10
2121.238392919641
 20
1221.647230862505
 10
2120.527075726298
 20
1221.708810991684
 10
2119.822601501216
 20
1221.790508405156
 10
2119.126349285774
 20
1221.892163176397
 10
2118.43968202638
 20
1222.013576311419
 10
2117.763943906439
 20
1222.154510138309
 10
2117.100457715055
 20
1222.314688772481
 10
2116.450522257604
 20
1222.493798656738
 10
2115.815409813265
 20
1222.69148917507
 10
2115.196363644473
 20
1222.907373339004
 10
2114.594595563175
 20
1223.141028545152
 10
2114.011283558646
 20
1223.391997402474
 10
2113.447569491531
 20
1223.659788627647
 10
2112.904556858586
 20
1223.943878006772
 10
2112.38330863254
 20
1224.243709421549
 10
2111.884845181274
 20
1224.558695937903
 10
2111.410142270402
 20
1224.888220954936
 10
2110.960129153164
 20
1225.231639411954
 10
2110.535686751369
 20
1225.5882790512
 10
2110.13764593095
 20
1225.957441733832
 10
2109.766785875506
 20
1226.338404806563
 10
2109.423832561011
 20
1226.730422516287
 10
2109.109457334684
 20
1227.13272746993
 10
2108.824275600791
 20
1227.544532136652
 10
2108.568845615971
 20
1227.965030389479
 10
2108.343667396412
 20
1228.393399083336
 10
2108.149181739055
 20
1228.828799666386
 10
2107.985769358707
 20
1229.270379821544
 10
2107.853750142775
 20
1229.717275134918
 10
2107.753382525076
 20
1230.168610787947
 10
2107.684862979934
 20
1230.623503269894
 10
2107.654446499015
 20
1230.966634504764
  0
ARC
  5
333
330
314
100
AcDbEntity
  8
0
  6
Continuous
 62
     7
370
    15
100
AcDbCircle
 10
2131.504227922903
 20
1233.049194920176
 30
0.0
 40
8.886959891867123
100
AcDbArc
 50
302.6274515556131
 51
359.7121808616766
  0
LINE
  5
334
330
314
100
AcDbEntity
  8
0
  6
Continuous
 62
     7
370
    15
100
AcDbLine
 10
2139.782877050858
 20
1238.672165266945
 30
0.0
 11
2137.14754391838
 21
1230.344307665764
 31
0.0
  0
LINE
  5
335
330
314
100
AcDbEntity
  8
0
  6
Continuous
 62
     7
370
    15
100
AcDbLine
 10
2134.82148350128
 20
1228.589310827932
 30
0.0
 11
2122.262560015823
 21
1225.453204672349
 31
0.0
  0
LINE
  5
336
330
314
100
AcDbEntity
  8
0
  6
Continuous
 62
     7
370
    15
100
AcDbLine
 10
2118.820753889239
 20
1225.767899577203
 30
0.0
 11
2108.89716353626
 21
1230.9596510228
 31
0.0
  0
LINE
  5
337
330
314
100
AcDbEntity
  8
0
  6
Continuous
 62
     7
370
    15
100
AcDbLine
 10
2107.781417826776
 20
1233.029342765485
 30
0.0
 11
2110.416750959254
 21
1241.357200366666
 31
0.0
  0
LINE
  5
338
330
314
100
AcDbEntity
  8
0
  6
Continuous
 62
     7
370
    15
100
AcDbLine
 10
2112.742811376354
 20
1243.112197204497
 30
0.0
 11
2125.301734861812
 21
1246.24830336008
 31
0.0
  0
LINE
  5
339
330
314
100
AcDbEntity
  8
0
  6
Continuous
 62
     7
370
    15
100
AcDbLine
 10
2128.743540988395
 20
1245.933608455227
 30
0.0
 11
2138.667131341374
 21
1240.741857009629
 31
0.0
  0
SPLINE
  5
33A
330
314
100
AcDbEntity
  8
0
  6
Continuous
 62
     7
370
    15
100
AcDbSpline
210
0.0
220
0.0
230
1.0
 70
     8
 71
     3
 72
    42
 73
    38
 74
     0
 42
0.0000000001
 43
0.0000000001
 40
0.0
 40
0.0
 40
0.0
 40
0.0
 40
0.0625000000000001
 40
0.0625000000000001
 40
0.1250000000000003
 40
0.1250000000000003
 40
0.1875000000000004
 40
0.1875000000000004
 40
0.2187500000000003
 40
0.2187500000000003
 40
0.2500000000000003
 40
0.2500000000000003
 40
0.3125000000000003
 40
0.3125000000000003
 40
0.3750000000000004
 40
0.3750000000000004
 40
0.4375000000000006
 40
0.4375000000000006
 40
0.4687500000000006
 40
0.4687500000000006
 40
0.5000000000000006
 40
0.5000000000000006
 40
0.6250000000000005
 40
0.6250000000000005
 40
0.6562500000000005
 40
0.6562500000000005
 40
0.6875000000000005
 40
0.6875000000000005
 40
0.7500000000000004
 40
0.7500000000000004
 40
0.8125000000000001
 40
0.8125000000000001
 40
0.8750000000000001
 40
0.8750000000000001
 40
0.9375000000000001
 40
0.9375000000000001
 40
1.0
 40
1.0
 40
1.0
 40
1.0
 10
2115.23985877644
 20
1239.582149622926
 30
0.0
 10
2115.550026090825
 20
1239.870558767683
 30
0.0
 10
2115.891452724983
 20
1240.143511640745
 30
0.0
 10
2116.63488798264
 20
1240.65946242643
 30
0.0
 10
2117.032116725642
 20
1240.898845476536
 30
0.0
 10
2117.870788317373
 20
1241.338703800672
 30
0.0
 10
2118.313010487161
 20
1241.539717783281
 30
0.0
 10
2119.011469353654
 20
1241.81220806613
 30
0.0
 10
2119.250851169089
 20
1241.898358722742
 30
0.0
 10
2119.733999085433
 20
1242.058193207827
 30
0.0
 10
2119.978545492054
 20
1242.132219893869
 30
0.0
 10
2120.720920798846
 20
1242.336987485673
 30
0.0
 10
2121.227439379838
 20
1242.450507888964
 30
0.0
 10
2122.263862652996
 20
1242.631204003085
 30
0.0
 10
2122.797489984922
 20
1242.698297949256
 30
0.0
 10
2123.856480766885
 20
1242.781602890189
 30
0.0
 10
2124.384799588324
 20
1242.798895712989
 30
0.0
 10
2125.175530901031
 20
1242.788666798334
 30
0.0
 10
2125.438815725345
 20
1242.779205808586
 30
0.0
 10
2125.964789951845
 20
1242.747956233723
 30
0.0
 10
2126.228517657794
 20
1242.726033921844
 30
0.0
 10
2127.528089622188
 20
1242.586632232412
 30
0.0
 10
2128.513107903263
 20
1242.382222253063
 30
0.0
 10
2129.675822653553
 20
1242.010158705822
 30
0.0
 10
2129.904386334375
 20
1241.929890262745
 30
0.0
 10
2130.347178491213
 20
1241.76007615124
 30
0.0
 10
2130.562337066873
 20
1241.670244264397
 30
0.0
 10
2131.189416369042
 20
1241.386223674843
 30
0.0
 10
2131.583065623926
 20
1241.177608700112
 30
0.0
 10
2132.322104067554
 20
1240.722274931966
 30
0.0
 10
2132.668561992397
 20
1240.473871707707
 30
0.0
 10
2133.291251670636
 20
1239.953101176286
 30
0.0
 10
2133.570320562796
 20
1239.679323494822
 30
0.0
 10
2134.064448004842
 20
1239.105208009052
 30
0.0
 10
2134.280351997798
 20
1238.803347891543
 30
0.0
 10
2134.640741820229
 20
1238.178908421501
 30
0.0
 10
2134.784399385858
 20
1237.858523736775
 30
0.0
 10
2134.891315245636
 20
1237.52992843424
 30
0.0
  0
SPLINE
  5
33B
330
314
100
AcDbEntity
  8
0
  6
Continuous
 62
     7
370
    15
100
AcDbSpline
210
0.0
220
0.0
230
1.0
 70
     8
 71
     3
 72
    18
 73
    14
 74
     0
 42
0.0000000001
 43
0.0000000001
 40
0.0
 40
0.0
 40
0.0
 40
0.0
 40
0.25
 40
0.25
 40
0.3749999999999999
 40
0.3749999999999999
 40
0.5
 40
0.5
 40
0.75
 40
0.75
 40
0.875
 40
0.875
 40
1.0
 40
1.0
 40
1.0
 40
1.0
 10
2113.902997262441
 20
1232.932370930243
 30
0.0
 10
2113.578882737775
 20
1233.46456719194
 30
0.0
 10
2113.355145280086
 20
1234.025589951264
 30
0.0
 10
2113.191796664519
 20
1234.875042206861
 30
0.0
 10
2113.165056550167
 20
1235.160324404403
 30
0.0
 10
2113.167857898918
 20
1235.735218053106
 30
0.0
 10
2113.197656432119
 20
1236.026357720396
 30
0.0
 10
2113.372909768313
 20
1236.89588319911
 30
0.0
 10
2113.599571241369
 20
1237.459798610595
 30
0.0
 10
2114.099436573903
 20
1238.282717965802
 30
0.0
 10
2114.29423332626
 20
1238.554430164718
 30
0.0
 10
2114.731483100829
 20
1239.080269469904
 30
0.0
 10
2114.974158035655
 20
1239.335087731302
 30
0.0
 10
2115.239858776441
 20
1239.582149622924
 30
0.0
  0
SPLINE
  5
33C
330
314
100
AcDbEntity
  8
0
  6
Continuous
 62
     7
370
    15
100
AcDbSpline
210
0.0
220
0.0
230
1.0
 70
     8
 71
     3
 72
    40
 73
    36
 74
     0
 42
0.0000000001
 43
0.0000000001
 40
0.0
 40
0.0
 40
0.0
 40
0.0
 40
0.0625
 40
0.0625
 40
0.125
 40
0.125
 40
0.1875
 40
0.1875
 40
0.21875
 40
0.21875
 40
0.25
 40
0.25
 40
0.3125
 40
0.3125
 40
0.3750000000000001
 40
0.3750000000000001
 40
0.4375000000000002
 40
0.4375000000000002
 40
0.5000000000000002
 40
0.5000000000000002
 40
0.6250000000000002
 40
0.6250000000000002
 40
0.6562500000000002
 40
0.6562500000000002
 40
0.6875000000000002
 40
0.6875000000000002
 40
0.7500000000000002
 40
0.7500000000000002
 40
0.8125000000000001
 40
0.8125000000000001
 40
0.875
 40
0.875
 40
0.9375
 40
0.9375
 40
1.0
 40
1.0
 40
1.0
 40
1.0
 10
2134.03310739221
 20
1233.238201548918
 30
0.0
 10
2133.797185371426
 20
1232.924406921046
 30
0.0
 10
2133.528513536044
 20
1232.621594682016
 30
0.0
 10
2132.925797859499
 20
1232.037892184148
 30
0.0
 10
2132.595367490074
 20
1231.760660046755
 30
0.0
 10
2131.881987767901
 20
1231.237630771607
 30
0.0
 10
2131.498077006889
 20
1230.991511177008
 30
0.0
 10
2130.880244293182
 20
1230.646066385514
 30
0.0
 10
2130.666729122097
 20
1230.5346605986
 30
0.0
 10
2130.2320490927
 20
1230.323181139493
 30
0.0
 10
2130.010203073922
 20
1230.22268826883
 30
0.0
 10
2129.331421442508
 20
1229.936630674752
 30
0.0
 10
2128.861308595887
 20
1229.766409720682
 30
0.0
 10
2127.885714496429
 20
1229.467151316435
 30
0.0
 10
2127.37601075843
 20
1229.337433256633
 30
0.0
 10
2126.34796199088
 20
1229.127219180349
 30
0.0
 10
2125.828359123139
 20
1229.045878965887
 30
0.0
 10
2124.778186686097
 20
1228.929921564927
 30
0.0
 10
2124.246477759086
 20
1228.895142796646
 30
0.0
 10
2122.641045981439
 20
1228.865927314764
 30
0.0
 10
2121.601074888078
 20
1228.945028475784
 30
0.0
 10
2120.338392920949
 20
1229.165130969755
 30
0.0
 10
2120.086768477028
 20
1229.21558738574
 30
0.0
 10
2119.594443950738
 20
1229.327628872633
 30
0.0
 10
2119.353320061717
 20
1229.389228529478
 30
0.0
 10
2118.644725444842
 20
1229.59038989813
 30
0.0
 10
2118.191955109243
 20
1229.746229125917
 30
0.0
 10
2117.325782289861
 20
1230.10149899224
 30
0.0
 10
2116.909284110584
 20
1230.302823145531
 30
0.0
 10
2116.139904911211
 20
1230.739302345585
 30
0.0
 10
2115.785690283902
 20
1230.974817860137
 30
0.0
 10
2115.137165036812
 20
1231.479807788398
 30
0.0
 10
2114.842110402475
 20
1231.750091534695
 30
0.0
 10
2114.318079099311
 20
1232.322837768963
 30
0.0
 10
2114.0923452134
 20
1232.621461470804
 30
0.0
 10
2113.902997262441
 20
1232.932370930243
 30
0.0
  0
ARC
  5
33D
330
314
100
AcDbEntity
  8
0
  6
Continuous
 62
     7
370
    15
100
AcDbCircle
 10
2130.056066281166
 20
1236.265152809088
 30
0.0
 40
4.997928563953579
100
AcDbArc
 50
322.7250065081229
 51
14.65865929607554
  0
LINE
  5
33E
330
314
100
AcDbEntity
  8
0
  6
Continuous
 62
     7
370
    15
100
AcDbLine
 10
2122.469487758071
 20
1222.129166599552
 30
0.0
 11
2135.028411243529
 21
1225.265272755135
 31
0.0
  0
SPLINE
  5
33F
330
314
100
AcDbEntity
  8
0
  6
Continuous
 62
     7
370
    15
100
AcDbSpline
210
0.0
220
0.0
230
1.0
 70
     8
 71
     3
 72
    12
 73
     8
 74
     0
 42
0.0000000001
 43
0.0000000001
 40
0.0
 40
0.0
 40
0.0
 40
0.0
 40
0.0799594805766287
 40
0.3219087273536655
 40
0.5652131762319755
 40
0.8086859967991918
 40
1.0
 40
1.0
 40
1.0
 40
1.0
 10
2129.742624622654
 20
1239.115323987762
 30
0.0
 10
2129.647113002644
 20
1239.155192758981
 30
0.0
 10
2129.262592945445
 20
1239.315700372487
 30
0.0
 10
2128.531290919516
 20
1239.539769738317
 30
0.0
 10
2127.557828906746
 20
1239.780009152018
 30
0.0
 10
2126.61730887326
 20
1239.947682171665
 30
0.0
 10
2125.997082822857
 20
1240.005785375388
 30
0.0
 10
2125.724172232873
 20
1240.031351827488
 30
0.0
  0
SPLINE
  5
340
330
314
100
AcDbEntity
  8
0
  6
Continuous
 62
     7
370
    15
100
AcDbSpline
210
0.0
220
0.0
230
1.0
 70
     8
 71
     3
 72
    12
 73
     8
 74
     0
 42
0.0000000001
 43
0.0000000001
 40
0.0
 40
0.0
 40
0.0
 40
0.0
 40
0.103985395258209
 40
0.3539038846743381
 40
0.6040219377325835
 40
0.8531150474280385
 40
1.0
 40
1.0
 40
1.0
 40
1.0
 10
2120.809695765186
 20
1239.723420711214
 30
0.0
 10
2120.668596478427
 20
1239.695142856639
 30
0.0
 10
2120.188379178829
 20
1239.598902008977
 30
0.0
 10
2119.40250520614
 20
1239.370509296013
 30
0.0
 10
2118.468466518241
 20
1239.040552571922
 30
0.0
 10
2117.701165957639
 20
1238.712169002654
 30
0.0
 10
2117.273877302937
 20
1238.477237540045
 30
0.0
 10
2117.115377931984
 20
1238.390091558912
 30
0.0
  0
SPLINE
  5
341
330
314
100
AcDbEntity
  8
0
  6
Continuous
 62
     7
370
    15
100
AcDbSpline
210
0.0
220
0.0
230
1.0
 70
     8
 71
     3
 72
    11
 73
     7
 74
     0
 42
0.0000000001
 43
0.0000000001
 40
0.0
 40
0.0
 40
0.0
 40
0.0
 40
0.1372468012274935
 40
0.4285399713949067
 40
0.720282926401104
 40
1.0
 40
1.0
 40
1.0
 40
1.0
 10
2129.059081267482
 20
1240.427487583035
 30
0.0
 10
2128.915323901002
 20
1240.477513556101
 30
0.0
 10
2128.466455314134
 20
1240.633714858244
 30
0.0
 10
2127.659909363864
 20
1240.830764288287
 30
0.0
 10
2126.668834321062
 20
1241.021395292176
 30
0.0
 10
2125.989858200587
 20
1241.09135400382
 30
0.0
 10
2125.657514372575
 20
1241.125597249391
 30
0.0
  0
SPLINE
  5
342
330
314
100
AcDbEntity
  8
0
  6
Continuous
 62
     7
370
    15
100
AcDbSpline
210
0.0
220
0.0
230
1.0
 70
     8
 71
     3
 72
    12
 73
     8
 74
     0
 42
0.0000000001
 43
0.0000000001
 40
0.0
 40
0.0
 40
0.0
 40
0.0
 40
0.0644485512355955
 40
0.3293744853334066
 40
0.5947377106744933
 40
0.8592377017840684
 40
1.0
 40
1.0
 40
1.0
 40
1.0
 10
2120.740813327083
 20
1240.8151763225
 30
0.0
 10
2120.658083848554
 20
1240.799320276642
 30
0.0
 10
2120.235281801187
 20
1240.718285453615
 30
0.0
 10
2119.50185155954
 20
1240.511304168953
 30
0.0
 10
2118.559021230043
 20
1240.191986095247
 30
0.0
 10
2117.799333692881
 20
1239.878926104514
 30
0.0
 10
2117.380924401705
 20
1239.656790874414
 30
0.0
 10
2117.235595672701
 20
1239.579635248719
 30
0.0
  0
SPLINE
  5
343
330
314
100
AcDbEntity
  8
0
  6
Continuous
 62
     7
370
    15
100
AcDbSpline
210
0.0
220
0.0
230
1.0
 70
     8
 71
     3
 72
    11
 73
     7
 74
     0
 42
0.0000000001
 43
0.0000000001
 40
0.0
 40
0.0
 40
0.0
 40
0.0
 40
0.235348642512786
 40
0.5940837070791406
 40
0.951917613340916
 40
0.9999999999999998
 40
0.9999999999999998
 40
0.9999999999999998
 40
0.9999999999999998
 10
2128.390919261885
 20
1241.703191477651
 30
0.0
 10
2128.181972935264
 20
1241.762677844483
 30
0.0
 10
2127.65453582335
 20
1241.91283754352
 30
0.0
 10
2126.761609177467
 20
1242.076719594646
 30
0.0
 10
2126.032603926069
 20
1242.186290447141
 30
0.0
 10
2125.636525453826
 20
1242.210090473963
 30
0.0
 10
2125.589608395847
 20
1242.212909681055
 30
0.0
  0
SPLINE
  5
344
330
314
100
AcDbEntity
  8
0
  6
Continuous
 62
     7
370
    15
100
AcDbSpline
210
0.0
220
0.0
230
1.0
 70
     8
 71
     3
 72
    12
 73
     8
 74
     0
 42
0.0000000001
 43
0.0000000001
 40
0.0
 40
0.0
 40
0.0
 40
0.0
 40
0.0194154471341084
 40
0.2948714571857676
 40
0.5710168548397153
 40
0.8464978275811175
 40
0.9999999999999998
 40
0.9999999999999998
 40
0.9999999999999998
 40
0.9999999999999998
 10
2120.671209579837
 20
1241.908804538646
 30
0.0
 10
2120.64718980862
 20
1241.904385530676
 30
0.0
 10
2120.282390332655
 20
1241.837271994204
 30
0.0
 10
2119.602603266912
 20
1241.649953367062
 30
0.0
 10
2118.650934243619
 20
1241.342074363341
 30
0.0
 10
2117.875683701679
 20
1241.033248158902
 30
0.0
 10
2117.44436315921
 20
1240.811617121176
 30
0.0
 10
2117.290024600633
 20
1240.732311334572
 30
0.0
  0
SPLINE
  5
345
330
314
100
AcDbEntity
  8
0
  6
Continuous
 62
     7
370
    15
100
AcDbSpline
210
0.0
220
0.0
230
1.0
 70
     8
 71
     3
 72
    13
 73
     9
 74
     0
 42
0.0000000001
 43
0.0000000001
 40
0.0
 40
0.0
 40
0.0
 40
0.0
 40
0.0472574224545198
 40
0.2573722588200661
 40
0.4646145520496746
 40
0.6708961958006434
 40
0.8802379802098736
 40
1.0
 40
1.0
 40
1.0
 40
1.0
 10
2125.866071666849
 20
1240.018434762669
 30
0.0
 10
2125.784948348073
 20
1240.027374871238
 30
0.0
 10
2125.343136444
 20
1240.076064279531
 30
0.0
 10
2124.527839034317
 20
1240.096369235329
 30
0.0
 10
2123.434116737506
 20
1240.077822012117
 30
0.0
 10
2122.346485005986
 20
1239.983985746066
 30
0.0
 10
2121.420260329315
 20
1239.858323352757
 30
0.0
 10
2120.86974450472
 20
1239.73695306999
 30
0.0
 10
2120.669409880086
 20
1239.692786001664
 30
0.0
  0
SPLINE
  5
346
330
314
100
AcDbEntity
  8
0
  6
Continuous
 62
     7
370
    15
100
AcDbSpline
210
0.0
220
0.0
230
1.0
 70
     8
 71
     3
 72
    12
 73
     8
 74
     0
 42
0.0000000001
 43
0.0000000001
 40
0.0
 40
0.0
 40
0.0
 40
0.0
 40
0.2039210912716835
 40
0.4163238618627193
 40
0.6268473266133715
 40
0.8403284199568906
 40
1.0
 40
1.0
 40
1.0
 40
1.0
 10
2125.687454735988
 20
1241.122088207672
 30
0.0
 10
2125.340725846732
 20
1241.144515306422
 30
0.0
 10
2124.632846591604
 20
1241.190302313073
 30
0.0
 10
2123.555206726441
 20
1241.174756359745
 30
0.0
 10
2122.466715993248
 20
1241.095311096602
 30
0.0
 10
2121.476693992013
 20
1240.968811441195
 30
0.0
 10
2120.863218928754
 20
1240.839735336164
 30
0.0
 10
2120.60071368719
 20
1240.784503826099
 30
0.0
  0
SPLINE
  5
347
330
314
100
AcDbEntity
  8
0
  6
Continuous
 62
     7
370
    15
100
AcDbSpline
210
0.0
220
0.0
230
1.0
 70
     8
 71
     3
 72
    12
 73
     8
 74
     0
 42
0.0000000001
 43
0.0000000001
 40
0.0
 40
0.0
 40
0.0
 40
0.0
 40
0.1848063639591263
 40
0.3931602689203621
 40
0.5990326626068114
 40
0.8073961748167645
 40
1.0
 40
1.0
 40
1.0
 40
1.0
 10
2125.73127453366
 20
1242.200657680885
 30
0.0
 10
2125.410874550329
 20
1242.224788658869
 30
0.0
 10
2124.729250060189
 20
1242.276125320607
 30
0.0
 10
2123.676981289853
 20
1242.271387514978
 30
0.0
 10
2122.587178383568
 20
1242.204111638952
 30
0.0
 10
2121.533073937726
 20
1242.078737723356
 30
0.0
 10
2120.856316314016
 20
1241.943269154353
 30
0.0
 10
2120.531237199353
 20
1241.878197109453
 30
0.0
  0
SPLINE
  5
348
330
314
100
AcDbEntity
  8
0
  6
Continuous
 62
     7
370
    15
100
AcDbSpline
210
0.0
220
0.0
230
1.0
 70
     8
 71
     3
 72
    21
 73
    17
 74
     0
 42
0.0000000001
 43
0.0000000001
 40
0.0
 40
0.0
 40
0.0
 40
0.0
 40
0.0476018411452824
 40
0.1217416183214367
 40
0.1962966250255542
 40
0.2709032201380003
 40
0.3451962543483123
 40
0.4188196975558676
 40
0.4914366124453878
 40
0.5637169198456577
 40
0.6370694889753908
 40
0.71119631400521
 40
0.785746152397477
 40
0.8603555139577053
 40
0.9346591684105376
 40
1.0
 40
1.0
 40
1.0
 40
1.0
 10
2130.331414446664
 20
1239.922137475347
 30
0.0
 10
2130.135812167783
 20
1240.004657317821
 30
0.0
 10
2129.635559711041
 20
1240.215701658223
 30
0.0
 10
2128.762870903942
 20
1240.487662513209
 30
0.0
 10
2127.731972651566
 20
1240.741165737131
 30
0.0
 10
2126.66037569779
 20
1240.924977669435
 30
0.0
 10
2125.567096380454
 20
1241.039778906038
 30
0.0
 10
2124.46751737065
 20
1241.084498180899
 30
0.0
 10
2123.372797921171
 20
1241.060838397831
 30
0.0
 10
2122.284388437678
 20
1240.970524043415
 30
0.0
 10
2121.203538000986
 20
1240.814160029624
 30
0.0
 10
2120.137562600546
 20
1240.590335028836
 30
0.0
 10
2119.101753863377
 20
1240.301184198225
 30
0.0
 10
2118.113937580382
 20
1239.948700856909
 30
0.0
 10
2117.214640154846
 20
1239.559375624007
 30
0.0
 10
2116.681809228134
 20
1239.263490978685
 30
0.0
 10
2116.432493148175
 20
1239.125044060171
 30
0.0
  0
SPLINE
  5
349
330
314
100
AcDbEntity
  8
0
  6
Continuous
 62
     7
370
    15
100
AcDbSpline
210
0.0
220
0.0
230
1.0
 70
     8
 71
     3
 72
    21
 73
    17
 74
     0
 42
0.0000000001
 43
0.0000000001
 40
0.0
 40
0.0
 40
0.0
 40
0.0
 40
0.0418693195511136
 40
0.1158164112114858
 40
0.1902402907419478
 40
0.2647790763814546
 40
0.3390675290079844
 40
0.4127477040624549
 40
0.4854790790172156
 40
0.5575669390997778
 40
0.6306675564770722
 40
0.7046003948285799
 40
0.779017746867455
 40
0.8535579210929277
 40
0.9278556377166848
 40
1.0
 40
1.0
 40
1.0
 40
1.0
 10
2130.350263222367
 20
1240.974645095459
 30
0.0
 10
2130.179927369015
 20
1241.049062842785
 30
0.0
 10
2129.708754504317
 20
1241.254912771042
 30
0.0
 10
2128.868827469094
 20
1241.527260124101
 30
0.0
 10
2127.846413210585
 20
1241.792301340752
 30
0.0
 10
2126.780238165229
 20
1241.98793529149
 30
0.0
 10
2125.689694718007
 20
1242.114911179902
 30
0.0
 10
2124.590015929834
 20
1242.171666250131
 30
0.0
 10
2123.494314980111
 20
1242.159759553354
 30
0.0
 10
2122.404740220119
 20
1242.080836514487
 30
0.0
 10
2121.322437611089
 20
1241.936087132885
 30
0.0
 10
2120.252759142756
 20
1241.723886539277
 30
0.0
 10
2119.210573169765
 20
1241.445866273511
 30
0.0
 10
2118.213410444718
 20
1241.103988017775
 30
0.0
 10
2117.275465126101
 20
1240.711003402594
 30
0.0
 10
2116.708512242757
 20
1240.405811134339
 30
0.0
 10
2116.42920417421
 20
1240.255458846722
 30
0.0
  0
SPLINE
  5
34A
330
314
100
AcDbEntity
  8
0
  6
Continuous
 62
     7
370
    15
100
AcDbSpline
210
0.0
220
0.0
230
1.0
 70
     8
 71
     3
 72
     9
 73
     5
 74
     0
 42
0.0000000001
 43
0.0000000001
 40
0.0
 40
0.0
 40
0.0
 40
0.0
 40
0.4196692626351233
 40
1.0
 40
1.0
 40
1.0
 40
1.0
 10
2135.054741253288
 20
1236.529118934062
 30
0.0
 10
2135.045601490359
 20
1236.670434947171
 30
0.0
 10
2135.023823000145
 20
1237.007166811261
 30
0.0
 10
2134.939974884446
 20
1237.337959353998
 30
0.0
 10
2134.891315245636
 20
1237.52992843424
 30
0.0
  0
LINE
  5
34B
330
314
100
AcDbEntity
  8
0
  6
Continuous
 62
     7
370
    15
100
AcDbLine
 10
2115.541952204521
 20
1237.345523300401
 30
0.0
 11
2115.994912035015
 21
1236.748169490691
 31
0.0
  0
LWPOLYLINE
  5
34C
330
314
100
AcDbEntity
  8
0
  6
Continuous
 62
     7
370
    15
100
AcDbPolyline
 90
       37
 70
   128
 43
0.0
 10
2134.02872157562
 20
1235.669819065376
 10
2133.923695437578
 20
1235.790466037497
 10
2133.621250686202
 20
1236.108409050424
 10
2133.29159797323
 20
1236.414665494649
 10
2132.935671735094
 20
1236.708367253007
 10
2132.554480883385
 20
1236.988681795954
 10
2132.149105944987
 20
1237.254814541463
 10
2131.720695999208
 20
1237.506011107353
 10
2131.270465420581
 20
1237.741559449665
 10
2130.7996904366
 20
1237.960791881033
 10
2130.309705510104
 20
1238.163086963311
 10
2129.801899556601
 20
1238.347871269108
 10
2129.277712007239
 20
1238.514621007236
 10
2128.738628728578
 20
1238.662863507443
 10
2128.186177810741
 20
1238.792178560256
 10
2127.621925235875
 20
1238.90219960811
 10
2127.047470439208
 20
1238.992614784391
 10
2126.464441775275
 20
1239.063167797458
 10
2125.874491902166
 20
1239.11365865713
 10
2125.279293096894
 20
1239.143944241579
 10
2124.680532515138
 20
1239.153938703027
 10
2124.07990740882
 20
1239.143613711087
 10
2123.47912031506
 20
1239.112998533069
 10
2122.879874230148
 20
1239.062179951023
 10
2122.283867782219
 20
1238.99130201574
 10
2121.692790416302
 20
1238.900565638428
 10
2121.108317605411
 20
1238.790228021208
 10
2120.532106101228
 20
1238.660601928043
 10
2119.965789237866
 20
1238.512054798177
 10
2119.410972302002
 20
1238.345007704589
 10
2118.869227982518
 20
1238.159934160415
 10
2118.342091912549
 20
1237.957358776724
 10
2117.831058316555
 20
1237.73785577545
 10
2117.337575774786
 20
1237.502047361697
 10
2116.863043117124
 20
1237.250601960036
 10
2116.40880545794
 20
1236.984232319775
 10
2116.009732033333
 20
1236.726499376577
  0
LINE
  5
34D
330
314
100
AcDbEntity
  8
0
  6
Continuous
 62
     7
370
    15
100
AcDbLine
 10
2109.104091278508
 20
1227.635612950003
 30
0.0
 11
2119.027681631488
 21
1222.443861504405
 31
0.0
  0
LWPOLYLINE
  5
34E
330
314
100
AcDbEntity
  8
0
  6
Continuous
 62
     7
370
    15
100
AcDbPolyline
 90
        8
 70
   128
 43
0.0
 10
2115.994912035015
 20
1236.748169490691
 10
2116.013053565472
 20
1236.720932255984
 10
2116.027158129489
 20
1236.692550790333
 10
2116.036557058096
 20
1236.664370601856
 10
2116.040804767019
 20
1236.637727656529
 10
2116.039699880934
 20
1236.613885042722
 10
2116.033294780264
 20
1236.593973090733
 10
2116.02519743585
 20
1236.582207011521
  0
LINE
  5
34F
330
314
100
AcDbEntity
  8
0
  6
Continuous
 62
     7
370
    15
100
AcDbLine
 10
2137.354471660628
 20
1227.020269592966
 30
0.0
 11
2139.989804793106
 21
1235.348127194147
 31
0.0
  0
SPLINE
  5
350
330
314
100
AcDbEntity
  8
0
  6
Continuous
 62
     8
370
    15
100
AcDbSpline
210
0.0
220
0.0
230
1.0
 70
     8
 71
     3
 72
    13
 73
     9
 74
     0
 42
0.0000000001
 43
0.0000000001
 40
0.0
 40
0.0
 40
0.0
 40
0.0
 40
0.0446863244343468
 40
0.2546487149236686
 40
0.4617403802022015
 40
0.6678720071681826
 40
0.8770618334696955
 40
1.0
 40
1.0
 40
1.0
 40
1.0
 10
2125.724172232873
 20
1240.031351827488
 30
0.0
 10
2125.65161789131
 20
1240.03939777229
 30
0.0
 10
2125.238160976359
 20
1240.085248254073
 30
0.0
 10
2124.471778338065
 20
1240.104772071948
 30
0.0
 10
2123.438146889189
 20
1240.088209974272
 30
0.0
 10
2122.410209404074
 20
1240.000445302272
 30
0.0
 10
2121.52959317045
 20
1239.881565829863
 30
0.0
 10
2121.004179282082
 20
1239.766144325203
 30
0.0
 10
2120.809695765186
 20
1239.723420711214
 30
0.0
  0
SPLINE
  5
351
330
314
100
AcDbEntity
  8
0
  6
Continuous
 62
     8
370
    15
100
AcDbSpline
210
0.0
220
0.0
230
1.0
 70
     8
 71
     3
 72
    13
 73
     9
 74
     0
 42
0.0000000001
 43
0.0000000001
 40
0.0
 40
0.0
 40
0.0
 40
0.0
 40
0.0080576294851315
 40
0.2184213973044512
 40
0.4260759997731807
 40
0.6318931407713848
 40
0.840602058774637
 40
1.0
 40
1.0
 40
1.0
 40
1.0
 10
2125.657514372575
 20
1241.125597249391
 30
0.0
 10
2125.644465219726
 20
1241.127141019781
 30
0.0
 10
2125.290736594666
 20
1241.168988623513
 30
0.0
 10
2124.583359588707
 20
1241.190749001281
 30
0.0
 10
2123.549444628822
 20
1241.186682458445
 30
0.0
 10
2122.519957857326
 20
1241.109868258723
 30
0.0
 10
2121.579155182118
 20
1240.990975958028
 30
0.0
 10
2120.994137970992
 20
1240.86829830347
 30
0.0
 10
2120.740813327083
 20
1240.8151763225
 30
0.0
  0
SPLINE
  5
352
330
314
100
AcDbEntity
  8
0
  6
Continuous
 62
     8
370
    15
100
AcDbSpline
210
0.0
220
0.0
230
1.0
 70
     8
 71
     3
 72
    12
 73
     8
 74
     0
 42
0.0000000001
 43
0.0000000001
 40
0.0
 40
0.0
 40
0.0
 40
0.0
 40
0.1821929785335071
 40
0.3903649819053971
 40
0.5960574152090549
 40
0.8042390183342174
 40
1.0
 40
1.0
 40
1.0
 40
1.0
 10
2125.589608395847
 20
1242.212909681055
 30
0.0
 10
2125.290819386886
 20
1242.235659793828
 30
0.0
 10
2124.650636834215
 20
1242.284403973939
 30
0.0
 10
2123.660211084672
 20
1242.280683666528
 30
0.0
 10
2122.630244426357
 20
1242.21804826946
 30
0.0
 10
2121.628614628547
 20
1242.099647451872
 30
0.0
 10
2120.983734905131
 20
1241.971101310129
 30
0.0
 10
2120.671209579837
 20
1241.908804538646
 30
0.0
  0
LINE
  5
353
330
314
100
AcDbEntity
  8
0
  6
Continuous
 62
     8
370
    15
100
AcDbLine
 10
2117.290024600633
 20
1240.732311334572
 30
0.0
 11
2117.036203858809
 21
1240.605668343164
 31
0.0
  0
SPLINE
  5
354
330
314
100
AcDbEntity
  8
0
  6
Continuous
 62
     8
370
    15
100
AcDbSpline
210
0.0
220
0.0
230
1.0
 70
     8
 71
     3
 72
    10
 73
     6
 74
     0
 42
0.0000000001
 43
0.0000000001
 40
0.0
 40
0.0
 40
0.0
 40
0.0
 40
0.2451847383560636
 40
0.8888066846983317
 40
1.0
 40
1.0
 40
1.0
 40
1.0
 10
2114.069687711038
 20
1238.112337278943
 30
0.0
 10
2114.012052955668
 20
1238.035513405889
 30
0.0
 10
2113.803124144737
 20
1237.757023103548
 30
0.0
 10
2113.61786357443
 20
1237.430142787192
 30
0.0
 10
2113.523332782643
 20
1237.178326998221
 30
0.0
 10
2113.509407266466
 20
1237.141231520898
 30
0.0
  0
LINE
  5
355
330
314
100
AcDbEntity
  8
0
  6
Continuous
 62
     8
370
    15
100
AcDbLine
 10
2113.795666270195
 20
1233.11669050715
 30
0.0
 11
2113.902997262441
 21
1232.932370930243
 31
0.0
  0
SPLINE
  5
356
330
314
100
AcDbEntity
  8
0
  6
Continuous
 62
     8
370
    15
100
AcDbSpline
210
0.0
220
0.0
230
1.0
 70
     8
 71
     3
 72
    13
 73
     9
 74
     0
 42
0.0000000001
 43
0.0000000001
 40
0.0
 40
0.0
 40
0.0
 40
0.0
 40
0.1849228409552037
 40
0.3725402782034341
 40
0.5620014987767489
 40
0.7524033296219917
 40
0.9428152932440621
 40
1.0
 40
1.0
 40
1.0
 40
1.0
 10
2115.994912035015
 20
1236.748169490691
 30
0.0
 10
2115.775030467371
 20
1236.578761662481
 30
0.0
 10
2115.332063336005
 20
1236.2374774862
 30
0.0
 10
2114.766068481252
 20
1235.678197294224
 30
0.0
 10
2114.276052183454
 20
1235.087063482111
 30
0.0
 10
2113.887485767506
 20
1234.467618309973
 30
0.0
 10
2113.643130869081
 20
1233.980133654928
 30
0.0
 10
2113.56342189293
 20
1233.698618038442
 30
0.0
 10
2113.545012378699
 20
1233.633599442063
 30
0.0
  0
SPLINE
  5
357
330
314
100
AcDbEntity
  8
0
  6
Continuous
 62
     8
370
    15
100
AcDbSpline
210
0.0
220
0.0
230
1.0
 70
     8
 71
     3
 72
    37
 73
    33
 74
     0
 42
0.0000000001
 43
0.0000000001
 40
0.0
 40
0.0
 40
0.0
 40
0.0
 40
0.0140867428244333
 40
0.0491603951339219
 40
0.0844267827472466
 40
0.1197138199573521
 40
0.1548488172217207
 40
0.1896635063810383
 40
0.2239987489090926
 40
0.2581956909738314
 40
0.2929005481785496
 40
0.3279681519000515
 40
0.3632321756665862
 40
0.3985206028276915
 40
0.4336607031581593
 40
0.4684840610202261
 40
0.5028312940922133
 40
0.5370193000148734
 40
0.5717145242655388
 40
0.6067760011147429
 40
0.6420375800620161
 40
0.6773273158645145
 40
0.7124724399898513
 40
0.7473043915503809
 40
0.7816635463586003
 40
0.8158431547493188
 40
0.8505286727347943
 40
0.8855839445105155
 40
0.9208429976997937
 40
0.9561339608159798
 40
0.9912840293963357
 40
0.9999999999999998
 40
0.9999999999999998
 40
0.9999999999999998
 40
0.9999999999999998
 10
2134.37340328154
 20
1235.038029686967
 30
0.0
 10
2134.347548058146
 20
1235.127041930333
 30
0.0
 10
2134.257317618491
 20
1235.437679890447
 30
0.0
 10
2133.997066811654
 20
1235.952423816614
 30
0.0
 10
2133.59653056584
 20
1236.574457919281
 30
0.0
 10
2133.094864189168
 20
1237.163916151366
 30
0.0
 10
2132.507849633575
 20
1237.713635665279
 30
0.0
 10
2131.843572647047
 20
1238.216166833045
 30
0.0
 10
2131.111186048016
 20
1238.668055050681
 30
0.0
 10
2130.312846267944
 20
1239.070061198029
 30
0.0
 10
2129.448716398914
 20
1239.422271317378
 30
0.0
 10
2128.522546639738
 20
1239.720546461873
 30
0.0
 10
2127.546390372013
 20
1239.95930642625
 30
0.0
 10
2126.534133598681
 20
1240.134460941536
 30
0.0
 10
2125.500754325962
 20
1240.243781514446
 30
0.0
 10
2124.461590919847
 20
1240.287008911181
 30
0.0
 10
2123.426979490881
 20
1240.265532637127
 30
0.0
 10
2122.398334832467
 20
1240.181066071134
 30
0.0
 10
2121.376861164087
 20
1240.034201828923
 30
0.0
 10
2120.36932242919
 20
1239.823696527812
 30
0.0
 10
2119.390749043453
 20
1239.551153140577
 30
0.0
 10
2118.455817114793
 20
1239.219957238376
 30
0.0
 10
2117.577972352826
 20
1238.83523540246
 30
0.0
 10
2116.768799019636
 20
1238.403604751734
 30
0.0
 10
2116.034392358714
 20
1237.930648198958
 30
0.0
 10
2115.374413671833
 20
1237.418291501509
 30
0.0
 10
2114.790115537335
 20
1236.867955952704
 30
0.0
 10
2114.288139035755
 20
1236.28155315469
 30
0.0
 10
2113.874990941651
 20
1235.666911367805
 30
0.0
 10
2113.568141049551
 20
1235.032367692244
 30
0.0
 10
2113.391093900077
 20
1234.548472296701
 30
0.0
 10
2113.349518313339
 20
1234.277511179722
 30
0.0
 10
2113.341257444599
 20
1234.223672511489
 30
0.0
  0
SPLINE
  5
358
330
314
100
AcDbEntity
  8
0
  6
Continuous
 62
     8
370
    15
100
AcDbSpline
210
0.0
220
0.0
230
1.0
 70
     8
 71
     3
 72
    38
 73
    34
 74
     0
 42
0.0000000001
 43
0.0000000001
 40
0.0
 40
0.0
 40
0.0
 40
0.0
 40
0.028458954173637
 40
0.0620066127490108
 40
0.0957670486361381
 40
0.1295760176842949
 40
0.1632678572731739
 40
0.1966803177837502
 40
0.2296591486919342
 40
0.2623614490439206
 40
0.2955285175648048
 40
0.3290697847535728
 40
0.3628273368492627
 40
0.3966370137945809
 40
0.4303331322348072
 40
0.4637533184903885
 40
0.496743103506508
 40
0.5294409740213283
 40
0.5625982570784487
 40
0.5961330585582866
 40
0.6298876495894125
 40
0.663697956439073
 40
0.6973982773014705
 40
0.7308261166068267
 40
0.7638267886766088
 40
0.796520745907543
 40
0.8296681742777074
 40
0.8631964358136263
 40
0.8969479885478467
 40
0.9307588473003123
 40
0.9644632940981216
 40
0.9978987136557046
 40
1.0
 40
1.0
 40
1.0
 40
1.0
 10
2134.425007565382
 20
1235.717476849793
 30
0.0
 10
2134.377395558169
 20
1235.90625965644
 30
0.0
 10
2134.273658109651
 20
1236.317581250128
 30
0.0
 10
2133.991634975421
 20
1236.932580101959
 30
0.0
 10
2133.605357583135
 20
1237.558635884541
 30
0.0
 10
2133.120395089262
 20
1238.154339671045
 30
0.0
 10
2132.54759713552
 20
1238.711513671376
 30
0.0
 10
2131.895870733596
 20
1239.22265658525
 30
0.0
 10
2131.17505024098
 20
1239.683318380037
 30
0.0
 10
2130.388092780597
 20
1240.093847014021
 30
0.0
 10
2129.535412129316
 20
1240.454878663568
 30
0.0
 10
2128.619200857249
 20
1240.762936047526
 30
0.0
 10
2127.650756218536
 20
1241.012357263519
 30
0.0
 10
2126.643706214397
 20
1241.198749913778
 30
0.0
 10
2125.612889925148
 20
1241.319561716373
 30
0.0
 10
2124.573637948433
 20
1241.374172535486
 30
0.0
 10
2123.538096804866
 20
1241.363811403543
 30
0.0
 10
2122.508352740255
 20
1241.2901040318
 30
0.0
 10
2121.485501963821
 20
1241.154213229584
 30
0.0
 10
2120.474482721468
 20
1240.954676408012
 30
0.0
 10
2119.489812648756
 20
1240.69269792288
 30
0.0
 10
2118.546308277064
 20
1240.371346562261
 30
0.0
 10
2117.657678148384
 20
1239.995471667878
 30
0.0
 10
2116.835865806828
 20
1239.571436525566
 30
0.0
 10
2116.088555693326
 20
1239.105523045482
 30
0.0
 10
2115.415604140678
 20
1238.599807250294
 30
0.0
 10
2114.818096386433
 20
1238.056107557391
 30
0.0
 10
2114.300597039343
 20
1237.475456845268
 30
0.0
 10
2113.87348658966
 20
1236.865063131604
 30
0.0
 10
2113.540319711027
 20
1236.233481186069
 30
0.0
 10
2113.320149322104
 20
1235.590134180543
 30
0.0
 10
2113.210349542492
 20
1235.143458390865
 30
0.0
 10
2113.202727572665
 20
1234.914247725665
 30
0.0
 10
2113.20227688539
 20
1234.90069449307
 30
0.0
  0
LWPOLYLINE
  5
359
330
314
100
AcDbEntity
  8
0
  6
Continuous
 62
     8
370
    15
100
AcDbPolyline
 90
       35
 70
   128
 43
0.0
 10
2132.397540781722
 20
1231.62309937952
 10
2132.781280512142
 20
1231.988643084793
 10
2133.303780330242
 20
1232.600623921753
 10
2133.737441918329
 20
1233.243827053725
 10
2134.074633529685
 20
1233.909202510146
 10
2134.310487516566
 20
1234.586971152062
 10
2134.443132256372
 20
1235.267099094198
 10
2134.473705990007
 20
1235.939782809554
 10
2134.405492746916
 20
1236.599755674123
 10
2134.237239529953
 20
1237.257628283629
 10
2133.966972875378
 20
1237.906491987938
 10
2133.595721083759
 20
1238.536515236171
 10
2133.127520529555
 20
1239.138138775915
 10
2132.569289302033
 20
1239.702549606091
 10
2131.930489810966
 20
1240.22210713885
 10
2131.222614411815
 20
1240.690678914133
 10
2130.454405322225
 20
1241.106044394469
 10
2129.614435072047
 20
1241.475219973534
 10
2128.708581896463
 20
1241.792876802738
 10
2127.748274592017
 20
1242.052819664803
 10
2126.746882407919
 20
1242.250374424606
 10
2125.71910795042
 20
1242.382653407307
 10
2124.680274605101
 20
1242.448694736061
 10
2123.645579962852
 20
1242.449461711864
 10
2122.624547559638
 20
1242.387421639408
 10
2121.602076246651
 20
1242.262613010783
 10
2120.588085776177
 20
1242.074102420348
 10
2119.597781618527
 20
1241.822782377399
 10
2118.646121847721
 20
1241.511424571094
 10
2117.747079234033
 20
1241.144590662748
 10
2116.912964021643
 20
1240.728411667208
 10
2116.153875332055
 20
1240.27025800962
 10
2115.680462320639
 20
1239.935884237012
 10
2115.23985877644
 20
1239.582149622926
 10
2115.23985877644
 20
1239.582149622926
  0
ENDBLK
  5
316
330
314
100
AcDbEntity
  8
0
100
AcDbBlockEnd
  0
ENDSEC
  0
SECTION
  2
ENTITIES
  0
INSERT
  5
2E6
330
1F
100
AcDbEntity
  8
0
100
AcDbBlockReference
  2
1
 10
0.0
 20
0.0
 30
0.0
  0
INSERT
  5
313
330
1F
100
AcDbEntity
  8
0
100
AcDbBlockReference
  2
3
 10
0.0
 20
0.0
 30
0.0
  0
INSERT
  5
35A
330
1F
100
AcDbEntity
  8
0
100
AcDbBlockReference
  2
4
 10
0.0
 20
0.0
 30
0.0
  0
ENDSEC
  0
SECTION
  2
OBJECTS
  0
DICTIONARY
  5
C
330
0
100
AcDbDictionary
281
     1
  3
ACAD_COLOR
350
6B
  3
ACAD_GROUP
350
D
  3
ACAD_LAYOUT
350
1A
  3
ACAD_MATERIAL
350
6A
  3
ACAD_MLEADERSTYLE
350
12D
  3
ACAD_MLINESTYLE
350
17
  3
ACAD_PLOTSETTINGS
350
19
  3
ACAD_PLOTSTYLENAME
350
E
  3
ACAD_SCALELIST
350
10C
  3
ACAD_TABLESTYLE
350
7E
  3
ACAD_VISUALSTYLE
350
EF
  3
ACDB_RECOMPOSE_DATA
350
15D
  3
AcDbVariableDictionary
350
5E
  3
DWGPROPS
350
3A9
  0
DICTIONARY
  5
13C
330
10
100
AcDbDictionary
280
     1
281
     1
  3
ADSK_XREC_LAYER_RECONCILED
360
35B
  0
DICTIONARY
  5
394
330
2E7
100
AcDbDictionary
280
     1
281
     1
  0
DICTIONARY
  5
377
330
2FE
100
AcDbDictionary
280
     1
281
     1
  0
DICTIONARY
  5
6B
102
{ACAD_REACTORS
330
C
102
}
330
C
100
AcDbDictionary
281
     1
  0
DICTIONARY
  5
D
102
{ACAD_REACTORS
330
C
102
}
330
C
100
AcDbDictionary
281
     1
  0
DICTIONARY
  5
1A
102
{ACAD_REACTORS
330
C
102
}
330
C
100
AcDbDictionary
281
     1
  3
Layout1
350
D3
  3
Layout2
350
D7
  3
Model
350
22
  0
DICTIONARY
  5
6A
102
{ACAD_REACTORS
330
C
102
}
330
C
100
AcDbDictionary
281
     1
  3
ByBlock
350
ED
  3
ByLayer
350
EC
  3
Global
350
EE
  0
DICTIONARY
  5
12D
102
{ACAD_REACTORS
330
C
102
}
330
C
100
AcDbDictionary
281
     1
  3
Annotative
350
13B
  3
Standard
350
12E
  0
DICTIONARY
  5
17
102
{ACAD_REACTORS
330
C
102
}
330
C
100
AcDbDictionary
281
     1
  3
Standard
350
18
  0
DICTIONARY
  5
19
102
{ACAD_REACTORS
330
C
102
}
330
C
100
AcDbDictionary
281
     1
  0
ACDBDICTIONARYWDFLT
  5
E
102
{ACAD_REACTORS
330
C
102
}
330
C
100
AcDbDictionary
281
     1
  3
Normal
350
F
100
AcDbDictionaryWithDefault
340
F
  0
DICTIONARY
  5
10C
102
{ACAD_REACTORS
330
C
102
}
330
C
100
AcDbDictionary
281
     1
  3
A0
350
10D
  3
A1
350
188
  3
A2
350
189
  3
A3
350
18A
  3
A4
350
18B
  3
A5
350
18C
  3
A6
350
18D
  3
A7
350
18E
  3
A8
350
18F
  3
A9
350
190
  3
B0
350
191
  3
B1
350
192
  3
B2
350
193
  3
B3
350
194
  3
B4
350
195
  3
B5
350
196
  3
B6
350
197
  3
B7
350
198
  3
B8
350
199
  3
B9
350
19A
  3
C0
350
19B
  3
C1
350
19C
  3
C2
350
19D
  3
C3
350
19E
  3
C4
350
19F
  3
C5
350
1A0
  3
C6
350
1A1
  3
C7
350
1A2
  3
C8
350
1A3
  3
C9
350
1A4
  3
D0
350
1A5
  3
D1
350
1A6
  3
D2
350
1A7
  0
DICTIONARY
  5
7E
102
{ACAD_REACTORS
330
C
102
}
330
C
100
AcDbDictionary
281
     1
  3
Standard
350
7F
  0
DICTIONARY
  5
EF
102
{ACAD_REACTORS
330
C
102
}
330
C
100
AcDbDictionary
281
     1
  3
2dWireframe
350
F5
  3
3D Hidden
350
F7
  3
3dWireframe
350
F6
  3
Basic
350
F4
  3
Brighten
350
FB
  3
ColorChange
350
FF
  3
Conceptual
350
F8
  3
Dim
350
FA
  3
Facepattern
350
FE
  3
Flat
350
F0
  3
FlatWithEdges
350
F1
  3
Gouraud
350
F2
  3
GouraudWithEdges
350
F3
  3
Linepattern
350
FD
  3
Realistic
350
F9
  3
Thicken
350
FC
  0
XRECORD
  5
15D
102
{ACAD_REACTORS
330
C
102
}
330
C
100
AcDbXrecord
280
     1
 90
        1
330
7F
  0
DICTIONARY
  5
5E
102
{ACAD_REACTORS
330
C
102
}
330
C
100
AcDbDictionary
281
     1
  3
CANNOSCALE
350
146
  3
CMLEADERSTYLE
350
145
  3
CTABLESTYLE
350
84
  3
DIMASSOC
350
5F
  3
HIDETEXT
350
63
  3
INDEXCTL
350
3A5
  3
LIGHTINGUNITS
350
3A3
  3
MSLTSCALE
350
3A2
  3
PSOLHEIGHT
350
3A7
  3
PSOLWIDTH
350
3A6
  3
SORTENTS
350
3A4
  0
XRECORD
  5
3A9
102
{ACAD_REACTORS
330
C
102
}
330
C
100
AcDbXrecord
280
     1
  1
DWGPROPS COOKIE
  2

  3

  4

  6

  7

  8
orhan kara
  9

300
=
301
=
302
=
303
=
304
=
305
=
306
=
307
=
308
=
309
=
 40
0.0012656712962963
 41
2458557.406692789
 42
2459067.654825718
  1

 90
        0
  0
XRECORD
  5
35B
102
{ACAD_REACTORS
330
13C
102
}
330
13C
100
AcDbXrecord
280
     1
290
     1
  0
LAYOUT
  5
D3
102
{ACAD_XDICTIONARY
360
3AD
102
}
102
{ACAD_REACTORS
330
1A
102
}
330
1A
100
AcDbPlotSettings
  1

  2
C:\Documents and Settings\basas\Application Data\Autodesk\AutoCAD 2005\R16.1\enu\plotters\Default Windows System Printer.pc3
  4

  6

 40
0.0
 41
0.0
 42
0.0
 43
0.0
 44
0.0
 45
0.0
 46
0.0
 47
0.0
 48
0.0
 49
0.0
140
0.0
141
0.0
142
1.0
143
1.0
 70
   688
 72
     0
 73
     0
 74
     5
  7

 75
    16
147
1.0
148
0.0
149
0.0
100
AcDbLayout
  1
Layout1
 70
     1
 71
     1
 10
0.0
 20
0.0
 11
12.0
 21
9.0
 12
0.0
 22
0.0
 32
0.0
 14
0.0
 24
0.0
 34
0.0
 15
0.0
 25
0.0
 35
0.0
146
0.0
 13
0.0
 23
0.0
 33
0.0
 16
1.0
 26
0.0
 36
0.0
 17
0.0
 27
1.0
 37
0.0
 76
     0
330
D2
  0
LAYOUT
  5
D7
102
{ACAD_XDICTIONARY
360
3AF
102
}
102
{ACAD_REACTORS
330
1A
102
}
330
1A
100
AcDbPlotSettings
  1

  2
C:\Documents and Settings\basas\Application Data\Autodesk\AutoCAD 2005\R16.1\enu\plotters\Default Windows System Printer.pc3
  4

  6

 40
0.0
 41
0.0
 42
0.0
 43
0.0
 44
0.0
 45
0.0
 46
0.0
 47
0.0
 48
0.0
 49
0.0
140
0.0
141
0.0
142
1.0
143
1.0
 70
   688
 72
     0
 73
     0
 74
     5
  7

 75
    16
147
1.0
148
0.0
149
0.0
100
AcDbLayout
  1
Layout2
 70
     1
 71
     2
 10
0.0
 20
0.0
 11
12.0
 21
9.0
 12
0.0
 22
0.0
 32
0.0
 14
0.0
 24
0.0
 34
0.0
 15
0.0
 25
0.0
 35
0.0
146
0.0
 13
0.0
 23
0.0
 33
0.0
 16
1.0
 26
0.0
 36
0.0
 17
0.0
 27
1.0
 37
0.0
 76
     0
330
D6
  0
LAYOUT
  5
22
102
{ACAD_XDICTIONARY
360
3AA
102
}
102
{ACAD_REACTORS
330
1A
102
}
330
1A
100
AcDbPlotSettings
  1

  2
none_device
  4
ISO_A4_(210.00_x_297.00_MM)
  6

 40
7.5
 41
20.0
 42
7.5
 43
20.0
 44
210.0
 45
297.0
 46
11.54999923706054
 47
-13.65000009536743
 48
0.0
 49
0.0
140
0.0
141
0.0
142
1.0
143
8.704084754739808
 70
 11952
 72
     1
 73
     0
 74
     0
  7

 75
     0
147
0.1148885871608098
148
0.0
149
0.0
100
AcDbLayout
  1
Model
 70
     1
 71
     0
 10
0.0
 20
0.0
 11
12.0
 21
9.0
 12
0.0
 22
0.0
 32
0.0
 14
0.0
 24
0.0
 34
0.0
 15
0.0
 25
0.0
 35
0.0
146
0.0
 13
0.0
 23
0.0
 33
0.0
 16
1.0
 26
0.0
 36
0.0
 17
0.0
 27
1.0
 37
0.0
 76
     0
330
1F
331
EA
1001
ACAD_PSEXT
1000
None
1000
None
1000
Not applicable
1000
The layout will not be plotted unless a new plotter configuration name is selected.
1070
     0
  0
MATERIAL
  5
ED
102
{ACAD_XDICTIONARY
360
3B3
102
}
102
{ACAD_REACTORS
330
6A
102
}
330
6A
100
AcDbMaterial
  1
ByBlock
  0
MATERIAL
  5
EC
102
{ACAD_XDICTIONARY
360
3B1
102
}
102
{ACAD_REACTORS
330
6A
102
}
330
6A
100
AcDbMaterial
  1
ByLayer
  0
MATERIAL
  5
EE
102
{ACAD_XDICTIONARY
360
173
102
}
102
{ACAD_REACTORS
330
6A
102
}
330
6A
100
AcDbMaterial
  1
Global
 43
0.0007999999797903
 43
0.0
 43
0.0
 43
0.0
 43
0.0
 43
0.0007999999797903
 43
0.0
 43
0.0
 43
0.0
 43
0.0
 43
1.0
 43
0.0
 43
0.0
 43
0.0
 43
0.0
 43
1.0
 49
0.0007999999797903
 49
0.0
 49
0.0
 49
0.0
 49
0.0
 49
0.0007999999797903
 49
0.0
 49
0.0
 49
0.0
 49
0.0
 49
1.0
 49
0.0
 49
0.0
 49
0.0
 49
0.0
 49
1.0
142
0.0007999999797903
142
0.0
142
0.0
142
0.0
142
0.0
142
0.0007999999797903
142
0.0
142
0.0
142
0.0
142
0.0
142
1.0
142
0.0
142
0.0
142
0.0
142
0.0
142
1.0
144
0.0007999999797903
144
0.0
144
0.0
144
0.0
144
0.0
144
0.0007999999797903
144
0.0
144
0.0
144
0.0
144
0.0
144
1.0
144
0.0
144
0.0
144
0.0
144
0.0
144
1.0
1001
ACAD
1070
    -1
1070
     3
1070
     0
1000

1071
        0
1070
     0
  0
MLEADERSTYLE
  5
13B
102
{ACAD_REACTORS
330
12D
102
}
330
12D
100
AcDbMLeaderStyle
170
     2
171
     1
172
     0
 90
        2
 40
0.0
 41
0.0
173
     1
 91
-1056964608
340
14
 92
       -2
290
     1
 42
2.0
291
     1
 43
8.0
  3
Standard
 44
4.0
300

342
11
174
     1
178
     1
175
     1
176
     0
 93
-1056964608
 45
4.0
292
     0
297
     0
 46
4.0
 94
-1056964608
 47
1.0
 49
1.0
140
1.0
293
     1
141
0.0
294
     1
177
     0
142
1.0
295
     0
296
     1
143
3.75
1001
ACAD_MLEADERVER
1070
     2
  0
MLEADERSTYLE
  5
12E
102
{ACAD_REACTORS
330
12D
102
}
330
12D
100
AcDbMLeaderStyle
170
     2
171
     1
172
     0
 90
        2
 40
0.0
 41
0.0
173
     1
 91
-1056964608
340
14
 92
       -2
290
     1
 42
2.0
291
     1
 43
8.0
  3
Standard
 44
4.0
300

342
11
174
     1
178
     1
175
     1
176
     0
 93
-1056964608
 45
4.0
292
     0
297
     0
 46
4.0
 94
-1056964608
 47
1.0
 49
1.0
140
1.0
293
     1
141
0.0
294
     1
177
     0
142
1.0
295
     0
296
     0
143
3.75
1001
ACAD_MLEADERVER
1070
     2
  0
MLINESTYLE
  5
18
102
{ACAD_REACTORS
330
17
102
}
330
17
100
AcDbMlineStyle
  2
STANDARD
 70
     0
  3

 62
   256
 51
90.0
 52
90.0
 71
     2
 49
0.5
 62
   256
  6
BYLAYER
 49
-0.5
 62
   256
  6
BYLAYER
  0
ACDBPLACEHOLDER
  5
F
102
{ACAD_REACTORS
330
E
102
}
330
E
  0
SCALE
  5
10D
102
{ACAD_REACTORS
330
10C
102
}
330
10C
100
AcDbScale
 70
     0
300
1:1
140
1.0
141
1.0
290
     1
  0
SCALE
  5
188
102
{ACAD_REACTORS
330
10C
102
}
330
10C
100
AcDbScale
 70
     0
300
1:2
140
1.0
141
2.0
290
     0
  0
SCALE
  5
189
102
{ACAD_REACTORS
330
10C
102
}
330
10C
100
AcDbScale
 70
     0
300
1:4
140
1.0
141
4.0
290
     0
  0
SCALE
  5
18A
102
{ACAD_REACTORS
330
10C
102
}
330
10C
100
AcDbScale
 70
     0
300
1:5
140
1.0
141
5.0
290
     0
  0
SCALE
  5
18B
102
{ACAD_REACTORS
330
10C
102
}
330
10C
100
AcDbScale
 70
     0
300
1:8
140
1.0
141
8.0
290
     0
  0
SCALE
  5
18C
102
{ACAD_REACTORS
330
10C
102
}
330
10C
100
AcDbScale
 70
     0
300
1:10
140
1.0
141
10.0
290
     0
  0
SCALE
  5
18D
102
{ACAD_REACTORS
330
10C
102
}
330
10C
100
AcDbScale
 70
     0
300
1:16
140
1.0
141
16.0
290
     0
  0
SCALE
  5
18E
102
{ACAD_REACTORS
330
10C
102
}
330
10C
100
AcDbScale
 70
     0
300
1:20
140
1.0
141
20.0
290
     0
  0
SCALE
  5
18F
102
{ACAD_REACTORS
330
10C
102
}
330
10C
100
AcDbScale
 70
     0
300
1:30
140
1.0
141
30.0
290
     0
  0
SCALE
  5
190
102
{ACAD_REACTORS
330
10C
102
}
330
10C
100
AcDbScale
 70
     0
300
1:40
140
1.0
141
40.0
290
     0
  0
SCALE
  5
191
102
{ACAD_REACTORS
330
10C
102
}
330
10C
100
AcDbScale
 70
     0
300
1:50
140
1.0
141
50.0
290
     0
  0
SCALE
  5
192
102
{ACAD_REACTORS
330
10C
102
}
330
10C
100
AcDbScale
 70
     0
300
1:100
140
1.0
141
100.0
290
     0
  0
SCALE
  5
193
102
{ACAD_REACTORS
330
10C
102
}
330
10C
100
AcDbScale
 70
     0
300
2:1
140
2.0
141
1.0
290
     0
  0
SCALE
  5
194
102
{ACAD_REACTORS
330
10C
102
}
330
10C
100
AcDbScale
 70
     0
300
4:1
140
4.0
141
1.0
290
     0
  0
SCALE
  5
195
102
{ACAD_REACTORS
330
10C
102
}
330
10C
100
AcDbScale
 70
     0
300
8:1
140
8.0
141
1.0
290
     0
  0
SCALE
  5
196
102
{ACAD_REACTORS
330
10C
102
}
330
10C
100
AcDbScale
 70
     0
300
10:1
140
10.0
141
1.0
290
     0
  0
SCALE
  5
197
102
{ACAD_REACTORS
330
10C
102
}
330
10C
100
AcDbScale
 70
     0
300
100:1
140
100.0
141
1.0
290
     0
  0
SCALE
  5
198
102
{ACAD_REACTORS
330
10C
102
}
330
10C
100
AcDbScale
 70
     0
300
1/128" = 1'-0"
140
0.0078125
141
12.0
290
     0
  0
SCALE
  5
199
102
{ACAD_REACTORS
330
10C
102
}
330
10C
100
AcDbScale
 70
     0
300
1/64" = 1'-0"
140
0.015625
141
12.0
290
     0
  0
SCALE
  5
19A
102
{ACAD_REACTORS
330
10C
102
}
330
10C
100
AcDbScale
 70
     0
300
1/32" = 1'-0"
140
0.03125
141
12.0
290
     0
  0
SCALE
  5
19B
102
{ACAD_REACTORS
330
10C
102
}
330
10C
100
AcDbScale
 70
     0
300
1/16" = 1'-0"
140
0.0625
141
12.0
290
     0
  0
SCALE
  5
19C
102
{ACAD_REACTORS
330
10C
102
}
330
10C
100
AcDbScale
 70
     0
300
3/32" = 1'-0"
140
0.09375
141
12.0
290
     0
  0
SCALE
  5
19D
102
{ACAD_REACTORS
330
10C
102
}
330
10C
100
AcDbScale
 70
     0
300
1/8" = 1'-0"
140
0.125
141
12.0
290
     0
  0
SCALE
  5
19E
102
{ACAD_REACTORS
330
10C
102
}
330
10C
100
AcDbScale
 70
     0
300
3/16" = 1'-0"
140
0.1875
141
12.0
290
     0
  0
SCALE
  5
19F
102
{ACAD_REACTORS
330
10C
102
}
330
10C
100
AcDbScale
 70
     0
300
1/4" = 1'-0"
140
0.25
141
12.0
290
     0
  0
SCALE
  5
1A0
102
{ACAD_REACTORS
330
10C
102
}
330
10C
100
AcDbScale
 70
     0
300
3/8" = 1'-0"
140
0.375
141
12.0
290
     0
  0
SCALE
  5
1A1
102
{ACAD_REACTORS
330
10C
102
}
330
10C
100
AcDbScale
 70
     0
300
1/2" = 1'-0"
140
0.5
141
12.0
290
     0
  0
SCALE
  5
1A2
102
{ACAD_REACTORS
330
10C
102
}
330
10C
100
AcDbScale
 70
     0
300
3/4" = 1'-0"
140
0.75
141
12.0
290
     0
  0
SCALE
  5
1A3
102
{ACAD_REACTORS
330
10C
102
}
330
10C
100
AcDbScale
 70
     0
300
1" = 1'-0"
140
1.0
141
12.0
290
     0
  0
SCALE
  5
1A4
102
{ACAD_REACTORS
330
10C
102
}
330
10C
100
AcDbScale
 70
     0
300
1-1/2" = 1'-0"
140
1.5
141
12.0
290
     0
  0
SCALE
  5
1A5
102
{ACAD_REACTORS
330
10C
102
}
330
10C
100
AcDbScale
 70
     0
300
3" = 1'-0"
140
3.0
141
12.0
290
     0
  0
SCALE
  5
1A6
102
{ACAD_REACTORS
330
10C
102
}
330
10C
100
AcDbScale
 70
     0
300
6" = 1'-0"
140
6.0
141
12.0
290
     0
  0
SCALE
  5
1A7
102
{ACAD_REACTORS
330
10C
102
}
330
10C
100
AcDbScale
 70
     0
300
1'-0" = 1'-0"
140
12.0
141
12.0
290
     0
  0
TABLESTYLE
  5
7F
102
{ACAD_XDICTIONARY
360
162
102
}
102
{ACAD_REACTORS
330
7E
102
}
330
7E
100
AcDbTableStyle
  3
Standard
 70
     0
 71
     0
 40
1.5
 41
1.5
280
     0
281
     0
  7
Standard
140
4.5
170
     2
 62
     0
 63
     7
283
     0
274
    -2
284
     1
 64
     0
275
    -2
285
     1
 65
     0
276
    -2
286
     1
 66
     0
277
    -2
287
     1
 67
     0
278
    -2
288
     1
 68
     0
279
    -2
289
     1
 69
     0
  7
Standard
140
6.0
170
     5
 62
     0
 63
     7
283
     0
274
    -2
284
     1
 64
     0
275
    -2
285
     1
 65
     0
276
    -2
286
     1
 66
     0
277
    -2
287
     1
 67
     0
278
    -2
288
     1
 68
     0
279
    -2
289
     1
 69
     0
  7
Standard
140
4.5
170
     5
 62
     0
 63
     7
283
     0
274
    -2
284
     1
 64
     0
275
    -2
285
     1
 65
     0
276
    -2
286
     1
 66
     0
277
    -2
287
     1
 67
     0
278
    -2
288
     1
 68
     0
279
    -2
289
     1
 69
     0
  0
VISUALSTYLE
  5
F5
102
{ACAD_REACTORS
330
EF
102
}
330
EF
100
AcDbVisualStyle
  2
2dWireframe
 70
     4
 71
     0
 72
     2
 73
     1
 90
        0
 40
-0.6
 41
-30.0
 62
     5
 63
     7
 74
     1
 91
        4
 64
     7
 65
   257
 75
     1
175
     1
 42
1.0
 92
        0
 66
   257
 43
1.0
 76
     1
 77
     6
 78
     2
 67
     7
 79
     5
170
     0
171
     0
290
     0
174
     0
 93
        1
 44
0.0
173
     0
291
     0
 45
0.0
1001
ACAD
1000
AcDbSavedByObjectVersion
1070
     0
  0
VISUALSTYLE
  5
F7
102
{ACAD_REACTORS
330
EF
102
}
330
EF
100
AcDbVisualStyle
  2
3D Hidden
 70
     6
 71
     1
 72
     2
 73
     2
 90
        0
 40
-0.6
 41
-30.0
 62
     5
 63
     7
 74
     2
 91
        2
 64
     7
 65
   257
 75
     2
175
     1
 42
40.0
 92
        0
 66
   257
 43
1.0
 76
     1
 77
     6
 78
     2
 67
     7
 79
     3
170
     0
171
     0
290
     0
174
     0
 93
        1
 44
0.0
173
     0
291
     0
 45
0.0
1001
ACAD
1000
AcDbSavedByObjectVersion
1070
     0
  0
VISUALSTYLE
  5
F6
102
{ACAD_REACTORS
330
EF
102
}
330
EF
100
AcDbVisualStyle
  2
3dWireframe
 70
     5
 71
     0
 72
     2
 73
     1
 90
        0
 40
-0.6
 41
-30.0
 62
     5
 63
     7
 74
     1
 91
        4
 64
     7
 65
   257
 75
     1
175
     1
 42
1.0
 92
        0
 66
   257
 43
1.0
 76
     1
 77
     6
 78
     2
 67
     7
 79
     5
170
     0
171
     0
290
     0
174
     0
 93
        1
 44
0.0
173
     0
291
     0
 45
0.0
1001
ACAD
1000
AcDbSavedByObjectVersion
1070
     0
  0
VISUALSTYLE
  5
F4
102
{ACAD_REACTORS
330
EF
102
}
330
EF
100
AcDbVisualStyle
  2
Basic
 70
     7
 71
     1
 72
     0
 73
     1
 90
        0
 40
-0.6
 41
-30.0
 62
     5
 63
     7
 74
     0
 91
        4
 64
     7
 65
   257
 75
     1
175
     1
 42
1.0
 92
        8
 66
     7
 43
1.0
 76
     1
 77
     6
 78
     2
 67
     7
 79
     5
170
     0
171
     0
290
     0
174
     0
 93
        1
 44
0.0
173
     0
291
     1
 45
0.0
1001
ACAD
1000
AcDbSavedByObjectVersion
1070
     0
  0
VISUALSTYLE
  5
FB
102
{ACAD_REACTORS
330
EF
102
}
330
EF
100
AcDbVisualStyle
  2
Brighten
 70
    12
 71
     2
 72
     2
 73
     1
 90
        0
 40
-0.6
 41
-30.0
 62
     5
 63
     7
 74
     1
 91
        4
 64
     7
 65
   257
 75
     1
175
     1
 42
1.0
 92
        8
 66
     7
 43
1.0
 76
     1
 77
     6
 78
     2
 67
     7
 79
     5
170
     0
171
     0
290
     0
174
     0
 93
        1
 44
50.0
173
     0
291
     1
 45
0.0
1001
ACAD
1000
AcDbSavedByObjectVersion
1070
     0
  0
VISUALSTYLE
  5
FF
102
{ACAD_REACTORS
330
EF
102
}
330
EF
100
AcDbVisualStyle
  2
ColorChange
 70
    16
 71
     2
 72
     2
 73
     3
 90
        0
 40
-0.6
 41
-30.0
 62
     5
 63
     8
 74
     1
 91
        4
 64
     7
 65
   257
 75
     1
175
     1
 42
1.0
 92
        8
 66
     8
 43
1.0
 76
     1
 77
     6
 78
     2
 67
     7
 79
     5
170
     0
171
     0
290
     0
174
     0
 93
        1
 44
0.0
173
     0
291
     1
 45
0.0
1001
ACAD
1000
AcDbSavedByObjectVersion
1070
     0
  0
VISUALSTYLE
  5
F8
102
{ACAD_REACTORS
330
EF
102
}
330
EF
100
AcDbVisualStyle
  2
Conceptual
 70
     9
 71
     3
 72
     2
 73
     1
 90
        0
 40
-0.6
 41
-30.0
 62
     5
 63
     7
 74
     2
 91
        2
 64
     7
 65
   257
 75
     1
175
     1
 42
40.0
 92
        8
 66
     7
 43
1.0
 76
     1
 77
     6
 78
     2
 67
     7
 79
     3
170
     0
171
     0
290
     0
174
     0
 93
        1
 44
0.0
173
     0
291
     0
 45
0.0
1001
ACAD
1000
AcDbSavedByObjectVersion
1070
     0
  0
VISUALSTYLE
  5
FA
102
{ACAD_REACTORS
330
EF
102
}
330
EF
100
AcDbVisualStyle
  2
Dim
 70
    11
 71
     2
 72
     2
 73
     1
 90
        0
 40
-0.6
 41
-30.0
 62
     5
 63
     7
 74
     1
 91
        4
 64
     7
 65
   257
 75
     1
175
     1
 42
1.0
 92
        8
 66
     7
 43
1.0
 76
     1
 77
     6
 78
     2
 67
     7
 79
     5
170
     0
171
     0
290
     0
174
     0
 93
        1
 44
-50.0
173
     0
291
     1
 45
0.0
1001
ACAD
1000
AcDbSavedByObjectVersion
1070
     0
  0
VISUALSTYLE
  5
FE
102
{ACAD_REACTORS
330
EF
102
}
330
EF
100
AcDbVisualStyle
  2
Facepattern
 70
    15
 71
     2
 72
     2
 73
     1
 90
        0
 40
-0.6
 41
-30.0
 62
     5
 63
     7
 74
     1
 91
        4
 64
     7
 65
   257
 75
     1
175
     1
 42
1.0
 92
        8
 66
     7
 43
1.0
 76
     1
 77
     6
 78
     2
 67
     7
 79
     5
170
     0
171
     0
290
     0
174
     0
 93
        1
 44
0.0
173
     0
291
     1
 45
0.0
1001
ACAD
1000
AcDbSavedByObjectVersion
1070
     0
  0
VISUALSTYLE
  5
F0
102
{ACAD_REACTORS
330
EF
102
}
330
EF
100
AcDbVisualStyle
  2
Flat
 70
     0
 71
     2
 72
     1
 73
     1
 90
        2
 40
-0.6
 41
30.0
 62
     5
 63
     7
 74
     0
 91
        4
 64
     7
 65
   257
 75
     1
175
     1
 42
1.0
 92
        8
 66
     7
 43
1.0
 76
     1
 77
     6
 78
     2
 67
     7
 79
     5
170
     0
171
     0
290
     0
174
     0
 93
        1
 44
0.0
173
     0
291
     1
 45
0.0
1001
ACAD
1000
AcDbSavedByObjectVersion
1070
     0
  0
VISUALSTYLE
  5
F1
102
{ACAD_REACTORS
330
EF
102
}
330
EF
100
AcDbVisualStyle
  2
FlatWithEdges
 70
     1
 71
     2
 72
     1
 73
     1
 90
        2
 40
-0.6
 41
30.0
 62
     5
 63
     7
 74
     1
 91
        4
 64
     7
 65
   257
 75
     1
175
     1
 42
1.0
 92
        0
 66
   257
 43
1.0
 76
     1
 77
     6
 78
     2
 67
     7
 79
     5
170
     0
171
     0
290
     0
174
     0
 93
        1
 44
0.0
173
     0
291
     1
 45
0.0
1001
ACAD
1000
AcDbSavedByObjectVersion
1070
     0
  0
VISUALSTYLE
  5
F2
102
{ACAD_REACTORS
330
EF
102
}
330
EF
100
AcDbVisualStyle
  2
Gouraud
 70
     2
 71
     2
 72
     2
 73
     1
 90
        2
 40
-0.6
 41
30.0
 62
     5
 63
     7
 74
     0
 91
        4
 64
     7
 65
   257
 75
     1
175
     1
 42
1.0
 92
        0
 66
     7
 43
1.0
 76
     1
 77
     6
 78
     2
 67
     7
 79
     5
170
     0
171
     0
290
     0
174
     0
 93
        1
 44
0.0
173
     0
291
     1
 45
0.0
1001
ACAD
1000
AcDbSavedByObjectVersion
1070
     0
  0
VISUALSTYLE
  5
F3
102
{ACAD_REACTORS
330
EF
102
}
330
EF
100
AcDbVisualStyle
  2
GouraudWithEdges
 70
     3
 71
     2
 72
     2
 73
     1
 90
        2
 40
-0.6
 41
30.0
 62
     5
 63
     7
 74
     1
 91
        4
 64
     7
 65
   257
 75
     1
175
     1
 42
1.0
 92
        0
 66
   257
 43
1.0
 76
     1
 77
     6
 78
     2
 67
     7
 79
     5
170
     0
171
     0
290
     0
174
     0
 93
        1
 44
0.0
173
     0
291
     1
 45
0.0
1001
ACAD
1000
AcDbSavedByObjectVersion
1070
     0
  0
VISUALSTYLE
  5
FD
102
{ACAD_REACTORS
330
EF
102
}
330
EF
100
AcDbVisualStyle
  2
Linepattern
 70
    14
 71
     2
 72
     2
 73
     1
 90
        0
 40
-0.6
 41
-30.0
 62
     5
 63
     7
 74
     1
 91
        4
 64
     7
 65
   257
 75
     7
175
     7
 42
1.0
 92
        8
 66
     7
 43
1.0
 76
     1
 77
     6
 78
     2
 67
     7
 79
     5
170
     0
171
     0
290
     0
174
     0
 93
        1
 44
0.0
173
     0
291
     1
 45
0.0
1001
ACAD
1000
AcDbSavedByObjectVersion
1070
     0
  0
VISUALSTYLE
  5
F9
102
{ACAD_REACTORS
330
EF
102
}
330
EF
100
AcDbVisualStyle
  2
Realistic
 70
     8
 71
     2
 72
     2
 73
     1
 90
        0
 40
-0.6
 41
-30.0
 62
     5
 63
     7
 74
     1
 91
        0
 64
     7
 65
   257
 75
     1
175
     1
 42
1.0
 92
        8
 66
     8
 43
1.0
 76
     1
 77
     6
 78
     2
 67
     7
 79
     5
170
     0
171
     0
290
     0
174
     0
 93
       13
 44
0.0
173
     0
291
     0
 45
0.0
1001
ACAD
1000
AcDbSavedByObjectVersion
1070
     0
  0
VISUALSTYLE
  5
FC
102
{ACAD_REACTORS
330
EF
102
}
330
EF
100
AcDbVisualStyle
  2
Thicken
 70
    13
 71
     2
 72
     2
 73
     1
 90
        0
 40
-0.6
 41
-30.0
 62
     5
 63
     7
 74
     1
 91
        4
 64
     7
 65
   257
 75
     1
175
     1
 42
1.0
 92
       12
 66
     7
 43
1.0
 76
     1
 77
     6
 78
     2
 67
     7
 79
     5
170
     0
171
     0
290
     0
174
     0
 93
        1
 44
0.0
173
     0
291
     1
 45
0.0
1001
ACAD
1000
AcDbSavedByObjectVersion
1070
     0
  0
DICTIONARYVAR
  5
146
102
{ACAD_REACTORS
330
5E
102
}
330
5E
100
DictionaryVariables
280
     0
  1
1:1
  0
DICTIONARYVAR
  5
145
102
{ACAD_REACTORS
330
5E
102
}
330
5E
100
DictionaryVariables
280
     0
  1
STANDARD
  0
DICTIONARYVAR
  5
84
102
{ACAD_REACTORS
330
5E
102
}
330
5E
100
DictionaryVariables
280
     0
  1
STANDARD
  0
DICTIONARYVAR
  5
5F
102
{ACAD_REACTORS
330
5E
102
}
330
5E
100
DictionaryVariables
280
     0
  1
2
  0
DICTIONARYVAR
  5
63
102
{ACAD_REACTORS
330
5E
102
}
330
5E
100
DictionaryVariables
280
     0
  1
1
  0
DICTIONARYVAR
  5
3A5
102
{ACAD_REACTORS
330
5E
102
}
330
5E
100
DictionaryVariables
280
     0
  1
0
  0
DICTIONARYVAR
  5
3A3
102
{ACAD_REACTORS
330
5E
102
}
330
5E
100
DictionaryVariables
280
     0
  1
2
  0
DICTIONARYVAR
  5
3A2
102
{ACAD_REACTORS
330
5E
102
}
330
5E
100
DictionaryVariables
280
     0
  1
1
  0
DICTIONARYVAR
  5
3A7
102
{ACAD_REACTORS
330
5E
102
}
330
5E
100
DictionaryVariables
280
     0
  1
80.000000
  0
DICTIONARYVAR
  5
3A6
102
{ACAD_REACTORS
330
5E
102
}
330
5E
100
DictionaryVariables
280
     0
  1
5.000000
  0
DICTIONARYVAR
  5
3A4
102
{ACAD_REACTORS
330
5E
102
}
330
5E
100
DictionaryVariables
280
     0
  1
127
  0
DICTIONARY
  5
3AD
330
D3
100
AcDbDictionary
280
     1
281
     1
  3
ACAD_XREC_ROUNDTRIP
360
3AE
  0
DICTIONARY
  5
3AF
330
D7
100
AcDbDictionary
280
     1
281
     1
  3
ACAD_XREC_ROUNDTRIP
360
3B0
  0
DICTIONARY
  5
3AA
330
22
100
AcDbDictionary
280
     1
281
     1
  3
ACAD_XREC_ROUNDTRIP
360
3AB
  0
DICTIONARY
  5
3B3
330
ED
100
AcDbDictionary
280
     1
281
     1
  3
ACAD_XREC_ROUNDTRIP
360
3B4
  0
DICTIONARY
  5
3B1
330
EC
100
AcDbDictionary
280
     1
281
     1
  3
ACAD_XREC_ROUNDTRIP
360
3B2
  0
DICTIONARY
  5
173
330
EE
100
AcDbDictionary
280
     1
281
     1
  3
ACAD_XREC_ROUNDTRIP
360
3B5
  3
BUMPTILE
360
175
  3
DIFFUSETILE
360
174
  3
OPACITYTILE
360
176
  3
REFLECTIONTILE
360
177
  0
DICTIONARY
  5
162
330
7F
100
AcDbDictionary
280
     1
281
     1
  3
ACAD_ROUNDTRIP_2008_TABLESTYLE_CELLSTYLEMAP
360
3A8
  3
ACAD_XREC_ROUNDTRIP
360
3AC
  0
XRECORD
  5
3AE
102
{ACAD_REACTORS
330
3AD
102
}
330
3AD
100
AcDbXrecord
280
     1
102
SHADEPLOT
 70
     0
102
SHADEPLOTRESLEVEL
 70
     2
102
SHADEPLOTCUSTOMDPI
 70
   300
  0
XRECORD
  5
3B0
102
{ACAD_REACTORS
330
3AF
102
}
330
3AF
100
AcDbXrecord
280
     1
102
SHADEPLOT
 70
     0
102
SHADEPLOTRESLEVEL
 70
     2
102
SHADEPLOTCUSTOMDPI
 70
   300
  0
XRECORD
  5
3AB
102
{ACAD_REACTORS
330
3AA
102
}
330
3AA
100
AcDbXrecord
280
     1
102
SHADEPLOT
 70
     0
102
SHADEPLOTRESLEVEL
 70
     2
102
SHADEPLOTCUSTOMDPI
 70
   300
  0
XRECORD
  5
3B4
102
{ACAD_REACTORS
330
3B3
102
}
330
3B3
100
AcDbXrecord
280
     1
102
MATERIAL
148
0.0
149
0.0
149
0.0
 93
        0
 94
       63
282
     0
 72
     1
 77
     1
171
     1
175
     1
179
     1
273
     0
  0
XRECORD
  5
3B2
102
{ACAD_REACTORS
330
3B1
102
}
330
3B1
100
AcDbXrecord
280
     1
102
MATERIAL
148
0.0
149
0.0
149
0.0
 93
        0
 94
       63
282
     0
 72
     1
 77
     1
171
     1
175
     1
179
     1
273
     0
  0
XRECORD
  5
3B5
102
{ACAD_REACTORS
330
173
102
}
330
173
100
AcDbXrecord
280
     1
102
MATERIAL
148
0.0
149
0.0
149
0.0
 93
        0
 94
       63
282
     0
 72
     1
 77
     1
171
     1
175
     1
179
     1
273
     0
  0
XRECORD
  5
175
102
{ACAD_REACTORS
330
173
102
}
330
173
100
AcDbXrecord
280
     1
270
     1
271
     1
  0
XRECORD
  5
174
102
{ACAD_REACTORS
330
173
102
}
330
173
100
AcDbXrecord
280
     1
270
     1
271
     1
  0
XRECORD
  5
176
102
{ACAD_REACTORS
330
173
102
}
330
173
100
AcDbXrecord
280
     1
270
     1
271
     1
  0
XRECORD
  5
177
102
{ACAD_REACTORS
330
173
102
}
330
173
100
AcDbXrecord
280
     1
270
     1
271
     1
  0
CELLSTYLEMAP
  5
3A8
102
{ACAD_REACTORS
330
162
102
}
330
162
100
AcDbCellStyleMap
 90
        3
300
CELLSTYLE
  1
TABLEFORMAT_BEGIN
 90
        5
170
     1
 91
        0
 92
    32768
 62
   257
 93
        1
300
CONTENTFORMAT
  1
CONTENTFORMAT_BEGIN
 90
        0
 91
        0
 92
      512
 93
        0
300

 40
0.0
140
1.0
 94
        5
 62
     0
340
11
144
6.0
309
CONTENTFORMAT_END
171
     1
301
MARGIN
  1
CELLMARGIN_BEGIN
 40
1.5
 40
1.5
 40
1.5
 40
1.5
 40
4.5
 40
4.5
309
CELLMARGIN_END
 94
        6
 95
        1
302
GRIDFORMAT
  1
GRIDFORMAT_BEGIN
 90
        0
 91
        1
 62
     0
 92
       -2
340
14
 93
        0
 40
1.125
309
GRIDFORMAT_END
 95
        2
302
GRIDFORMAT
  1
GRIDFORMAT_BEGIN
 90
        0
 91
        1
 62
     0
 92
       -2
340
14
 93
        0
 40
1.125
309
GRIDFORMAT_END
 95
        4
302
GRIDFORMAT
  1
GRIDFORMAT_BEGIN
 90
        0
 91
        1
 62
     0
 92
       -2
340
14
 93
        0
 40
1.125
309
GRIDFORMAT_END
 95
        8
302
GRIDFORMAT
  1
GRIDFORMAT_BEGIN
 90
        0
 91
        1
 62
     0
 92
       -2
340
14
 93
        0
 40
1.125
309
GRIDFORMAT_END
 95
       16
302
GRIDFORMAT
  1
GRIDFORMAT_BEGIN
 90
        0
 91
        1
 62
     0
 92
       -2
340
14
 93
        0
 40
1.125
309
GRIDFORMAT_END
 95
       32
302
GRIDFORMAT
  1
GRIDFORMAT_BEGIN
 90
        0
 91
        1
 62
     0
 92
       -2
340
14
 93
        0
 40
1.125
309
GRIDFORMAT_END
309
TABLEFORMAT_END
  1
CELLSTYLE_BEGIN
 90
        1
 91
        1
300
_TITLE
309
CELLSTYLE_END
300
CELLSTYLE
  1
TABLEFORMAT_BEGIN
 90
        5
170
     1
 91
        0
 92
        0
 62
   257
 93
        1
300
CONTENTFORMAT
  1
CONTENTFORMAT_BEGIN
 90
        0
 91
        0
 92
      512
 93
        0
300

 40
0.0
140
1.0
 94
        5
 62
     0
340
11
144
4.5
309
CONTENTFORMAT_END
171
     1
301
MARGIN
  1
CELLMARGIN_BEGIN
 40
1.5
 40
1.5
 40
1.5
 40
1.5
 40
4.5
 40
4.5
309
CELLMARGIN_END
 94
        6
 95
        1
302
GRIDFORMAT
  1
GRIDFORMAT_BEGIN
 90
        0
 91
        1
 62
     0
 92
       -2
340
14
 93
        0
 40
1.125
309
GRIDFORMAT_END
 95
        2
302
GRIDFORMAT
  1
GRIDFORMAT_BEGIN
 90
        0
 91
        1
 62
     0
 92
       -2
340
14
 93
        0
 40
1.125
309
GRIDFORMAT_END
 95
        4
302
GRIDFORMAT
  1
GRIDFORMAT_BEGIN
 90
        0
 91
        1
 62
     0
 92
       -2
340
14
 93
        0
 40
1.125
309
GRIDFORMAT_END
 95
        8
302
GRIDFORMAT
  1
GRIDFORMAT_BEGIN
 90
        0
 91
        1
 62
     0
 92
       -2
340
14
 93
        0
 40
1.125
309
GRIDFORMAT_END
 95
       16
302
GRIDFORMAT
  1
GRIDFORMAT_BEGIN
 90
        0
 91
        1
 62
     0
 92
       -2
340
14
 93
        0
 40
1.125
309
GRIDFORMAT_END
 95
       32
302
GRIDFORMAT
  1
GRIDFORMAT_BEGIN
 90
        0
 91
        1
 62
     0
 92
       -2
340
14
 93
        0
 40
1.125
309
GRIDFORMAT_END
309
TABLEFORMAT_END
  1
CELLSTYLE_BEGIN
 90
        2
 91
        1
300
_HEADER
309
CELLSTYLE_END
300
CELLSTYLE
  1
TABLEFORMAT_BEGIN
 90
        5
170
     1
 91
        0
 92
        0
 62
   257
 93
        1
300
CONTENTFORMAT
  1
CONTENTFORMAT_BEGIN
 90
        0
 91
        0
 92
      512
 93
        0
300

 40
0.0
140
1.0
 94
        2
 62
     0
340
11
144
4.5
309
CONTENTFORMAT_END
171
     1
301
MARGIN
  1
CELLMARGIN_BEGIN
 40
1.5
 40
1.5
 40
1.5
 40
1.5
 40
4.5
 40
4.5
309
CELLMARGIN_END
 94
        6
 95
        1
302
GRIDFORMAT
  1
GRIDFORMAT_BEGIN
 90
        0
 91
        1
 62
     0
 92
       -2
340
14
 93
        0
 40
1.125
309
GRIDFORMAT_END
 95
        2
302
GRIDFORMAT
  1
GRIDFORMAT_BEGIN
 90
        0
 91
        1
 62
     0
 92
       -2
340
14
 93
        0
 40
1.125
309
GRIDFORMAT_END
 95
        4
302
GRIDFORMAT
  1
GRIDFORMAT_BEGIN
 90
        0
 91
        1
 62
     0
 92
       -2
340
14
 93
        0
 40
1.125
309
GRIDFORMAT_END
 95
        8
302
GRIDFORMAT
  1
GRIDFORMAT_BEGIN
 90
        0
 91
        1
 62
     0
 92
       -2
340
14
 93
        0
 40
1.125
309
GRIDFORMAT_END
 95
       16
302
GRIDFORMAT
  1
GRIDFORMAT_BEGIN
 90
        0
 91
        1
 62
     0
 92
       -2
340
14
 93
        0
 40
1.125
309
GRIDFORMAT_END
 95
       32
302
GRIDFORMAT
  1
GRIDFORMAT_BEGIN
 90
        0
 91
        1
 62
     0
 92
       -2
340
14
 93
        0
 40
1.125
309
GRIDFORMAT_END
309
TABLEFORMAT_END
  1
CELLSTYLE_BEGIN
 90
        3
 91
        2
300
_DATA
309
CELLSTYLE_END
  0
XRECORD
  5
3AC
102
{ACAD_REACTORS
330
162
102
}
330
162
100
AcDbXrecord
280
     1
102
ACAD_ROUNDTRIP_PRE2007_TABLESTYLE
 90
      512
 91
        0
  1

 92
      512
 93
        0
  2

 94
      512
 95
        0
  3

  0
ENDSEC
  0
EOF
