  0
SECTION
  2
HEADER
  9
$ACADVER
  1
AC1015
  9
$ACADMAINTVER
 70
    20
  9
$DWGCODEPAGE
  3
ANSI_1254
  9
$INSBASE
 10
0.0
 20
0.0
 30
0.0
  9
$EXTMIN
 10
1775.548913710396
 20
1019.209439905954
 30
0.0
  9
$EXTMAX
 10
1865.036445681838
 20
1078.897200846554
 30
0.0
  9
$LIMMIN
 10
0.0
 20
0.0
  9
$LIMMAX
 10
420.0
 20
297.0
  9
$ORTHOMODE
 70
     1
  9
$REGENMODE
 70
     1
  9
$FILLMODE
 70
     1
  9
$QTEXTMODE
 70
     0
  9
$MIRRTEXT
 70
     0
  9
$LTSCALE
 40
1.0
  9
$ATTMODE
 70
     1
  9
$TEXTSIZE
 40
2.5
  9
$TRACEWID
 40
1.0
  9
$TEXTSTYLE
  7
Standard
  9
$CLAYER
  8
0
  9
$CELTYPE
  6
ByLayer
  9
$CECOLOR
 62
   256
  9
$CELTSCALE
 40
1.0
  9
$DISPSILH
 70
     0
  9
$DIMSCALE
 40
1.0
  9
$DIMASZ
 40
2.5
  9
$DIMEXO
 40
0.625
  9
$DIMDLI
 40
3.75
  9
$DIMRND
 40
0.0
  9
$DIMDLE
 40
0.0
  9
$DIMEXE
 40
1.25
  9
$DIMTP
 40
0.0
  9
$DIMTM
 40
0.0
  9
$DIMTXT
 40
2.5
  9
$DIMCEN
 40
2.5
  9
$DIMTSZ
 40
0.0
  9
$DIMTOL
 70
     0
  9
$DIMLIM
 70
     0
  9
$DIMTIH
 70
     0
  9
$DIMTOH
 70
     0
  9
$DIMSE1
 70
     0
  9
$DIMSE2
 70
     0
  9
$DIMTAD
 70
     1
  9
$DIMZIN
 70
     8
  9
$DIMBLK
  1

  9
$DIMASO
 70
     1
  9
$DIMSHO
 70
     1
  9
$DIMPOST
  1

  9
$DIMAPOST
  1

  9
$DIMALT
 70
     0
  9
$DIMALTD
 70
     3
  9
$DIMALTF
 40
0.03937007874016
  9
$DIMLFAC
 40
1.0
  9
$DIMTOFL
 70
     1
  9
$DIMTVP
 40
0.0
  9
$DIMTIX
 70
     0
  9
$DIMSOXD
 70
     0
  9
$DIMSAH
 70
     0
  9
$DIMBLK1
  1

  9
$DIMBLK2
  1

  9
$DIMSTYLE
  2
ISO-25
  9
$DIMCLRD
 70
     0
  9
$DIMCLRE
 70
     0
  9
$DIMCLRT
 70
     0
  9
$DIMTFAC
 40
1.0
  9
$DIMGAP
 40
0.625
  9
$DIMJUST
 70
     0
  9
$DIMSD1
 70
     0
  9
$DIMSD2
 70
     0
  9
$DIMTOLJ
 70
     0
  9
$DIMTZIN
 70
     8
  9
$DIMALTZ
 70
     0
  9
$DIMALTTZ
 70
     0
  9
$DIMUPT
 70
     0
  9
$DIMDEC
 70
     2
  9
$DIMTDEC
 70
     2
  9
$DIMALTU
 70
     2
  9
$DIMALTTD
 70
     3
  9
$DIMTXSTY
  7
Standard
  9
$DIMAUNIT
 70
     0
  9
$DIMADEC
 70
     0
  9
$DIMALTRND
 40
0.0
  9
$DIMAZIN
 70
     0
  9
$DIMDSEP
 70
    44
  9
$DIMATFIT
 70
     3
  9
$DIMFRAC
 70
     0
  9
$DIMLDRBLK
  1

  9
$DIMLUNIT
 70
     2
  9
$DIMLWD
 70
    -2
  9
$DIMLWE
 70
    -2
  9
$DIMTMOVE
 70
     0
  9
$LUNITS
 70
     2
  9
$LUPREC
 70
     4
  9
$SKETCHINC
 40
1.0
  9
$FILLETRAD
 40
0.0
  9
$AUNITS
 70
     0
  9
$AUPREC
 70
     0
  9
$MENU
  1
.
  9
$ELEVATION
 40
0.0
  9
$PELEVATION
 40
0.0
  9
$THICKNESS
 40
0.0
  9
$LIMCHECK
 70
     0
  9
$CHAMFERA
 40
0.0
  9
$CHAMFERB
 40
0.0
  9
$CHAMFERC
 40
0.0
  9
$CHAMFERD
 40
0.0
  9
$SKPOLY
 70
     0
  9
$TDCREATE
 40
2459059.565992165
  9
$TDUCREATE
 40
2459059.440992164
  9
$TDUPDATE
 40
2459067.654103102
  9
$TDUUPDATE
 40
2459067.529103102
  9
$TDINDWG
 40
0.0044427199
  9
$TDUSRTIMER
 40
0.0044427199
  9
$USRTIMER
 70
     1
  9
$ANGBASE
 50
0.0
  9
$ANGDIR
 70
     0
  9
$PDMODE
 70
     0
  9
$PDSIZE
 40
0.0
  9
$PLINEWID
 40
0.0
  9
$SPLFRAME
 70
     0
  9
$SPLINETYPE
 70
     6
  9
$SPLINESEGS
 70
     8
  9
$HANDSEED
  5
3D0
  9
$SURFTAB1
 70
     6
  9
$SURFTAB2
 70
     6
  9
$SURFTYPE
 70
     6
  9
$SURFU
 70
     6
  9
$SURFV
 70
     6
  9
$UCSBASE
  2

  9
$UCSNAME
  2

  9
$UCSORG
 10
0.0
 20
0.0
 30
0.0
  9
$UCSXDIR
 10
1.0
 20
0.0
 30
0.0
  9
$UCSYDIR
 10
0.0
 20
1.0
 30
0.0
  9
$UCSORTHOREF
  2

  9
$UCSORTHOVIEW
 70
     0
  9
$UCSORGTOP
 10
0.0
 20
0.0
 30
0.0
  9
$UCSORGBOTTOM
 10
0.0
 20
0.0
 30
0.0
  9
$UCSORGLEFT
 10
0.0
 20
0.0
 30
0.0
  9
$UCSORGRIGHT
 10
0.0
 20
0.0
 30
0.0
  9
$UCSORGFRONT
 10
0.0
 20
0.0
 30
0.0
  9
$UCSORGBACK
 10
0.0
 20
0.0
 30
0.0
  9
$PUCSBASE
  2

  9
$PUCSNAME
  2

  9
$PUCSORG
 10
0.0
 20
0.0
 30
0.0
  9
$PUCSXDIR
 10
1.0
 20
0.0
 30
0.0
  9
$PUCSYDIR
 10
0.0
 20
1.0
 30
0.0
  9
$PUCSORTHOREF
  2

  9
$PUCSORTHOVIEW
 70
     0
  9
$PUCSORGTOP
 10
0.0
 20
0.0
 30
0.0
  9
$PUCSORGBOTTOM
 10
0.0
 20
0.0
 30
0.0
  9
$PUCSORGLEFT
 10
0.0
 20
0.0
 30
0.0
  9
$PUCSORGRIGHT
 10
0.0
 20
0.0
 30
0.0
  9
$PUCSORGFRONT
 10
0.0
 20
0.0
 30
0.0
  9
$PUCSORGBACK
 10
0.0
 20
0.0
 30
0.0
  9
$USERI1
 70
     0
  9
$USERI2
 70
     0
  9
$USERI3
 70
     0
  9
$USERI4
 70
     0
  9
$USERI5
 70
     0
  9
$USERR1
 40
0.0
  9
$USERR2
 40
0.0
  9
$USERR3
 40
0.0
  9
$USERR4
 40
0.0
  9
$USERR5
 40
0.0
  9
$WORLDVIEW
 70
     1
  9
$SHADEDGE
 70
     3
  9
$SHADEDIF
 70
    70
  9
$TILEMODE
 70
     1
  9
$MAXACTVP
 70
    64
  9
$PINSBASE
 10
0.0
 20
0.0
 30
0.0
  9
$PLIMCHECK
 70
     0
  9
$PEXTMIN
 10
0.0
 20
0.0
 30
0.0
  9
$PEXTMAX
 10
0.0
 20
0.0
 30
0.0
  9
$PLIMMIN
 10
0.0
 20
0.0
  9
$PLIMMAX
 10
12.0
 20
9.0
  9
$UNITMODE
 70
     0
  9
$VISRETAIN
 70
     1
  9
$PLINEGEN
 70
     0
  9
$PSLTSCALE
 70
     1
  9
$TREEDEPTH
 70
  3020
  9
$CMLSTYLE
  2
Standard
  9
$CMLJUST
 70
     0
  9
$CMLSCALE
 40
20.0
  9
$PROXYGRAPHICS
 70
     1
  9
$MEASUREMENT
 70
     1
  9
$CELWEIGHT
370
    -1
  9
$ENDCAPS
280
     0
  9
$JOINSTYLE
280
     0
  9
$LWDISPLAY
290
     0
  9
$INSUNITS
 70
     4
  9
$HYPERLINKBASE
  1

  9
$STYLESHEET
  1

  9
$XEDIT
290
     1
  9
$CEPSNTYPE
380
     0
  9
$PSTYLEMODE
290
     1
  9
$FINGERPRINTGUID
  2
{426A006B-E7FC-40BF-BDAB-6171E138EEF8}
  9
$VERSIONGUID
  2
{0517A866-2A0B-470A-AF01-E46E3C91B6BC}
  9
$EXTNAMES
290
     1
  9
$PSVPSCALE
 40
0.0
  9
$OLESTARTUP
290
     0
  0
ENDSEC
  0
SECTION
  2
CLASSES
  0
CLASS
  1
ACDBDICTIONARYWDFLT
  2
AcDbDictionaryWithDefault
  3
ObjectDBX Classes
 90
        0
280
     0
281
     0
  0
CLASS
  1
ACDBPLACEHOLDER
  2
AcDbPlaceHolder
  3
ObjectDBX Classes
 90
        0
280
     0
281
     0
  0
CLASS
  1
LAYOUT
  2
AcDbLayout
  3
ObjectDBX Classes
 90
        0
280
     0
281
     0
  0
CLASS
  1
DICTIONARYVAR
  2
AcDbDictionaryVar
  3
ObjectDBX Classes
 90
        0
280
     0
281
     0
  0
CLASS
  1
TABLESTYLE
  2
AcDbTableStyle
  3
ObjectDBX Classes
 90
     4095
280
     0
281
     0
  0
CLASS
  1
MATERIAL
  2
AcDbMaterial
  3
ObjectDBX Classes
 90
     1153
280
     0
281
     0
  0
CLASS
  1
VISUALSTYLE
  2
AcDbVisualStyle
  3
ObjectDBX Classes
 90
     4095
280
     0
281
     0
  0
CLASS
  1
SCALE
  2
AcDbScale
  3
ObjectDBX Classes
 90
     1153
280
     0
281
     0
  0
CLASS
  1
MLEADERSTYLE
  2
AcDbMLeaderStyle
  3
ACDB_MLEADERSTYLE_CLASS
 90
     4095
280
     0
281
     0
  0
CLASS
  1
CELLSTYLEMAP
  2
AcDbCellStyleMap
  3
ObjectDBX Classes
 90
     1152
280
     0
281
     0
  0
CLASS
  1
ACAD_EVALUATION_GRAPH
  2
AcDbEvalGraph
  3
ObjectDBX Classes
 90
    33921
280
     0
281
     0
  0
CLASS
  1
ACAECUSTOBJ
  2
AcAeEditorObj
  3
AcAeEditorObj
 90
    33792
280
     0
281
     0
  0
CLASS
  1
ACDB_DYNAMICBLOCKPURGEPREVENTER_VERSION
  2
AcDbDynamicBlockPurgePreventer
  3
ObjectDBX Classes
 90
    33921
280
     0
281
     0
  0
ENDSEC
  0
SECTION
  2
TABLES
  0
TABLE
  2
VPORT
  5
8
330
0
100
AcDbSymbolTable
 70
     1
  0
VPORT
  5
EA
330
8
100
AcDbSymbolTableRecord
100
AcDbViewportTableRecord
  2
*Active
 70
     0
 10
0.0
 20
0.0
 11
1.0
 21
1.0
 12
1807.136215853137
 22
1052.922981158299
 13
0.0
 23
0.0
 14
10.0
 24
10.0
 15
10.0
 25
10.0
 16
0.0
 26
0.0
 36
1.0
 17
0.0
 27
0.0
 37
0.0
 40
75.18665099446912
 41
1.903110047846889
 42
50.0
 43
0.0
 44
0.0
 50
0.0
 51
0.0
 71
     0
 72
  1000
 73
     1
 74
     3
 75
     0
 76
     0
 77
     0
 78
     0
281
     0
 65
     1
110
0.0
120
0.0
130
0.0
111
1.0
121
0.0
131
0.0
112
0.0
122
1.0
132
0.0
 79
     0
146
0.0
  0
ENDTAB
  0
TABLE
  2
LTYPE
  5
5
330
0
100
AcDbSymbolTable
 70
     2
  0
LTYPE
  5
14
330
5
100
AcDbSymbolTableRecord
100
AcDbLinetypeTableRecord
  2
ByBlock
 70
     0
  3

 72
    65
 73
     0
 40
0.0
  0
LTYPE
  5
15
330
5
100
AcDbSymbolTableRecord
100
AcDbLinetypeTableRecord
  2
ByLayer
 70
     0
  3

 72
    65
 73
     0
 40
0.0
  0
LTYPE
  5
16
330
5
100
AcDbSymbolTableRecord
100
AcDbLinetypeTableRecord
  2
Continuous
 70
     0
  3
Solid line
 72
    65
 73
     0
 40
0.0
  0
LTYPE
  5
1B8
330
5
100
AcDbSymbolTableRecord
100
AcDbLinetypeTableRecord
  2
CENTERX2
 70
     0
  3
Center (2x) ________  __  ________  __  _____
 72
    65
 73
     4
 40
20.32
 49
12.7
 74
     0
 49
-2.54
 74
     0
 49
2.54
 74
     0
 49
-2.54
 74
     0
  0
ENDTAB
  0
TABLE
  2
LAYER
  5
2
330
0
100
AcDbSymbolTable
 70
     1
  0
LAYER
  5
10
102
{ACAD_XDICTIONARY
360
13C
102
}
330
2
100
AcDbSymbolTableRecord
100
AcDbLayerTableRecord
  2
0
 70
     0
 62
     7
  6
Continuous
370
    -3
390
F
  0
ENDTAB
  0
TABLE
  2
STYLE
  5
3
330
0
100
AcDbSymbolTable
 70
     2
  0
STYLE
  5
11
330
3
100
AcDbSymbolTableRecord
100
AcDbTextStyleTableRecord
  2
Standard
 70
     0
 40
0.0
 41
1.0
 50
0.0
 71
     0
 42
2.5
  3
txt
  4

  0
STYLE
  5
132
330
3
100
AcDbSymbolTableRecord
100
AcDbTextStyleTableRecord
  2
Annotative
 70
     0
 40
0.0
 41
1.0
 50
0.0
 71
     0
 42
2.5
  3
txt.shx
  4

1001
AcadAnnotative
1000
AnnotativeData
1002
{
1070
     1
1070
     1
1002
}
  0
ENDTAB
  0
TABLE
  2
VIEW
  5
6
330
0
100
AcDbSymbolTable
 70
     0
  0
ENDTAB
  0
TABLE
  2
UCS
  5
7
330
0
100
AcDbSymbolTable
 70
     0
  0
ENDTAB
  0
TABLE
  2
APPID
  5
9
330
0
100
AcDbSymbolTable
 70
    11
  0
APPID
  5
12
330
9
100
AcDbSymbolTableRecord
100
AcDbRegAppTableRecord
  2
ACAD
 70
     0
  0
APPID
  5
9E
330
9
100
AcDbSymbolTableRecord
100
AcDbRegAppTableRecord
  2
ACAD_PSEXT
 70
     0
  0
APPID
  5
133
330
9
100
AcDbSymbolTableRecord
100
AcDbRegAppTableRecord
  2
AcadAnnoPO
 70
     0
  0
APPID
  5
134
330
9
100
AcDbSymbolTableRecord
100
AcDbRegAppTableRecord
  2
AcadAnnotative
 70
     0
  0
APPID
  5
135
330
9
100
AcDbSymbolTableRecord
100
AcDbRegAppTableRecord
  2
ACAD_DSTYLE_DIMJAG
 70
     0
  0
APPID
  5
136
330
9
100
AcDbSymbolTableRecord
100
AcDbRegAppTableRecord
  2
ACAD_DSTYLE_DIMTALN
 70
     0
  0
APPID
  5
165
330
9
100
AcDbSymbolTableRecord
100
AcDbRegAppTableRecord
  2
ACAD_MLEADERVER
 70
     0
  0
APPID
  5
376
330
9
100
AcDbSymbolTableRecord
100
AcDbRegAppTableRecord
  2
ACAUTHENVIRON
 70
     0
  0
APPID
  5
37A
330
9
100
AcDbSymbolTableRecord
100
AcDbRegAppTableRecord
  2
AcDbDynamicBlockTrueName
 70
     0
  0
APPID
  5
37B
330
9
100
AcDbSymbolTableRecord
100
AcDbRegAppTableRecord
  2
AcDbDynamicBlockGUID
 70
     0
  0
APPID
  5
37D
330
9
100
AcDbSymbolTableRecord
100
AcDbRegAppTableRecord
  2
AcDbBlockRepETag
 70
     0
  0
ENDTAB
  0
TABLE
  2
DIMSTYLE
  5
A
330
0
100
AcDbSymbolTable
 70
     2
100
AcDbDimStyleTable
 71
     2
340
27
340
137
  0
DIMSTYLE
105
27
330
A
100
AcDbSymbolTableRecord
100
AcDbDimStyleTableRecord
  2
ISO-25
 70
     0
 41
2.5
 42
0.625
 43
3.75
 44
1.25
 73
     0
 74
     0
 77
     1
 78
     8
140
2.5
141
2.5
143
0.03937007874016
147
0.625
171
     3
172
     1
271
     2
272
     2
274
     3
278
    44
283
     0
284
     8
340
11
  0
DIMSTYLE
105
137
330
A
100
AcDbSymbolTableRecord
100
AcDbDimStyleTableRecord
  2
Annotative
 70
     0
 40
0.0
 41
2.5
 42
0.625
 43
3.75
 44
1.25
 73
     0
 74
     0
 77
     1
 78
     8
140
2.5
141
2.5
143
0.03937007874016
147
0.625
171
     3
172
     1
271
     2
272
     2
274
     3
278
    44
283
     0
284
     8
340
11
1001
AcadAnnotative
1000
AnnotativeData
1002
{
1070
     1
1070
     1
1002
}
1001
ACAD_DSTYLE_DIMJAG
1070
   388
1040
1.5
1001
ACAD_DSTYLE_DIMTALN
1070
   392
1070
     0
  0
ENDTAB
  0
TABLE
  2
BLOCK_RECORD
  5
1
330
0
100
AcDbSymbolTable
 70
     6
  0
BLOCK_RECORD
  5
1F
330
1
100
AcDbSymbolTableRecord
100
AcDbBlockTableRecord
  2
*Model_Space
340
22
  0
BLOCK_RECORD
  5
D2
330
1
100
AcDbSymbolTableRecord
100
AcDbBlockTableRecord
  2
*Paper_Space
340
D3
  0
BLOCK_RECORD
  5
D6
330
1
100
AcDbSymbolTableRecord
100
AcDbBlockTableRecord
  2
*Paper_Space0
340
D7
  0
BLOCK_RECORD
  5
1AD
330
1
100
AcDbSymbolTableRecord
100
AcDbBlockTableRecord
  2
SW_CENTERMARKSYMBOL_0
340
0
102
{BLKREFS
331
2E3
102
}
  0
BLOCK_RECORD
  5
2C5
330
1
100
AcDbSymbolTableRecord
100
AcDbBlockTableRecord
  2
1
340
0
310
2800000020000000200000000100080000000000000400000000000000000000000000000000000000000000000080000080000000808000800000008000800080800000C0C0C000C0DCC000F0CAA6000020400000206000002080000020A0000020C0000020E00000400000004020000040400000406000004080000040A0
310
000040C0000040E00000600000006020000060400000606000006080000060A0000060C0000060E00000800000008020000080400000806000008080000080A0000080C0000080E00000A0000000A0200000A0400000A0600000A0800000A0A00000A0C00000A0E00000C0000000C0200000C0400000C0600000C0800000C0
310
A00000C0C00000C0E00000E0000000E0200000E0400000E0600000E0800000E0A00000E0C00000E0E00040000000400020004000400040006000400080004000A0004000C0004000E00040200000402020004020400040206000402080004020A0004020C0004020E000404000004040200040404000404060004040800040
310
40A0004040C0004040E00040600000406020004060400040606000406080004060A0004060C0004060E00040800000408020004080400040806000408080004080A0004080C0004080E00040A0000040A0200040A0400040A0600040A0800040A0A00040A0C00040A0E00040C0000040C0200040C0400040C0600040C08000
310
40C0A00040C0C00040C0E00040E0000040E0200040E0400040E0600040E0800040E0A00040E0C00040E0E00080000000800020008000400080006000800080008000A0008000C0008000E00080200000802020008020400080206000802080008020A0008020C0008020E00080400000804020008040400080406000804080
310
008040A0008040C0008040E00080600000806020008060400080606000806080008060A0008060C0008060E00080800000808020008080400080806000808080008080A0008080C0008080E00080A0000080A0200080A0400080A0600080A0800080A0A00080A0C00080A0E00080C0000080C0200080C0400080C0600080C0
310
800080C0A00080C0C00080C0E00080E0000080E0200080E0400080E0600080E0800080E0A00080E0C00080E0E000C0000000C0002000C0004000C0006000C0008000C000A000C000C000C000E000C0200000C0202000C0204000C0206000C0208000C020A000C020C000C020E000C0400000C0402000C0404000C0406000C0
310
408000C040A000C040C000C040E000C0600000C0602000C0604000C0606000C0608000C060A000C060C000C060E000C0800000C0802000C0804000C0806000C0808000C080A000C080C000C080E000C0A00000C0A02000C0A04000C0A06000C0A08000C0A0A000C0A0C000C0A0E000C0C00000C0C02000C0C04000C0C06000
310
C0C08000C0C0A000F0FBFF00A4A0A000808080000000FF0000FF000000FFFF00FF000000FF00FF00FFFF0000FFFFFF00000000000000000000000000000000000000000000000000000000000000000000000000000000000000000000000000FF000000000000000000000000000000000000000000000000000000000000
310
00FF00000000000000000000000000000000000000000000000000000000000000FF0000000000000000000000000000000000000000000000000000FFFFFFFFFFFFFFFFFFFF0000000000000000000000000000000000000000FFFF0000000000FF00000000FFFF0000000000000000000000000000000000FF0000000000
310
0000FF000000000000FF00000000000000000000000000000000FF00000000FFFFFFFFFF000000000000FF0000000000000000000000000000FF000000FFFFFFFFFFFFFFFFFF00000000FF0000000000000000000000000000FF0000FFFFFF000000FF0000FFFFFF000000FF000000000000000000000000FF0000FFFF0000
310
000000FF00000000FFFF0000FF000000000000000000000000FF00FFFF000000000000FF0000000000FF000000FF00000000000000000000FF0000FF00000000000000000000000000FFFF0000FF00000000000000000000FF0000FF00000000000000FF000000000000FF000000FF0000000000000000FF0000FFFF000000
310
00000000FF000000000000FF000000FF0000000000000000FF0000FFFF00000000000000FF000000000000FF000000FF0000000000FFFFFFFFFFFFFFFFFFFFFF00FFFFFFFFFFFF00FFFFFFFFFFFFFFFFFFFFFF0000000000FF0000FFFF00000000000000FF000000000000FF000000FF000000000000000000FF00FFFF0000
310
0000000000FF000000000000FF000000FF000000000000000000FF0000FFFF000000000000000000000000FFFF0000FF0000000000000000000000FF00FFFF000000000000FF0000000000FF000000FF0000000000000000000000FF0000FFFF0000000000FF00000000FFFF0000FF00000000000000000000000000FF0000
310
FFFFFF000000FF0000FFFFFF000000FF00000000000000000000000000FF000000FFFFFFFFFFFFFFFFFF00000000FF000000000000000000000000000000FF0000000000FFFFFFFF000000000000FF000000000000000000000000000000FF00000000000000FF000000000000FF0000000000000000000000000000000000
310
FFFF0000000000FF00000000FFFF0000000000000000000000000000000000000000FFFFFFFFFFFFFFFFFFFF000000000000000000000000000000000000000000000000000000FF00000000000000000000000000000000000000000000000000000000000000FF0000000000000000000000000000000000000000000000
310
0000000000000000FF0000000000000000000000000000000000000000000000000000000000000000000000000000000000000000000000
102
{BLKREFS
331
2E4
102
}
1001
ACAD
1000
DesignCenter Data
1002
{
1070
     1
1070
     4
1002
}
  0
BLOCK_RECORD
  5
2E5
102
{ACAD_XDICTIONARY
360
3AE
102
}
330
1
100
AcDbSymbolTableRecord
100
AcDbBlockTableRecord
  2
2
340
0
310
2800000020000000200000000100080000000000000400000000000000000000000000000000000000000000000080000080000000808000800000008000800080800000C0C0C000C0DCC000F0CAA6000020400000206000002080000020A0000020C0000020E00000400000004020000040400000406000004080000040A0
310
000040C0000040E00000600000006020000060400000606000006080000060A0000060C0000060E00000800000008020000080400000806000008080000080A0000080C0000080E00000A0000000A0200000A0400000A0600000A0800000A0A00000A0C00000A0E00000C0000000C0200000C0400000C0600000C0800000C0
310
A00000C0C00000C0E00000E0000000E0200000E0400000E0600000E0800000E0A00000E0C00000E0E00040000000400020004000400040006000400080004000A0004000C0004000E00040200000402020004020400040206000402080004020A0004020C0004020E000404000004040200040404000404060004040800040
310
40A0004040C0004040E00040600000406020004060400040606000406080004060A0004060C0004060E00040800000408020004080400040806000408080004080A0004080C0004080E00040A0000040A0200040A0400040A0600040A0800040A0A00040A0C00040A0E00040C0000040C0200040C0400040C0600040C08000
310
40C0A00040C0C00040C0E00040E0000040E0200040E0400040E0600040E0800040E0A00040E0C00040E0E00080000000800020008000400080006000800080008000A0008000C0008000E00080200000802020008020400080206000802080008020A0008020C0008020E00080400000804020008040400080406000804080
310
008040A0008040C0008040E00080600000806020008060400080606000806080008060A0008060C0008060E00080800000808020008080400080806000808080008080A0008080C0008080E00080A0000080A0200080A0400080A0600080A0800080A0A00080A0C00080A0E00080C0000080C0200080C0400080C0600080C0
310
800080C0A00080C0C00080C0E00080E0000080E0200080E0400080E0600080E0800080E0A00080E0C00080E0E000C0000000C0002000C0004000C0006000C0008000C000A000C000C000C000E000C0200000C0202000C0204000C0206000C0208000C020A000C020C000C020E000C0400000C0402000C0404000C0406000C0
310
408000C040A000C040C000C040E000C0600000C0602000C0604000C0606000C0608000C060A000C060C000C060E000C0800000C0802000C0804000C0806000C0808000C080A000C080C000C080E000C0A00000C0A02000C0A04000C0A06000C0A08000C0A0A000C0A0C000C0A0E000C0C00000C0C02000C0C04000C0C06000
310
C0C08000C0C0A000F0FBFF00A4A0A000808080000000FF0000FF000000FFFF00FF000000FF00FF00FFFF0000FFFFFF000000000000000000000000000000000000000000000000000000000000000000000000000000000000000000000000000000FF0000000000000000000000000000000000000000000000000000FFFF
310
FFFFFFFF0000000000000000000000000000000000000000000000000000FF00000000FF0000000000000000000000000000000000000000000000000000FFFFFFFFFFFF0000000000000000000000000000000000000000000000000000FF00000000FF0000000000000000000000000000000000000000000000000000FF
310
00000000FF0000000000000000000000000000000000000000000000000000FF00000000FF0000000000000000000000000000000000000000000000000000FF00000000FF0000000000000000000000000000000000000000000000000000FF00000000FF0000000000000000000000000000000000000000000000000000
310
FF00000000FF0000000000000000000000000000000000000000000000000000FF00000000FF0000000000000000000000000000000000000000000000000000FF00000000FF0000000000000000000000000000000000000000000000000000FFFFFFFFFFFF00000000000000000000000000000000000000000000000000
310
00FF00000000FF0000000000000000000000000000000000000000000000000000FF00000000FF000000000000000000000000000000000000000000000000FFFFFFFFFFFFFFFFFFFF000000000000000000000000000000000000000000000000FF00000000FF000000000000000000000000000000000000000000000000
310
0000FFFFFFFFFFFF0000000000000000000000000000000000000000000000000000FF00000000FF0000000000000000000000000000000000000000000000000000FF00000000FF0000000000000000000000000000000000000000000000000000FF00000000FF0000000000000000000000000000000000000000000000
310
000000FF00000000FF0000000000000000000000000000000000000000000000000000FF00000000FF0000000000000000000000000000000000000000000000000000FF00000000FF0000000000000000000000000000000000000000000000000000FF00000000FF00000000000000000000000000000000000000000000
310
00000000FF00000000FF0000000000000000000000000000000000000000000000000000FFFFFFFFFFFF0000000000000000000000000000000000000000000000000000FF00000000FF0000000000000000000000000000000000000000000000000000FFFFFFFFFFFF000000000000000000000000000000000000000000
310
00000000000000000000FF000000000000000000000000000000000000000000000000000000000000000000000000000000000000000000
1001
AcDbDynamicBlockGUID
1000
{7D5D0FD1-5D81-45E8-BD20-44A1C057C768}
1001
AcDbBlockRepETag
1070
     1
1071
       19
1001
ACAD
1000
DesignCenter Data
1002
{
1070
     1
1070
     4
1002
}
  0
BLOCK_RECORD
  5
2FC
102
{ACAD_XDICTIONARY
360
377
102
}
330
1
100
AcDbSymbolTableRecord
100
AcDbBlockTableRecord
  2
3
340
0
310
2800000020000000200000000100080000000000000400000000000000000000000000000000000000000000000080000080000000808000800000008000800080800000C0C0C000C0DCC000F0CAA6000020400000206000002080000020A0000020C0000020E00000400000004020000040400000406000004080000040A0
310
000040C0000040E00000600000006020000060400000606000006080000060A0000060C0000060E00000800000008020000080400000806000008080000080A0000080C0000080E00000A0000000A0200000A0400000A0600000A0800000A0A00000A0C00000A0E00000C0000000C0200000C0400000C0600000C0800000C0
310
A00000C0C00000C0E00000E0000000E0200000E0400000E0600000E0800000E0A00000E0C00000E0E00040000000400020004000400040006000400080004000A0004000C0004000E00040200000402020004020400040206000402080004020A0004020C0004020E000404000004040200040404000404060004040800040
310
40A0004040C0004040E00040600000406020004060400040606000406080004060A0004060C0004060E00040800000408020004080400040806000408080004080A0004080C0004080E00040A0000040A0200040A0400040A0600040A0800040A0A00040A0C00040A0E00040C0000040C0200040C0400040C0600040C08000
310
40C0A00040C0C00040C0E00040E0000040E0200040E0400040E0600040E0800040E0A00040E0C00040E0E00080000000800020008000400080006000800080008000A0008000C0008000E00080200000802020008020400080206000802080008020A0008020C0008020E00080400000804020008040400080406000804080
310
008040A0008040C0008040E00080600000806020008060400080606000806080008060A0008060C0008060E00080800000808020008080400080806000808080008080A0008080C0008080E00080A0000080A0200080A0400080A0600080A0800080A0A00080A0C00080A0E00080C0000080C0200080C0400080C0600080C0
310
800080C0A00080C0C00080C0E00080E0000080E0200080E0400080E0600080E0800080E0A00080E0C00080E0E000C0000000C0002000C0004000C0006000C0008000C000A000C000C000C000E000C0200000C0202000C0204000C0206000C0208000C020A000C020C000C020E000C0400000C0402000C0404000C0406000C0
310
408000C040A000C040C000C040E000C0600000C0602000C0604000C0606000C0608000C060A000C060C000C060E000C0800000C0802000C0804000C0806000C0808000C080A000C080C000C080E000C0A00000C0A02000C0A04000C0A06000C0A08000C0A0A000C0A0C000C0A0E000C0C00000C0C02000C0C04000C0C06000
310
C0C08000C0C0A000F0FBFF00A4A0A000808080000000FF0000FF000000FFFF00FF000000FF00FF00FFFF0000FFFFFF0000000000000000000000000000000000000000000000000000000000000000000000000000000000000000000000000000000000000000000000000000000000000000000000000000000000000000
310
00000000000000000000000000000000000000000000000000000000000000000000000000000000000000000000000000000000000000000000000000000000000000000000000000000000000000000000000000000000000000000000000000000000000000000000000000000000000000000000000000000000000000
310
00000000000000000000000000000000000000000000000000000000000000000000000000000000000000000000000000000000000000000000000000000000000000000000000000000000000000000000000000000000000000000000000000000000000000000000000000000000000000000000000000000000000000
310
0000000000000000000000000000000000000000000000000000000000000000000000FF00000000000000000000000000000000000000000000000000000000000000FF00000000000000000000000000000000FFFFFFFFFFFFFFFFFFFFFFFFFFFFFFFFFFFFFFFFFFFFFFFFFFFFFFFFFFFF0000FFFF00000000FF0000FF00
310
00000000FF00000000FF0000FF00000000FFFF0000FFFF00000000FF0000FF0000000000FF00000000FF0000FF00000000FFFF0000FFFF00000000FF0000FF0000000000FF00000000FF0000FF00000000FFFF0000FFFF00000000FF0000FF0000000000FF00000000FF0000FF00000000FFFF0000FFFFFFFFFFFFFFFFFFFF
310
FFFFFFFFFFFFFFFFFFFFFFFFFFFFFFFFFFFFFFFF0000000000000000000000000000000000FF00000000000000000000000000000000000000000000000000000000000000FF000000000000000000000000000000000000000000000000000000000000000000000000000000000000000000000000000000000000000000
310
00000000000000000000000000000000000000000000000000000000000000000000000000000000000000000000000000000000000000000000000000000000000000000000000000000000000000000000000000000000000000000000000000000000000000000000000000000000000000000000000000000000000000
310
00000000000000000000000000000000000000000000000000000000000000000000000000000000000000000000000000000000000000000000000000000000000000000000000000000000000000000000000000000000000000000000000000000000000000000000000000000000000000000000000000000000000000
310
0000000000000000000000000000000000000000000000000000000000000000000000000000000000000000000000000000000000000000
102
{BLKREFS
331
313
102
}
1001
AcDbDynamicBlockGUID
1000
{43239456-CB29-4897-906C-EDD15EACA8B4}
1001
AcDbBlockRepETag
1070
     1
1071
       20
1001
ACAD
1000
DesignCenter Data
1002
{
1070
     1
1070
     4
1002
}
  0
BLOCK_RECORD
  5
314
330
1
100
AcDbSymbolTableRecord
100
AcDbBlockTableRecord
  2
4
340
0
310
2800000020000000200000000100080000000000000400000000000000000000000000000000000000000000000080000080000000808000800000008000800080800000C0C0C000C0DCC000F0CAA6000020400000206000002080000020A0000020C0000020E00000400000004020000040400000406000004080000040A0
310
000040C0000040E00000600000006020000060400000606000006080000060A0000060C0000060E00000800000008020000080400000806000008080000080A0000080C0000080E00000A0000000A0200000A0400000A0600000A0800000A0A00000A0C00000A0E00000C0000000C0200000C0400000C0600000C0800000C0
310
A00000C0C00000C0E00000E0000000E0200000E0400000E0600000E0800000E0A00000E0C00000E0E00040000000400020004000400040006000400080004000A0004000C0004000E00040200000402020004020400040206000402080004020A0004020C0004020E000404000004040200040404000404060004040800040
310
40A0004040C0004040E00040600000406020004060400040606000406080004060A0004060C0004060E00040800000408020004080400040806000408080004080A0004080C0004080E00040A0000040A0200040A0400040A0600040A0800040A0A00040A0C00040A0E00040C0000040C0200040C0400040C0600040C08000
310
40C0A00040C0C00040C0E00040E0000040E0200040E0400040E0600040E0800040E0A00040E0C00040E0E00080000000800020008000400080006000800080008000A0008000C0008000E00080200000802020008020400080206000802080008020A0008020C0008020E00080400000804020008040400080406000804080
310
008040A0008040C0008040E00080600000806020008060400080606000806080008060A0008060C0008060E00080800000808020008080400080806000808080008080A0008080C0008080E00080A0000080A0200080A0400080A0600080A0800080A0A00080A0C00080A0E00080C0000080C0200080C0400080C0600080C0
310
800080C0A00080C0C00080C0E00080E0000080E0200080E0400080E0600080E0800080E0A00080E0C00080E0E000C0000000C0002000C0004000C0006000C0008000C000A000C000C000C000E000C0200000C0202000C0204000C0206000C0208000C020A000C020C000C020E000C0400000C0402000C0404000C0406000C0
310
408000C040A000C040C000C040E000C0600000C0602000C0604000C0606000C0608000C060A000C060C000C060E000C0800000C0802000C0804000C0806000C0808000C080A000C080C000C080E000C0A00000C0A02000C0A04000C0A06000C0A08000C0A0A000C0A0C000C0A0E000C0C00000C0C02000C0C04000C0C06000
310
C0C08000C0C0A000F0FBFF00A4A0A000808080000000FF0000FF000000FFFF00FF000000FF00FF00FFFF0000FFFFFF0000000000000000000000000000000000000000000000000000000000000000000000000000000000000000000000000000000000000000000000000000000000000000000000000000000000000000
310
00000000000000000000000000000000000000000000000000000000000000000000000000000000000000000000000000000000000000000000000000000000000000000000000000000000000000000000000000000000000000000000FFFFFFFF00000000000000000000000000000000000000000000000000FFFFFF00
310
FF0000FFFFFFFFFF000000000000000000000000000000000000FFFFFF000000FF00000000000000FFFFFF00000000000000000000000000FFFF0000FF000000FF000000000000000000FFFFFF000000000000000000FFFF00000000FF0000FFFFFFFFFFFF0000000000FF0000FF00000000000000FF00000000FFFFFFFFFF
310
FF0000000000FFFFFFFFFFFF0000FFFF0000000000FFFF0000FFFFFF0000000000000000000000000000FFFFFF00FFFF0000000000FFFF00FFFF00000000FFFFFFFFFFFFFFFFFFFF00000000FFFFFF00FF000000FF00FFFFFF0000FFFFFF00000000000000000000FFFFFF000000FFFFFF000000FFFFFF000000FFFF000000
310
0000000000000000000000FFFF000000FF00FF0000FFFF000000FFFF00000000000000000000000000000000FFFF000000FFFF0000FFFF000000FFFF000000000000000000000000000000FFFFFF000000FFFF0000FF00000000FFFFFF00000000000000000000000000FFFFFFFF00000000FF0000FF00000000FFFFFFFFFF
310
000000000000000000FFFFFFFFFFFF000000FFFF000000FF000000FFFFFFFFFFFFFFFFFFFFFFFFFFFFFFFFFFFFFFFF000000FF00000000FF000000FFFFFFFFFFFFFFFFFFFFFFFFFFFFFFFFFFFFFF00000000FF0000000000FF000000FFFFFFFFFFFFFFFFFFFFFFFFFFFFFFFFFF00000000FFFF0000000000FFFF00000000FF
310
FFFFFFFFFFFFFFFFFFFFFFFFFF00000000FF0000000000000000FFFFFF00000000FFFFFFFFFFFFFFFFFF0000000000FFFF0000000000000000000000FFFFFF0000000000000000000000000000FFFFFF000000000000000000000000000000FFFFFFFFFF00000000FFFFFFFFFFFF0000000000000000000000000000000000
310
00000000FFFFFFFFFF00000000000000000000000000000000000000000000000000000000000000000000000000000000000000000000000000000000000000000000000000000000000000000000000000000000000000000000000000000000000000000000000000000000000000000000000000000000000000000000
310
0000000000000000000000000000000000000000000000000000000000000000000000000000000000000000000000000000000000000000
102
{BLKREFS
331
358
102
}
1001
ACAD
1000
DesignCenter Data
1002
{
1070
     1
1070
     4
1002
}
  0
ENDTAB
  0
ENDSEC
  0
SECTION
  2
BLOCKS
  0
BLOCK
  5
20
330
1F
100
AcDbEntity
  8
0
100
AcDbBlockBegin
  2
*Model_Space
 70
     0
 10
0.0
 20
0.0
 30
0.0
  3
*Model_Space
  1

  0
ENDBLK
  5
21
330
1F
100
AcDbEntity
  8
0
100
AcDbBlockEnd
  0
BLOCK
  5
D4
330
D2
100
AcDbEntity
 67
     1
  8
0
100
AcDbBlockBegin
  2
*Paper_Space
 70
     0
 10
0.0
 20
0.0
 30
0.0
  3
*Paper_Space
  1

  0
ENDBLK
  5
D5
330
D2
100
AcDbEntity
 67
     1
  8
0
100
AcDbBlockEnd
  0
BLOCK
  5
D8
330
D6
100
AcDbEntity
 67
     1
  8
0
100
AcDbBlockBegin
  2
*Paper_Space0
 70
     0
 10
0.0
 20
0.0
 30
0.0
  3
*Paper_Space0
  1

  0
ENDBLK
  5
D9
330
D6
100
AcDbEntity
 67
     1
  8
0
100
AcDbBlockEnd
  0
BLOCK
  5
1AE
330
1AD
100
AcDbEntity
  8
0
100
AcDbBlockBegin
  2
SW_CENTERMARKSYMBOL_0
 70
     0
 10
0.0
 20
0.0
 30
0.0
  3
SW_CENTERMARKSYMBOL_0
  1

  0
LINE
  5
1AF
330
1AD
100
AcDbEntity
  8
0
  6
Continuous
 62
     0
370
     0
100
AcDbLine
 10
0.0
 20
0.0
 30
0.0
 11
0.0
 21
2.500000000000002
 31
0.0
  0
LINE
  5
1B0
330
1AD
100
AcDbEntity
  8
0
  6
Continuous
 62
     0
370
     0
100
AcDbLine
 10
0.0
 20
0.0
 30
0.0
 11
-2.500000000000002
 21
0.0
 31
0.0
  0
LINE
  5
1B1
330
1AD
100
AcDbEntity
  8
0
  6
Continuous
 62
     0
370
     0
100
AcDbLine
 10
0.0
 20
0.0
 30
0.0
 11
0.0
 21
-2.500000000000002
 31
0.0
  0
LINE
  5
1B2
330
1AD
100
AcDbEntity
  8
0
  6
Continuous
 62
     0
370
     0
100
AcDbLine
 10
0.0
 20
0.0
 30
0.0
 11
2.500000000000002
 21
0.0
 31
0.0
  0
LINE
  5
1B3
330
1AD
100
AcDbEntity
  8
0
  6
Continuous
 62
     0
370
     0
100
AcDbLine
 10
0.0
 20
5.000000000000004
 30
0.0
 11
0.0
 21
17.00000000000001
 31
0.0
  0
LINE
  5
1B4
330
1AD
100
AcDbEntity
  8
0
  6
Continuous
 62
     0
370
     0
100
AcDbLine
 10
-5.000000000000004
 20
0.0
 30
0.0
 11
-17.0
 21
0.0
 31
0.0
  0
LINE
  5
1B5
330
1AD
100
AcDbEntity
  8
0
  6
Continuous
 62
     0
370
     0
100
AcDbLine
 10
0.0
 20
-5.000000000000004
 30
0.0
 11
0.0
 21
-17.00000000000001
 31
0.0
  0
LINE
  5
1B6
330
1AD
100
AcDbEntity
  8
0
  6
Continuous
 62
     0
370
     0
100
AcDbLine
 10
5.000000000000004
 20
0.0
 30
0.0
 11
17.0
 21
0.0
 31
0.0
  0
ENDBLK
  5
1B7
330
1AD
100
AcDbEntity
  8
0
100
AcDbBlockEnd
  0
BLOCK
  5
2C6
330
2C5
100
AcDbEntity
  8
0
100
AcDbBlockBegin
  2
1
 70
     0
 10
0.0
 20
0.0
 30
0.0
  3
1
  1

  0
LINE
  5
2C8
330
2C5
100
AcDbEntity
  8
0
  6
Continuous
 62
     7
370
    15
100
AcDbLine
 10
1802.012172572577
 20
1063.315345740843
 30
0.0
 11
1802.053908707333
 21
1063.009519081037
 31
0.0
  0
SPLINE
  5
2C9
330
2C5
100
AcDbEntity
  8
0
  6
Continuous
 62
     7
370
    15
100
AcDbSpline
210
0.0
220
0.0
230
1.0
 70
     8
 71
     3
 72
    79
 73
    75
 74
     0
 42
0.0000000001
 43
0.0000000001
 40
0.0
 40
0.0
 40
0.0
 40
0.0
 40
0.0107713234577567
 40
0.022889906641413
 40
0.0339262849846277
 40
0.0447012128800726
 40
0.055593027037789
 40
0.0665801780148689
 40
0.0804120739480551
 40
0.0943109818139872
 40
0.1082292287586561
 40
0.1221187628535326
 40
0.1359321360321201
 40
0.1498000997584006
 40
0.1638846084108668
 40
0.1781098019814656
 40
0.1924269129529584
 40
0.2067852320176922
 40
0.2211331671397281
 40
0.2354193494400101
 40
0.2495937271898337
 40
0.2636085903670465
 40
0.277479577986604
 40
0.2915005245836275
 40
0.3056788480157835
 40
0.319966733819681
 40
0.3343140710602632
 40
0.3486694803911757
 40
0.3629814090179446
 40
0.3771992349029314
 40
0.3912742996790787
 40
0.4051653637312361
 40
0.4191095925453141
 40
0.4332278590023355
 40
0.4474735060944219
 40
0.4617972341488016
 40
0.4761480881610364
 40
0.4904745316868261
 40
0.5047255516210877
 40
0.5188519832311352
 40
0.5328072662709333
 40
0.5466792343513641
 40
0.5607300739041176
 40
0.5749267626803104
 40
0.5892209723929858
 40
0.6035623235428229
 40
0.6178994299402753
 40
0.6321810813634744
 40
0.6463575515618137
 40
0.6603809728780427
 40
0.6742394933895405
 40
0.6882209184827753
 40
0.7023664103674278
 40
0.7166287056068695
 40
0.7309581054959831
 40
0.7453034833819102
 40
0.7596132970830631
 40
0.77383679934706
 40
0.7879251076137406
 40
0.8018321299712681
 40
0.8157397638773147
 40
0.8298285867811006
 40
0.8440524974164809
 40
0.8583626063019448
 40
0.872708154846275
 40
0.8870375596186235
 40
0.9012996920426818
 40
0.9154448583571333
 40
0.9294258033118238
 40
0.9432845286387216
 40
0.9573085234729235
 40
0.9714854125072109
 40
0.9857672997642186
 40
1.0
 40
1.0
 40
1.0
 40
1.0
 10
1802.120228205868
 20
1062.152761301799
 30
0.0
 10
1802.122002635798
 20
1061.949560199585
 30
0.0
 10
1802.125773438486
 20
1061.517741929775
 30
0.0
 10
1802.076620569637
 20
1060.878983345179
 30
0.0
 10
1801.987160168441
 20
1060.245044107579
 30
0.0
 10
1801.860968903982
 20
1059.640885754607
 30
0.0
 10
1801.696836369041
 20
1059.046917724151
 30
0.0
 10
1801.475696900187
 20
1058.410318072072
 30
0.0
 10
1801.185883991331
 20
1057.73921199465
 30
0.0
 10
1800.81608643139
 20
1057.045271508767
 30
0.0
 10
1800.389960942203
 20
1056.383107833811
 30
0.0
 10
1799.911899749375
 20
1055.759438879646
 30
0.0
 10
1799.385073295261
 20
1055.177655201712
 30
0.0
 10
1798.809774675274
 20
1054.638342135305
 30
0.0
 10
1798.185833842662
 20
1054.143497702781
 30
0.0
 10
1797.515653758646
 20
1053.697822248829
 30
0.0
 10
1796.805772025244
 20
1053.307700894873
 30
0.0
 10
1796.063296366855
 20
1052.978123566532
 30
0.0
 10
1795.29611757715
 20
1052.712834228475
 30
0.0
 10
1794.512632380194
 20
1052.514190691729
 30
0.0
 10
1793.721440697884
 20
1052.383098570817
 30
0.0
 10
1792.929909424931
 20
1052.318930876698
 30
0.0
 10
1792.138686447379
 20
1052.320133561045
 30
0.0
 10
1791.347166097311
 20
1052.386737375493
 30
0.0
 10
1790.556164298669
 20
1052.520308702957
 30
0.0
 10
1789.77320713368
 20
1052.721407196895
 30
0.0
 10
1789.006888767585
 20
1052.989068024674
 30
0.0
 10
1788.265587517475
 20
1053.320876185367
 30
0.0
 10
1787.557163949531
 20
1053.713035716022
 30
0.0
 10
1786.888685752093
 20
1054.160512544807
 30
0.0
 10
1786.266133558311
 20
1054.657291564883
 30
0.0
 10
1785.690482877182
 20
1055.200217572286
 30
0.0
 10
1785.160843382428
 20
1055.789216515142
 30
0.0
 10
1784.67776008019
 20
1056.425405658363
 30
0.0
 10
1784.245792587888
 20
1057.105864019222
 30
0.0
 10
1783.87071139791
 20
1057.824223635782
 30
0.0
 10
1783.557187555704
 20
1058.573160969737
 30
0.0
 10
1783.308605819348
 20
1059.344640860816
 30
0.0
 10
1783.126942718601
 20
1060.130206248354
 30
0.0
 10
1783.012723253752
 20
1060.921283080172
 30
0.0
 10
1782.964905091141
 20
1061.711950490563
 30
0.0
 10
1782.982166760196
 20
1062.502442894424
 30
0.0
 10
1783.06500283796
 20
1063.293365208203
 30
0.0
 10
1783.214989769676
 20
1064.08246872705
 30
0.0
 10
1783.432283295298
 20
1064.861452955327
 30
0.0
 10
1783.715568995348
 20
1065.621770498542
 30
0.0
 10
1784.062097642002
 20
1066.355164117271
 30
0.0
 10
1784.467775880964
 20
1067.0539676834
 30
0.0
 10
1784.927323722131
 20
1067.71136351712
 30
0.0
 10
1785.434886007761
 20
1068.322071654447
 30
0.0
 10
1785.988406314336
 20
1068.886297437677
 30
0.0
 10
1786.58817201947
 20
1069.404635918438
 30
0.0
 10
1787.235074042477
 20
1069.875883424114
 30
0.0
 10
1787.924836684774
 20
1070.29463982271
 30
0.0
 10
1788.65086354297
 20
1070.655371113891
 30
0.0
 10
1789.405652745133
 20
1070.953687574361
 30
0.0
 10
1790.181051942908
 20
1071.186517775734
 30
0.0
 10
1790.968550280035
 20
1071.352213472525
 30
0.0
 10
1791.759584536718
 20
1071.45057766708
 30
0.0
 10
1792.55007232561
 20
1071.482989784702
 30
0.0
 10
1793.34056201433
 20
1071.450386652332
 30
0.0
 10
1794.131600992258
 20
1071.351825495778
 30
0.0
 10
1794.919080892887
 20
1071.185930398679
 30
0.0
 10
1795.694437838709
 20
1070.95290215359
 30
0.0
 10
1796.449160628162
 20
1070.654393283734
 30
0.0
 10
1797.175096722479
 20
1070.293479389362
 30
0.0
 10
1797.864747895739
 20
1069.874555389858
 30
0.0
 10
1798.511512710797
 20
1069.403155350812
 30
0.0
 10
1799.111159958912
 20
1068.884683915141
 30
0.0
 10
1799.664478189402
 20
1068.320289516367
 30
0.0
 10
1800.172157335794
 20
1067.709545345886
 30
0.0
 10
1800.630590176973
 20
1067.051607834113
 30
0.0
 10
1801.038732028178
 20
1066.355927998344
 30
0.0
 10
1801.259758500418
 20
1065.865353230202
 30
0.0
 10
1801.370081103695
 20
1065.620488961345
 30
0.0
  0
SPLINE
  5
2CA
330
2C5
100
AcDbEntity
  8
0
  6
Continuous
 62
     7
370
    15
100
AcDbSpline
210
0.0
220
0.0
230
1.0
 70
     8
 71
     3
 72
     9
 73
     5
 74
     0
 42
0.0000000001
 43
0.0000000001
 40
0.0
 40
0.0
 40
0.0
 40
0.0
 40
0.6944758734428436
 40
1.0
 40
1.0
 40
1.0
 40
1.0
 10
1801.936270757479
 20
1063.741277908419
 30
0.0
 10
1801.969454939498
 20
1063.590399637766
 30
0.0
 10
1802.017237999049
 20
1063.373144760494
 30
0.0
 10
1802.037516747466
 20
1063.151845945375
 30
0.0
 10
1802.043712394364
 20
1063.084233818177
 30
0.0
  0
SPLINE
  5
2CB
330
2C5
100
AcDbEntity
  8
0
  6
Continuous
 62
     7
370
    15
100
AcDbSpline
210
0.0
220
0.0
230
1.0
 70
     8
 71
     3
 72
     9
 73
     5
 74
     0
 42
0.0000000001
 43
0.0000000001
 40
0.0
 40
0.0
 40
0.0
 40
0.0
 40
0.956210420491587
 40
0.9999999999999998
 40
0.9999999999999998
 40
0.9999999999999998
 40
0.9999999999999998
 10
1785.666256693077
 20
1055.243366569492
 30
0.0
 10
1785.528885079586
 20
1055.383944129314
 30
0.0
 10
1785.385222544074
 20
1055.530959427212
 30
0.0
 10
1785.25771376956
 20
1055.691755368011
 30
0.0
 10
1785.25213021394
 20
1055.698796554645
 30
0.0
  0
SPLINE
  5
2CC
330
2C5
100
AcDbEntity
  8
0
  6
Continuous
 62
     7
370
    15
100
AcDbSpline
210
0.0
220
0.0
230
1.0
 70
     8
 71
     3
 72
    38
 73
    34
 74
     0
 42
0.0000000001
 43
0.0000000001
 40
0.0
 40
0.0
 40
0.0
 40
0.0
 40
0.0625
 40
0.0625
 40
0.125
 40
0.125
 40
0.1875000000000001
 40
0.1875000000000001
 40
0.2500000000000001
 40
0.2500000000000001
 40
0.3125000000000001
 40
0.3125000000000001
 40
0.3437500000000002
 40
0.3437500000000002
 40
0.3750000000000002
 40
0.3750000000000002
 40
0.5000000000000001
 40
0.5000000000000001
 40
0.5625000000000001
 40
0.5625000000000001
 40
0.6250000000000001
 40
0.6250000000000001
 40
0.6875000000000002
 40
0.6875000000000002
 40
0.7500000000000002
 40
0.7500000000000002
 40
0.8125000000000001
 40
0.8125000000000001
 40
0.8750000000000001
 40
0.8750000000000001
 40
0.9375000000000001
 40
0.9375000000000001
 40
1.0
 40
1.0
 40
1.0
 40
1.0
 10
1801.377395050439
 20
1058.009814872521
 30
0.0
 10
1801.199327210426
 20
1057.57207142912
 30
0.0
 10
1800.990357749407
 20
1057.150124056327
 30
0.0
 10
1800.510967313302
 20
1056.337641658171
 30
0.0
 10
1800.242010242671
 20
1055.950307333647
 30
0.0
 10
1799.655994219026
 20
1055.224448847251
 30
0.0
 10
1799.337624400758
 20
1054.884071169517
 30
0.0
 10
1798.651234079937
 20
1054.247464903331
 30
0.0
 10
1798.280586823266
 20
1053.950075695151
 30
0.0
 10
1797.510596508734
 20
1053.41808694023
 30
0.0
 10
1797.109292889219
 20
1053.181164318888
 30
0.0
 10
1796.483106114909
 20
1052.868975615376
 30
0.0
 10
1796.270323469986
 20
1052.77213894816
 30
0.0
 10
1795.836502844616
 20
1052.593181722294
 30
0.0
 10
1795.614549021988
 20
1052.51078409805
 30
0.0
 10
1794.497681195232
 20
1052.141291303175
 30
0.0
 10
1793.580781064204
 20
1051.977209684126
 30
0.0
 10
1792.17035797803
 20
1051.928154383158
 30
0.0
 10
1791.698216108327
 20
1051.945242077082
 30
0.0
 10
1790.77019220171
 20
1052.043467881246
 30
0.0
 10
1790.311251868877
 20
1052.124539135292
 30
0.0
 10
1789.403590034618
 20
1052.351074673638
 30
0.0
 10
1788.951857465313
 20
1052.498070648653
 30
0.0
 10
1788.083640227887
 20
1052.849679163317
 30
0.0
 10
1787.664979279887
 20
1053.054354955998
 30
0.0
 10
1786.858078007953
 20
1053.520562370256
 30
0.0
 10
1786.469386109323
 20
1053.782437534342
 30
0.0
 10
1785.725581593389
 20
1054.3640996443
 30
0.0
 10
1785.378503448348
 20
1054.677776731486
 30
0.0
 10
1784.730846759083
 20
1055.347925239782
 30
0.0
 10
1784.430256718762
 20
1055.704386080847
 30
0.0
 10
1783.876398157307
 20
1056.460858521657
 30
0.0
 10
1783.623044053672
 20
1056.861726843208
 30
0.0
 10
1783.399003342595
 20
1057.277499529239
 30
0.0
  0
SPLINE
  5
2CD
330
2C5
100
AcDbEntity
  8
0
  6
Continuous
 62
     7
370
    15
100
AcDbSpline
210
0.0
220
0.0
230
1.0
 70
     8
 71
     3
 72
   224
 73
   220
 74
     0
 42
0.0000000001
 43
0.0000000001
 40
0.0
 40
0.0
 40
0.0
 40
0.0
 40
0.0078124999999999
 40
0.0078124999999999
 40
0.0156249999999999
 40
0.0156249999999999
 40
0.0312499999999998
 40
0.0312499999999998
 40
0.0390624999999997
 40
0.0390624999999997
 40
0.0429687499999997
 40
0.0429687499999997
 40
0.0468749999999997
 40
0.0468749999999997
 40
0.0624999999999996
 40
0.0624999999999996
 40
0.0781249999999994
 40
0.0781249999999994
 40
0.0820312499999995
 40
0.0820312499999995
 40
0.0859374999999994
 40
0.0859374999999994
 40
0.0937499999999994
 40
0.0937499999999994
 40
0.1093749999999993
 40
0.1093749999999993
 40
0.1171874999999992
 40
0.1171874999999992
 40
0.1249999999999992
 40
0.1249999999999992
 40
0.1406249999999991
 40
0.1406249999999991
 40
0.1484374999999991
 40
0.1484374999999991
 40
0.152343749999999
 40
0.152343749999999
 40
0.156249999999999
 40
0.156249999999999
 40
0.171874999999999
 40
0.171874999999999
 40
0.1874999999999989
 40
0.1874999999999989
 40
0.1914062499999989
 40
0.1914062499999989
 40
0.1953124999999989
 40
0.1953124999999989
 40
0.2031249999999989
 40
0.2031249999999989
 40
0.2187499999999988
 40
0.2187499999999988
 40
0.2265624999999988
 40
0.2265624999999988
 40
0.2343749999999988
 40
0.2343749999999988
 40
0.2499999999999987
 40
0.2499999999999987
 40
0.2656249999999987
 40
0.2656249999999987
 40
0.2695312499999986
 40
0.2695312499999986
 40
0.2734374999999986
 40
0.2734374999999986
 40
0.2812499999999986
 40
0.2812499999999986
 40
0.2968749999999986
 40
0.2968749999999986
 40
0.3046874999999986
 40
0.3046874999999986
 40
0.3124999999999986
 40
0.3124999999999986
 40
0.3281249999999985
 40
0.3281249999999985
 40
0.3359374999999985
 40
0.3359374999999985
 40
0.3398437499999984
 40
0.3398437499999984
 40
0.3437499999999984
 40
0.3437499999999984
 40
0.3593749999999984
 40
0.3593749999999984
 40
0.3749999999999983
 40
0.3749999999999983
 40
0.3789062499999983
 40
0.3789062499999983
 40
0.3828124999999983
 40
0.3828124999999983
 40
0.3906249999999983
 40
0.3906249999999983
 40
0.4062499999999984
 40
0.4062499999999984
 40
0.4140624999999984
 40
0.4140624999999984
 40
0.4218749999999984
 40
0.4218749999999984
 40
0.4374999999999984
 40
0.4374999999999984
 40
0.4531249999999984
 40
0.4531249999999984
 40
0.4570312499999984
 40
0.4570312499999984
 40
0.4609374999999984
 40
0.4609374999999984
 40
0.4687499999999984
 40
0.4687499999999984
 40
0.4843749999999984
 40
0.4843749999999984
 40
0.4921874999999984
 40
0.4921874999999984
 40
0.4960937499999984
 40
0.4960937499999984
 40
0.4999999999999984
 40
0.4999999999999984
 40
0.5156249999999984
 40
0.5156249999999984
 40
0.5234374999999984
 40
0.5234374999999984
 40
0.5312499999999986
 40
0.5312499999999986
 40
0.5468749999999986
 40
0.5468749999999986
 40
0.5624999999999986
 40
0.5624999999999986
 40
0.5664062499999986
 40
0.5664062499999986
 40
0.5703124999999984
 40
0.5703124999999984
 40
0.5781249999999986
 40
0.5781249999999986
 40
0.5937499999999986
 40
0.5937499999999986
 40
0.6015624999999986
 40
0.6015624999999986
 40
0.6093749999999987
 40
0.6093749999999987
 40
0.6249999999999987
 40
0.6249999999999987
 40
0.6406249999999987
 40
0.6406249999999987
 40
0.6445312499999987
 40
0.6445312499999987
 40
0.6484374999999986
 40
0.6484374999999986
 40
0.6562499999999987
 40
0.6562499999999987
 40
0.6718749999999987
 40
0.6718749999999987
 40
0.6796874999999987
 40
0.6796874999999987
 40
0.6835937499999987
 40
0.6835937499999987
 40
0.6874999999999987
 40
0.6874999999999987
 40
0.7031249999999987
 40
0.7031249999999987
 40
0.7187499999999987
 40
0.7187499999999987
 40
0.7265624999999987
 40
0.7265624999999987
 40
0.7343749999999988
 40
0.7343749999999988
 40
0.7499999999999988
 40
0.7499999999999988
 40
0.7539062499999988
 40
0.7539062499999988
 40
0.7578124999999987
 40
0.7578124999999987
 40
0.7656249999999988
 40
0.7656249999999988
 40
0.781249999999999
 40
0.781249999999999
 40
0.789062499999999
 40
0.789062499999999
 40
0.792968749999999
 40
0.792968749999999
 40
0.796874999999999
 40
0.796874999999999
 40
0.8124999999999989
 40
0.8124999999999989
 40
0.8281249999999991
 40
0.8281249999999991
 40
0.8359374999999991
 40
0.8359374999999991
 40
0.8437499999999992
 40
0.8437499999999992
 40
0.8593749999999992
 40
0.8593749999999992
 40
0.8671874999999992
 40
0.8671874999999992
 40
0.8710937499999992
 40
0.8710937499999992
 40
0.8749999999999992
 40
0.8749999999999992
 40
0.8906249999999994
 40
0.8906249999999994
 40
0.9062499999999996
 40
0.9062499999999996
 40
0.9101562499999996
 40
0.9101562499999996
 40
0.9140624999999994
 40
0.9140624999999994
 40
0.9218749999999996
 40
0.9218749999999996
 40
0.9374999999999996
 40
0.9374999999999996
 40
0.9414062499999998
 40
0.9414062499999998
 40
0.9453124999999998
 40
0.9453124999999998
 40
0.9531249999999998
 40
0.9531249999999998
 40
0.96875
 40
0.96875
 40
0.9765625
 40
0.9765625
 40
0.98046875
 40
0.98046875
 40
0.984375
 40
0.984375
 40
1.0
 40
1.0
 40
1.0
 40
1.0
 10
1785.158795140131
 20
1055.697200846553
 30
0.0
 10
1785.492424079934
 20
1055.299530294357
 30
0.0
 10
1785.850215856384
 20
1054.93663209688
 30
0.0
 10
1786.633970280096
 20
1054.259431900413
 30
0.0
 10
1787.058452472811
 20
1053.948139064616
 30
0.0
 10
1788.409311953056
 20
1053.120348842512
 30
0.0
 10
1789.414236947619
 20
1052.713500060202
 30
0.0
 10
1790.958369126286
 20
1052.368182170794
 30
0.0
 10
1791.478808479563
 20
1052.296388813207
 30
0.0
 10
1792.25241165969
 20
1052.251857144951
 30
0.0
 10
1792.507802963115
 20
1052.247431547766
 30
0.0
 10
1793.021036818967
 20
1052.258900302178
 30
0.0
 10
1793.279351147797
 20
1052.274935649641
 30
0.0
 10
1794.573204349286
 20
1052.408318821493
 30
0.0
 10
1795.615492908492
 20
1052.689674005647
 30
0.0
 10
1797.545737933969
 20
1053.577693278018
 30
0.0
 10
1798.431069671867
 20
1054.182902577927
 30
0.0
 10
1799.364396815461
 20
1055.065725052095
 30
0.0
 10
1799.542636542662
 20
1055.24826975027
 30
0.0
 10
1799.88811196777
 20
1055.631691073465
 30
0.0
 10
1800.054342262563
 20
1055.831672534737
 30
0.0
 10
1800.530245420334
 20
1056.454301573119
 30
0.0
 10
1800.81697518486
 20
1056.899794304176
 30
0.0
 10
1801.56374639694
 20
1058.304028854136
 30
0.0
 10
1801.906691609461
 20
1059.331095978003
 30
0.0
 10
1802.156276667777
 20
1060.883696175504
 30
0.0
 10
1802.196229468127
 20
1061.402622812919
 30
0.0
 10
1802.194453827161
 20
1062.4252771825
 30
0.0
 10
1802.152641655307
 20
1062.944698786501
 30
0.0
 10
1801.897423360506
 20
1064.497043028354
 30
0.0
 10
1801.550661506019
 20
1065.522974356858
 30
0.0
 10
1800.798971410236
 20
1066.924263760647
 30
0.0
 10
1800.510735366415
 20
1067.368576314669
 30
0.0
 10
1800.032849337789
 20
1067.989223112255
 30
0.0
 10
1799.866003785798
 20
1068.18850881452
 30
0.0
 10
1799.519396850498
 20
1068.570485488535
 30
0.0
 10
1799.340622058193
 20
1068.752319656874
 30
0.0
 10
1798.403617583148
 20
1069.632441908468
 30
0.0
 10
1797.51575126647
 20
1070.234654450348
 30
0.0
 10
1795.582186723718
 20
1071.115761619825
 30
0.0
 10
1794.539129042957
 20
1071.393229180977
 30
0.0
 10
1793.245484314045
 20
1071.521973339784
 30
0.0
 10
1792.987267720624
 20
1071.537091767751
 30
0.0
 10
1792.474333669244
 20
1071.546765035072
 30
0.0
 10
1792.218710901227
 20
1071.541453723495
 30
0.0
 10
1791.444811804706
 20
1071.494179086208
 30
0.0
 10
1790.924393910224
 20
1071.420495193624
 30
0.0
 10
1789.381035341487
 20
1071.069539065375
 30
0.0
 10
1788.377602576734
 20
1070.658990642694
 30
0.0
 10
1787.03010553811
 20
1069.826598362811
 30
0.0
 10
1786.606923359215
 20
1069.513926852499
 30
0.0
 10
1785.826001036747
 20
1068.834362338522
 30
0.0
 10
1785.469378269146
 20
1068.470158434358
 30
0.0
 10
1784.47216739299
 20
1067.272978514622
 30
0.0
 10
1783.923108273133
 20
1066.34449018361
 30
0.0
 10
1783.161914211092
 20
1064.360357822687
 30
0.0
 10
1782.950709462395
 20
1063.307568685354
 30
0.0
 10
1782.899831118688
 20
1062.021129172623
 30
0.0
 10
1782.899922747235
 20
1061.766266777824
 30
0.0
 10
1782.920652170087
 20
1061.251639037795
 30
0.0
 10
1782.941410819451
 20
1060.992898463367
 30
0.0
 10
1783.035759795341
 20
1060.216176295938
 30
0.0
 10
1783.141645712973
 20
1059.69768392249
 30
0.0
 10
1783.58785636163
 20
1058.172129405264
 30
0.0
 10
1784.059806720994
 20
1057.197097799463
 30
0.0
 10
1784.967111210983
 20
1055.910078269345
 30
0.0
 10
1785.301945016016
 20
1055.509901434775
 30
0.0
 10
1786.019007769604
 20
1054.778459564737
 30
0.0
 10
1786.40980168632
 20
1054.43802066069
 30
0.0
 10
1787.675102067935
 20
1053.506928825729
 30
0.0
 10
1788.639305568371
 20
1053.01497508268
 30
0.0
 10
1790.156887797524
 20
1052.537000849746
 30
0.0
 10
1790.674062908063
 20
1052.420264069747
 30
0.0
 10
1791.450782320816
 20
1052.309899564972
 30
0.0
 10
1791.709847971368
 20
1052.283845566132
 30
0.0
 10
1792.225740342274
 20
1052.252710707819
 30
0.0
 10
1792.481311387455
 20
1052.247584314817
 30
0.0
 10
1793.763804695054
 20
1052.272702875506
 30
0.0
 10
1794.818460870461
 20
1052.461566039839
 30
0.0
 10
1796.817104127097
 20
1053.181433577735
 30
0.0
 10
1797.758188237721
 20
1053.711683583675
 30
0.0
 10
1798.775417459381
 20
1054.524796904221
 30
0.0
 10
1798.971092805349
 20
1054.694732224651
 30
0.0
 10
1799.345588196303
 20
1055.047007089457
 30
0.0
 10
1799.524249036693
 20
1055.22898691155
 30
0.0
 10
1800.043806557965
 20
1055.802404398374
 30
0.0
 10
1800.364200916722
 20
1056.218037276575
 30
0.0
 10
1801.222491502609
 20
1057.545885789885
 30
0.0
 10
1801.654010357342
 20
1058.540402632783
 30
0.0
 10
1802.037135895378
 20
1060.078754001056
 30
0.0
 10
1802.12163929394
 20
1060.598854041903
 30
0.0
 10
1802.205661116652
 20
1061.632608604119
 30
0.0
 10
1802.206170722626
 20
1062.142134629177
 30
0.0
 10
1802.083361415776
 20
1063.692520243795
 30
0.0
 10
1801.828149054242
 20
1064.739553962205
 30
0.0
 10
1800.986873900926
 20
1066.691364759433
 30
0.0
 10
1800.40207613886
 20
1067.593417561697
 30
0.0
 10
1799.537795881904
 20
1068.551218655916
 30
0.0
 10
1799.359446935307
 20
1068.73361265368
 30
0.0
 10
1798.985808978566
 20
1069.08651712217
 30
0.0
 10
1798.790548179403
 20
1069.256796500027
 30
0.0
 10
1798.181396802104
 20
1069.745778608365
 30
0.0
 10
1797.743968581472
 20
1070.042480681464
 30
0.0
 10
1796.359992213605
 20
1070.821932663508
 30
0.0
 10
1795.340957368585
 20
1071.19038410193
 30
0.0
 10
1793.790656718673
 20
1071.477814311522
 30
0.0
 10
1793.270579379714
 20
1071.530295874168
 30
0.0
 10
1792.500821252151
 20
1071.546936944744
 30
0.0
 10
1792.245385132279
 20
1071.542326843369
 30
0.0
 10
1791.729607758522
 20
1071.512257936837
 30
0.0
 10
1791.470567990126
 20
1071.486745829075
 30
0.0
 10
1790.175997935905
 20
1071.305533478648
 30
0.0
 10
1789.142853783493
 20
1070.984490687437
 30
0.0
 10
1787.722294852833
 20
1070.266141041418
 30
0.0
 10
1787.270207538442
 20
1069.988150369462
 30
0.0
 10
1786.425176737735
 20
1069.369017795712
 30
0.0
 10
1786.033312558146
 20
1069.029022780818
 30
0.0
 10
1784.955920669138
 20
1067.93447416625
 30
0.0
 10
1784.333896286348
 20
1067.063903174248
 30
0.0
 10
1783.406760049244
 20
1065.153325944933
 30
0.0
 10
1783.103257289609
 20
1064.115847692902
 30
0.0
 10
1782.94329027752
 20
1062.821274089706
 30
0.0
 10
1782.921992882482
 20
1062.562493082378
 30
0.0
 10
1782.90020593819
 20
1062.047722315267
 30
0.0
 10
1782.899602041602
 20
1061.792850251309
 30
0.0
 10
1782.928544843569
 20
1061.0212075067
 30
0.0
 10
1782.989564230572
 20
1060.500839423702
 30
0.0
 10
1783.302652779537
 20
1058.952875430898
 30
0.0
 10
1783.688216151773
 20
1057.939822604833
 30
0.0
 10
1784.489339038109
 20
1056.570208598848
 30
0.0
 10
1784.792606690827
 20
1056.138428135955
 30
0.0
 10
1785.455977738185
 20
1055.338693317529
 30
0.0
 10
1785.811930949975
 20
1054.973715593934
 30
0.0
 10
1786.980831187953
 20
1053.952313269921
 30
0.0
 10
1787.893809018524
 20
1053.381727144933
 30
0.0
 10
1789.859259579184
 20
1052.572553254835
 30
0.0
 10
1790.908949673545
 20
1052.335097510664
 30
0.0
 10
1792.199058077422
 20
1052.253638531256
 30
0.0
 10
1792.454835070634
 20
1052.247809686908
 30
0.0
 10
1792.967590171248
 20
1052.256437880717
 30
0.0
 10
1793.225747604398
 20
1052.271022437943
 30
0.0
 10
1794.00185477357
 20
1052.346647756965
 30
0.0
 10
1794.521462962796
 20
1052.439780433013
 30
0.0
 10
1796.055113839762
 20
1052.848443532342
 30
0.0
 10
1797.042063805608
 20
1053.296440888911
 30
0.0
 10
1798.353751864482
 20
1054.174855945322
 30
0.0
 10
1798.763232037322
 20
1054.501207926259
 30
0.0
 10
1799.326717919479
 20
1055.028330826556
 30
0.0
 10
1799.505817894363
 20
1055.209764868749
 30
0.0
 10
1799.853080425506
 20
1055.590897303271
 30
0.0
 10
1800.020282688758
 20
1055.789776196074
 30
0.0
 10
1800.81867662746
 20
1056.822254698006
 30
0.0
 10
1801.333650763673
 20
1057.772952709037
 30
0.0
 10
1802.020338634805
 20
1059.782221485827
 30
0.0
 10
1802.19143990292
 20
1060.837860005398
 30
0.0
 10
1802.197211977218
 20
1062.372446587401
 30
0.0
 10
1802.158339166055
 20
1062.890892408399
 30
0.0
 10
1801.99413759122
 20
1063.926049374428
 30
0.0
 10
1801.868775972694
 20
1064.44193376892
 30
0.0
 10
1801.365674886215
 20
1065.952463829191
 30
0.0
 10
1800.858069007834
 20
1066.907610260477
 30
0.0
 10
1800.066832661334
 20
1067.947244058407
 30
0.0
 10
1799.900962939483
 20
1068.147629840354
 30
0.0
 10
1799.556151066617
 20
1068.531891126214
 30
0.0
 10
1799.378210065389
 20
1068.714864163285
 30
0.0
 10
1798.819502848326
 20
1069.245495998089
 30
0.0
 10
1798.412996579374
 20
1069.574625967888
 30
0.0
 10
1797.109164429077
 20
1070.462471040003
 30
0.0
 10
1796.125963568295
 20
1070.918247559555
 30
0.0
 10
1794.594774519453
 20
1071.339048403198
 30
0.0
 10
1794.075475473948
 20
1071.436295119304
 30
0.0
 10
1793.299097406045
 20
1071.517948809956
 30
0.0
 10
1793.040728299005
 20
1071.534519253916
 30
0.0
 10
1792.527323882761
 20
1071.547036158817
 30
0.0
 10
1792.272048195173
 20
1071.54312577783
 30
0.0
 10
1790.983007943803
 20
1071.471568114669
 30
0.0
 10
1789.93221080147
 20
1071.242579622484
 30
0.0
 10
1787.960541520689
 20
1070.448813514812
 30
0.0
 10
1787.042477165779
 20
1069.885103452483
 30
0.0
 10
1785.864376192493
 20
1068.871382189128
 30
0.0
 10
1785.505890995367
 20
1068.509232510449
 30
0.0
 10
1784.837212306804
 20
1067.715516165494
 30
0.0
 10
1784.530872236225
 20
1067.286476795918
 30
0.0
 10
1783.719563746332
 20
1065.923881753214
 30
0.0
 10
1783.325900718288
 20
1064.913830790299
 30
0.0
 10
1783.000589660477
 20
1063.36720200886
 30
0.0
 10
1782.935490936587
 20
1062.846768183856
 30
0.0
 10
1782.900654328251
 20
1062.074328331131
 30
0.0
 10
1782.899354710814
 20
1061.819420342084
 30
0.0
 10
1782.917217597716
 20
1061.305196888563
 30
0.0
 10
1782.936515263366
 20
1061.046574380325
 30
0.0
 10
1783.086387401951
 20
1059.752179341853
 30
0.0
 10
1783.381506072023
 20
1058.712793889915
 30
0.0
 10
1784.29388662353
 20
1056.794619316711
 30
0.0
 10
1784.909597075701
 20
1055.918396122101
 30
0.0
 10
1785.801819481944
 20
1054.998194743429
 30
0.0
 10
1785.987134021937
 20
1054.821625144843
 30
0.0
 10
1786.375640864454
 20
1054.480232020944
 30
0.0
 10
1786.578067812269
 20
1054.316217384937
 30
0.0
 10
1787.207652187136
 20
1053.847442351397
 30
0.0
 10
1787.65726900178
 20
1053.56611165401
 30
0.0
 10
1789.071739486269
 20
1052.836922576814
 30
0.0
 10
1790.102662120287
 20
1052.507556518967
 30
0.0
 10
1791.397049230258
 20
1052.316201791817
 30
0.0
 10
1791.656176754831
 20
1052.288674663679
 30
0.0
 10
1792.172365165568
 20
1052.254640715955
 30
0.0
 10
1792.428374298458
 20
1052.248107539833
 30
0.0
 10
1793.197135107717
 20
1052.258924178037
 30
0.0
 10
1793.717001684232
 20
1052.307352362796
 30
0.0
 10
1795.268193835813
 20
1052.582564408349
 30
0.0
 10
1796.289925002905
 20
1052.942815904431
 30
0.0
 10
1797.680562665296
 20
1053.711810681069
 30
0.0
 10
1798.120629274757
 20
1054.005330943952
 30
0.0
 10
1798.734172967789
 20
1054.490152615091
 30
0.0
 10
1798.930969691878
 20
1054.659146346466
 30
0.0
 10
1799.30778610782
 20
1055.009696551648
 30
0.0
 10
1799.487343401631
 20
1055.190603754571
 30
0.0
 10
1800.357713314815
 20
1056.140562969312
 30
0.0
 10
1800.949172475415
 20
1057.037296311659
 30
0.0
 10
1801.377395050439
 20
1058.009814872523
 30
0.0
  0
SPLINE
  5
2CE
330
2C5
100
AcDbEntity
  8
0
  6
Continuous
 62
     7
370
    15
100
AcDbSpline
210
0.0
220
0.0
230
1.0
 70
     8
 71
     3
 72
    28
 73
    24
 74
     0
 42
0.0000000001
 43
0.0000000001
 40
0.0
 40
0.0
 40
0.0
 40
0.0
 40
0.125
 40
0.125
 40
0.1875
 40
0.1875
 40
0.2499999999999999
 40
0.2499999999999999
 40
0.3749999999999997
 40
0.3749999999999997
 40
0.4374999999999998
 40
0.4374999999999998
 40
0.4999999999999997
 40
0.4999999999999997
 40
0.6249999999999997
 40
0.6249999999999997
 40
0.6874999999999997
 40
0.6874999999999997
 40
0.7499999999999997
 40
0.7499999999999997
 40
0.8749999999999998
 40
0.8749999999999998
 40
1.0
 40
1.0
 40
1.0
 40
1.0
 10
1798.128355897365
 20
1069.766360735948
 30
0.0
 10
1798.568850058852
 20
1069.435309107359
 30
0.0
 10
1798.982420863852
 20
1069.071175050038
 30
0.0
 10
1799.55480748064
 20
1068.477286860963
 30
0.0
 10
1799.738015513325
 20
1068.270686837861
 30
0.0
 10
1800.08398717008
 20
1067.846454536143
 30
0.0
 10
1800.247380645563
 20
1067.628229632158
 30
0.0
 10
1800.709233598237
 20
1066.955514972559
 30
0.0
 10
1800.979557773238
 20
1066.483107651036
 30
0.0
 10
1801.327093696309
 20
1065.737591821622
 30
0.0
 10
1801.433302910266
 20
1065.482384657459
 30
0.0
 10
1801.622282179835
 20
1064.968894262021
 30
0.0
 10
1801.705623893825
 20
1064.70950722849
 30
0.0
 10
1801.92282185709
 20
1063.923566738541
 30
0.0
 10
1802.024077122374
 20
1063.389287496425
 30
0.0
 10
1802.109025728776
 20
1062.572006535582
 30
0.0
 10
1802.126078780763
 20
1062.296215307519
 30
0.0
 10
1802.136867387846
 20
1061.746627668456
 30
0.0
 10
1802.130763422945
 20
1061.472064768615
 30
0.0
 10
1802.078288739815
 20
1060.649062160265
 30
0.0
 10
1801.997442814739
 20
1060.103741853339
 30
0.0
 10
1801.750947751961
 20
1059.040823938072
 30
0.0
 10
1801.584970217337
 20
1058.52009605702
 30
0.0
 10
1801.377395050439
 20
1058.009814872521
 30
0.0
  0
LINE
  5
2CF
330
2C5
100
AcDbEntity
  8
0
  6
Continuous
 62
     7
370
    15
100
AcDbLine
 10
1806.886007972551
 20
1064.064625151598
 30
0.0
 11
1801.594505350422
 21
1073.229776541509
 31
0.0
  0
LINE
  5
2D0
330
2C5
100
AcDbEntity
  8
0
  6
Continuous
 62
     7
370
    15
100
AcDbLine
 10
1801.594505350422
 20
1050.564625151598
 30
0.0
 11
1806.886007972551
 21
1059.729776541509
 31
0.0
  0
ARC
  5
2D1
330
2C5
100
AcDbEntity
  8
0
  6
Continuous
 62
     7
370
    15
100
AcDbCircle
 10
1792.548913710396
 20
1061.897200846553
 30
0.0
 40
14.50000000000003
100
AcDbArc
 50
111.4033496394095
 51
128.5966503605911
  0
ARC
  5
2D2
330
2C5
100
AcDbEntity
  8
0
  6
Continuous
 62
     7
370
    15
100
AcDbCircle
 10
1792.548913710396
 20
1061.897200846553
 30
0.0
 40
14.5
100
AcDbArc
 50
171.403349639406
 51
188.596650360594
  0
ARC
  5
2D3
330
2C5
100
AcDbEntity
  8
0
  6
Continuous
 62
     7
370
    15
100
AcDbCircle
 10
1792.548913710396
 20
1061.897200846553
 30
0.0
 40
14.50000000000002
100
AcDbArc
 50
231.4033496394089
 51
248.5966503605905
  0
ARC
  5
2D4
330
2C5
100
AcDbEntity
  8
0
  6
Continuous
 62
     7
370
    15
100
AcDbCircle
 10
1792.548913710396
 20
1061.897200846553
 30
0.0
 40
14.50000000000002
100
AcDbArc
 50
291.4033496394095
 51
308.5966503605911
  0
ARC
  5
2D5
330
2C5
100
AcDbEntity
  8
0
  6
Continuous
 62
     7
370
    15
100
AcDbCircle
 10
1792.548913710396
 20
1061.897200846553
 30
0.0
 40
14.50000000000001
100
AcDbArc
 50
351.403349639406
 51
8.596650360593987
  0
ARC
  5
2D6
330
2C5
100
AcDbEntity
  8
0
  6
Continuous
 62
     7
370
    15
100
AcDbCircle
 10
1792.548913710396
 20
1061.897200846553
 30
0.0
 40
14.50000000000003
100
AcDbArc
 50
51.40334963940891
 51
68.59665036059045
  0
LINE
  5
2D7
330
2C5
100
AcDbEntity
  8
0
  6
Continuous
 62
     7
370
    15
100
AcDbLine
 10
1797.840416332525
 20
1075.397200846553
 30
0.0
 11
1787.257411088267
 21
1075.397200846553
 31
0.0
  0
LINE
  5
2D8
330
2C5
100
AcDbEntity
  8
0
  6
Continuous
 62
     7
370
    15
100
AcDbLine
 10
1783.503322070371
 20
1073.229776541509
 30
0.0
 11
1778.211819448242
 21
1064.064625151598
 31
0.0
  0
LINE
  5
2D9
330
2C5
100
AcDbEntity
  8
0
  6
Continuous
 62
     7
370
    15
100
AcDbLine
 10
1778.211819448242
 20
1059.729776541509
 30
0.0
 11
1783.503322070371
 21
1050.564625151598
 31
0.0
  0
LINE
  5
2DA
330
2C5
100
AcDbEntity
  8
0
  6
Continuous
 62
     7
370
    15
100
AcDbLine
 10
1787.257411088267
 20
1048.397200846554
 30
0.0
 11
1797.840416332525
 21
1048.397200846554
 31
0.0
  0
SPLINE
  5
2DB
330
2C5
100
AcDbEntity
  8
0
  6
Continuous
 62
     7
370
    15
100
AcDbSpline
210
0.0
220
0.0
230
1.0
 70
     8
 71
     3
 72
    36
 73
    32
 74
     0
 42
0.0000000001
 43
0.0000000001
 40
0.0
 40
0.0
 40
0.0
 40
0.0
 40
0.0625000000000001
 40
0.0625000000000001
 40
0.1250000000000001
 40
0.1250000000000001
 40
0.1875000000000002
 40
0.1875000000000002
 40
0.2500000000000002
 40
0.2500000000000002
 40
0.3750000000000003
 40
0.3750000000000003
 40
0.5000000000000004
 40
0.5000000000000004
 40
0.5625000000000002
 40
0.5625000000000002
 40
0.6250000000000002
 40
0.6250000000000002
 40
0.6875000000000001
 40
0.6875000000000001
 40
0.7500000000000001
 40
0.7500000000000001
 40
0.8125
 40
0.8125
 40
0.84375
 40
0.84375
 40
0.8749999999999998
 40
0.8749999999999998
 40
0.9374999999999998
 40
0.9374999999999998
 40
1.0
 40
1.0
 40
1.0
 40
1.0
 10
1782.322583718414
 20
1061.201014883553
 30
0.0
 10
1782.302491527793
 20
1061.672342855439
 30
0.0
 10
1782.314467694621
 20
1062.142442371488
 30
0.0
 10
1782.404232423268
 20
1063.080120300939
 30
0.0
 10
1782.481862610259
 20
1063.544472069903
 30
0.0
 10
1782.698251081071
 20
1064.450807096976
 30
0.0
 10
1782.837191005929
 20
1064.894922348232
 30
0.0
 10
1783.177000696969
 20
1065.764919232418
 30
0.0
 10
1783.379799383223
 20
1066.193711411264
 30
0.0
 10
1784.066858188751
 20
1067.417822308375
 30
0.0
 10
1784.629018857141
 20
1068.159347818174
 30
0.0
 10
1785.966556822266
 20
1069.489740947789
 30
0.0
 10
1786.712453588884
 20
1070.046492366109
 30
0.0
 10
1787.942855492032
 20
1070.719959839596
 30
0.0
 10
1788.37428562885
 20
1070.91767871512
 30
0.0
 10
1789.248907385517
 20
1071.245676506038
 30
0.0
 10
1789.694934983007
 20
1071.377869244887
 30
0.0
 10
1790.604270109943
 20
1071.579202533779
 30
0.0
 10
1791.070348572002
 20
1071.648527088876
 30
0.0
 10
1792.007876775173
 20
1071.72000211062
 30
0.0
 10
1792.474250434691
 20
1071.722421473879
 30
0.0
 10
1793.402250257937
 20
1071.661089274209
 30
0.0
 10
1793.863871140323
 20
1071.597264099577
 30
0.0
 10
1794.552629128534
 20
1071.450327134033
 30
0.0
 10
1794.782166748834
 20
1071.392551565468
 30
0.0
 10
1795.232664827437
 20
1071.261580880045
 30
0.0
 10
1795.454470423601
 20
1071.188250812907
 30
0.0
 10
1796.109766974588
 20
1070.94520506182
 30
0.0
 10
1796.533189169305
 20
1070.752551102087
 30
0.0
 10
1797.352991402104
 20
1070.305636744488
 30
0.0
 10
1797.751067526284
 20
1070.049910305078
 30
0.0
 10
1798.128355897365
 20
1069.766360735948
 30
0.0
  0
ARC
  5
2DC
330
2C5
100
AcDbEntity
  8
0
  6
Continuous
 62
     7
370
    15
100
AcDbCircle
 10
1792.548913710396
 20
1061.897200846553
 30
0.0
 40
10.25
100
AcDbArc
 50
183.8945610015694
 51
206.7887688932827
  0
ARC
  5
2DD
330
2C5
100
AcDbEntity
  8
0
  6
Continuous
 62
     7
370
    15
100
AcDbCircle
 10
1792.548913710396
 20
1061.897200846553
 30
0.0
 40
14.5
100
AcDbArc
 50
248.5966503605905
 51
291.4033496394095
  0
ARC
  5
2DE
330
2C5
100
AcDbEntity
  8
0
  6
Continuous
 62
     7
370
    15
100
AcDbCircle
 10
1792.548913710396
 20
1061.897200846553
 30
0.0
 40
14.50000000000003
100
AcDbArc
 50
68.59665036059045
 51
111.4033496394095
  0
ARC
  5
2DF
330
2C5
100
AcDbEntity
  8
0
  6
Continuous
 62
     7
370
    15
100
AcDbCircle
 10
1792.548913710396
 20
1061.897200846553
 30
0.0
 40
14.50000000000002
100
AcDbArc
 50
188.596650360594
 51
231.4033496394089
  0
ARC
  5
2E0
330
2C5
100
AcDbEntity
  8
0
  6
Continuous
 62
     7
370
    15
100
AcDbCircle
 10
1792.548913710396
 20
1061.897200846553
 30
0.0
 40
14.50000000000001
100
AcDbArc
 50
8.596650360593987
 51
51.40334963940891
  0
ARC
  5
2E1
330
2C5
100
AcDbEntity
  8
0
  6
Continuous
 62
     7
370
    15
100
AcDbCircle
 10
1792.548913710396
 20
1061.897200846553
 30
0.0
 40
14.5
100
AcDbArc
 50
128.5966503605911
 51
171.403349639406
  0
ARC
  5
2E2
330
2C5
100
AcDbEntity
  8
0
  6
Continuous
 62
     7
370
    15
100
AcDbCircle
 10
1792.548913710396
 20
1061.897200846553
 30
0.0
 40
14.50000000000002
100
AcDbArc
 50
308.5966503605911
 51
351.403349639406
  0
INSERT
  5
2E3
330
2C5
100
AcDbEntity
  8
0
  6
Continuous
 62
     7
370
     0
100
AcDbBlockReference
  2
SW_CENTERMARKSYMBOL_0
 10
1792.548913710396
 20
1061.897200846553
 30
0.0
  0
ENDBLK
  5
2C7
330
2C5
100
AcDbEntity
  8
0
100
AcDbBlockEnd
  0
BLOCK
  5
2E6
330
2E5
100
AcDbEntity
  8
0
100
AcDbBlockBegin
  2
2
 70
     0
 10
0.0
 20
0.0
 30
0.0
  3
2
  1

  0
LINE
  5
39B
330
2E5
100
AcDbEntity
  8
0
  6
Continuous
 62
     7
370
    15
100
AcDbLine
 10
1751.280955287183
 20
1045.238957684177
 30
0.0
 11
1752.030955287183
 21
1045.238957684177
 31
0.0
1001
AcDbBlockRepETag
1070
     1
1071
        0
1005
39B
  0
LINE
  5
39C
330
2E5
100
AcDbEntity
  8
0
  6
Continuous
 62
     7
370
    15
100
AcDbLine
 10
1752.030955287183
 20
1074.238957684177
 30
0.0
 11
1751.280955287183
 21
1074.238957684177
 31
0.0
1001
AcDbBlockRepETag
1070
     1
1071
        1
1005
39C
  0
LINE
  5
39D
330
2E5
100
AcDbEntity
  8
0
  6
Continuous
 62
     7
370
    15
100
AcDbLine
 10
1752.030955287183
 20
1045.238957684177
 30
0.0
 11
1752.030955287183
 21
1074.238957684177
 31
0.0
1001
AcDbBlockRepETag
1070
     1
1071
        2
1005
39D
  0
LINE
  5
39E
330
2E5
100
AcDbEntity
  8
0
  6
Continuous
 62
     7
370
    15
100
AcDbLine
 10
1751.280955287183
 20
1046.238957684177
 30
0.0
 11
1751.280955287183
 21
1045.238957684177
 31
0.0
1001
AcDbBlockRepETag
1070
     1
1071
        3
1005
39E
  0
LINE
  5
39F
330
2E5
100
AcDbEntity
  8
0
  6
Continuous
 62
     7
370
    15
100
AcDbLine
 10
1746.030955287183
 20
1046.238957684177
 30
0.0
 11
1751.280955287183
 21
1046.238957684177
 31
0.0
1001
AcDbBlockRepETag
1070
     1
1071
        4
1005
39F
  0
LINE
  5
3A0
330
2E5
100
AcDbEntity
  8
0
  6
Continuous
 62
     7
370
    15
100
AcDbLine
 10
1746.030955287183
 20
1048.406381989221
 30
0.0
 11
1746.030955287183
 21
1046.238957684177
 31
0.0
1001
AcDbBlockRepETag
1070
     1
1071
        5
1005
3A0
  0
LINE
  5
3A1
330
2E5
100
AcDbEntity
  8
0
  6
Continuous
 62
     7
370
    15
100
AcDbLine
 10
1751.280955287183
 20
1048.406381989221
 30
0.0
 11
1746.030955287183
 21
1048.406381989221
 31
0.0
1001
AcDbBlockRepETag
1070
     1
1071
        6
1005
3A1
  0
LINE
  5
3A2
330
2E5
100
AcDbEntity
  8
0
  6
Continuous
 62
     7
370
    15
100
AcDbLine
 10
1751.280955287183
 20
1057.571533379133
 30
0.0
 11
1751.280955287183
 21
1048.406381989221
 31
0.0
1001
AcDbBlockRepETag
1070
     1
1071
        7
1005
3A2
  0
LINE
  5
3A3
330
2E5
100
AcDbEntity
  8
0
  6
Continuous
 62
     7
370
    15
100
AcDbLine
 10
1746.030955287183
 20
1057.571533379133
 30
0.0
 11
1751.280955287183
 21
1057.571533379133
 31
0.0
1001
AcDbBlockRepETag
1070
     1
1071
        8
1005
3A3
  0
LINE
  5
3A4
330
2E5
100
AcDbEntity
  8
0
  6
Continuous
 62
     7
370
    15
100
AcDbLine
 10
1746.030955287183
 20
1061.906381989221
 30
0.0
 11
1746.030955287183
 21
1057.571533379133
 31
0.0
1001
AcDbBlockRepETag
1070
     1
1071
        9
1005
3A4
  0
LINE
  5
3A5
330
2E5
100
AcDbEntity
  8
0
  6
Continuous
 62
     7
370
    15
100
AcDbLine
 10
1751.280955287183
 20
1061.906381989221
 30
0.0
 11
1746.030955287183
 21
1061.906381989221
 31
0.0
1001
AcDbBlockRepETag
1070
     1
1071
       10
1005
3A5
  0
LINE
  5
3A6
330
2E5
100
AcDbEntity
  8
0
  6
Continuous
 62
     7
370
    15
100
AcDbLine
 10
1751.280955287183
 20
1071.071533379133
 30
0.0
 11
1751.280955287183
 21
1061.906381989221
 31
0.0
1001
AcDbBlockRepETag
1070
     1
1071
       11
1005
3A6
  0
LINE
  5
3A7
330
2E5
100
AcDbEntity
  8
0
  6
Continuous
 62
     7
370
    15
100
AcDbLine
 10
1746.030955287183
 20
1071.071533379133
 30
0.0
 11
1751.280955287183
 21
1071.071533379133
 31
0.0
1001
AcDbBlockRepETag
1070
     1
1071
       12
1005
3A7
  0
LINE
  5
3A8
330
2E5
100
AcDbEntity
  8
0
  6
Continuous
 62
     7
370
    15
100
AcDbLine
 10
1746.030955287183
 20
1073.238957684177
 30
0.0
 11
1746.030955287183
 21
1071.071533379133
 31
0.0
1001
AcDbBlockRepETag
1070
     1
1071
       13
1005
3A8
  0
LINE
  5
3A9
330
2E5
100
AcDbEntity
  8
0
  6
Continuous
 62
     7
370
    15
100
AcDbLine
 10
1751.280955287183
 20
1073.238957684177
 30
0.0
 11
1746.030955287183
 21
1073.238957684177
 31
0.0
1001
AcDbBlockRepETag
1070
     1
1071
       14
1005
3A9
  0
LINE
  5
3AA
330
2E5
100
AcDbEntity
  8
0
  6
Continuous
 62
     7
370
    15
100
AcDbLine
 10
1751.280955287183
 20
1074.238957684177
 30
0.0
 11
1751.280955287183
 21
1073.238957684177
 31
0.0
1001
AcDbBlockRepETag
1070
     1
1071
       15
1005
3AA
  0
LINE
  5
3AB
330
2E5
100
AcDbEntity
  8
0
  6
Continuous
 62
     7
370
    15
100
AcDbLine
 10
1746.030955287183
 20
1061.906381989221
 30
0.0
 11
1746.030955287183
 21
1071.071533379133
 31
0.0
1001
AcDbBlockRepETag
1070
     1
1071
       16
1005
3AB
  0
LINE
  5
3AC
330
2E5
100
AcDbEntity
  8
0
  6
Continuous
 62
     7
370
    15
100
AcDbLine
 10
1746.030955287183
 20
1048.406381989221
 30
0.0
 11
1746.030955287183
 21
1057.571533379133
 31
0.0
1001
AcDbBlockRepETag
1070
     1
1071
       17
1005
3AC
  0
LINE
  5
3AD
330
2E5
100
AcDbEntity
  8
0
  6
CENTERX2
 62
     7
370
     0
100
AcDbLine
 10
1745.030955287183
 20
1059.738957684177
 30
0.0
 11
1753.280955287183
 21
1059.738957684177
 31
0.0
1001
AcDbBlockRepETag
1070
     1
1071
       18
1005
3AD
  0
ENDBLK
  5
2E7
330
2E5
100
AcDbEntity
  8
0
100
AcDbBlockEnd
  0
BLOCK
  5
2FD
330
2FC
100
AcDbEntity
  8
0
100
AcDbBlockBegin
  2
3
 70
     0
 10
0.0
 20
0.0
 30
0.0
  3
3
  1

  0
LINE
  5
362
330
2FC
100
AcDbEntity
  8
0
  6
Continuous
 62
     7
370
    15
100
AcDbLine
 10
1807.048913710396
 20
1020.209439905954
 30
0.0
 11
1807.048913710396
 21
1026.209439905954
 31
0.0
1001
AcDbBlockRepETag
1070
     1
1071
        0
1005
362
  0
LINE
  5
363
330
2FC
100
AcDbEntity
  8
0
  6
Continuous
 62
     7
370
    15
100
AcDbLine
 10
1778.048913710396
 20
1026.209439905954
 30
0.0
 11
1778.048913710396
 21
1020.209439905954
 31
0.0
1001
AcDbBlockRepETag
1070
     1
1071
        1
1005
363
  0
LINE
  5
364
330
2FC
100
AcDbEntity
  8
0
  6
Continuous
 62
     7
370
    15
100
AcDbLine
 10
1807.048913710396
 20
1026.209439905954
 30
0.0
 11
1778.048913710396
 21
1026.209439905954
 31
0.0
1001
AcDbBlockRepETag
1070
     1
1071
        2
1005
364
  0
LINE
  5
365
330
2FC
100
AcDbEntity
  8
0
  6
Continuous
 62
     7
370
    15
100
AcDbLine
 10
1783.503322070371
 20
1020.209439905954
 30
0.0
 11
1787.257411088267
 21
1020.209439905954
 31
0.0
1001
AcDbBlockRepETag
1070
     1
1071
        3
1005
365
  0
LINE
  5
366
330
2FC
100
AcDbEntity
  8
0
  6
Continuous
 62
     7
370
    15
100
AcDbLine
 10
1783.503322070371
 20
1025.459439905954
 30
0.0
 11
1783.503322070371
 21
1020.209439905954
 31
0.0
1001
AcDbBlockRepETag
1070
     1
1071
        4
1005
366
  0
LINE
  5
367
330
2FC
100
AcDbEntity
  8
0
  6
Continuous
 62
     7
370
    15
100
AcDbLine
 10
1778.211819448242
 20
1025.459439905954
 30
0.0
 11
1783.503322070371
 21
1025.459439905954
 31
0.0
1001
AcDbBlockRepETag
1070
     1
1071
        5
1005
367
  0
LINE
  5
368
330
2FC
100
AcDbEntity
  8
0
  6
Continuous
 62
     7
370
    15
100
AcDbLine
 10
1778.211819448242
 20
1020.209439905954
 30
0.0
 11
1778.211819448242
 21
1025.459439905954
 31
0.0
1001
AcDbBlockRepETag
1070
     1
1071
        6
1005
368
  0
LINE
  5
369
330
2FC
100
AcDbEntity
  8
0
  6
Continuous
 62
     7
370
    15
100
AcDbLine
 10
1778.048913710396
 20
1020.209439905954
 30
0.0
 11
1778.211819448242
 21
1020.209439905954
 31
0.0
1001
AcDbBlockRepETag
1070
     1
1071
        7
1005
369
  0
LINE
  5
36A
330
2FC
100
AcDbEntity
  8
0
  6
Continuous
 62
     7
370
    15
100
AcDbLine
 10
1806.886007972551
 20
1020.209439905954
 30
0.0
 11
1807.048913710396
 21
1020.209439905954
 31
0.0
1001
AcDbBlockRepETag
1070
     1
1071
        8
1005
36A
  0
LINE
  5
36B
330
2FC
100
AcDbEntity
  8
0
  6
Continuous
 62
     7
370
    15
100
AcDbLine
 10
1806.886007972551
 20
1025.459439905954
 30
0.0
 11
1806.886007972551
 21
1020.209439905954
 31
0.0
1001
AcDbBlockRepETag
1070
     1
1071
        9
1005
36B
  0
LINE
  5
36C
330
2FC
100
AcDbEntity
  8
0
  6
Continuous
 62
     7
370
    15
100
AcDbLine
 10
1801.594505350422
 20
1025.459439905954
 30
0.0
 11
1806.886007972551
 21
1025.459439905954
 31
0.0
1001
AcDbBlockRepETag
1070
     1
1071
       10
1005
36C
  0
LINE
  5
36D
330
2FC
100
AcDbEntity
  8
0
  6
Continuous
 62
     7
370
    15
100
AcDbLine
 10
1801.594505350422
 20
1020.209439905954
 30
0.0
 11
1801.594505350422
 21
1025.459439905954
 31
0.0
1001
AcDbBlockRepETag
1070
     1
1071
       11
1005
36D
  0
LINE
  5
36E
330
2FC
100
AcDbEntity
  8
0
  6
Continuous
 62
     7
370
    15
100
AcDbLine
 10
1797.840416332525
 20
1020.209439905954
 30
0.0
 11
1801.594505350422
 21
1020.209439905954
 31
0.0
1001
AcDbBlockRepETag
1070
     1
1071
       12
1005
36E
  0
LINE
  5
36F
330
2FC
100
AcDbEntity
  8
0
  6
Continuous
 62
     7
370
    15
100
AcDbLine
 10
1797.840416332525
 20
1025.459439905954
 30
0.0
 11
1797.840416332525
 21
1020.209439905954
 31
0.0
1001
AcDbBlockRepETag
1070
     1
1071
       13
1005
36F
  0
LINE
  5
370
330
2FC
100
AcDbEntity
  8
0
  6
Continuous
 62
     7
370
    15
100
AcDbLine
 10
1787.257411088267
 20
1025.459439905954
 30
0.0
 11
1797.840416332525
 21
1025.459439905954
 31
0.0
1001
AcDbBlockRepETag
1070
     1
1071
       14
1005
370
  0
LINE
  5
371
330
2FC
100
AcDbEntity
  8
0
  6
Continuous
 62
     7
370
    15
100
AcDbLine
 10
1787.257411088267
 20
1020.209439905954
 30
0.0
 11
1787.257411088267
 21
1025.459439905954
 31
0.0
1001
AcDbBlockRepETag
1070
     1
1071
       15
1005
371
  0
LINE
  5
372
330
2FC
100
AcDbEntity
  8
0
  6
Continuous
 62
     7
370
    15
100
AcDbLine
 10
1797.840416332525
 20
1020.209439905954
 30
0.0
 11
1787.257411088267
 21
1020.209439905954
 31
0.0
1001
AcDbBlockRepETag
1070
     1
1071
       16
1005
372
  0
LINE
  5
373
330
2FC
100
AcDbEntity
  8
0
  6
Continuous
 62
     7
370
    15
100
AcDbLine
 10
1783.503322070371
 20
1020.209439905954
 30
0.0
 11
1778.211819448242
 21
1020.209439905954
 31
0.0
1001
AcDbBlockRepETag
1070
     1
1071
       17
1005
373
  0
LINE
  5
374
330
2FC
100
AcDbEntity
  8
0
  6
Continuous
 62
     7
370
    15
100
AcDbLine
 10
1806.886007972551
 20
1020.209439905954
 30
0.0
 11
1801.594505350422
 21
1020.209439905954
 31
0.0
1001
AcDbBlockRepETag
1070
     1
1071
       18
1005
374
  0
LINE
  5
375
330
2FC
100
AcDbEntity
  8
0
  6
CENTERX2
 62
     7
370
     0
100
AcDbLine
 10
1792.548913710396
 20
1027.459439905954
 30
0.0
 11
1792.548913710396
 21
1019.209439905954
 31
0.0
1001
AcDbBlockRepETag
1070
     1
1071
       19
1005
375
  0
ENDBLK
  5
2FE
330
2FC
100
AcDbEntity
  8
0
100
AcDbBlockEnd
  0
BLOCK
  5
315
330
314
100
AcDbEntity
  8
0
100
AcDbBlockBegin
  2
4
 70
     0
 10
0.0
 20
0.0
 30
0.0
  3
4
  1

  0
LINE
  5
317
330
314
100
AcDbEntity
  8
0
  6
Continuous
 62
     7
370
    15
100
AcDbLine
 10
1865.036445681838
 20
1064.927665697561
 30
0.0
 11
1865.036445681838
 21
1065.540071306475
 31
0.0
  0
LINE
  5
318
330
314
100
AcDbEntity
  8
0
  6
Continuous
 62
     7
370
    15
100
AcDbLine
 10
1836.036445681838
 20
1065.540071306475
 30
0.0
 11
1836.036445681838
 21
1064.927665697561
 31
0.0
  0
SPLINE
  5
319
330
314
100
AcDbEntity
  8
0
  6
Continuous
 62
     7
370
    15
100
AcDbSpline
210
0.0
220
0.0
230
1.0
 70
     8
 71
     3
 72
    16
 73
    12
 74
     0
 42
0.0000000001
 43
0.0000000001
 40
0.0
 40
0.0
 40
0.0
 40
0.0
 40
0.1568987646831053
 40
0.3204620892670854
 40
0.4474577265533528
 40
0.5704598409889006
 40
0.6836756251350583
 40
0.7841757332371407
 40
0.8717647936320304
 40
0.9463434378423684
 40
0.9999999999999998
 40
0.9999999999999998
 40
0.9999999999999998
 40
0.9999999999999998
 10
1856.997517963611
 20
1065.811573041526
 30
0.0
 10
1857.184076788179
 20
1065.705903758448
 30
0.0
 10
1857.565118862111
 20
1065.490076697636
 30
0.0
 10
1858.040154188177
 20
1065.156123525655
 30
0.0
 10
1858.443110869684
 20
1064.830781015386
 30
0.0
 10
1858.765333992289
 20
1064.531192078087
 30
0.0
 10
1859.035185065085
 20
1064.243605091485
 30
0.0
 10
1859.252295557118
 20
1063.979356561027
 30
0.0
 10
1859.421897795921
 20
1063.744343293971
 30
0.0
 10
1859.548438293517
 20
1063.548623777905
 30
0.0
 10
1859.614663482726
 20
1063.431141277515
 30
0.0
 10
1859.642373626311
 20
1063.381983895052
 30
0.0
  0
SPLINE
  5
31A
330
314
100
AcDbEntity
  8
0
  6
Continuous
 62
     7
370
    15
100
AcDbSpline
210
0.0
220
0.0
230
1.0
 70
     8
 71
     3
 72
    25
 73
    21
 74
     0
 42
0.0000000001
 43
0.0000000001
 40
0.0
 40
0.0
 40
0.0
 40
0.0
 40
0.0071372512085053
 40
0.0273973976488271
 40
0.0607047712969676
 40
0.1037390770251551
 40
0.1563576624045857
 40
0.2183489417540342
 40
0.2887596750543782
 40
0.3803632612081667
 40
0.4652666402712892
 40
0.5430539204242289
 40
0.6134110098492613
 40
0.6761166814892584
 40
0.7310262810668299
 40
0.7816350558713444
 40
0.8349910230701592
 40
0.8912277409348302
 40
0.9501917339054239
 40
1.0
 40
1.0
 40
1.0
 40
1.0
 10
1855.546457845114
 20
1067.622465308794
 30
0.0
 10
1855.561578189439
 20
1067.616868493917
 30
0.0
 10
1855.619619874387
 20
1067.595384289669
 30
0.0
 10
1855.750783291208
 20
1067.545481214792
 30
0.0
 10
1855.95736202801
 20
1067.463367603984
 30
0.0
 10
1856.229272513535
 20
1067.347815186566
 30
0.0
 10
1856.553250995403
 20
1067.198541149659
 30
0.0
 10
1856.920496610371
 20
1067.012545777735
 30
0.0
 10
1857.345331099123
 20
1066.773073883569
 30
0.0
 10
1857.783762099159
 20
1066.491895304943
 30
0.0
 10
1858.199155198495
 20
1066.184251119165
 30
0.0
 10
1858.547578011148
 20
1065.888509747257
 30
0.0
 10
1858.834975770836
 20
1065.61066374063
 30
0.0
 10
1859.068034463703
 20
1065.355639549308
 30
0.0
 10
1859.257756148777
 20
1065.122283320315
 30
0.0
 10
1859.420361274066
 20
1064.898303631641
 30
0.0
 10
1859.5677391404
 20
1064.669622972371
 30
0.0
 10
1859.703191929394
 20
1064.426166112807
 30
0.0
 10
1859.819785164226
 20
1064.185657429215
 30
0.0
 10
1859.876857427341
 20
1064.025605352871
 30
0.0
 10
1859.90299157673
 20
1063.952315375481
 30
0.0
  0
LINE
  5
31B
330
314
100
AcDbEntity
  8
0
  6
Continuous
 62
     7
370
    15
100
AcDbLine
 10
1855.506473868101
 20
1067.637301888365
 30
0.0
 11
1855.546457845114
 21
1067.622465308794
 31
0.0
  0
SPLINE
  5
31C
330
314
100
AcDbEntity
  8
0
  6
Continuous
 62
     7
370
    15
100
AcDbSpline
210
0.0
220
0.0
230
1.0
 70
     8
 71
     3
 72
    22
 73
    18
 74
     0
 42
0.0000000001
 43
0.0000000001
 40
0.0
 40
0.0
 40
0.0
 40
0.0
 40
0.0359991258739547
 40
0.0781288984547143
 40
0.1279615558510225
 40
0.1857658385460716
 40
0.2512604978699048
 40
0.3394904440561055
 40
0.4223492542605363
 40
0.4985575895616509
 40
0.5677719705504633
 40
0.6530981740883673
 40
0.7396083876072116
 40
0.8275494385600477
 40
0.8945566252776501
 40
0.9611329758551761
 40
1.0
 40
1.0
 40
1.0
 40
1.0
 10
1855.538697014244
 20
1068.776646018912
 30
0.0
 10
1855.623389362171
 20
1068.74591777162
 30
0.0
 10
1855.807197154455
 20
1068.679228260301
 30
0.0
 10
1856.122098725872
 20
1068.547434296493
 30
0.0
 10
1856.47419450921
 20
1068.388449223153
 30
0.0
 10
1856.8674163802
 20
1068.192165362825
 30
0.0
 10
1857.323838700512
 20
1067.937883099327
 30
0.0
 10
1857.799917548352
 20
1067.633302445321
 30
0.0
 10
1858.253736492518
 20
1067.293272329782
 30
0.0
 10
1858.632771111025
 20
1066.962767148169
 30
0.0
 10
1858.977126879779
 20
1066.615052094618
 30
0.0
 10
1859.292066699972
 20
1066.238649623065
 30
0.0
 10
1859.575153857736
 20
1065.82066555762
 30
0.0
 10
1859.784389634817
 20
1065.423170286146
 30
0.0
 10
1859.928935613845
 20
1065.055657703118
 30
0.0
 10
1860.015236478486
 20
1064.76929798018
 30
0.0
 10
1860.046175892725
 20
1064.592455790224
 30
0.0
 10
1860.057580335759
 20
1064.527270759065
 30
0.0
  0
LINE
  5
31D
330
314
100
AcDbEntity
  8
0
  6
Continuous
 62
     7
370
    15
100
AcDbLine
 10
1855.506106860115
 20
1068.788760046442
 30
0.0
 11
1855.538697014244
 21
1068.776646018912
 31
0.0
  0
SPLINE
  5
31E
330
314
100
AcDbEntity
  8
0
  6
Continuous
 62
     7
370
    15
100
AcDbSpline
210
0.0
220
0.0
230
1.0
 70
     8
 71
     3
 72
    39
 73
    35
 74
     0
 42
0.0000000001
 43
0.0000000001
 40
0.0
 40
0.0
 40
0.0
 40
0.0
 40
0.0172074815487078
 40
0.0462199711616771
 40
0.0810445540701004
 40
0.1214598548798284
 40
0.1641577688128662
 40
0.2048605586950301
 40
0.2433661121506612
 40
0.279524695994854
 40
0.3132214889543829
 40
0.3444256054160488
 40
0.3742351673241731
 40
0.4030813143394024
 40
0.440219531331746
 40
0.4791820414944969
 40
0.5207091461240389
 40
0.5500877051173856
 40
0.5766183846652417
 40
0.6016124890376321
 40
0.629078099996093
 40
0.6692866226076115
 40
0.7094222446467902
 40
0.7484751458001352
 40
0.7670698606961492
 40
0.7849863737484928
 40
0.8022144742933424
 40
0.8195368555471144
 40
0.8411448056833213
 40
0.8676142553867908
 40
0.8988676614967282
 40
0.934779087908671
 40
0.9751596107594268
 40
1.0
 40
1.0
 40
1.0
 40
1.0
 10
1855.590752995389
 20
1069.907569451988
 30
0.0
 10
1855.673996031394
 20
1069.876063484615
 30
0.0
 10
1855.897590094981
 20
1069.791437219039
 30
0.0
 10
1856.279000711028
 20
1069.629347741707
 30
0.0
 10
1856.752250318361
 20
1069.405115409631
 30
0.0
 10
1857.259320882546
 20
1069.128631578877
 30
0.0
 10
1857.754746299525
 20
1068.815225925527
 30
0.0
 10
1858.201422071145
 20
1068.486378388285
 30
0.0
 10
1858.585299964698
 20
1068.158546851075
 30
0.0
 10
1858.909628258517
 20
1067.837520986467
 30
0.0
 10
1859.179164130788
 20
1067.528135148145
 30
0.0
 10
1859.402235565377
 20
1067.230523521857
 30
0.0
 10
1859.586355545232
 20
1066.94318507296
 30
0.0
 10
1859.753889732745
 20
1066.633060905066
 30
0.0
 10
1859.901486047651
 20
1066.290793711445
 30
0.0
 10
1860.02172836994
 20
1065.902946531567
 30
0.0
 10
1860.089107018619
 20
1065.537827597948
 30
0.0
 10
1860.113607546366
 20
1065.213329627586
 30
0.0
 10
1860.110894586197
 20
1064.944030369463
 30
0.0
 10
1860.087509632114
 20
1064.681180125244
 30
0.0
 10
1860.035471822946
 20
1064.374267439637
 30
0.0
 10
1859.938422386671
 20
1064.019684932305
 30
0.0
 10
1859.781312828628
 20
1063.627725265127
 30
0.0
 10
1859.612425932737
 20
1063.309996203083
 30
0.0
 10
1859.46007625363
 20
1063.068228554232
 30
0.0
 10
1859.341906250446
 20
1062.898044807797
 30
0.0
 10
1859.217403982621
 20
1062.733749226687
 30
0.0
 10
1859.074592025515
 20
1062.559984604897
 30
0.0
 10
1858.896599234054
 20
1062.361483731223
 30
0.0
 10
1858.663206974286
 20
1062.126455750382
 30
0.0
 10
1858.363871411006
 20
1061.857695825531
 30
0.0
 10
1857.988108479887
 20
1061.562173517092
 30
0.0
 10
1857.60650862467
 20
1061.297023771669
 30
0.0
 10
1857.337477245781
 20
1061.138644690693
 30
0.0
 10
1857.235012500116
 20
1061.078323577528
 30
0.0
  0
LINE
  5
31F
330
314
100
AcDbEntity
  8
0
  6
Continuous
 62
     7
370
    15
100
AcDbLine
 10
1855.506147083098
 20
1069.940067729017
 30
0.0
 11
1855.590752995389
 21
1069.907569451988
 31
0.0
  0
SPLINE
  5
320
330
314
100
AcDbEntity
  8
0
  6
Continuous
 62
     7
370
    15
100
AcDbSpline
210
0.0
220
0.0
230
1.0
 70
     8
 71
     3
 72
    36
 73
    32
 74
     0
 42
0.0000000001
 43
0.0000000001
 40
0.0
 40
0.0
 40
0.0
 40
0.0
 40
0.012694405349667
 40
0.0475084645202859
 40
0.0758136144566782
 40
0.0984279981559019
 40
0.1249178090348245
 40
0.1580062120594798
 40
0.1963350256883319
 40
0.2362175379687463
 40
0.277357161163312
 40
0.3118667796413199
 40
0.3433336398324403
 40
0.3713885035275448
 40
0.3960269893959874
 40
0.4221816636509365
 40
0.4529201485026853
 40
0.4882841032134897
 40
0.5282599547956756
 40
0.5669634466296096
 40
0.6001820024919961
 40
0.6278622632392408
 40
0.6499793149023237
 40
0.6765851579993849
 40
0.7094165188076977
 40
0.7484224701738254
 40
0.7935112089925818
 40
0.8439961884622155
 40
0.9092939535136599
 40
0.9759403782811236
 40
1.0
 40
1.0
 40
1.0
 40
1.0
 10
1841.591046367541
 20
1062.667938049015
 30
0.0
 10
1841.572963519374
 20
1062.692751177912
 30
0.0
 10
1841.505288955119
 20
1062.785613633564
 30
0.0
 10
1841.414322889457
 20
1062.936972807177
 30
0.0
 10
1841.319548905389
 20
1063.108938777861
 30
0.0
 10
1841.24399716079
 20
1063.264820429417
 30
0.0
 10
1841.173195012844
 20
1063.429843993015
 30
0.0
 10
1841.102044231971
 20
1063.626855379274
 30
0.0
 10
1841.038635733401
 20
1063.851560685139
 30
0.0
 10
1840.990819704111
 20
1064.094609344659
 30
0.0
 10
1840.965083674545
 20
1064.331167222051
 30
0.0
 10
1840.959122726598
 20
1064.551300849323
 30
0.0
 10
1840.967629314018
 20
1064.744411467705
 30
0.0
 10
1840.986334200986
 20
1064.91698955122
 30
0.0
 10
1841.013021391225
 20
1065.078186795464
 30
0.0
 10
1841.049823726881
 20
1065.244699626892
 30
0.0
 10
1841.103178994272
 20
1065.432689612974
 30
0.0
 10
1841.180115742284
 20
1065.64773725803
 30
0.0
 10
1841.281803718375
 20
1065.876996791101
 30
0.0
 10
1841.40093308906
 20
1066.099569927377
 30
0.0
 10
1841.522740110122
 20
1066.295577502126
 30
0.0
 10
1841.635387872619
 20
1066.45729925599
 30
0.0
 10
1841.747681152301
 20
1066.605130428363
 30
0.0
 10
1841.87657400991
 20
1066.76176410357
 30
0.0
 10
1842.044532787819
 20
1066.9477919733
 30
0.0
 10
1842.261449275135
 20
1067.164020194408
 30
0.0
 10
1842.533952441568
 20
1067.405553085164
 30
0.0
 10
1842.889107582915
 20
1067.683874156639
 30
0.0
 10
1843.331863396866
 20
1067.979624293455
 30
0.0
 10
1843.736582744278
 20
1068.219491039879
 30
0.0
 10
1843.996695071426
 20
1068.343061567477
 30
0.0
 10
1844.065689415662
 20
1068.375838435887
 30
0.0
  0
LINE
  5
321
330
314
100
AcDbEntity
  8
0
  6
Continuous
 62
     7
370
    15
100
AcDbLine
 10
1845.0775435138
 20
1067.666528356927
 30
0.0
 11
1845.112405646626
 21
1067.679524555462
 31
0.0
  0
SPLINE
  5
322
330
314
100
AcDbEntity
  8
0
  6
Continuous
 62
     7
370
    15
100
AcDbSpline
210
0.0
220
0.0
230
1.0
 70
     8
 71
     3
 72
    23
 73
    19
 74
     0
 42
0.0000000001
 43
0.0000000001
 40
0.0
 40
0.0
 40
0.0
 40
0.0
 40
0.0362075786572175
 40
0.1252141680508483
 40
0.1939495663292843
 40
0.2632098751839988
 40
0.3328060716200319
 40
0.4040148045379258
 40
0.4809182812417953
 40
0.5635801933450941
 40
0.6516897964113713
 40
0.7448419683780672
 40
0.8091820304953381
 40
0.867516014192093
 40
0.9164976952753203
 40
0.9558995603807069
 40
0.9855672058793169
 40
1.0
 40
1.0
 40
1.0
 40
1.0
 10
1841.023929748516
 20
1063.944197805793
 30
0.0
 10
1841.03306020848
 20
1063.997061253508
 30
0.0
 10
1841.064635447442
 20
1064.179875262937
 30
0.0
 10
1841.163449450494
 20
1064.460590509203
 30
0.0
 10
1841.309421486815
 20
1064.785695580263
 30
0.0
 10
1841.478084239028
 20
1065.080564141386
 30
0.0
 10
1841.681487964646
 20
1065.37468189842
 30
0.0
 10
1841.926905609321
 20
1065.67350307377
 30
0.0
 10
1842.223410970922
 20
1065.980628904913
 30
0.0
 10
1842.582429915227
 20
1066.297686143359
 30
0.0
 10
1843.009417542423
 20
1066.619201365166
 30
0.0
 10
1843.448172679148
 20
1066.900225807655
 30
0.0
 10
1843.863469231587
 20
1067.132268924157
 30
0.0
 10
1844.209994973638
 20
1067.305435090472
 30
0.0
 10
1844.5171279696
 20
1067.444254689609
 30
0.0
 10
1844.770007415113
 20
1067.549177762015
 30
0.0
 10
1844.951983403943
 20
1067.619974956997
 30
0.0
 10
1845.046583611202
 20
1067.655049482553
 30
0.0
 10
1845.0775435138
 20
1067.666528356927
 30
0.0
  0
SPLINE
  5
323
330
314
100
AcDbEntity
  8
0
  6
Continuous
 62
     7
370
    15
100
AcDbSpline
210
0.0
220
0.0
230
1.0
 70
     8
 71
     3
 72
    17
 73
    13
 74
     0
 42
0.0000000001
 43
0.0000000001
 40
0.0
 40
0.0
 40
0.0
 40
0.0
 40
0.0183661955910167
 40
0.1391447609255017
 40
0.2707494436475171
 40
0.3583888247671374
 40
0.4520500950648131
 40
0.5599755465699939
 40
0.682743339227311
 40
0.7912824012635395
 40
0.9085605293433646
 40
1.0
 40
1.0
 40
1.0
 40
1.0
 10
1841.198389216995
 20
1063.374867407982
 30
0.0
 10
1841.204705877837
 20
1063.392405136903
 30
0.0
 10
1841.252561747519
 20
1063.525273323233
 30
0.0
 10
1841.389362876708
 20
1063.781013300349
 30
0.0
 10
1841.589503911682
 20
1064.09848720772
 30
0.0
 10
1841.810861775688
 20
1064.384342968864
 30
0.0
 10
1842.039792734212
 20
1064.643131675292
 30
0.0
 10
1842.325913958328
 20
1064.923703230994
 30
0.0
 10
1842.658916017503
 20
1065.205470974825
 30
0.0
 10
1843.035696647848
 20
1065.480975700217
 30
0.0
 10
1843.403573874623
 20
1065.720983505048
 30
0.0
 10
1843.67001083001
 20
1065.866121577133
 30
0.0
 10
1843.786737231192
 20
1065.929706768626
 30
0.0
  0
LWPOLYLINE
  5
324
330
314
100
AcDbEntity
  8
0
  6
Continuous
 62
     7
370
    15
100
AcDbPolyline
 90
      143
 70
   128
 43
0.0
 10
1860.789494009043
 20
1071.45903011719
 10
1861.2329852389
 20
1071.191421439949
 10
1861.655537490264
 20
1070.912749979434
 10
1862.05632359726
 20
1070.623561248115
 10
1862.434559002263
 20
1070.324421346515
 10
1862.789503291705
 20
1070.015915855038
 10
1863.120461645471
 20
1069.698648687672
 10
1863.426786197042
 20
1069.373240909794
 10
1863.707877301724
 20
1069.040329522413
 10
1863.963184710479
 20
1068.700566215201
 10
1864.192208647065
 20
1068.354616090789
 10
1864.394500786371
 20
1068.00315636279
 10
1864.569665132034
 20
1067.646875030127
 10
1864.717358791624
 20
1067.286469530239
 10
1864.837292647864
 20
1066.922645373817
 10
1864.929231924601
 20
1066.556114763732
 10
1864.99299664638
 20
1066.187595200867
 10
1865.028461990767
 20
1065.81780807957
 10
1865.035558532683
 20
1065.447477275498
 10
1865.014272380314
 20
1065.077327728589
 10
1864.964645202303
 20
1064.708084023965
 10
1864.886774146182
 20
1064.340468973516
 10
1864.7808116482
 20
1063.975202200968
 10
1864.646965134923
 20
1063.612998733179
 10
1864.485496617185
 20
1063.254567600449
 10
1864.296722177193
 20
1062.90061044855
 10
1864.081011349779
 20
1062.55182016523
 10
1863.838786399016
 20
1062.208879523848
 10
1863.57052149162
 20
1061.872459846812
 10
1863.276741768746
 20
1061.543219691441
 10
1862.958022317997
 20
1061.221803560798
 10
1862.614987047664
 20
1060.908840642054
 10
1862.248307465399
 20
1060.604943574817
 10
1861.858701363703
 20
1060.31070725187
 10
1861.446931414816
 20
1060.02670765463
 10
1861.01380367775
 20
1059.753500725647
 10
1860.560166020389
 20
1059.491621280314
 10
1860.086906459752
 20
1059.241581959942
 10
1859.594951423651
 20
1059.003872228243
 10
1859.085263937173
 20
1058.778957413181
 10
1858.558841737507
 20
1058.567277796067
 10
1858.01671532083
 20
1058.369247749691
 10
1857.459945925061
 20
1058.185254927171
 10
1856.889623452438
 20
1058.015659503096
 10
1856.306864335983
 20
1057.860793468473
 10
1855.712809354034
 20
1057.720959980837
 10
1855.108621397113
 20
1057.596432770806
 10
1854.495483191521
 20
1057.487455606244
 10
1853.874594984087
 20
1057.394241815065
 10
1853.247172192634
 20
1057.316973867645
 10
1852.614443026741
 20
1057.255803019618
 10
1851.977646083461
 20
1057.210849015792
 10
1851.338027922717
 20
1057.182199855741
 10
1850.696840627094
 20
1057.169911621541
 10
1850.055339350834
 20
1057.174008367987
 10
1849.414779862809
 20
1057.194482075506
 10
1848.776416088298
 20
1057.231292665854
 10
1848.141497654368
 20
1057.284368080572
 10
1847.511267443669
 20
1057.353604422043
 10
1846.886959161433
 20
1057.438866156877
 10
1846.269794920441
 20
1057.539986381224
 10
1845.660982848676
 20
1057.656767147497
 10
1845.06171472436
 20
1057.788979851861
 10
1844.473163642986
 20
1057.93636568174
 10
1843.896481720936
 20
1058.098636122449
 10
1843.332797840152
 20
1058.275473521981
 10
1842.783215438301
 20
1058.466531712823
 10
1842.248810348745
 20
1058.671436689592
 10
1841.730628694541
 20
1058.889787341176
 10
1841.229684840611
 20
1059.121156235919
 10
1840.746959408074
 20
1059.365090458346
 10
1840.283397354633
 20
1059.62111249576
 10
1839.839906124775
 20
1059.888721173001
 10
1839.417353873411
 20
1060.167392633516
 10
1839.016567766415
 20
1060.456581364835
 10
1838.638332361412
 20
1060.755721266435
 10
1838.283388071971
 20
1061.064226757912
 10
1837.952429718205
 20
1061.381493925278
 10
1837.646105166633
 20
1061.706901703156
 10
1837.365014061951
 20
1062.039813090537
 10
1837.109706653197
 20
1062.379576397749
 10
1836.880682716611
 20
1062.725526522161
 10
1836.678390577305
 20
1063.07698625016
 10
1836.503226231641
 20
1063.433267582823
 10
1836.355532572051
 20
1063.793673082711
 10
1836.235598715811
 20
1064.157497239133
 10
1836.143659439075
 20
1064.524027849218
 10
1836.079894717295
 20
1064.892547412083
 10
1836.044429372909
 20
1065.26233453338
 10
1836.037332830993
 20
1065.632665337452
 10
1836.058618983362
 20
1066.002814884361
 10
1836.108246161372
 20
1066.372058588985
 10
1836.186117217493
 20
1066.739673639434
 10
1836.292079715475
 20
1067.104940411982
 10
1836.425926228753
 20
1067.467143879771
 10
1836.58739474649
 20
1067.825575012501
 10
1836.776169186482
 20
1068.1795321644
 10
1836.991880013897
 20
1068.52832244772
 10
1837.23410496466
 20
1068.871263089103
 10
1837.502369872056
 20
1069.207682766138
 10
1837.79614959493
 20
1069.536922921509
 10
1838.114869045679
 20
1069.858339052152
 10
1838.457904316011
 20
1070.171301970897
 10
1838.824583898276
 20
1070.475199038133
 10
1839.214189999972
 20
1070.76943536108
 10
1839.625959948859
 20
1071.05343495832
 10
1840.059087685926
 20
1071.326641887303
 10
1840.512725343286
 20
1071.588521332636
 10
1840.985984903924
 20
1071.838560653008
 10
1841.477939940024
 20
1072.076270384707
 10
1841.987627426503
 20
1072.301185199769
 10
1842.514049626169
 20
1072.512864816884
 10
1843.056176042846
 20
1072.710894863259
 10
1843.612945438614
 20
1072.894887685779
 10
1844.183267911238
 20
1073.064483109854
 10
1844.766027027693
 20
1073.219349144477
 10
1845.360082009642
 20
1073.359182632113
 10
1845.964269966562
 20
1073.483709842143
 10
1846.577408172154
 20
1073.592687006706
 10
1847.198296379588
 20
1073.685900797885
 10
1847.825719171041
 20
1073.763168745306
 10
1848.458448336935
 20
1073.824339593333
 10
1849.095245280214
 20
1073.869293597158
 10
1849.734863440959
 20
1073.897942757209
 10
1850.376050736582
 20
1073.910230991409
 10
1851.017552012842
 20
1073.906134244963
 10
1851.658111500867
 20
1073.885660537444
 10
1852.296475275377
 20
1073.848849947096
 10
1852.931393709308
 20
1073.795774532378
 10
1853.561623920007
 20
1073.726538190907
 10
1854.185932202243
 20
1073.641276456074
 10
1854.803096443235
 20
1073.540156231726
 10
1855.411908514999
 20
1073.423375465453
 10
1856.011176639316
 20
1073.291162761089
 10
1856.59972772069
 20
1073.14377693121
 10
1857.17640964274
 20
1072.981506490501
 10
1857.740093523524
 20
1072.804669090969
 10
1858.289675925374
 20
1072.613610900128
 10
1858.824081014931
 20
1072.408705923358
 10
1859.342262669134
 20
1072.190355271774
 10
1859.843206523065
 20
1071.958986377031
 10
1860.325931955602
 20
1071.715052154604
 10
1860.789494009043
 20
1071.45903011719
  0
ARC
  5
325
330
314
100
AcDbEntity
  8
0
  6
Continuous
 62
     7
370
    15
100
AcDbCircle
 10
1841.883737687824
 20
1061.726887285075
 30
0.0
 40
5.881199765170216
100
AcDbArc
 50
191.8039220453591
 51
217.9930008436027
  0
LINE
  5
326
330
314
100
AcDbEntity
  8
0
  6
Continuous
 62
     7
370
    15
100
AcDbLine
 10
1836.126905371118
 20
1063.994109530534
 30
0.0
 11
1836.126905371118
 21
1060.523811080019
 31
0.0
  0
ARC
  5
327
330
314
100
AcDbEntity
  8
0
  6
Continuous
 62
     7
370
    15
100
AcDbCircle
 10
1840.915631521739
 20
1064.929288094674
 30
0.0
 40
4.87918610963598
100
AcDbArc
 50
180.0190516424045
 51
191.0500796335869
  0
LINE
  5
328
330
314
100
AcDbEntity
  8
0
  6
Continuous
 62
     7
370
    15
100
AcDbLine
 10
1864.945985992557
 20
1063.994109530534
 30
0.0
 11
1864.945985992557
 21
1062.390923414074
 31
0.0
  0
ARC
  5
329
330
314
100
AcDbEntity
  8
0
  6
Continuous
 62
     7
370
    15
100
AcDbCircle
 10
1858.576293571204
 20
1065.31759533927
 30
0.0
 40
6.471909333265864
100
AcDbArc
 50
304.1235707208512
 51
356.5458630080798
  0
LINE
  5
32A
330
314
100
AcDbEntity
  8
0
  6
Continuous
 62
     7
370
    15
100
AcDbLine
 10
1862.206902680923
 20
1056.489658611451
 30
0.0
 11
1862.206902680923
 21
1059.959957061966
 31
0.0
  0
ARC
  5
32B
330
314
100
AcDbEntity
  8
0
  6
Continuous
 62
     7
370
    15
100
AcDbCircle
 10
1853.916097339719
 20
1067.311729962774
 30
0.0
 40
13.63285302271142
100
AcDbArc
 50
292.5388429823354
 51
307.4557804849676
  0
LINE
  5
32C
330
314
100
AcDbEntity
  8
0
  6
Continuous
 62
     7
370
    15
100
AcDbLine
 10
1859.141701833313
 20
1058.190454277566
 30
0.0
 11
1859.141701833313
 21
1054.720155827052
 31
0.0
  0
ARC
  5
32D
330
314
100
AcDbEntity
  8
0
  6
Continuous
 62
     7
370
    15
100
AcDbCircle
 10
1850.630341205476
 20
1079.381206430797
 30
0.0
 40
22.83618261787106
100
AcDbArc
 50
265.7029952309982
 51
291.8830826347508
  0
LINE
  5
32E
330
314
100
AcDbEntity
  8
0
  6
Continuous
 62
     7
370
    15
100
AcDbLine
 10
1848.919303748131
 20
1053.138916688867
 30
0.0
 11
1848.919303748131
 21
1056.609215139381
 31
0.0
  0
ARC
  5
32F
330
314
100
AcDbEntity
  8
0
  6
Continuous
 62
     7
370
    15
100
AcDbCircle
 10
1850.380855075722
 20
1076.445921156765
 30
0.0
 40
23.35278547732217
100
AcDbArc
 50
256.002165929053
 51
266.4117562052059
  0
LINE
  5
330
330
314
100
AcDbEntity
  8
0
  6
Continuous
 62
     7
370
    15
100
AcDbLine
 10
1844.732161522593
 20
1057.256898110539
 30
0.0
 11
1844.732161522593
 21
1053.786599660024
 31
0.0
  0
ARC
  5
331
330
314
100
AcDbEntity
  8
0
  6
Continuous
 62
     7
370
    15
100
AcDbCircle
 10
1847.354120410961
 20
1070.440212048807
 30
0.0
 40
13.4415190662079
100
AcDbArc
 50
221.253849338284
 51
258.7515271944154
  0
LINE
  5
332
330
314
100
AcDbEntity
  8
0
  6
Continuous
 62
     7
370
    15
100
AcDbLine
 10
1837.248846749045
 20
1058.106625324462
 30
0.0
 11
1837.248846749045
 21
1061.576923774976
 31
0.0
  0
LINE
  5
333
330
314
100
AcDbEntity
  8
0
  6
Continuous
 62
     7
370
    15
100
AcDbLine
 10
1849.685072898247
 20
1071.093288646147
 30
0.0
 11
1849.148917822923
 21
1071.402804382904
 31
0.0
  0
LWPOLYLINE
  5
334
330
314
100
AcDbEntity
  8
0
  6
Continuous
 62
     7
370
    15
100
AcDbPolyline
 90
       77
 70
   128
 43
0.0
 10
1849.148917822923
 20
1071.402804382904
 10
1848.614046922235
 20
1071.352268755902
 10
1848.084550963207
 20
1071.285482482643
 10
1847.561910393055
 20
1071.202632294584
 10
1847.047586491628
 20
1071.103949837176
 10
1846.543017285742
 20
1070.989711022192
 10
1846.049613528515
 20
1070.860235256293
 10
1845.568754754968
 20
1070.715884547976
 10
1845.1017854249
 20
1070.557062495419
 10
1844.650011163846
 20
1070.384213158036
 10
1844.2146951126
 20
1070.197819814907
 10
1843.797054395532
 20
1069.998403613552
 10
1843.398256717562
 20
1069.786522112824
 10
1843.019417099308
 20
1069.562767724002
 10
1842.661594759539
 20
1069.32776605443
 10
1842.325790153644
 20
1069.082174158353
 10
1842.012942176407
 20
1068.826678699819
 10
1841.723925536895
 20
1068.561994032797
 10
1841.459548312812
 20
1068.288860203876
 10
1841.220549691149
 20
1068.008040883125
 10
1841.007597901452
 20
1067.72032122891
 10
1840.821288347478
 20
1067.42650569262
 10
1840.662141942477
 20
1067.127415769464
 10
1840.530603652737
 20
1066.823887701598
 10
1840.427041253483
 20
1066.516770140038
 10
1840.351744300589
 20
1066.206921771862
 10
1840.304923320994
 20
1065.895208919365
 10
1840.286709224082
 20
1065.582503117855
 10
1840.297152935658
 20
1065.269678678882
 10
1840.336225255569
 20
1064.957610245703
 10
1840.403816939343
 20
1064.647170347813
 10
1840.499739003627
 20
1064.339226961397
 10
1840.623723254587
 20
1064.034641082505
 10
1840.775423037756
 20
1063.734264319742
 10
1840.954414207268
 20
1063.438936513214
 10
1841.160196311754
 20
1063.149483386368
 10
1841.392193993577
 20
1062.866714237308
 10
1841.64975859751
 20
1062.591419676031
 10
1841.932169984345
 20
1062.32436941392
 10
1842.238638544371
 20
1062.066310111662
 10
1842.568307405088
 20
1061.81796329162
 10
1842.920254826984
 20
1061.580023320485
 10
1843.29349678068
 20
1061.353155467864
 10
1843.686989698229
 20
1061.137994046209
 10
1844.099633390887
 20
1060.935140637311
 10
1844.530274125194
 20
1060.745162410303
 10
1844.977707848758
 20
1060.568590535882
 10
1845.440683556734
 20
1060.405918701176
 10
1845.91790678958
 20
1060.257601729419
 10
1846.408043252305
 20
1060.124054308286
 10
1846.909722545099
 20
1060.005649830441
 10
1847.421541994913
 20
1059.902719349554
 10
1847.942070577269
 20
1059.815550654683
 10
1848.469852917338
 20
1059.744387465632
 10
1849.00341335911
 20
1059.689428751521
 10
1849.541260091255
 20
1059.650828174477
 10
1850.081889318168
 20
1059.628693660003
 10
1850.623789464511
 20
1059.623087095217
 10
1851.165445401512
 20
1059.634024155826
 10
1851.705342683197
 20
1059.661474262295
 10
1852.241971780715
 20
1059.705360665343
 10
1852.773832302913
 20
1059.765560660533
 10
1853.299437191362
 20
1059.84190593135
 10
1853.817316878107
 20
1059.934183019803
 10
1854.326023394518
 20
1060.042133923246
 10
1854.824134419737
 20
1060.16545681574
 10
1855.310257257435
 20
1060.30380689195
 10
1855.783032729718
 20
1060.456797331198
 10
1856.241138977338
 20
1060.624000379002
 10
1856.683295155546
 20
1060.804948543057
 10
1857.108265015281
 20
1060.999135900324
 10
1857.514860359666
 20
1061.206019511565
 10
1857.901944366152
 20
1061.425020939379
 10
1858.268434765028
 20
1061.655527865488
 10
1858.613306865394
 20
1061.896895802752
 10
1858.935596420155
 20
1062.148449897124
 10
1859.234402322013
 20
1062.409486814515
  0
SPLINE
  5
335
330
314
100
AcDbEntity
  8
0
  6
Continuous
 62
     7
370
    15
100
AcDbSpline
210
0.0
220
0.0
230
1.0
 70
     8
 71
     3
 72
    34
 73
    30
 74
     0
 42
0.0000000001
 43
0.0000000001
 40
0.0
 40
0.0
 40
0.0
 40
0.0
 40
0.0625
 40
0.0625
 40
0.125
 40
0.125
 40
0.1875
 40
0.1875
 40
0.25
 40
0.25
 40
0.3749999999999999
 40
0.3749999999999999
 40
0.4375
 40
0.4375
 40
0.5
 40
0.5
 40
0.5625
 40
0.5625
 40
0.625
 40
0.625
 40
0.6875
 40
0.6875
 40
0.7499999999999999
 40
0.7499999999999999
 40
0.8124999999999998
 40
0.8124999999999998
 40
0.8749999999999998
 40
0.8749999999999998
 40
1.0
 40
1.0
 40
1.0
 40
1.0
 10
1859.234402322013
 20
1062.409486814515
 30
0.0
 10
1859.46936777703
 20
1062.640412683986
 30
0.0
 10
1859.675871833697
 20
1062.879269408009
 30
0.0
 10
1860.032264805243
 20
1063.372758836191
 30
0.0
 10
1860.180843357873
 20
1063.626068466373
 30
0.0
 10
1860.415942949077
 20
1064.137555612182
 30
0.0
 10
1860.503329087733
 20
1064.396888555631
 30
0.0
 10
1860.617501197202
 20
1064.922765652292
 30
0.0
 10
1860.644072312646
 20
1065.191367810386
 30
0.0
 10
1860.628831575333
 20
1065.988946633609
 30
0.0
 10
1860.494400316082
 20
1066.511077938715
 30
0.0
 10
1860.102716020037
 20
1067.279612867149
 30
0.0
 10
1859.941349650247
 20
1067.530126137175
 30
0.0
 10
1859.564130254116
 20
1068.011924524474
 30
0.0
 10
1859.34761160072
 20
1068.244549038621
 30
0.0
 10
1858.858322625907
 20
1068.693120103916
 30
0.0
 10
1858.583097927222
 20
1068.910534459314
 30
0.0
 10
1857.989662510126
 20
1069.316802753591
 30
0.0
 10
1857.671189512032
 20
1069.506651704674
 30
0.0
 10
1856.990648679169
 20
1069.859727761564
 30
0.0
 10
1856.628439189182
 20
1070.022868363474
 30
0.0
 10
1855.858315398288
 20
1070.321239234382
 30
0.0
 10
1855.45841196039
 20
1070.453287698742
 30
0.0
 10
1854.634115911886
 20
1070.683092816087
 30
0.0
 10
1854.209063373851
 20
1070.781100132542
 30
0.0
 10
1853.332757459695
 20
1070.942811302869
 30
0.0
 10
1852.879055252453
 20
1071.006482023644
 30
0.0
 10
1851.521049232091
 20
1071.139287564183
 30
0.0
 10
1850.607451893984
 20
1071.155000031848
 30
0.0
 10
1849.685072898247
 20
1071.093288646147
 30
0.0
  0
LINE
  5
336
330
314
100
AcDbEntity
  8
0
  6
Continuous
 62
     7
370
    15
100
AcDbLine
 10
1859.141701833313
 20
1054.720155827052
 30
0.0
 11
1848.919303748131
 21
1053.138916688867
 31
0.0
  0
SPLINE
  5
337
330
314
100
AcDbEntity
  8
0
  6
Continuous
 62
     7
370
    15
100
AcDbSpline
210
0.0
220
0.0
230
1.0
 70
     8
 71
     3
 72
    36
 73
    32
 74
     0
 42
0.0000000001
 43
0.0000000001
 40
0.0
 40
0.0
 40
0.0
 40
0.0
 40
0.0001406676874465
 40
0.0369946210929149
 40
0.0741063485552677
 40
0.1116172919625505
 40
0.1496750770350924
 40
0.1865293685513838
 40
0.2236414122841101
 40
0.2611526685505229
 40
0.2992107837259732
 40
0.3360653485688739
 40
0.3731776974059678
 40
0.4106893004859858
 40
0.448747781858827
 40
0.485601708290209
 40
0.5227133791006131
 40
0.5602242394928043
 40
0.5982819195557259
 40
0.6351370795526782
 40
0.6722500396898312
 40
0.7097622673269367
 40
0.7478214171268071
 40
0.7846752773582813
 40
0.8217868899727413
 40
0.8592976944490205
 40
0.8973553144464634
 40
0.9291286975548487
 40
0.9610667351347318
 40
0.9931932844377096
 40
1.0
 40
1.0
 40
1.0
 40
1.0
 10
1840.295650567807
 20
1065.308659207625
 30
0.0
 10
1840.295649795992
 20
1065.309266607328
 30
0.0
 10
1840.295446813993
 20
1065.469008494781
 30
0.0
 10
1840.361216441489
 20
1065.787779891063
 30
0.0
 10
1840.497367096678
 20
1066.262149687047
 30
0.0
 10
1840.715819896546
 20
1066.732511151152
 30
0.0
 10
1841.002073415783
 20
1067.189331299355
 30
0.0
 10
1841.355808681368
 20
1067.628854737453
 30
0.0
 10
1841.771864207129
 20
1068.047828106642
 30
0.0
 10
1842.254986844687
 20
1068.449580038404
 30
0.0
 10
1842.796707383652
 20
1068.82549590701
 30
0.0
 10
1843.391551382375
 20
1069.172960612259
 30
0.0
 10
1844.033481707208
 20
1069.488734915423
 30
0.0
 10
1844.728736363984
 20
1069.774784964688
 30
0.0
 10
1845.464285621969
 20
1070.024727410161
 30
0.0
 10
1846.23323296868
 20
1070.23692311723
 30
0.0
 10
1847.028539937516
 20
1070.410423779573
 30
0.0
 10
1847.857475852815
 20
1070.54615237219
 30
0.0
 10
1848.703883336477
 20
1070.640546260525
 30
0.0
 10
1849.560249961429
 20
1070.693367275172
 30
0.0
 10
1850.419313871123
 20
1070.705147217584
 30
0.0
 10
1851.288518983504
 20
1070.675007478424
 30
0.0
 10
1852.150338106145
 20
1070.601743201562
 30
0.0
 10
1852.99749772448
 20
1070.486845647519
 30
0.0
 10
1853.823301337174
 20
1070.332061375693
 30
0.0
 10
1854.634667217481
 20
1070.135539851805
 30
0.0
 10
1855.379195690789
 20
1069.910787862552
 30
0.0
 10
1856.056392474583
 20
1069.667009233593
 30
0.0
 10
1856.662484243426
 20
1069.409818188171
 30
0.0
 10
1857.095694509594
 20
1069.206866079367
 30
0.0
 10
1857.314360147689
 20
1069.08302988297
 30
0.0
 10
1857.352589533458
 20
1069.061379559831
 30
0.0
  0
SPLINE
  5
338
330
314
100
AcDbEntity
  8
0
  6
Continuous
 62
     7
370
    15
100
AcDbSpline
210
0.0
220
0.0
230
1.0
 70
     8
 71
     3
 72
    26
 73
    22
 74
     0
 42
0.0000000001
 43
0.0000000001
 40
0.0
 40
0.0
 40
0.0
 40
0.0
 40
0.0515404618555028
 40
0.1082744235776774
 40
0.1658355046331847
 40
0.2215747714144468
 40
0.2777038605048831
 40
0.33443669895801
 40
0.3919965680822043
 40
0.4477377005545077
 40
0.5038687396712927
 40
0.5606036459971379
 40
0.6181657380068658
 40
0.6739049046648934
 40
0.730033905737591
 40
0.7867666596213861
 40
0.8443264379002876
 40
0.892381699553859
 40
0.9406859908333675
 40
0.9892753943449353
 40
1.0
 40
1.0
 40
1.0
 40
1.0
 10
1843.450778180154
 20
1068.041650993665
 30
0.0
 10
1843.643892391701
 20
1068.140039278734
 30
0.0
 10
1844.049580062846
 20
1068.346729992575
 30
0.0
 10
1844.729480739955
 20
1068.623004748442
 30
0.0
 10
1845.464092054349
 20
1068.873523878352
 30
0.0
 10
1846.233284507454
 20
1069.085568884413
 30
0.0
 10
1847.028525926847
 20
1069.259109849127
 30
0.0
 10
1847.85747968912
 20
1069.394827468697
 30
0.0
 10
1848.703882338888
 20
1069.48922432921
 30
0.0
 10
1849.560250226819
 20
1069.542044566927
 30
0.0
 10
1850.419313799857
 20
1069.553824717831
 30
0.0
 10
1851.288518999678
 20
1069.523684919208
 30
0.0
 10
1852.150338114466
 20
1069.450420668567
 30
0.0
 10
1852.997497677257
 20
1069.33552307087
 30
0.0
 10
1853.823301520587
 20
1069.180738948594
 30
0.0
 10
1854.6346665193
 20
1068.984216860808
 30
0.0
 10
1855.379198153106
 20
1068.759466891141
 30
0.0
 10
1856.05638494385
 20
1068.515681876998
 30
0.0
 10
1856.662512751822
 20
1068.258513859108
 30
0.0
 10
1857.097360051436
 20
1068.054683716793
 30
0.0
 10
1857.317584282754
 20
1067.929919366807
 30
0.0
 10
1857.357403173262
 20
1067.907360641268
 30
0.0
  0
SPLINE
  5
339
330
314
100
AcDbEntity
  8
0
  6
Continuous
 62
     7
370
    15
100
AcDbSpline
210
0.0
220
0.0
230
1.0
 70
     8
 71
     3
 72
    27
 73
    23
 74
     0
 42
0.0000000001
 43
0.0000000001
 40
0.0
 40
0.0
 40
0.0
 40
0.0
 40
0.0530569068579691
 40
0.1095903025156772
 40
0.1669478934720745
 40
0.2224901106372828
 40
0.278420772010718
 40
0.3349530483703623
 40
0.3923094316798698
 40
0.4349266485412936
 40
0.4777184742618969
 40
0.5235242028497304
 40
0.569546980840727
 40
0.6177028514666181
 40
0.6732449688625478
 40
0.7291755425294049
 40
0.7857077346186871
 40
0.8430640274040584
 40
0.8909494039585782
 40
0.939082929768786
 40
0.9875005598814713
 40
0.9999999999999998
 40
0.9999999999999998
 40
0.9999999999999998
 40
0.9999999999999998
 10
1843.431330239291
 20
1066.880763185529
 30
0.0
 10
1843.630784258519
 20
1066.98243821957
 30
0.0
 10
1844.042761277149
 20
1067.192450419653
 30
0.0
 10
1844.729433084123
 20
1067.471714981736
 30
0.0
 10
1845.464104608713
 20
1067.722192791574
 30
0.0
 10
1846.233280582907
 20
1067.934248680179
 30
0.0
 10
1847.028529198886
 20
1068.107786417402
 30
0.0
 10
1847.857470416484
 20
1068.243506119137
 30
0.0
 10
1848.639336646834
 20
1068.330696286798
 30
0.0
 10
1849.36211495498
 20
1068.379367021893
 30
0.0
 10
1850.031368347959
 20
1068.399673643774
 30
0.0
 10
1850.72033938858
 20
1068.394564283458
 30
0.0
 10
1851.435875651799
 20
1068.360579931521
 30
0.0
 10
1852.196494265805
 20
1068.292842742333
 30
0.0
 10
1852.997503549977
 20
1068.184198260973
 30
0.0
 10
1853.823300615649
 20
1068.029417462053
 30
0.0
 10
1854.634664140123
 20
1067.832892345581
 30
0.0
 10
1855.379208044152
 20
1067.608150765656
 30
0.0
 10
1856.056354412028
 20
1067.364339798903
 30
0.0
 10
1856.662628420751
 20
1067.107265228974
 30
0.0
 10
1857.104412404371
 20
1066.899725023856
 30
0.0
 10
1857.33123317484
 20
1066.771033280067
 30
0.0
 10
1857.377774031572
 20
1066.744627303234
 30
0.0
  0
LINE
  5
33A
330
314
100
AcDbEntity
  8
0
  6
Continuous
 62
     7
370
    15
100
AcDbLine
 10
1843.406714177534
 20
1065.714299628715
 30
0.0
 11
1843.79761621326
 21
1065.915982560627
 31
0.0
  0
LINE
  5
33B
330
314
100
AcDbEntity
  8
0
  6
Continuous
 62
     7
370
    15
100
AcDbLine
 10
1857.044227497716
 20
1060.973798252639
 30
0.0
 11
1857.247762918837
 21
1061.086787267138
 31
0.0
  0
SPLINE
  5
33C
330
314
100
AcDbEntity
  8
0
  6
Continuous
 62
     7
370
    15
100
AcDbSpline
210
0.0
220
0.0
230
1.0
 70
     8
 71
     3
 72
     8
 73
     4
 74
     0
 42
0.0000000001
 43
0.0000000001
 40
0.0
 40
0.0
 40
0.0
 40
0.0
 40
1.0
 40
1.0
 40
1.0
 40
1.0
 10
1849.694904770387
 20
1071.080145625424
 30
0.0
 10
1849.691630844385
 20
1071.084527589177
 30
0.0
 10
1849.688353553134
 20
1071.088908597063
 30
0.0
 10
1849.685072898247
 20
1071.093288646147
 30
0.0
  0
SPLINE
  5
33D
330
314
100
AcDbEntity
  8
0
  6
Continuous
 62
     7
370
    15
100
AcDbSpline
210
0.0
220
0.0
230
1.0
 70
     8
 71
     3
 72
     9
 73
     5
 74
     0
 42
0.0000000001
 43
0.0000000001
 40
0.0
 40
0.0
 40
0.0
 40
0.0
 40
0.5448360592166935
 40
1.0
 40
1.0
 40
1.0
 40
1.0
 10
1843.79761621326
 20
1065.915982560627
 30
0.0
 10
1843.597646894656
 20
1065.806104286091
 30
0.0
 10
1843.230620308913
 20
1065.604432108421
 30
0.0
 10
1842.908918076717
 20
1065.378518894293
 30
0.0
 10
1842.762490820951
 20
1065.275691345476
 30
0.0
  0
LINE
  5
33E
330
314
100
AcDbEntity
  8
0
  6
Continuous
 62
     7
370
    15
100
AcDbLine
 10
1849.148917822923
 20
1071.402804382904
 30
0.0
 11
1849.148917465123
 21
1070.740350788956
 31
0.0
  0
SPLINE
  5
33F
330
314
100
AcDbEntity
  8
0
  6
Continuous
 62
     7
370
    15
100
AcDbSpline
210
0.0
220
0.0
230
1.0
 70
     8
 71
     3
 72
    15
 73
    11
 74
     0
 42
0.0000000001
 43
0.0000000001
 40
0.0
 40
0.0
 40
0.0
 40
0.0
 40
0.1229312676967635
 40
0.2466718693528398
 40
0.3701629761095039
 40
0.4944746026593233
 40
0.6196300138452078
 40
0.7467941402722458
 40
0.8734598437900041
 40
1.0
 40
1.0
 40
1.0
 40
1.0
 10
1849.148917908296
 20
1070.7403508633
 30
0.0
 10
1849.423018390916
 20
1070.753351509365
 30
0.0
 10
1849.973023932266
 20
1070.779438392936
 30
0.0
 10
1850.804533639632
 20
1070.770162003372
 30
0.0
 10
1851.63671454371
 20
1070.72416500172
 30
0.0
 10
1852.464898357602
 20
1070.637751871605
 30
0.0
 10
1853.288368815663
 20
1070.511364575411
 30
0.0
 10
1854.097448917974
 20
1070.344085573516
 30
0.0
 10
1854.887369382371
 20
1070.140249935967
 30
0.0
 10
1855.386750209876
 20
1069.9734342545
 30
0.0
 10
1855.636316819388
 20
1069.890067769958
 30
0.0
  0
LINE
  5
340
330
314
100
AcDbEntity
  8
0
  6
Continuous
 62
     7
370
    15
100
AcDbLine
 10
1855.812499836345
 20
1069.822393486473
 30
0.0
 11
1855.827621417566
 21
1069.816551128765
 31
0.0
  0
SPLINE
  5
341
330
314
100
AcDbEntity
  8
0
  6
Continuous
 62
     7
370
    15
100
AcDbSpline
210
0.0
220
0.0
230
1.0
 70
     8
 71
     3
 72
    22
 73
    18
 74
     0
 42
0.0000000001
 43
0.0000000001
 40
0.0
 40
0.0
 40
0.0
 40
0.0
 40
0.0594139074306511
 40
0.1332858543168697
 40
0.20767443758138
 40
0.2828631774218311
 40
0.3591479913467558
 40
0.4158295021165068
 40
0.4727432451778285
 40
0.5336655223577274
 40
0.5948764783625031
 40
0.6589244782209586
 40
0.7327962924126031
 40
0.8071847590261043
 40
0.8823733867857628
 40
0.9586580803122858
 40
1.0
 40
1.0
 40
1.0
 40
1.0
 10
1844.897313445811
 20
1068.746328152018
 30
0.0
 10
1845.089128336559
 20
1068.813983627523
 30
0.0
 10
1845.519435190451
 20
1068.965758157121
 30
0.0
 10
1846.234006098024
 20
1069.158961779345
 30
0.0
 10
1847.028331844914
 20
1069.333343523566
 30
0.0
 10
1847.857524928503
 20
1069.468832895891
 30
0.0
 10
1848.639326070175
 20
1069.556082538805
 30
0.0
 10
1849.362117486047
 20
1069.604741433167
 30
0.0
 10
1850.031367407367
 20
1069.625050705476
 30
0.0
 10
1850.720340493333
 20
1069.61994157726
 30
0.0
 10
1851.435872135252
 20
1069.58595333462
 30
0.0
 10
1852.196508747942
 20
1069.518232998065
 30
0.0
 10
1852.997440185146
 20
1069.409515078714
 30
0.0
 10
1853.823538843729
 20
1069.255018944341
 30
0.0
 10
1854.63375939216
 20
1069.057414964569
 30
0.0
 10
1855.304645944977
 20
1068.859478564123
 30
0.0
 10
1855.691835649291
 20
1068.716135790828
 30
0.0
 10
1855.827920207217
 20
1068.665755479269
 30
0.0
  0
SPLINE
  5
342
330
314
100
AcDbEntity
  8
0
  6
Continuous
 62
     7
370
    15
100
AcDbSpline
210
0.0
220
0.0
230
1.0
 70
     8
 71
     3
 72
    21
 73
    17
 74
     0
 42
0.0000000001
 43
0.0000000001
 40
0.0
 40
0.0
 40
0.0
 40
0.0
 40
0.0651937885874909
 40
0.1386160200473992
 40
0.2125517427221229
 40
0.2872827508035456
 40
0.3631031603224476
 40
0.4365278493532461
 40
0.5104661406890649
 40
0.5851998726640391
 40
0.6610232102662401
 40
0.734445309839386
 40
0.8083809165732475
 40
0.8831118132561996
 40
0.9589321031096577
 40
1.0
 40
1.0
 40
1.0
 40
1.0
 10
1844.836880773454
 20
1067.574470599205
 30
0.0
 10
1845.048538537362
 20
1067.649266747883
 30
0.0
 10
1845.498568478568
 20
1067.808299451294
 30
0.0
 10
1846.233894786448
 20
1068.007749000458
 30
0.0
 10
1847.028360030078
 20
1068.181991284362
 30
0.0
 10
1847.857525091663
 20
1068.317517930692
 30
0.0
 10
1848.703870615648
 20
1068.411966617671
 30
0.0
 10
1849.560253046618
 20
1068.464772947178
 30
0.0
 10
1850.41931417661
 20
1068.476558181537
 30
0.0
 10
1851.288514553439
 20
1068.446411823535
 30
0.0
 10
1852.150355560285
 20
1068.373168761807
 30
0.0
 10
1852.997434502304
 20
1068.258194996617
 30
0.0
 10
1853.823540515525
 20
1068.103695857672
 30
0.0
 10
1854.63375845223
 20
1067.906092083643
 30
0.0
 10
1855.304569349624
 20
1067.708180677089
 30
0.0
 10
1855.691685884542
 20
1067.564866199965
 30
0.0
 10
1855.827696737165
 20
1067.514513599472
 30
0.0
  0
SPLINE
  5
343
330
314
100
AcDbEntity
  8
0
  6
Continuous
 62
     7
370
    15
100
AcDbSpline
210
0.0
220
0.0
230
1.0
 70
     8
 71
     3
 72
    10
 73
     6
 74
     0
 42
0.0000000001
 43
0.0000000001
 40
0.0
 40
0.0
 40
0.0
 40
0.0
 40
0.2523181233782135
 40
0.6243207700840482
 40
1.0
 40
1.0
 40
1.0
 40
1.0
 10
1844.897313445812
 20
1066.4436830625
 30
0.0
 10
1845.089244927774
 20
1066.511172903923
 30
0.0
 10
1845.564148628777
 20
1066.678165703353
 30
0.0
 10
1846.376548053594
 20
1066.89639371267
 30
0.0
 10
1847.013208560305
 20
1067.017385310002
 30
0.0
 10
1847.333104142046
 20
1067.078178585235
 30
0.0
  0
ARC
  5
344
330
314
100
AcDbEntity
  8
0
  6
Continuous
 62
     7
370
    15
100
AcDbCircle
 10
1849.739194202021
 20
1053.799962791202
 30
0.0
 40
13.49445382553932
100
AcDbArc
 50
100.2708801377319
 51
116.1228818683244
  0
SPLINE
  5
345
330
314
100
AcDbEntity
  8
0
  6
Continuous
 62
     7
370
    15
100
AcDbSpline
210
0.0
220
0.0
230
1.0
 70
     8
 71
     3
 72
    14
 73
    10
 74
     0
 42
0.0000000001
 43
0.0000000001
 40
0.0
 40
0.0
 40
0.0
 40
0.0
 40
0.0004587740067473
 40
0.0004587740067473
 40
0.0004587740067473
 40
0.0006881785324014
 40
0.0006881785324014
 40
0.0006881785324014
 40
0.0009175870467582
 40
0.0009175870467582
 40
0.0009175870467582
 40
0.0009175870467582
 10
1849.694904770387
 20
1070.829943004814
 30
0.0
 10
1849.603339149346
 20
1070.816379095289
 30
0.0
 10
1849.512076189916
 20
1070.802081484347
 30
0.0
 10
1849.421091316813
 20
1070.787126553804
 30
0.0
 10
1849.375594978555
 20
1070.779648447219
 30
0.0
 10
1849.330167809231
 20
1070.772005754386
 30
0.0
 10
1849.284806941341
 20
1070.764207102823
 30
0.0
 10
1849.239445138596
 20
1070.756408290534
 30
0.0
 10
1849.194149410557
 20
1070.748453470823
 30
0.0
 10
1849.14891702195
 20
1070.740350714612
 30
0.0
  0
SPLINE
  5
346
330
314
100
AcDbEntity
  8
0
  6
Continuous
 62
     7
370
    15
100
AcDbSpline
210
0.0
220
0.0
230
1.0
 70
     8
 71
     3
 72
    10
 73
     6
 74
     0
 42
0.0000000001
 43
0.0000000001
 40
0.0
 40
0.0
 40
0.0
 40
0.0
 40
0.1912210542455861
 40
0.6402510007741379
 40
1.0
 40
1.0
 40
1.0
 40
1.0
 10
1857.008471176595
 20
1065.800276687452
 30
0.0
 10
1856.920954493802
 20
1065.849772829874
 30
0.0
 10
1856.627929000537
 20
1066.015497021934
 30
0.0
 10
1856.126592484056
 20
1066.246743118578
 30
0.0
 10
1855.695119941859
 20
1066.410247263044
 30
0.0
 10
1855.503198754909
 20
1066.482974740249
 30
0.0
  0
SPLINE
  5
347
330
314
100
AcDbEntity
  8
0
  6
Continuous
 62
     7
370
    15
100
AcDbSpline
210
0.0
220
0.0
230
1.0
 70
     8
 71
     3
 72
    10
 73
     6
 74
     0
 42
0.0000000001
 43
0.0000000001
 40
0.0
 40
0.0
 40
0.0
 40
0.0
 40
0.0963334401096292
 40
0.573449853493905
 40
1.0
 40
1.0
 40
1.0
 40
1.0
 10
1845.11510550426
 20
1066.525193504388
 30
0.0
 10
1845.067973377582
 20
1066.509011705923
 30
0.0
 10
1844.787407136954
 20
1066.412685342529
 30
0.0
 10
1844.332559318145
 20
1066.214418068199
 30
0.0
 10
1843.951792200578
 20
1066.016639551296
 30
0.0
 10
1843.772061891865
 20
1065.923283816886
 30
0.0
  0
LINE
  5
348
330
314
100
AcDbEntity
  8
0
  6
Continuous
 62
     7
370
    15
100
AcDbLine
 10
1855.544389129583
 20
1067.61821174053
 30
0.0
 11
1855.502907972237
 21
1067.634410840606
 31
0.0
  0
LINE
  5
349
330
314
100
AcDbEntity
  8
0
  6
Continuous
 62
     7
370
    15
100
AcDbLine
 10
1855.536787509205
 20
1068.772502847815
 30
0.0
 11
1855.50281238415
 21
1068.785770714144
 31
0.0
  0
SPLINE
  5
34A
330
314
100
AcDbEntity
  8
0
  6
Continuous
 62
     7
370
    15
100
AcDbSpline
210
0.0
220
0.0
230
1.0
 70
     8
 71
     3
 72
    10
 73
     6
 74
     0
 42
0.0000000001
 43
0.0000000001
 40
0.0
 40
0.0
 40
0.0
 40
0.0
 40
0.1232834189547886
 40
0.7340045966701229
 40
1.0
 40
1.0
 40
1.0
 40
1.0
 10
1845.115075989222
 20
1068.827828317759
 30
0.0
 10
1845.067971576424
 20
1068.811638933283
 30
0.0
 10
1844.787521408749
 20
1068.715250605282
 30
0.0
 10
1844.429743814421
 20
1068.561854594684
 30
0.0
 10
1844.139952642744
 20
1068.412685566115
 30
0.0
 10
1844.052030135907
 20
1068.367427752157
 30
0.0
  0
LINE
  5
34B
330
314
100
AcDbEntity
  8
0
  6
Continuous
 62
     7
370
    15
100
AcDbLine
 10
1855.588905018113
 20
1069.90347261564
 30
0.0
 11
1855.503157356819
 21
1069.936958541187
 31
0.0
  0
SPLINE
  5
34C
330
314
100
AcDbEntity
  8
0
  6
Continuous
 62
     7
370
    15
100
AcDbSpline
210
0.0
220
0.0
230
1.0
 70
     8
 71
     3
 72
    18
 73
    14
 74
     0
 42
0.0000000001
 43
0.0000000001
 40
0.0
 40
0.0
 40
0.0
 40
0.0
 40
0.0262738672224133
 40
0.1228536547318069
 40
0.2187315092601321
 40
0.3146093665069388
 40
0.4132728076100398
 40
0.5119362588001057
 40
0.6078077154624709
 40
0.7036823780330769
 40
0.8022601162672803
 40
0.900837845634401
 40
1.0
 40
1.0
 40
1.0
 40
1.0
 10
1855.703314525824
 20
1066.408427605286
 30
0.0
 10
1855.640122748195
 20
1066.433182482831
 30
0.0
 10
1855.344645087256
 20
1066.548933512291
 30
0.0
 10
1854.781015034549
 20
1066.720774721504
 30
0.0
 10
1854.017751156248
 20
1066.920743169574
 30
0.0
 10
1853.220097615358
 20
1067.082075149763
 30
0.0
 10
1852.394453782934
 20
1067.205734534131
 30
0.0
 10
1851.553410163647
 20
1067.288285407347
 30
0.0
 10
1850.711493167174
 20
1067.328898657921
 30
0.0
 10
1849.866803479626
 20
1067.329712418751
 30
0.0
 10
1849.01741540064
 20
1067.289035965965
 30
0.0
 10
1848.165844063279
 20
1067.209607080608
 30
0.0
 10
1847.61123050704
 20
1067.122074318756
 30
0.0
 10
1847.333104142046
 20
1067.078178585235
 30
0.0
  0
SPLINE
  5
34D
330
314
100
AcDbEntity
  8
0
  6
Continuous
 62
     7
370
    15
100
AcDbSpline
210
0.0
220
0.0
230
1.0
 70
     8
 71
     3
 72
    14
 73
    10
 74
     0
 42
0.0000000001
 43
0.0000000001
 40
0.0
 40
0.0
 40
0.0
 40
0.0
 40
0.25
 40
0.25
 40
0.5
 40
0.5
 40
0.75
 40
0.75
 40
1.0
 40
1.0
 40
1.0
 40
1.0
 10
1849.694904770387
 20
1071.080145625424
 30
0.0
 10
1849.713433596882
 20
1071.055381755331
 30
0.0
 10
1849.729703630172
 20
1071.028208151028
 30
0.0
 10
1849.753545840049
 20
1070.971778770888
 30
0.0
 10
1849.760852515619
 20
1070.942139039937
 30
0.0
 10
1849.761181641133
 20
1070.891234596411
 30
0.0
 10
1849.754212963621
 20
1070.869817380694
 30
0.0
 10
1849.730280409093
 20
1070.840803721501
 30
0.0
 10
1849.713705272009
 20
1070.8327279835
 30
0.0
 10
1849.694904770389
 20
1070.829943004814
 30
0.0
  0
LINE
  5
34E
330
314
100
AcDbEntity
  8
0
  6
Continuous
 62
     7
370
    15
100
AcDbLine
 10
1844.732161522593
 20
1053.786599660024
 30
0.0
 11
1837.248846749045
 21
1058.106625324462
 31
0.0
  0
LINE
  5
34F
330
314
100
AcDbEntity
  8
0
  6
Continuous
 62
     7
370
    15
100
AcDbLine
 10
1864.945985992557
 20
1062.390923414074
 30
0.0
 11
1862.206902680923
 21
1056.489658611451
 31
0.0
  0
SPLINE
  5
350
330
314
100
AcDbEntity
  8
0
  6
Continuous
 62
     8
370
    15
100
AcDbSpline
210
0.0
220
0.0
230
1.0
 70
     8
 71
     3
 72
    38
 73
    34
 74
     0
 42
0.0000000001
 43
0.0000000001
 40
0.0
 40
0.0
 40
0.0
 40
0.0
 40
0.0162609123125667
 40
0.0503953473918782
 40
0.0838509092374249
 40
0.1171100767541975
 40
0.1500507504455112
 40
0.1825578407819839
 40
0.2156599541298255
 40
0.2492094263516105
 40
0.2830845552909547
 40
0.3171562026192766
 40
0.3512906376985891
 40
0.3847461995441357
 40
0.4180053670609084
 40
0.4509460407522221
 40
0.4834531310886937
 40
0.5165552444365353
 40
0.5501047166583203
 40
0.5839798455976644
 40
0.6180514929259862
 40
0.6521859280052987
 40
0.6856414898508453
 40
0.7189006573676179
 40
0.7518413310589316
 40
0.7843484213954034
 40
0.8174505347432448
 40
0.8510000069650299
 40
0.8848751359043742
 40
0.9189467832326961
 40
0.9530812183120087
 40
0.9865367801575553
 40
1.0
 40
1.0
 40
1.0
 40
1.0
 10
1859.717277282386
 20
1063.52284377418
 30
0.0
 10
1859.677671822015
 20
1063.600894171354
 30
0.0
 10
1859.554927728963
 20
1063.842785696508
 30
0.0
 10
1859.273641974516
 20
1064.229992578409
 30
0.0
 10
1858.882404491101
 20
1064.679893851247
 30
0.0
 10
1858.428999940849
 20
1065.102388671525
 30
0.0
 10
1857.922409181543
 20
1065.496939760832
 30
0.0
 10
1857.362308758116
 20
1065.863948440394
 30
0.0
 10
1856.748387775924
 20
1066.204141080282
 30
0.0
 10
1856.07872924834
 20
1066.517140969109
 30
0.0
 10
1855.359561225169
 20
1066.79798061728
 30
0.0
 10
1854.598276526382
 20
1067.042618630817
 30
0.0
 10
1853.808153091489
 20
1067.246502699614
 30
0.0
 10
1852.999093964077
 20
1067.408098060347
 30
0.0
 10
1852.181037828051
 20
1067.526901558784
 30
0.0
 10
1851.358588622939
 20
1067.603562033683
 30
0.0
 10
1850.53145415743
 20
1067.638878382851
 30
0.0
 10
1849.69919439978
 20
1067.633253218696
 30
0.0
 10
1848.861800962518
 20
1067.585888014179
 30
0.0
 10
1848.029317238184
 20
1067.49569559409
 30
0.0
 10
1847.211760383489
 20
1067.362800512292
 30
0.0
 10
1846.423716668641
 20
1067.189312595826
 30
0.0
 10
1845.673837991427
 20
1066.978134100341
 30
0.0
 10
1844.969526248484
 20
1066.732908507282
 30
0.0
 10
1844.313213389499
 20
1066.455966341018
 30
0.0
 10
1843.703507759442
 20
1066.147706635776
 30
0.0
 10
1843.140468830253
 20
1065.808430532486
 30
0.0
 10
1842.625802541165
 20
1065.437785243113
 30
0.0
 10
1842.167917166417
 20
1065.03894472515
 30
0.0
 10
1841.77204130265
 20
1064.616248756363
 30
0.0
 10
1841.451272983102
 20
1064.176299022983
 30
0.0
 10
1841.238710856362
 20
1063.815515170108
 30
0.0
 10
1841.159178339445
 20
1063.600404910467
 30
0.0
 10
1841.136356694864
 20
1063.538679592552
 30
0.0
  0
SPLINE
  5
351
330
314
100
AcDbEntity
  8
0
  6
Continuous
 62
     8
370
    15
100
AcDbSpline
210
0.0
220
0.0
230
1.0
 70
     8
 71
     3
 72
    40
 73
    36
 74
     0
 42
0.0000000001
 43
0.0000000001
 40
0.0
 40
0.0
 40
0.0
 40
0.0
 40
0.0183862147514431
 40
0.0501586114533223
 40
0.0819895588120945
 40
0.1131874452130076
 40
0.1442021905270318
 40
0.1749199348750602
 40
0.2052333552929709
 40
0.2361016448952745
 40
0.2673871043360092
 40
0.2989762442627274
 40
0.3307486409646066
 40
0.3625795883233787
 40
0.3937774747242919
 40
0.4247922200383162
 40
0.4555099643863445
 40
0.4858233848042551
 40
0.5166916744065588
 40
0.5479771338472935
 40
0.5795662737740115
 40
0.6113386704758908
 40
0.6431696178346628
 40
0.674367504235576
 40
0.7053822495496002
 40
0.7360999938976285
 40
0.7664134143155392
 40
0.7972817039178432
 40
0.8285671633585785
 40
0.860156303285297
 40
0.8919286999871768
 40
0.923759647345947
 40
0.9549575337468601
 40
0.9859722790608845
 40
0.9999999999999998
 40
0.9999999999999998
 40
0.9999999999999998
 40
0.9999999999999998
 10
1859.960126345957
 20
1064.12950706451
 30
0.0
 10
1859.926564946309
 20
1064.226235652949
 30
0.0
 10
1859.835007590567
 20
1064.490116595792
 30
0.0
 10
1859.603319063055
 20
1064.909922853237
 30
0.0
 10
1859.276620615389
 20
1065.381823681366
 30
0.0
 10
1858.881618052089
 20
1065.831082123354
 30
0.0
 10
1858.429207984558
 20
1066.253746736623
 30
0.0
 10
1857.92235451171
 20
1066.648252971538
 30
0.0
 10
1857.362323615099
 20
1067.01527352176
 30
0.0
 10
1856.748383705534
 20
1067.355462930083
 30
0.0
 10
1856.078730356818
 20
1067.668463703124
 30
0.0
 10
1855.359560925019
 20
1067.949303110793
 30
0.0
 10
1854.598276607224
 20
1068.193941189378
 30
0.0
 10
1853.808153070285
 20
1068.397825240752
 30
0.0
 10
1852.999093969676
 20
1068.559420606062
 30
0.0
 10
1852.181037826568
 20
1068.67822410329
 30
0.0
 10
1851.358588623337
 20
1068.754884578507
 30
0.0
 10
1850.531454157291
 20
1068.790200927596
 30
0.0
 10
1849.699194399933
 20
1068.784575763445
 30
0.0
 10
1848.861800962036
 20
1068.737210558994
 30
0.0
 10
1848.029317239979
 20
1068.647018138632
 30
0.0
 10
1847.211760376751
 20
1068.514123057868
 30
0.0
 10
1846.423716693618
 20
1068.340635137556
 30
0.0
 10
1845.673837900505
 20
1068.129456656126
 30
0.0
 10
1844.969526584448
 20
1067.884231011299
 30
0.0
 10
1844.313212155617
 20
1067.60728903541
 30
0.0
 10
1843.703512333514
 20
1067.299028625835
 30
0.0
 10
1843.140451303423
 20
1066.959755202732
 30
0.0
 10
1842.625869171452
 20
1066.589099707585
 30
0.0
 10
1842.167665317028
 20
1066.190297811808
 30
0.0
 10
1841.772987687724
 20
1065.767456532537
 30
0.0
 10
1841.447764302878
 20
1065.328047067121
 30
0.0
 10
1841.199568283061
 20
1064.877173142679
 30
0.0
 10
1841.043773058752
 20
1064.503695894623
 30
0.0
 10
1840.996779918514
 20
1064.278831418178
 30
0.0
 10
1840.982144692867
 20
1064.208801147034
 30
0.0
  0
SPLINE
  5
352
330
314
100
AcDbEntity
  8
0
  6
Continuous
 62
     8
370
    15
100
AcDbSpline
210
0.0
220
0.0
230
1.0
 70
     8
 71
     3
 72
    47
 73
    43
 74
     0
 42
0.0000000001
 43
0.0000000001
 40
0.0
 40
0.0
 40
0.0
 40
0.0
 40
0.0137720475731811
 40
0.0399186811094175
 40
0.0662169980328651
 40
0.0925637778955561
 40
0.1183865671428145
 40
0.1440577687591523
 40
0.1694831398325941
 40
0.194573848118279
 40
0.2201238269399311
 40
0.2460191012306315
 40
0.272165734766868
 40
0.2984640516903156
 40
0.3248108315530066
 40
0.350633620800265
 40
0.3763048224166028
 40
0.4017301934900447
 40
0.4268209017757295
 40
0.4523708805973816
 40
0.478266154888082
 40
0.5044127884243185
 40
0.5307111053477661
 40
0.557057885210457
 40
0.5828806744577154
 40
0.6085518760740532
 40
0.6339772471474951
 40
0.6590679554331799
 40
0.684617934254832
 40
0.7105132085455325
 40
0.736659842081769
 40
0.7629581590052166
 40
0.7893049388679078
 40
0.8151277281151664
 40
0.8407989297315044
 40
0.8662243008049463
 40
0.8913150090906302
 40
0.9168649879122824
 40
0.9427602622029828
 40
0.9689068957392192
 40
0.9952052126626668
 40
1.0
 40
1.0
 40
1.0
 40
1.0
 10
1860.095575423316
 20
1064.807595137803
 30
0.0
 10
1860.07807862637
 20
1064.896273855133
 30
0.0
 10
1860.027363650691
 20
1065.153311700778
 30
0.0
 10
1859.862176092269
 20
1065.57272023212
 30
0.0
 10
1859.606050355818
 20
1066.061546184369
 30
0.0
 10
1859.275904234818
 20
1066.533067333991
 30
0.0
 10
1858.881807195276
 20
1066.982425497697
 30
0.0
 10
1858.429157948828
 20
1067.405063771147
 30
0.0
 10
1857.922367660125
 20
1067.799576964279
 30
0.0
 10
1857.362320041907
 20
1068.166595673018
 30
0.0
 10
1856.748384684487
 20
1068.50678558265
 30
0.0
 10
1856.078730090223
 20
1068.819786218523
 30
0.0
 10
1855.359560997207
 20
1069.100625663502
 30
0.0
 10
1854.598276587781
 20
1069.345263731996
 30
0.0
 10
1853.808153075385
 20
1069.549147786073
 30
0.0
 10
1852.999093968329
 20
1069.710743150672
 30
0.0
 10
1852.181037826925
 20
1069.829546648088
 30
0.0
 10
1851.358588623241
 20
1069.906207123256
 30
0.0
 10
1850.531454157323
 20
1069.941523472357
 30
0.0
 10
1849.699194399902
 20
1069.935898308205
 30
0.0
 10
1848.861800962132
 20
1069.888533103745
 30
0.0
 10
1848.029317239623
 20
1069.79834068342
 30
0.0
 10
1847.211760378089
 20
1069.665445602518
 30
0.0
 10
1846.42371668866
 20
1069.491957682718
 30
0.0
 10
1845.673837918553
 20
1069.280779199418
 30
0.0
 10
1844.969526517759
 20
1069.035553561477
 30
0.0
 10
1844.313212400543
 20
1068.758611560267
 30
0.0
 10
1843.70351142556
 20
1068.450351244371
 30
0.0
 10
1843.140454782504
 20
1068.111077464792
 30
0.0
 10
1842.625855945322
 20
1067.740423327057
 30
0.0
 10
1842.167715309199
 20
1067.34161629436
 30
0.0
 10
1841.772799830031
 20
1066.918794342021
 30
0.0
 10
1841.448460776853
 20
1066.479313018599
 30
0.0
 10
1841.197032974968
 20
1066.028701698586
 30
0.0
 10
1841.019035680441
 20
1065.572498085727
 30
0.0
 10
1840.913341201477
 20
1065.113344163043
 30
0.0
 10
1840.878137107243
 20
1064.650874338172
 30
0.0
 10
1840.914461460187
 20
1064.185646414373
 30
0.0
 10
1841.022781157945
 20
1063.717849151965
 30
0.0
 10
1841.212355623655
 20
1063.254797849986
 30
0.0
 10
1841.386891462981
 20
1062.920831083187
 30
0.0
 10
1841.519152972162
 20
1062.747824144923
 30
0.0
 10
1841.539548678044
 20
1062.721145191612
 30
0.0
  0
SPLINE
  5
353
330
314
100
AcDbEntity
  8
0
  6
Continuous
 62
     8
370
    15
100
AcDbSpline
210
0.0
220
0.0
230
1.0
 70
     8
 71
     3
 72
    36
 73
    32
 74
     0
 42
0.0000000001
 43
0.0000000001
 40
0.0
 40
0.0
 40
0.0
 40
0.0
 40
0.0062842043947398
 40
0.0414218410454317
 40
0.0770343456720715
 40
0.1129925323793146
 40
0.1491593218326881
 40
0.1853927599968903
 40
0.2209055794873174
 40
0.2562099279205586
 40
0.2911761976276208
 40
0.325682221965447
 40
0.3608198586161389
 40
0.3964323632427788
 40
0.4323905499500218
 40
0.4685573394033954
 40
0.5047907775675976
 40
0.5403035970580249
 40
0.575607945491266
 40
0.6105742151983283
 40
0.6450802395361545
 40
0.6802178761868464
 40
0.7158303808134862
 40
0.7517885675207293
 40
0.7879553569741028
 40
0.824188795138305
 40
0.859701614628732
 40
0.8950059630619731
 40
0.9299722327690352
 40
0.9644782571068617
 40
1.0
 40
1.0
 40
1.0
 40
1.0
 10
1857.247762918837
 20
1061.086787267138
 30
0.0
 10
1857.284544278813
 20
1061.106976897215
 30
0.0
 10
1857.526985732126
 20
1061.240055262473
 30
0.0
 10
1857.929675221
 20
1061.516275615679
 30
0.0
 10
1858.447787419172
 20
1061.916639268657
 30
0.0
 10
1858.90497240418
 20
1062.348751707915
 30
0.0
 10
1859.300146482836
 20
1062.80473190346
 30
0.0
 10
1859.624415810063
 20
1063.277550229534
 30
0.0
 10
1859.875863613891
 20
1063.761047123746
 30
0.0
 10
1860.05384940467
 20
1064.24935553423
 30
0.0
 10
1860.159569795303
 20
1064.739774702539
 30
0.0
 10
1860.194682382324
 20
1065.23231556155
 30
0.0
 10
1860.158705053817
 20
1065.727912995146
 30
0.0
 10
1860.049064259057
 20
1066.227259016909
 30
0.0
 10
1859.864489194101
 20
1066.724202136817
 30
0.0
 10
1859.605427346716
 20
1067.21282580726
 30
0.0
 10
1859.276067641557
 20
1067.684401136502
 30
0.0
 10
1858.881764051591
 20
1068.133745070352
 30
0.0
 10
1858.429169362144
 20
1068.556387101271
 30
0.0
 10
1857.922364660437
 20
1068.950899305863
 30
0.0
 10
1857.362320858914
 20
1069.317918261138
 30
0.0
 10
1856.748384453675
 20
1069.658108161037
 30
0.0
 10
1856.078730179592
 20
1069.971108581147
 30
0.0
 10
1855.359560872797
 20
1070.251948911398
 30
0.0
 10
1854.598276997839
 20
1070.49658363059
 30
0.0
 10
1853.808151570392
 20
1070.700480142424
 30
0.0
 10
1852.999099442884
 20
1070.862029978954
 30
0.0
 10
1852.181017598855
 20
1070.981001169489
 30
0.0
 10
1851.358662913718
 20
1071.057044963123
 30
0.0
 10
1850.528140405838
 20
1071.094780898631
 30
0.0
 10
1849.975322765479
 20
1071.085070995626
 30
0.0
 10
1849.694904770387
 20
1071.080145625424
 30
0.0
  0
SPLINE
  5
354
330
314
100
AcDbEntity
  8
0
  6
Continuous
 62
     8
370
    15
100
AcDbSpline
210
0.0
220
0.0
230
1.0
 70
     8
 71
     3
 72
    21
 73
    17
 74
     0
 42
0.0000000001
 43
0.0000000001
 40
0.0
 40
0.0
 40
0.0
 40
0.0
 40
0.016040671160314
 40
0.0941577244147552
 40
0.172418732965534
 40
0.2491232691789445
 40
0.3253775264231033
 40
0.400901563643415
 40
0.4754315117404727
 40
0.5513256863399622
 40
0.6282455335945754
 40
0.7059120234433403
 40
0.7840290766977813
 40
0.8622900852485601
 40
0.9389946214619707
 40
1.0
 40
1.0
 40
1.0
 40
1.0
 10
1855.503198754909
 20
1066.482974740249
 30
0.0
 10
1855.453892400774
 20
1066.502502271593
 30
0.0
 10
1855.164467222853
 20
1066.617127644585
 30
0.0
 10
1854.596108779763
 20
1066.790419756309
 30
0.0
 10
1853.808721656475
 20
1066.996823673471
 30
0.0
 10
1852.998943866857
 20
1067.157757180788
 30
0.0
 10
1852.181077465095
 20
1067.276735573443
 30
0.0
 10
1851.35857846239
 20
1067.353349564199
 30
0.0
 10
1850.531455974046
 20
1067.388679259567
 30
0.0
 10
1849.69919752863
 20
1067.383046488608
 30
0.0
 10
1848.861786325691
 20
1067.335698491026
 30
0.0
 10
1848.029373304986
 20
1067.245444151397
 30
0.0
 10
1847.211549499039
 20
1067.112781168432
 30
0.0
 10
1846.424498566447
 20
1066.938430533844
 30
0.0
 10
1845.720685267515
 20
1066.744124011506
 30
0.0
 10
1845.301017831795
 20
1066.592404931546
 30
0.0
 10
1845.11510550426
 20
1066.525193504388
 30
0.0
  0
SPLINE
  5
355
330
314
100
AcDbEntity
  8
0
  6
Continuous
 62
     8
370
    15
100
AcDbSpline
210
0.0
220
0.0
230
1.0
 70
     8
 71
     3
 72
    21
 73
    17
 74
     0
 42
0.0000000001
 43
0.0000000001
 40
0.0
 40
0.0
 40
0.0
 40
0.0
 40
0.0159462192782193
 40
0.0937556310554404
 40
0.171708431202596
 40
0.2481108887296368
 40
0.3240648405812392
 40
0.3992914481698877
 40
0.4735278815684962
 40
0.5491231688570403
 40
0.625740089484866
 40
0.7031007122703949
 40
0.7809101240476159
 40
0.8588629241947716
 40
0.9352653817218122
 40
1.0
 40
1.0
 40
1.0
 40
1.0
 10
1855.502907972237
 20
1067.634410840606
 30
0.0
 10
1855.453697828473
 20
1067.653899835896
 30
0.0
 10
1855.164367297993
 20
1067.76848518181
 30
0.0
 10
1854.596107324959
 20
1067.941740913491
 30
0.0
 10
1853.808722038547
 20
1068.148146581698
 30
0.0
 10
1852.998943764179
 20
1068.309079631304
 30
0.0
 10
1852.181077498924
 20
1068.428058136761
 30
0.0
 10
1851.358578429018
 20
1068.504672127484
 30
0.0
 10
1850.531456073703
 20
1068.540001712697
 30
0.0
 10
1849.699197153539
 20
1068.534369390925
 30
0.0
 10
1848.861787749803
 20
1068.487019674727
 30
0.0
 10
1848.02936792262
 20
1068.39677184116
 30
0.0
 10
1847.21156972445
 20
1068.264084379461
 30
0.0
 10
1846.424423581678
 20
1068.08982475757
 30
0.0
 10
1845.707954218518
 20
1067.891616407023
 30
0.0
 10
1845.276288159801
 20
1067.735367041719
 30
0.0
 10
1845.078298103855
 20
1067.663700947168
 30
0.0
  0
SPLINE
  5
356
330
314
100
AcDbEntity
  8
0
  6
Continuous
 62
     8
370
    15
100
AcDbSpline
210
0.0
220
0.0
230
1.0
 70
     8
 71
     3
 72
    21
 73
    17
 74
     0
 42
0.0000000001
 43
0.0000000001
 40
0.0
 40
0.0
 40
0.0
 40
0.0
 40
0.0159995603084143
 40
0.0941196236624672
 40
0.1723836478599091
 40
0.2490911397441361
 40
0.3253483353084242
 40
0.4008752827111552
 40
0.4754081026852023
 40
0.5513052017296877
 40
0.6282280129517411
 40
0.7058974955384702
 40
0.784017558892523
 40
0.8622815830899648
 40
0.9389890749741917
 40
1.0
 40
1.0
 40
1.0
 40
1.0
 10
1855.50281238415
 20
1068.785770714144
 30
0.0
 10
1855.453633867544
 20
1068.805247041809
 30
0.0
 10
1855.164334450184
 20
1068.919819229721
 30
0.0
 10
1854.596106846687
 20
1069.093063001697
 30
0.0
 10
1853.808722163495
 20
1069.299469246678
 30
0.0
 10
1852.99894373299
 20
1069.4604021426
 30
0.0
 10
1852.181077500514
 20
1069.579380696739
 30
0.0
 10
1851.358578453062
 20
1069.65599464486
 30
0.0
 10
1850.531455976656
 20
1069.69132435142
 30
0.0
 10
1849.699197527627
 20
1069.685691577761
 30
0.0
 10
1848.861786327057
 20
1069.638343579598
 30
0.0
 10
1848.029373300484
 20
1069.54808924512
 30
0.0
 10
1847.211549515777
 20
1069.415426241975
 30
0.0
 10
1846.424498504437
 20
1069.24107568263
 30
0.0
 10
1845.720675060224
 20
1069.046766028322
 30
0.0
 10
1845.300998003338
 20
1068.895043315376
 30
0.0
 10
1845.115075989222
 20
1068.827828317759
 30
0.0
  0
SPLINE
  5
357
330
314
100
AcDbEntity
  8
0
  6
Continuous
 62
     8
370
    15
100
AcDbSpline
210
0.0
220
0.0
230
1.0
 70
     8
 71
     3
 72
    15
 73
    11
 74
     0
 42
0.0000000001
 43
0.0000000001
 40
0.0
 40
0.0
 40
0.0
 40
0.0
 40
0.0290431504696922
 40
0.1705208881972087
 40
0.3122593432560958
 40
0.4511788724089007
 40
0.5892829016514812
 40
0.7260644299456355
 40
0.8610455641593874
 40
1.0
 40
1.0
 40
1.0
 40
1.0
 10
1855.503157356819
 20
1069.936958541187
 30
0.0
 10
1855.453864697422
 20
1069.956480602257
 30
0.0
 10
1855.164452979823
 20
1070.071100371094
 30
0.0
 10
1854.596108995016
 20
1070.244384431513
 30
0.0
 10
1853.80872020666
 20
1070.450801195913
 30
0.0
 10
1852.998949312014
 20
1070.611689098347
 30
0.0
 10
1852.181057299662
 20
1070.730835110536
 30
0.0
 10
1851.358652534918
 20
1070.806832784366
 30
0.0
 10
1850.528143075038
 20
1070.844580736167
 30
0.0
 10
1849.975323663774
 20
1070.834869202283
 30
0.0
 10
1849.694904770387
 20
1070.829943004814
 30
0.0
  0
ENDBLK
  5
316
330
314
100
AcDbEntity
  8
0
100
AcDbBlockEnd
  0
ENDSEC
  0
SECTION
  2
ENTITIES
  0
INSERT
  5
2E4
330
1F
100
AcDbEntity
  8
0
100
AcDbBlockReference
  2
1
 10
0.0
 20
0.0
 30
0.0
  0
INSERT
  5
313
330
1F
100
AcDbEntity
  8
0
100
AcDbBlockReference
  2
3
 10
0.0
 20
0.0
 30
0.0
  0
INSERT
  5
358
330
1F
100
AcDbEntity
  8
0
100
AcDbBlockReference
  2
4
 10
0.0
 20
0.0
 30
0.0
  0
ENDSEC
  0
SECTION
  2
OBJECTS
  0
DICTIONARY
  5
C
330
0
100
AcDbDictionary
281
     1
  3
ACAD_COLOR
350
6B
  3
ACAD_GROUP
350
D
  3
ACAD_LAYOUT
350
1A
  3
ACAD_MATERIAL
350
6A
  3
ACAD_MLEADERSTYLE
350
12D
  3
ACAD_MLINESTYLE
350
17
  3
ACAD_PLOTSETTINGS
350
19
  3
ACAD_PLOTSTYLENAME
350
E
  3
ACAD_SCALELIST
350
10C
  3
ACAD_TABLESTYLE
350
7E
  3
ACAD_VISUALSTYLE
350
EF
  3
ACDB_RECOMPOSE_DATA
350
15D
  3
AcDbVariableDictionary
350
5E
  3
DWGPROPS
350
3C3
  0
DICTIONARY
  5
13C
330
10
100
AcDbDictionary
280
     1
281
     1
  3
ADSK_XREC_LAYER_RECONCILED
360
359
  0
DICTIONARY
  5
3AE
330
2E5
100
AcDbDictionary
280
     1
281
     1
  0
DICTIONARY
  5
377
330
2FC
100
AcDbDictionary
280
     1
281
     1
  0
DICTIONARY
  5
6B
102
{ACAD_REACTORS
330
C
102
}
330
C
100
AcDbDictionary
281
     1
  0
DICTIONARY
  5
D
102
{ACAD_REACTORS
330
C
102
}
330
C
100
AcDbDictionary
281
     1
  0
DICTIONARY
  5
1A
102
{ACAD_REACTORS
330
C
102
}
330
C
100
AcDbDictionary
281
     1
  3
Layout1
350
D3
  3
Layout2
350
D7
  3
Model
350
22
  0
DICTIONARY
  5
6A
102
{ACAD_REACTORS
330
C
102
}
330
C
100
AcDbDictionary
281
     1
  3
ByBlock
350
ED
  3
ByLayer
350
EC
  3
Global
350
EE
  0
DICTIONARY
  5
12D
102
{ACAD_REACTORS
330
C
102
}
330
C
100
AcDbDictionary
281
     1
  3
Annotative
350
13B
  3
Standard
350
12E
  0
DICTIONARY
  5
17
102
{ACAD_REACTORS
330
C
102
}
330
C
100
AcDbDictionary
281
     1
  3
Standard
350
18
  0
DICTIONARY
  5
19
102
{ACAD_REACTORS
330
C
102
}
330
C
100
AcDbDictionary
281
     1
  0
ACDBDICTIONARYWDFLT
  5
E
102
{ACAD_REACTORS
330
C
102
}
330
C
100
AcDbDictionary
281
     1
  3
Normal
350
F
100
AcDbDictionaryWithDefault
340
F
  0
DICTIONARY
  5
10C
102
{ACAD_REACTORS
330
C
102
}
330
C
100
AcDbDictionary
281
     1
  3
A0
350
10D
  3
A1
350
188
  3
A2
350
189
  3
A3
350
18A
  3
A4
350
18B
  3
A5
350
18C
  3
A6
350
18D
  3
A7
350
18E
  3
A8
350
18F
  3
A9
350
190
  3
B0
350
191
  3
B1
350
192
  3
B2
350
193
  3
B3
350
194
  3
B4
350
195
  3
B5
350
196
  3
B6
350
197
  3
B7
350
198
  3
B8
350
199
  3
B9
350
19A
  3
C0
350
19B
  3
C1
350
19C
  3
C2
350
19D
  3
C3
350
19E
  3
C4
350
19F
  3
C5
350
1A0
  3
C6
350
1A1
  3
C7
350
1A2
  3
C8
350
1A3
  3
C9
350
1A4
  3
D0
350
1A5
  3
D1
350
1A6
  3
D2
350
1A7
  0
DICTIONARY
  5
7E
102
{ACAD_REACTORS
330
C
102
}
330
C
100
AcDbDictionary
281
     1
  3
Standard
350
7F
  0
DICTIONARY
  5
EF
102
{ACAD_REACTORS
330
C
102
}
330
C
100
AcDbDictionary
281
     1
  3
2dWireframe
350
F5
  3
3D Hidden
350
F7
  3
3dWireframe
350
F6
  3
Basic
350
F4
  3
Brighten
350
FB
  3
ColorChange
350
FF
  3
Conceptual
350
F8
  3
Dim
350
FA
  3
Facepattern
350
FE
  3
Flat
350
F0
  3
FlatWithEdges
350
F1
  3
Gouraud
350
F2
  3
GouraudWithEdges
350
F3
  3
Linepattern
350
FD
  3
Realistic
350
F9
  3
Thicken
350
FC
  0
XRECORD
  5
15D
102
{ACAD_REACTORS
330
C
102
}
330
C
100
AcDbXrecord
280
     1
 90
        1
330
7F
  0
DICTIONARY
  5
5E
102
{ACAD_REACTORS
330
C
102
}
330
C
100
AcDbDictionary
281
     1
  3
CANNOSCALE
350
146
  3
CMLEADERSTYLE
350
145
  3
CTABLESTYLE
350
84
  3
DIMASSOC
350
5F
  3
HIDETEXT
350
63
  3
INDEXCTL
350
3BF
  3
LIGHTINGUNITS
350
3BD
  3
MSLTSCALE
350
3BC
  3
PSOLHEIGHT
350
3C1
  3
PSOLWIDTH
350
3C0
  3
SORTENTS
350
3BE
  0
XRECORD
  5
3C3
102
{ACAD_REACTORS
330
C
102
}
330
C
100
AcDbXrecord
280
     1
  1
DWGPROPS COOKIE
  2

  3

  4

  6

  7

  8
orhan kara
  9

300
=
301
=
302
=
303
=
304
=
305
=
306
=
307
=
308
=
309
=
 40
0.0044427199074074
 41
2459059.565992165
 42
2459067.654103102
  1

 90
        0
  0
XRECORD
  5
359
102
{ACAD_REACTORS
330
13C
102
}
330
13C
100
AcDbXrecord
280
     1
290
     1
  0
LAYOUT
  5
D3
102
{ACAD_XDICTIONARY
360
3C7
102
}
102
{ACAD_REACTORS
330
1A
102
}
330
1A
100
AcDbPlotSettings
  1

  2
C:\Documents and Settings\basas\Application Data\Autodesk\AutoCAD 2005\R16.1\enu\plotters\Default Windows System Printer.pc3
  4

  6

 40
0.0
 41
0.0
 42
0.0
 43
0.0
 44
0.0
 45
0.0
 46
0.0
 47
0.0
 48
0.0
 49
0.0
140
0.0
141
0.0
142
1.0
143
1.0
 70
   688
 72
     0
 73
     0
 74
     5
  7

 75
    16
147
1.0
148
0.0
149
0.0
100
AcDbLayout
  1
Layout1
 70
     1
 71
     1
 10
0.0
 20
0.0
 11
12.0
 21
9.0
 12
0.0
 22
0.0
 32
0.0
 14
0.0
 24
0.0
 34
0.0
 15
0.0
 25
0.0
 35
0.0
146
0.0
 13
0.0
 23
0.0
 33
0.0
 16
1.0
 26
0.0
 36
0.0
 17
0.0
 27
1.0
 37
0.0
 76
     0
330
D2
  0
LAYOUT
  5
D7
102
{ACAD_XDICTIONARY
360
3C9
102
}
102
{ACAD_REACTORS
330
1A
102
}
330
1A
100
AcDbPlotSettings
  1

  2
C:\Documents and Settings\basas\Application Data\Autodesk\AutoCAD 2005\R16.1\enu\plotters\Default Windows System Printer.pc3
  4

  6

 40
0.0
 41
0.0
 42
0.0
 43
0.0
 44
0.0
 45
0.0
 46
0.0
 47
0.0
 48
0.0
 49
0.0
140
0.0
141
0.0
142
1.0
143
1.0
 70
   688
 72
     0
 73
     0
 74
     5
  7

 75
    16
147
1.0
148
0.0
149
0.0
100
AcDbLayout
  1
Layout2
 70
     1
 71
     2
 10
0.0
 20
0.0
 11
12.0
 21
9.0
 12
0.0
 22
0.0
 32
0.0
 14
0.0
 24
0.0
 34
0.0
 15
0.0
 25
0.0
 35
0.0
146
0.0
 13
0.0
 23
0.0
 33
0.0
 16
1.0
 26
0.0
 36
0.0
 17
0.0
 27
1.0
 37
0.0
 76
     0
330
D6
  0
LAYOUT
  5
22
102
{ACAD_XDICTIONARY
360
3C4
102
}
102
{ACAD_REACTORS
330
1A
102
}
330
1A
100
AcDbPlotSettings
  1

  2
none_device
  4
ISO_A4_(210.00_x_297.00_MM)
  6

 40
7.5
 41
20.0
 42
7.5
 43
20.0
 44
210.0
 45
297.0
 46
11.54999923706054
 47
-13.65000009536743
 48
0.0
 49
0.0
140
0.0
141
0.0
142
1.0
143
8.704084754739808
 70
 11952
 72
     1
 73
     0
 74
     0
  7

 75
     0
147
0.1148885871608098
148
0.0
149
0.0
100
AcDbLayout
  1
Model
 70
     1
 71
     0
 10
0.0
 20
0.0
 11
12.0
 21
9.0
 12
0.0
 22
0.0
 32
0.0
 14
0.0
 24
0.0
 34
0.0
 15
0.0
 25
0.0
 35
0.0
146
0.0
 13
0.0
 23
0.0
 33
0.0
 16
1.0
 26
0.0
 36
0.0
 17
0.0
 27
1.0
 37
0.0
 76
     0
330
1F
331
EA
1001
ACAD_PSEXT
1000
None
1000
None
1000
Not applicable
1000
The layout will not be plotted unless a new plotter configuration name is selected.
1070
     0
  0
MATERIAL
  5
ED
102
{ACAD_XDICTIONARY
360
3CD
102
}
102
{ACAD_REACTORS
330
6A
102
}
330
6A
100
AcDbMaterial
  1
ByBlock
  0
MATERIAL
  5
EC
102
{ACAD_XDICTIONARY
360
3CB
102
}
102
{ACAD_REACTORS
330
6A
102
}
330
6A
100
AcDbMaterial
  1
ByLayer
  0
MATERIAL
  5
EE
102
{ACAD_XDICTIONARY
360
173
102
}
102
{ACAD_REACTORS
330
6A
102
}
330
6A
100
AcDbMaterial
  1
Global
 43
0.0007999999797903
 43
0.0
 43
0.0
 43
0.0
 43
0.0
 43
0.0007999999797903
 43
0.0
 43
0.0
 43
0.0
 43
0.0
 43
1.0
 43
0.0
 43
0.0
 43
0.0
 43
0.0
 43
1.0
 49
0.0007999999797903
 49
0.0
 49
0.0
 49
0.0
 49
0.0
 49
0.0007999999797903
 49
0.0
 49
0.0
 49
0.0
 49
0.0
 49
1.0
 49
0.0
 49
0.0
 49
0.0
 49
0.0
 49
1.0
142
0.0007999999797903
142
0.0
142
0.0
142
0.0
142
0.0
142
0.0007999999797903
142
0.0
142
0.0
142
0.0
142
0.0
142
1.0
142
0.0
142
0.0
142
0.0
142
0.0
142
1.0
144
0.0007999999797903
144
0.0
144
0.0
144
0.0
144
0.0
144
0.0007999999797903
144
0.0
144
0.0
144
0.0
144
0.0
144
1.0
144
0.0
144
0.0
144
0.0
144
0.0
144
1.0
1001
ACAD
1070
    -1
1070
     3
1070
     0
1000

1071
        0
1070
     0
  0
MLEADERSTYLE
  5
13B
102
{ACAD_REACTORS
330
12D
102
}
330
12D
100
AcDbMLeaderStyle
170
     2
171
     1
172
     0
 90
        2
 40
0.0
 41
0.0
173
     1
 91
-1056964608
340
14
 92
       -2
290
     1
 42
2.0
291
     1
 43
8.0
  3
Standard
 44
4.0
300

342
11
174
     1
178
     1
175
     1
176
     0
 93
-1056964608
 45
4.0
292
     0
297
     0
 46
4.0
 94
-1056964608
 47
1.0
 49
1.0
140
1.0
293
     1
141
0.0
294
     1
177
     0
142
1.0
295
     0
296
     1
143
3.75
1001
ACAD_MLEADERVER
1070
     2
  0
MLEADERSTYLE
  5
12E
102
{ACAD_REACTORS
330
12D
102
}
330
12D
100
AcDbMLeaderStyle
170
     2
171
     1
172
     0
 90
        2
 40
0.0
 41
0.0
173
     1
 91
-1056964608
340
14
 92
       -2
290
     1
 42
2.0
291
     1
 43
8.0
  3
Standard
 44
4.0
300

342
11
174
     1
178
     1
175
     1
176
     0
 93
-1056964608
 45
4.0
292
     0
297
     0
 46
4.0
 94
-1056964608
 47
1.0
 49
1.0
140
1.0
293
     1
141
0.0
294
     1
177
     0
142
1.0
295
     0
296
     0
143
3.75
1001
ACAD_MLEADERVER
1070
     2
  0
MLINESTYLE
  5
18
102
{ACAD_REACTORS
330
17
102
}
330
17
100
AcDbMlineStyle
  2
STANDARD
 70
     0
  3

 62
   256
 51
90.0
 52
90.0
 71
     2
 49
0.5
 62
   256
  6
BYLAYER
 49
-0.5
 62
   256
  6
BYLAYER
  0
ACDBPLACEHOLDER
  5
F
102
{ACAD_REACTORS
330
E
102
}
330
E
  0
SCALE
  5
10D
102
{ACAD_REACTORS
330
10C
102
}
330
10C
100
AcDbScale
 70
     0
300
1:1
140
1.0
141
1.0
290
     1
  0
SCALE
  5
188
102
{ACAD_REACTORS
330
10C
102
}
330
10C
100
AcDbScale
 70
     0
300
1:2
140
1.0
141
2.0
290
     0
  0
SCALE
  5
189
102
{ACAD_REACTORS
330
10C
102
}
330
10C
100
AcDbScale
 70
     0
300
1:4
140
1.0
141
4.0
290
     0
  0
SCALE
  5
18A
102
{ACAD_REACTORS
330
10C
102
}
330
10C
100
AcDbScale
 70
     0
300
1:5
140
1.0
141
5.0
290
     0
  0
SCALE
  5
18B
102
{ACAD_REACTORS
330
10C
102
}
330
10C
100
AcDbScale
 70
     0
300
1:8
140
1.0
141
8.0
290
     0
  0
SCALE
  5
18C
102
{ACAD_REACTORS
330
10C
102
}
330
10C
100
AcDbScale
 70
     0
300
1:10
140
1.0
141
10.0
290
     0
  0
SCALE
  5
18D
102
{ACAD_REACTORS
330
10C
102
}
330
10C
100
AcDbScale
 70
     0
300
1:16
140
1.0
141
16.0
290
     0
  0
SCALE
  5
18E
102
{ACAD_REACTORS
330
10C
102
}
330
10C
100
AcDbScale
 70
     0
300
1:20
140
1.0
141
20.0
290
     0
  0
SCALE
  5
18F
102
{ACAD_REACTORS
330
10C
102
}
330
10C
100
AcDbScale
 70
     0
300
1:30
140
1.0
141
30.0
290
     0
  0
SCALE
  5
190
102
{ACAD_REACTORS
330
10C
102
}
330
10C
100
AcDbScale
 70
     0
300
1:40
140
1.0
141
40.0
290
     0
  0
SCALE
  5
191
102
{ACAD_REACTORS
330
10C
102
}
330
10C
100
AcDbScale
 70
     0
300
1:50
140
1.0
141
50.0
290
     0
  0
SCALE
  5
192
102
{ACAD_REACTORS
330
10C
102
}
330
10C
100
AcDbScale
 70
     0
300
1:100
140
1.0
141
100.0
290
     0
  0
SCALE
  5
193
102
{ACAD_REACTORS
330
10C
102
}
330
10C
100
AcDbScale
 70
     0
300
2:1
140
2.0
141
1.0
290
     0
  0
SCALE
  5
194
102
{ACAD_REACTORS
330
10C
102
}
330
10C
100
AcDbScale
 70
     0
300
4:1
140
4.0
141
1.0
290
     0
  0
SCALE
  5
195
102
{ACAD_REACTORS
330
10C
102
}
330
10C
100
AcDbScale
 70
     0
300
8:1
140
8.0
141
1.0
290
     0
  0
SCALE
  5
196
102
{ACAD_REACTORS
330
10C
102
}
330
10C
100
AcDbScale
 70
     0
300
10:1
140
10.0
141
1.0
290
     0
  0
SCALE
  5
197
102
{ACAD_REACTORS
330
10C
102
}
330
10C
100
AcDbScale
 70
     0
300
100:1
140
100.0
141
1.0
290
     0
  0
SCALE
  5
198
102
{ACAD_REACTORS
330
10C
102
}
330
10C
100
AcDbScale
 70
     0
300
1/128" = 1'-0"
140
0.0078125
141
12.0
290
     0
  0
SCALE
  5
199
102
{ACAD_REACTORS
330
10C
102
}
330
10C
100
AcDbScale
 70
     0
300
1/64" = 1'-0"
140
0.015625
141
12.0
290
     0
  0
SCALE
  5
19A
102
{ACAD_REACTORS
330
10C
102
}
330
10C
100
AcDbScale
 70
     0
300
1/32" = 1'-0"
140
0.03125
141
12.0
290
     0
  0
SCALE
  5
19B
102
{ACAD_REACTORS
330
10C
102
}
330
10C
100
AcDbScale
 70
     0
300
1/16" = 1'-0"
140
0.0625
141
12.0
290
     0
  0
SCALE
  5
19C
102
{ACAD_REACTORS
330
10C
102
}
330
10C
100
AcDbScale
 70
     0
300
3/32" = 1'-0"
140
0.09375
141
12.0
290
     0
  0
SCALE
  5
19D
102
{ACAD_REACTORS
330
10C
102
}
330
10C
100
AcDbScale
 70
     0
300
1/8" = 1'-0"
140
0.125
141
12.0
290
     0
  0
SCALE
  5
19E
102
{ACAD_REACTORS
330
10C
102
}
330
10C
100
AcDbScale
 70
     0
300
3/16" = 1'-0"
140
0.1875
141
12.0
290
     0
  0
SCALE
  5
19F
102
{ACAD_REACTORS
330
10C
102
}
330
10C
100
AcDbScale
 70
     0
300
1/4" = 1'-0"
140
0.25
141
12.0
290
     0
  0
SCALE
  5
1A0
102
{ACAD_REACTORS
330
10C
102
}
330
10C
100
AcDbScale
 70
     0
300
3/8" = 1'-0"
140
0.375
141
12.0
290
     0
  0
SCALE
  5
1A1
102
{ACAD_REACTORS
330
10C
102
}
330
10C
100
AcDbScale
 70
     0
300
1/2" = 1'-0"
140
0.5
141
12.0
290
     0
  0
SCALE
  5
1A2
102
{ACAD_REACTORS
330
10C
102
}
330
10C
100
AcDbScale
 70
     0
300
3/4" = 1'-0"
140
0.75
141
12.0
290
     0
  0
SCALE
  5
1A3
102
{ACAD_REACTORS
330
10C
102
}
330
10C
100
AcDbScale
 70
     0
300
1" = 1'-0"
140
1.0
141
12.0
290
     0
  0
SCALE
  5
1A4
102
{ACAD_REACTORS
330
10C
102
}
330
10C
100
AcDbScale
 70
     0
300
1-1/2" = 1'-0"
140
1.5
141
12.0
290
     0
  0
SCALE
  5
1A5
102
{ACAD_REACTORS
330
10C
102
}
330
10C
100
AcDbScale
 70
     0
300
3" = 1'-0"
140
3.0
141
12.0
290
     0
  0
SCALE
  5
1A6
102
{ACAD_REACTORS
330
10C
102
}
330
10C
100
AcDbScale
 70
     0
300
6" = 1'-0"
140
6.0
141
12.0
290
     0
  0
SCALE
  5
1A7
102
{ACAD_REACTORS
330
10C
102
}
330
10C
100
AcDbScale
 70
     0
300
1'-0" = 1'-0"
140
12.0
141
12.0
290
     0
  0
TABLESTYLE
  5
7F
102
{ACAD_XDICTIONARY
360
162
102
}
102
{ACAD_REACTORS
330
7E
102
}
330
7E
100
AcDbTableStyle
  3
Standard
 70
     0
 71
     0
 40
1.5
 41
1.5
280
     0
281
     0
  7
Standard
140
4.5
170
     2
 62
     0
 63
     7
283
     0
274
    -2
284
     1
 64
     0
275
    -2
285
     1
 65
     0
276
    -2
286
     1
 66
     0
277
    -2
287
     1
 67
     0
278
    -2
288
     1
 68
     0
279
    -2
289
     1
 69
     0
  7
Standard
140
6.0
170
     5
 62
     0
 63
     7
283
     0
274
    -2
284
     1
 64
     0
275
    -2
285
     1
 65
     0
276
    -2
286
     1
 66
     0
277
    -2
287
     1
 67
     0
278
    -2
288
     1
 68
     0
279
    -2
289
     1
 69
     0
  7
Standard
140
4.5
170
     5
 62
     0
 63
     7
283
     0
274
    -2
284
     1
 64
     0
275
    -2
285
     1
 65
     0
276
    -2
286
     1
 66
     0
277
    -2
287
     1
 67
     0
278
    -2
288
     1
 68
     0
279
    -2
289
     1
 69
     0
  0
VISUALSTYLE
  5
F5
102
{ACAD_REACTORS
330
EF
102
}
330
EF
100
AcDbVisualStyle
  2
2dWireframe
 70
     4
 71
     0
 72
     2
 73
     1
 90
        0
 40
-0.6
 41
-30.0
 62
     5
 63
     7
 74
     1
 91
        4
 64
     7
 65
   257
 75
     1
175
     1
 42
1.0
 92
        0
 66
   257
 43
1.0
 76
     1
 77
     6
 78
     2
 67
     7
 79
     5
170
     0
171
     0
290
     0
174
     0
 93
        1
 44
0.0
173
     0
291
     0
 45
0.0
1001
ACAD
1000
AcDbSavedByObjectVersion
1070
     0
  0
VISUALSTYLE
  5
F7
102
{ACAD_REACTORS
330
EF
102
}
330
EF
100
AcDbVisualStyle
  2
3D Hidden
 70
     6
 71
     1
 72
     2
 73
     2
 90
        0
 40
-0.6
 41
-30.0
 62
     5
 63
     7
 74
     2
 91
        2
 64
     7
 65
   257
 75
     2
175
     1
 42
40.0
 92
        0
 66
   257
 43
1.0
 76
     1
 77
     6
 78
     2
 67
     7
 79
     3
170
     0
171
     0
290
     0
174
     0
 93
        1
 44
0.0
173
     0
291
     0
 45
0.0
1001
ACAD
1000
AcDbSavedByObjectVersion
1070
     0
  0
VISUALSTYLE
  5
F6
102
{ACAD_REACTORS
330
EF
102
}
330
EF
100
AcDbVisualStyle
  2
3dWireframe
 70
     5
 71
     0
 72
     2
 73
     1
 90
        0
 40
-0.6
 41
-30.0
 62
     5
 63
     7
 74
     1
 91
        4
 64
     7
 65
   257
 75
     1
175
     1
 42
1.0
 92
        0
 66
   257
 43
1.0
 76
     1
 77
     6
 78
     2
 67
     7
 79
     5
170
     0
171
     0
290
     0
174
     0
 93
        1
 44
0.0
173
     0
291
     0
 45
0.0
1001
ACAD
1000
AcDbSavedByObjectVersion
1070
     0
  0
VISUALSTYLE
  5
F4
102
{ACAD_REACTORS
330
EF
102
}
330
EF
100
AcDbVisualStyle
  2
Basic
 70
     7
 71
     1
 72
     0
 73
     1
 90
        0
 40
-0.6
 41
-30.0
 62
     5
 63
     7
 74
     0
 91
        4
 64
     7
 65
   257
 75
     1
175
     1
 42
1.0
 92
        8
 66
     7
 43
1.0
 76
     1
 77
     6
 78
     2
 67
     7
 79
     5
170
     0
171
     0
290
     0
174
     0
 93
        1
 44
0.0
173
     0
291
     1
 45
0.0
1001
ACAD
1000
AcDbSavedByObjectVersion
1070
     0
  0
VISUALSTYLE
  5
FB
102
{ACAD_REACTORS
330
EF
102
}
330
EF
100
AcDbVisualStyle
  2
Brighten
 70
    12
 71
     2
 72
     2
 73
     1
 90
        0
 40
-0.6
 41
-30.0
 62
     5
 63
     7
 74
     1
 91
        4
 64
     7
 65
   257
 75
     1
175
     1
 42
1.0
 92
        8
 66
     7
 43
1.0
 76
     1
 77
     6
 78
     2
 67
     7
 79
     5
170
     0
171
     0
290
     0
174
     0
 93
        1
 44
50.0
173
     0
291
     1
 45
0.0
1001
ACAD
1000
AcDbSavedByObjectVersion
1070
     0
  0
VISUALSTYLE
  5
FF
102
{ACAD_REACTORS
330
EF
102
}
330
EF
100
AcDbVisualStyle
  2
ColorChange
 70
    16
 71
     2
 72
     2
 73
     3
 90
        0
 40
-0.6
 41
-30.0
 62
     5
 63
     8
 74
     1
 91
        4
 64
     7
 65
   257
 75
     1
175
     1
 42
1.0
 92
        8
 66
     8
 43
1.0
 76
     1
 77
     6
 78
     2
 67
     7
 79
     5
170
     0
171
     0
290
     0
174
     0
 93
        1
 44
0.0
173
     0
291
     1
 45
0.0
1001
ACAD
1000
AcDbSavedByObjectVersion
1070
     0
  0
VISUALSTYLE
  5
F8
102
{ACAD_REACTORS
330
EF
102
}
330
EF
100
AcDbVisualStyle
  2
Conceptual
 70
     9
 71
     3
 72
     2
 73
     1
 90
        0
 40
-0.6
 41
-30.0
 62
     5
 63
     7
 74
     2
 91
        2
 64
     7
 65
   257
 75
     1
175
     1
 42
40.0
 92
        8
 66
     7
 43
1.0
 76
     1
 77
     6
 78
     2
 67
     7
 79
     3
170
     0
171
     0
290
     0
174
     0
 93
        1
 44
0.0
173
     0
291
     0
 45
0.0
1001
ACAD
1000
AcDbSavedByObjectVersion
1070
     0
  0
VISUALSTYLE
  5
FA
102
{ACAD_REACTORS
330
EF
102
}
330
EF
100
AcDbVisualStyle
  2
Dim
 70
    11
 71
     2
 72
     2
 73
     1
 90
        0
 40
-0.6
 41
-30.0
 62
     5
 63
     7
 74
     1
 91
        4
 64
     7
 65
   257
 75
     1
175
     1
 42
1.0
 92
        8
 66
     7
 43
1.0
 76
     1
 77
     6
 78
     2
 67
     7
 79
     5
170
     0
171
     0
290
     0
174
     0
 93
        1
 44
-50.0
173
     0
291
     1
 45
0.0
1001
ACAD
1000
AcDbSavedByObjectVersion
1070
     0
  0
VISUALSTYLE
  5
FE
102
{ACAD_REACTORS
330
EF
102
}
330
EF
100
AcDbVisualStyle
  2
Facepattern
 70
    15
 71
     2
 72
     2
 73
     1
 90
        0
 40
-0.6
 41
-30.0
 62
     5
 63
     7
 74
     1
 91
        4
 64
     7
 65
   257
 75
     1
175
     1
 42
1.0
 92
        8
 66
     7
 43
1.0
 76
     1
 77
     6
 78
     2
 67
     7
 79
     5
170
     0
171
     0
290
     0
174
     0
 93
        1
 44
0.0
173
     0
291
     1
 45
0.0
1001
ACAD
1000
AcDbSavedByObjectVersion
1070
     0
  0
VISUALSTYLE
  5
F0
102
{ACAD_REACTORS
330
EF
102
}
330
EF
100
AcDbVisualStyle
  2
Flat
 70
     0
 71
     2
 72
     1
 73
     1
 90
        2
 40
-0.6
 41
30.0
 62
     5
 63
     7
 74
     0
 91
        4
 64
     7
 65
   257
 75
     1
175
     1
 42
1.0
 92
        8
 66
     7
 43
1.0
 76
     1
 77
     6
 78
     2
 67
     7
 79
     5
170
     0
171
     0
290
     0
174
     0
 93
        1
 44
0.0
173
     0
291
     1
 45
0.0
1001
ACAD
1000
AcDbSavedByObjectVersion
1070
     0
  0
VISUALSTYLE
  5
F1
102
{ACAD_REACTORS
330
EF
102
}
330
EF
100
AcDbVisualStyle
  2
FlatWithEdges
 70
     1
 71
     2
 72
     1
 73
     1
 90
        2
 40
-0.6
 41
30.0
 62
     5
 63
     7
 74
     1
 91
        4
 64
     7
 65
   257
 75
     1
175
     1
 42
1.0
 92
        0
 66
   257
 43
1.0
 76
     1
 77
     6
 78
     2
 67
     7
 79
     5
170
     0
171
     0
290
     0
174
     0
 93
        1
 44
0.0
173
     0
291
     1
 45
0.0
1001
ACAD
1000
AcDbSavedByObjectVersion
1070
     0
  0
VISUALSTYLE
  5
F2
102
{ACAD_REACTORS
330
EF
102
}
330
EF
100
AcDbVisualStyle
  2
Gouraud
 70
     2
 71
     2
 72
     2
 73
     1
 90
        2
 40
-0.6
 41
30.0
 62
     5
 63
     7
 74
     0
 91
        4
 64
     7
 65
   257
 75
     1
175
     1
 42
1.0
 92
        0
 66
     7
 43
1.0
 76
     1
 77
     6
 78
     2
 67
     7
 79
     5
170
     0
171
     0
290
     0
174
     0
 93
        1
 44
0.0
173
     0
291
     1
 45
0.0
1001
ACAD
1000
AcDbSavedByObjectVersion
1070
     0
  0
VISUALSTYLE
  5
F3
102
{ACAD_REACTORS
330
EF
102
}
330
EF
100
AcDbVisualStyle
  2
GouraudWithEdges
 70
     3
 71
     2
 72
     2
 73
     1
 90
        2
 40
-0.6
 41
30.0
 62
     5
 63
     7
 74
     1
 91
        4
 64
     7
 65
   257
 75
     1
175
     1
 42
1.0
 92
        0
 66
   257
 43
1.0
 76
     1
 77
     6
 78
     2
 67
     7
 79
     5
170
     0
171
     0
290
     0
174
     0
 93
        1
 44
0.0
173
     0
291
     1
 45
0.0
1001
ACAD
1000
AcDbSavedByObjectVersion
1070
     0
  0
VISUALSTYLE
  5
FD
102
{ACAD_REACTORS
330
EF
102
}
330
EF
100
AcDbVisualStyle
  2
Linepattern
 70
    14
 71
     2
 72
     2
 73
     1
 90
        0
 40
-0.6
 41
-30.0
 62
     5
 63
     7
 74
     1
 91
        4
 64
     7
 65
   257
 75
     7
175
     7
 42
1.0
 92
        8
 66
     7
 43
1.0
 76
     1
 77
     6
 78
     2
 67
     7
 79
     5
170
     0
171
     0
290
     0
174
     0
 93
        1
 44
0.0
173
     0
291
     1
 45
0.0
1001
ACAD
1000
AcDbSavedByObjectVersion
1070
     0
  0
VISUALSTYLE
  5
F9
102
{ACAD_REACTORS
330
EF
102
}
330
EF
100
AcDbVisualStyle
  2
Realistic
 70
     8
 71
     2
 72
     2
 73
     1
 90
        0
 40
-0.6
 41
-30.0
 62
     5
 63
     7
 74
     1
 91
        0
 64
     7
 65
   257
 75
     1
175
     1
 42
1.0
 92
        8
 66
     8
 43
1.0
 76
     1
 77
     6
 78
     2
 67
     7
 79
     5
170
     0
171
     0
290
     0
174
     0
 93
       13
 44
0.0
173
     0
291
     0
 45
0.0
1001
ACAD
1000
AcDbSavedByObjectVersion
1070
     0
  0
VISUALSTYLE
  5
FC
102
{ACAD_REACTORS
330
EF
102
}
330
EF
100
AcDbVisualStyle
  2
Thicken
 70
    13
 71
     2
 72
     2
 73
     1
 90
        0
 40
-0.6
 41
-30.0
 62
     5
 63
     7
 74
     1
 91
        4
 64
     7
 65
   257
 75
     1
175
     1
 42
1.0
 92
       12
 66
     7
 43
1.0
 76
     1
 77
     6
 78
     2
 67
     7
 79
     5
170
     0
171
     0
290
     0
174
     0
 93
        1
 44
0.0
173
     0
291
     1
 45
0.0
1001
ACAD
1000
AcDbSavedByObjectVersion
1070
     0
  0
DICTIONARYVAR
  5
146
102
{ACAD_REACTORS
330
5E
102
}
330
5E
100
DictionaryVariables
280
     0
  1
1:1
  0
DICTIONARYVAR
  5
145
102
{ACAD_REACTORS
330
5E
102
}
330
5E
100
DictionaryVariables
280
     0
  1
STANDARD
  0
DICTIONARYVAR
  5
84
102
{ACAD_REACTORS
330
5E
102
}
330
5E
100
DictionaryVariables
280
     0
  1
STANDARD
  0
DICTIONARYVAR
  5
5F
102
{ACAD_REACTORS
330
5E
102
}
330
5E
100
DictionaryVariables
280
     0
  1
2
  0
DICTIONARYVAR
  5
63
102
{ACAD_REACTORS
330
5E
102
}
330
5E
100
DictionaryVariables
280
     0
  1
1
  0
DICTIONARYVAR
  5
3BF
102
{ACAD_REACTORS
330
5E
102
}
330
5E
100
DictionaryVariables
280
     0
  1
0
  0
DICTIONARYVAR
  5
3BD
102
{ACAD_REACTORS
330
5E
102
}
330
5E
100
DictionaryVariables
280
     0
  1
2
  0
DICTIONARYVAR
  5
3BC
102
{ACAD_REACTORS
330
5E
102
}
330
5E
100
DictionaryVariables
280
     0
  1
1
  0
DICTIONARYVAR
  5
3C1
102
{ACAD_REACTORS
330
5E
102
}
330
5E
100
DictionaryVariables
280
     0
  1
80.000000
  0
DICTIONARYVAR
  5
3C0
102
{ACAD_REACTORS
330
5E
102
}
330
5E
100
DictionaryVariables
280
     0
  1
5.000000
  0
DICTIONARYVAR
  5
3BE
102
{ACAD_REACTORS
330
5E
102
}
330
5E
100
DictionaryVariables
280
     0
  1
127
  0
DICTIONARY
  5
3C7
330
D3
100
AcDbDictionary
280
     1
281
     1
  3
ACAD_XREC_ROUNDTRIP
360
3C8
  0
DICTIONARY
  5
3C9
330
D7
100
AcDbDictionary
280
     1
281
     1
  3
ACAD_XREC_ROUNDTRIP
360
3CA
  0
DICTIONARY
  5
3C4
330
22
100
AcDbDictionary
280
     1
281
     1
  3
ACAD_XREC_ROUNDTRIP
360
3C5
  0
DICTIONARY
  5
3CD
330
ED
100
AcDbDictionary
280
     1
281
     1
  3
ACAD_XREC_ROUNDTRIP
360
3CE
  0
DICTIONARY
  5
3CB
330
EC
100
AcDbDictionary
280
     1
281
     1
  3
ACAD_XREC_ROUNDTRIP
360
3CC
  0
DICTIONARY
  5
173
330
EE
100
AcDbDictionary
280
     1
281
     1
  3
ACAD_XREC_ROUNDTRIP
360
3CF
  3
BUMPTILE
360
175
  3
DIFFUSETILE
360
174
  3
OPACITYTILE
360
176
  3
REFLECTIONTILE
360
177
  0
DICTIONARY
  5
162
330
7F
100
AcDbDictionary
280
     1
281
     1
  3
ACAD_ROUNDTRIP_2008_TABLESTYLE_CELLSTYLEMAP
360
3C2
  3
ACAD_XREC_ROUNDTRIP
360
3C6
  0
XRECORD
  5
3C8
102
{ACAD_REACTORS
330
3C7
102
}
330
3C7
100
AcDbXrecord
280
     1
102
SHADEPLOT
 70
     0
102
SHADEPLOTRESLEVEL
 70
     2
102
SHADEPLOTCUSTOMDPI
 70
   300
  0
XRECORD
  5
3CA
102
{ACAD_REACTORS
330
3C9
102
}
330
3C9
100
AcDbXrecord
280
     1
102
SHADEPLOT
 70
     0
102
SHADEPLOTRESLEVEL
 70
     2
102
SHADEPLOTCUSTOMDPI
 70
   300
  0
XRECORD
  5
3C5
102
{ACAD_REACTORS
330
3C4
102
}
330
3C4
100
AcDbXrecord
280
     1
102
SHADEPLOT
 70
     0
102
SHADEPLOTRESLEVEL
 70
     2
102
SHADEPLOTCUSTOMDPI
 70
   300
  0
XRECORD
  5
3CE
102
{ACAD_REACTORS
330
3CD
102
}
330
3CD
100
AcDbXrecord
280
     1
102
MATERIAL
148
0.0
149
0.0
149
0.0
 93
        0
 94
       63
282
     0
 72
     1
 77
     1
171
     1
175
     1
179
     1
273
     0
  0
XRECORD
  5
3CC
102
{ACAD_REACTORS
330
3CB
102
}
330
3CB
100
AcDbXrecord
280
     1
102
MATERIAL
148
0.0
149
0.0
149
0.0
 93
        0
 94
       63
282
     0
 72
     1
 77
     1
171
     1
175
     1
179
     1
273
     0
  0
XRECORD
  5
3CF
102
{ACAD_REACTORS
330
173
102
}
330
173
100
AcDbXrecord
280
     1
102
MATERIAL
148
0.0
149
0.0
149
0.0
 93
        0
 94
       63
282
     0
 72
     1
 77
     1
171
     1
175
     1
179
     1
273
     0
  0
XRECORD
  5
175
102
{ACAD_REACTORS
330
173
102
}
330
173
100
AcDbXrecord
280
     1
270
     1
271
     1
  0
XRECORD
  5
174
102
{ACAD_REACTORS
330
173
102
}
330
173
100
AcDbXrecord
280
     1
270
     1
271
     1
  0
XRECORD
  5
176
102
{ACAD_REACTORS
330
173
102
}
330
173
100
AcDbXrecord
280
     1
270
     1
271
     1
  0
XRECORD
  5
177
102
{ACAD_REACTORS
330
173
102
}
330
173
100
AcDbXrecord
280
     1
270
     1
271
     1
  0
CELLSTYLEMAP
  5
3C2
102
{ACAD_REACTORS
330
162
102
}
330
162
100
AcDbCellStyleMap
 90
        3
300
CELLSTYLE
  1
TABLEFORMAT_BEGIN
 90
        5
170
     1
 91
        0
 92
    32768
 62
   257
 93
        1
300
CONTENTFORMAT
  1
CONTENTFORMAT_BEGIN
 90
        0
 91
        0
 92
      512
 93
        0
300

 40
0.0
140
1.0
 94
        5
 62
     0
340
11
144
6.0
309
CONTENTFORMAT_END
171
     1
301
MARGIN
  1
CELLMARGIN_BEGIN
 40
1.5
 40
1.5
 40
1.5
 40
1.5
 40
4.5
 40
4.5
309
CELLMARGIN_END
 94
        6
 95
        1
302
GRIDFORMAT
  1
GRIDFORMAT_BEGIN
 90
        0
 91
        1
 62
     0
 92
       -2
340
14
 93
        0
 40
1.125
309
GRIDFORMAT_END
 95
        2
302
GRIDFORMAT
  1
GRIDFORMAT_BEGIN
 90
        0
 91
        1
 62
     0
 92
       -2
340
14
 93
        0
 40
1.125
309
GRIDFORMAT_END
 95
        4
302
GRIDFORMAT
  1
GRIDFORMAT_BEGIN
 90
        0
 91
        1
 62
     0
 92
       -2
340
14
 93
        0
 40
1.125
309
GRIDFORMAT_END
 95
        8
302
GRIDFORMAT
  1
GRIDFORMAT_BEGIN
 90
        0
 91
        1
 62
     0
 92
       -2
340
14
 93
        0
 40
1.125
309
GRIDFORMAT_END
 95
       16
302
GRIDFORMAT
  1
GRIDFORMAT_BEGIN
 90
        0
 91
        1
 62
     0
 92
       -2
340
14
 93
        0
 40
1.125
309
GRIDFORMAT_END
 95
       32
302
GRIDFORMAT
  1
GRIDFORMAT_BEGIN
 90
        0
 91
        1
 62
     0
 92
       -2
340
14
 93
        0
 40
1.125
309
GRIDFORMAT_END
309
TABLEFORMAT_END
  1
CELLSTYLE_BEGIN
 90
        1
 91
        1
300
_TITLE
309
CELLSTYLE_END
300
CELLSTYLE
  1
TABLEFORMAT_BEGIN
 90
        5
170
     1
 91
        0
 92
        0
 62
   257
 93
        1
300
CONTENTFORMAT
  1
CONTENTFORMAT_BEGIN
 90
        0
 91
        0
 92
      512
 93
        0
300

 40
0.0
140
1.0
 94
        5
 62
     0
340
11
144
4.5
309
CONTENTFORMAT_END
171
     1
301
MARGIN
  1
CELLMARGIN_BEGIN
 40
1.5
 40
1.5
 40
1.5
 40
1.5
 40
4.5
 40
4.5
309
CELLMARGIN_END
 94
        6
 95
        1
302
GRIDFORMAT
  1
GRIDFORMAT_BEGIN
 90
        0
 91
        1
 62
     0
 92
       -2
340
14
 93
        0
 40
1.125
309
GRIDFORMAT_END
 95
        2
302
GRIDFORMAT
  1
GRIDFORMAT_BEGIN
 90
        0
 91
        1
 62
     0
 92
       -2
340
14
 93
        0
 40
1.125
309
GRIDFORMAT_END
 95
        4
302
GRIDFORMAT
  1
GRIDFORMAT_BEGIN
 90
        0
 91
        1
 62
     0
 92
       -2
340
14
 93
        0
 40
1.125
309
GRIDFORMAT_END
 95
        8
302
GRIDFORMAT
  1
GRIDFORMAT_BEGIN
 90
        0
 91
        1
 62
     0
 92
       -2
340
14
 93
        0
 40
1.125
309
GRIDFORMAT_END
 95
       16
302
GRIDFORMAT
  1
GRIDFORMAT_BEGIN
 90
        0
 91
        1
 62
     0
 92
       -2
340
14
 93
        0
 40
1.125
309
GRIDFORMAT_END
 95
       32
302
GRIDFORMAT
  1
GRIDFORMAT_BEGIN
 90
        0
 91
        1
 62
     0
 92
       -2
340
14
 93
        0
 40
1.125
309
GRIDFORMAT_END
309
TABLEFORMAT_END
  1
CELLSTYLE_BEGIN
 90
        2
 91
        1
300
_HEADER
309
CELLSTYLE_END
300
CELLSTYLE
  1
TABLEFORMAT_BEGIN
 90
        5
170
     1
 91
        0
 92
        0
 62
   257
 93
        1
300
CONTENTFORMAT
  1
CONTENTFORMAT_BEGIN
 90
        0
 91
        0
 92
      512
 93
        0
300

 40
0.0
140
1.0
 94
        2
 62
     0
340
11
144
4.5
309
CONTENTFORMAT_END
171
     1
301
MARGIN
  1
CELLMARGIN_BEGIN
 40
1.5
 40
1.5
 40
1.5
 40
1.5
 40
4.5
 40
4.5
309
CELLMARGIN_END
 94
        6
 95
        1
302
GRIDFORMAT
  1
GRIDFORMAT_BEGIN
 90
        0
 91
        1
 62
     0
 92
       -2
340
14
 93
        0
 40
1.125
309
GRIDFORMAT_END
 95
        2
302
GRIDFORMAT
  1
GRIDFORMAT_BEGIN
 90
        0
 91
        1
 62
     0
 92
       -2
340
14
 93
        0
 40
1.125
309
GRIDFORMAT_END
 95
        4
302
GRIDFORMAT
  1
GRIDFORMAT_BEGIN
 90
        0
 91
        1
 62
     0
 92
       -2
340
14
 93
        0
 40
1.125
309
GRIDFORMAT_END
 95
        8
302
GRIDFORMAT
  1
GRIDFORMAT_BEGIN
 90
        0
 91
        1
 62
     0
 92
       -2
340
14
 93
        0
 40
1.125
309
GRIDFORMAT_END
 95
       16
302
GRIDFORMAT
  1
GRIDFORMAT_BEGIN
 90
        0
 91
        1
 62
     0
 92
       -2
340
14
 93
        0
 40
1.125
309
GRIDFORMAT_END
 95
       32
302
GRIDFORMAT
  1
GRIDFORMAT_BEGIN
 90
        0
 91
        1
 62
     0
 92
       -2
340
14
 93
        0
 40
1.125
309
GRIDFORMAT_END
309
TABLEFORMAT_END
  1
CELLSTYLE_BEGIN
 90
        3
 91
        2
300
_DATA
309
CELLSTYLE_END
  0
XRECORD
  5
3C6
102
{ACAD_REACTORS
330
162
102
}
330
162
100
AcDbXrecord
280
     1
102
ACAD_ROUNDTRIP_PRE2007_TABLESTYLE
 90
      512
 91
        0
  1

 92
      512
 93
        0
  2

 94
      512
 95
        0
  3

  0
ENDSEC
  0
EOF
