  0
SECTION
  2
HEADER
  9
$ACADVER
  1
AC1015
  9
$ACADMAINTVER
 70
    20
  9
$DWGCODEPAGE
  3
ANSI_1254
  9
$INSBASE
 10
0.0
 20
0.0
 30
0.0
  9
$EXTMIN
 10
1934.868181342598
 20
1050.977252934967
 30
0.0
  9
$EXTMAX
 10
2002.330443545664
 20
1092.079487702292
 30
0.0
  9
$LIMMIN
 10
0.0
 20
0.0
  9
$LIMMAX
 10
420.0
 20
297.0
  9
$ORTHOMODE
 70
     0
  9
$REGENMODE
 70
     1
  9
$FILLMODE
 70
     1
  9
$QTEXTMODE
 70
     0
  9
$MIRRTEXT
 70
     0
  9
$LTSCALE
 40
1.0
  9
$ATTMODE
 70
     1
  9
$TEXTSIZE
 40
2.5
  9
$TRACEWID
 40
1.0
  9
$TEXTSTYLE
  7
Standard
  9
$CLAYER
  8
0
  9
$CELTYPE
  6
ByLayer
  9
$CECOLOR
 62
   256
  9
$CELTSCALE
 40
1.0
  9
$DISPSILH
 70
     0
  9
$DIMSCALE
 40
1.0
  9
$DIMASZ
 40
2.5
  9
$DIMEXO
 40
0.625
  9
$DIMDLI
 40
3.75
  9
$DIMRND
 40
0.0
  9
$DIMDLE
 40
0.0
  9
$DIMEXE
 40
1.25
  9
$DIMTP
 40
0.0
  9
$DIMTM
 40
0.0
  9
$DIMTXT
 40
2.5
  9
$DIMCEN
 40
2.5
  9
$DIMTSZ
 40
0.0
  9
$DIMTOL
 70
     0
  9
$DIMLIM
 70
     0
  9
$DIMTIH
 70
     0
  9
$DIMTOH
 70
     0
  9
$DIMSE1
 70
     0
  9
$DIMSE2
 70
     0
  9
$DIMTAD
 70
     1
  9
$DIMZIN
 70
     8
  9
$DIMBLK
  1

  9
$DIMASO
 70
     1
  9
$DIMSHO
 70
     1
  9
$DIMPOST
  1

  9
$DIMAPOST
  1

  9
$DIMALT
 70
     0
  9
$DIMALTD
 70
     3
  9
$DIMALTF
 40
0.03937007874016
  9
$DIMLFAC
 40
1.0
  9
$DIMTOFL
 70
     1
  9
$DIMTVP
 40
0.0
  9
$DIMTIX
 70
     0
  9
$DIMSOXD
 70
     0
  9
$DIMSAH
 70
     0
  9
$DIMBLK1
  1

  9
$DIMBLK2
  1

  9
$DIMSTYLE
  2
ISO-25
  9
$DIMCLRD
 70
     0
  9
$DIMCLRE
 70
     0
  9
$DIMCLRT
 70
     0
  9
$DIMTFAC
 40
1.0
  9
$DIMGAP
 40
0.625
  9
$DIMJUST
 70
     0
  9
$DIMSD1
 70
     0
  9
$DIMSD2
 70
     0
  9
$DIMTOLJ
 70
     0
  9
$DIMTZIN
 70
     8
  9
$DIMALTZ
 70
     0
  9
$DIMALTTZ
 70
     0
  9
$DIMUPT
 70
     0
  9
$DIMDEC
 70
     2
  9
$DIMTDEC
 70
     2
  9
$DIMALTU
 70
     2
  9
$DIMALTTD
 70
     3
  9
$DIMTXSTY
  7
Standard
  9
$DIMAUNIT
 70
     0
  9
$DIMADEC
 70
     0
  9
$DIMALTRND
 40
0.0
  9
$DIMAZIN
 70
     0
  9
$DIMDSEP
 70
    44
  9
$DIMATFIT
 70
     3
  9
$DIMFRAC
 70
     0
  9
$DIMLDRBLK
  1

  9
$DIMLUNIT
 70
     2
  9
$DIMLWD
 70
    -2
  9
$DIMLWE
 70
    -2
  9
$DIMTMOVE
 70
     0
  9
$LUNITS
 70
     2
  9
$LUPREC
 70
     4
  9
$SKETCHINC
 40
1.0
  9
$FILLETRAD
 40
0.0
  9
$AUNITS
 70
     0
  9
$AUPREC
 70
     0
  9
$MENU
  1
.
  9
$ELEVATION
 40
0.0
  9
$PELEVATION
 40
0.0
  9
$THICKNESS
 40
0.0
  9
$LIMCHECK
 70
     0
  9
$CHAMFERA
 40
0.0
  9
$CHAMFERB
 40
0.0
  9
$CHAMFERC
 40
0.0
  9
$CHAMFERD
 40
0.0
  9
$SKPOLY
 70
     0
  9
$TDCREATE
 40
2458557.382925000
  9
$TDUCREATE
 40
2458557.257925000
  9
$TDUPDATE
 40
2459067.652222430
  9
$TDUUPDATE
 40
2459067.527222431
  9
$TDINDWG
 40
0.0003652083
  9
$TDUSRTIMER
 40
0.0003652083
  9
$USRTIMER
 70
     1
  9
$ANGBASE
 50
0.0
  9
$ANGDIR
 70
     0
  9
$PDMODE
 70
     0
  9
$PDSIZE
 40
0.0
  9
$PLINEWID
 40
0.0
  9
$SPLFRAME
 70
     0
  9
$SPLINETYPE
 70
     6
  9
$SPLINESEGS
 70
     8
  9
$HANDSEED
  5
314
  9
$SURFTAB1
 70
     6
  9
$SURFTAB2
 70
     6
  9
$SURFTYPE
 70
     6
  9
$SURFU
 70
     6
  9
$SURFV
 70
     6
  9
$UCSBASE
  2

  9
$UCSNAME
  2

  9
$UCSORG
 10
0.0
 20
0.0
 30
0.0
  9
$UCSXDIR
 10
1.0
 20
0.0
 30
0.0
  9
$UCSYDIR
 10
0.0
 20
1.0
 30
0.0
  9
$UCSORTHOREF
  2

  9
$UCSORTHOVIEW
 70
     0
  9
$UCSORGTOP
 10
0.0
 20
0.0
 30
0.0
  9
$UCSORGBOTTOM
 10
0.0
 20
0.0
 30
0.0
  9
$UCSORGLEFT
 10
0.0
 20
0.0
 30
0.0
  9
$UCSORGRIGHT
 10
0.0
 20
0.0
 30
0.0
  9
$UCSORGFRONT
 10
0.0
 20
0.0
 30
0.0
  9
$UCSORGBACK
 10
0.0
 20
0.0
 30
0.0
  9
$PUCSBASE
  2

  9
$PUCSNAME
  2

  9
$PUCSORG
 10
0.0
 20
0.0
 30
0.0
  9
$PUCSXDIR
 10
1.0
 20
0.0
 30
0.0
  9
$PUCSYDIR
 10
0.0
 20
1.0
 30
0.0
  9
$PUCSORTHOREF
  2

  9
$PUCSORTHOVIEW
 70
     0
  9
$PUCSORGTOP
 10
0.0
 20
0.0
 30
0.0
  9
$PUCSORGBOTTOM
 10
0.0
 20
0.0
 30
0.0
  9
$PUCSORGLEFT
 10
0.0
 20
0.0
 30
0.0
  9
$PUCSORGRIGHT
 10
0.0
 20
0.0
 30
0.0
  9
$PUCSORGFRONT
 10
0.0
 20
0.0
 30
0.0
  9
$PUCSORGBACK
 10
0.0
 20
0.0
 30
0.0
  9
$USERI1
 70
     0
  9
$USERI2
 70
     0
  9
$USERI3
 70
     0
  9
$USERI4
 70
     0
  9
$USERI5
 70
     0
  9
$USERR1
 40
0.0
  9
$USERR2
 40
0.0
  9
$USERR3
 40
0.0
  9
$USERR4
 40
0.0
  9
$USERR5
 40
0.0
  9
$WORLDVIEW
 70
     1
  9
$SHADEDGE
 70
     3
  9
$SHADEDIF
 70
    70
  9
$TILEMODE
 70
     1
  9
$MAXACTVP
 70
    64
  9
$PINSBASE
 10
0.0
 20
0.0
 30
0.0
  9
$PLIMCHECK
 70
     0
  9
$PEXTMIN
 10
0.0
 20
0.0
 30
0.0
  9
$PEXTMAX
 10
0.0
 20
0.0
 30
0.0
  9
$PLIMMIN
 10
0.0
 20
0.0
  9
$PLIMMAX
 10
12.0
 20
9.0
  9
$UNITMODE
 70
     0
  9
$VISRETAIN
 70
     1
  9
$PLINEGEN
 70
     0
  9
$PSLTSCALE
 70
     1
  9
$TREEDEPTH
 70
  3020
  9
$CMLSTYLE
  2
Standard
  9
$CMLJUST
 70
     0
  9
$CMLSCALE
 40
20.0
  9
$PROXYGRAPHICS
 70
     1
  9
$MEASUREMENT
 70
     1
  9
$CELWEIGHT
370
    -1
  9
$ENDCAPS
280
     0
  9
$JOINSTYLE
280
     0
  9
$LWDISPLAY
290
     0
  9
$INSUNITS
 70
     4
  9
$HYPERLINKBASE
  1

  9
$STYLESHEET
  1

  9
$XEDIT
290
     1
  9
$CEPSNTYPE
380
     0
  9
$PSTYLEMODE
290
     1
  9
$FINGERPRINTGUID
  2
{839D26D6-28EF-43DA-B236-5D90FD429424}
  9
$VERSIONGUID
  2
{EE7CC749-7089-48A1-9725-761B91389B7C}
  9
$EXTNAMES
290
     1
  9
$PSVPSCALE
 40
0.0
  9
$OLESTARTUP
290
     0
  0
ENDSEC
  0
SECTION
  2
CLASSES
  0
CLASS
  1
ACDBDICTIONARYWDFLT
  2
AcDbDictionaryWithDefault
  3
ObjectDBX Classes
 90
        0
280
     0
281
     0
  0
CLASS
  1
ACDBPLACEHOLDER
  2
AcDbPlaceHolder
  3
ObjectDBX Classes
 90
        0
280
     0
281
     0
  0
CLASS
  1
LAYOUT
  2
AcDbLayout
  3
ObjectDBX Classes
 90
        0
280
     0
281
     0
  0
CLASS
  1
DICTIONARYVAR
  2
AcDbDictionaryVar
  3
ObjectDBX Classes
 90
        0
280
     0
281
     0
  0
CLASS
  1
TABLESTYLE
  2
AcDbTableStyle
  3
ObjectDBX Classes
 90
     4095
280
     0
281
     0
  0
CLASS
  1
MATERIAL
  2
AcDbMaterial
  3
ObjectDBX Classes
 90
     1153
280
     0
281
     0
  0
CLASS
  1
VISUALSTYLE
  2
AcDbVisualStyle
  3
ObjectDBX Classes
 90
     4095
280
     0
281
     0
  0
CLASS
  1
SCALE
  2
AcDbScale
  3
ObjectDBX Classes
 90
     1153
280
     0
281
     0
  0
CLASS
  1
MLEADERSTYLE
  2
AcDbMLeaderStyle
  3
ACDB_MLEADERSTYLE_CLASS
 90
     4095
280
     0
281
     0
  0
CLASS
  1
CELLSTYLEMAP
  2
AcDbCellStyleMap
  3
ObjectDBX Classes
 90
     1152
280
     0
281
     0
  0
ENDSEC
  0
SECTION
  2
TABLES
  0
TABLE
  2
VPORT
  5
8
330
0
100
AcDbSymbolTable
 70
     1
  0
VPORT
  5
EA
330
8
100
AcDbSymbolTableRecord
100
AcDbViewportTableRecord
  2
*Active
 70
     0
 10
0.0
 20
0.0
 11
1.0
 21
1.0
 12
1961.140175971961
 22
1070.444425986264
 13
0.0
 23
0.0
 14
10.0
 24
10.0
 15
10.0
 25
10.0
 16
0.0
 26
0.0
 36
1.0
 17
0.0
 27
0.0
 37
0.0
 40
73.85207846568031
 41
1.903110047846889
 42
50.0
 43
0.0
 44
0.0
 50
0.0
 51
0.0
 71
     0
 72
  1000
 73
     1
 74
     3
 75
     0
 76
     0
 77
     0
 78
     0
281
     0
 65
     1
110
0.0
120
0.0
130
0.0
111
1.0
121
0.0
131
0.0
112
0.0
122
1.0
132
0.0
 79
     0
146
0.0
  0
ENDTAB
  0
TABLE
  2
LTYPE
  5
5
330
0
100
AcDbSymbolTable
 70
     1
  0
LTYPE
  5
14
330
5
100
AcDbSymbolTableRecord
100
AcDbLinetypeTableRecord
  2
ByBlock
 70
     0
  3

 72
    65
 73
     0
 40
0.0
  0
LTYPE
  5
15
330
5
100
AcDbSymbolTableRecord
100
AcDbLinetypeTableRecord
  2
ByLayer
 70
     0
  3

 72
    65
 73
     0
 40
0.0
  0
LTYPE
  5
16
330
5
100
AcDbSymbolTableRecord
100
AcDbLinetypeTableRecord
  2
Continuous
 70
     0
  3
Solid line
 72
    65
 73
     0
 40
0.0
  0
ENDTAB
  0
TABLE
  2
LAYER
  5
2
330
0
100
AcDbSymbolTable
 70
     1
  0
LAYER
  5
10
102
{ACAD_XDICTIONARY
360
13C
102
}
330
2
100
AcDbSymbolTableRecord
100
AcDbLayerTableRecord
  2
0
 70
     0
 62
     7
  6
Continuous
370
    -3
390
F
  0
ENDTAB
  0
TABLE
  2
STYLE
  5
3
330
0
100
AcDbSymbolTable
 70
     2
  0
STYLE
  5
11
330
3
100
AcDbSymbolTableRecord
100
AcDbTextStyleTableRecord
  2
Standard
 70
     0
 40
0.0
 41
1.0
 50
0.0
 71
     0
 42
2.5
  3
txt
  4

  0
STYLE
  5
132
330
3
100
AcDbSymbolTableRecord
100
AcDbTextStyleTableRecord
  2
Annotative
 70
     0
 40
0.0
 41
1.0
 50
0.0
 71
     0
 42
2.5
  3
txt.shx
  4

1001
AcadAnnotative
1000
AnnotativeData
1002
{
1070
     1
1070
     1
1002
}
  0
ENDTAB
  0
TABLE
  2
VIEW
  5
6
330
0
100
AcDbSymbolTable
 70
     0
  0
ENDTAB
  0
TABLE
  2
UCS
  5
7
330
0
100
AcDbSymbolTable
 70
     0
  0
ENDTAB
  0
TABLE
  2
APPID
  5
9
330
0
100
AcDbSymbolTable
 70
     7
  0
APPID
  5
12
330
9
100
AcDbSymbolTableRecord
100
AcDbRegAppTableRecord
  2
ACAD
 70
     0
  0
APPID
  5
9E
330
9
100
AcDbSymbolTableRecord
100
AcDbRegAppTableRecord
  2
ACAD_PSEXT
 70
     0
  0
APPID
  5
133
330
9
100
AcDbSymbolTableRecord
100
AcDbRegAppTableRecord
  2
AcadAnnoPO
 70
     0
  0
APPID
  5
134
330
9
100
AcDbSymbolTableRecord
100
AcDbRegAppTableRecord
  2
AcadAnnotative
 70
     0
  0
APPID
  5
135
330
9
100
AcDbSymbolTableRecord
100
AcDbRegAppTableRecord
  2
ACAD_DSTYLE_DIMJAG
 70
     0
  0
APPID
  5
136
330
9
100
AcDbSymbolTableRecord
100
AcDbRegAppTableRecord
  2
ACAD_DSTYLE_DIMTALN
 70
     0
  0
APPID
  5
165
330
9
100
AcDbSymbolTableRecord
100
AcDbRegAppTableRecord
  2
ACAD_MLEADERVER
 70
     0
  0
ENDTAB
  0
TABLE
  2
DIMSTYLE
  5
A
330
0
100
AcDbSymbolTable
 70
     2
100
AcDbDimStyleTable
 71
     2
340
27
340
137
  0
DIMSTYLE
105
27
330
A
100
AcDbSymbolTableRecord
100
AcDbDimStyleTableRecord
  2
ISO-25
 70
     0
 41
2.5
 42
0.625
 43
3.75
 44
1.25
 73
     0
 74
     0
 77
     1
 78
     8
140
2.5
141
2.5
143
0.03937007874016
147
0.625
171
     3
172
     1
271
     2
272
     2
274
     3
278
    44
283
     0
284
     8
340
11
  0
DIMSTYLE
105
137
330
A
100
AcDbSymbolTableRecord
100
AcDbDimStyleTableRecord
  2
Annotative
 70
     0
 40
0.0
 41
2.5
 42
0.625
 43
3.75
 44
1.25
 73
     0
 74
     0
 77
     1
 78
     8
140
2.5
141
2.5
143
0.03937007874016
147
0.625
171
     3
172
     1
271
     2
272
     2
274
     3
278
    44
283
     0
284
     8
340
11
1001
AcadAnnotative
1000
AnnotativeData
1002
{
1070
     1
1070
     1
1002
}
1001
ACAD_DSTYLE_DIMJAG
1070
   388
1040
1.5
1001
ACAD_DSTYLE_DIMTALN
1070
   392
1070
     0
  0
ENDTAB
  0
TABLE
  2
BLOCK_RECORD
  5
1
330
0
100
AcDbSymbolTable
 70
     6
  0
BLOCK_RECORD
  5
1F
330
1
100
AcDbSymbolTableRecord
100
AcDbBlockTableRecord
  2
*Model_Space
340
22
  0
BLOCK_RECORD
  5
D2
330
1
100
AcDbSymbolTableRecord
100
AcDbBlockTableRecord
  2
*Paper_Space
340
D3
  0
BLOCK_RECORD
  5
D6
330
1
100
AcDbSymbolTableRecord
100
AcDbBlockTableRecord
  2
*Paper_Space0
340
D7
  0
BLOCK_RECORD
  5
1AD
330
1
100
AcDbSymbolTableRecord
100
AcDbBlockTableRecord
  2
SW_CENTERMARKSYMBOL_0
340
0
102
{BLKREFS
331
296
102
}
  0
BLOCK_RECORD
  5
282
330
1
100
AcDbSymbolTableRecord
100
AcDbBlockTableRecord
  2
1
340
0
310
2800000020000000200000000100080000000000000400000000000000000000000000000000000000000000000080000080000000808000800000008000800080800000C0C0C000C0DCC000F0CAA6000020400000206000002080000020A0000020C0000020E00000400000004020000040400000406000004080000040A0
310
000040C0000040E00000600000006020000060400000606000006080000060A0000060C0000060E00000800000008020000080400000806000008080000080A0000080C0000080E00000A0000000A0200000A0400000A0600000A0800000A0A00000A0C00000A0E00000C0000000C0200000C0400000C0600000C0800000C0
310
A00000C0C00000C0E00000E0000000E0200000E0400000E0600000E0800000E0A00000E0C00000E0E00040000000400020004000400040006000400080004000A0004000C0004000E00040200000402020004020400040206000402080004020A0004020C0004020E000404000004040200040404000404060004040800040
310
40A0004040C0004040E00040600000406020004060400040606000406080004060A0004060C0004060E00040800000408020004080400040806000408080004080A0004080C0004080E00040A0000040A0200040A0400040A0600040A0800040A0A00040A0C00040A0E00040C0000040C0200040C0400040C0600040C08000
310
40C0A00040C0C00040C0E00040E0000040E0200040E0400040E0600040E0800040E0A00040E0C00040E0E00080000000800020008000400080006000800080008000A0008000C0008000E00080200000802020008020400080206000802080008020A0008020C0008020E00080400000804020008040400080406000804080
310
008040A0008040C0008040E00080600000806020008060400080606000806080008060A0008060C0008060E00080800000808020008080400080806000808080008080A0008080C0008080E00080A0000080A0200080A0400080A0600080A0800080A0A00080A0C00080A0E00080C0000080C0200080C0400080C0600080C0
310
800080C0A00080C0C00080C0E00080E0000080E0200080E0400080E0600080E0800080E0A00080E0C00080E0E000C0000000C0002000C0004000C0006000C0008000C000A000C000C000C000E000C0200000C0202000C0204000C0206000C0208000C020A000C020C000C020E000C0400000C0402000C0404000C0406000C0
310
408000C040A000C040C000C040E000C0600000C0602000C0604000C0606000C0608000C060A000C060C000C060E000C0800000C0802000C0804000C0806000C0808000C080A000C080C000C080E000C0A00000C0A02000C0A04000C0A06000C0A08000C0A0A000C0A0C000C0A0E000C0C00000C0C02000C0C04000C0C06000
310
C0C08000C0C0A000F0FBFF00A4A0A000808080000000FF0000FF000000FFFF00FF000000FF00FF00FFFF0000FFFFFF00000000000000000000000000000000000000000000000000000000000000000000000000000000000000000000000000FF000000000000000000000000000000000000000000000000000000000000
310
00FF00000000000000000000000000000000000000000000000000000000000000FF0000000000000000000000000000000000000000000000000000000000FFFFFF0000000000000000000000000000000000000000000000000000FFFFFFFFFFFFFFFFFFFF0000000000000000000000000000000000000000FFFF000000
310
0000FF000000FFFFFF00000000000000000000000000000000FFFF00000000000000FF000000000000FFFF0000000000000000000000000000FF0000000000000000FF00000000000000FF00000000000000000000000000FFFF00000000FFFFFFFFFFFFFFFF00000000FFFF000000000000000000000000FF00000000FFFF
310
000000FF0000FFFF00000000FF000000000000000000000000FF000000FFFF00000000FF000000FFFF000000FFFF00000000000000000000FF00000000FF00000000000000000000FF00000000FF00000000000000000000FF000000FF000000000000FF0000000000FF000000FF000000000000000000FF00000000FF0000
310
00000000FF0000000000FF00000000FF0000000000000000FF000000FFFF000000000000FF0000000000FFFF000000FF0000000000FFFFFFFFFFFFFFFFFFFFFF00FFFFFFFFFFFF00FFFFFFFFFFFFFFFFFFFFFF0000000000FFFF000000FF000000000000FF0000000000FF000000FFFF000000000000000000FF000000FFFF
310
0000000000FF00000000FFFF000000FF00000000000000000000FF00000000FF00000000000000000000FF00000000FF0000000000000000000000FF000000FFFF00000000FF000000FFFF000000FF000000000000000000000000FF00000000FFFF000000FF0000FFFF00000000FF000000000000000000000000FFFF0000
310
0000FFFFFFFFFFFFFFFF00000000FFFF00000000000000000000000000FF0000000000000000FF00000000000000FF0000000000000000000000000000FFFF00000000000000FF000000000000FFFF00000000000000000000000000000000FFFFFF00000000FF000000FFFFFF000000000000000000000000000000000000
310
0000FFFFFFFFFFFFFFFFFFFF00000000000000000000000000000000000000000000000000FFFFFF00000000000000000000000000000000000000000000000000000000000000FF00000000000000000000000000000000000000000000000000000000000000FF0000000000000000000000000000000000000000000000
310
0000000000000000FF0000000000000000000000000000000000000000000000000000000000000000000000000000000000000000000000
102
{BLKREFS
331
297
102
}
1001
ACAD
1000
DesignCenter Data
1002
{
1070
     1
1070
     4
1002
}
  0
BLOCK_RECORD
  5
298
330
1
100
AcDbSymbolTableRecord
100
AcDbBlockTableRecord
  2
2
340
0
310
2800000020000000200000000100080000000000000400000000000000000000000000000000000000000000000080000080000000808000800000008000800080800000C0C0C000C0DCC000F0CAA6000020400000206000002080000020A0000020C0000020E00000400000004020000040400000406000004080000040A0
310
000040C0000040E00000600000006020000060400000606000006080000060A0000060C0000060E00000800000008020000080400000806000008080000080A0000080C0000080E00000A0000000A0200000A0400000A0600000A0800000A0A00000A0C00000A0E00000C0000000C0200000C0400000C0600000C0800000C0
310
A00000C0C00000C0E00000E0000000E0200000E0400000E0600000E0800000E0A00000E0C00000E0E00040000000400020004000400040006000400080004000A0004000C0004000E00040200000402020004020400040206000402080004020A0004020C0004020E000404000004040200040404000404060004040800040
310
40A0004040C0004040E00040600000406020004060400040606000406080004060A0004060C0004060E00040800000408020004080400040806000408080004080A0004080C0004080E00040A0000040A0200040A0400040A0600040A0800040A0A00040A0C00040A0E00040C0000040C0200040C0400040C0600040C08000
310
40C0A00040C0C00040C0E00040E0000040E0200040E0400040E0600040E0800040E0A00040E0C00040E0E00080000000800020008000400080006000800080008000A0008000C0008000E00080200000802020008020400080206000802080008020A0008020C0008020E00080400000804020008040400080406000804080
310
008040A0008040C0008040E00080600000806020008060400080606000806080008060A0008060C0008060E00080800000808020008080400080806000808080008080A0008080C0008080E00080A0000080A0200080A0400080A0600080A0800080A0A00080A0C00080A0E00080C0000080C0200080C0400080C0600080C0
310
800080C0A00080C0C00080C0E00080E0000080E0200080E0400080E0600080E0800080E0A00080E0C00080E0E000C0000000C0002000C0004000C0006000C0008000C000A000C000C000C000E000C0200000C0202000C0204000C0206000C0208000C020A000C020C000C020E000C0400000C0402000C0404000C0406000C0
310
408000C040A000C040C000C040E000C0600000C0602000C0604000C0606000C0608000C060A000C060C000C060E000C0800000C0802000C0804000C0806000C0808000C080A000C080C000C080E000C0A00000C0A02000C0A04000C0A06000C0A08000C0A0A000C0A0C000C0A0E000C0C00000C0C02000C0C04000C0C06000
310
C0C08000C0C0A000F0FBFF00A4A0A000808080000000FF0000FF000000FFFF00FF000000FF00FF00FFFF0000FFFFFF0000000000000000000000000000000000000000000000000000000000000000000000000000000000000000000000000000FFFF00000000000000000000000000000000000000000000000000000000
310
0000FFFF0000000000000000000000000000000000000000000000000000FFFFFFFFFFFF0000000000000000000000000000000000000000000000000000FF000000FFFF0000000000000000000000000000000000000000000000000000FFFFFFFFFFFF0000000000000000000000000000000000000000000000000000FF
310
000000FFFF0000000000000000000000000000000000000000000000000000FF000000FFFF0000000000000000000000000000000000000000000000000000FF000000FFFF0000000000000000000000000000000000000000000000000000FF000000FFFF0000000000000000000000000000000000000000000000000000
310
FF000000FFFF0000000000000000000000000000000000000000000000000000FF000000FFFF0000000000000000000000000000000000000000000000000000FF000000FFFF0000000000000000000000000000000000000000000000000000FFFFFFFFFFFF00000000000000000000000000000000000000000000000000
310
00FF000000FFFF0000000000000000000000000000000000000000000000000000FF000000FFFF0000000000000000000000000000000000000000000000000000FF000000FFFF0000000000000000000000000000000000000000000000000000FF000000FFFF000000000000000000000000000000000000000000000000
310
0000FFFFFFFFFFFF0000000000000000000000000000000000000000000000000000FF000000FFFF0000000000000000000000000000000000000000000000000000FF000000FFFF0000000000000000000000000000000000000000000000000000FF000000FFFF0000000000000000000000000000000000000000000000
310
000000FF000000FFFF0000000000000000000000000000000000000000000000000000FF000000FFFF0000000000000000000000000000000000000000000000000000FF000000FFFF0000000000000000000000000000000000000000000000000000FF000000FFFF00000000000000000000000000000000000000000000
310
00000000FFFFFFFFFFFF0000000000000000000000000000000000000000000000000000FF000000FFFF0000000000000000000000000000000000000000000000000000FFFFFFFFFFFF000000000000000000000000000000000000000000000000000000000000FFFF000000000000000000000000000000000000000000
310
000000000000000000FFFF000000000000000000000000000000000000000000000000000000000000000000000000000000000000000000
1001
ACAD
1000
DesignCenter Data
1002
{
1070
     1
1070
     4
1002
}
  0
BLOCK_RECORD
  5
2AB
330
1
100
AcDbSymbolTableRecord
100
AcDbBlockTableRecord
  2
3
340
0
310
2800000020000000200000000100080000000000000400000000000000000000000000000000000000000000000080000080000000808000800000008000800080800000C0C0C000C0DCC000F0CAA6000020400000206000002080000020A0000020C0000020E00000400000004020000040400000406000004080000040A0
310
000040C0000040E00000600000006020000060400000606000006080000060A0000060C0000060E00000800000008020000080400000806000008080000080A0000080C0000080E00000A0000000A0200000A0400000A0600000A0800000A0A00000A0C00000A0E00000C0000000C0200000C0400000C0600000C0800000C0
310
A00000C0C00000C0E00000E0000000E0200000E0400000E0600000E0800000E0A00000E0C00000E0E00040000000400020004000400040006000400080004000A0004000C0004000E00040200000402020004020400040206000402080004020A0004020C0004020E000404000004040200040404000404060004040800040
310
40A0004040C0004040E00040600000406020004060400040606000406080004060A0004060C0004060E00040800000408020004080400040806000408080004080A0004080C0004080E00040A0000040A0200040A0400040A0600040A0800040A0A00040A0C00040A0E00040C0000040C0200040C0400040C0600040C08000
310
40C0A00040C0C00040C0E00040E0000040E0200040E0400040E0600040E0800040E0A00040E0C00040E0E00080000000800020008000400080006000800080008000A0008000C0008000E00080200000802020008020400080206000802080008020A0008020C0008020E00080400000804020008040400080406000804080
310
008040A0008040C0008040E00080600000806020008060400080606000806080008060A0008060C0008060E00080800000808020008080400080806000808080008080A0008080C0008080E00080A0000080A0200080A0400080A0600080A0800080A0A00080A0C00080A0E00080C0000080C0200080C0400080C0600080C0
310
800080C0A00080C0C00080C0E00080E0000080E0200080E0400080E0600080E0800080E0A00080E0C00080E0E000C0000000C0002000C0004000C0006000C0008000C000A000C000C000C000E000C0200000C0202000C0204000C0206000C0208000C020A000C020C000C020E000C0400000C0402000C0404000C0406000C0
310
408000C040A000C040C000C040E000C0600000C0602000C0604000C0606000C0608000C060A000C060C000C060E000C0800000C0802000C0804000C0806000C0808000C080A000C080C000C080E000C0A00000C0A02000C0A04000C0A06000C0A08000C0A0A000C0A0C000C0A0E000C0C00000C0C02000C0C04000C0C06000
310
C0C08000C0C0A000F0FBFF00A4A0A000808080000000FF0000FF000000FFFF00FF000000FF00FF00FFFF0000FFFFFF0000000000000000000000000000000000000000000000000000000000000000000000000000000000000000000000000000000000000000000000000000000000000000000000000000000000000000
310
00000000000000000000000000000000000000000000000000000000000000000000000000000000000000000000000000000000000000000000000000000000000000000000000000000000000000000000000000000000000000000000000000000000000000000000000000000000000000000000000000000000000000
310
00000000000000000000000000000000000000000000000000000000000000000000000000000000000000000000000000000000000000000000000000000000000000000000000000000000000000000000000000000000000000000000000000000000000000000000000000000000000000000000000000000000000000
310
00000000000000000000000000000000000000000000000000000000000000000000000000000000000000000000000000000000000000000000000000000000000000000000000000000000000000000000000000FFFFFFFFFFFFFFFFFFFFFFFFFFFFFFFFFFFFFFFFFFFFFFFFFFFFFFFF00000000FF00000000FF0000FF00
310
000000000000000000FF0000FF00000000FF00000000FF00000000FF0000FF00000000000000000000FF0000FF00000000FF00000000FF00000000FF0000FF00000000000000000000FF0000FF00000000FF000000FFFFFFFFFFFFFFFFFFFFFFFFFFFFFFFFFFFFFFFFFFFFFFFFFFFFFFFFFFFF0000FFFFFFFFFFFFFFFFFFFF
310
FFFFFFFFFFFFFFFFFFFFFFFFFFFFFFFFFFFFFFFF0000000000000000000000000000000000000000000000000000000000000000000000000000000000000000000000000000000000000000000000000000000000000000000000000000000000000000000000000000000000000000000000000000000000000000000000
310
00000000000000000000000000000000000000000000000000000000000000000000000000000000000000000000000000000000000000000000000000000000000000000000000000000000000000000000000000000000000000000000000000000000000000000000000000000000000000000000000000000000000000
310
00000000000000000000000000000000000000000000000000000000000000000000000000000000000000000000000000000000000000000000000000000000000000000000000000000000000000000000000000000000000000000000000000000000000000000000000000000000000000000000000000000000000000
310
0000000000000000000000000000000000000000000000000000000000000000000000000000000000000000000000000000000000000000
102
{BLKREFS
331
2C1
102
}
1001
ACAD
1000
DesignCenter Data
1002
{
1070
     1
1070
     4
1002
}
  0
BLOCK_RECORD
  5
2C2
330
1
100
AcDbSymbolTableRecord
100
AcDbBlockTableRecord
  2
4
340
0
310
2800000020000000200000000100080000000000000400000000000000000000000000000000000000000000000080000080000000808000800000008000800080800000C0C0C000C0DCC000F0CAA6000020400000206000002080000020A0000020C0000020E00000400000004020000040400000406000004080000040A0
310
000040C0000040E00000600000006020000060400000606000006080000060A0000060C0000060E00000800000008020000080400000806000008080000080A0000080C0000080E00000A0000000A0200000A0400000A0600000A0800000A0A00000A0C00000A0E00000C0000000C0200000C0400000C0600000C0800000C0
310
A00000C0C00000C0E00000E0000000E0200000E0400000E0600000E0800000E0A00000E0C00000E0E00040000000400020004000400040006000400080004000A0004000C0004000E00040200000402020004020400040206000402080004020A0004020C0004020E000404000004040200040404000404060004040800040
310
40A0004040C0004040E00040600000406020004060400040606000406080004060A0004060C0004060E00040800000408020004080400040806000408080004080A0004080C0004080E00040A0000040A0200040A0400040A0600040A0800040A0A00040A0C00040A0E00040C0000040C0200040C0400040C0600040C08000
310
40C0A00040C0C00040C0E00040E0000040E0200040E0400040E0600040E0800040E0A00040E0C00040E0E00080000000800020008000400080006000800080008000A0008000C0008000E00080200000802020008020400080206000802080008020A0008020C0008020E00080400000804020008040400080406000804080
310
008040A0008040C0008040E00080600000806020008060400080606000806080008060A0008060C0008060E00080800000808020008080400080806000808080008080A0008080C0008080E00080A0000080A0200080A0400080A0600080A0800080A0A00080A0C00080A0E00080C0000080C0200080C0400080C0600080C0
310
800080C0A00080C0C00080C0E00080E0000080E0200080E0400080E0600080E0800080E0A00080E0C00080E0E000C0000000C0002000C0004000C0006000C0008000C000A000C000C000C000E000C0200000C0202000C0204000C0206000C0208000C020A000C020C000C020E000C0400000C0402000C0404000C0406000C0
310
408000C040A000C040C000C040E000C0600000C0602000C0604000C0606000C0608000C060A000C060C000C060E000C0800000C0802000C0804000C0806000C0808000C080A000C080C000C080E000C0A00000C0A02000C0A04000C0A06000C0A08000C0A0A000C0A0C000C0A0E000C0C00000C0C02000C0C04000C0C06000
310
C0C08000C0C0A000F0FBFF00A4A0A000808080000000FF0000FF000000FFFF00FF000000FF00FF00FFFF0000FFFFFF0000000000000000000000000000000000000000000000000000000000000000000000000000000000000000000000000000000000000000000000000000000000000000000000000000000000000000
310
000000000000000000000000000000000000000000000000000000000000000000000000000000000000000000000000000000000000000000000000FFFFFFFFFFFFFFFFFF0000000000000000000000000000000000000000FFFFFFFFFFFFFFFFFFFFFFFFFFFFFFFF0000000000000000000000000000FFFFFFFFFF000000
310
00FFFFFFFFFFFFFFFFFFFFFF0000000000000000000000FFFFFF0000FF000000000000000000FF00FFFFFFFFFF000000000000000000FFFFFFFF0000FF000000000000000000FF000000FFFFFFFF00000000000000FFFFFF00FF00FFFFFFFFFFFFFFFFFFFFFFFF000000FF00FFFFFF0000000000FFFFFF0000FFFF00000000
310
0000000000000000FFFF00FF00FF00FFFF00000000FF00FF00FF00000000000000000000000000000000FFFF0000FFFFFF00000000FFFF00FF0000000000FFFFFFFFFFFFFFFFFF0000000000FF0000FFFF000000FFFF00FF00000000FFFFFF0000000000000000FFFF00000000FF0000FFFF0000FFFF00FF000000FFFF0000
310
00000000000000000000FFFF0000FF0000FFFF0000FFFFFF000000FFFF0000000000000000000000000000FFFF0000FF00FFFF000000FF00000000FFFF0000000000000000000000000000FFFF000000FFFF00000000FF000000FFFFFFFF0000000000000000000000FFFFFFFF00000000FF00000000FF000000FFFFFFFFFF
310
00000000FFFFFFFFFFFF00FFFFFF00000000FF00000000FF000000FFFFFFFFFFFFFFFFFF000000000000FFFFFFFF00000000FF0000000000FF000000FFFFFFFFFFFF000000000000FFFFFFFFFFFF00000000FF000000000000FF0000FFFFFFFFFFFFFFFFFFFFFFFFFFFFFFFFFFFF000000FF00000000000000FF000000FFFF
310
FFFFFFFFFFFFFFFFFFFFFFFFFFFF000000FF000000000000000000FF000000FFFFFFFFFFFFFFFFFFFFFFFFFFFF00000000FF00000000000000000000FF00000000FFFFFFFFFFFFFFFFFFFF0000000000FF000000000000000000000000FF0000000000000000000000000000000000FF0000000000000000000000000000FF
310
FF00000000000000000000000000FFFF0000000000000000000000000000000000FFFFFFFFFFFFFFFFFFFFFFFFFF000000000000000000000000000000000000000000000000000000000000000000000000000000000000000000000000000000000000000000000000000000000000000000000000000000000000000000
310
0000000000000000000000000000000000000000000000000000000000000000000000000000000000000000000000000000000000000000
102
{BLKREFS
331
2F4
102
}
1001
ACAD
1000
DesignCenter Data
1002
{
1070
     1
1070
     4
1002
}
  0
ENDTAB
  0
ENDSEC
  0
SECTION
  2
BLOCKS
  0
BLOCK
  5
20
330
1F
100
AcDbEntity
  8
0
100
AcDbBlockBegin
  2
*Model_Space
 70
     0
 10
0.0
 20
0.0
 30
0.0
  3
*Model_Space
  1

  0
ENDBLK
  5
21
330
1F
100
AcDbEntity
  8
0
100
AcDbBlockEnd
  0
BLOCK
  5
D4
330
D2
100
AcDbEntity
 67
     1
  8
0
100
AcDbBlockBegin
  2
*Paper_Space
 70
     0
 10
0.0
 20
0.0
 30
0.0
  3
*Paper_Space
  1

  0
ENDBLK
  5
D5
330
D2
100
AcDbEntity
 67
     1
  8
0
100
AcDbBlockEnd
  0
BLOCK
  5
D8
330
D6
100
AcDbEntity
 67
     1
  8
0
100
AcDbBlockBegin
  2
*Paper_Space0
 70
     0
 10
0.0
 20
0.0
 30
0.0
  3
*Paper_Space0
  1

  0
ENDBLK
  5
D9
330
D6
100
AcDbEntity
 67
     1
  8
0
100
AcDbBlockEnd
  0
BLOCK
  5
1AE
330
1AD
100
AcDbEntity
  8
0
100
AcDbBlockBegin
  2
SW_CENTERMARKSYMBOL_0
 70
     0
 10
0.0
 20
0.0
 30
0.0
  3
SW_CENTERMARKSYMBOL_0
  1

  0
LINE
  5
1AF
330
1AD
100
AcDbEntity
  8
0
  6
Continuous
 62
     0
370
     0
100
AcDbLine
 10
0.0
 20
0.0
 30
0.0
 11
0.0
 21
2.500000000000002
 31
0.0
  0
LINE
  5
1B0
330
1AD
100
AcDbEntity
  8
0
  6
Continuous
 62
     0
370
     0
100
AcDbLine
 10
0.0
 20
0.0
 30
0.0
 11
-2.500000000000002
 21
0.0
 31
0.0
  0
LINE
  5
1B1
330
1AD
100
AcDbEntity
  8
0
  6
Continuous
 62
     0
370
     0
100
AcDbLine
 10
0.0
 20
0.0
 30
0.0
 11
0.0
 21
-2.500000000000002
 31
0.0
  0
LINE
  5
1B2
330
1AD
100
AcDbEntity
  8
0
  6
Continuous
 62
     0
370
     0
100
AcDbLine
 10
0.0
 20
0.0
 30
0.0
 11
2.500000000000002
 21
0.0
 31
0.0
  0
LINE
  5
1B3
330
1AD
100
AcDbEntity
  8
0
  6
Continuous
 62
     0
370
     0
100
AcDbLine
 10
0.0
 20
5.000000000000004
 30
0.0
 11
0.0
 21
14.50000000000001
 31
0.0
  0
LINE
  5
1B4
330
1AD
100
AcDbEntity
  8
0
  6
Continuous
 62
     0
370
     0
100
AcDbLine
 10
-5.000000000000004
 20
0.0
 30
0.0
 11
-14.50000000000001
 21
0.0
 31
0.0
  0
LINE
  5
1B5
330
1AD
100
AcDbEntity
  8
0
  6
Continuous
 62
     0
370
     0
100
AcDbLine
 10
0.0
 20
-5.000000000000004
 30
0.0
 11
0.0
 21
-14.50000000000001
 31
0.0
  0
LINE
  5
1B6
330
1AD
100
AcDbEntity
  8
0
  6
Continuous
 62
     0
370
     0
100
AcDbLine
 10
5.000000000000004
 20
0.0
 30
0.0
 11
14.5
 21
0.0
 31
0.0
  0
ENDBLK
  5
1B7
330
1AD
100
AcDbEntity
  8
0
100
AcDbBlockEnd
  0
BLOCK
  5
283
330
282
100
AcDbEntity
  8
0
100
AcDbBlockBegin
  2
1
 70
     0
 10
0.0
 20
0.0
 30
0.0
  3
1
  1

  0
LINE
  5
285
330
282
100
AcDbEntity
  8
0
  6
Continuous
 62
     7
370
    15
100
AcDbLine
 10
1942.430080155098
 20
1077.579487702292
 30
0.0
 11
1941.618181342598
 21
1077.579487702292
 31
0.0
  0
LINE
  5
286
330
282
100
AcDbEntity
  8
0
  6
Continuous
 62
     7
370
    15
100
AcDbLine
 10
1952.837215441768
 20
1083.588069107814
 30
0.0
 11
1952.74668965507
 21
1083.634248243241
 31
0.0
  0
LWPOLYLINE
  5
287
330
282
100
AcDbEntity
  8
0
  6
Continuous
 62
     7
370
    15
100
AcDbPolyline
 90
       64
 70
   128
 43
0.0
 10
1942.434768012736
 20
1077.674019259995
 10
1942.448851266954
 20
1077.069468690611
 10
1942.536836156286
 20
1076.367064082665
 10
1942.698122135078
 20
1075.669629525316
 10
1942.931991363401
 20
1074.988598542241
 10
1943.229362076938
 20
1074.346509800797
 10
1943.588755882817
 20
1073.740804406834
 10
1944.003343465641
 20
1073.179969246603
 10
1944.464896140465
 20
1072.670817585597
 10
1944.984419963729
 20
1072.201766599341
 10
1945.557338014043
 20
1071.781667317597
 10
1946.17638590793
 20
1071.419155731431
 10
1946.832517937826
 20
1071.121340972332
 10
1947.515330650286
 20
1070.893368319572
 10
1948.201067850219
 20
1070.740255714423
 10
1948.890891521215
 20
1070.65782298097
 10
1949.57554999017
 20
1070.644486164297
 10
1950.264075132464
 20
1070.699471539137
 10
1950.965157219125
 20
1070.827679341728
 10
1951.654991640821
 20
1071.029087199427
 10
1952.32221184826
 20
1071.30167344416
 10
1952.956046727695
 20
1071.641098184383
 10
1953.546894017558
 20
1072.040931169393
 10
1954.077637287428
 20
1072.48456152111
 10
1954.556730973606
 20
1072.973382968945
 10
1954.990820061075
 20
1073.514616003275
 10
1955.372808276609
 20
1074.103613212133
 10
1955.700535064847
 20
1074.744255009142
 10
1955.960472341045
 20
1075.416400214512
 10
1956.148688866205
 20
1076.109125226475
 10
1956.263593357797
 20
1076.811020898428
 10
1956.305942537133
 20
1077.510802219129
 10
1956.278794194936
 20
1078.196478863563
 10
1956.182092533029
 20
1078.886339789144
 10
1956.014638278694
 20
1079.569929433318
 10
1955.77739340421
 20
1080.236412397739
 10
1955.467404404609
 20
1080.886559840577
 10
1955.093872880084
 20
1081.497868044418
 10
1954.664220717008
 20
1082.061587102428
 10
1954.186998897377
 20
1082.571105221869
 10
1953.657953012729
 20
1083.032478359365
 10
1953.087409312942
 20
1083.436499858042
 10
1952.473591524091
 20
1083.783814877149
 10
1951.825283724829
 20
1084.067930964834
 10
1951.152471330179
 20
1084.284229108805
 10
1950.453289272458
 20
1084.432208976979
 10
1949.751190511585
 20
1084.507009052996
 10
1949.054347814257
 20
1084.510487385201
 10
1948.352568777731
 20
1084.442852708328
 10
1947.652592375961
 20
1084.302136182284
 10
1946.977897430262
 20
1084.092842514247
 10
1946.32665400625
 20
1083.81538054536
 10
1945.708941643804
 20
1083.474164361343
 10
1945.133685821718
 20
1083.075513154529
 10
1944.599184642477
 20
1082.618725597274
 10
1944.117359172722
 20
1082.114475533404
 10
1943.682618794243
 20
1081.555871310136
 10
1943.303178582743
 20
1080.948907475924
 10
1942.986624663544
 20
1080.3021669783
 10
1942.7424908407
 20
1079.638000141179
 10
1942.567928111279
 20
1078.95564324507
 10
1942.464120904799
 20
1078.265926016489
 10
1942.430080155098
 20
1077.579487702292
 10
1942.430080155098
 20
1077.579487702292
  0
ARC
  5
288
330
282
100
AcDbEntity
  8
0
  6
Continuous
 62
     7
370
    15
100
AcDbCircle
 10
1949.368181342598
 20
1077.579487702292
 30
0.0
 40
11.79999999999999
100
AcDbArc
 50
111.2190697926184
 51
128.7809302073734
  0
LINE
  5
289
330
282
100
AcDbEntity
  8
0
  6
Continuous
 62
     7
370
    15
100
AcDbLine
 10
1953.63901264341
 20
1088.579487702292
 30
0.0
 11
1945.097350041786
 21
1088.579487702292
 31
0.0
  0
ARC
  5
28A
330
282
100
AcDbEntity
  8
0
  6
Continuous
 62
     7
370
    15
100
AcDbCircle
 10
1949.368181342598
 20
1077.579487702292
 30
0.0
 40
11.79999999999999
100
AcDbArc
 50
51.21906979262662
 51
68.78093020738153
  0
LINE
  5
28B
330
282
100
AcDbEntity
  8
0
  6
Continuous
 62
     7
370
    15
100
AcDbLine
 10
1961.029876434633
 20
1079.380839300511
 30
0.0
 11
1956.759045133821
 21
1086.778136104074
 31
0.0
  0
ARC
  5
28C
330
282
100
AcDbEntity
  8
0
  6
Continuous
 62
     7
370
    15
100
AcDbCircle
 10
1949.368181342598
 20
1077.579487702292
 30
0.0
 40
11.8
100
AcDbArc
 50
351.2190697926204
 51
8.780930207379608
  0
LINE
  5
28D
330
282
100
AcDbEntity
  8
0
  6
Continuous
 62
     7
370
    15
100
AcDbLine
 10
1956.759045133821
 20
1068.380839300511
 30
0.0
 11
1961.029876434633
 21
1075.778136104073
 31
0.0
  0
ARC
  5
28E
330
282
100
AcDbEntity
  8
0
  6
Continuous
 62
     7
370
    15
100
AcDbCircle
 10
1949.368181342598
 20
1077.579487702292
 30
0.0
 40
11.80000000000001
100
AcDbArc
 50
291.2190697926185
 51
308.7809302073815
  0
LINE
  5
28F
330
282
100
AcDbEntity
  8
0
  6
Continuous
 62
     7
370
    15
100
AcDbLine
 10
1945.097350041786
 20
1066.579487702292
 30
0.0
 11
1953.63901264341
 21
1066.579487702292
 31
0.0
  0
ARC
  5
290
330
282
100
AcDbEntity
  8
0
  6
Continuous
 62
     7
370
    15
100
AcDbCircle
 10
1949.368181342598
 20
1077.579487702292
 30
0.0
 40
11.80000000000003
100
AcDbArc
 50
231.2190697926266
 51
248.7809302073816
  0
LINE
  5
291
330
282
100
AcDbEntity
  8
0
  6
Continuous
 62
     7
370
    15
100
AcDbLine
 10
1937.706486250563
 20
1075.778136104073
 30
0.0
 11
1941.977317551376
 21
1068.380839300511
 31
0.0
  0
ARC
  5
292
330
282
100
AcDbEntity
  8
0
  6
Continuous
 62
     7
370
    15
100
AcDbCircle
 10
1949.368181342598
 20
1077.579487702292
 30
0.0
 40
11.80000000000002
100
AcDbArc
 50
171.2190697926204
 51
188.7809302073796
  0
LINE
  5
293
330
282
100
AcDbEntity
  8
0
  6
Continuous
 62
     7
370
    15
100
AcDbLine
 10
1941.977317551376
 20
1086.778136104074
 30
0.0
 11
1937.706486250563
 21
1079.380839300511
 31
0.0
  0
CIRCLE
  5
294
330
282
100
AcDbEntity
  8
0
  6
Continuous
 62
     7
370
    15
100
AcDbCircle
 10
1949.368181342598
 20
1077.579487702292
 30
0.0
 40
7.750000000000014
  0
CIRCLE
  5
295
330
282
100
AcDbEntity
  8
0
  6
Continuous
 62
     7
370
    15
100
AcDbCircle
 10
1949.368181342598
 20
1077.579487702292
 30
0.0
 40
12.00000000000001
  0
INSERT
  5
296
330
282
100
AcDbEntity
  8
0
  6
Continuous
 62
     7
370
     0
100
AcDbBlockReference
  2
SW_CENTERMARKSYMBOL_0
 10
1949.368181342598
 20
1077.579487702292
 30
0.0
  0
ENDBLK
  5
284
330
282
100
AcDbEntity
  8
0
100
AcDbBlockEnd
  0
BLOCK
  5
299
330
298
100
AcDbEntity
  8
0
100
AcDbBlockBegin
  2
2
 70
     0
 10
0.0
 20
0.0
 30
0.0
  3
2
  1

  0
LINE
  5
29B
330
298
100
AcDbEntity
  8
0
  6
Continuous
 62
     7
370
    15
100
AcDbLine
 10
1928.477847554875
 20
1089.579487702292
 30
0.0
 11
1927.677847554875
 21
1089.579487702292
 31
0.0
  0
LINE
  5
29C
330
298
100
AcDbEntity
  8
0
  6
Continuous
 62
     7
370
    15
100
AcDbLine
 10
1927.677847554875
 20
1065.579487702292
 30
0.0
 11
1928.477847554875
 21
1065.579487702292
 31
0.0
  0
LINE
  5
29D
330
298
100
AcDbEntity
  8
0
  6
Continuous
 62
     7
370
    15
100
AcDbLine
 10
1927.677847554875
 20
1089.579487702292
 30
0.0
 11
1927.677847554875
 21
1065.579487702292
 31
0.0
  0
LINE
  5
29E
330
298
100
AcDbEntity
  8
0
  6
Continuous
 62
     7
370
    15
100
AcDbLine
 10
1928.477847554875
 20
1089.579487702292
 30
0.0
 11
1928.477847554875
 21
1065.579487702292
 31
0.0
  0
LINE
  5
29F
330
298
100
AcDbEntity
  8
0
  6
Continuous
 62
     7
370
    15
100
AcDbLine
 10
1923.477847554875
 20
1075.778136104073
 30
0.0
 11
1927.677847554875
 21
1075.778136104073
 31
0.0
  0
LINE
  5
2A0
330
298
100
AcDbEntity
  8
0
  6
Continuous
 62
     7
370
    15
100
AcDbLine
 10
1923.477847554875
 20
1079.380839300511
 30
0.0
 11
1923.477847554875
 21
1075.778136104073
 31
0.0
  0
LINE
  5
2A1
330
298
100
AcDbEntity
  8
0
  6
Continuous
 62
     7
370
    15
100
AcDbLine
 10
1927.677847554875
 20
1079.380839300511
 30
0.0
 11
1923.477847554875
 21
1079.380839300511
 31
0.0
  0
LINE
  5
2A2
330
298
100
AcDbEntity
  8
0
  6
Continuous
 62
     7
370
    15
100
AcDbLine
 10
1923.477847554875
 20
1086.778136104074
 30
0.0
 11
1927.677847554875
 21
1086.778136104074
 31
0.0
  0
LINE
  5
2A3
330
298
100
AcDbEntity
  8
0
  6
Continuous
 62
     7
370
    15
100
AcDbLine
 10
1923.477847554875
 20
1079.380839300511
 30
0.0
 11
1923.477847554875
 21
1086.778136104074
 31
0.0
  0
LINE
  5
2A4
330
298
100
AcDbEntity
  8
0
  6
Continuous
 62
     7
370
    15
100
AcDbLine
 10
1927.677847554875
 20
1068.380839300511
 30
0.0
 11
1923.477847554875
 21
1068.380839300511
 31
0.0
  0
LINE
  5
2A5
330
298
100
AcDbEntity
  8
0
  6
Continuous
 62
     7
370
    15
100
AcDbLine
 10
1923.477847554875
 20
1068.380839300511
 30
0.0
 11
1923.477847554875
 21
1075.778136104073
 31
0.0
  0
LINE
  5
2A6
330
298
100
AcDbEntity
  8
0
  6
Continuous
 62
     7
370
    15
100
AcDbLine
 10
1923.477847554875
 20
1066.579487702292
 30
0.0
 11
1927.677847554875
 21
1066.579487702292
 31
0.0
  0
LINE
  5
2A7
330
298
100
AcDbEntity
  8
0
  6
Continuous
 62
     7
370
    15
100
AcDbLine
 10
1923.477847554875
 20
1068.380839300511
 30
0.0
 11
1923.477847554875
 21
1066.579487702292
 31
0.0
  0
LINE
  5
2A8
330
298
100
AcDbEntity
  8
0
  6
Continuous
 62
     7
370
    15
100
AcDbLine
 10
1927.677847554875
 20
1088.579487702292
 30
0.0
 11
1923.477847554875
 21
1088.579487702292
 31
0.0
  0
LINE
  5
2A9
330
298
100
AcDbEntity
  8
0
  6
Continuous
 62
     7
370
    15
100
AcDbLine
 10
1923.477847554875
 20
1088.579487702292
 30
0.0
 11
1923.477847554875
 21
1086.778136104074
 31
0.0
  0
ENDBLK
  5
29A
330
298
100
AcDbEntity
  8
0
100
AcDbBlockEnd
  0
BLOCK
  5
2AC
330
2AB
100
AcDbEntity
  8
0
100
AcDbBlockBegin
  2
3
 70
     0
 10
0.0
 20
0.0
 30
0.0
  3
3
  1

  0
LINE
  5
2AE
330
2AB
100
AcDbEntity
  8
0
  6
Continuous
 62
     7
370
    15
100
AcDbLine
 10
1937.368181342598
 20
1055.977252934967
 30
0.0
 11
1937.368181342598
 21
1055.177252934967
 31
0.0
  0
LINE
  5
2AF
330
2AB
100
AcDbEntity
  8
0
  6
Continuous
 62
     7
370
    15
100
AcDbLine
 10
1961.368181342598
 20
1055.177252934967
 30
0.0
 11
1961.368181342598
 21
1055.977252934967
 31
0.0
  0
LINE
  5
2B0
330
2AB
100
AcDbEntity
  8
0
  6
Continuous
 62
     7
370
    15
100
AcDbLine
 10
1937.568181342598
 20
1055.177252934967
 30
0.0
 11
1937.568181342598
 21
1050.977252934967
 31
0.0
  0
LINE
  5
2B1
330
2AB
100
AcDbEntity
  8
0
  6
Continuous
 62
     7
370
    15
100
AcDbLine
 10
1961.168181342598
 20
1050.977252934967
 30
0.0
 11
1961.168181342598
 21
1055.177252934967
 31
0.0
  0
LINE
  5
2B2
330
2AB
100
AcDbEntity
  8
0
  6
Continuous
 62
     7
370
    15
100
AcDbLine
 10
1937.368181342598
 20
1055.177252934967
 30
0.0
 11
1961.368181342598
 21
1055.177252934967
 31
0.0
  0
LINE
  5
2B3
330
2AB
100
AcDbEntity
  8
0
  6
Continuous
 62
     7
370
    15
100
AcDbLine
 10
1937.368181342598
 20
1055.977252934967
 30
0.0
 11
1961.368181342598
 21
1055.977252934967
 31
0.0
  0
LINE
  5
2B4
330
2AB
100
AcDbEntity
  8
0
  6
Continuous
 62
     7
370
    15
100
AcDbLine
 10
1945.097350041786
 20
1050.977252934967
 30
0.0
 11
1945.097350041786
 21
1055.177252934967
 31
0.0
  0
LINE
  5
2B5
330
2AB
100
AcDbEntity
  8
0
  6
Continuous
 62
     7
370
    15
100
AcDbLine
 10
1941.977317551376
 20
1050.977252934967
 30
0.0
 11
1945.097350041786
 21
1050.977252934967
 31
0.0
  0
LINE
  5
2B6
330
2AB
100
AcDbEntity
  8
0
  6
Continuous
 62
     7
370
    15
100
AcDbLine
 10
1941.977317551376
 20
1055.177252934967
 30
0.0
 11
1941.977317551376
 21
1050.977252934967
 31
0.0
  0
LINE
  5
2B7
330
2AB
100
AcDbEntity
  8
0
  6
Continuous
 62
     7
370
    15
100
AcDbLine
 10
1956.759045133821
 20
1050.977252934967
 30
0.0
 11
1956.759045133821
 21
1055.177252934967
 31
0.0
  0
LINE
  5
2B8
330
2AB
100
AcDbEntity
  8
0
  6
Continuous
 62
     7
370
    15
100
AcDbLine
 10
1953.63901264341
 20
1050.977252934967
 30
0.0
 11
1956.759045133821
 21
1050.977252934967
 31
0.0
  0
LINE
  5
2B9
330
2AB
100
AcDbEntity
  8
0
  6
Continuous
 62
     7
370
    15
100
AcDbLine
 10
1953.63901264341
 20
1055.177252934967
 30
0.0
 11
1953.63901264341
 21
1050.977252934967
 31
0.0
  0
LINE
  5
2BA
330
2AB
100
AcDbEntity
  8
0
  6
Continuous
 62
     7
370
    15
100
AcDbLine
 10
1953.63901264341
 20
1050.977252934967
 30
0.0
 11
1945.097350041786
 21
1050.977252934967
 31
0.0
  0
LINE
  5
2BB
330
2AB
100
AcDbEntity
  8
0
  6
Continuous
 62
     7
370
    15
100
AcDbLine
 10
1961.029876434633
 20
1055.177252934967
 30
0.0
 11
1961.029876434633
 21
1050.977252934967
 31
0.0
  0
LINE
  5
2BC
330
2AB
100
AcDbEntity
  8
0
  6
Continuous
 62
     7
370
    15
100
AcDbLine
 10
1961.029876434633
 20
1050.977252934967
 30
0.0
 11
1956.759045133821
 21
1050.977252934967
 31
0.0
  0
LINE
  5
2BD
330
2AB
100
AcDbEntity
  8
0
  6
Continuous
 62
     7
370
    15
100
AcDbLine
 10
1937.706486250563
 20
1050.977252934967
 30
0.0
 11
1937.706486250563
 21
1055.177252934967
 31
0.0
  0
LINE
  5
2BE
330
2AB
100
AcDbEntity
  8
0
  6
Continuous
 62
     7
370
    15
100
AcDbLine
 10
1941.977317551376
 20
1050.977252934967
 30
0.0
 11
1937.706486250563
 21
1050.977252934967
 31
0.0
  0
LINE
  5
2BF
330
2AB
100
AcDbEntity
  8
0
  6
Continuous
 62
     7
370
    15
100
AcDbLine
 10
1937.568181342598
 20
1050.977252934967
 30
0.0
 11
1937.706486250563
 21
1050.977252934967
 31
0.0
  0
LINE
  5
2C0
330
2AB
100
AcDbEntity
  8
0
  6
Continuous
 62
     7
370
    15
100
AcDbLine
 10
1961.029876434633
 20
1050.977252934967
 30
0.0
 11
1961.168181342598
 21
1050.977252934967
 31
0.0
  0
ENDBLK
  5
2AD
330
2AB
100
AcDbEntity
  8
0
100
AcDbBlockEnd
  0
BLOCK
  5
2C3
330
2C2
100
AcDbEntity
  8
0
100
AcDbBlockBegin
  2
4
 70
     0
 10
0.0
 20
0.0
 30
0.0
  3
4
  1

  0
LINE
  5
2C5
330
2C2
100
AcDbEntity
  8
0
  6
Continuous
 62
     7
370
    15
100
AcDbLine
 10
2002.329816488955
 20
1075.100592905356
 30
0.0
 11
2002.31227624198
 21
1075.674962553205
 31
0.0
  0
LINE
  5
2C6
330
2C2
100
AcDbEntity
  8
0
  6
Continuous
 62
     7
370
    15
100
AcDbLine
 10
1978.323459441107
 20
1074.942385940057
 30
0.0
 11
1978.340999688081
 21
1074.368016292209
 31
0.0
  0
LINE
  5
2C7
330
2C2
100
AcDbEntity
  8
0
  6
Continuous
 62
     7
370
    15
100
AcDbLine
 10
2002.112369435307
 20
1075.668857748095
 30
0.0
 11
2002.02028313869
 21
1078.684298399299
 31
0.0
  0
LINE
  5
2C8
330
2C2
100
AcDbEntity
  8
0
  6
Continuous
 62
     7
370
    15
100
AcDbLine
 10
1978.431279951164
 20
1077.963931396371
 30
0.0
 11
1978.523366247781
 21
1074.948490745167
 31
0.0
  0
LWPOLYLINE
  5
2C9
330
2C2
100
AcDbEntity
  8
0
  6
Continuous
 62
     7
370
    15
100
AcDbPolyline
 90
      115
 70
   128
 43
0.0
 10
1986.278954341055
 20
1073.620866746839
 10
1985.917647306837
 20
1073.773565059844
 10
1985.569423934706
 20
1073.940083243146
 10
1985.235341767599
 20
1074.119915586494
 10
1984.916415402076
 20
1074.312515944974
 10
1984.613613407028
 20
1074.517299397625
 10
1984.327855382162
 20
1074.733644023833
 10
1984.060009165207
 20
1074.960892792079
 10
1983.810888196322
 20
1075.198355555323
 10
1983.5812490477
 20
1075.445311146956
 10
1983.371789125888
 20
1075.701009570964
 10
1983.183144553786
 20
1075.964674279637
 10
1983.015888238758
 20
1076.235504531921
 10
1982.870528132736
 20
1076.512677825241
 10
1982.747505689584
 20
1076.795352393414
 10
1982.647194524419
 20
1077.082669763068
 10
1982.569899278954
 20
1077.373757360794
 10
1982.515854696306
 20
1077.667731163125
 10
1982.485224908099
 20
1077.963698381285
 10
1982.478102935991
 20
1078.26076017256
 10
1982.494510409179
 20
1078.558014370054
 10
1982.534397498705
 20
1078.854558222538
 10
1982.59764306879
 20
1079.149491136079
 10
1982.684055044715
 20
1079.441917409111
 10
1982.793370996151
 20
1079.730948952655
 10
1982.925258934145
 20
1080.015707987413
 10
1983.079318319363
 20
1080.295329709555
 10
1983.255081278519
 20
1080.5689649171
 10
1983.452014025279
 20
1080.835782588917
 10
1983.669518481366
 20
1081.094972408507
 10
1983.906934092895
 20
1081.345747224906
 10
1984.163539836456
 20
1081.587345443239
 10
1984.438556408841
 20
1081.819033337656
 10
1984.731148593757
 20
1082.040107279638
 10
1985.040427798355
 20
1082.249895874888
 10
1985.365454751857
 20
1082.447762002338
 10
1985.705242358087
 20
1082.633104749063
 10
1986.058758693253
 20
1082.805361235231
 10
1986.424930139862
 20
1082.964008323556
 10
1986.802644647269
 20
1083.108564208044
 10
1987.190755108926
 20
1083.238589877227
 10
1987.588082846118
 20
1083.353690447419
 10
1987.993421187566
 20
1083.453516361972
 10
1988.405539134049
 20
1083.537764452865
 10
1988.823185096909
 20
1083.606178861415
 10
1989.245090699084
 20
1083.65855181531
 10
1989.669974627124
 20
1083.694724259612
 10
1990.096546522507
 20
1083.714586339796
 10
1990.523510900405
 20
1083.718077735378
 10
1990.949571084036
 20
1083.705187843104
 10
1991.373433142625
 20
1083.675955809152
 10
1991.793809821032
 20
1083.63047041025
 10
1992.2094244491
 20
1083.568869784059
 10
1992.619014818863
 20
1083.491341009655
 10
1993.021337017831
 20
1083.39811953938
 10
1993.415169206708
 20
1083.289488483773
 10
1993.799315330081
 20
1083.165777751781
 10
1994.172608748798
 20
1083.027363048831
 10
1994.533915783017
 20
1082.874664735826
 10
1994.882139155148
 20
1082.708146552524
 10
1995.216221322255
 20
1082.528314209175
 10
1995.535147687778
 20
1082.335713850696
 10
1995.837949682826
 20
1082.130930398045
 10
1996.123707707692
 20
1081.914585771837
 10
1996.391553924647
 20
1081.687337003591
 10
1996.640674893533
 20
1081.449874240347
 10
1996.870314042154
 20
1081.202918648714
 10
1997.079773963966
 20
1080.947220224706
 10
1997.268418536068
 20
1080.683555516033
 10
1997.435674851096
 20
1080.412725263749
 10
1997.581034957118
 20
1080.135551970429
 10
1997.70405740027
 20
1079.852877402256
 10
1997.804368565434
 20
1079.565560032602
 10
1997.8816638109
 20
1079.274472434876
 10
1997.935708393548
 20
1078.980498632545
 10
1997.966338181755
 20
1078.684531414385
 10
1997.973460153863
 20
1078.38746962311
 10
1997.957052680675
 20
1078.090215425616
 10
1997.917165591149
 20
1077.793671573132
 10
1997.853920021064
 20
1077.498738659592
 10
1997.767508045139
 20
1077.206312386559
 10
1997.658192093703
 20
1076.917280843015
 10
1997.526304155709
 20
1076.632521808257
 10
1997.37224477049
 20
1076.352900086116
 10
1997.196481811335
 20
1076.07926487857
 10
1996.999549064574
 20
1075.812447206752
 10
1996.782044608488
 20
1075.553257387162
 10
1996.544628996959
 20
1075.302482570764
 10
1996.288023253398
 20
1075.060884352431
 10
1996.013006681013
 20
1074.829196458014
 10
1995.720414496097
 20
1074.608122516032
 10
1995.411135291498
 20
1074.398333920782
 10
1995.086108337996
 20
1074.200467793331
 10
1994.746320731767
 20
1074.015125046607
 10
1994.392804396601
 20
1073.842868560439
 10
1994.026632949991
 20
1073.684221472114
 10
1993.648918442585
 20
1073.539665587625
 10
1993.260807980928
 20
1073.409639918443
 10
1992.863480243736
 20
1073.294539348251
 10
1992.458141902288
 20
1073.194713433698
 10
1992.046023955804
 20
1073.110465342805
 10
1991.628377992944
 20
1073.042050934255
 10
1991.20647239077
 20
1072.98967798036
 10
1990.78158846273
 20
1072.953505536058
 10
1990.355016567347
 20
1072.933643455873
 10
1989.928052189449
 20
1072.930152060291
 10
1989.501992005818
 20
1072.943041952566
 10
1989.078129947229
 20
1072.972273986518
 10
1988.657753268822
 20
1073.01775938542
 10
1988.242138640754
 20
1073.079360011611
 10
1987.832548270991
 20
1073.156888786015
 10
1987.430226072023
 20
1073.25011025629
 10
1987.036393883145
 20
1073.358741311897
 10
1986.652247759773
 20
1073.482452043889
 10
1986.278954341055
 20
1073.620866746839
  0
ARC
  5
2CA
330
2C2
100
AcDbEntity
  8
0
  6
Continuous
 62
     7
370
    15
100
AcDbCircle
 10
1984.191366210507
 20
1078.140917661564
 30
0.0
 40
5.762560285650013
100
AcDbArc
 50
166.5365570287676
 51
191.673227834978
  0
LINE
  5
2CB
330
2C2
100
AcDbEntity
  8
0
  6
Continuous
 62
     7
370
    15
100
AcDbLine
 10
1982.937164399842
 20
1084.666270223772
 30
0.0
 11
1978.58716874534
 21
1079.482585212479
 31
0.0
  0
ARC
  5
2CC
330
2C2
100
AcDbEntity
  8
0
  6
Continuous
 62
     7
370
    15
100
AcDbCircle
 10
1989.782975525714
 20
1072.360503346885
 30
0.0
 40
14.08179776872968
100
AcDbArc
 50
105.2633760046683
 51
119.0875893591542
  0
LINE
  5
2CD
330
2C2
100
AcDbEntity
  8
0
  6
Continuous
 62
     7
370
    15
100
AcDbLine
 10
1994.614955628254
 20
1086.015404664557
 30
0.0
 11
1986.07585154782
 21
1085.945578253264
 31
0.0
  0
ARC
  5
2CE
330
2C2
100
AcDbEntity
  8
0
  6
Continuous
 62
     7
370
    15
100
AcDbCircle
 10
1991.264183322164
 20
1073.03516852496
 30
0.0
 40
13.40575269378634
100
AcDbArc
 50
61.2389599702914
 51
75.52542702422676
  0
LINE
  5
2CF
330
2C2
100
AcDbEntity
  8
0
  6
Continuous
 62
     7
370
    15
100
AcDbLine
 10
2001.903572773339
 20
1079.67324933862
 30
0.0
 11
1997.714464347407
 21
1084.78710793862
 31
0.0
  0
ARC
  5
2D0
330
2C2
100
AcDbEntity
  8
0
  6
Continuous
 62
     7
370
    15
100
AcDbCircle
 10
1996.260196879347
 20
1078.507312134106
 30
0.0
 40
5.762560285650406
100
AcDbArc
 50
346.5365570287677
 51
11.67322783497797
  0
LINE
  5
2D1
330
2C2
100
AcDbEntity
  8
0
  6
Continuous
 62
     7
370
    15
100
AcDbLine
 10
1997.514398690012
 20
1071.981959571898
 30
0.0
 11
2001.864394344514
 21
1077.165644583191
 31
0.0
  0
ARC
  5
2D2
330
2C2
100
AcDbEntity
  8
0
  6
Continuous
 62
     7
370
    15
100
AcDbCircle
 10
1990.668587564139
 20
1084.287726448786
 30
0.0
 40
14.08179776873111
100
AcDbArc
 50
285.2633760046683
 51
299.0875893591542
  0
LINE
  5
2D3
330
2C2
100
AcDbEntity
  8
0
  6
Continuous
 62
     7
370
    15
100
AcDbLine
 10
1985.836607461601
 20
1070.632825131113
 30
0.0
 11
1994.375711542033
 21
1070.702651542406
 31
0.0
  0
ARC
  5
2D4
330
2C2
100
AcDbEntity
  8
0
  6
Continuous
 62
     7
370
    15
100
AcDbCircle
 10
1989.18737976769
 20
1083.61306127071
 30
0.0
 40
13.4057526937859
100
AcDbArc
 50
241.2389599702914
 51
255.5254270242268
  0
LINE
  5
2D5
330
2C2
100
AcDbEntity
  8
0
  6
Continuous
 62
     7
370
    15
100
AcDbLine
 10
1978.547990316515
 20
1076.97498045705
 30
0.0
 11
1982.737098742447
 21
1071.861121857049
 31
0.0
  0
LINE
  5
2D6
330
2C2
100
AcDbEntity
  8
0
  6
Continuous
 62
     7
370
    15
100
AcDbLine
 10
1985.928693758217
 20
1067.617384479909
 30
0.0
 11
1994.46779783865
 21
1067.687210891202
 31
0.0
  0
LINE
  5
2D7
330
2C2
100
AcDbEntity
  8
0
  6
Continuous
 62
     7
370
    15
100
AcDbLine
 10
1985.928693758217
 20
1067.617384479909
 30
0.0
 11
1985.836607461601
 21
1070.632825131113
 31
0.0
  0
LINE
  5
2D8
330
2C2
100
AcDbEntity
  8
0
  6
Continuous
 62
     7
370
    15
100
AcDbLine
 10
1994.375711542033
 20
1070.702651542406
 30
0.0
 11
1994.46779783865
 21
1067.687210891202
 31
0.0
  0
LWPOLYLINE
  5
2D9
330
2C2
100
AcDbEntity
  8
0
  6
Continuous
 62
     7
370
    15
100
AcDbPolyline
 90
       24
 70
   128
 43
0.0
 10
1984.224191772846
 20
1067.451855848854
 10
1983.773510692201
 20
1067.639953411805
 10
1983.335674833856
 20
1067.841938500357
 10
1982.911541282065
 20
1068.057415719212
 10
1982.501940298173
 20
1068.285963261595
 10
1982.10767369534
 20
1068.527133734961
 10
1981.729513268957
 20
1068.780455036782
 10
1981.368199285817
 20
1069.045431278714
 10
1981.024439035008
 20
1069.321543757319
 10
1980.698905443366
 20
1069.608251969455
 10
1980.392235758182
 20
1069.904994670332
 10
1980.105030299766
 20
1070.211190972179
 10
1979.837851286291
 20
1070.526241481356
 10
1979.591221733222
 20
1070.849529471697
 10
1979.365624429491
 20
1071.180422091777
 10
1979.161500992415
 20
1071.518271603756
 10
1978.979251003206
 20
1071.862416651347
 10
1978.819231224777
 20
1072.21218355446
 10
1978.68175490336
 20
1072.566887627956
 10
1978.567091155309
 20
1072.925834521954
 10
1978.475464440295
 20
1073.288321581053
 10
1978.407054121916
 20
1073.653639219813
 10
1978.361994116583
 20
1074.021072311801
 10
1978.340999688081
 20
1074.368016292209
  0
LWPOLYLINE
  5
2DA
330
2C2
100
AcDbEntity
  8
0
  6
Continuous
 62
     7
370
    15
100
AcDbPolyline
 90
       50
 70
   128
 43
0.0
 10
2002.329816488955
 20
1075.100592905356
 10
2002.330443545664
 20
1075.078707608082
 10
2002.328584185681
 20
1074.709204145335
 10
2002.303247620286
 20
1074.339749817905
 10
2002.254483446998
 20
1073.971067849987
 10
2002.182387123975
 20
1073.603879953846
 10
2002.087099783155
 20
1073.238904917032
 10
2001.968807953984
 20
1072.876857195319
 10
2001.82774319827
 20
1072.518445514125
 10
2001.664181656899
 20
1072.164371481145
 10
2001.478443509267
 20
1071.815328212928
 10
2001.270892346522
 20
1071.471998978061
 10
2001.041934459811
 20
1071.135055859645
 10
2000.79201804495
 20
1070.805158439656
 10
2000.521632325055
 20
1070.482952507787
 10
2000.231306592871
 20
1070.16906879728
 10
1999.921609174654
 20
1069.864121750238
 10
1999.593146317642
 20
1069.568708314826
 10
1999.246561003303
 20
1069.283406776716
 10
1998.882531688664
 20
1069.008775627068
 10
1998.501770978205
 20
1068.745352469253
 10
1998.105024228897
 20
1068.493652966473
 10
1997.693068091132
 20
1068.254169832324
 10
1997.266708988396
 20
1068.027371866289
 10
1996.826781538654
 20
1067.813703036035
 10
1996.374146920549
 20
1067.613581608332
 10
1995.9096911876
 20
1067.427399330272
 10
1995.434323533716
 20
1067.255520662408
 10
1994.948974513403
 20
1067.098282065304
 10
1994.45459422016
 20
1066.955991340897
 10
1993.952150426627
 20
1066.828927029962
 10
1993.442626690124
 20
1066.717337866855
 10
1992.927020427294
 20
1066.621442292604
 10
1992.406340961609
 20
1066.541428027297
 10
1991.881607547573
 20
1066.477451702616
 10
1991.353847375486
 20
1066.429638555222
 10
1990.82409356067
 20
1066.398082181596
 10
1990.293383121093
 20
1066.382844354821
 10
1989.762754947363
 20
1066.383954903658
 10
1989.233247769049
 20
1066.401411654157
 10
1988.705898121317
 20
1066.435180433908
 10
1988.181738315868
 20
1066.485195138939
 10
1987.661794420136
 20
1066.551357863116
 10
1987.147084248713
 20
1066.6335390898
 10
1986.638615370929
 20
1066.73157794538
 10
1986.137383138492
 20
1066.845282514192
 10
1985.644368737035
 20
1066.974430214204
 10
1985.160537265399
 20
1067.118768232728
 10
1984.686835846412
 20
1067.278014021314
 10
1984.224191772846
 20
1067.451855848854
  0
LWPOLYLINE
  5
2DB
330
2C2
100
AcDbEntity
  8
0
  6
Continuous
 62
     7
370
    15
100
AcDbPolyline
 90
       29
 70
   128
 43
0.0
 10
1984.206651525871
 20
1068.026225496702
 10
1983.755970445226
 20
1068.214323059654
 10
1983.318134586881
 20
1068.416308148205
 10
1982.89400103509
 20
1068.63178536706
 10
1982.484400051198
 20
1068.860332909444
 10
1982.090133448366
 20
1069.101503382809
 10
1981.711973021983
 20
1069.35482468463
 10
1981.350659038842
 20
1069.619800926562
 10
1981.006898788034
 20
1069.895913405167
 10
1980.681365196391
 20
1070.182621617303
 10
1980.374695511207
 20
1070.479364318181
 10
1980.087490052791
 20
1070.785560620028
 10
1979.820311039316
 20
1071.100611129205
 10
1979.573681486247
 20
1071.423899119545
 10
1979.348084182517
 20
1071.754791739626
 10
1979.14396074544
 20
1072.092641251604
 10
1978.961710756231
 20
1072.436786299196
 10
1978.801690977803
 20
1072.786553202308
 10
1978.664214656385
 20
1073.141257275804
 10
1978.549550908334
 20
1073.500204169802
 10
1978.45792419332
 20
1073.862691228902
 10
1978.389513874941
 20
1074.228008867662
 10
1978.344453869608
 20
1074.595441959649
 10
1978.322832384397
 20
1074.964271237332
 10
1978.324691744381
 20
1075.333774700078
 10
1978.350028309776
 20
1075.703229027509
 10
1978.398792483064
 20
1076.071910995427
 10
1978.470888806087
 20
1076.439098891568
 10
1978.47703326177
 20
1076.465702041986
  0
LWPOLYLINE
  5
2DC
330
2C2
100
AcDbEntity
  8
0
  6
Continuous
 62
     7
370
    15
100
AcDbPolyline
 90
       54
 70
   128
 43
0.0
 10
2002.066036449296
 20
1077.186069044915
 10
2002.086184774753
 20
1077.11714432346
 10
2002.177811489767
 20
1076.75465726436
 10
2002.246221808146
 20
1076.3893396256
 10
2002.291281813479
 20
1076.021906533613
 10
2002.31290329869
 20
1075.65307725593
 10
2002.311043938706
 20
1075.283573793184
 10
2002.285707373312
 20
1074.914119465753
 10
2002.236943200023
 20
1074.545437497835
 10
2002.164846877001
 20
1074.178249601694
 10
2002.069559536181
 20
1073.81327456488
 10
2001.951267707009
 20
1073.451226843168
 10
2001.810202951296
 20
1073.092815161973
 10
2001.646641409924
 20
1072.738741128994
 10
2001.460903262293
 20
1072.389697860776
 10
2001.253352099547
 20
1072.046368625909
 10
2001.024394212837
 20
1071.709425507493
 10
2000.774477797975
 20
1071.379528087504
 10
2000.50409207808
 20
1071.057322155635
 10
2000.213766345897
 20
1070.743438445128
 10
1999.904068927679
 20
1070.438491398086
 10
1999.575606070667
 20
1070.143077962674
 10
1999.229020756328
 20
1069.857776424565
 10
1998.86499144169
 20
1069.583145274916
 10
1998.484230731231
 20
1069.319722117101
 10
1998.087483981922
 20
1069.068022614321
 10
1997.675527844158
 20
1068.828539480173
 10
1997.249168741421
 20
1068.601741514137
 10
1996.80924129168
 20
1068.388072683883
 10
1996.356606673574
 20
1068.18795125618
 10
1995.892150940625
 20
1068.001768978121
 10
1995.416783286742
 20
1067.829890310257
 10
1994.931434266429
 20
1067.672651713152
 10
1994.437053973185
 20
1067.530360988746
 10
1993.934610179652
 20
1067.403296677811
 10
1993.42508644315
 20
1067.291707514704
 10
1992.909480180319
 20
1067.195811940452
 10
1992.388800714634
 20
1067.115797675145
 10
1991.864067300598
 20
1067.051821350465
 10
1991.336307128512
 20
1067.00400820307
 10
1990.806553313695
 20
1066.972451829445
 10
1990.275842874118
 20
1066.957214002669
 10
1989.745214700388
 20
1066.958324551507
 10
1989.215707522074
 20
1066.975781302005
 10
1988.688357874342
 20
1067.009550081756
 10
1988.164198068894
 20
1067.059564786787
 10
1987.644254173162
 20
1067.125727510964
 10
1987.129544001738
 20
1067.207908737648
 10
1986.621075123955
 20
1067.305947593228
 10
1986.119842891518
 20
1067.41965216204
 10
1985.62682849006
 20
1067.548799862052
 10
1985.142997018425
 20
1067.693137880576
 10
1984.669295599437
 20
1067.852383669162
 10
1984.206651525871
 20
1068.026225496702
  0
ARC
  5
2DD
330
2C2
100
AcDbEntity
  8
0
  6
Continuous
 62
     7
370
    15
100
AcDbCircle
 10
1996.313818795005
 20
1075.496747228498
 30
0.0
 40
5.801104339615096
100
AcDbArc
 50
346.5781746128209
 51
1.700133812111246
  0
ARC
  5
2DE
330
2C2
100
AcDbEntity
  8
0
  6
Continuous
 62
     7
370
    15
100
AcDbCircle
 10
1984.267413957388
 20
1075.125008371027
 30
0.0
 40
5.746759309600454
100
AcDbArc
 50
181.7601756817491
 51
191.7010058236985
  0
LINE
  5
2DF
330
2C2
100
AcDbEntity
  8
0
  6
Continuous
 62
     7
370
    15
100
AcDbLine
 10
1978.640076613132
 20
1073.959539805846
 30
0.0
 11
1982.829185039063
 21
1068.845681205845
 31
0.0
  0
ARC
  5
2E0
330
2C2
100
AcDbEntity
  8
0
  6
Continuous
 62
     7
370
    15
100
AcDbCircle
 10
1989.279466064307
 20
1080.597620619507
 30
0.0
 40
13.40575269378738
100
AcDbArc
 50
241.2389599702914
 51
255.5254270242268
  0
ARC
  5
2E1
330
2C2
100
AcDbEntity
  8
0
  6
Continuous
 62
     7
370
    15
100
AcDbCircle
 10
1990.760673860757
 20
1081.272285797578
 30
0.0
 40
14.0817977687273
100
AcDbArc
 50
285.2633760046683
 51
299.0875893591542
  0
LINE
  5
2E2
330
2C2
100
AcDbEntity
  8
0
  6
Continuous
 62
     7
370
    15
100
AcDbLine
 10
1997.606484986629
 20
1068.966518920694
 30
0.0
 11
2001.95648064113
 21
1074.150203931987
 31
0.0
  0
LINE
  5
2E3
330
2C2
100
AcDbEntity
  8
0
  6
Continuous
 62
     7
370
    15
100
AcDbLine
 10
1997.606484986629
 20
1068.966518920694
 30
0.0
 11
1997.514398690012
 21
1071.981959571898
 31
0.0
  0
LINE
  5
2E4
330
2C2
100
AcDbEntity
  8
0
  6
Continuous
 62
     7
370
    15
100
AcDbLine
 10
1986.702705935274
 20
1073.77703965712
 30
0.0
 11
1986.278954341055
 21
1073.620866746839
 31
0.0
  0
SPLINE
  5
2E5
330
2C2
100
AcDbEntity
  8
0
  6
Continuous
 62
     7
370
    15
100
AcDbSpline
210
0.0
220
0.0
230
1.0
 70
     8
 71
     3
 72
    45
 73
    41
 74
     0
 42
0.0000000001
 43
0.0000000001
 40
0.0
 40
0.0
 40
0.0
 40
0.0
 40
0.0279078431106073
 40
0.0553464611739486
 40
0.082785078313444
 40
0.1106156462499493
 40
0.1388519608451139
 40
0.1662187381290086
 40
0.1937772453182611
 40
0.2215567891382816
 40
0.2497918841647885
 40
0.2795035366487379
 40
0.3094611465762311
 40
0.3306569622605521
 40
0.352009120531097
 40
0.3733612802634725
 40
0.3948726672410007
 40
0.4153490483609859
 40
0.436028477472637
 40
0.4567079066236202
 40
0.4812701189927782
 40
0.505832330054456
 40
0.5332718280719547
 40
0.5607113217735124
 40
0.5885427999652854
 40
0.6167800879185151
 40
0.6441467761122473
 40
0.6718156411328251
 40
0.6994845073888105
 40
0.7277195274964626
 40
0.7551588265134814
 40
0.7825981227736579
 40
0.8104293736170989
 40
0.83866644031486
 40
0.8660332620548906
 40
0.8935918582757091
 40
0.9213715198350934
 40
0.9496067742205294
 40
0.9770448836303812
 40
1.0
 40
1.0
 40
1.0
 40
1.0
 10
1997.960139790798
 20
1078.257007250347
 30
0.0
 10
1997.934027853631
 20
1078.413029647304
 30
0.0
 10
1997.882243009104
 20
1078.722451178063
 30
0.0
 10
1997.735514898573
 20
1079.175771307719
 30
0.0
 10
1997.540748817194
 20
1079.618479525895
 30
0.0
 10
1997.290958414702
 20
1080.051967466987
 30
0.0
 10
1996.990881173183
 20
1080.468261862489
 30
0.0
 10
1996.643638146693
 20
1080.863547661446
 30
0.0
 10
1996.253501486356
 20
1081.234646102013
 30
0.0
 10
1995.816407998462
 20
1081.584580951145
 30
0.0
 10
1995.326777553807
 20
1081.914921352437
 30
0.0
 10
1994.784704612601
 20
1082.220790203622
 30
0.0
 10
1994.252182473495
 20
1082.468586281288
 30
0.0
 10
1993.752267503151
 20
1082.663723313379
 30
0.0
 10
1993.296919462003
 20
1082.815604087303
 30
0.0
 10
1992.826445805106
 20
1082.947271943933
 30
0.0
 10
1992.351537204716
 20
1083.055796060074
 30
0.0
 10
1991.873166746056
 20
1083.142066511806
 30
0.0
 10
1991.394717623837
 20
1083.206409035184
 30
0.0
 10
1990.879830608935
 20
1083.252563255818
 30
0.0
 10
1990.331275825562
 20
1083.275068240479
 30
0.0
 10
1989.72909840181
 20
1083.26843773875
 30
0.0
 10
1989.107339915607
 20
1083.226914694897
 30
0.0
 10
1988.467898154875
 20
1083.146200724406
 30
0.0
 10
1987.834873353171
 20
1083.02707000373
 30
0.0
 10
1987.219703572432
 20
1082.871885391579
 30
0.0
 10
1986.627328520536
 20
1082.682125115886
 30
0.0
 10
1986.064367419121
 20
1082.460647546588
 30
0.0
 10
1985.525141583434
 20
1082.205072113593
 30
0.0
 10
1985.0212435735
 20
1081.919823871683
 30
0.0
 10
1984.556054798587
 20
1081.607297485928
 30
0.0
 10
1984.132718467591
 20
1081.271035093137
 30
0.0
 10
1983.748800058486
 20
1080.908116216382
 30
0.0
 10
1983.411960312369
 20
1080.524313371301
 30
0.0
 10
1983.124867605548
 20
1080.124749455581
 30
0.0
 10
1982.889230012383
 20
1079.713339877109
 30
0.0
 10
1982.703068559936
 20
1079.286266621393
 30
0.0
 10
1982.572943056102
 20
1078.851404527686
 30
0.0
 10
1982.496777079793
 20
1078.436771862613
 30
0.0
 10
1982.489956803581
 20
1078.169950566366
 30
0.0
 10
1982.486850032151
 20
1078.048408160408
 30
0.0
  0
LINE
  5
2E6
330
2C2
100
AcDbEntity
  8
0
  6
Continuous
 62
     7
370
    15
100
AcDbLine
 10
1986.574006209718
 20
1080.304922326058
 30
0.0
 11
1986.910127064608
 21
1079.627987919936
 31
0.0
  0
SPLINE
  5
2E7
330
2C2
100
AcDbEntity
  8
0
  6
Continuous
 62
     7
370
    15
100
AcDbSpline
210
0.0
220
0.0
230
1.0
 70
     8
 71
     3
 72
    16
 73
    12
 74
     0
 42
0.0000000001
 43
0.0000000001
 40
0.0
 40
0.0
 40
0.0
 40
0.0
 40
0.1227513970110201
 40
0.245675944801741
 40
0.3681114518539799
 40
0.489411398621216
 40
0.6089649406353167
 40
0.7260256851894011
 40
0.8448617337320049
 40
0.9649214484436994
 40
1.0
 40
1.0
 40
1.0
 40
1.0
 10
1986.910127042216
 20
1079.62798809163
 30
0.0
 10
1986.704396059612
 20
1079.544517033234
 30
0.0
 10
1986.292643894203
 20
1079.377457173761
 30
0.0
 10
1985.72874401185
 20
1079.073480472904
 30
0.0
 10
1985.213546598688
 20
1078.735585606978
 30
0.0
 10
1984.757410450284
 20
1078.365886601991
 30
0.0
 10
1984.365212609995
 20
1077.972278354063
 30
0.0
 10
1984.033932620877
 20
1077.557224743599
 30
0.0
 10
1983.770024544226
 20
1077.121927038619
 30
0.0
 10
1983.602865937114
 20
1076.777074141802
 30
0.0
 10
1983.547983253179
 20
1076.576304338376
 30
0.0
 10
1983.535573645259
 20
1076.530907969899
 30
0.0
  0
SPLINE
  5
2E8
330
2C2
100
AcDbEntity
  8
0
  6
Continuous
 62
     7
370
    15
100
AcDbSpline
210
0.0
220
0.0
230
1.0
 70
     8
 71
     3
 72
    37
 73
    33
 74
     0
 42
0.0000000001
 43
0.0000000001
 40
0.0
 40
0.0
 40
0.0
 40
0.0
 40
0.0199528009322059
 40
0.0537369926116739
 40
0.0878186260668331
 40
0.1229854870171054
 40
0.1584444779135934
 40
0.1940072103010786
 40
0.2294819644080482
 40
0.2646798474650205
 40
0.2988058680102178
 40
0.3325754652160542
 40
0.3668095767656845
 40
0.401449023252537
 40
0.4369555356754636
 40
0.4725131911200715
 40
0.50793043352002
 40
0.5430202068540268
 40
0.5776057445953191
 40
0.6114643121086864
 40
0.6458366133963886
 40
0.6805638321057891
 40
0.7154705132121025
 40
0.7510085980042922
 40
0.7863541767360188
 40
0.8213224696659622
 40
0.8557628564569929
 40
0.8903994381086659
 40
0.9248952772547141
 40
0.9596946621190648
 40
0.9946199233456777
 40
1.0
 40
1.0
 40
1.0
 40
1.0
 10
1997.164655674867
 20
1076.922625369135
 30
0.0
 10
1997.148863387526
 20
1077.01891509868
 30
0.0
 10
1997.106331512875
 20
1077.278243124991
 30
0.0
 10
1996.961465233274
 20
1077.691569291045
 30
0.0
 10
1996.736763939249
 20
1078.163931153253
 30
0.0
 10
1996.43868416407
 20
1078.62451720363
 30
0.0
 10
1996.071653389264
 20
1079.066972651245
 30
0.0
 10
1995.64109894975
 20
1079.480978134086
 30
0.0
 10
1995.154207960672
 20
1079.859884253188
 30
0.0
 10
1994.622624433937
 20
1080.196212914898
 30
0.0
 10
1994.055689492383
 20
1080.487483401361
 30
0.0
 10
1993.456888954381
 20
1080.734763991916
 30
0.0
 10
1992.823556498331
 20
1080.940839562033
 30
0.0
 10
1992.153524954886
 20
1081.104328068362
 30
0.0
 10
1991.455204999429
 20
1081.220726009921
 30
0.0
 10
1990.739138419365
 20
1081.286523852295
 30
0.0
 10
1990.02099844803
 20
1081.300162793501
 30
0.0
 10
1989.312219627732
 20
1081.262487657033
 30
0.0
 10
1988.623932148856
 20
1081.175760497836
 30
0.0
 10
1987.957069869177
 20
1081.042697032305
 30
0.0
 10
1987.312468319149
 20
1080.865023126298
 30
0.0
 10
1986.691617708941
 20
1080.641615520376
 30
0.0
 10
1986.101171661919
 20
1080.373354197155
 30
0.0
 10
1985.551486078933
 20
1080.063222894049
 30
0.0
 10
1985.051930832183
 20
1079.715666733704
 30
0.0
 10
1984.61235870884
 20
1079.338878454553
 30
0.0
 10
1984.233857029362
 20
1078.936004550897
 30
0.0
 10
1983.919039636719
 20
1078.511965148795
 30
0.0
 10
1983.666304527356
 20
1078.068204374317
 30
0.0
 10
1983.487495916137
 20
1077.608966583535
 30
0.0
 10
1983.390988045098
 20
1077.271991094771
 30
0.0
 10
1983.376221893994
 20
1077.089383311991
 30
0.0
 10
1983.374250864125
 20
1077.065008280774
 30
0.0
  0
LWPOLYLINE
  5
2E9
330
2C2
100
AcDbEntity
  8
0
  6
Continuous
 62
     7
370
    15
100
AcDbPolyline
 90
       47
 70
   128
 43
0.0
 10
1996.644198750263
 20
1075.416860008758
 10
1996.881590407966
 20
1075.886286191489
 10
1997.059071008308
 20
1076.39170463633
 10
1997.163793195041
 20
1076.907827435842
 10
1997.194014306971
 20
1077.426343910023
 10
1997.15038512107
 20
1077.938947135693
 10
1997.038496764186
 20
1078.429024346453
 10
1996.861442035881
 20
1078.902630385948
 10
1996.616355735713
 20
1079.367480538994
 10
1996.303624512961
 20
1079.817610039682
 10
1995.918807499573
 20
1080.253100612202
 10
1995.472361721872
 20
1080.658272603983
 10
1994.971691990598
 20
1081.026722013945
 10
1994.425812163667
 20
1081.35331068036
 10
1993.844824280662
 20
1081.63439338491
 10
1993.240592579111
 20
1081.868020045124
 10
1992.597316341487
 20
1082.061629574823
 10
1991.923386957876
 20
1082.2107028271
 10
1991.228624368369
 20
1082.311866291141
 10
1990.510859571291
 20
1082.363637202374
 10
1989.794158061523
 20
1082.363311050397
 10
1989.089835820997
 20
1082.312131854181
 10
1988.407942530836
 20
1082.212817812104
 10
1987.7410687738
 20
1082.065921561734
 10
1987.10239007364
 20
1081.874703713403
 10
1986.490445320263
 20
1081.638354118719
 10
1985.915301812499
 20
1081.359721338822
 10
1985.386027181893
 20
1081.043011754823
 10
1984.902100873384
 20
1080.686961757851
 10
1984.479667446096
 20
1080.303550331346
 10
1984.121291583811
 20
1079.898335165111
 10
1983.821564029795
 20
1079.466479414898
 10
1983.585608545401
 20
1079.011468058679
 10
1983.421524742626
 20
1078.548491927358
 10
1983.328027768935
 20
1078.076618769429
 10
1983.306461764396
 20
1077.603191593295
 10
1983.355943863869
 20
1077.135511111118
 10
1983.476209292579
 20
1076.672352046381
 10
1983.664146788879
 20
1076.22456403218
 10
1983.922802289146
 20
1075.787584387932
 10
1984.251207348927
 20
1075.368273340532
 10
1984.64584957012
 20
1074.973886318332
 10
1985.092374401023
 20
1074.617213211579
 10
1985.589986594986
 20
1074.296310189494
 10
1986.129980317032
 20
1074.015323172897
 10
1986.702705935274
 20
1073.77703965712
 10
1986.702705935274
 20
1073.77703965712
  0
ARC
  5
2EA
330
2C2
100
AcDbEntity
  8
0
  6
Continuous
 62
     7
370
    15
100
AcDbCircle
 10
1990.437717609215
 20
1070.438842338888
 30
0.0
 40
9.740273629110406
100
AcDbArc
 50
49.44201171916116
 51
111.2122759087509
  0
LINE
  5
2EB
330
2C2
100
AcDbEntity
  8
0
  6
Continuous
 62
     7
370
    15
100
AcDbLine
 10
1982.737098742447
 20
1071.861121857049
 30
0.0
 11
1982.829185039063
 21
1068.845681205845
 31
0.0
  0
LINE
  5
2EC
330
2C2
100
AcDbEntity
  8
0
  6
Continuous
 62
     7
370
    15
100
AcDbLine
 10
2001.864394344514
 20
1077.165644583191
 30
0.0
 11
2001.95648064113
 21
1074.150203931987
 31
0.0
  0
LINE
  5
2ED
330
2C2
100
AcDbEntity
  8
0
  6
Continuous
 62
     7
370
    15
100
AcDbLine
 10
1986.710927926043
 20
1073.507803884691
 30
0.0
 11
1986.702705935274
 21
1073.77703965712
 31
0.0
  0
LINE
  5
2EE
330
2C2
100
AcDbEntity
  8
0
  6
Continuous
 62
     7
370
    15
100
AcDbLine
 10
1986.918348546767
 20
1079.358751983016
 30
0.0
 11
1986.910127064608
 21
1079.627987919936
 31
0.0
  0
SPLINE
  5
2EF
330
2C2
100
AcDbEntity
  8
0
  6
Continuous
 62
     7
370
    15
100
AcDbSpline
210
0.0
220
0.0
230
1.0
 70
     8
 71
     3
 72
    38
 73
    34
 74
     0
 42
0.0000000001
 43
0.0000000001
 40
0.0
 40
0.0
 40
0.0
 40
0.0
 40
0.02458582669
 40
0.0579781010356765
 40
0.0912897383613858
 40
0.1243433136991358
 40
0.1563921204141071
 40
0.188099543716916
 40
0.2202392434951432
 40
0.2527612978547778
 40
0.2860993512517993
 40
0.3194874026753987
 40
0.3527455720146526
 40
0.3856981422345431
 40
0.4181790015294576
 40
0.4499663196297722
 40
0.4822362851915682
 40
0.5148413006904539
 40
0.547616705490448
 40
0.5809869237162803
 40
0.6141783309515393
 40
0.6470173312619315
 40
0.6793598800331008
 40
0.7118766976666004
 40
0.7442631835536626
 40
0.7769365142719803
 40
0.809729933505652
 40
0.8424729691645765
 40
0.8755844812490789
 40
0.9082976127278669
 40
0.940580286233658
 40
0.9732396957887543
 40
1.0
 40
1.0
 40
1.0
 40
1.0
 10
1983.320700710754
 20
1077.468612071217
 30
0.0
 10
1983.323277906074
 20
1077.587378585943
 30
0.0
 10
1983.329355427588
 20
1077.86745283674
 30
0.0
 10
1983.426124157278
 20
1078.305839548646
 30
0.0
 10
1983.595660637616
 20
1078.77640180434
 30
0.0
 10
1983.835523836563
 20
1079.227352891446
 30
0.0
 10
1984.136012686164
 20
1079.653501055884
 30
0.0
 10
1984.494144170052
 20
1080.054572950589
 30
0.0
 10
1984.911188122796
 20
1080.430908950211
 30
0.0
 10
1985.389927703571
 20
1080.782502204042
 30
0.0
 10
1985.926107332942
 20
1081.102738356872
 30
0.0
 10
1986.512843813886
 20
1081.385306026207
 30
0.0
 10
1987.13737818354
 20
1081.623924075324
 30
0.0
 10
1987.789068602553
 20
1081.815616199665
 30
0.0
 10
1988.456334314523
 20
1081.959066155214
 30
0.0
 10
1989.13686843246
 20
1082.055242796425
 30
0.0
 10
1989.829506516098
 20
1082.103288442547
 30
0.0
 10
1990.533623683283
 20
1082.102261396178
 30
0.0
 10
1991.242812869938
 20
1082.050644178575
 30
0.0
 10
1991.945846805244
 20
1081.947801672921
 30
0.0
 10
1992.631311489297
 20
1081.794744328993
 30
0.0
 10
1993.284816242683
 20
1081.595555538584
 30
0.0
 10
1993.902729859112
 20
1081.353313376171
 30
0.0
 10
1994.480739478803
 20
1081.069363186985
 30
0.0
 10
1995.017588289942
 20
1080.743954469592
 30
0.0
 10
1995.507144284757
 20
1080.380346459956
 30
0.0
 10
1995.944085576962
 20
1079.981514007448
 30
0.0
 10
1996.323767816877
 20
1079.550987927129
 30
0.0
 10
1996.63954942253
 20
1079.095251176418
 30
0.0
 10
1996.887989582294
 20
1078.620980947853
 30
0.0
 10
1997.065325903898
 20
1078.13353783982
 30
0.0
 10
1997.173979176982
 20
1077.66493702166
 30
0.0
 10
1997.188618087107
 20
1077.356905647537
 30
0.0
 10
1997.195210876999
 20
1077.218180420577
 30
0.0
  0
SPLINE
  5
2F0
330
2C2
100
AcDbEntity
  8
0
  6
Continuous
 62
     7
370
    15
100
AcDbSpline
210
0.0
220
0.0
230
1.0
 70
     8
 71
     3
 72
    36
 73
    32
 74
     0
 42
0.0000000001
 43
0.0000000001
 40
0.0
 40
0.0
 40
0.0
 40
0.0
 40
0.0314828237762966
 40
0.06768793813062
 40
0.1035614131072286
 40
0.1389223522907368
 40
0.1735224342748803
 40
0.208647992652309
 40
0.2441392512789417
 40
0.2798170130366437
 40
0.3161433280320546
 40
0.3522760547152095
 40
0.3880261715056329
 40
0.423235514914606
 40
0.4586290818682086
 40
0.4938817645261583
 40
0.5294476900270134
 40
0.565145370994837
 40
0.6007892435307703
 40
0.6368352824859136
 40
0.6724486468064583
 40
0.7075909525124616
 40
0.7431399955084794
 40
0.7791434223151591
 40
0.8147678713842953
 40
0.850468964342072
 40
0.886061031124251
 40
0.9213617791181574
 40
0.9568253133696838
 40
0.9919936989406467
 40
1.0
 40
1.0
 40
1.0
 40
1.0
 10
1983.406330418504
 20
1076.941465409288
 30
0.0
 10
1983.436335545744
 20
1077.080084332131
 30
0.0
 10
1983.500846442564
 20
1077.378114430693
 30
0.0
 10
1983.688382854081
 20
1077.823456907903
 30
0.0
 10
1983.945313327687
 20
1078.271405739486
 30
0.0
 10
1984.26532693347
 20
1078.693822526516
 30
0.0
 10
1984.64280256584
 20
1079.090263898548
 30
0.0
 10
1985.077270561676
 20
1079.459145460071
 30
0.0
 10
1985.569400155855
 20
1079.799646621361
 30
0.0
 10
1986.11623399062
 20
1080.107583719208
 30
0.0
 10
1986.71059119146
 20
1080.377079291063
 30
0.0
 10
1987.343513103365
 20
1080.603303071147
 30
0.0
 10
1988.000740723999
 20
1080.782074975098
 30
0.0
 10
1988.676904508679
 20
1080.913857506488
 30
0.0
 10
1989.366332906618
 20
1080.997093227314
 30
0.0
 10
1990.067492547582
 20
1081.031208399145
 30
0.0
 10
1990.772976436426
 20
1081.015530489511
 30
0.0
 10
1991.476063296899
 20
1080.949538504761
 30
0.0
 10
1992.169948380792
 20
1080.833408030349
 30
0.0
 10
1992.84367140816
 20
1080.668538539737
 30
0.0
 10
1993.487634753645
 20
1080.457531993446
 30
0.0
 10
1994.09586111521
 20
1080.203779056078
 30
0.0
 10
1994.667301783389
 20
1079.906224705591
 30
0.0
 10
1995.195711023703
 20
1079.566925214661
 30
0.0
 10
1995.67352083525
 20
1079.190207215664
 30
0.0
 10
1996.09379425068
 20
1078.782196954405
 30
0.0
 10
1996.452382690236
 20
1078.346961199187
 30
0.0
 10
1996.748567264139
 20
1077.889166649372
 30
0.0
 10
1996.971799661888
 20
1077.413562519084
 30
0.0
 10
1997.103412537393
 20
1077.051985105794
 30
0.0
 10
1997.137693775692
 20
1076.848299010748
 30
0.0
 10
1997.144050878336
 20
1076.810527521809
 30
0.0
  0
SPLINE
  5
2F1
330
2C2
100
AcDbEntity
  8
0
  6
Continuous
 62
     7
370
    15
100
AcDbSpline
210
0.0
220
0.0
230
1.0
 70
     8
 71
     3
 72
    15
 73
    11
 74
     0
 42
0.0000000001
 43
0.0000000001
 40
0.0
 40
0.0
 40
0.0
 40
0.0
 40
0.1264377619603645
 40
0.2521147218699677
 40
0.3758896853008142
 40
0.5002927712648934
 40
0.6242041105538681
 40
0.7492200483445549
 40
0.8747027650765467
 40
0.9999999999999998
 40
0.9999999999999998
 40
0.9999999999999998
 40
0.9999999999999998
 10
1983.587118716619
 20
1076.40809445157
 30
0.0
 10
1983.651688488088
 20
1076.562541169824
 30
0.0
 10
1983.780439501416
 20
1076.870505268624
 30
0.0
 10
1984.059786018307
 20
1077.31087003377
 30
0.0
 10
1984.396795128603
 20
1077.729875536347
 30
0.0
 10
1984.793870779951
 20
1078.121528713369
 30
0.0
 10
1985.248148284313
 20
1078.485090698757
 30
0.0
 10
1985.75660257135
 20
1078.815458450092
 30
0.0
 10
1986.311706828609
 20
1079.112922946247
 30
0.0
 10
1986.716234374092
 20
1079.276849487109
 30
0.0
 10
1986.91834854855
 20
1079.358752135885
 30
0.0
  0
LINE
  5
2F2
330
2C2
100
AcDbEntity
  8
0
  6
Continuous
 62
     7
370
    15
100
AcDbLine
 10
1978.640076613132
 20
1073.959539805846
 30
0.0
 11
1978.547990316515
 21
1076.97498045705
 31
0.0
  0
LINE
  5
2F3
330
2C2
100
AcDbEntity
  8
0
  6
Continuous
 62
     7
370
    15
100
AcDbLine
 10
1986.69196744115
 20
1073.468807486005
 30
0.0
 11
1986.710927926043
 21
1073.507803884691
 31
0.0
  0
ENDBLK
  5
2C4
330
2C2
100
AcDbEntity
  8
0
100
AcDbBlockEnd
  0
ENDSEC
  0
SECTION
  2
ENTITIES
  0
INSERT
  5
297
330
1F
100
AcDbEntity
  8
0
100
AcDbBlockReference
  2
1
 10
0.0
 20
0.0
 30
0.0
  0
INSERT
  5
2C1
330
1F
100
AcDbEntity
  8
0
100
AcDbBlockReference
  2
3
 10
0.0
 20
0.0
 30
0.0
  0
INSERT
  5
2F4
330
1F
100
AcDbEntity
  8
0
100
AcDbBlockReference
  2
4
 10
0.0
 20
0.0
 30
0.0
  0
ENDSEC
  0
SECTION
  2
OBJECTS
  0
DICTIONARY
  5
C
330
0
100
AcDbDictionary
281
     1
  3
ACAD_COLOR
350
6B
  3
ACAD_GROUP
350
D
  3
ACAD_LAYOUT
350
1A
  3
ACAD_MATERIAL
350
6A
  3
ACAD_MLEADERSTYLE
350
12D
  3
ACAD_MLINESTYLE
350
17
  3
ACAD_PLOTSETTINGS
350
19
  3
ACAD_PLOTSTYLENAME
350
E
  3
ACAD_SCALELIST
350
10C
  3
ACAD_TABLESTYLE
350
7E
  3
ACAD_VISUALSTYLE
350
EF
  3
ACDB_RECOMPOSE_DATA
350
15D
  3
AcDbVariableDictionary
350
5E
  3
DWGPROPS
350
307
  0
DICTIONARY
  5
13C
330
10
100
AcDbDictionary
280
     1
281
     1
  3
ADSK_XREC_LAYER_RECONCILED
360
2F5
  0
DICTIONARY
  5
6B
102
{ACAD_REACTORS
330
C
102
}
330
C
100
AcDbDictionary
281
     1
  0
DICTIONARY
  5
D
102
{ACAD_REACTORS
330
C
102
}
330
C
100
AcDbDictionary
281
     1
  0
DICTIONARY
  5
1A
102
{ACAD_REACTORS
330
C
102
}
330
C
100
AcDbDictionary
281
     1
  3
Layout1
350
D3
  3
Layout2
350
D7
  3
Model
350
22
  0
DICTIONARY
  5
6A
102
{ACAD_REACTORS
330
C
102
}
330
C
100
AcDbDictionary
281
     1
  3
ByBlock
350
ED
  3
ByLayer
350
EC
  3
Global
350
EE
  0
DICTIONARY
  5
12D
102
{ACAD_REACTORS
330
C
102
}
330
C
100
AcDbDictionary
281
     1
  3
Annotative
350
13B
  3
Standard
350
12E
  0
DICTIONARY
  5
17
102
{ACAD_REACTORS
330
C
102
}
330
C
100
AcDbDictionary
281
     1
  3
Standard
350
18
  0
DICTIONARY
  5
19
102
{ACAD_REACTORS
330
C
102
}
330
C
100
AcDbDictionary
281
     1
  0
ACDBDICTIONARYWDFLT
  5
E
102
{ACAD_REACTORS
330
C
102
}
330
C
100
AcDbDictionary
281
     1
  3
Normal
350
F
100
AcDbDictionaryWithDefault
340
F
  0
DICTIONARY
  5
10C
102
{ACAD_REACTORS
330
C
102
}
330
C
100
AcDbDictionary
281
     1
  3
A0
350
10D
  3
A1
350
188
  3
A2
350
189
  3
A3
350
18A
  3
A4
350
18B
  3
A5
350
18C
  3
A6
350
18D
  3
A7
350
18E
  3
A8
350
18F
  3
A9
350
190
  3
B0
350
191
  3
B1
350
192
  3
B2
350
193
  3
B3
350
194
  3
B4
350
195
  3
B5
350
196
  3
B6
350
197
  3
B7
350
198
  3
B8
350
199
  3
B9
350
19A
  3
C0
350
19B
  3
C1
350
19C
  3
C2
350
19D
  3
C3
350
19E
  3
C4
350
19F
  3
C5
350
1A0
  3
C6
350
1A1
  3
C7
350
1A2
  3
C8
350
1A3
  3
C9
350
1A4
  3
D0
350
1A5
  3
D1
350
1A6
  3
D2
350
1A7
  0
DICTIONARY
  5
7E
102
{ACAD_REACTORS
330
C
102
}
330
C
100
AcDbDictionary
281
     1
  3
Standard
350
7F
  0
DICTIONARY
  5
EF
102
{ACAD_REACTORS
330
C
102
}
330
C
100
AcDbDictionary
281
     1
  3
2dWireframe
350
F5
  3
3D Hidden
350
F7
  3
3dWireframe
350
F6
  3
Basic
350
F4
  3
Brighten
350
FB
  3
ColorChange
350
FF
  3
Conceptual
350
F8
  3
Dim
350
FA
  3
Facepattern
350
FE
  3
Flat
350
F0
  3
FlatWithEdges
350
F1
  3
Gouraud
350
F2
  3
GouraudWithEdges
350
F3
  3
Linepattern
350
FD
  3
Realistic
350
F9
  3
Thicken
350
FC
  0
XRECORD
  5
15D
102
{ACAD_REACTORS
330
C
102
}
330
C
100
AcDbXrecord
280
     1
 90
        1
330
7F
  0
DICTIONARY
  5
5E
102
{ACAD_REACTORS
330
C
102
}
330
C
100
AcDbDictionary
281
     1
  3
CANNOSCALE
350
146
  3
CMLEADERSTYLE
350
145
  3
CTABLESTYLE
350
84
  3
DIMASSOC
350
5F
  3
HIDETEXT
350
63
  3
INDEXCTL
350
303
  3
LIGHTINGUNITS
350
301
  3
MSLTSCALE
350
300
  3
PSOLHEIGHT
350
305
  3
PSOLWIDTH
350
304
  3
SORTENTS
350
302
  0
XRECORD
  5
307
102
{ACAD_REACTORS
330
C
102
}
330
C
100
AcDbXrecord
280
     1
  1
DWGPROPS COOKIE
  2

  3

  4

  6

  7

  8
orhan kara
  9

300
=
301
=
302
=
303
=
304
=
305
=
306
=
307
=
308
=
309
=
 40
0.0003652083333333
 41
2458557.382925
 42
2459067.65222243
  1

 90
        0
  0
XRECORD
  5
2F5
102
{ACAD_REACTORS
330
13C
102
}
330
13C
100
AcDbXrecord
280
     1
290
     1
  0
LAYOUT
  5
D3
102
{ACAD_XDICTIONARY
360
30B
102
}
102
{ACAD_REACTORS
330
1A
102
}
330
1A
100
AcDbPlotSettings
  1

  2
C:\Documents and Settings\basas\Application Data\Autodesk\AutoCAD 2005\R16.1\enu\plotters\Default Windows System Printer.pc3
  4

  6

 40
0.0
 41
0.0
 42
0.0
 43
0.0
 44
0.0
 45
0.0
 46
0.0
 47
0.0
 48
0.0
 49
0.0
140
0.0
141
0.0
142
1.0
143
1.0
 70
   688
 72
     0
 73
     0
 74
     5
  7

 75
    16
147
1.0
148
0.0
149
0.0
100
AcDbLayout
  1
Layout1
 70
     1
 71
     1
 10
0.0
 20
0.0
 11
12.0
 21
9.0
 12
0.0
 22
0.0
 32
0.0
 14
0.0
 24
0.0
 34
0.0
 15
0.0
 25
0.0
 35
0.0
146
0.0
 13
0.0
 23
0.0
 33
0.0
 16
1.0
 26
0.0
 36
0.0
 17
0.0
 27
1.0
 37
0.0
 76
     0
330
D2
  0
LAYOUT
  5
D7
102
{ACAD_XDICTIONARY
360
30D
102
}
102
{ACAD_REACTORS
330
1A
102
}
330
1A
100
AcDbPlotSettings
  1

  2
C:\Documents and Settings\basas\Application Data\Autodesk\AutoCAD 2005\R16.1\enu\plotters\Default Windows System Printer.pc3
  4

  6

 40
0.0
 41
0.0
 42
0.0
 43
0.0
 44
0.0
 45
0.0
 46
0.0
 47
0.0
 48
0.0
 49
0.0
140
0.0
141
0.0
142
1.0
143
1.0
 70
   688
 72
     0
 73
     0
 74
     5
  7

 75
    16
147
1.0
148
0.0
149
0.0
100
AcDbLayout
  1
Layout2
 70
     1
 71
     2
 10
0.0
 20
0.0
 11
12.0
 21
9.0
 12
0.0
 22
0.0
 32
0.0
 14
0.0
 24
0.0
 34
0.0
 15
0.0
 25
0.0
 35
0.0
146
0.0
 13
0.0
 23
0.0
 33
0.0
 16
1.0
 26
0.0
 36
0.0
 17
0.0
 27
1.0
 37
0.0
 76
     0
330
D6
  0
LAYOUT
  5
22
102
{ACAD_XDICTIONARY
360
308
102
}
102
{ACAD_REACTORS
330
1A
102
}
330
1A
100
AcDbPlotSettings
  1

  2
none_device
  4
ISO_A4_(210.00_x_297.00_MM)
  6

 40
7.5
 41
20.0
 42
7.5
 43
20.0
 44
210.0
 45
297.0
 46
11.54999923706054
 47
-13.65000009536743
 48
0.0
 49
0.0
140
0.0
141
0.0
142
1.0
143
8.704084754739808
 70
 11952
 72
     1
 73
     0
 74
     0
  7

 75
     0
147
0.1148885871608098
148
0.0
149
0.0
100
AcDbLayout
  1
Model
 70
     1
 71
     0
 10
0.0
 20
0.0
 11
12.0
 21
9.0
 12
0.0
 22
0.0
 32
0.0
 14
0.0
 24
0.0
 34
0.0
 15
0.0
 25
0.0
 35
0.0
146
0.0
 13
0.0
 23
0.0
 33
0.0
 16
1.0
 26
0.0
 36
0.0
 17
0.0
 27
1.0
 37
0.0
 76
     0
330
1F
331
EA
1001
ACAD_PSEXT
1000
None
1000
None
1000
Not applicable
1000
The layout will not be plotted unless a new plotter configuration name is selected.
1070
     0
  0
MATERIAL
  5
ED
102
{ACAD_XDICTIONARY
360
311
102
}
102
{ACAD_REACTORS
330
6A
102
}
330
6A
100
AcDbMaterial
  1
ByBlock
  0
MATERIAL
  5
EC
102
{ACAD_XDICTIONARY
360
30F
102
}
102
{ACAD_REACTORS
330
6A
102
}
330
6A
100
AcDbMaterial
  1
ByLayer
  0
MATERIAL
  5
EE
102
{ACAD_XDICTIONARY
360
173
102
}
102
{ACAD_REACTORS
330
6A
102
}
330
6A
100
AcDbMaterial
  1
Global
 43
0.0007999999797903
 43
0.0
 43
0.0
 43
0.0
 43
0.0
 43
0.0007999999797903
 43
0.0
 43
0.0
 43
0.0
 43
0.0
 43
1.0
 43
0.0
 43
0.0
 43
0.0
 43
0.0
 43
1.0
 49
0.0007999999797903
 49
0.0
 49
0.0
 49
0.0
 49
0.0
 49
0.0007999999797903
 49
0.0
 49
0.0
 49
0.0
 49
0.0
 49
1.0
 49
0.0
 49
0.0
 49
0.0
 49
0.0
 49
1.0
142
0.0007999999797903
142
0.0
142
0.0
142
0.0
142
0.0
142
0.0007999999797903
142
0.0
142
0.0
142
0.0
142
0.0
142
1.0
142
0.0
142
0.0
142
0.0
142
0.0
142
1.0
144
0.0007999999797903
144
0.0
144
0.0
144
0.0
144
0.0
144
0.0007999999797903
144
0.0
144
0.0
144
0.0
144
0.0
144
1.0
144
0.0
144
0.0
144
0.0
144
0.0
144
1.0
1001
ACAD
1070
    -1
1070
     3
1070
     0
1000

1071
        0
1070
     0
  0
MLEADERSTYLE
  5
13B
102
{ACAD_REACTORS
330
12D
102
}
330
12D
100
AcDbMLeaderStyle
170
     2
171
     1
172
     0
 90
        2
 40
0.0
 41
0.0
173
     1
 91
-1056964608
340
14
 92
       -2
290
     1
 42
2.0
291
     1
 43
8.0
  3
Standard
 44
4.0
300

342
11
174
     1
178
     1
175
     1
176
     0
 93
-1056964608
 45
4.0
292
     0
297
     0
 46
4.0
 94
-1056964608
 47
1.0
 49
1.0
140
1.0
293
     1
141
0.0
294
     1
177
     0
142
1.0
295
     0
296
     1
143
3.75
1001
ACAD_MLEADERVER
1070
     2
  0
MLEADERSTYLE
  5
12E
102
{ACAD_REACTORS
330
12D
102
}
330
12D
100
AcDbMLeaderStyle
170
     2
171
     1
172
     0
 90
        2
 40
0.0
 41
0.0
173
     1
 91
-1056964608
340
14
 92
       -2
290
     1
 42
2.0
291
     1
 43
8.0
  3
Standard
 44
4.0
300

342
11
174
     1
178
     1
175
     1
176
     0
 93
-1056964608
 45
4.0
292
     0
297
     0
 46
4.0
 94
-1056964608
 47
1.0
 49
1.0
140
1.0
293
     1
141
0.0
294
     1
177
     0
142
1.0
295
     0
296
     0
143
3.75
1001
ACAD_MLEADERVER
1070
     2
  0
MLINESTYLE
  5
18
102
{ACAD_REACTORS
330
17
102
}
330
17
100
AcDbMlineStyle
  2
STANDARD
 70
     0
  3

 62
   256
 51
90.0
 52
90.0
 71
     2
 49
0.5
 62
   256
  6
BYLAYER
 49
-0.5
 62
   256
  6
BYLAYER
  0
ACDBPLACEHOLDER
  5
F
102
{ACAD_REACTORS
330
E
102
}
330
E
  0
SCALE
  5
10D
102
{ACAD_REACTORS
330
10C
102
}
330
10C
100
AcDbScale
 70
     0
300
1:1
140
1.0
141
1.0
290
     1
  0
SCALE
  5
188
102
{ACAD_REACTORS
330
10C
102
}
330
10C
100
AcDbScale
 70
     0
300
1:2
140
1.0
141
2.0
290
     0
  0
SCALE
  5
189
102
{ACAD_REACTORS
330
10C
102
}
330
10C
100
AcDbScale
 70
     0
300
1:4
140
1.0
141
4.0
290
     0
  0
SCALE
  5
18A
102
{ACAD_REACTORS
330
10C
102
}
330
10C
100
AcDbScale
 70
     0
300
1:5
140
1.0
141
5.0
290
     0
  0
SCALE
  5
18B
102
{ACAD_REACTORS
330
10C
102
}
330
10C
100
AcDbScale
 70
     0
300
1:8
140
1.0
141
8.0
290
     0
  0
SCALE
  5
18C
102
{ACAD_REACTORS
330
10C
102
}
330
10C
100
AcDbScale
 70
     0
300
1:10
140
1.0
141
10.0
290
     0
  0
SCALE
  5
18D
102
{ACAD_REACTORS
330
10C
102
}
330
10C
100
AcDbScale
 70
     0
300
1:16
140
1.0
141
16.0
290
     0
  0
SCALE
  5
18E
102
{ACAD_REACTORS
330
10C
102
}
330
10C
100
AcDbScale
 70
     0
300
1:20
140
1.0
141
20.0
290
     0
  0
SCALE
  5
18F
102
{ACAD_REACTORS
330
10C
102
}
330
10C
100
AcDbScale
 70
     0
300
1:30
140
1.0
141
30.0
290
     0
  0
SCALE
  5
190
102
{ACAD_REACTORS
330
10C
102
}
330
10C
100
AcDbScale
 70
     0
300
1:40
140
1.0
141
40.0
290
     0
  0
SCALE
  5
191
102
{ACAD_REACTORS
330
10C
102
}
330
10C
100
AcDbScale
 70
     0
300
1:50
140
1.0
141
50.0
290
     0
  0
SCALE
  5
192
102
{ACAD_REACTORS
330
10C
102
}
330
10C
100
AcDbScale
 70
     0
300
1:100
140
1.0
141
100.0
290
     0
  0
SCALE
  5
193
102
{ACAD_REACTORS
330
10C
102
}
330
10C
100
AcDbScale
 70
     0
300
2:1
140
2.0
141
1.0
290
     0
  0
SCALE
  5
194
102
{ACAD_REACTORS
330
10C
102
}
330
10C
100
AcDbScale
 70
     0
300
4:1
140
4.0
141
1.0
290
     0
  0
SCALE
  5
195
102
{ACAD_REACTORS
330
10C
102
}
330
10C
100
AcDbScale
 70
     0
300
8:1
140
8.0
141
1.0
290
     0
  0
SCALE
  5
196
102
{ACAD_REACTORS
330
10C
102
}
330
10C
100
AcDbScale
 70
     0
300
10:1
140
10.0
141
1.0
290
     0
  0
SCALE
  5
197
102
{ACAD_REACTORS
330
10C
102
}
330
10C
100
AcDbScale
 70
     0
300
100:1
140
100.0
141
1.0
290
     0
  0
SCALE
  5
198
102
{ACAD_REACTORS
330
10C
102
}
330
10C
100
AcDbScale
 70
     0
300
1/128" = 1'-0"
140
0.0078125
141
12.0
290
     0
  0
SCALE
  5
199
102
{ACAD_REACTORS
330
10C
102
}
330
10C
100
AcDbScale
 70
     0
300
1/64" = 1'-0"
140
0.015625
141
12.0
290
     0
  0
SCALE
  5
19A
102
{ACAD_REACTORS
330
10C
102
}
330
10C
100
AcDbScale
 70
     0
300
1/32" = 1'-0"
140
0.03125
141
12.0
290
     0
  0
SCALE
  5
19B
102
{ACAD_REACTORS
330
10C
102
}
330
10C
100
AcDbScale
 70
     0
300
1/16" = 1'-0"
140
0.0625
141
12.0
290
     0
  0
SCALE
  5
19C
102
{ACAD_REACTORS
330
10C
102
}
330
10C
100
AcDbScale
 70
     0
300
3/32" = 1'-0"
140
0.09375
141
12.0
290
     0
  0
SCALE
  5
19D
102
{ACAD_REACTORS
330
10C
102
}
330
10C
100
AcDbScale
 70
     0
300
1/8" = 1'-0"
140
0.125
141
12.0
290
     0
  0
SCALE
  5
19E
102
{ACAD_REACTORS
330
10C
102
}
330
10C
100
AcDbScale
 70
     0
300
3/16" = 1'-0"
140
0.1875
141
12.0
290
     0
  0
SCALE
  5
19F
102
{ACAD_REACTORS
330
10C
102
}
330
10C
100
AcDbScale
 70
     0
300
1/4" = 1'-0"
140
0.25
141
12.0
290
     0
  0
SCALE
  5
1A0
102
{ACAD_REACTORS
330
10C
102
}
330
10C
100
AcDbScale
 70
     0
300
3/8" = 1'-0"
140
0.375
141
12.0
290
     0
  0
SCALE
  5
1A1
102
{ACAD_REACTORS
330
10C
102
}
330
10C
100
AcDbScale
 70
     0
300
1/2" = 1'-0"
140
0.5
141
12.0
290
     0
  0
SCALE
  5
1A2
102
{ACAD_REACTORS
330
10C
102
}
330
10C
100
AcDbScale
 70
     0
300
3/4" = 1'-0"
140
0.75
141
12.0
290
     0
  0
SCALE
  5
1A3
102
{ACAD_REACTORS
330
10C
102
}
330
10C
100
AcDbScale
 70
     0
300
1" = 1'-0"
140
1.0
141
12.0
290
     0
  0
SCALE
  5
1A4
102
{ACAD_REACTORS
330
10C
102
}
330
10C
100
AcDbScale
 70
     0
300
1-1/2" = 1'-0"
140
1.5
141
12.0
290
     0
  0
SCALE
  5
1A5
102
{ACAD_REACTORS
330
10C
102
}
330
10C
100
AcDbScale
 70
     0
300
3" = 1'-0"
140
3.0
141
12.0
290
     0
  0
SCALE
  5
1A6
102
{ACAD_REACTORS
330
10C
102
}
330
10C
100
AcDbScale
 70
     0
300
6" = 1'-0"
140
6.0
141
12.0
290
     0
  0
SCALE
  5
1A7
102
{ACAD_REACTORS
330
10C
102
}
330
10C
100
AcDbScale
 70
     0
300
1'-0" = 1'-0"
140
12.0
141
12.0
290
     0
  0
TABLESTYLE
  5
7F
102
{ACAD_XDICTIONARY
360
162
102
}
102
{ACAD_REACTORS
330
7E
102
}
330
7E
100
AcDbTableStyle
  3
Standard
 70
     0
 71
     0
 40
1.5
 41
1.5
280
     0
281
     0
  7
Standard
140
4.5
170
     2
 62
     0
 63
     7
283
     0
274
    -2
284
     1
 64
     0
275
    -2
285
     1
 65
     0
276
    -2
286
     1
 66
     0
277
    -2
287
     1
 67
     0
278
    -2
288
     1
 68
     0
279
    -2
289
     1
 69
     0
  7
Standard
140
6.0
170
     5
 62
     0
 63
     7
283
     0
274
    -2
284
     1
 64
     0
275
    -2
285
     1
 65
     0
276
    -2
286
     1
 66
     0
277
    -2
287
     1
 67
     0
278
    -2
288
     1
 68
     0
279
    -2
289
     1
 69
     0
  7
Standard
140
4.5
170
     5
 62
     0
 63
     7
283
     0
274
    -2
284
     1
 64
     0
275
    -2
285
     1
 65
     0
276
    -2
286
     1
 66
     0
277
    -2
287
     1
 67
     0
278
    -2
288
     1
 68
     0
279
    -2
289
     1
 69
     0
  0
VISUALSTYLE
  5
F5
102
{ACAD_REACTORS
330
EF
102
}
330
EF
100
AcDbVisualStyle
  2
2dWireframe
 70
     4
 71
     0
 72
     2
 73
     1
 90
        0
 40
-0.6
 41
-30.0
 62
     5
 63
     7
 74
     1
 91
        4
 64
     7
 65
   257
 75
     1
175
     1
 42
1.0
 92
        0
 66
   257
 43
1.0
 76
     1
 77
     6
 78
     2
 67
     7
 79
     5
170
     0
171
     0
290
     0
174
     0
 93
        1
 44
0.0
173
     0
291
     0
 45
0.0
1001
ACAD
1000
AcDbSavedByObjectVersion
1070
     0
  0
VISUALSTYLE
  5
F7
102
{ACAD_REACTORS
330
EF
102
}
330
EF
100
AcDbVisualStyle
  2
3D Hidden
 70
     6
 71
     1
 72
     2
 73
     2
 90
        0
 40
-0.6
 41
-30.0
 62
     5
 63
     7
 74
     2
 91
        2
 64
     7
 65
   257
 75
     2
175
     1
 42
40.0
 92
        0
 66
   257
 43
1.0
 76
     1
 77
     6
 78
     2
 67
     7
 79
     3
170
     0
171
     0
290
     0
174
     0
 93
        1
 44
0.0
173
     0
291
     0
 45
0.0
1001
ACAD
1000
AcDbSavedByObjectVersion
1070
     0
  0
VISUALSTYLE
  5
F6
102
{ACAD_REACTORS
330
EF
102
}
330
EF
100
AcDbVisualStyle
  2
3dWireframe
 70
     5
 71
     0
 72
     2
 73
     1
 90
        0
 40
-0.6
 41
-30.0
 62
     5
 63
     7
 74
     1
 91
        4
 64
     7
 65
   257
 75
     1
175
     1
 42
1.0
 92
        0
 66
   257
 43
1.0
 76
     1
 77
     6
 78
     2
 67
     7
 79
     5
170
     0
171
     0
290
     0
174
     0
 93
        1
 44
0.0
173
     0
291
     0
 45
0.0
1001
ACAD
1000
AcDbSavedByObjectVersion
1070
     0
  0
VISUALSTYLE
  5
F4
102
{ACAD_REACTORS
330
EF
102
}
330
EF
100
AcDbVisualStyle
  2
Basic
 70
     7
 71
     1
 72
     0
 73
     1
 90
        0
 40
-0.6
 41
-30.0
 62
     5
 63
     7
 74
     0
 91
        4
 64
     7
 65
   257
 75
     1
175
     1
 42
1.0
 92
        8
 66
     7
 43
1.0
 76
     1
 77
     6
 78
     2
 67
     7
 79
     5
170
     0
171
     0
290
     0
174
     0
 93
        1
 44
0.0
173
     0
291
     1
 45
0.0
1001
ACAD
1000
AcDbSavedByObjectVersion
1070
     0
  0
VISUALSTYLE
  5
FB
102
{ACAD_REACTORS
330
EF
102
}
330
EF
100
AcDbVisualStyle
  2
Brighten
 70
    12
 71
     2
 72
     2
 73
     1
 90
        0
 40
-0.6
 41
-30.0
 62
     5
 63
     7
 74
     1
 91
        4
 64
     7
 65
   257
 75
     1
175
     1
 42
1.0
 92
        8
 66
     7
 43
1.0
 76
     1
 77
     6
 78
     2
 67
     7
 79
     5
170
     0
171
     0
290
     0
174
     0
 93
        1
 44
50.0
173
     0
291
     1
 45
0.0
1001
ACAD
1000
AcDbSavedByObjectVersion
1070
     0
  0
VISUALSTYLE
  5
FF
102
{ACAD_REACTORS
330
EF
102
}
330
EF
100
AcDbVisualStyle
  2
ColorChange
 70
    16
 71
     2
 72
     2
 73
     3
 90
        0
 40
-0.6
 41
-30.0
 62
     5
 63
     8
 74
     1
 91
        4
 64
     7
 65
   257
 75
     1
175
     1
 42
1.0
 92
        8
 66
     8
 43
1.0
 76
     1
 77
     6
 78
     2
 67
     7
 79
     5
170
     0
171
     0
290
     0
174
     0
 93
        1
 44
0.0
173
     0
291
     1
 45
0.0
1001
ACAD
1000
AcDbSavedByObjectVersion
1070
     0
  0
VISUALSTYLE
  5
F8
102
{ACAD_REACTORS
330
EF
102
}
330
EF
100
AcDbVisualStyle
  2
Conceptual
 70
     9
 71
     3
 72
     2
 73
     1
 90
        0
 40
-0.6
 41
-30.0
 62
     5
 63
     7
 74
     2
 91
        2
 64
     7
 65
   257
 75
     1
175
     1
 42
40.0
 92
        8
 66
     7
 43
1.0
 76
     1
 77
     6
 78
     2
 67
     7
 79
     3
170
     0
171
     0
290
     0
174
     0
 93
        1
 44
0.0
173
     0
291
     0
 45
0.0
1001
ACAD
1000
AcDbSavedByObjectVersion
1070
     0
  0
VISUALSTYLE
  5
FA
102
{ACAD_REACTORS
330
EF
102
}
330
EF
100
AcDbVisualStyle
  2
Dim
 70
    11
 71
     2
 72
     2
 73
     1
 90
        0
 40
-0.6
 41
-30.0
 62
     5
 63
     7
 74
     1
 91
        4
 64
     7
 65
   257
 75
     1
175
     1
 42
1.0
 92
        8
 66
     7
 43
1.0
 76
     1
 77
     6
 78
     2
 67
     7
 79
     5
170
     0
171
     0
290
     0
174
     0
 93
        1
 44
-50.0
173
     0
291
     1
 45
0.0
1001
ACAD
1000
AcDbSavedByObjectVersion
1070
     0
  0
VISUALSTYLE
  5
FE
102
{ACAD_REACTORS
330
EF
102
}
330
EF
100
AcDbVisualStyle
  2
Facepattern
 70
    15
 71
     2
 72
     2
 73
     1
 90
        0
 40
-0.6
 41
-30.0
 62
     5
 63
     7
 74
     1
 91
        4
 64
     7
 65
   257
 75
     1
175
     1
 42
1.0
 92
        8
 66
     7
 43
1.0
 76
     1
 77
     6
 78
     2
 67
     7
 79
     5
170
     0
171
     0
290
     0
174
     0
 93
        1
 44
0.0
173
     0
291
     1
 45
0.0
1001
ACAD
1000
AcDbSavedByObjectVersion
1070
     0
  0
VISUALSTYLE
  5
F0
102
{ACAD_REACTORS
330
EF
102
}
330
EF
100
AcDbVisualStyle
  2
Flat
 70
     0
 71
     2
 72
     1
 73
     1
 90
        2
 40
-0.6
 41
30.0
 62
     5
 63
     7
 74
     0
 91
        4
 64
     7
 65
   257
 75
     1
175
     1
 42
1.0
 92
        8
 66
     7
 43
1.0
 76
     1
 77
     6
 78
     2
 67
     7
 79
     5
170
     0
171
     0
290
     0
174
     0
 93
        1
 44
0.0
173
     0
291
     1
 45
0.0
1001
ACAD
1000
AcDbSavedByObjectVersion
1070
     0
  0
VISUALSTYLE
  5
F1
102
{ACAD_REACTORS
330
EF
102
}
330
EF
100
AcDbVisualStyle
  2
FlatWithEdges
 70
     1
 71
     2
 72
     1
 73
     1
 90
        2
 40
-0.6
 41
30.0
 62
     5
 63
     7
 74
     1
 91
        4
 64
     7
 65
   257
 75
     1
175
     1
 42
1.0
 92
        0
 66
   257
 43
1.0
 76
     1
 77
     6
 78
     2
 67
     7
 79
     5
170
     0
171
     0
290
     0
174
     0
 93
        1
 44
0.0
173
     0
291
     1
 45
0.0
1001
ACAD
1000
AcDbSavedByObjectVersion
1070
     0
  0
VISUALSTYLE
  5
F2
102
{ACAD_REACTORS
330
EF
102
}
330
EF
100
AcDbVisualStyle
  2
Gouraud
 70
     2
 71
     2
 72
     2
 73
     1
 90
        2
 40
-0.6
 41
30.0
 62
     5
 63
     7
 74
     0
 91
        4
 64
     7
 65
   257
 75
     1
175
     1
 42
1.0
 92
        0
 66
     7
 43
1.0
 76
     1
 77
     6
 78
     2
 67
     7
 79
     5
170
     0
171
     0
290
     0
174
     0
 93
        1
 44
0.0
173
     0
291
     1
 45
0.0
1001
ACAD
1000
AcDbSavedByObjectVersion
1070
     0
  0
VISUALSTYLE
  5
F3
102
{ACAD_REACTORS
330
EF
102
}
330
EF
100
AcDbVisualStyle
  2
GouraudWithEdges
 70
     3
 71
     2
 72
     2
 73
     1
 90
        2
 40
-0.6
 41
30.0
 62
     5
 63
     7
 74
     1
 91
        4
 64
     7
 65
   257
 75
     1
175
     1
 42
1.0
 92
        0
 66
   257
 43
1.0
 76
     1
 77
     6
 78
     2
 67
     7
 79
     5
170
     0
171
     0
290
     0
174
     0
 93
        1
 44
0.0
173
     0
291
     1
 45
0.0
1001
ACAD
1000
AcDbSavedByObjectVersion
1070
     0
  0
VISUALSTYLE
  5
FD
102
{ACAD_REACTORS
330
EF
102
}
330
EF
100
AcDbVisualStyle
  2
Linepattern
 70
    14
 71
     2
 72
     2
 73
     1
 90
        0
 40
-0.6
 41
-30.0
 62
     5
 63
     7
 74
     1
 91
        4
 64
     7
 65
   257
 75
     7
175
     7
 42
1.0
 92
        8
 66
     7
 43
1.0
 76
     1
 77
     6
 78
     2
 67
     7
 79
     5
170
     0
171
     0
290
     0
174
     0
 93
        1
 44
0.0
173
     0
291
     1
 45
0.0
1001
ACAD
1000
AcDbSavedByObjectVersion
1070
     0
  0
VISUALSTYLE
  5
F9
102
{ACAD_REACTORS
330
EF
102
}
330
EF
100
AcDbVisualStyle
  2
Realistic
 70
     8
 71
     2
 72
     2
 73
     1
 90
        0
 40
-0.6
 41
-30.0
 62
     5
 63
     7
 74
     1
 91
        0
 64
     7
 65
   257
 75
     1
175
     1
 42
1.0
 92
        8
 66
     8
 43
1.0
 76
     1
 77
     6
 78
     2
 67
     7
 79
     5
170
     0
171
     0
290
     0
174
     0
 93
       13
 44
0.0
173
     0
291
     0
 45
0.0
1001
ACAD
1000
AcDbSavedByObjectVersion
1070
     0
  0
VISUALSTYLE
  5
FC
102
{ACAD_REACTORS
330
EF
102
}
330
EF
100
AcDbVisualStyle
  2
Thicken
 70
    13
 71
     2
 72
     2
 73
     1
 90
        0
 40
-0.6
 41
-30.0
 62
     5
 63
     7
 74
     1
 91
        4
 64
     7
 65
   257
 75
     1
175
     1
 42
1.0
 92
       12
 66
     7
 43
1.0
 76
     1
 77
     6
 78
     2
 67
     7
 79
     5
170
     0
171
     0
290
     0
174
     0
 93
        1
 44
0.0
173
     0
291
     1
 45
0.0
1001
ACAD
1000
AcDbSavedByObjectVersion
1070
     0
  0
DICTIONARYVAR
  5
146
102
{ACAD_REACTORS
330
5E
102
}
330
5E
100
DictionaryVariables
280
     0
  1
1:1
  0
DICTIONARYVAR
  5
145
102
{ACAD_REACTORS
330
5E
102
}
330
5E
100
DictionaryVariables
280
     0
  1
STANDARD
  0
DICTIONARYVAR
  5
84
102
{ACAD_REACTORS
330
5E
102
}
330
5E
100
DictionaryVariables
280
     0
  1
STANDARD
  0
DICTIONARYVAR
  5
5F
102
{ACAD_REACTORS
330
5E
102
}
330
5E
100
DictionaryVariables
280
     0
  1
2
  0
DICTIONARYVAR
  5
63
102
{ACAD_REACTORS
330
5E
102
}
330
5E
100
DictionaryVariables
280
     0
  1
1
  0
DICTIONARYVAR
  5
303
102
{ACAD_REACTORS
330
5E
102
}
330
5E
100
DictionaryVariables
280
     0
  1
0
  0
DICTIONARYVAR
  5
301
102
{ACAD_REACTORS
330
5E
102
}
330
5E
100
DictionaryVariables
280
     0
  1
2
  0
DICTIONARYVAR
  5
300
102
{ACAD_REACTORS
330
5E
102
}
330
5E
100
DictionaryVariables
280
     0
  1
1
  0
DICTIONARYVAR
  5
305
102
{ACAD_REACTORS
330
5E
102
}
330
5E
100
DictionaryVariables
280
     0
  1
80.000000
  0
DICTIONARYVAR
  5
304
102
{ACAD_REACTORS
330
5E
102
}
330
5E
100
DictionaryVariables
280
     0
  1
5.000000
  0
DICTIONARYVAR
  5
302
102
{ACAD_REACTORS
330
5E
102
}
330
5E
100
DictionaryVariables
280
     0
  1
127
  0
DICTIONARY
  5
30B
330
D3
100
AcDbDictionary
280
     1
281
     1
  3
ACAD_XREC_ROUNDTRIP
360
30C
  0
DICTIONARY
  5
30D
330
D7
100
AcDbDictionary
280
     1
281
     1
  3
ACAD_XREC_ROUNDTRIP
360
30E
  0
DICTIONARY
  5
308
330
22
100
AcDbDictionary
280
     1
281
     1
  3
ACAD_XREC_ROUNDTRIP
360
309
  0
DICTIONARY
  5
311
330
ED
100
AcDbDictionary
280
     1
281
     1
  3
ACAD_XREC_ROUNDTRIP
360
312
  0
DICTIONARY
  5
30F
330
EC
100
AcDbDictionary
280
     1
281
     1
  3
ACAD_XREC_ROUNDTRIP
360
310
  0
DICTIONARY
  5
173
330
EE
100
AcDbDictionary
280
     1
281
     1
  3
ACAD_XREC_ROUNDTRIP
360
313
  3
BUMPTILE
360
175
  3
DIFFUSETILE
360
174
  3
OPACITYTILE
360
176
  3
REFLECTIONTILE
360
177
  0
DICTIONARY
  5
162
330
7F
100
AcDbDictionary
280
     1
281
     1
  3
ACAD_ROUNDTRIP_2008_TABLESTYLE_CELLSTYLEMAP
360
306
  3
ACAD_XREC_ROUNDTRIP
360
30A
  0
XRECORD
  5
30C
102
{ACAD_REACTORS
330
30B
102
}
330
30B
100
AcDbXrecord
280
     1
102
SHADEPLOT
 70
     0
102
SHADEPLOTRESLEVEL
 70
     2
102
SHADEPLOTCUSTOMDPI
 70
   300
  0
XRECORD
  5
30E
102
{ACAD_REACTORS
330
30D
102
}
330
30D
100
AcDbXrecord
280
     1
102
SHADEPLOT
 70
     0
102
SHADEPLOTRESLEVEL
 70
     2
102
SHADEPLOTCUSTOMDPI
 70
   300
  0
XRECORD
  5
309
102
{ACAD_REACTORS
330
308
102
}
330
308
100
AcDbXrecord
280
     1
102
SHADEPLOT
 70
     0
102
SHADEPLOTRESLEVEL
 70
     2
102
SHADEPLOTCUSTOMDPI
 70
   300
  0
XRECORD
  5
312
102
{ACAD_REACTORS
330
311
102
}
330
311
100
AcDbXrecord
280
     1
102
MATERIAL
148
0.0
149
0.0
149
0.0
 93
        0
 94
       63
282
     0
 72
     1
 77
     1
171
     1
175
     1
179
     1
273
     0
  0
XRECORD
  5
310
102
{ACAD_REACTORS
330
30F
102
}
330
30F
100
AcDbXrecord
280
     1
102
MATERIAL
148
0.0
149
0.0
149
0.0
 93
        0
 94
       63
282
     0
 72
     1
 77
     1
171
     1
175
     1
179
     1
273
     0
  0
XRECORD
  5
313
102
{ACAD_REACTORS
330
173
102
}
330
173
100
AcDbXrecord
280
     1
102
MATERIAL
148
0.0
149
0.0
149
0.0
 93
        0
 94
       63
282
     0
 72
     1
 77
     1
171
     1
175
     1
179
     1
273
     0
  0
XRECORD
  5
175
102
{ACAD_REACTORS
330
173
102
}
330
173
100
AcDbXrecord
280
     1
270
     1
271
     1
  0
XRECORD
  5
174
102
{ACAD_REACTORS
330
173
102
}
330
173
100
AcDbXrecord
280
     1
270
     1
271
     1
  0
XRECORD
  5
176
102
{ACAD_REACTORS
330
173
102
}
330
173
100
AcDbXrecord
280
     1
270
     1
271
     1
  0
XRECORD
  5
177
102
{ACAD_REACTORS
330
173
102
}
330
173
100
AcDbXrecord
280
     1
270
     1
271
     1
  0
CELLSTYLEMAP
  5
306
102
{ACAD_REACTORS
330
162
102
}
330
162
100
AcDbCellStyleMap
 90
        3
300
CELLSTYLE
  1
TABLEFORMAT_BEGIN
 90
        5
170
     1
 91
        0
 92
    32768
 62
   257
 93
        1
300
CONTENTFORMAT
  1
CONTENTFORMAT_BEGIN
 90
        0
 91
        0
 92
      512
 93
        0
300

 40
0.0
140
1.0
 94
        5
 62
     0
340
11
144
6.0
309
CONTENTFORMAT_END
171
     1
301
MARGIN
  1
CELLMARGIN_BEGIN
 40
1.5
 40
1.5
 40
1.5
 40
1.5
 40
4.5
 40
4.5
309
CELLMARGIN_END
 94
        6
 95
        1
302
GRIDFORMAT
  1
GRIDFORMAT_BEGIN
 90
        0
 91
        1
 62
     0
 92
       -2
340
14
 93
        0
 40
1.125
309
GRIDFORMAT_END
 95
        2
302
GRIDFORMAT
  1
GRIDFORMAT_BEGIN
 90
        0
 91
        1
 62
     0
 92
       -2
340
14
 93
        0
 40
1.125
309
GRIDFORMAT_END
 95
        4
302
GRIDFORMAT
  1
GRIDFORMAT_BEGIN
 90
        0
 91
        1
 62
     0
 92
       -2
340
14
 93
        0
 40
1.125
309
GRIDFORMAT_END
 95
        8
302
GRIDFORMAT
  1
GRIDFORMAT_BEGIN
 90
        0
 91
        1
 62
     0
 92
       -2
340
14
 93
        0
 40
1.125
309
GRIDFORMAT_END
 95
       16
302
GRIDFORMAT
  1
GRIDFORMAT_BEGIN
 90
        0
 91
        1
 62
     0
 92
       -2
340
14
 93
        0
 40
1.125
309
GRIDFORMAT_END
 95
       32
302
GRIDFORMAT
  1
GRIDFORMAT_BEGIN
 90
        0
 91
        1
 62
     0
 92
       -2
340
14
 93
        0
 40
1.125
309
GRIDFORMAT_END
309
TABLEFORMAT_END
  1
CELLSTYLE_BEGIN
 90
        1
 91
        1
300
_TITLE
309
CELLSTYLE_END
300
CELLSTYLE
  1
TABLEFORMAT_BEGIN
 90
        5
170
     1
 91
        0
 92
        0
 62
   257
 93
        1
300
CONTENTFORMAT
  1
CONTENTFORMAT_BEGIN
 90
        0
 91
        0
 92
      512
 93
        0
300

 40
0.0
140
1.0
 94
        5
 62
     0
340
11
144
4.5
309
CONTENTFORMAT_END
171
     1
301
MARGIN
  1
CELLMARGIN_BEGIN
 40
1.5
 40
1.5
 40
1.5
 40
1.5
 40
4.5
 40
4.5
309
CELLMARGIN_END
 94
        6
 95
        1
302
GRIDFORMAT
  1
GRIDFORMAT_BEGIN
 90
        0
 91
        1
 62
     0
 92
       -2
340
14
 93
        0
 40
1.125
309
GRIDFORMAT_END
 95
        2
302
GRIDFORMAT
  1
GRIDFORMAT_BEGIN
 90
        0
 91
        1
 62
     0
 92
       -2
340
14
 93
        0
 40
1.125
309
GRIDFORMAT_END
 95
        4
302
GRIDFORMAT
  1
GRIDFORMAT_BEGIN
 90
        0
 91
        1
 62
     0
 92
       -2
340
14
 93
        0
 40
1.125
309
GRIDFORMAT_END
 95
        8
302
GRIDFORMAT
  1
GRIDFORMAT_BEGIN
 90
        0
 91
        1
 62
     0
 92
       -2
340
14
 93
        0
 40
1.125
309
GRIDFORMAT_END
 95
       16
302
GRIDFORMAT
  1
GRIDFORMAT_BEGIN
 90
        0
 91
        1
 62
     0
 92
       -2
340
14
 93
        0
 40
1.125
309
GRIDFORMAT_END
 95
       32
302
GRIDFORMAT
  1
GRIDFORMAT_BEGIN
 90
        0
 91
        1
 62
     0
 92
       -2
340
14
 93
        0
 40
1.125
309
GRIDFORMAT_END
309
TABLEFORMAT_END
  1
CELLSTYLE_BEGIN
 90
        2
 91
        1
300
_HEADER
309
CELLSTYLE_END
300
CELLSTYLE
  1
TABLEFORMAT_BEGIN
 90
        5
170
     1
 91
        0
 92
        0
 62
   257
 93
        1
300
CONTENTFORMAT
  1
CONTENTFORMAT_BEGIN
 90
        0
 91
        0
 92
      512
 93
        0
300

 40
0.0
140
1.0
 94
        2
 62
     0
340
11
144
4.5
309
CONTENTFORMAT_END
171
     1
301
MARGIN
  1
CELLMARGIN_BEGIN
 40
1.5
 40
1.5
 40
1.5
 40
1.5
 40
4.5
 40
4.5
309
CELLMARGIN_END
 94
        6
 95
        1
302
GRIDFORMAT
  1
GRIDFORMAT_BEGIN
 90
        0
 91
        1
 62
     0
 92
       -2
340
14
 93
        0
 40
1.125
309
GRIDFORMAT_END
 95
        2
302
GRIDFORMAT
  1
GRIDFORMAT_BEGIN
 90
        0
 91
        1
 62
     0
 92
       -2
340
14
 93
        0
 40
1.125
309
GRIDFORMAT_END
 95
        4
302
GRIDFORMAT
  1
GRIDFORMAT_BEGIN
 90
        0
 91
        1
 62
     0
 92
       -2
340
14
 93
        0
 40
1.125
309
GRIDFORMAT_END
 95
        8
302
GRIDFORMAT
  1
GRIDFORMAT_BEGIN
 90
        0
 91
        1
 62
     0
 92
       -2
340
14
 93
        0
 40
1.125
309
GRIDFORMAT_END
 95
       16
302
GRIDFORMAT
  1
GRIDFORMAT_BEGIN
 90
        0
 91
        1
 62
     0
 92
       -2
340
14
 93
        0
 40
1.125
309
GRIDFORMAT_END
 95
       32
302
GRIDFORMAT
  1
GRIDFORMAT_BEGIN
 90
        0
 91
        1
 62
     0
 92
       -2
340
14
 93
        0
 40
1.125
309
GRIDFORMAT_END
309
TABLEFORMAT_END
  1
CELLSTYLE_BEGIN
 90
        3
 91
        2
300
_DATA
309
CELLSTYLE_END
  0
XRECORD
  5
30A
102
{ACAD_REACTORS
330
162
102
}
330
162
100
AcDbXrecord
280
     1
102
ACAD_ROUNDTRIP_PRE2007_TABLESTYLE
 90
      512
 91
        0
  1

 92
      512
 93
        0
  2

 94
      512
 95
        0
  3

  0
ENDSEC
  0
EOF
