  0
SECTION
  2
HEADER
  9
$ACADVER
  1
AC1015
  9
$ACADMAINTVER
 70
    20
  9
$DWGCODEPAGE
  3
ANSI_1254
  9
$INSBASE
 10
0.0
 20
0.0
 30
0.0
  9
$EXTMIN
 10
1620.293077153473
 20
663.4599011909919
 30
0.0
  9
$EXTMAX
 10
1680.450386325349
 20
705.7990210935393
 30
0.0
  9
$LIMMIN
 10
0.0
 20
0.0
  9
$LIMMAX
 10
420.0
 20
297.0
  9
$ORTHOMODE
 70
     0
  9
$REGENMODE
 70
     1
  9
$FILLMODE
 70
     1
  9
$QTEXTMODE
 70
     0
  9
$MIRRTEXT
 70
     0
  9
$LTSCALE
 40
1.0
  9
$ATTMODE
 70
     1
  9
$TEXTSIZE
 40
2.5
  9
$TRACEWID
 40
1.0
  9
$TEXTSTYLE
  7
Standard
  9
$CLAYER
  8
0
  9
$CELTYPE
  6
ByLayer
  9
$CECOLOR
 62
   256
  9
$CELTSCALE
 40
1.0
  9
$DISPSILH
 70
     0
  9
$DIMSCALE
 40
1.0
  9
$DIMASZ
 40
2.5
  9
$DIMEXO
 40
0.625
  9
$DIMDLI
 40
3.75
  9
$DIMRND
 40
0.0
  9
$DIMDLE
 40
0.0
  9
$DIMEXE
 40
1.25
  9
$DIMTP
 40
0.0
  9
$DIMTM
 40
0.0
  9
$DIMTXT
 40
2.5
  9
$DIMCEN
 40
2.5
  9
$DIMTSZ
 40
0.0
  9
$DIMTOL
 70
     0
  9
$DIMLIM
 70
     0
  9
$DIMTIH
 70
     0
  9
$DIMTOH
 70
     0
  9
$DIMSE1
 70
     0
  9
$DIMSE2
 70
     0
  9
$DIMTAD
 70
     1
  9
$DIMZIN
 70
     8
  9
$DIMBLK
  1

  9
$DIMASO
 70
     1
  9
$DIMSHO
 70
     1
  9
$DIMPOST
  1

  9
$DIMAPOST
  1

  9
$DIMALT
 70
     0
  9
$DIMALTD
 70
     3
  9
$DIMALTF
 40
0.03937007874016
  9
$DIMLFAC
 40
1.0
  9
$DIMTOFL
 70
     1
  9
$DIMTVP
 40
0.0
  9
$DIMTIX
 70
     0
  9
$DIMSOXD
 70
     0
  9
$DIMSAH
 70
     0
  9
$DIMBLK1
  1

  9
$DIMBLK2
  1

  9
$DIMSTYLE
  2
ISO-25
  9
$DIMCLRD
 70
     0
  9
$DIMCLRE
 70
     0
  9
$DIMCLRT
 70
     0
  9
$DIMTFAC
 40
1.0
  9
$DIMGAP
 40
0.625
  9
$DIMJUST
 70
     0
  9
$DIMSD1
 70
     0
  9
$DIMSD2
 70
     0
  9
$DIMTOLJ
 70
     0
  9
$DIMTZIN
 70
     8
  9
$DIMALTZ
 70
     0
  9
$DIMALTTZ
 70
     0
  9
$DIMUPT
 70
     0
  9
$DIMDEC
 70
     2
  9
$DIMTDEC
 70
     2
  9
$DIMALTU
 70
     2
  9
$DIMALTTD
 70
     3
  9
$DIMTXSTY
  7
Standard
  9
$DIMAUNIT
 70
     0
  9
$DIMADEC
 70
     0
  9
$DIMALTRND
 40
0.0
  9
$DIMAZIN
 70
     0
  9
$DIMDSEP
 70
    44
  9
$DIMATFIT
 70
     3
  9
$DIMFRAC
 70
     0
  9
$DIMLDRBLK
  1

  9
$DIMLUNIT
 70
     2
  9
$DIMLWD
 70
    -2
  9
$DIMLWE
 70
    -2
  9
$DIMTMOVE
 70
     0
  9
$LUNITS
 70
     2
  9
$LUPREC
 70
     4
  9
$SKETCHINC
 40
1.0
  9
$FILLETRAD
 40
0.0
  9
$AUNITS
 70
     0
  9
$AUPREC
 70
     0
  9
$MENU
  1
.
  9
$ELEVATION
 40
0.0
  9
$PELEVATION
 40
0.0
  9
$THICKNESS
 40
0.0
  9
$LIMCHECK
 70
     0
  9
$CHAMFERA
 40
0.0
  9
$CHAMFERB
 40
0.0
  9
$CHAMFERC
 40
0.0
  9
$CHAMFERD
 40
0.0
  9
$SKPOLY
 70
     0
  9
$TDCREATE
 40
2458999.623058368
  9
$TDUCREATE
 40
2458999.498058368
  9
$TDUPDATE
 40
2459067.651189711
  9
$TDUUPDATE
 40
2459067.526189711
  9
$TDINDWG
 40
0.0002904977
  9
$TDUSRTIMER
 40
0.0002904977
  9
$USRTIMER
 70
     1
  9
$ANGBASE
 50
0.0
  9
$ANGDIR
 70
     0
  9
$PDMODE
 70
     0
  9
$PDSIZE
 40
0.0
  9
$PLINEWID
 40
0.0
  9
$SPLFRAME
 70
     0
  9
$SPLINETYPE
 70
     6
  9
$SPLINESEGS
 70
     8
  9
$HANDSEED
  5
39C
  9
$SURFTAB1
 70
     6
  9
$SURFTAB2
 70
     6
  9
$SURFTYPE
 70
     6
  9
$SURFU
 70
     6
  9
$SURFV
 70
     6
  9
$UCSBASE
  2

  9
$UCSNAME
  2

  9
$UCSORG
 10
0.0
 20
0.0
 30
0.0
  9
$UCSXDIR
 10
1.0
 20
0.0
 30
0.0
  9
$UCSYDIR
 10
0.0
 20
1.0
 30
0.0
  9
$UCSORTHOREF
  2

  9
$UCSORTHOVIEW
 70
     0
  9
$UCSORGTOP
 10
0.0
 20
0.0
 30
0.0
  9
$UCSORGBOTTOM
 10
0.0
 20
0.0
 30
0.0
  9
$UCSORGLEFT
 10
0.0
 20
0.0
 30
0.0
  9
$UCSORGRIGHT
 10
0.0
 20
0.0
 30
0.0
  9
$UCSORGFRONT
 10
0.0
 20
0.0
 30
0.0
  9
$UCSORGBACK
 10
0.0
 20
0.0
 30
0.0
  9
$PUCSBASE
  2

  9
$PUCSNAME
  2

  9
$PUCSORG
 10
0.0
 20
0.0
 30
0.0
  9
$PUCSXDIR
 10
1.0
 20
0.0
 30
0.0
  9
$PUCSYDIR
 10
0.0
 20
1.0
 30
0.0
  9
$PUCSORTHOREF
  2

  9
$PUCSORTHOVIEW
 70
     0
  9
$PUCSORGTOP
 10
0.0
 20
0.0
 30
0.0
  9
$PUCSORGBOTTOM
 10
0.0
 20
0.0
 30
0.0
  9
$PUCSORGLEFT
 10
0.0
 20
0.0
 30
0.0
  9
$PUCSORGRIGHT
 10
0.0
 20
0.0
 30
0.0
  9
$PUCSORGFRONT
 10
0.0
 20
0.0
 30
0.0
  9
$PUCSORGBACK
 10
0.0
 20
0.0
 30
0.0
  9
$USERI1
 70
     0
  9
$USERI2
 70
     0
  9
$USERI3
 70
     0
  9
$USERI4
 70
     0
  9
$USERI5
 70
     0
  9
$USERR1
 40
0.0
  9
$USERR2
 40
0.0
  9
$USERR3
 40
0.0
  9
$USERR4
 40
0.0
  9
$USERR5
 40
0.0
  9
$WORLDVIEW
 70
     1
  9
$SHADEDGE
 70
     3
  9
$SHADEDIF
 70
    70
  9
$TILEMODE
 70
     1
  9
$MAXACTVP
 70
    64
  9
$PINSBASE
 10
0.0
 20
0.0
 30
0.0
  9
$PLIMCHECK
 70
     0
  9
$PEXTMIN
 10
0.0
 20
0.0
 30
0.0
  9
$PEXTMAX
 10
0.0
 20
0.0
 30
0.0
  9
$PLIMMIN
 10
0.0
 20
0.0
  9
$PLIMMAX
 10
12.0
 20
9.0
  9
$UNITMODE
 70
     0
  9
$VISRETAIN
 70
     1
  9
$PLINEGEN
 70
     0
  9
$PSLTSCALE
 70
     1
  9
$TREEDEPTH
 70
  3020
  9
$CMLSTYLE
  2
Standard
  9
$CMLJUST
 70
     0
  9
$CMLSCALE
 40
20.0
  9
$PROXYGRAPHICS
 70
     1
  9
$MEASUREMENT
 70
     1
  9
$CELWEIGHT
370
    -1
  9
$ENDCAPS
280
     0
  9
$JOINSTYLE
280
     0
  9
$LWDISPLAY
290
     0
  9
$INSUNITS
 70
     4
  9
$HYPERLINKBASE
  1

  9
$STYLESHEET
  1

  9
$XEDIT
290
     1
  9
$CEPSNTYPE
380
     0
  9
$PSTYLEMODE
290
     1
  9
$FINGERPRINTGUID
  2
{12AFCE64-5CCA-42DF-A6FE-534F36BA8156}
  9
$VERSIONGUID
  2
{16866A81-9A48-4D99-9470-C296E7E79751}
  9
$EXTNAMES
290
     1
  9
$PSVPSCALE
 40
0.0
  9
$OLESTARTUP
290
     0
  0
ENDSEC
  0
SECTION
  2
CLASSES
  0
CLASS
  1
ACDBDICTIONARYWDFLT
  2
AcDbDictionaryWithDefault
  3
ObjectDBX Classes
 90
        0
280
     0
281
     0
  0
CLASS
  1
ACDBPLACEHOLDER
  2
AcDbPlaceHolder
  3
ObjectDBX Classes
 90
        0
280
     0
281
     0
  0
CLASS
  1
LAYOUT
  2
AcDbLayout
  3
ObjectDBX Classes
 90
        0
280
     0
281
     0
  0
CLASS
  1
DICTIONARYVAR
  2
AcDbDictionaryVar
  3
ObjectDBX Classes
 90
        0
280
     0
281
     0
  0
CLASS
  1
TABLESTYLE
  2
AcDbTableStyle
  3
ObjectDBX Classes
 90
     4095
280
     0
281
     0
  0
CLASS
  1
MATERIAL
  2
AcDbMaterial
  3
ObjectDBX Classes
 90
     1153
280
     0
281
     0
  0
CLASS
  1
VISUALSTYLE
  2
AcDbVisualStyle
  3
ObjectDBX Classes
 90
     4095
280
     0
281
     0
  0
CLASS
  1
SCALE
  2
AcDbScale
  3
ObjectDBX Classes
 90
     1153
280
     0
281
     0
  0
CLASS
  1
MLEADERSTYLE
  2
AcDbMLeaderStyle
  3
ACDB_MLEADERSTYLE_CLASS
 90
     4095
280
     0
281
     0
  0
CLASS
  1
CELLSTYLEMAP
  2
AcDbCellStyleMap
  3
ObjectDBX Classes
 90
     1152
280
     0
281
     0
  0
ENDSEC
  0
SECTION
  2
TABLES
  0
TABLE
  2
VPORT
  5
8
330
0
100
AcDbSymbolTable
 70
     1
  0
VPORT
  5
EA
330
8
100
AcDbSymbolTableRecord
100
AcDbViewportTableRecord
  2
*Active
 70
     0
 10
0.0
 20
0.0
 11
1.0
 21
1.0
 12
1647.934203443821
 22
688.4302161754813
 13
0.0
 23
0.0
 14
10.0
 24
10.0
 15
10.0
 25
10.0
 16
0.0
 26
0.0
 36
1.0
 17
0.0
 27
0.0
 37
0.0
 40
59.7966763220719
 41
1.903110047846889
 42
50.0
 43
0.0
 44
0.0
 50
0.0
 51
0.0
 71
     0
 72
  1000
 73
     1
 74
     3
 75
     0
 76
     0
 77
     0
 78
     0
281
     0
 65
     1
110
0.0
120
0.0
130
0.0
111
1.0
121
0.0
131
0.0
112
0.0
122
1.0
132
0.0
 79
     0
146
0.0
  0
ENDTAB
  0
TABLE
  2
LTYPE
  5
5
330
0
100
AcDbSymbolTable
 70
     1
  0
LTYPE
  5
14
330
5
100
AcDbSymbolTableRecord
100
AcDbLinetypeTableRecord
  2
ByBlock
 70
     0
  3

 72
    65
 73
     0
 40
0.0
  0
LTYPE
  5
15
330
5
100
AcDbSymbolTableRecord
100
AcDbLinetypeTableRecord
  2
ByLayer
 70
     0
  3

 72
    65
 73
     0
 40
0.0
  0
LTYPE
  5
16
330
5
100
AcDbSymbolTableRecord
100
AcDbLinetypeTableRecord
  2
Continuous
 70
     0
  3
Solid line
 72
    65
 73
     0
 40
0.0
  0
ENDTAB
  0
TABLE
  2
LAYER
  5
2
330
0
100
AcDbSymbolTable
 70
     1
  0
LAYER
  5
10
102
{ACAD_XDICTIONARY
360
13C
102
}
330
2
100
AcDbSymbolTableRecord
100
AcDbLayerTableRecord
  2
0
 70
     0
 62
     7
  6
Continuous
370
    -3
390
F
  0
ENDTAB
  0
TABLE
  2
STYLE
  5
3
330
0
100
AcDbSymbolTable
 70
     2
  0
STYLE
  5
11
330
3
100
AcDbSymbolTableRecord
100
AcDbTextStyleTableRecord
  2
Standard
 70
     0
 40
0.0
 41
1.0
 50
0.0
 71
     0
 42
2.5
  3
txt
  4

  0
STYLE
  5
132
330
3
100
AcDbSymbolTableRecord
100
AcDbTextStyleTableRecord
  2
Annotative
 70
     0
 40
0.0
 41
1.0
 50
0.0
 71
     0
 42
2.5
  3
txt.shx
  4

1001
AcadAnnotative
1000
AnnotativeData
1002
{
1070
     1
1070
     1
1002
}
  0
ENDTAB
  0
TABLE
  2
VIEW
  5
6
330
0
100
AcDbSymbolTable
 70
     0
  0
ENDTAB
  0
TABLE
  2
UCS
  5
7
330
0
100
AcDbSymbolTable
 70
     0
  0
ENDTAB
  0
TABLE
  2
APPID
  5
9
330
0
100
AcDbSymbolTable
 70
     7
  0
APPID
  5
12
330
9
100
AcDbSymbolTableRecord
100
AcDbRegAppTableRecord
  2
ACAD
 70
     0
  0
APPID
  5
9E
330
9
100
AcDbSymbolTableRecord
100
AcDbRegAppTableRecord
  2
ACAD_PSEXT
 70
     0
  0
APPID
  5
133
330
9
100
AcDbSymbolTableRecord
100
AcDbRegAppTableRecord
  2
AcadAnnoPO
 70
     0
  0
APPID
  5
134
330
9
100
AcDbSymbolTableRecord
100
AcDbRegAppTableRecord
  2
AcadAnnotative
 70
     0
  0
APPID
  5
135
330
9
100
AcDbSymbolTableRecord
100
AcDbRegAppTableRecord
  2
ACAD_DSTYLE_DIMJAG
 70
     0
  0
APPID
  5
136
330
9
100
AcDbSymbolTableRecord
100
AcDbRegAppTableRecord
  2
ACAD_DSTYLE_DIMTALN
 70
     0
  0
APPID
  5
165
330
9
100
AcDbSymbolTableRecord
100
AcDbRegAppTableRecord
  2
ACAD_MLEADERVER
 70
     0
  0
ENDTAB
  0
TABLE
  2
DIMSTYLE
  5
A
330
0
100
AcDbSymbolTable
 70
     2
100
AcDbDimStyleTable
 71
     2
340
27
340
137
  0
DIMSTYLE
105
27
330
A
100
AcDbSymbolTableRecord
100
AcDbDimStyleTableRecord
  2
ISO-25
 70
     0
 41
2.5
 42
0.625
 43
3.75
 44
1.25
 73
     0
 74
     0
 77
     1
 78
     8
140
2.5
141
2.5
143
0.03937007874016
147
0.625
171
     3
172
     1
271
     2
272
     2
274
     3
278
    44
283
     0
284
     8
340
11
  0
DIMSTYLE
105
137
330
A
100
AcDbSymbolTableRecord
100
AcDbDimStyleTableRecord
  2
Annotative
 70
     0
 40
0.0
 41
2.5
 42
0.625
 43
3.75
 44
1.25
 73
     0
 74
     0
 77
     1
 78
     8
140
2.5
141
2.5
143
0.03937007874016
147
0.625
171
     3
172
     1
271
     2
272
     2
274
     3
278
    44
283
     0
284
     8
340
11
1001
AcadAnnotative
1000
AnnotativeData
1002
{
1070
     1
1070
     1
1002
}
1001
ACAD_DSTYLE_DIMJAG
1070
   388
1040
1.5
1001
ACAD_DSTYLE_DIMTALN
1070
   392
1070
     0
  0
ENDTAB
  0
TABLE
  2
BLOCK_RECORD
  5
1
330
0
100
AcDbSymbolTable
 70
     4
  0
BLOCK_RECORD
  5
1F
330
1
100
AcDbSymbolTableRecord
100
AcDbBlockTableRecord
  2
*Model_Space
340
22
  0
BLOCK_RECORD
  5
D2
330
1
100
AcDbSymbolTableRecord
100
AcDbBlockTableRecord
  2
*Paper_Space
340
D3
  0
BLOCK_RECORD
  5
D6
330
1
100
AcDbSymbolTableRecord
100
AcDbBlockTableRecord
  2
*Paper_Space0
340
D7
  0
BLOCK_RECORD
  5
2DF
330
1
100
AcDbSymbolTableRecord
100
AcDbBlockTableRecord
  2
1
340
0
310
2800000020000000200000000100080000000000000400000000000000000000000000000000000000000000000080000080000000808000800000008000800080800000C0C0C000C0DCC000F0CAA6000020400000206000002080000020A0000020C0000020E00000400000004020000040400000406000004080000040A0
310
000040C0000040E00000600000006020000060400000606000006080000060A0000060C0000060E00000800000008020000080400000806000008080000080A0000080C0000080E00000A0000000A0200000A0400000A0600000A0800000A0A00000A0C00000A0E00000C0000000C0200000C0400000C0600000C0800000C0
310
A00000C0C00000C0E00000E0000000E0200000E0400000E0600000E0800000E0A00000E0C00000E0E00040000000400020004000400040006000400080004000A0004000C0004000E00040200000402020004020400040206000402080004020A0004020C0004020E000404000004040200040404000404060004040800040
310
40A0004040C0004040E00040600000406020004060400040606000406080004060A0004060C0004060E00040800000408020004080400040806000408080004080A0004080C0004080E00040A0000040A0200040A0400040A0600040A0800040A0A00040A0C00040A0E00040C0000040C0200040C0400040C0600040C08000
310
40C0A00040C0C00040C0E00040E0000040E0200040E0400040E0600040E0800040E0A00040E0C00040E0E00080000000800020008000400080006000800080008000A0008000C0008000E00080200000802020008020400080206000802080008020A0008020C0008020E00080400000804020008040400080406000804080
310
008040A0008040C0008040E00080600000806020008060400080606000806080008060A0008060C0008060E00080800000808020008080400080806000808080008080A0008080C0008080E00080A0000080A0200080A0400080A0600080A0800080A0A00080A0C00080A0E00080C0000080C0200080C0400080C0600080C0
310
800080C0A00080C0C00080C0E00080E0000080E0200080E0400080E0600080E0800080E0A00080E0C00080E0E000C0000000C0002000C0004000C0006000C0008000C000A000C000C000C000E000C0200000C0202000C0204000C0206000C0208000C020A000C020C000C020E000C0400000C0402000C0404000C0406000C0
310
408000C040A000C040C000C040E000C0600000C0602000C0604000C0606000C0608000C060A000C060C000C060E000C0800000C0802000C0804000C0806000C0808000C080A000C080C000C080E000C0A00000C0A02000C0A04000C0A06000C0A08000C0A0A000C0A0C000C0A0E000C0C00000C0C02000C0C04000C0C06000
310
C0C08000C0C0A000F0FBFF00A4A0A000808080000000FF0000FF000000FFFF00FF000000FF00FF00FFFF0000FFFFFF0000000000000000000000000000000000000000000000000000000000000000000000000000000000000000000000000000000000000000000000000000000000000000000000000000000000000000
310
0000000000000000000000000000000000000000000000000000FFFFFFFFFFFFFFFFFFFFFFFFFFFF00000000000000000000000000000000FFFF00000000FFFF00FFFF0000000000FFFF00000000000000000000000000FFFF000000FFFF0000000000FFFF00000000FFFF000000000000000000000000FF0000FFFF000000
310
000000000000FFFF000000FF0000000000000000000000FFFFFFFF0000000000FFFFFF0000000000FFFF00FFFF00000000000000000000FFFF00000000FFFFFFFFFFFFFFFFFF00000000FFFFFF000000000000000000FF0000000000FFFFFFA4A40000A4A4FFFF0000000000FFFF00000000000000FFFF00000000FFFFA4A4
310
000000000000A400FF0000000000FFFF000000000000FFFF000000FFFFFF000000000000000000A4FFFF00000000FFFF0000000000FFFFFF000000FFFF000000000000000000000000FFFF000000FFFFFF00000000FF00FF000000FFA400000000000000000000000000FF000000FF00FF000000FF0000FF000000FFA40000
310
0000000000000000000000FF000000FF0000FF0000FF0000FF000000FFA400000000000000000000000000FF000000FF0000FF0000FF0000FF0000FFFFA400000000000000000000000000FF000000FF0000FF0000FF0000FF0000FFFFA400000000000000000000000000FF000000FF0000FF000000FF00FF0000FFFFA400
310
000000000000000000000000FF000000FF00FF00000000FFFFFF000000FFFF000000000000000000000000FFFF000000FFFFFF0000000000FFFF000000FFFFFFA4000000000000000000FFFF00000000FFFF000000000000FFFF00000000FFFFFFA4000000000000A4FFFF0000000000FFFF00000000000000FF0000000000
310
FFFFFFA4A40000A4A4FFFF000000000000FF000000000000000000FFFF00000000FFFFFFFFFFFFFFFFFF0000000000FFFF00000000000000000000FFFFFFFF0000000000FFFFFF000000000000FFFFFFFF0000000000000000000000FF0000FFFF00000000000000000000FFFF0000FF000000000000000000000000FFFF00
310
0000FFFF000000000000FFFF000000FFFF00000000000000000000000000FF0000000000FFFF0000FFFF0000000000FF000000000000000000000000000000FFFFFFFFFFFFFFFFFFFFFFFFFFFFFFFF000000000000000000000000000000000000000000000000000000000000000000000000000000000000000000000000
310
0000000000000000000000000000000000000000000000000000000000000000000000000000000000000000000000000000000000000000
102
{BLKREFS
331
308
102
}
1001
ACAD
1000
DesignCenter Data
1002
{
1070
     1
1070
     4
1002
}
  0
BLOCK_RECORD
  5
309
330
1
100
AcDbSymbolTableRecord
100
AcDbBlockTableRecord
  2
2
340
0
310
2800000020000000200000000100080000000000000400000000000000000000000000000000000000000000000080000080000000808000800000008000800080800000C0C0C000C0DCC000F0CAA6000020400000206000002080000020A0000020C0000020E00000400000004020000040400000406000004080000040A0
310
000040C0000040E00000600000006020000060400000606000006080000060A0000060C0000060E00000800000008020000080400000806000008080000080A0000080C0000080E00000A0000000A0200000A0400000A0600000A0800000A0A00000A0C00000A0E00000C0000000C0200000C0400000C0600000C0800000C0
310
A00000C0C00000C0E00000E0000000E0200000E0400000E0600000E0800000E0A00000E0C00000E0E00040000000400020004000400040006000400080004000A0004000C0004000E00040200000402020004020400040206000402080004020A0004020C0004020E000404000004040200040404000404060004040800040
310
40A0004040C0004040E00040600000406020004060400040606000406080004060A0004060C0004060E00040800000408020004080400040806000408080004080A0004080C0004080E00040A0000040A0200040A0400040A0600040A0800040A0A00040A0C00040A0E00040C0000040C0200040C0400040C0600040C08000
310
40C0A00040C0C00040C0E00040E0000040E0200040E0400040E0600040E0800040E0A00040E0C00040E0E00080000000800020008000400080006000800080008000A0008000C0008000E00080200000802020008020400080206000802080008020A0008020C0008020E00080400000804020008040400080406000804080
310
008040A0008040C0008040E00080600000806020008060400080606000806080008060A0008060C0008060E00080800000808020008080400080806000808080008080A0008080C0008080E00080A0000080A0200080A0400080A0600080A0800080A0A00080A0C00080A0E00080C0000080C0200080C0400080C0600080C0
310
800080C0A00080C0C00080C0E00080E0000080E0200080E0400080E0600080E0800080E0A00080E0C00080E0E000C0000000C0002000C0004000C0006000C0008000C000A000C000C000C000E000C0200000C0202000C0204000C0206000C0208000C020A000C020C000C020E000C0400000C0402000C0404000C0406000C0
310
408000C040A000C040C000C040E000C0600000C0602000C0604000C0606000C0608000C060A000C060C000C060E000C0800000C0802000C0804000C0806000C0808000C080A000C080C000C080E000C0A00000C0A02000C0A04000C0A06000C0A08000C0A0A000C0A0C000C0A0E000C0C00000C0C02000C0C04000C0C06000
310
C0C08000C0C0A000F0FBFF00A4A0A000808080000000FF0000FF000000FFFF00FF000000FF00FF00FFFF0000FFFFFF0000000000000000000000000000000000000000000000000000000000000000000000000000000000000000000000000000000000000000000000000000000000000000000000000000000000000000
310
00000000000000000000000000000000000000000000000000000000000000000000000000000000000000000000000000000000000000000000000000000000000000000000000000000000000000000000000000000000000000000000000000000000000000000000000000000000000000000000000000000000000000
310
00000000000000000000000000000000000000000000000000000000000000000000000000000000000000000000000000000000000000000000000000000000000000000000000000000000000000000000000000000000000000000000000000000000000000000000000000000000000000000000000000000000000000
310
00000000000000000000000000000000000000000000000000000000000000000000000000000000000000000000000000000000FFFFFFFFFFFFFFFFFFFFFFFFFFFFFFFFFFFFFFFFFFFFFFFFFFFFFFFFFFFF0000FF0000000000FF00FF000000000000000000000000FF00FF0000000000FF0000FF0000000000FF00FF0000
310
00000000000000000000FF00FF0000000000FF0000FF0000000000FF00FF000000000000000000000000FF00FF0000000000FF0000FF0000000000FF00FF000000000000000000000000FF00FF0000000000FF0000FFFFFFFFFFFFFF00FFFFFFFFFFFFFFFFFFFFFFFFFFFF00FFFFFFFFFFFFFF0000FF000000000000000000
310
00000000000000000000000000000000000000FF0000FFFFFFFFFFFFFFFFFFFFFFFFFFFFFFFFFFFFFFFFFFFFFFFFFFFFFFFFFFFF000000000000000000000000000000000000000000000000000000000000000000000000000000000000000000000000000000000000000000000000000000000000000000000000000000
310
00000000000000000000000000000000000000000000000000000000000000000000000000000000000000000000000000000000000000000000000000000000000000000000000000000000000000000000000000000000000000000000000000000000000000000000000000000000000000000000000000000000000000
310
00000000000000000000000000000000000000000000000000000000000000000000000000000000000000000000000000000000000000000000000000000000000000000000000000000000000000000000000000000000000000000000000000000000000000000000000000000000000000000000000000000000000000
310
0000000000000000000000000000000000000000000000000000000000000000000000000000000000000000000000000000000000000000
102
{BLKREFS
331
328
102
}
1001
ACAD
1000
DesignCenter Data
1002
{
1070
     1
1070
     4
1002
}
  0
BLOCK_RECORD
  5
329
330
1
100
AcDbSymbolTableRecord
100
AcDbBlockTableRecord
  2
3
340
0
310
2800000020000000200000000100080000000000000400000000000000000000000000000000000000000000000080000080000000808000800000008000800080800000C0C0C000C0DCC000F0CAA6000020400000206000002080000020A0000020C0000020E00000400000004020000040400000406000004080000040A0
310
000040C0000040E00000600000006020000060400000606000006080000060A0000060C0000060E00000800000008020000080400000806000008080000080A0000080C0000080E00000A0000000A0200000A0400000A0600000A0800000A0A00000A0C00000A0E00000C0000000C0200000C0400000C0600000C0800000C0
310
A00000C0C00000C0E00000E0000000E0200000E0400000E0600000E0800000E0A00000E0C00000E0E00040000000400020004000400040006000400080004000A0004000C0004000E00040200000402020004020400040206000402080004020A0004020C0004020E000404000004040200040404000404060004040800040
310
40A0004040C0004040E00040600000406020004060400040606000406080004060A0004060C0004060E00040800000408020004080400040806000408080004080A0004080C0004080E00040A0000040A0200040A0400040A0600040A0800040A0A00040A0C00040A0E00040C0000040C0200040C0400040C0600040C08000
310
40C0A00040C0C00040C0E00040E0000040E0200040E0400040E0600040E0800040E0A00040E0C00040E0E00080000000800020008000400080006000800080008000A0008000C0008000E00080200000802020008020400080206000802080008020A0008020C0008020E00080400000804020008040400080406000804080
310
008040A0008040C0008040E00080600000806020008060400080606000806080008060A0008060C0008060E00080800000808020008080400080806000808080008080A0008080C0008080E00080A0000080A0200080A0400080A0600080A0800080A0A00080A0C00080A0E00080C0000080C0200080C0400080C0600080C0
310
800080C0A00080C0C00080C0E00080E0000080E0200080E0400080E0600080E0800080E0A00080E0C00080E0E000C0000000C0002000C0004000C0006000C0008000C000A000C000C000C000E000C0200000C0202000C0204000C0206000C0208000C020A000C020C000C020E000C0400000C0402000C0404000C0406000C0
310
408000C040A000C040C000C040E000C0600000C0602000C0604000C0606000C0608000C060A000C060C000C060E000C0800000C0802000C0804000C0806000C0808000C080A000C080C000C080E000C0A00000C0A02000C0A04000C0A06000C0A08000C0A0A000C0A0C000C0A0E000C0C00000C0C02000C0C04000C0C06000
310
C0C08000C0C0A000F0FBFF00A4A0A000808080000000FF0000FF000000FFFF00FF000000FF00FF00FFFF0000FFFFFF0000000000000000000000000000000000000000000000000000000000000000000000000000000000000000000000000000000000000000000000000000000000000000000000000000000000000000
310
000000000000000000000000000000000000000000000000000000000000000000000000000000000000000000000000000000000000000000000000000000000000000000000000000000000000000000000000000000000000000000000000000000000000000000000000000000000000000000000000000000FFFFFFFF
310
FFFFFFFFFFFFFF0000000000000000000000000000000000FFFFFFFFFF00FFFF00FFFF00000000FFFFFFFF0000000000000000000000FFFFFF000000FFFF00FF00FF00FFFFFFFF000000FFFFFF0000000000000000FFFF0000FFFFFF000000FF00FF0000000000FFFFFFFF0000FFFF0000000000FFFF00FFFF000000000000
310
FF00FF000000000000000000FFFF00FFFF00000000FFFFFF0000000000000000FF00FF00000000000000000000FF00FFFF000000FFFFFF00000000000000FFFFFFFFFFFFFFFF00000000000000FF00FFFFFF0000FFFFFF0000000000FFFF00000000FFFFFFFFFFFFFFFF000000FF00FF00FF0000FFFFFF00FFFFFFFFFFFFFF
310
FFFFFF00000000000000FFFFFFFFFFFF00FFFF000000FFFFFFFFFF00000000FFFFFFFFFFFFFFFFFFFF00000000FFFFFFFFFF00000000FF00FF00000000FFFFFFFFFFFFFFFFFFFFFFFFFFFF000000FFFFFFFF00000000FFFF00000000FFFFFFFFFFFFFFFFFFFFFFFFFFFFFFFF000000FFFFFF00000000FFFF00000000FFFFFF
310
FFFFFFA4A4A4FFFFFFFFFFFFFFFF000000FFFF0000000000FF00000000FFFFFFA4A4FFFFFFFFFFFFA4FFFFFFFFFF000000FFFF0000000000FF00000000FFFFFFFFFFFFFFFFFFFFFFFFFFFFFFFFFF000000FFFF0000000000FFFF00000000FFFFFFFFFFA4A4A4FFFFFFFFFFFFFF000000FF00FF0000000000FFFFFF00000000
310
00FFFFFFFFFFFFFFFFFFFFFF00000000FFFFFF00000000000000FFFFFFFFFF0000000000000000000000000000FFFFFF0000000000000000000000000000FFFFFFFFFFFFFFFFFFFFFFFFFFFFFFFF0000000000000000000000000000000000000000FFFFFFFFFFFFFFFF000000000000000000000000000000000000000000
310
00000000000000000000000000000000000000000000000000000000000000000000000000000000000000000000000000000000000000000000000000000000000000000000000000000000000000000000000000000000000000000000000000000000000000000000000000000000000000000000000000000000000000
310
0000000000000000000000000000000000000000000000000000000000000000000000000000000000000000000000000000000000000000
102
{BLKREFS
331
381
102
}
1001
ACAD
1000
DesignCenter Data
1002
{
1070
     1
1070
     4
1002
}
  0
ENDTAB
  0
ENDSEC
  0
SECTION
  2
BLOCKS
  0
BLOCK
  5
20
330
1F
100
AcDbEntity
  8
0
100
AcDbBlockBegin
  2
*Model_Space
 70
     0
 10
0.0
 20
0.0
 30
0.0
  3
*Model_Space
  1

  0
ENDBLK
  5
21
330
1F
100
AcDbEntity
  8
0
100
AcDbBlockEnd
  0
BLOCK
  5
D4
330
D2
100
AcDbEntity
 67
     1
  8
0
100
AcDbBlockBegin
  2
*Paper_Space
 70
     0
 10
0.0
 20
0.0
 30
0.0
  3
*Paper_Space
  1

  0
ENDBLK
  5
D5
330
D2
100
AcDbEntity
 67
     1
  8
0
100
AcDbBlockEnd
  0
BLOCK
  5
D8
330
D6
100
AcDbEntity
 67
     1
  8
0
100
AcDbBlockBegin
  2
*Paper_Space0
 70
     0
 10
0.0
 20
0.0
 30
0.0
  3
*Paper_Space0
  1

  0
ENDBLK
  5
D9
330
D6
100
AcDbEntity
 67
     1
  8
0
100
AcDbBlockEnd
  0
BLOCK
  5
2E0
330
2DF
100
AcDbEntity
  8
0
100
AcDbBlockBegin
  2
1
 70
     0
 10
0.0
 20
0.0
 30
0.0
  3
1
  1

  0
SPLINE
  5
2E2
330
2DF
100
AcDbEntity
  8
0
  6
Continuous
 62
     7
370
    15
100
AcDbSpline
210
0.0
220
0.0
230
1.0
 70
     8
 71
     3
 72
    70
 73
    66
 74
     0
 42
0.0000000001
 43
0.0000000001
 40
0.0
 40
0.0
 40
0.0
 40
0.0
 40
0.0036368508201831
 40
0.0160051791180633
 40
0.0276953049006297
 40
0.038663108352361
 40
0.04887552341551
 40
0.0601006636439172
 40
0.0702032886913835
 40
0.0799425834512532
 40
0.08968536640614
 40
0.0994137350997606
 40
0.1155456300616332
 40
0.1318780649289577
 40
0.1486062329133242
 40
0.1656513704804784
 40
0.1828951146330364
 40
0.2001252498021961
 40
0.2172342135225723
 40
0.2341303726356434
 40
0.2508184310857054
 40
0.2677239344654165
 40
0.2848410022916379
 40
0.3020789386355025
 40
0.3193423541405969
 40
0.3365346392674254
 40
0.3535615520614756
 40
0.3703342564569008
 40
0.3871129894102989
 40
0.4041488004920075
 40
0.4213522028019259
 40
0.438628813608574
 40
0.4558818105183454
 40
0.4730151615668313
 40
0.4899367899551257
 40
0.5066461626278662
 40
0.5235679244776753
 40
0.5407000420828445
 40
0.5579504191365312
 40
0.5752230504112674
 40
0.5924211859545683
 40
0.6094505582698407
 40
0.6262224134363481
 40
0.6429913101981404
 40
0.6600143296552532
 40
0.6772026850277085
 40
0.6944621999679942
 40
0.711696339884373
 40
0.7288102621331721
 40
0.7457127752967587
 40
0.7623988911183001
 40
0.7792941223039866
 40
0.7964021745628765
 40
0.8136314305715018
 40
0.8308865828246442
 40
0.8480717643440945
 40
0.8650928437571375
 40
0.8818610196907544
 40
0.8986148705357638
 40
0.9156267606035484
 40
0.9328086574779094
 40
0.9500677445571009
 40
0.9673077005042244
 40
0.9844326562480324
 40
1.0
 40
1.0
 40
1.0
 40
1.0
 10
1636.408939879625
 20
694.8666553509321
 30
0.0
 10
1636.406421640999
 20
694.8244186077263
 30
0.0
 10
1636.39533928919
 20
694.6385416845869
 30
0.0
 10
1636.342952504746
 20
694.3199232815247
 30
0.0
 10
1636.256279981116
 20
693.9217722502474
 30
0.0
 10
1636.146984036435
 20
693.5550083437777
 30
0.0
 10
1636.016577108556
 20
693.2011637079957
 30
0.0
 10
1635.867129642068
 20
692.8658047255493
 30
0.0
 10
1635.698718156654
 20
692.5458583177876
 30
0.0
 10
1635.520108459379
 20
692.2515033021535
 30
0.0
 10
1635.326712758053
 20
691.9719102244997
 30
0.0
 10
1635.071099876433
 20
691.6458246851637
 30
0.0
 10
1634.738087251352
 20
691.2841425605281
 30
0.0
 10
1634.30986865008
 20
690.9032047295725
 30
0.0
 10
1633.836623672009
 20
690.5613159615211
 30
0.0
 10
1633.321336531102
 20
690.2648989807822
 30
0.0
 10
1632.772408773817
 20
690.0218426928553
 30
0.0
 10
1632.200184651535
 20
689.8378587605705
 30
0.0
 10
1631.615756324443
 20
689.7158886147315
 30
0.0
 10
1631.028097342507
 20
689.656076186201
 30
0.0
 10
1630.439773954399
 20
689.6570153479083
 30
0.0
 10
1629.852108158304
 20
689.7187417565779
 30
0.0
 10
1629.267794032105
 20
689.8426862067902
 30
0.0
 10
1628.695789353165
 20
690.0286995396834
 30
0.0
 10
1628.145833999794
 20
690.2744553929465
 30
0.0
 10
1627.627003201893
 20
690.5756240206435
 30
0.0
 10
1627.147207380842
 20
690.92611984986
 30
0.0
 10
1626.709844454515
 20
691.3211596554291
 30
0.0
 10
1626.315315583574
 20
691.7591234400813
 30
0.0
 10
1625.965299251596
 20
692.2396458228495
 30
0.0
 10
1625.664680329175
 20
692.7592439403943
 30
0.0
 10
1625.419567013803
 20
693.309990050221
 30
0.0
 10
1625.234305953445
 20
693.8827864876288
 30
0.0
 10
1625.111235612917
 20
694.4678529683041
 30
0.0
 10
1625.05049722942
 20
695.0562535447878
 30
0.0
 10
1625.050679601099
 20
695.6453148853511
 30
0.0
 10
1625.111781195172
 20
696.2336648165217
 30
0.0
 10
1625.235203019595
 20
696.8186127074979
 30
0.0
 10
1625.420781951193
 20
697.3912098890942
 30
0.0
 10
1625.666160396713
 20
697.9416859834717
 30
0.0
 10
1625.966976080939
 20
698.4609582821556
 30
0.0
 10
1626.317114097036
 20
698.9411231120716
 30
0.0
 10
1626.711718584012
 20
699.3787492131966
 30
0.0
 10
1627.149131097218
 20
699.7734796389604
 30
0.0
 10
1627.628965009764
 20
700.1236925388468
 30
0.0
 10
1628.147797092443
 20
700.4245856329426
 30
0.0
 10
1628.697720218276
 20
700.6700801611025
 30
0.0
 10
1629.269669479889
 20
700.8558536992126
 30
0.0
 10
1629.85391083038
 20
700.979581620893
 30
0.0
 10
1630.441501855144
 20
701.0411156786419
 30
0.0
 10
1631.029756964419
 20
701.041880943362
 30
0.0
 10
1631.617354759127
 20
700.9819045689535
 30
0.0
 10
1632.201717582827
 20
700.8597767912753
 30
0.0
 10
1632.773997760582
 20
700.6756007723279
 30
0.0
 10
1633.324455065141
 20
700.4316649774997
 30
0.0
 10
1633.844016125869
 20
700.1322547431691
 30
0.0
 10
1634.324760438335
 20
699.7834100312355
 30
0.0
 10
1634.763087333106
 20
699.3900557482281
 30
0.0
 10
1635.158638967701
 20
698.9538613384446
 30
0.0
 10
1635.509851020303
 20
698.4752166235349
 30
0.0
 10
1635.811884301186
 20
697.9573335418932
 30
0.0
 10
1636.059104185759
 20
697.4080796301976
 30
0.0
 10
1636.245250871773
 20
696.8363465264774
 30
0.0
 10
1636.371378782569
 20
696.2677264766535
 30
0.0
 10
1636.403969894924
 20
695.8885368885928
 30
0.0
 10
1636.419489055616
 20
695.7079752653497
 30
0.0
  0
LINE
  5
2E3
330
2DF
100
AcDbEntity
  8
0
  6
Continuous
 62
     7
370
    15
100
AcDbLine
 10
1636.42505221942
 20
695.0625177912696
 30
0.0
 11
1636.376743407596
 21
694.5782593359242
 31
0.0
  0
LINE
  5
2E4
330
2DF
100
AcDbEntity
  8
0
  6
Continuous
 62
     7
370
    15
100
AcDbLine
 10
1630.889169695661
 20
689.6662354541476
 30
0.0
 11
1630.743077153473
 21
689.6590210935394
 31
0.0
  0
SPLINE
  5
2E5
330
2DF
100
AcDbEntity
  8
0
  6
Continuous
 62
     7
370
    15
100
AcDbSpline
210
0.0
220
0.0
230
1.0
 70
     8
 71
     3
 72
    32
 73
    28
 74
     0
 42
0.0000000001
 43
0.0000000001
 40
0.0
 40
0.0
 40
0.0
 40
0.0
 40
0.0625
 40
0.0625
 40
0.125
 40
0.125
 40
0.25
 40
0.25
 40
0.375
 40
0.375
 40
0.4375
 40
0.4375
 40
0.5
 40
0.5
 40
0.5625
 40
0.5625
 40
0.625
 40
0.625
 40
0.6875
 40
0.6875
 40
0.75
 40
0.75
 40
0.8125
 40
0.8125
 40
0.875
 40
0.875
 40
1.0
 40
1.0
 40
1.0
 40
1.0
 10
1635.754818908462
 20
692.5507794429484
 30
0.0
 10
1635.624729748427
 20
692.2924300337495
 30
0.0
 10
1635.476432030134
 20
692.0465389765972
 30
0.0
 10
1635.144374158454
 20
691.5790203703978
 30
0.0
 10
1634.959065039512
 20
691.3560980644281
 30
0.0
 10
1634.359324986125
 20
690.7352796315549
 30
0.0
 10
1633.907929067988
 20
690.3867085104994
 30
0.0
 10
1632.900936078194
 20
689.8215277795543
 30
0.0
 10
1632.365938574871
 20
689.6171856916785
 30
0.0
 10
1631.525948511091
 20
689.429280655182
 30
0.0
 10
1631.238307098166
 20
689.3867828726394
 30
0.0
 10
1630.667685282385
 20
689.3446368529639
 30
0.0
 10
1630.38244655956
 20
689.3442077711399
 30
0.0
 10
1629.812108134293
 20
689.3831075095222
 30
0.0
 10
1629.524802640926
 20
689.4231854300032
 30
0.0
 10
1628.962748615199
 20
689.542891222747
 30
0.0
 10
1628.688414842965
 20
689.622022677433
 30
0.0
 10
1628.152831880182
 20
689.8179731413033
 30
0.0
 10
1627.891581752511
 20
689.9347894512941
 30
0.0
 10
1627.382657627454
 20
690.20752543449
 30
0.0
 10
1627.139694561689
 20
690.3610482603185
 30
0.0
 10
1626.679909225266
 20
690.6986675120072
 30
0.0
 10
1626.462498388855
 20
690.8832622001016
 30
0.0
 10
1626.052325243763
 20
691.2836231663914
 30
0.0
 10
1625.858802176587
 20
691.5004599123876
 30
0.0
 10
1625.332653892941
 20
692.1783402781795
 30
0.0
 10
1625.047212408458
 20
692.671317927578
 30
0.0
 10
1624.829164555596
 20
693.2066537616666
 30
0.0
  0
SPLINE
  5
2E6
330
2DF
100
AcDbEntity
  8
0
  6
Continuous
 62
     7
370
    15
100
AcDbSpline
210
0.0
220
0.0
230
1.0
 70
     8
 71
     3
 72
    18
 73
    14
 74
     0
 42
0.0000000001
 43
0.0000000001
 40
0.0
 40
0.0
 40
0.0
 40
0.0
 40
0.25
 40
0.25
 40
0.5
 40
0.5
 40
0.625
 40
0.625
 40
0.75
 40
0.75
 40
0.875
 40
0.875
 40
1.0
 40
1.0
 40
1.0
 40
1.0
 10
1635.754818908462
 20
692.5507794429484
 30
0.0
 10
1635.981959596227
 20
693.0018674696027
 30
0.0
 10
1636.158410240563
 20
693.4770134312294
 30
0.0
 10
1636.388308977821
 20
694.4578685034216
 30
0.0
 10
1636.441328090327
 20
694.953192293062
 30
0.0
 10
1636.427514787278
 20
695.7035576653984
 30
0.0
 10
1636.406857970379
 20
695.956584075077
 30
0.0
 10
1636.334777386774
 20
696.4528947743017
 30
0.0
 10
1636.283553962949
 20
696.6970335820225
 30
0.0
 10
1636.151782993217
 20
697.1775538016506
 30
0.0
 10
1636.071212374937
 20
697.4139291099984
 30
0.0
 10
1635.880902337978
 20
697.8789634196395
 30
0.0
 10
1635.770953016118
 20
698.1074033580122
 30
0.0
 10
1635.649183819404
 20
698.3285897092869
 30
0.0
  0
ARC
  5
2E7
330
2DF
100
AcDbEntity
  8
0
  6
Continuous
 62
     7
370
    15
100
AcDbCircle
 10
1630.743077153473
 20
695.3490210935393
 30
0.0
 40
9.450000000000017
100
AcDbArc
 50
29.99999999999729
 51
90.0
  0
ARC
  5
2E8
330
2DF
100
AcDbEntity
  8
0
  6
Continuous
 62
     7
370
    15
100
AcDbCircle
 10
1630.743077153473
 20
695.3490210935393
 30
0.0
 40
9.450000000000006
100
AcDbArc
 50
330.0000000000027
 51
29.99999999999729
  0
ARC
  5
2E9
330
2DF
100
AcDbEntity
  8
0
  6
Continuous
 62
     7
370
    15
100
AcDbCircle
 10
1630.743077153473
 20
695.3490210935393
 30
0.0
 40
9.450000000000017
100
AcDbArc
 50
270.0
 51
330.0000000000027
  0
ARC
  5
2EA
330
2DF
100
AcDbEntity
  8
0
  6
Continuous
 62
     7
370
    15
100
AcDbCircle
 10
1630.743077153473
 20
695.3490210935393
 30
0.0
 40
9.450000000000017
100
AcDbArc
 50
209.9999999999973
 51
270.0
  0
ARC
  5
2EB
330
2DF
100
AcDbEntity
  8
0
  6
Continuous
 62
     7
370
    15
100
AcDbCircle
 10
1630.743077153473
 20
695.3490210935393
 30
0.0
 40
9.450000000000006
100
AcDbArc
 50
150.0000000000027
 51
209.9999999999973
  0
ARC
  5
2EC
330
2DF
100
AcDbEntity
  8
0
  6
Continuous
 62
     7
370
    15
100
AcDbCircle
 10
1630.743077153473
 20
695.3490210935393
 30
0.0
 40
9.450000000000017
100
AcDbArc
 50
90.0
 51
150.0000000000027
  0
SPLINE
  5
2ED
330
2DF
100
AcDbEntity
  8
0
  6
Continuous
 62
     7
370
    15
100
AcDbSpline
210
0.0
220
0.0
230
1.0
 70
     8
 71
     3
 72
    32
 73
    28
 74
     0
 42
0.0000000001
 43
0.0000000001
 40
0.0
 40
0.0
 40
0.0
 40
0.0
 40
0.0624999999999999
 40
0.0624999999999999
 40
0.1249999999999999
 40
0.1249999999999999
 40
0.2499999999999998
 40
0.2499999999999998
 40
0.3749999999999998
 40
0.3749999999999998
 40
0.4374999999999999
 40
0.4374999999999999
 40
0.5
 40
0.5
 40
0.5625
 40
0.5625
 40
0.625
 40
0.625
 40
0.6875
 40
0.6875
 40
0.75
 40
0.75
 40
0.8125
 40
0.8125
 40
0.875
 40
0.875
 40
1.0
 40
1.0
 40
1.0
 40
1.0
 10
1635.649183819432
 20
698.3285897093006
 30
0.0
 10
1635.509702504959
 20
698.5819490469155
 30
0.0
 10
1635.352462411032
 20
698.8221691315243
 30
0.0
 10
1635.003398958406
 20
699.2770220543442
 30
0.0
 10
1634.809941830093
 20
699.4928413297738
 30
0.0
 10
1634.188351832056
 20
700.0915731285141
 30
0.0
 10
1633.724730794372
 20
700.4235109225341
 30
0.0
 10
1632.698028962696
 20
700.9515816758973
 30
0.0
 10
1632.155995180885
 20
701.136188292142
 30
0.0
 10
1631.309824042988
 20
701.2930522647581
 30
0.0
 10
1631.020855254728
 20
701.3249025024408
 30
0.0
 10
1630.449116966433
 20
701.3459519145515
 30
0.0
 10
1630.16404574865
 20
701.3363365364056
 30
0.0
 10
1629.595495470569
 20
701.2769188816426
 30
0.0
 10
1629.30982284123
 20
701.2264848603368
 30
0.0
 10
1628.752574589882
 20
701.0865221737185
 30
0.0
 10
1628.481347666047
 20
700.9974965944736
 30
0.0
 10
1627.953353799215
 20
700.7822179420405
 30
0.0
 10
1627.696585814319
 20
700.6559675512387
 30
0.0
 10
1627.198054576355
 20
700.3648368039663
 30
0.0
 10
1626.960873918491
 20
700.2024972920374
 30
0.0
 10
1626.513833597858
 20
699.8482061926424
 30
0.0
 10
1626.303394864862
 20
699.6557055332023
 30
0.0
 10
1625.907882710869
 20
699.2409301583393
 30
0.0
 10
1625.722314622168
 20
699.0173112981684
 30
0.0
 10
1625.221047643196
 20
698.3210503245527
 30
0.0
 10
1624.953698960115
 20
697.8181635578214
 30
0.0
 10
1624.755304446664
 20
697.2753331169666
 30
0.0
  0
ARC
  5
2EE
330
2DF
100
AcDbEntity
  8
0
  6
Continuous
 62
     7
370
    15
100
AcDbCircle
 10
1630.743077153473
 20
695.3490210935393
 30
0.0
 40
6.29
100
AcDbArc
 50
162.1666218504152
 51
199.9133689162714
  0
ARC
  5
2EF
330
2DF
100
AcDbEntity
  8
0
  6
Continuous
 62
     7
370
    15
100
AcDbCircle
 10
1630.743077153473
 20
695.3490210935393
 30
0.0
 40
10.44999999999999
100
AcDbArc
 50
115.2699959303847
 51
124.7300040696066
  0
SPLINE
  5
2F0
330
2DF
100
AcDbEntity
  8
0
  6
Continuous
 62
     7
370
    15
100
AcDbSpline
210
0.0
220
0.0
230
1.0
 70
    24
 71
     3
 72
     8
 73
     4
 74
     0
 42
0.0000000001
 43
0.0000000001
 40
0.0
 40
0.0
 40
0.0
 40
0.0
 40
1.0
 40
1.0
 40
1.0
 40
1.0
 10
1630.743077153473
 20
704.7990210935394
 30
0.0
 10
1629.25073177442
 20
704.7990210935394
 30
0.0
 10
1627.764297726303
 20
704.7990210935394
 30
0.0
 10
1626.282135548833
 20
704.7990210935394
 30
0.0
  0
SPLINE
  5
2F1
330
2DF
100
AcDbEntity
  8
0
  6
Continuous
 62
     7
370
    15
100
AcDbSpline
210
0.0
220
0.0
230
1.0
 70
    24
 71
     3
 72
     8
 73
     4
 74
     0
 42
0.0000000001
 43
0.0000000001
 40
0.0
 40
0.0
 40
0.0
 40
0.0
 40
1.0
 40
1.0
 40
1.0
 40
1.0
 10
1624.789607890029
 20
703.9373098479558
 30
0.0
 10
1624.048526801295
 20
702.6537197497389
 30
0.0
 10
1623.305309777236
 20
701.3664301030195
 30
0.0
 10
1622.55913708771
 20
700.0740210935394
 30
0.0
  0
SPLINE
  5
2F2
330
2DF
100
AcDbEntity
  8
0
  6
Continuous
 62
     7
370
    15
100
AcDbSpline
210
0.0
220
0.0
230
1.0
 70
    24
 71
     3
 72
     8
 73
     4
 74
     0
 42
0.0000000001
 43
0.0000000001
 40
0.0
 40
0.0
 40
0.0
 40
0.0
 40
1.0
 40
1.0
 40
1.0
 40
1.0
 10
1620.32866628539
 20
694.4873098479558
 30
0.0
 10
1621.069747374125
 20
693.203719749739
 30
0.0
 10
1621.812964398183
 20
691.9164301030195
 30
0.0
 10
1622.55913708771
 20
690.6240210935393
 30
0.0
  0
ARC
  5
2F3
330
2DF
100
AcDbEntity
  8
0
  6
Continuous
 62
     7
370
    15
100
AcDbCircle
 10
1630.743077153473
 20
695.3490210935393
 30
0.0
 40
10.45
100
AcDbArc
 50
175.2699959303891
 51
184.7300040696108
  0
SPLINE
  5
2F4
330
2DF
100
AcDbEntity
  8
0
  6
Continuous
 62
     7
370
    15
100
AcDbSpline
210
0.0
220
0.0
230
1.0
 70
    24
 71
     3
 72
     8
 73
     4
 74
     0
 42
0.0000000001
 43
0.0000000001
 40
0.0
 40
0.0
 40
0.0
 40
0.0
 40
1.0
 40
1.0
 40
1.0
 40
1.0
 10
1622.55913708771
 20
700.0740210935394
 30
0.0
 10
1621.812964398183
 20
698.7816120840592
 30
0.0
 10
1621.069747374125
 20
697.4943224373397
 30
0.0
 10
1620.32866628539
 20
696.2107323391229
 30
0.0
  0
SPLINE
  5
2F5
330
2DF
100
AcDbEntity
  8
0
  6
Continuous
 62
     7
370
    15
100
AcDbSpline
210
0.0
220
0.0
230
1.0
 70
    24
 71
     3
 72
     8
 73
     4
 74
     0
 42
0.0000000001
 43
0.0000000001
 40
0.0
 40
0.0
 40
0.0
 40
0.0
 40
1.0
 40
1.0
 40
1.0
 40
1.0
 10
1626.282135548833
 20
685.8990210935394
 30
0.0
 10
1627.764297726303
 20
685.8990210935394
 30
0.0
 10
1629.25073177442
 20
685.8990210935394
 30
0.0
 10
1630.743077153473
 20
685.8990210935394
 30
0.0
  0
ARC
  5
2F6
330
2DF
100
AcDbEntity
  8
0
  6
Continuous
 62
     7
370
    15
100
AcDbCircle
 10
1630.743077153473
 20
695.3490210935393
 30
0.0
 40
10.45000000000002
100
AcDbArc
 50
235.2699959303933
 51
244.7300040696152
  0
SPLINE
  5
2F7
330
2DF
100
AcDbEntity
  8
0
  6
Continuous
 62
     7
370
    15
100
AcDbSpline
210
0.0
220
0.0
230
1.0
 70
    24
 71
     3
 72
     8
 73
     4
 74
     0
 42
0.0000000001
 43
0.0000000001
 40
0.0
 40
0.0
 40
0.0
 40
0.0
 40
1.0
 40
1.0
 40
1.0
 40
1.0
 10
1622.55913708771
 20
690.6240210935393
 30
0.0
 10
1623.305309777236
 20
689.3316120840592
 30
0.0
 10
1624.048526801295
 20
688.0443224373398
 30
0.0
 10
1624.789607890029
 20
686.760732339123
 30
0.0
  0
ARC
  5
2F8
330
2DF
100
AcDbEntity
  8
0
  6
Continuous
 62
     7
370
    15
100
AcDbCircle
 10
1630.743077153473
 20
695.3490210935393
 30
0.0
 40
10.44999999999999
100
AcDbArc
 50
355.2699959303891
 51
4.730004069610851
  0
SPLINE
  5
2F9
330
2DF
100
AcDbEntity
  8
0
  6
Continuous
 62
     7
370
    15
100
AcDbSpline
210
0.0
220
0.0
230
1.0
 70
    24
 71
     3
 72
     8
 73
     4
 74
     0
 42
0.0000000001
 43
0.0000000001
 40
0.0
 40
0.0
 40
0.0
 40
0.0
 40
1.0
 40
1.0
 40
1.0
 40
1.0
 10
1638.927017219235
 20
690.6240210935393
 30
0.0
 10
1639.673189908762
 20
691.9164301030195
 30
0.0
 10
1640.416406932821
 20
693.203719749739
 30
0.0
 10
1641.157488021555
 20
694.4873098479558
 30
0.0
  0
SPLINE
  5
2FA
330
2DF
100
AcDbEntity
  8
0
  6
Continuous
 62
     7
370
    15
100
AcDbSpline
210
0.0
220
0.0
230
1.0
 70
    24
 71
     3
 72
     8
 73
     4
 74
     0
 42
0.0000000001
 43
0.0000000001
 40
0.0
 40
0.0
 40
0.0
 40
0.0
 40
1.0
 40
1.0
 40
1.0
 40
1.0
 10
1641.157488021555
 20
696.2107323391229
 30
0.0
 10
1640.416406932821
 20
697.4943224373397
 30
0.0
 10
1639.673189908762
 20
698.7816120840592
 30
0.0
 10
1638.927017219235
 20
700.0740210935394
 30
0.0
  0
ARC
  5
2FB
330
2DF
100
AcDbEntity
  8
0
  6
Continuous
 62
     7
370
    15
100
AcDbCircle
 10
1630.743077153473
 20
695.3490210935393
 30
0.0
 40
10.45000000000002
100
AcDbArc
 50
55.26999593039334
 51
64.73000406961523
  0
SPLINE
  5
2FC
330
2DF
100
AcDbEntity
  8
0
  6
Continuous
 62
     7
370
    15
100
AcDbSpline
210
0.0
220
0.0
230
1.0
 70
    24
 71
     3
 72
     8
 73
     4
 74
     0
 42
0.0000000001
 43
0.0000000001
 40
0.0
 40
0.0
 40
0.0
 40
0.0
 40
1.0
 40
1.0
 40
1.0
 40
1.0
 10
1638.927017219235
 20
700.0740210935394
 30
0.0
 10
1638.180844529709
 20
701.3664301030195
 30
0.0
 10
1637.43762750565
 20
702.6537197497389
 30
0.0
 10
1636.696546416916
 20
703.9373098479558
 30
0.0
  0
SPLINE
  5
2FD
330
2DF
100
AcDbEntity
  8
0
  6
Continuous
 62
     7
370
    15
100
AcDbSpline
210
0.0
220
0.0
230
1.0
 70
    24
 71
     3
 72
     8
 73
     4
 74
     0
 42
0.0000000001
 43
0.0000000001
 40
0.0
 40
0.0
 40
0.0
 40
0.0
 40
1.0
 40
1.0
 40
1.0
 40
1.0
 10
1635.204018758112
 20
704.7990210935394
 30
0.0
 10
1633.721856580643
 20
704.7990210935394
 30
0.0
 10
1632.235422532525
 20
704.7990210935394
 30
0.0
 10
1630.743077153473
 20
704.7990210935394
 30
0.0
  0
ARC
  5
2FE
330
2DF
100
AcDbEntity
  8
0
  6
Continuous
 62
     7
370
    15
100
AcDbCircle
 10
1630.743077153473
 20
695.3490210935393
 30
0.0
 40
10.45000000000002
100
AcDbArc
 50
295.2699959303848
 51
304.7300040696173
  0
SPLINE
  5
2FF
330
2DF
100
AcDbEntity
  8
0
  6
Continuous
 62
     7
370
    15
100
AcDbSpline
210
0.0
220
0.0
230
1.0
 70
    24
 71
     3
 72
     8
 73
     4
 74
     0
 42
0.0000000001
 43
0.0000000001
 40
0.0
 40
0.0
 40
0.0
 40
0.0
 40
1.0
 40
1.0
 40
1.0
 40
1.0
 10
1630.743077153473
 20
685.8990210935394
 30
0.0
 10
1632.235422532525
 20
685.8990210935394
 30
0.0
 10
1633.721856580643
 20
685.8990210935394
 30
0.0
 10
1635.204018758112
 20
685.8990210935394
 30
0.0
  0
SPLINE
  5
300
330
2DF
100
AcDbEntity
  8
0
  6
Continuous
 62
     7
370
    15
100
AcDbSpline
210
0.0
220
0.0
230
1.0
 70
    24
 71
     3
 72
     8
 73
     4
 74
     0
 42
0.0000000001
 43
0.0000000001
 40
0.0
 40
0.0
 40
0.0
 40
0.0
 40
1.0
 40
1.0
 40
1.0
 40
1.0
 10
1636.696546416916
 20
686.760732339123
 30
0.0
 10
1637.43762750565
 20
688.0443224373398
 30
0.0
 10
1638.180844529709
 20
689.3316120840592
 30
0.0
 10
1638.927017219235
 20
690.6240210935393
 30
0.0
  0
ARC
  5
301
330
2DF
100
AcDbEntity
  8
0
  6
Continuous
 62
     7
370
    15
100
AcDbCircle
 10
1630.743077153473
 20
695.3490210935393
 30
0.0
 40
10.44999999999999
100
AcDbArc
 50
304.7300040696173
 51
355.2699959303891
  0
ARC
  5
302
330
2DF
100
AcDbEntity
  8
0
  6
Continuous
 62
     7
370
    15
100
AcDbCircle
 10
1630.743077153473
 20
695.3490210935393
 30
0.0
 40
10.44999999999999
100
AcDbArc
 50
244.7300040696152
 51
295.2699959303848
  0
ARC
  5
303
330
2DF
100
AcDbEntity
  8
0
  6
Continuous
 62
     7
370
    15
100
AcDbCircle
 10
1630.743077153473
 20
695.3490210935393
 30
0.0
 40
10.45
100
AcDbArc
 50
124.7300040696066
 51
175.2699959303891
  0
ARC
  5
304
330
2DF
100
AcDbEntity
  8
0
  6
Continuous
 62
     7
370
    15
100
AcDbCircle
 10
1630.743077153473
 20
695.3490210935393
 30
0.0
 40
10.45000000000002
100
AcDbArc
 50
64.73000406961523
 51
115.2699959303847
  0
ARC
  5
305
330
2DF
100
AcDbEntity
  8
0
  6
Continuous
 62
     7
370
    15
100
AcDbCircle
 10
1630.743077153473
 20
695.3490210935393
 30
0.0
 40
10.44999999999999
100
AcDbArc
 50
4.730004069610851
 51
55.26999593039334
  0
ARC
  5
306
330
2DF
100
AcDbEntity
  8
0
  6
Continuous
 62
     7
370
    15
100
AcDbCircle
 10
1630.743077153473
 20
695.3490210935393
 30
0.0
 40
10.45
100
AcDbArc
 50
184.7300040696108
 51
235.2699959303933
  0
ARC
  5
307
330
2DF
100
AcDbEntity
  8
0
  6
Continuous
 62
     8
370
    15
100
AcDbCircle
 10
1630.738946041594
 20
695.3414357077081
 30
0.0
 40
5.739925348349167
100
AcDbArc
 50
33.19341957974105
 51
330.9099671066114
  0
ENDBLK
  5
2E1
330
2DF
100
AcDbEntity
  8
0
100
AcDbBlockEnd
  0
BLOCK
  5
30A
330
309
100
AcDbEntity
  8
0
100
AcDbBlockBegin
  2
2
 70
     0
 10
0.0
 20
0.0
 30
0.0
  3
2
  1

  0
LINE
  5
30C
330
309
100
AcDbEntity
  8
0
  6
Continuous
 62
     7
370
    15
100
AcDbLine
 10
1641.193077153473
 20
663.727850383423
 30
0.0
 11
1641.193077153473
 21
668.459901190992
 31
0.0
  0
LINE
  5
30D
330
309
100
AcDbEntity
  8
0
  6
Continuous
 62
     7
370
    15
100
AcDbLine
 10
1620.293077153473
 20
668.459901190992
 30
0.0
 11
1620.293077153473
 21
663.727850383423
 31
0.0
  0
LINE
  5
30E
330
309
100
AcDbEntity
  8
0
  6
Continuous
 62
     7
370
    15
100
AcDbLine
 10
1640.193077153472
 20
663.4599011909919
 30
0.0
 11
1641.193077153473
 21
663.727850383423
 31
0.0
  0
LINE
  5
30F
330
309
100
AcDbEntity
  8
0
  6
Continuous
 62
     7
370
    15
100
AcDbLine
 10
1620.293077153473
 20
663.727850383423
 30
0.0
 11
1621.293077153472
 21
663.4599011909919
 31
0.0
  0
LINE
  5
310
330
309
100
AcDbEntity
  8
0
  6
Continuous
 62
     7
370
    15
100
AcDbLine
 10
1626.282135548833
 20
663.727850383423
 30
0.0
 11
1624.789607890029
 21
663.727850383423
 31
0.0
  0
LINE
  5
311
330
309
100
AcDbEntity
  8
0
  6
Continuous
 62
     7
370
    15
100
AcDbLine
 10
1624.789607890029
 20
667.359901190992
 30
0.0
 11
1624.789607890029
 21
663.727850383423
 31
0.0
  0
LINE
  5
312
330
309
100
AcDbEntity
  8
0
  6
Continuous
 62
     7
370
    15
100
AcDbLine
 10
1620.32866628539
 20
667.359901190992
 30
0.0
 11
1624.789607890029
 21
667.359901190992
 31
0.0
  0
LINE
  5
313
330
309
100
AcDbEntity
  8
0
  6
Continuous
 62
     7
370
    15
100
AcDbLine
 10
1620.32866628539
 20
663.727850383423
 30
0.0
 11
1620.32866628539
 21
667.359901190992
 31
0.0
  0
LINE
  5
314
330
309
100
AcDbEntity
  8
0
  6
Continuous
 62
     7
370
    15
100
AcDbLine
 10
1620.32866628539
 20
663.727850383423
 30
0.0
 11
1620.293077153473
 21
663.727850383423
 31
0.0
  0
LINE
  5
315
330
309
100
AcDbEntity
  8
0
  6
Continuous
 62
     7
370
    15
100
AcDbLine
 10
1641.193077153473
 20
663.727850383423
 30
0.0
 11
1641.157488021555
 21
663.727850383423
 31
0.0
  0
LINE
  5
316
330
309
100
AcDbEntity
  8
0
  6
Continuous
 62
     7
370
    15
100
AcDbLine
 10
1641.157488021555
 20
667.359901190992
 30
0.0
 11
1641.157488021555
 21
663.727850383423
 31
0.0
  0
LINE
  5
317
330
309
100
AcDbEntity
  8
0
  6
Continuous
 62
     7
370
    15
100
AcDbLine
 10
1636.696546416916
 20
667.359901190992
 30
0.0
 11
1641.157488021555
 21
667.359901190992
 31
0.0
  0
LINE
  5
318
330
309
100
AcDbEntity
  8
0
  6
Continuous
 62
     7
370
    15
100
AcDbLine
 10
1636.696546416916
 20
663.727850383423
 30
0.0
 11
1636.696546416916
 21
667.359901190992
 31
0.0
  0
LINE
  5
319
330
309
100
AcDbEntity
  8
0
  6
Continuous
 62
     7
370
    15
100
AcDbLine
 10
1636.696546416916
 20
663.727850383423
 30
0.0
 11
1635.204018758112
 21
663.727850383423
 31
0.0
  0
LINE
  5
31A
330
309
100
AcDbEntity
  8
0
  6
Continuous
 62
     7
370
    15
100
AcDbLine
 10
1635.204018758112
 20
667.359901190992
 30
0.0
 11
1635.204018758112
 21
663.727850383423
 31
0.0
  0
LINE
  5
31B
330
309
100
AcDbEntity
  8
0
  6
Continuous
 62
     7
370
    15
100
AcDbLine
 10
1626.282135548833
 20
663.727850383423
 30
0.0
 11
1626.282135548833
 21
667.359901190992
 31
0.0
  0
LINE
  5
31C
330
309
100
AcDbEntity
  8
0
  6
Continuous
 62
     7
370
    15
100
AcDbLine
 10
1620.293077153473
 20
668.459901190992
 30
0.0
 11
1641.193077153473
 21
668.459901190992
 31
0.0
  0
LINE
  5
31D
330
309
100
AcDbEntity
  8
0
  6
Continuous
 62
     7
370
    15
100
AcDbLine
 10
1626.282135548833
 20
667.359901190992
 30
0.0
 11
1635.204018758112
 21
667.359901190992
 31
0.0
  0
SPLINE
  5
31E
330
309
100
AcDbEntity
  8
0
  6
Continuous
 62
     7
370
    15
100
AcDbSpline
210
0.0
220
0.0
230
1.0
 70
     8
 71
     3
 72
     8
 73
     4
 74
     0
 42
0.0000000001
 43
0.0000000001
 40
0.0
 40
0.0
 40
0.0
 40
0.0
 40
1.0
 40
1.0
 40
1.0
 40
1.0
 10
1630.743077153473
 20
663.4599011909919
 30
0.0
 10
1629.25073177442
 20
663.4599011909919
 30
0.0
 10
1627.764297726303
 20
663.5583157518715
 30
0.0
 10
1626.282135548833
 20
663.727850383423
 30
0.0
  0
LINE
  5
31F
330
309
100
AcDbEntity
  8
0
  6
Continuous
 62
     7
370
    15
100
AcDbLine
 10
1622.55913708771
 20
663.4599011909919
 30
0.0
 11
1630.743077153473
 21
663.4599011909919
 31
0.0
  0
SPLINE
  5
320
330
309
100
AcDbEntity
  8
0
  6
Continuous
 62
     7
370
    15
100
AcDbSpline
210
0.0
220
0.0
230
1.0
 70
     8
 71
     3
 72
     8
 73
     4
 74
     0
 42
0.0000000001
 43
0.0000000001
 40
0.0
 40
0.0
 40
0.0
 40
0.0
 40
1.0
 40
1.0
 40
1.0
 40
1.0
 10
1624.789607890029
 20
663.727850383423
 30
0.0
 10
1624.048526801295
 20
663.5583157518715
 30
0.0
 10
1623.305309777236
 20
663.4599011909919
 30
0.0
 10
1622.55913708771
 20
663.4599011909919
 30
0.0
  0
SPLINE
  5
321
330
309
100
AcDbEntity
  8
0
  6
Continuous
 62
     7
370
    15
100
AcDbSpline
210
0.0
220
0.0
230
1.0
 70
     8
 71
     3
 72
     8
 73
     4
 74
     0
 42
0.0000000001
 43
0.0000000001
 40
0.0
 40
0.0
 40
0.0
 40
0.0
 40
1.0
 40
1.0
 40
1.0
 40
1.0
 10
1635.204018758112
 20
663.727850383423
 30
0.0
 10
1633.721856580643
 20
663.5583157518715
 30
0.0
 10
1632.235422532525
 20
663.4599011909919
 30
0.0
 10
1630.743077153473
 20
663.4599011909919
 30
0.0
  0
SPLINE
  5
322
330
309
100
AcDbEntity
  8
0
  6
Continuous
 62
     7
370
    15
100
AcDbSpline
210
0.0
220
0.0
230
1.0
 70
     8
 71
     3
 72
     8
 73
     4
 74
     0
 42
0.0000000001
 43
0.0000000001
 40
0.0
 40
0.0
 40
0.0
 40
0.0
 40
1.0
 40
1.0
 40
1.0
 40
1.0
 10
1638.927017219235
 20
663.4599011909919
 30
0.0
 10
1638.180844529709
 20
663.4599011909919
 30
0.0
 10
1637.43762750565
 20
663.5583157518715
 30
0.0
 10
1636.696546416916
 20
663.727850383423
 30
0.0
  0
LINE
  5
323
330
309
100
AcDbEntity
  8
0
  6
Continuous
 62
     7
370
    15
100
AcDbLine
 10
1630.743077153473
 20
663.4599011909919
 30
0.0
 11
1638.927017219235
 21
663.4599011909919
 31
0.0
  0
SPLINE
  5
324
330
309
100
AcDbEntity
  8
0
  6
Continuous
 62
     7
370
    15
100
AcDbSpline
210
0.0
220
0.0
230
1.0
 70
     8
 71
     3
 72
     8
 73
     4
 74
     0
 42
0.0000000001
 43
0.0000000001
 40
0.0
 40
0.0
 40
0.0
 40
0.0
 40
1.0
 40
1.0
 40
1.0
 40
1.0
 10
1641.157488021555
 20
663.727850383423
 30
0.0
 10
1640.416406932821
 20
663.5583157518715
 30
0.0
 10
1639.673189908762
 20
663.4599011909919
 30
0.0
 10
1638.927017219235
 20
663.4599011909919
 30
0.0
  0
SPLINE
  5
325
330
309
100
AcDbEntity
  8
0
  6
Continuous
 62
     7
370
    15
100
AcDbSpline
210
0.0
220
0.0
230
1.0
 70
     8
 71
     3
 72
     8
 73
     4
 74
     0
 42
0.0000000001
 43
0.0000000001
 40
0.0
 40
0.0
 40
0.0
 40
0.0
 40
1.0
 40
1.0
 40
1.0
 40
1.0
 10
1622.55913708771
 20
663.4599011909919
 30
0.0
 10
1621.812964398183
 20
663.4599011909919
 30
0.0
 10
1621.069747374125
 20
663.5583157518715
 30
0.0
 10
1620.32866628539
 20
663.727850383423
 30
0.0
  0
LINE
  5
326
330
309
100
AcDbEntity
  8
0
  6
Continuous
 62
     7
370
    15
100
AcDbLine
 10
1638.927017219235
 20
663.4599011909919
 30
0.0
 11
1640.193077153472
 21
663.4599011909919
 31
0.0
  0
LINE
  5
327
330
309
100
AcDbEntity
  8
0
  6
Continuous
 62
     7
370
    15
100
AcDbLine
 10
1621.293077153472
 20
663.4599011909919
 30
0.0
 11
1622.55913708771
 21
663.4599011909919
 31
0.0
  0
ENDBLK
  5
30B
330
309
100
AcDbEntity
  8
0
100
AcDbBlockEnd
  0
BLOCK
  5
32A
330
329
100
AcDbEntity
  8
0
100
AcDbBlockBegin
  2
3
 70
     0
 10
0.0
 20
0.0
 30
0.0
  3
3
  1

  0
LINE
  5
32C
330
329
100
AcDbEntity
  8
0
  6
Continuous
 62
     7
370
    15
100
AcDbLine
 10
1659.537974581348
 20
692.3776249883817
 30
0.0
 11
1659.55274629743
 21
691.4100291829002
 31
0.0
  0
LINE
  5
32D
330
329
100
AcDbEntity
  8
0
  6
Continuous
 62
     7
370
    15
100
AcDbLine
 10
1680.450311211259
 20
691.7290600157786
 30
0.0
 11
1680.435539495176
 21
692.6966558212601
 31
0.0
  0
SPLINE
  5
32E
330
329
100
AcDbEntity
  8
0
  6
Continuous
 62
     7
370
    15
100
AcDbSpline
210
0.0
220
0.0
230
1.0
 70
     8
 71
     3
 72
    11
 73
     7
 74
     0
 42
0.0000000001
 43
0.0000000001
 40
0.0
 40
0.0
 40
0.0
 40
0.0
 40
0.1882624547542168
 40
0.5317139731091766
 40
0.8232568121202913
 40
1.0
 40
1.0
 40
1.0
 40
1.0
 10
1664.458621443934
 20
696.6623895691225
 30
0.0
 10
1664.477521548945
 20
696.6912691275848
 30
0.0
 10
1664.530901549437
 20
696.7728343275698
 30
0.0
 10
1664.637715973488
 20
696.8968498858985
 30
0.0
 10
1664.754968911172
 20
697.0174543053813
 30
0.0
 10
1664.835404648056
 20
697.0848068980587
 30
0.0
 10
1664.86576316345
 20
697.1102274984145
 30
0.0
  0
SPLINE
  5
32F
330
329
100
AcDbEntity
  8
0
  6
Continuous
 62
     7
370
    15
100
AcDbSpline
210
0.0
220
0.0
230
1.0
 70
     8
 71
     3
 72
    32
 73
    28
 74
     0
 42
0.0000000001
 43
0.0000000001
 40
0.0
 40
0.0
 40
0.0
 40
0.0
 40
0.0333548729784251
 40
0.0799554286035089
 40
0.1291202914399863
 40
0.1807825295434272
 40
0.2332627705396471
 40
0.2796822928832186
 40
0.3192666176074023
 40
0.3568779880948545
 40
0.3877696384821071
 40
0.4204483835787955
 40
0.4570438872404896
 40
0.5010276614377948
 40
0.553034693515963
 40
0.60583640907176
 40
0.6520761868985263
 40
0.6915738351736587
 40
0.7290287599013286
 40
0.76892980424801
 40
0.8110306942508337
 40
0.8433722583327599
 40
0.8762498550009485
 40
0.9096305169938311
 40
0.945353599145514
 40
0.9884242567418375
 40
1.0
 40
1.0
 40
1.0
 40
1.0
 10
1674.194680959786
 20
697.4362995065643
 30
0.0
 10
1674.24626619402
 20
697.4072477612576
 30
0.0
 10
1674.36992187442
 20
697.3376074196746
 30
0.0
 10
1674.554641959024
 20
697.2180533237604
 30
0.0
 10
1674.751622960643
 20
697.0753897910344
 30
0.0
 10
1674.937841760771
 20
696.9194837883119
 30
0.0
 10
1675.10138658832
 20
696.7593443371388
 30
0.0
 10
1675.232585391769
 20
696.6083775822438
 30
0.0
 10
1675.334527023282
 20
696.471223662852
 30
0.0
 10
1675.411424611984
 20
696.3499596844858
 30
0.0
 10
1675.472773351209
 20
696.2363240026697
 30
0.0
 10
1675.523422884055
 20
696.1248424427949
 30
0.0
 10
1675.569098485966
 20
695.9995196581729
 30
0.0
 10
1675.607720689779
 20
695.8517268197197
 30
0.0
 10
1675.630974185872
 20
695.6847190558699
 30
0.0
 10
1675.632301137603
 20
695.5144451039782
 30
0.0
 10
1675.61416072551
 20
695.3580029319335
 30
0.0
 10
1675.583308439856
 20
695.2194174439448
 30
0.0
 10
1675.541168044843
 20
695.0872707085957
 30
0.0
 10
1675.484153244263
 20
694.9509023897567
 30
0.0
 10
1675.41546671783
 20
694.8202543097947
 30
0.0
 10
1675.339191059489
 20
694.6982812348465
 30
0.0
 10
1675.259609960062
 20
694.5870323609993
 30
0.0
 10
1675.167678938005
 20
694.4729286496079
 30
0.0
 10
1675.054667097771
 20
694.3496600440907
 30
0.0
 10
1674.958294973158
 20
694.2525672944442
 30
0.0
 10
1674.891309502165
 20
694.1964313772151
 30
0.0
 10
1674.877119974545
 20
694.1845401098078
 30
0.0
  0
LINE
  5
330
330
329
100
AcDbEntity
  8
0
  6
Continuous
 62
     7
370
    15
100
AcDbLine
 10
1674.145826506259
 20
697.4643470059831
 30
0.0
 11
1674.194680959786
 21
697.4362995065643
 31
0.0
  0
SPLINE
  5
331
330
329
100
AcDbEntity
  8
0
  6
Continuous
 62
     7
370
    15
100
AcDbSpline
210
0.0
220
0.0
230
1.0
 70
     8
 71
     3
 72
    17
 73
    13
 74
     0
 42
0.0000000001
 43
0.0000000001
 40
0.0
 40
0.0
 40
0.0
 40
0.0
 40
0.0583146460340691
 40
0.2336903264619623
 40
0.3858456473723926
 40
0.5145043050440729
 40
0.6005013353508121
 40
0.6720555712711948
 40
0.7395169910222405
 40
0.8067842255497978
 40
0.8738234258892255
 40
1.0
 40
1.0
 40
1.0
 40
1.0
 10
1674.398133848319
 20
696.2067338069865
 30
0.0
 10
1674.431320329015
 20
696.1872950039723
 30
0.0
 10
1674.564311953512
 20
696.1093958734562
 30
0.0
 10
1674.752808690624
 20
695.9694187026213
 30
0.0
 10
1674.957803793112
 20
695.79916214705
 30
0.0
 10
1675.10278426411
 20
695.6567271901568
 30
0.0
 10
1675.205026577237
 20
695.5429425796902
 30
0.0
 10
1675.279050247081
 20
695.4515275216071
 30
0.0
 10
1675.341308022963
 20
695.366959116584
 30
0.0
 10
1675.396378087286
 20
695.2838269061746
 30
0.0
 10
1675.461606825163
 20
695.1760717950357
 30
0.0
 10
1675.497247548436
 20
695.095858558573
 30
0.0
 10
1675.520522171713
 20
695.0434765447133
 30
0.0
  0
LINE
  5
332
330
329
100
AcDbEntity
  8
0
  6
Continuous
 62
     7
370
    15
100
AcDbLine
 10
1674.162578009676
 20
696.3473790143634
 30
0.0
 11
1674.398133848319
 21
696.2067338069865
 31
0.0
  0
SPLINE
  5
333
330
329
100
AcDbEntity
  8
0
  6
Continuous
 62
     7
370
    15
100
AcDbSpline
210
0.0
220
0.0
230
1.0
 70
     8
 71
     3
 72
    13
 73
     9
 74
     0
 42
0.0000000001
 43
0.0000000001
 40
0.0
 40
0.0
 40
0.0
 40
0.0
 40
0.1223844347560667
 40
0.3050634393599874
 40
0.5063914292329479
 40
0.7034611130765956
 40
0.8938026779382092
 40
1.0
 40
1.0
 40
1.0
 40
1.0
 10
1674.219465537106
 20
695.2077384765058
 30
0.0
 10
1674.264822602995
 20
695.1825450226793
 30
0.0
 10
1674.377882589317
 20
695.1197461733896
 30
0.0
 10
1674.559599304778
 20
695.0052343966672
 30
0.0
 10
1674.756945462995
 20
694.8636405077865
 30
0.0
 10
1674.936717029472
 20
694.7152203978378
 30
0.0
 10
1675.074774724508
 20
694.5872152286146
 30
0.0
 10
1675.145645008749
 20
694.507914795884
 30
0.0
 10
1675.171025269929
 20
694.4795155067327
 30
0.0
  0
LINE
  5
334
330
329
100
AcDbEntity
  8
0
  6
Continuous
 62
     7
370
    15
100
AcDbLine
 10
1674.17988127752
 20
695.230110039643
 30
0.0
 11
1674.219465537106
 21
695.2077384765058
 31
0.0
  0
LINE
  5
335
330
329
100
AcDbEntity
  8
0
  6
Continuous
 62
     7
370
    15
100
AcDbLine
 10
1665.376803968193
 20
695.2151441623722
 30
0.0
 11
1665.407004734402
 21
695.2336044428534
 31
0.0
  0
SPLINE
  5
336
330
329
100
AcDbEntity
  8
0
  6
Continuous
 62
     7
370
    15
100
AcDbSpline
210
0.0
220
0.0
230
1.0
 70
     8
 71
     3
 72
    12
 73
     8
 74
     0
 42
0.0000000001
 43
0.0000000001
 40
0.0
 40
0.0
 40
0.0
 40
0.0
 40
0.0059076398352501
 40
0.2889378413780541
 40
0.5774920992077405
 40
0.8301510498412934
 40
1.0
 40
1.0
 40
1.0
 40
1.0
 10
1664.678324499009
 20
694.6671396096093
 30
0.0
 10
1664.679296644981
 20
694.6683137971913
 30
0.0
 10
1664.726843510806
 20
694.7257423532258
 30
0.0
 10
1664.847646156891
 20
694.8373872267088
 30
0.0
 10
1665.036307747534
 20
694.9942052550029
 30
0.0
 10
1665.217874577599
 20
695.11989383485
 30
0.0
 10
1665.33123348125
 20
695.1878326387426
 30
0.0
 10
1665.376803968193
 20
695.2151441623722
 30
0.0
  0
SPLINE
  5
337
330
329
100
AcDbEntity
  8
0
  6
Continuous
 62
     7
370
    15
100
AcDbSpline
210
0.0
220
0.0
230
1.0
 70
     8
 71
     3
 72
    15
 73
    11
 74
     0
 42
0.0000000001
 43
0.0000000001
 40
0.0
 40
0.0
 40
0.0
 40
0.0
 40
0.0372187067703751
 40
0.1081536778297126
 40
0.2104303202971899
 40
0.3440881127686687
 40
0.509028163899138
 40
0.6632873807105505
 40
0.8369950473922862
 40
1.0
 40
1.0
 40
1.0
 40
1.0
 10
1664.307711222376
 20
695.1971543660536
 30
0.0
 10
1664.310529216835
 20
695.2072131019492
 30
0.0
 10
1664.318718014652
 20
695.2364427387591
 30
0.0
 10
1664.340410029208
 20
695.2941389565662
 30
0.0
 10
1664.376771043578
 20
695.3787982959413
 30
0.0
 10
1664.435781006241
 20
695.4892332289087
 30
0.0
 10
1664.51744199084
 20
695.6131330634523
 30
0.0
 10
1664.624441457061
 20
695.7461931117951
 30
0.0
 10
1664.746757883169
 20
695.8768567991469
 30
0.0
 10
1664.847595047926
 20
695.9636093158935
 30
0.0
 10
1664.896411030223
 20
696.0056068208007
 30
0.0
  0
ARC
  5
338
330
329
100
AcDbEntity
  8
0
  6
Continuous
 62
     7
370
    15
100
AcDbCircle
 10
1669.673595268862
 20
712.3859778779135
 30
0.0
 40
21.62455584771972
100
AcDbArc
 50
265.5279936950529
 51
270.0732007878944
  0
LINE
  5
339
330
329
100
AcDbEntity
  8
0
  6
Continuous
 62
     7
370
    15
100
AcDbLine
 10
1669.749996883689
 20
687.5665695633331
 30
0.0
 11
1669.701222680667
 21
690.7614396785145
 31
0.0
  0
ARC
  5
33A
330
329
100
AcDbEntity
  8
0
  6
Continuous
 62
     7
370
    15
100
AcDbCircle
 10
1670.152119868571
 20
704.9311680244736
 30
0.0
 40
17.36925394516452
100
AcDbArc
 50
268.6734025169081
 51
296.4976387745411
  0
LINE
  5
33B
330
329
100
AcDbEntity
  8
0
  6
Continuous
 62
     7
370
    15
100
AcDbLine
 10
1677.852828184297
 20
692.5813765703826
 30
0.0
 11
1677.90160238732
 21
689.3865064552012
 31
0.0
  0
ARC
  5
33C
330
329
100
AcDbEntity
  8
0
  6
Continuous
 62
     7
370
    15
100
AcDbCircle
 10
1674.081803505946
 20
699.3450620994186
 30
0.0
 40
7.743905284830836
100
AcDbArc
 50
299.1414115193348
 51
308.1598033593065
  0
LINE
  5
33D
330
329
100
AcDbEntity
  8
0
  6
Continuous
 62
     7
370
    15
100
AcDbLine
 10
1678.915203134613
 20
690.0612324182106
 30
0.0
 11
1678.86642893159
 21
693.2561025333921
 31
0.0
  0
ARC
  5
33E
330
329
100
AcDbEntity
  8
0
  6
Continuous
 62
     7
370
    15
100
AcDbCircle
 10
1677.445825667775
 20
692.6054498354806
 30
0.0
 40
2.938045678063965
100
AcDbArc
 50
300.0079858972484
 51
35.01467642741248
  0
LINE
  5
33F
330
329
100
AcDbEntity
  8
0
  6
Continuous
 62
     7
370
    15
100
AcDbLine
 10
1679.803325843479
 20
697.4861301477703
 30
0.0
 11
1679.852100046502
 21
694.291260032589
 31
0.0
  0
ARC
  5
340
330
329
100
AcDbEntity
  8
0
  6
Continuous
 62
     7
370
    15
100
AcDbCircle
 10
1676.169234848033
 20
694.7515662004822
 30
0.0
 40
4.548016858477287
100
AcDbArc
 50
36.96055973706999
 51
49.82635553473929
  0
ARC
  5
341
330
329
100
AcDbEntity
  8
0
  6
Continuous
 62
     7
370
    15
100
AcDbCircle
 10
1670.202370401619
 20
679.0780431621105
 30
0.0
 40
21.62455584770025
100
AcDbArc
 50
85.52799369505294
 51
90.07320078789431
  0
ARC
  5
342
330
329
100
AcDbEntity
  8
0
  6
Continuous
 62
     7
370
    15
100
AcDbCircle
 10
1665.794162164536
 20
692.1189589405839
 30
0.0
 40
7.743905284833338
100
AcDbArc
 50
119.1414115193348
 51
128.1598033593065
  0
ARC
  5
343
330
329
100
AcDbEntity
  8
0
  6
Continuous
 62
     7
370
    15
100
AcDbCircle
 10
1662.167552786287
 20
692.418042717643
 30
0.0
 40
2.619156458880584
100
AcDbArc
 50
142.9342893430681
 51
218.6275392131888
  0
LINE
  5
344
330
329
100
AcDbEntity
  8
0
  6
Continuous
 62
     7
370
    15
100
AcDbLine
 10
1660.072639827
 20
693.9778908922344
 30
0.0
 11
1660.121414030023
 21
690.783020777053
 31
0.0
  0
ARC
  5
345
330
329
100
AcDbEntity
  8
0
  6
Continuous
 62
     7
370
    15
100
AcDbCircle
 10
1663.706730822447
 20
696.7124548395219
 30
0.0
 40
4.548016858476852
100
AcDbArc
 50
216.96055973707
 51
229.8263555347393
  0
LINE
  5
346
330
329
100
AcDbEntity
  8
0
  6
Continuous
 62
     7
370
    15
100
AcDbLine
 10
1660.821550787339
 20
690.0424775499434
 30
0.0
 11
1660.772776584317
 21
693.2373476651248
 31
0.0
  0
ARC
  5
347
330
329
100
AcDbEntity
  8
0
  6
Continuous
 62
     7
370
    15
100
AcDbCircle
 10
1668.333929583853
 20
700.5272883225726
 30
0.0
 40
12.8983367966633
100
AcDbArc
 50
234.3783592662411
 51
268.677599988517
  0
LINE
  5
348
330
329
100
AcDbEntity
  8
0
  6
Continuous
 62
     7
370
    15
100
AcDbLine
 10
1667.987485176058
 20
690.8272569426146
 30
0.0
 11
1668.036259379081
 21
687.6323868274332
 31
0.0
  0
LWPOLYLINE
  5
349
330
329
100
AcDbEntity
  8
0
  6
Continuous
 62
     7
370
    15
100
AcDbPolyline
 90
       73
 70
   128
 43
0.0
 10
1680.450311211259
 20
691.7290600157786
 10
1680.450386325349
 20
691.7237485541796
 10
1680.442894680467
 20
691.5022782488933
 10
1680.414672670038
 20
691.2809414947196
 10
1680.365776326251
 20
691.0601777352955
 10
1680.29630272827
 20
690.840425276631
 10
1680.206389809494
 20
690.6221204168909
 10
1680.096216083699
 20
690.4056965801676
 10
1679.966000290621
 20
690.1915834559554
 10
1679.816000961663
 20
689.9802061460432
 10
1679.646515906608
 20
689.7719843205138
 10
1679.457881622345
 20
689.5673313845279
 10
1679.250472624784
 20
689.3666536575465
 10
1679.02470070529
 20
689.1703495666206
 10
1678.781014113113
 20
688.9788088553522
 10
1678.519896665424
 20
688.7924118100935
 10
1678.241866786745
 20
688.6115285049243
 10
1677.947476479665
 20
688.4365180669036
 10
1677.637310228888
 20
688.2677279630562
 10
1677.311983840795
 20
688.1054933105096
 10
1676.972143220815
 20
687.950136211149
 10
1676.618463091044
 20
687.8019651121149
 10
1676.251645650639
 20
687.6612741934089
 10
1675.872419181674
 20
687.5283427838271
 10
1675.481536603203
 20
687.4034348063786
 10
1675.0797739764
 20
687.2867982542905
 10
1674.667928963774
 20
687.1786646986408
 10
1674.246819245475
 20
687.0792488285947
 10
1673.817280895868
 20
686.9887480251598
 10
1673.380166723587
 20
686.9073419693044
 10
1672.93634457836
 20
686.8351922852168
 10
1672.486695627974
 20
686.7724422194165
 10
1672.032112608798
 20
686.7192163563506
 10
1671.573498053339
 20
686.6756203710434
 10
1671.111762498345
 20
686.6417408192884
 10
1670.647822677021
 20
686.6176449657993
 10
1670.182599698936
 20
686.6033806506631
 10
1669.717017221253
 20
686.5989761943571
 10
1669.251999614882
 20
686.6044403415213
 10
1668.788470129238
 20
686.6197622435976
 10
1668.327349059208
 20
686.6449114803676
 10
1667.869551917993
 20
686.6798381203495
 10
1667.415987619443
 20
686.7244728199327
 10
1666.967556673485
 20
686.7787269610528
 10
1666.525149398258
 20
686.8424928271346
 10
1666.089644152452
 20
686.9156438169534
 10
1665.661905591422
 20
686.9980346959899
 10
1665.242782950487
 20
687.0895018847806
 10
1664.833108358856
 20
687.1898637836885
 10
1664.433695187508
 20
687.2989211334534
 10
1664.045336434324
 20
687.4164574108021
 10
1663.668803149661
 20
687.5422392583356
 10
1663.3048429055
 20
687.6760169478386
 10
1662.954178311217
 20
687.8175248760915
 10
1662.617505578905
 20
687.9664820922015
 10
1662.295493141111
 20
688.1225928554041
 10
1661.988780323722
 20
688.2855472222293
 10
1661.697976076646
 20
688.4550216618654
 10
1661.423657764799
 20
688.6306796985
 10
1661.166370021797
 20
688.8121725793609
 10
1660.926623668636
 20
688.999139967133
 10
1660.70489469951
 20
689.1912106553743
 10
1660.501623336762
 20
689.3880033055125
 10
1660.317213156869
 20
689.5891272039563
 10
1660.152030289171
 20
689.7941830378226
 10
1660.006402688962
 20
690.0027636877339
 10
1659.880619486363
 20
690.2144550361172
 10
1659.774930412281
 20
690.4288367893951
 10
1659.689545302587
 20
690.6454833124407
 10
1659.624633681515
 20
690.8639644736364
 10
1659.580324425078
 20
691.08384649886
 10
1659.556705505204
 20
691.3046928327037
 10
1659.55274629743
 20
691.4100291829002
  0
SPLINE
  5
34A
330
329
100
AcDbEntity
  8
0
  6
Continuous
 62
     7
370
    15
100
AcDbSpline
210
0.0
220
0.0
230
1.0
 70
     8
 71
     3
 72
    32
 73
    28
 74
     0
 42
0.0000000001
 43
0.0000000001
 40
0.0
 40
0.0
 40
0.0
 40
0.0
 40
0.0624999999999999
 40
0.0624999999999999
 40
0.1249999999999999
 40
0.1249999999999999
 40
0.2499999999999998
 40
0.2499999999999998
 40
0.3749999999999998
 40
0.3749999999999998
 40
0.4374999999999999
 40
0.4374999999999999
 40
0.5
 40
0.5
 40
0.5625
 40
0.5625
 40
0.625
 40
0.625
 40
0.6875
 40
0.6875
 40
0.75
 40
0.75
 40
0.8125
 40
0.8125
 40
0.875
 40
0.875
 40
1.0
 40
1.0
 40
1.0
 40
1.0
 10
1664.214665098462
 20
696.126494682964
 30
0.0
 10
1664.17844824093
 20
695.9896251738995
 30
0.0
 10
1664.164319697089
 20
695.8531025048679
 30
0.0
 10
1664.179077164703
 20
695.5807325995233
 30
0.0
 10
1664.208586546769
 20
695.4439795345789
 30
0.0
 10
1664.3591036121
 20
695.0416622633058
 30
0.0
 10
1664.538788806763
 20
694.7864683347121
 30
0.0
 10
1665.058458871697
 20
694.3023812338375
 30
0.0
 10
1665.388203026916
 20
694.0836861476634
 30
0.0
 10
1665.98020515043
 20
693.7936950160108
 30
0.0
 10
1666.195148500003
 20
693.7031656713631
 30
0.0
 10
1666.645106601148
 20
693.5404796525482
 30
0.0
 10
1666.881285443795
 20
693.4672371027497
 30
0.0
 10
1667.375990846331
 20
693.3369154086595
 30
0.0
 10
1667.636662792217
 20
693.2794910403185
 30
0.0
 10
1668.169599925201
 20
693.1837560541815
 30
0.0
 10
1668.44128725518
 20
693.1453426711352
 30
0.0
 10
1668.994863505096
 20
693.0869967107196
 30
0.0
 10
1669.276751689969
 20
693.067062801736
 30
0.0
 10
1669.851113974267
 20
693.0463720170098
 30
0.0
 10
1670.138387990628
 20
693.0458582996513
 30
0.0
 10
1670.708258639221
 20
693.063804385626
 30
0.0
 10
1670.991646465453
 20
693.0823227268716
 30
0.0
 10
1671.555421468966
 20
693.1378680523799
 30
0.0
 10
1671.836999196009
 20
693.1752876482067
 30
0.0
 10
1672.651843991336
 20
693.3124677585095
 30
0.0
 10
1673.163800377281
 20
693.4371301239758
 30
0.0
 10
1673.643488931806
 20
693.5960573413114
 30
0.0
  0
ARC
  5
34B
330
329
100
AcDbEntity
  8
0
  6
Continuous
 62
     7
370
    15
100
AcDbCircle
 10
1672.371364605175
 20
697.9304005746798
 30
0.0
 40
4.517170748051428
100
AcDbArc
 50
286.3568980105977
 51
322.9525338047298
  0
SPLINE
  5
34C
330
329
100
AcDbEntity
  8
0
  6
Continuous
 62
     7
370
    15
100
AcDbSpline
210
0.0
220
0.0
230
1.0
 70
     8
 71
     3
 72
    32
 73
    28
 74
     0
 42
0.0000000001
 43
0.0000000001
 40
0.0
 40
0.0
 40
0.0
 40
0.0
 40
0.0625
 40
0.0625
 40
0.125
 40
0.125
 40
0.25
 40
0.25
 40
0.375
 40
0.375
 40
0.4375
 40
0.4375
 40
0.5
 40
0.5
 40
0.5625
 40
0.5625
 40
0.625
 40
0.625
 40
0.6875
 40
0.6875
 40
0.75
 40
0.75
 40
0.8125
 40
0.8125
 40
0.875
 40
0.875
 40
1.0
 40
1.0
 40
1.0
 40
1.0
 10
1667.527360847909
 20
698.4170631828144
 30
0.0
 10
1667.784501530826
 20
698.4830665730214
 30
0.0
 10
1668.04903945947
 20
698.539273751031
 30
0.0
 10
1668.592521967893
 20
698.6326093016705
 30
0.0
 10
1668.873480612083
 20
698.669826150231
 30
0.0
 10
1669.723585756414
 20
698.7508694617076
 30
0.0
 10
1670.293614467409
 20
698.7653995675623
 30
0.0
 10
1671.440323625023
 20
698.714648264467
 30
0.0
 10
1671.9931312385
 20
698.650128690668
 30
0.0
 10
1672.782904870266
 20
698.4967855470013
 30
0.0
 10
1673.040501319317
 20
698.4357222808338
 30
0.0
 10
1673.526723867641
 20
698.2980790912155
 30
0.0
 10
1673.757635404504
 20
698.2211948255601
 30
0.0
 10
1674.195963145366
 20
698.051898489783
 30
0.0
 10
1674.404722498849
 20
697.9585972884275
 30
0.0
 10
1674.788826368955
 20
697.7599029839979
 30
0.0
 10
1674.964127447815
 20
697.6548162703444
 30
0.0
 10
1675.281983442915
 20
697.4334226038999
 30
0.0
 10
1675.424540704443
 20
697.3171164547056
 30
0.0
 10
1675.675678889479
 20
697.0728624063497
 30
0.0
 10
1675.781859967284
 20
696.9471254571527
 30
0.0
 10
1675.955101960399
 20
696.6907433655283
 30
0.0
 10
1676.02234577703
 20
696.5597441609394
 30
0.0
 10
1676.118568277066
 20
696.2922003333825
 30
0.0
 10
1676.147532573309
 20
696.1550311129045
 30
0.0
 10
1676.17432055642
 20
695.7475088094803
 30
0.0
 10
1676.115207531651
 20
695.4773993017428
 30
0.0
 10
1675.976684212877
 20
695.208911626811
 30
0.0
  0
SPLINE
  5
34D
330
329
100
AcDbEntity
  8
0
  6
Continuous
 62
     7
370
    15
100
AcDbSpline
210
0.0
220
0.0
230
1.0
 70
     8
 71
     3
 72
    18
 73
    14
 74
     0
 42
0.0000000001
 43
0.0000000001
 40
0.0
 40
0.0
 40
0.0
 40
0.0
 40
0.25
 40
0.25
 40
0.5
 40
0.5
 40
0.625
 40
0.625
 40
0.75
 40
0.75
 40
0.875
 40
0.875
 40
1.0
 40
1.0
 40
1.0
 40
1.0
 10
1667.527360847909
 20
698.4170631828144
 30
0.0
 10
1667.078383303935
 20
698.301818719383
 30
0.0
 10
1666.656247168147
 20
698.1634624610859
 30
0.0
 10
1665.893466111494
 20
697.8415573760673
 30
0.0
 10
1665.559276031548
 20
697.6619585574341
 30
0.0
 10
1665.129131953147
 20
697.3644564544285
 30
0.0
 10
1664.997023102007
 20
697.2598156478303
 30
0.0
 10
1664.763414846623
 20
697.0460369554733
 30
0.0
 10
1664.66125086459
 20
696.9366186419711
 30
0.0
 10
1664.485198319458
 20
696.7128976639356
 30
0.0
 10
1664.411332003606
 20
696.5985911563697
 30
0.0
 10
1664.291725023839
 20
696.3651196612497
 30
0.0
 10
1664.246282936802
 20
696.245983735949
 30
0.0
 10
1664.214665098493
 20
696.1264946829849
 30
0.0
  0
LWPOLYLINE
  5
34E
330
329
100
AcDbEntity
  8
0
  6
Continuous
 62
     7
370
    15
100
AcDbPolyline
 90
       23
 70
   128
 43
0.0
 10
1664.376532635283
 20
692.2679991353957
 10
1664.019217650258
 20
692.3936544920234
 10
1663.675302420872
 20
692.5274062279147
 10
1663.345566025733
 20
692.6689513523689
 10
1663.030755423831
 20
692.8179692201532
 10
1662.731583762432
 20
692.9741222578679
 10
1662.448728761575
 20
693.1370567286584
 10
1662.18283117881
 20
693.3064035335432
 10
1661.934493357686
 20
693.4817790475413
 10
1661.704277863241
 20
693.6627859887071
 10
1661.492706207615
 20
693.8490143181008
 10
1661.300257668656
 20
694.0400421686588
 10
1661.127368204203
 20
694.2354368008587
 10
1660.9744294645
 20
694.4347555830128
 10
1660.841787904985
 20
694.6375469939721
 10
1660.729744001449
 20
694.8433516459659
 10
1660.638551569372
 20
695.051703325264
 10
1660.568417188944
 20
695.2621300482994
 10
1660.519499737093
 20
695.4741551308644
 10
1660.491910027581
 20
695.6872982679524
 10
1660.485710559975
 20
695.9010766218036
 10
1660.500915378063
 20
696.1150059156885
 10
1660.53749003804
 20
696.3286015309494
  0
LWPOLYLINE
  5
34F
330
329
100
AcDbEntity
  8
0
  6
Continuous
 62
     7
370
    15
100
AcDbPolyline
 90
       23
 70
   128
 43
0.0
 10
1660.53749003804
 20
696.3286015309494
 10
1660.59535168654
 20
696.541379604818
 10
1660.674369248316
 20
696.7528581265204
 10
1660.774363723178
 20
696.9625580291863
 10
1660.895108591478
 20
697.1700042750894
 10
1661.036330327254
 20
697.3747269317612
 10
1661.197709017852
 20
697.5762622365384
 10
1661.378879088634
 20
697.7741536471352
 10
1661.579430131118
 20
697.9679528758579
 10
1661.79890783269
 20
698.157220905121
 10
1662.036815005764
 20
698.3415289819633
 10
1662.292612714073
 20
698.520459589311
 10
1662.565721493536
 20
698.6936073917881
 10
1662.855522664925
 20
698.8605801539321
 10
1663.161359735378
 20
699.0209996287323
 10
1663.482539885563
 20
699.1745024144822
 10
1663.818335539136
 20
699.3207407780003
 10
1664.16798601094
 20
699.4593834423577
 10
1664.530699230195
 20
699.5901163373279
 10
1664.9056535348
 20
699.7126433108554
 10
1665.291999532657
 20
699.8266867999362
 10
1665.688862025819
 20
699.9319884593875
 10
1666.095341993093
 20
700.028309747082
  0
ARC
  5
350
330
329
100
AcDbEntity
  8
0
  6
Continuous
 62
     7
370
    15
100
AcDbCircle
 10
1670.112226134519
 20
682.1014503489799
 30
0.0
 40
18.37138116976959
100
AcDbArc
 50
72.97149976209595
 51
102.6296947208491
  0
LWPOLYLINE
  5
351
330
329
100
AcDbEntity
  8
0
  6
Continuous
 62
     7
370
    15
100
AcDbPolyline
 90
       23
 70
   128
 43
0.0
 10
1675.492236545388
 20
699.6674155676608
 10
1675.849551530412
 20
699.5417602110331
 10
1676.193466759799
 20
699.4080084751417
 10
1676.523203154937
 20
699.2664633506875
 10
1676.83801375684
 20
699.1174454829033
 10
1677.137185418238
 20
698.9612924451886
 10
1677.420040419096
 20
698.798357974398
 10
1677.68593800186
 20
698.6290111695133
 10
1677.934275822984
 20
698.4536356555151
 10
1678.16449131743
 20
698.2726287143493
 10
1678.376062973056
 20
698.0864003849557
 10
1678.568511512015
 20
697.8953725343976
 10
1678.741400976467
 20
697.6999779021978
 10
1678.89433971617
 20
697.5006591200436
 10
1679.026981275686
 20
697.2978677090843
 10
1679.139025179222
 20
697.0920630570905
 10
1679.230217611299
 20
696.8837113777925
 10
1679.300351991727
 20
696.673284654757
 10
1679.349269443578
 20
696.461259572192
 10
1679.376859153089
 20
696.248116435104
 10
1679.383058620695
 20
696.0343380812528
 10
1679.367853802608
 20
695.8204087873679
 10
1679.33127914263
 20
695.606813172107
  0
LWPOLYLINE
  5
352
330
329
100
AcDbEntity
  8
0
  6
Continuous
 62
     7
370
    15
100
AcDbPolyline
 90
       23
 70
   128
 43
0.0
 10
1679.33127914263
 20
695.606813172107
 10
1679.273417494131
 20
695.3940350982385
 10
1679.194399932354
 20
695.1825565765362
 10
1679.094405457493
 20
694.9728566738701
 10
1678.973660589193
 20
694.765410427967
 10
1678.832438853417
 20
694.5606877712953
 10
1678.671060162819
 20
694.359152466518
 10
1678.489890092037
 20
694.1612610559213
 10
1678.289339049553
 20
693.9674618271985
 10
1678.069861347981
 20
693.7781937979354
 10
1677.831954174907
 20
693.593885721093
 10
1677.576156466598
 20
693.4149551137454
 10
1677.303047687135
 20
693.2418073112683
 10
1677.013246515745
 20
693.0748345491243
 10
1676.707409445292
 20
692.914415074324
 10
1676.386229295108
 20
692.7609122885741
 10
1676.050433641534
 20
692.6146739250562
 10
1675.700783169731
 20
692.4760312606987
 10
1675.338069950475
 20
692.3452983657285
 10
1674.96311564587
 20
692.2227713922011
 10
1674.576769648013
 20
692.1087279031203
 10
1674.179907154852
 20
692.0034262436689
 10
1673.773427187578
 20
691.9071049559745
  0
ARC
  5
353
330
329
100
AcDbEntity
  8
0
  6
Continuous
 62
     7
370
    15
100
AcDbCircle
 10
1669.756543046151
 20
709.8339643540764
 30
0.0
 40
18.37138116976938
100
AcDbArc
 50
252.971499762096
 51
282.6296947208491
  0
SPLINE
  5
354
330
329
100
AcDbEntity
  8
0
  6
Continuous
 62
     7
370
    15
100
AcDbSpline
210
0.0
220
0.0
230
1.0
 70
     8
 71
     3
 72
     8
 73
     4
 74
     0
 42
0.0000000001
 43
0.0000000001
 40
0.0
 40
0.0
 40
0.0
 40
0.0
 40
1.0
 40
1.0
 40
1.0
 40
1.0
 10
1669.701222680667
 20
690.7614396785145
 30
0.0
 10
1671.053144584931
 20
691.2129077979938
 30
0.0
 10
1672.409924604115
 20
691.6026877889886
 30
0.0
 10
1673.773427187578
 20
691.9071049559745
 30
0.0
  0
SPLINE
  5
355
330
329
100
AcDbEntity
  8
0
  6
Continuous
 62
     7
370
    15
100
AcDbSpline
210
0.0
220
0.0
230
1.0
 70
     8
 71
     3
 72
     8
 73
     4
 74
     0
 42
0.0000000001
 43
0.0000000001
 40
0.0
 40
0.0
 40
0.0
 40
0.0
 40
1.0
 40
1.0
 40
1.0
 40
1.0
 10
1673.773427187578
 20
691.9071049559745
 30
0.0
 10
1675.13692977104
 20
692.2115221229603
 30
0.0
 10
1676.496352975592
 20
692.4281648115818
 30
0.0
 10
1677.852828184297
 20
692.5813765703826
 30
0.0
  0
LINE
  5
356
330
329
100
AcDbEntity
  8
0
  6
Continuous
 62
     7
370
    15
100
AcDbLine
 10
1677.90160238732
 20
689.3865064552012
 30
0.0
 11
1669.749996883689
 21
687.5665695633331
 31
0.0
  0
SPLINE
  5
357
330
329
100
AcDbEntity
  8
0
  6
Continuous
 62
     7
370
    15
100
AcDbSpline
210
0.0
220
0.0
230
1.0
 70
     8
 71
     3
 72
     8
 73
     4
 74
     0
 42
0.0000000001
 43
0.0000000001
 40
0.0
 40
0.0
 40
0.0
 40
0.0
 40
1.0
 40
1.0
 40
1.0
 40
1.0
 10
1664.376532635283
 20
692.2679991353957
 30
0.0
 10
1665.583322365157
 20
691.8648681294779
 30
0.0
 10
1666.786653471578
 20
691.3767653150481
 30
0.0
 10
1667.987485176058
 20
690.8272569426146
 30
0.0
  0
SPLINE
  5
358
330
329
100
AcDbEntity
  8
0
  6
Continuous
 62
     7
370
    15
100
AcDbSpline
210
0.0
220
0.0
230
1.0
 70
     8
 71
     3
 72
     8
 73
     4
 74
     0
 42
0.0000000001
 43
0.0000000001
 40
0.0
 40
0.0
 40
0.0
 40
0.0
 40
1.0
 40
1.0
 40
1.0
 40
1.0
 10
1660.772776584317
 20
693.2373476651248
 30
0.0
 10
1661.969054984354
 20
692.9860956533697
 30
0.0
 10
1663.169742905408
 20
692.6711301413133
 30
0.0
 10
1664.376532635283
 20
692.2679991353957
 30
0.0
  0
LINE
  5
359
330
329
100
AcDbEntity
  8
0
  6
Continuous
 62
     7
370
    15
100
AcDbLine
 10
1668.036259379081
 20
687.6323868274332
 30
0.0
 11
1660.821550787339
 21
690.0424775499434
 31
0.0
  0
SPLINE
  5
35A
330
329
100
AcDbEntity
  8
0
  6
Continuous
 62
     7
370
    15
100
AcDbSpline
210
0.0
220
0.0
230
1.0
 70
     8
 71
     3
 72
     8
 73
     4
 74
     0
 42
0.0000000001
 43
0.0000000001
 40
0.0
 40
0.0
 40
0.0
 40
0.0
 40
1.0
 40
1.0
 40
1.0
 40
1.0
 10
1678.86642893159
 20
693.2561025333921
 30
0.0
 10
1679.019795783595
 20
694.1079508449656
 30
0.0
 10
1679.174566289042
 20
694.8992649992035
 30
0.0
 10
1679.33127914263
 20
695.606813172107
 30
0.0
  0
SPLINE
  5
35B
330
329
100
AcDbEntity
  8
0
  6
Continuous
 62
     7
370
    15
100
AcDbSpline
210
0.0
220
0.0
230
1.0
 70
     8
 71
     3
 72
    28
 73
    24
 74
     0
 42
0.0000000001
 43
0.0000000001
 40
0.0
 40
0.0
 40
0.0
 40
0.0
 40
0.0108702325133858
 40
0.0621879122452908
 40
0.1138821962018567
 40
0.1664478985793332
 40
0.2173971907746873
 40
0.2687034294406734
 40
0.3204211955555564
 40
0.3729871279108036
 40
0.4239383840935261
 40
0.4752467156519719
 40
0.5269667256797615
 40
0.5795350403295339
 40
0.6304953513758536
 40
0.6818128475260616
 40
0.7335068855559193
 40
0.7860722303244283
 40
0.8468073046561084
 40
0.9081503440846582
 40
0.9449153231782348
 40
0.9818136826775994
 40
1.0
 40
1.0
 40
1.0
 40
1.0
 10
1665.197883631995
 20
697.354009488624
 30
0.0
 10
1665.221462982216
 20
697.3669812803493
 30
0.0
 10
1665.356358952524
 20
697.4411920798413
 30
0.0
 10
1665.63607877455
 20
697.5635784017974
 30
0.0
 10
1666.038087939536
 20
697.719656553933
 30
0.0
 10
1666.4701887249
 20
697.8574651625372
 30
0.0
 10
1666.925133517353
 20
697.9776693174772
 30
0.0
 10
1667.398945917465
 20
698.079041937022
 30
0.0
 10
1667.895832436814
 20
698.1623676721716
 30
0.0
 10
1668.406386048374
 20
698.2255411509362
 30
0.0
 10
1668.926503808818
 20
698.2684593173413
 30
0.0
 10
1669.450928886539
 20
698.2906340732808
 30
0.0
 10
1669.984377536189
 20
698.2912298061092
 30
0.0
 10
1670.516375549774
 20
698.2699955393148
 30
0.0
 10
1671.042854951501
 20
698.2273050145647
 30
0.0
 10
1671.558687743633
 20
698.1640354872722
 30
0.0
 10
1672.068401906732
 20
698.0793565856843
 30
0.0
 10
1672.592771646834
 20
697.9679573537439
 30
0.0
 10
1673.124688602338
 20
697.8259937949715
 30
0.0
 10
1673.581546110637
 20
697.6749876296064
 30
0.0
 10
1673.946801251978
 20
697.5317505667604
 30
0.0
 10
1674.185895145664
 20
697.4282654007729
 30
0.0
 10
1674.31905025103
 20
697.3608857176511
 30
0.0
 10
1674.363011678036
 20
697.3386401791632
 30
0.0
  0
SPLINE
  5
35C
330
329
100
AcDbEntity
  8
0
  6
Continuous
 62
     7
370
    15
100
AcDbSpline
210
0.0
220
0.0
230
1.0
 70
     8
 71
     3
 72
    28
 73
    24
 74
     0
 42
0.0000000001
 43
0.0000000001
 40
0.0
 40
0.0
 40
0.0
 40
0.0
 40
0.0124223384907139
 40
0.063877147038406
 40
0.1157095661557781
 40
0.1684157322595131
 40
0.2195011688819044
 40
0.2709445057913746
 40
0.3228004698150387
 40
0.3755068665110803
 40
0.42659427236892
 40
0.4780397077633804
 40
0.5298979216960361
 40
0.5826067070524639
 40
0.6337031919699023
 40
0.6851578164453397
 40
0.7369899889788496
 40
0.7896957965180305
 40
0.8505931644072822
 40
0.9121001219706247
 40
0.9489633428021743
 40
0.9859603004526849
 40
1.0
 40
1.0
 40
1.0
 40
1.0
 10
1665.204977137892
 20
696.2314696427642
 30
0.0
 10
1665.231828806347
 20
696.2462634663909
 30
0.0
 10
1665.369903290104
 20
696.3223350730185
 30
0.0
 10
1665.653045705523
 20
696.4464813089948
 30
0.0
 10
1666.055166592182
 20
696.602513279754
 30
0.0
 10
1666.487237080103
 20
696.7403344121388
 30
0.0
 10
1666.942189803269
 20
696.8605352888292
 30
0.0
 10
1667.416000083014
 20
696.9619087848585
 30
0.0
 10
1667.912887178351
 20
697.0452342818881
 30
0.0
 10
1668.423440633851
 20
697.1084078252713
 30
0.0
 10
1668.943558434743
 20
697.1513259745571
 30
0.0
 10
1669.467983503138
 20
697.1735007358463
 30
0.0
 10
1670.001432149687
 20
697.1740964642946
 30
0.0
 10
1670.53343018528
 20
697.1528622096822
 30
0.0
 10
1671.059909504124
 20
697.1101716416832
 30
0.0
 10
1671.57574260708
 20
697.0469022758966
 30
0.0
 10
1672.085455593133
 20
696.9622227628931
 30
0.0
 10
1672.609830037306
 20
696.8508259744266
 30
0.0
 10
1673.141726622193
 20
696.708851834396
 30
0.0
 10
1673.59865248252
 20
696.557881173625
 30
0.0
 10
1673.963746322795
 20
696.4145603249883
 30
0.0
 10
1674.192366627423
 20
696.3160062848328
 30
0.0
 10
1674.315574378305
 20
696.2538310734106
 30
0.0
 10
1674.3494676601
 20
696.2367272634123
 30
0.0
  0
SPLINE
  5
35D
330
329
100
AcDbEntity
  8
0
  6
Continuous
 62
     7
370
    15
100
AcDbSpline
210
0.0
220
0.0
230
1.0
 70
     8
 71
     3
 72
    28
 73
    24
 74
     0
 42
0.0000000001
 43
0.0000000001
 40
0.0
 40
0.0
 40
0.0
 40
0.0
 40
0.0170430151338077
 40
0.0680233061222846
 40
0.1193777253461198
 40
0.1715978338392828
 40
0.2222121592597925
 40
0.2731810844017875
 40
0.3245588314001874
 40
0.3767791683591287
 40
0.4273497816336908
 40
0.4783664485029913
 40
0.5297464246616635
 40
0.5819691282527045
 40
0.6325944000806016
 40
0.6835745086943432
 40
0.734928683608319
 40
0.7871484368436195
 40
0.8474842076501294
 40
0.9084239464791787
 40
0.9449472137462798
 40
0.9816029845079805
 40
0.9999999999999998
 40
0.9999999999999998
 40
0.9999999999999998
 40
0.9999999999999998
 10
1665.190774104258
 20
695.0973708576391
 30
0.0
 10
1665.227868186281
 20
695.1178929136284
 30
0.0
 10
1665.375920750744
 20
695.1998020174967
 30
0.0
 10
1665.669853230582
 20
695.3294501084106
 30
0.0
 10
1666.072288937933
 20
695.4853519443956
 30
0.0
 10
1666.504274051436
 20
695.6232083679634
 30
0.0
 10
1666.959249119441
 20
695.7434000054997
 30
0.0
 10
1667.433053435978
 20
695.8447759764776
 30
0.0
 10
1667.92994210976
 20
695.9281007831918
 30
0.0
 10
1668.44034411729
 20
695.9912558753585
 30
0.0
 10
1668.960456574356
 20
696.0341826322223
 30
0.0
 10
1669.484880654531
 20
696.0563672736387
 30
0.0
 10
1670.018486739321
 20
696.0569631132474
 30
0.0
 10
1670.55048479227
 20
696.035728864416
 30
0.0
 10
1671.076964189272
 20
695.9930383378622
 30
0.0
 10
1671.59279696178
 20
695.929768800202
 30
0.0
 10
1672.102511209269
 20
695.8450899424967
 30
0.0
 10
1672.626880609216
 20
695.7336905338542
 30
0.0
 10
1673.158799038613
 20
695.5917277406817
 30
0.0
 10
1673.615651601161
 20
695.4407190063088
 30
0.0
 10
1673.980918413807
 20
695.2974880059744
 30
0.0
 10
1674.22084591453
 20
695.1936117602681
 30
0.0
 10
1674.354791518226
 20
695.1258186051563
 30
0.0
 10
1674.399552183652
 20
695.1031641346071
 30
0.0
  0
SPLINE
  5
35E
330
329
100
AcDbEntity
  8
0
  6
Continuous
 62
     7
370
    15
100
AcDbSpline
210
0.0
220
0.0
230
1.0
 70
     8
 71
     3
 72
    24
 73
    20
 74
     0
 42
0.0000000001
 43
0.0000000001
 40
0.0
 40
0.0
 40
0.0
 40
0.0
 40
0.0421642827302294
 40
0.1007195058057488
 40
0.1602350623281216
 40
0.2179204986921706
 40
0.2760100743882863
 40
0.3345655866939678
 40
0.3940814036000958
 40
0.4517170209812298
 40
0.509861008197198
 40
0.5684190610895998
 40
0.6279375752598762
 40
0.6856354873070745
 40
0.743737808869947
 40
0.8022664559360993
 40
0.8617816075690525
 40
0.9305466308785293
 40
1.0
 40
1.0
 40
1.0
 40
1.0
 10
1665.421455062947
 20
694.0874848675023
 30
0.0
 10
1665.509434470648
 20
694.1289325383839
 30
0.0
 10
1665.719594394899
 20
694.2279402448519
 30
0.0
 10
1666.090396467718
 20
694.3677134108488
 30
0.0
 10
1666.521037537586
 20
694.5062012612885
 30
0.0
 10
1666.976381291774
 20
694.6262330395155
 30
0.0
 10
1667.450087034633
 20
694.7276517503637
 30
0.0
 10
1667.947002490052
 20
694.8109649483072
 30
0.0
 10
1668.457397226221
 20
694.8741231799598
 30
0.0
 10
1668.977511627172
 20
694.9170491424729
 30
0.0
 10
1669.501935030706
 20
694.9392338955441
 30
0.0
 10
1670.03554189074
 20
694.9398300871025
 30
0.0
 10
1670.567537511875
 20
694.9185943069956
 30
0.0
 10
1671.094025640339
 20
694.8759094130359
 30
0.0
 10
1671.609825779411
 20
694.8126187871039
 30
0.0
 10
1672.119663575035
 20
694.7280197782086
 30
0.0
 10
1672.643539222389
 20
694.6163012558143
 30
0.0
 10
1673.17759580659
 20
694.4757203592438
 30
0.0
 10
1673.523193838537
 20
694.356099677608
 30
0.0
 10
1673.696853416385
 20
694.2959914734098
 30
0.0
  0
LINE
  5
35F
330
329
100
AcDbEntity
  8
0
  6
Continuous
 62
     7
370
    15
100
AcDbLine
 10
1665.428232762653
 20
694.1154673851412
 30
0.0
 11
1665.402292720311
 21
694.0991007832312
 31
0.0
  0
LINE
  5
360
330
329
100
AcDbEntity
  8
0
  6
Continuous
 62
     7
370
    15
100
AcDbLine
 10
1674.216922124403
 20
695.2038802142827
 30
0.0
 11
1674.174966959784
 21
695.2280842664698
 31
0.0
  0
SPLINE
  5
361
330
329
100
AcDbEntity
  8
0
  6
Continuous
 62
     7
370
    15
100
AcDbSpline
210
0.0
220
0.0
230
1.0
 70
     8
 71
     3
 72
     9
 73
     5
 74
     0
 42
0.0000000001
 43
0.0000000001
 40
0.0
 40
0.0
 40
0.0
 40
0.0
 40
0.4958884825588609
 40
1.0
 40
1.0
 40
1.0
 40
1.0
 10
1674.401857249671
 20
696.2026221098484
 30
0.0
 10
1674.365336626253
 20
696.2277643888823
 30
0.0
 10
1674.291689778821
 20
696.2784658669728
 30
0.0
 10
1674.202636594316
 20
696.3225112871612
 30
0.0
 10
1674.157743858343
 20
696.3447150907686
 30
0.0
  0
SPLINE
  5
362
330
329
100
AcDbEntity
  8
0
  6
Continuous
 62
     7
370
    15
100
AcDbSpline
210
0.0
220
0.0
230
1.0
 70
     8
 71
     3
 72
     9
 73
     5
 74
     0
 42
0.0000000001
 43
0.0000000001
 40
0.0
 40
0.0
 40
0.0
 40
0.0
 40
0.4817969692183081
 40
1.0
 40
1.0
 40
1.0
 40
1.0
 10
1665.395303442324
 20
696.34918235234
 30
0.0
 10
1665.303007137823
 20
696.295088258493
 30
0.0
 10
1665.111440336042
 20
696.1828125546111
 30
0.0
 10
1664.962631949209
 20
696.0583502166437
 30
0.0
 10
1664.885518992145
 20
695.9938534558908
 30
0.0
  0
LINE
  5
363
330
329
100
AcDbEntity
  8
0
  6
Continuous
 62
     7
370
    15
100
AcDbLine
 10
1674.192377060077
 20
697.4334354086115
 30
0.0
 11
1674.141937010247
 21
697.4630981430209
 31
0.0
  0
SPLINE
  5
364
330
329
100
AcDbEntity
  8
0
  6
Continuous
 62
     7
370
    15
100
AcDbSpline
210
0.0
220
0.0
230
1.0
 70
     8
 71
     3
 72
    10
 73
     6
 74
     0
 42
0.0000000001
 43
0.0000000001
 40
0.0
 40
0.0
 40
0.0
 40
0.0
 40
0.1250798414329334
 40
0.7546154294522111
 40
1.0
 40
1.0
 40
1.0
 40
1.0
 10
1665.377721758787
 20
697.4667104821071
 30
0.0
 10
1665.351694912059
 20
697.4526755218477
 30
0.0
 10
1665.194673125849
 20
697.3680016252215
 30
0.0
 10
1665.0171104786
 20
697.2439108970024
 30
0.0
 10
1664.890760364079
 20
697.1295750764948
 30
0.0
 10
1664.855323566462
 20
697.0975078690603
 30
0.0
  0
LINE
  5
365
330
329
100
AcDbEntity
  8
0
  6
Continuous
 62
     7
370
    15
100
AcDbLine
 10
1673.696853416385
 20
694.2959914734098
 30
0.0
 11
1673.36718891547
 21
694.4866158079628
 31
0.0
  0
SPLINE
  5
366
330
329
100
AcDbEntity
  8
0
  6
Continuous
 62
     7
370
    15
100
AcDbSpline
210
0.0
220
0.0
230
1.0
 70
     8
 71
     3
 72
    11
 73
     7
 74
     0
 42
0.0000000001
 43
0.0000000001
 40
0.0
 40
0.0
 40
0.0
 40
0.0
 40
0.1667935780943872
 40
0.3538326157095502
 40
0.6754294880241818
 40
1.0
 40
1.0
 40
1.0
 40
1.0
 10
1675.034890439459
 20
694.3326494381486
 30
0.0
 10
1674.970513080251
 20
694.3912178322259
 30
0.0
 10
1674.83394421674
 20
694.5154636713704
 30
0.0
 10
1674.548999642031
 20
694.7427619158157
 30
0.0
 10
1674.171719165234
 20
695.0117100990237
 30
0.0
 10
1673.845459074967
 20
695.2013197888111
 30
0.0
 10
1673.681578311082
 20
695.2965609222792
 30
0.0
  0
SPLINE
  5
367
330
329
100
AcDbEntity
  8
0
  6
Continuous
 62
     7
370
    15
100
AcDbSpline
210
0.0
220
0.0
230
1.0
 70
     8
 71
     3
 72
    29
 73
    25
 74
     0
 42
0.0000000001
 43
0.0000000001
 40
0.0
 40
0.0
 40
0.0
 40
0.0
 40
0.0368077873061408
 40
0.0737661010317823
 40
0.1108595869301999
 40
0.1481069062689482
 40
0.1863487521276117
 40
0.2264767395862453
 40
0.2667779014599087
 40
0.3107367819969566
 40
0.3549236728986741
 40
0.4058896647399885
 40
0.4572121899231802
 40
0.5090869258361235
 40
0.5617180531357472
 40
0.6127375984156225
 40
0.6641205915829973
 40
0.715868952183219
 40
0.768495458736029
 40
0.8195067726382571
 40
0.8708755291307831
 40
0.9226564101595371
 40
0.9752867025675906
 40
1.0
 40
1.0
 40
1.0
 40
1.0
 10
1673.681578311082
 20
695.2965609222792
 30
0.0
 10
1673.578382549205
 20
695.333130971723
 30
0.0
 10
1673.371569003652
 20
695.4064206247948
 30
0.0
 10
1673.044867290556
 20
695.5051560548315
 30
0.0
 10
1672.706634553386
 20
695.5953923165442
 30
0.0
 10
1672.354117723362
 20
695.6765006898977
 30
0.0
 10
1671.982969611964
 20
695.749104581866
 30
0.0
 10
1671.593701664341
 20
695.8118751218037
 30
0.0
 10
1671.178533658064
 20
695.8647613336028
 30
0.0
 10
1670.743975968271
 20
695.9051595049479
 30
0.0
 10
1670.269198659622
 20
695.9325797928827
 30
0.0
 10
1669.767293888464
 20
695.9427206145345
 30
0.0
 10
1669.240538646894
 20
695.932141008727
 30
0.0
 10
1668.713343175507
 20
695.8997650947743
 30
0.0
 10
1668.196292992969
 20
695.8469587210495
 30
0.0
 10
1667.693660420247
 20
695.7743023198865
 30
0.0
 10
1667.2098895002
 20
695.6829357311513
 30
0.0
 10
1666.740824983211
 20
695.5717947444001
 30
0.0
 10
1666.296118616616
 20
695.4427232739549
 30
0.0
 10
1665.878945073747
 20
695.2968391640857
 30
0.0
 10
1665.492213062787
 20
695.136097103375
 30
0.0
 10
1665.135430629797
 20
694.9582172385573
 30
0.0
 10
1664.862333785554
 20
694.8009225300125
 30
0.0
 10
1664.722882748337
 20
694.6995354350323
 30
0.0
 10
1664.678324499009
 20
694.6671396096093
 30
0.0
  0
SPLINE
  5
368
330
329
100
AcDbEntity
  8
0
  6
Continuous
 62
     7
370
    15
100
AcDbSpline
210
0.0
220
0.0
230
1.0
 70
     8
 71
     3
 72
    32
 73
    28
 74
     0
 42
0.0000000001
 43
0.0000000001
 40
0.0
 40
0.0
 40
0.0
 40
0.0
 40
0.0104154206819637
 40
0.054800959845279
 40
0.1060849194996663
 40
0.1578822375032782
 40
0.1889261396517911
 40
0.220096996659037
 40
0.25138185866392
 40
0.2827964646881616
 40
0.3257817329227828
 40
0.3690676519551528
 40
0.4128192077744394
 40
0.4572086088931645
 40
0.500193623190932
 40
0.5434793397853593
 40
0.5872307941248237
 40
0.6316201933643387
 40
0.6746503749440343
 40
0.7179870905884317
 40
0.7616319592532536
 40
0.8060174613279986
 40
0.849001882613623
 40
0.8922869510780031
 40
0.9360377036690533
 40
0.9804263987561562
 40
1.0
 40
1.0
 40
1.0
 40
1.0
 10
1675.020934397015
 20
695.7332768264792
 30
0.0
 10
1674.996805798531
 20
695.7507185677676
 30
0.0
 10
1674.869852658854
 20
695.8424886645461
 30
0.0
 10
1674.585291478966
 20
696.0058407257228
 30
0.0
 10
1674.161402065185
 20
696.2188474323987
 30
0.0
 10
1673.736248045556
 20
696.3911344680463
 30
0.0
 10
1673.353939987638
 20
696.5231577857776
 30
0.0
 10
1673.027968213317
 20
696.6223960201889
 30
0.0
 10
1672.689535153309
 20
696.712497399289
 30
0.0
 10
1672.297251537383
 20
696.802811079973
 30
0.0
 10
1671.847344885998
 20
696.8882522035319
 30
0.0
 10
1671.337119867833
 20
696.9625768828968
 30
0.0
 10
1670.811561886195
 20
697.0167146182157
 30
0.0
 10
1670.281063569259
 20
697.0491296894254
 30
0.0
 10
1669.750243277471
 20
697.0598536417424
 30
0.0
 10
1669.223482939598
 20
697.0492744326768
 30
0.0
 10
1668.696288857852
 20
697.0168984101345
 30
0.0
 10
1668.179238291002
 20
696.9640920679678
 30
0.0
 10
1667.676605847369
 20
696.891435650756
 30
0.0
 10
1667.192834785945
 20
696.8000690954811
 30
0.0
 10
1666.723770711778
 20
696.6889279892509
 30
0.0
 10
1666.279194427098
 20
696.5598951967394
 30
0.0
 10
1665.86226546753
 20
696.4141046121853
 30
0.0
 10
1665.47547232637
 20
696.2533900700209
 30
0.0
 10
1665.118636077206
 20
696.0754449097927
 30
0.0
 10
1664.848276569003
 20
695.9199452898121
 30
0.0
 10
1664.711438164466
 20
695.8205619173184
 30
0.0
 10
1664.669563176873
 20
695.7901488362526
 30
0.0
  0
SPLINE
  5
369
330
329
100
AcDbEntity
  8
0
  6
Continuous
 62
     7
370
    15
100
AcDbSpline
210
0.0
220
0.0
230
1.0
 70
     8
 71
     3
 72
    32
 73
    28
 74
     0
 42
0.0000000001
 43
0.0000000001
 40
0.0
 40
0.0
 40
0.0
 40
0.0
 40
0.0103335973549466
 40
0.0546753716037126
 40
0.1059087643808164
 40
0.1576550093268728
 40
0.1886683016472652
 40
0.2198084236466891
 40
0.2510624382328376
 40
0.2824460689084823
 40
0.3253889529200742
 40
0.3686321912824936
 40
0.4123406073058482
 40
0.4566862397020686
 40
0.4996288700271929
 40
0.5428719061512765
 40
0.5865802207948693
 40
0.630925851313732
 40
0.6739136043850574
 40
0.7172026914442857
 40
0.760809423275139
 40
0.8051511604719051
 40
0.8480931983696063
 40
0.89133558700271
 40
0.9350432005898257
 40
0.9793881276505832
 40
1.0
 40
1.0
 40
1.0
 40
1.0
 10
1675.003376533518
 20
696.850767987176
 30
0.0
 10
1674.979412739448
 20
696.8680893693348
 30
0.0
 10
1674.852619590772
 20
696.9597373186108
 30
0.0
 10
1674.568230532486
 20
697.1229717382877
 30
0.0
 10
1674.144349295968
 20
697.3359814509464
 30
0.0
 10
1673.719193146422
 20
697.5082677036311
 30
0.0
 10
1673.336885429048
 20
697.6402911465473
 30
0.0
 10
1673.010913579754
 20
697.7395293533982
 30
0.0
 10
1672.672480539894
 20
697.829630739905
 30
0.0
 10
1672.280196918111
 20
697.9199444184359
 30
0.0
 10
1671.83029026883
 20
698.0053855427686
 30
0.0
 10
1671.320065250044
 20
698.0797102219033
 30
0.0
 10
1670.79450726856
 20
698.1338479572859
 30
0.0
 10
1670.264008951639
 20
698.1662630284745
 30
0.0
 10
1669.733188659642
 20
698.1769869808114
 30
0.0
 10
1669.206428322593
 20
698.1664077716868
 30
0.0
 10
1668.679234237711
 20
698.1340317493645
 30
0.0
 10
1668.162183682639
 20
698.0812254063724
 30
0.0
 10
1667.659570042155
 20
698.0085717163936
 30
0.0
 10
1667.175798233195
 20
697.9172062354941
 30
0.0
 10
1666.706732434585
 20
697.8060662370274
 30
0.0
 10
1666.262140862885
 20
697.6770282248768
 30
0.0
 10
1665.845207061042
 20
697.5312390760217
 30
0.0
 10
1665.458432034721
 20
697.370519154319
 30
0.0
 10
1665.10152702934
 20
697.1925944148663
 30
0.0
 10
1664.828724441912
 20
697.0355029573288
 30
0.0
 10
1664.689705305423
 20
696.9344497170053
 30
0.0
 10
1664.645592222244
 20
696.9023838438565
 30
0.0
  0
SPLINE
  5
36A
330
329
100
AcDbEntity
  8
0
  6
Continuous
 62
     7
370
    15
100
AcDbSpline
210
0.0
220
0.0
230
1.0
 70
     8
 71
     3
 72
    11
 73
     7
 74
     0
 42
0.0000000001
 43
0.0000000001
 40
0.0
 40
0.0
 40
0.0
 40
0.0
 40
0.2751266628896831
 40
0.5511371232692422
 40
0.8262637972508604
 40
1.0
 40
1.0
 40
1.0
 40
1.0
 10
1673.696853416385
 20
694.2959914734098
 30
0.0
 10
1673.792284062459
 20
694.2778093168335
 30
0.0
 10
1673.983451909283
 20
694.2413865966035
 30
0.0
 10
1674.253230817499
 20
694.1764275885907
 30
0.0
 10
1674.480537847285
 20
694.114437226509
 30
0.0
 10
1674.610715967007
 20
694.0712278127654
 30
0.0
 10
1674.661102517942
 20
694.0545032408394
 30
0.0
  0
ARC
  5
36B
330
329
100
AcDbEntity
  8
0
  6
Continuous
 62
     7
370
    15
100
AcDbCircle
 10
1670.149449267641
 20
682.63594639783
 30
0.0
 40
11.93670937833066
100
AcDbArc
 50
72.69117494033605
 51
110.5709166659392
  0
LWPOLYLINE
  5
36C
330
329
100
AcDbEntity
  8
0
  6
Continuous
 62
     7
370
    15
100
AcDbPolyline
 90
        3
 70
   128
 43
0.0
 10
1674.229775897564
 20
693.8336886630056
 10
1673.985226934523
 20
693.9310840225418
 10
1673.700882066226
 20
694.0321017082784
  0
LINE
  5
36D
330
329
100
AcDbEntity
  8
0
  6
Continuous
 62
     7
370
    15
100
AcDbLine
 10
1673.364308532301
 20
694.6752903435926
 30
0.0
 11
1673.681578311082
 21
695.2965609222792
 31
0.0
  0
SPLINE
  5
36E
330
329
100
AcDbEntity
  8
0
  6
Continuous
 62
     7
370
    15
100
AcDbSpline
210
0.0
220
0.0
230
1.0
 70
     8
 71
     3
 72
    23
 73
    19
 74
     0
 42
0.0000000001
 43
0.0000000001
 40
0.0
 40
0.0
 40
0.0
 40
0.0
 40
0.0000468464300706
 40
0.0000468464300706
 40
0.0000468464300706
 40
0.000093658363083
 40
0.000093658363083
 40
0.000093658363083
 40
0.0001408391212056
 40
0.0001408391212056
 40
0.0001408391212056
 40
0.0001873831240282
 40
0.0001873831240282
 40
0.0001873831240282
 40
0.0002341795957016
 40
0.0002341795957016
 40
0.0002341795957016
 40
0.000243187993056
 40
0.000243187993056
 40
0.000243187993056
 40
0.000243187993056
 10
1673.36718891547
 20
694.4866158079628
 30
0.0
 10
1673.360018795967
 20
694.4907618390187
 30
0.0
 10
1673.353414051505
 20
694.4975717437422
 30
0.0
 10
1673.348034043691
 20
694.5064227147315
 30
0.0
 10
1673.342656382861
 20
694.515269824557
 30
0.0
 10
1673.338428823383
 20
694.5263707943492
 30
0.0
 10
1673.336034760605
 20
694.5387161463825
 30
0.0
 10
1673.333623075857
 20
694.5511523688142
 30
0.0
 10
1673.3330266151
 20
694.5651969014342
 30
0.0
 10
1673.334339973486
 20
694.5796507624102
 30
0.0
 10
1673.335636278462
 20
694.5939169460414
 30
0.0
 10
1673.338814988931
 20
694.6089744025009
 30
0.0
 10
1673.343317235187
 20
694.6237009787141
 30
0.0
 10
1673.34784318829
 20
694.6385050985938
 30
0.0
 10
1673.353774327466
 20
694.6534084093441
 30
0.0
 10
1673.360361298368
 20
694.6672738094122
 30
0.0
 10
1673.361646921177
 20
694.6699800115246
 30
0.0
 10
1673.362962947775
 20
694.6726554500953
 30
0.0
 10
1673.364308532301
 20
694.6752903435926
 30
0.0
  0
SPLINE
  5
36F
330
329
100
AcDbEntity
  8
0
  6
Continuous
 62
     7
370
    15
100
AcDbSpline
210
0.0
220
0.0
230
1.0
 70
     8
 71
     3
 72
     8
 73
     4
 74
     0
 42
0.0000000001
 43
0.0000000001
 40
0.0
 40
0.0
 40
0.0
 40
0.0
 40
1.0
 40
1.0
 40
1.0
 40
1.0
 10
1660.53749003804
 20
696.3286015309494
 30
0.0
 10
1660.380777184452
 20
695.6210533580458
 30
0.0
 10
1660.226006679005
 20
694.8297392038078
 30
0.0
 10
1660.072639827
 20
693.9778908922344
 30
0.0
  0
SPLINE
  5
370
330
329
100
AcDbEntity
  8
0
  6
Continuous
 62
     7
370
    15
100
AcDbSpline
210
0.0
220
0.0
230
1.0
 70
     8
 71
     3
 72
     8
 73
     4
 74
     0
 42
0.0000000001
 43
0.0000000001
 40
0.0
 40
0.0
 40
0.0
 40
0.0
 40
1.0
 40
1.0
 40
1.0
 40
1.0
 10
1679.33127914263
 20
695.606813172107
 30
0.0
 10
1679.487991996218
 20
696.3143613450106
 30
0.0
 10
1679.645405687032
 20
696.9325381968751
 30
0.0
 10
1679.803325843479
 20
697.4861301477703
 30
0.0
  0
LINE
  5
371
330
329
100
AcDbEntity
  8
0
  6
Continuous
 62
     7
370
    15
100
AcDbLine
 10
1679.852100046502
 20
694.291260032589
 30
0.0
 11
1678.915203134613
 21
690.0612324182106
 31
0.0
  0
SPLINE
  5
372
330
329
100
AcDbEntity
  8
0
  6
Continuous
 62
     7
370
    15
100
AcDbSpline
210
0.0
220
0.0
230
1.0
 70
     8
 71
     3
 72
     8
 73
     4
 74
     0
 42
0.0000000001
 43
0.0000000001
 40
0.0
 40
0.0
 40
0.0
 40
0.0
 40
1.0
 40
1.0
 40
1.0
 40
1.0
 10
1679.103189086163
 20
698.2266733748798
 30
0.0
 10
1677.902357381683
 20
698.7761817473133
 30
0.0
 10
1676.699026275263
 20
699.2642845617431
 30
0.0
 10
1675.492236545388
 20
699.6674155676608
 30
0.0
  0
SPLINE
  5
373
330
329
100
AcDbEntity
  8
0
  6
Continuous
 62
     7
370
    15
100
AcDbSpline
210
0.0
220
0.0
230
1.0
 70
     8
 71
     3
 72
     8
 73
     4
 74
     0
 42
0.0000000001
 43
0.0000000001
 40
0.0
 40
0.0
 40
0.0
 40
0.0
 40
1.0
 40
1.0
 40
1.0
 40
1.0
 10
1666.095341993093
 20
700.028309747082
 30
0.0
 10
1664.73183940963
 20
699.7238925800961
 30
0.0
 10
1663.375059390446
 20
699.3341125891013
 30
0.0
 10
1662.023137486182
 20
698.882644469622
 30
0.0
  0
SPLINE
  5
374
330
329
100
AcDbEntity
  8
0
  6
Continuous
 62
     7
370
    15
100
AcDbSpline
210
0.0
220
0.0
230
1.0
 70
     8
 71
     3
 72
     8
 73
     4
 74
     0
 42
0.0000000001
 43
0.0000000001
 40
0.0
 40
0.0
 40
0.0
 40
0.0
 40
1.0
 40
1.0
 40
1.0
 40
1.0
 10
1661.009536738889
 20
698.2079185066126
 30
0.0
 10
1660.851616582442
 20
697.6543265557174
 30
0.0
 10
1660.694202891628
 20
697.0361497038529
 30
0.0
 10
1660.53749003804
 20
696.3286015309494
 30
0.0
  0
SPLINE
  5
375
330
329
100
AcDbEntity
  8
0
  6
Continuous
 62
     7
370
    15
100
AcDbSpline
210
0.0
220
0.0
230
1.0
 70
     8
 71
     3
 72
     8
 73
     4
 74
     0
 42
0.0000000001
 43
0.0000000001
 40
0.0
 40
0.0
 40
0.0
 40
0.0
 40
1.0
 40
1.0
 40
1.0
 40
1.0
 10
1675.492236545388
 20
699.6674155676608
 30
0.0
 10
1674.285446815513
 20
700.0705465735785
 30
0.0
 10
1673.084758894459
 20
700.3855120856349
 30
0.0
 10
1671.888480494421
 20
700.63676409739
 30
0.0
  0
SPLINE
  5
376
330
329
100
AcDbEntity
  8
0
  6
Continuous
 62
     7
370
    15
100
AcDbSpline
210
0.0
220
0.0
230
1.0
 70
     8
 71
     3
 72
     8
 73
     4
 74
     0
 42
0.0000000001
 43
0.0000000001
 40
0.0
 40
0.0
 40
0.0
 40
0.0
 40
1.0
 40
1.0
 40
1.0
 40
1.0
 10
1670.174742989813
 20
700.7025813614902
 30
0.0
 10
1668.818267781106
 20
700.5493696026892
 30
0.0
 10
1667.458844576556
 20
700.332726914068
 30
0.0
 10
1666.095341993093
 20
700.028309747082
 30
0.0
  0
SPLINE
  5
377
330
329
100
AcDbEntity
  8
0
  6
Continuous
 62
     8
370
    15
100
AcDbSpline
210
0.0
220
0.0
230
1.0
 70
     8
 71
     3
 72
    22
 73
    18
 74
     0
 42
0.0000000001
 43
0.0000000001
 40
0.0
 40
0.0
 40
0.0
 40
0.0
 40
0.0694154566068259
 40
0.1399192280063848
 40
0.2111092889255221
 40
0.2825592069014806
 40
0.3538331225602874
 40
0.4245015725945741
 40
0.4941567395562101
 40
0.5633731195147038
 40
0.6336972051513696
 40
0.7047874889937482
 40
0.7762211310727581
 40
0.8475628654656471
 40
0.9183807698395842
 40
0.988261734901514
 40
1.0
 40
1.0
 40
1.0
 40
1.0
 10
1673.36718891547
 20
694.4866158079628
 30
0.0
 10
1673.19710361102
 20
694.5457597280194
 30
0.0
 10
1672.854266357515
 20
694.6649748429247
 30
0.0
 10
1672.292655237703
 20
694.8102730707255
 30
0.0
 10
1671.700768347671
 20
694.9287081731285
 30
0.0
 10
1671.085141812947
 20
695.0151933321826
 30
0.0
 10
1670.457929483732
 20
695.0687260522629
 30
0.0
 10
1669.830347190791
 20
695.088740471969
 30
0.0
 10
1669.210780015276
 20
695.0758802531138
 30
0.0
 10
1668.601252910015
 20
695.0313161469641
 30
0.0
 10
1668.003809505085
 20
694.9564574592653
 30
0.0
 10
1667.423784911187
 20
694.8506554971024
 30
0.0
 10
1666.872520711416
 20
694.7150465834805
 30
0.0
 10
1666.358490148458
 20
694.5525016150072
 30
0.0
 10
1665.896874247182
 20
694.3641559746374
 30
0.0
 10
1665.586614781829
 20
694.2168922511307
 30
0.0
 10
1665.448146858707
 20
694.1282199976795
 30
0.0
 10
1665.428232762653
 20
694.1154673851412
 30
0.0
  0
SPLINE
  5
378
330
329
100
AcDbEntity
  8
0
  6
Continuous
 62
     8
370
    15
100
AcDbSpline
210
0.0
220
0.0
230
1.0
 70
     8
 71
     3
 72
    24
 73
    20
 74
     0
 42
0.0000000001
 43
0.0000000001
 40
0.0
 40
0.0
 40
0.0
 40
0.0
 40
0.0152949098936242
 40
0.0772231672453985
 40
0.1383056154818607
 40
0.2001497562416481
 40
0.2627972387611935
 40
0.3258812823454005
 40
0.3890194039451591
 40
0.4518271527193655
 40
0.5139320212662212
 40
0.5750756326075527
 40
0.6367247221428904
 40
0.6992450448629404
 40
0.7622743327280443
 40
0.8254320900300438
 40
0.8883331501809227
 40
0.9506016513630484
 40
1.0
 40
1.0
 40
1.0
 40
1.0
 10
1674.174966959784
 20
695.2280842664698
 30
0.0
 10
1674.141516293731
 20
695.2477548259378
 30
0.0
 10
1673.972625702218
 20
695.3470704096306
 30
0.0
 10
1673.621123473966
 20
695.5021659656535
 30
0.0
 10
1673.124266376665
 20
695.6903582857706
 30
0.0
 10
1672.58469831585
 20
695.8512039393716
 30
0.0
 10
1672.00927750014
 20
695.985356711348
 30
0.0
 10
1671.404898011764
 20
696.0892928777895
 30
0.0
 10
1670.782651190206
 20
696.1609297857869
 30
0.0
 10
1670.153828915459
 20
696.1991088804093
 30
0.0
 10
1669.529557190018
 20
696.2040728972916
 30
0.0
 10
1668.914349508859
 20
696.176405380305
 30
0.0
 10
1668.310038351733
 20
696.1181549683372
 30
0.0
 10
1667.719233493018
 20
696.0290944846861
 30
0.0
 10
1667.151001662749
 20
695.9094726849275
 30
0.0
 10
1666.61552513958
 20
695.7612339387361
 30
0.0
 10
1666.124486684028
 20
695.58640178289
 30
0.0
 10
1665.706653443171
 20
695.403851181144
 30
0.0
 10
1665.478648885837
 20
695.2711060264956
 30
0.0
 10
1665.377785929353
 20
695.21238321449
 30
0.0
  0
SPLINE
  5
379
330
329
100
AcDbEntity
  8
0
  6
Continuous
 62
     8
370
    15
100
AcDbSpline
210
0.0
220
0.0
230
1.0
 70
     8
 71
     3
 72
    24
 73
    20
 74
     0
 42
0.0000000001
 43
0.0000000001
 40
0.0
 40
0.0
 40
0.0
 40
0.0
 40
0.043953818085942
 40
0.105754035720018
 40
0.1673657957614242
 40
0.2299648430794467
 40
0.2932061676758794
 40
0.3567121042054142
 40
0.4200953976385108
 40
0.4829732524349925
 40
0.5449809817561126
 40
0.6064540245366771
 40
0.6688873839441206
 40
0.7320336525673648
 40
0.7955185808598488
 40
0.8589556795056829
 40
0.9219601996853372
 40
0.9841629570698373
 40
0.9999999999999998
 40
0.9999999999999998
 40
0.9999999999999998
 40
0.9999999999999998
 10
1674.157743858343
 20
696.3447150907686
 30
0.0
 10
1674.057716103588
 20
696.3990081605059
 30
0.0
 10
1673.817046709894
 20
696.5296387060734
 30
0.0
 10
1673.382102075596
 20
696.7084215742966
 30
0.0
 10
1672.865680046511
 20
696.8841262598346
 30
0.0
 10
1672.309240896273
 20
697.0331091285958
 30
0.0
 10
1671.71935169655
 20
697.1538127625044
 30
0.0
 10
1671.105432017822
 20
697.2432226287826
 30
0.0
 10
1670.478755179739
 20
697.2996548563494
 30
0.0
 10
1669.850757275718
 20
697.3225777752591
 30
0.0
 10
1669.230393909535
 20
697.3125726152734
 30
0.0
 10
1668.619919415506
 20
697.2706649968499
 30
0.0
 10
1668.021318827271
 20
697.1985040537829
 30
0.0
 10
1667.439343110027
 20
697.0953667646745
 30
0.0
 10
1666.885135260798
 20
696.9622865514025
 30
0.0
 10
1666.367514432051
 20
696.801969726375
 30
0.0
 10
1665.900896131331
 20
696.6157412871097
 30
0.0
 10
1665.576192626402
 20
696.4633995288391
 30
0.0
 10
1665.425819485204
 20
696.3684508137098
 30
0.0
 10
1665.395303442324
 20
696.34918235234
 30
0.0
  0
SPLINE
  5
37A
330
329
100
AcDbEntity
  8
0
  6
Continuous
 62
     8
370
    15
100
AcDbSpline
210
0.0
220
0.0
230
1.0
 70
     8
 71
     3
 72
    24
 73
    20
 74
     0
 42
0.0000000001
 43
0.0000000001
 40
0.0
 40
0.0
 40
0.0
 40
0.0
 40
0.0098653778463529
 40
0.0722270707065322
 40
0.1336735279569144
 40
0.1957814611379285
 40
0.2587283249600583
 40
0.3221472537813381
 40
0.3856544343451072
 40
0.4488628430227398
 40
0.5113962711661265
 40
0.5729425442660502
 40
0.6348486481690721
 40
0.6976614542896844
 40
0.7610188410314768
 40
0.8245392260206877
 40
0.8878351041420696
 40
0.9505271162478203
 40
0.9999999999999998
 40
0.9999999999999998
 40
0.9999999999999998
 40
0.9999999999999998
 10
1674.141937010247
 20
697.4630981430209
 30
0.0
 10
1674.120652102705
 20
697.4757837545579
 30
0.0
 10
1673.964819599785
 20
697.5686585106711
 30
0.0
 10
1673.628388117016
 20
697.7186708100024
 30
0.0
 10
1673.135509887672
 20
697.909378224417
 30
0.0
 10
1672.599134538717
 20
698.0724216734814
 30
0.0
 10
1672.026724904965
 20
698.2090824248016
 30
0.0
 10
1671.424424866656
 20
698.3157449444586
 30
0.0
 10
1670.803299275383
 20
698.390267886084
 30
0.0
 10
1670.174589552959
 20
698.4313772155839
 30
0.0
 10
1669.549619410499
 20
698.4392132229463
 30
0.0
 10
1668.933547913337
 20
698.4143400892206
 30
0.0
 10
1668.328205764308
 20
698.3587151694282
 30
0.0
 10
1667.735970233345
 20
698.2723728118929
 30
0.0
 10
1667.165338816156
 20
698.1553582360355
 30
0.0
 10
1666.626559664281
 20
698.0095394935427
 30
0.0
 10
1666.131443934154
 20
697.8368309362406
 30
0.0
 10
1665.709899055373
 20
697.6562927535367
 30
0.0
 10
1665.479392103546
 20
697.5247364071015
 30
0.0
 10
1665.377721758787
 20
697.4667104821071
 30
0.0
  0
SPLINE
  5
37B
330
329
100
AcDbEntity
  8
0
  6
Continuous
 62
     8
370
    15
100
AcDbSpline
210
0.0
220
0.0
230
1.0
 70
     8
 71
     3
 72
    23
 73
    19
 74
     0
 42
0.0000000001
 43
0.0000000001
 40
0.0
 40
0.0
 40
0.0
 40
0.0
 40
0.0641367706946597
 40
0.1292503579597156
 40
0.1950029241450465
 40
0.2610359026327472
 40
0.3269814376362258
 40
0.3924745827540591
 40
0.4571652604012531
 40
0.5210185309758528
 40
0.5856590521714865
 40
0.6511193860788295
 40
0.7170505216479128
 40
0.7830879904680462
 40
0.8488637870417564
 40
0.9140185796797728
 40
0.9782132122717253
 40
1.0
 40
1.0
 40
1.0
 40
1.0
 10
1673.364308532301
 20
694.6752903435926
 30
0.0
 10
1673.201965763042
 20
694.7319012437949
 30
0.0
 10
1672.874807709844
 20
694.8459852401721
 30
0.0
 10
1672.340507656285
 20
694.9866400370365
 30
0.0
 10
1671.777771676184
 20
695.1030116424845
 30
0.0
 10
1671.192043337605
 20
695.1904633132335
 30
0.0
 10
1670.593885616075
 20
695.2479977421311
 30
0.0
 10
1669.993082731885
 20
695.2748592646327
 30
0.0
 10
1669.39865544815
 20
695.271565822684
 30
0.0
 10
1668.813083661073
 20
695.2387472389441
 30
0.0
 10
1668.237627104973
 20
695.1782559909185
 30
0.0
 10
1667.675019311857
 20
695.0894415379162
 30
0.0
 10
1667.133884426845
 20
694.9728936220103
 30
0.0
 10
1666.623876822495
 20
694.8300901279609
 30
0.0
 10
1666.152134863801
 20
694.6638476358183
 30
0.0
 10
1665.730117030898
 20
694.4760651027126
 30
0.0
 10
1665.428586959074
 20
694.318213471323
 30
0.0
 10
1665.286097789813
 20
694.2190935022497
 30
0.0
 10
1665.249992532739
 20
694.1939775444324
 30
0.0
  0
SPLINE
  5
37C
330
329
100
AcDbEntity
  8
0
  6
Continuous
 62
     8
370
    15
100
AcDbSpline
210
0.0
220
0.0
230
1.0
 70
     8
 71
     3
 72
    30
 73
    26
 74
     0
 42
0.0000000001
 43
0.0000000001
 40
0.0
 40
0.0
 40
0.0
 40
0.0
 40
0.0419891119798854
 40
0.0863681522231996
 40
0.1306092270663814
 40
0.1744694643422386
 40
0.2177184164150185
 40
0.2606906039289579
 40
0.3043269912397348
 40
0.3484406754074888
 40
0.3927929761098865
 40
0.4371373316561703
 40
0.4812274448248631
 40
0.5248254069505819
 40
0.5677718362283599
 40
0.6110665582937665
 40
0.6549583008232887
 40
0.6992156005310552
 40
0.7435950487683484
 40
0.7878491791223249
 40
0.8317346877863474
 40
0.8750203126124848
 40
0.9179713979952152
 40
0.9615771297099387
 40
1.0
 40
1.0
 40
1.0
 40
1.0
 10
1675.252194630978
 20
694.57997802263
 30
0.0
 10
1675.172637979419
 20
694.6678919155618
 30
0.0
 10
1675.008996485988
 20
694.8487235676081
 30
0.0
 10
1674.690760464727
 20
695.1039888759476
 30
0.0
 10
1674.320404385078
 20
695.3458521330555
 30
0.0
 10
1673.90442307491
 20
695.5649547591431
 30
0.0
 10
1673.450717167465
 20
695.7595627042459
 30
0.0
 10
1672.9609097864
 20
695.9299382651669
 30
0.0
 10
1672.435864904534
 20
696.0769680743581
 30
0.0
 10
1671.878260069045
 20
696.1985200473269
 30
0.0
 10
1671.296487786479
 20
696.2920714283188
 30
0.0
 10
1670.700064815175
 20
696.3558239493533
 30
0.0
 10
1670.098988229915
 20
696.3889666853889
 30
0.0
 10
1669.502897160166
 20
696.3918131884192
 30
0.0
 10
1668.915411392766
 20
696.364901697396
 30
0.0
 10
1668.337756571367
 20
696.3100847202833
 30
0.0
 10
1667.771918648988
 20
696.2270951058916
 30
0.0
 10
1667.225635458656
 20
696.1161229141667
 30
0.0
 10
1666.708377397796
 20
695.9785755990853
 30
0.0
 10
1666.228705901844
 20
695.816740508119
 30
0.0
 10
1665.794027881413
 20
695.6336769198131
 30
0.0
 10
1665.407996835386
 20
695.4323140465353
 30
0.0
 10
1665.072518527105
 20
695.2135836845287
 30
0.0
 10
1664.794230362179
 20
694.9907047943923
 30
0.0
 10
1664.656921912469
 20
694.835418729064
 30
0.0
 10
1664.592605507897
 20
694.7626814618163
 30
0.0
  0
SPLINE
  5
37D
330
329
100
AcDbEntity
  8
0
  6
Continuous
 62
     8
370
    15
100
AcDbSpline
210
0.0
220
0.0
230
1.0
 70
     8
 71
     3
 72
    35
 73
    31
 74
     0
 42
0.0000000001
 43
0.0000000001
 40
0.0
 40
0.0
 40
0.0
 40
0.0
 40
0.0221226485424448
 40
0.0593415393663653
 40
0.0969020252165084
 40
0.1345984788193163
 40
0.1722207626366946
 40
0.209561205485095
 40
0.2464213766073661
 40
0.2828734749486336
 40
0.3198338701411069
 40
0.3572398771996233
 40
0.3948909343146413
 40
0.4325784152283553
 40
0.4700924815400932
 40
0.5072290346687365
 40
0.5437992208734347
 40
0.5804495614607203
 40
0.617645570782239
 40
0.6551934731986063
 40
0.6928880563931557
 40
0.7305192452022005
 40
0.767879073090798
 40
0.8047684803907079
 40
0.8412163080985257
 40
0.8781486848142517
 40
0.9155366223132318
 40
0.9531801472246501
 40
0.9908708835181384
 40
1.0
 40
1.0
 40
1.0
 40
1.0
 10
1675.563613339629
 20
695.1639513004066
 30
0.0
 10
1675.539607752166
 20
695.2225035662531
 30
0.0
 10
1675.47521543898
 20
695.3795634943197
 30
0.0
 10
1675.302797319837
 20
695.6277302788111
 30
0.0
 10
1675.053744164366
 20
695.9054291507298
 30
0.0
 10
1674.744411272808
 20
696.1692447892955
 30
0.0
 10
1674.383209598282
 20
696.4151075877911
 30
0.0
 10
1673.97591598274
 20
696.6391192754223
 30
0.0
 10
1673.529731521229
 20
696.8387984328479
 30
0.0
 10
1673.047239804892
 20
697.0139766137248
 30
0.0
 10
1672.529398954529
 20
697.165926705019
 30
0.0
 10
1671.97784787106
 20
697.2929275690558
 30
0.0
 10
1671.400282148896
 20
697.3924011664565
 30
0.0
 10
1670.806056974195
 20
697.4623636919489
 30
0.0
 10
1670.205115404658
 20
697.5017978242601
 30
0.0
 10
1669.607425828985
 20
697.5107999197673
 30
0.0
 10
1669.018076430376
 20
697.489907888232
 30
0.0
 10
1668.438293461341
 20
697.4407097830011
 30
0.0
 10
1667.869652695617
 20
697.3635669733257
 30
0.0
 10
1667.318569746884
 20
697.2582429210573
 30
0.0
 10
1666.794616333895
 20
697.1259902038204
 30
0.0
 10
1666.306611725205
 20
696.9689103579923
 30
0.0
 10
1665.862121278018
 20
696.7899167780163
 30
0.0
 10
1665.466365198241
 20
696.5922071045079
 30
0.0
 10
1665.119530175122
 20
696.3769573265533
 30
0.0
 10
1664.822871644276
 20
696.146352040872
 30
0.0
 10
1664.577482272366
 20
695.9009046239574
 30
0.0
 10
1664.395034135788
 20
695.6437207358958
 30
0.0
 10
1664.290217234871
 20
695.4463999039883
 30
0.0
 10
1664.266911238193
 20
695.3351184377476
 30
0.0
 10
1664.262366944571
 20
695.3134203458621
 30
0.0
  0
SPLINE
  5
37E
330
329
100
AcDbEntity
  8
0
  6
Continuous
 62
     8
370
    15
100
AcDbSpline
210
0.0
220
0.0
230
1.0
 70
     8
 71
     3
 72
    32
 73
    28
 74
     0
 42
0.0000000001
 43
0.0000000001
 40
0.0
 40
0.0
 40
0.0
 40
0.0
 40
0.023200134976734
 40
0.0643741977601032
 40
0.1058531722549949
 40
0.1474079607324806
 40
0.1888069440697527
 40
0.2298236699918496
 40
0.2702441186338183
 40
0.3105428016600231
 40
0.3514678257785922
 40
0.3928146222922115
 40
0.4343584566312864
 40
0.4758680748303317
 40
0.5171133616758654
 40
0.5578729052220847
 40
0.5980606581893074
 40
0.6386782188178689
 40
0.6798306239043825
 40
0.7212994803394649
 40
0.7616732666212677
 40
0.8019173318689567
 40
0.8418232413060991
 40
0.8811929773455297
 40
0.9202598067758973
 40
0.9599080057214496
 40
1.0
 40
1.0
 40
1.0
 40
1.0
 10
1674.857913048261
 20
694.1723245283898
 30
0.0
 10
1674.916757863703
 20
694.2222493454043
 30
0.0
 10
1675.080036559721
 20
694.3607774206442
 30
0.0
 10
1675.287841966543
 20
694.6042798989545
 30
0.0
 10
1675.481885028433
 20
694.8980576336371
 30
0.0
 10
1675.612091027085
 20
695.2005583630631
 30
0.0
 10
1675.679657711753
 20
695.5058257389833
 30
0.0
 10
1675.683839107102
 20
695.8090820392404
 30
0.0
 10
1675.626693816048
 20
696.1069076655973
 30
0.0
 10
1675.509419512225
 20
696.3993551807584
 30
0.0
 10
1675.331497606549
 20
696.686885062958
 30
0.0
 10
1675.092583647596
 20
696.9665520133896
 30
0.0
 10
1674.795288377656
 20
697.2335977142391
 30
0.0
 10
1674.444226397364
 20
697.4834780396707
 30
0.0
 10
1674.045772449608
 20
697.7122329735439
 30
0.0
 10
1673.607255749289
 20
697.9169770068694
 30
0.0
 10
1673.132106751201
 20
698.0970453783274
 30
0.0
 10
1672.621485800951
 20
698.2538369506195
 30
0.0
 10
1672.076338578935
 20
698.3861747239542
 30
0.0
 10
1671.508825992354
 20
698.4904838413121
 30
0.0
 10
1670.928663907676
 20
698.5655806921711
 30
0.0
 10
1670.345529081972
 20
698.6112938346791
 30
0.0
 10
1669.763072885016
 20
698.6281017670127
 30
0.0
 10
1669.187990445761
 20
698.6167406434374
 30
0.0
 10
1668.622092228565
 20
698.5774895267119
 30
0.0
 10
1668.06417710583
 20
698.5139459907279
 30
0.0
 10
1667.706962295482
 20
698.4494770530901
 30
0.0
 10
1667.527360847909
 20
698.4170631828144
 30
0.0
  0
SPLINE
  5
37F
330
329
100
AcDbEntity
  8
0
  6
Continuous
 62
     8
370
    15
100
AcDbSpline
210
0.0
220
0.0
230
1.0
 70
     8
 71
     3
 72
    11
 73
     7
 74
     0
 42
0.0000000001
 43
0.0000000001
 40
0.0
 40
0.0
 40
0.0
 40
0.0
 40
0.1096241123154141
 40
0.379825363247726
 40
0.6928248433854025
 40
1.0
 40
1.0
 40
1.0
 40
1.0
 10
1674.877119974545
 20
694.1845401098078
 30
0.0
 10
1674.828263960587
 20
694.206738393605
 30
0.0
 10
1674.658987759791
 20
694.2836509544336
 30
0.0
 10
1674.321630578142
 20
694.4075187881924
 30
0.0
 10
1673.869351183823
 20
694.5534327807313
 30
0.0
 10
1673.531598757293
 20
694.6349262692979
 30
0.0
 10
1673.364308532301
 20
694.6752903435926
 30
0.0
  0
SPLINE
  5
380
330
329
100
AcDbEntity
  8
0
  6
Continuous
 62
     8
370
    15
100
AcDbSpline
210
0.0
220
0.0
230
1.0
 70
     8
 71
     3
 72
    11
 73
     7
 74
     0
 42
0.0000000001
 43
0.0000000001
 40
0.0
 40
0.0
 40
0.0
 40
0.0
 40
0.3007580791599168
 40
0.606357971977621
 40
0.9168207102711612
 40
1.0
 40
1.0
 40
1.0
 40
1.0
 10
1673.36718891547
 20
694.4866158079628
 30
0.0
 10
1673.509234979375
 20
694.4527377542311
 30
0.0
 10
1673.795613863951
 20
694.3844362541925
 30
0.0
 10
1674.203613511501
 20
694.2586388690021
 30
0.0
 10
1674.506277349443
 20
694.1556784455706
 30
0.0
 10
1674.661277278052
 20
694.0884261649514
 30
0.0
 10
1674.694029837616
 20
694.0742152917817
 30
0.0
  0
ENDBLK
  5
32B
330
329
100
AcDbEntity
  8
0
100
AcDbBlockEnd
  0
ENDSEC
  0
SECTION
  2
ENTITIES
  0
INSERT
  5
308
330
1F
100
AcDbEntity
  8
0
100
AcDbBlockReference
  2
1
 10
0.0
 20
0.0
 30
0.0
  0
INSERT
  5
328
330
1F
100
AcDbEntity
  8
0
100
AcDbBlockReference
  2
2
 10
0.0
 20
0.0
 30
0.0
  0
INSERT
  5
381
330
1F
100
AcDbEntity
  8
0
100
AcDbBlockReference
  2
3
 10
0.0
 20
0.0
 30
0.0
  0
ENDSEC
  0
SECTION
  2
OBJECTS
  0
DICTIONARY
  5
C
330
0
100
AcDbDictionary
281
     1
  3
ACAD_COLOR
350
6B
  3
ACAD_GROUP
350
D
  3
ACAD_LAYOUT
350
1A
  3
ACAD_MATERIAL
350
6A
  3
ACAD_MLEADERSTYLE
350
12D
  3
ACAD_MLINESTYLE
350
17
  3
ACAD_PLOTSETTINGS
350
19
  3
ACAD_PLOTSTYLENAME
350
E
  3
ACAD_SCALELIST
350
10C
  3
ACAD_TABLESTYLE
350
7E
  3
ACAD_VISUALSTYLE
350
EF
  3
ACDB_RECOMPOSE_DATA
350
15D
  3
AcDbVariableDictionary
350
5E
  3
DWGPROPS
350
38F
  0
DICTIONARY
  5
13C
330
10
100
AcDbDictionary
280
     1
281
     1
  3
ADSK_XREC_LAYER_RECONCILED
360
382
  0
DICTIONARY
  5
6B
102
{ACAD_REACTORS
330
C
102
}
330
C
100
AcDbDictionary
281
     1
  0
DICTIONARY
  5
D
102
{ACAD_REACTORS
330
C
102
}
330
C
100
AcDbDictionary
281
     1
  0
DICTIONARY
  5
1A
102
{ACAD_REACTORS
330
C
102
}
330
C
100
AcDbDictionary
281
     1
  3
Layout1
350
D3
  3
Layout2
350
D7
  3
Model
350
22
  0
DICTIONARY
  5
6A
102
{ACAD_REACTORS
330
C
102
}
330
C
100
AcDbDictionary
281
     1
  3
ByBlock
350
ED
  3
ByLayer
350
EC
  3
Global
350
EE
  0
DICTIONARY
  5
12D
102
{ACAD_REACTORS
330
C
102
}
330
C
100
AcDbDictionary
281
     1
  3
Annotative
350
13B
  3
Standard
350
12E
  0
DICTIONARY
  5
17
102
{ACAD_REACTORS
330
C
102
}
330
C
100
AcDbDictionary
281
     1
  3
Standard
350
18
  0
DICTIONARY
  5
19
102
{ACAD_REACTORS
330
C
102
}
330
C
100
AcDbDictionary
281
     1
  0
ACDBDICTIONARYWDFLT
  5
E
102
{ACAD_REACTORS
330
C
102
}
330
C
100
AcDbDictionary
281
     1
  3
Normal
350
F
100
AcDbDictionaryWithDefault
340
F
  0
DICTIONARY
  5
10C
102
{ACAD_REACTORS
330
C
102
}
330
C
100
AcDbDictionary
281
     1
  3
A0
350
10D
  3
A1
350
188
  3
A2
350
189
  3
A3
350
18A
  3
A4
350
18B
  3
A5
350
18C
  3
A6
350
18D
  3
A7
350
18E
  3
A8
350
18F
  3
A9
350
190
  3
B0
350
191
  3
B1
350
192
  3
B2
350
193
  3
B3
350
194
  3
B4
350
195
  3
B5
350
196
  3
B6
350
197
  3
B7
350
198
  3
B8
350
199
  3
B9
350
19A
  3
C0
350
19B
  3
C1
350
19C
  3
C2
350
19D
  3
C3
350
19E
  3
C4
350
19F
  3
C5
350
1A0
  3
C6
350
1A1
  3
C7
350
1A2
  3
C8
350
1A3
  3
C9
350
1A4
  3
D0
350
1A5
  3
D1
350
1A6
  3
D2
350
1A7
  0
DICTIONARY
  5
7E
102
{ACAD_REACTORS
330
C
102
}
330
C
100
AcDbDictionary
281
     1
  3
Standard
350
7F
  0
DICTIONARY
  5
EF
102
{ACAD_REACTORS
330
C
102
}
330
C
100
AcDbDictionary
281
     1
  3
2dWireframe
350
F5
  3
3D Hidden
350
F7
  3
3dWireframe
350
F6
  3
Basic
350
F4
  3
Brighten
350
FB
  3
ColorChange
350
FF
  3
Conceptual
350
F8
  3
Dim
350
FA
  3
Facepattern
350
FE
  3
Flat
350
F0
  3
FlatWithEdges
350
F1
  3
Gouraud
350
F2
  3
GouraudWithEdges
350
F3
  3
Linepattern
350
FD
  3
Realistic
350
F9
  3
Thicken
350
FC
  0
XRECORD
  5
15D
102
{ACAD_REACTORS
330
C
102
}
330
C
100
AcDbXrecord
280
     1
 90
        1
330
7F
  0
DICTIONARY
  5
5E
102
{ACAD_REACTORS
330
C
102
}
330
C
100
AcDbDictionary
281
     1
  3
CANNOSCALE
350
146
  3
CMLEADERSTYLE
350
145
  3
CTABLESTYLE
350
84
  3
DIMASSOC
350
5F
  3
HIDETEXT
350
63
  3
INDEXCTL
350
38B
  3
LIGHTINGUNITS
350
389
  3
MSLTSCALE
350
388
  3
PSOLHEIGHT
350
38D
  3
PSOLWIDTH
350
38C
  3
SORTENTS
350
38A
  0
XRECORD
  5
38F
102
{ACAD_REACTORS
330
C
102
}
330
C
100
AcDbXrecord
280
     1
  1
DWGPROPS COOKIE
  2

  3

  4

  6

  7

  8
orhan kara
  9

300
=
301
=
302
=
303
=
304
=
305
=
306
=
307
=
308
=
309
=
 40
0.0002904976851852
 41
2458999.623058368
 42
2459067.651189711
  1

 90
        0
  0
XRECORD
  5
382
102
{ACAD_REACTORS
330
13C
102
}
330
13C
100
AcDbXrecord
280
     1
290
     1
  0
LAYOUT
  5
D3
102
{ACAD_XDICTIONARY
360
393
102
}
102
{ACAD_REACTORS
330
1A
102
}
330
1A
100
AcDbPlotSettings
  1

  2
C:\Documents and Settings\basas\Application Data\Autodesk\AutoCAD 2005\R16.1\enu\plotters\Default Windows System Printer.pc3
  4

  6

 40
0.0
 41
0.0
 42
0.0
 43
0.0
 44
0.0
 45
0.0
 46
0.0
 47
0.0
 48
0.0
 49
0.0
140
0.0
141
0.0
142
1.0
143
1.0
 70
   688
 72
     0
 73
     0
 74
     5
  7

 75
    16
147
1.0
148
0.0
149
0.0
100
AcDbLayout
  1
Layout1
 70
     1
 71
     1
 10
0.0
 20
0.0
 11
12.0
 21
9.0
 12
0.0
 22
0.0
 32
0.0
 14
0.0
 24
0.0
 34
0.0
 15
0.0
 25
0.0
 35
0.0
146
0.0
 13
0.0
 23
0.0
 33
0.0
 16
1.0
 26
0.0
 36
0.0
 17
0.0
 27
1.0
 37
0.0
 76
     0
330
D2
  0
LAYOUT
  5
D7
102
{ACAD_XDICTIONARY
360
395
102
}
102
{ACAD_REACTORS
330
1A
102
}
330
1A
100
AcDbPlotSettings
  1

  2
C:\Documents and Settings\basas\Application Data\Autodesk\AutoCAD 2005\R16.1\enu\plotters\Default Windows System Printer.pc3
  4

  6

 40
0.0
 41
0.0
 42
0.0
 43
0.0
 44
0.0
 45
0.0
 46
0.0
 47
0.0
 48
0.0
 49
0.0
140
0.0
141
0.0
142
1.0
143
1.0
 70
   688
 72
     0
 73
     0
 74
     5
  7

 75
    16
147
1.0
148
0.0
149
0.0
100
AcDbLayout
  1
Layout2
 70
     1
 71
     2
 10
0.0
 20
0.0
 11
12.0
 21
9.0
 12
0.0
 22
0.0
 32
0.0
 14
0.0
 24
0.0
 34
0.0
 15
0.0
 25
0.0
 35
0.0
146
0.0
 13
0.0
 23
0.0
 33
0.0
 16
1.0
 26
0.0
 36
0.0
 17
0.0
 27
1.0
 37
0.0
 76
     0
330
D6
  0
LAYOUT
  5
22
102
{ACAD_XDICTIONARY
360
390
102
}
102
{ACAD_REACTORS
330
1A
102
}
330
1A
100
AcDbPlotSettings
  1

  2
none_device
  4
ISO_A4_(210.00_x_297.00_MM)
  6

 40
7.5
 41
20.0
 42
7.5
 43
20.0
 44
210.0
 45
297.0
 46
11.54999923706054
 47
-13.65000009536743
 48
0.0
 49
0.0
140
0.0
141
0.0
142
1.0
143
8.704084754739808
 70
 11952
 72
     1
 73
     0
 74
     0
  7

 75
     0
147
0.1148885871608098
148
0.0
149
0.0
100
AcDbLayout
  1
Model
 70
     1
 71
     0
 10
0.0
 20
0.0
 11
12.0
 21
9.0
 12
0.0
 22
0.0
 32
0.0
 14
0.0
 24
0.0
 34
0.0
 15
0.0
 25
0.0
 35
0.0
146
0.0
 13
0.0
 23
0.0
 33
0.0
 16
1.0
 26
0.0
 36
0.0
 17
0.0
 27
1.0
 37
0.0
 76
     0
330
1F
331
EA
1001
ACAD_PSEXT
1000
None
1000
None
1000
Not applicable
1000
The layout will not be plotted unless a new plotter configuration name is selected.
1070
     0
  0
MATERIAL
  5
ED
102
{ACAD_XDICTIONARY
360
399
102
}
102
{ACAD_REACTORS
330
6A
102
}
330
6A
100
AcDbMaterial
  1
ByBlock
  0
MATERIAL
  5
EC
102
{ACAD_XDICTIONARY
360
397
102
}
102
{ACAD_REACTORS
330
6A
102
}
330
6A
100
AcDbMaterial
  1
ByLayer
  0
MATERIAL
  5
EE
102
{ACAD_XDICTIONARY
360
173
102
}
102
{ACAD_REACTORS
330
6A
102
}
330
6A
100
AcDbMaterial
  1
Global
 43
0.0007999999797903
 43
0.0
 43
0.0
 43
0.0
 43
0.0
 43
0.0007999999797903
 43
0.0
 43
0.0
 43
0.0
 43
0.0
 43
1.0
 43
0.0
 43
0.0
 43
0.0
 43
0.0
 43
1.0
 49
0.0007999999797903
 49
0.0
 49
0.0
 49
0.0
 49
0.0
 49
0.0007999999797903
 49
0.0
 49
0.0
 49
0.0
 49
0.0
 49
1.0
 49
0.0
 49
0.0
 49
0.0
 49
0.0
 49
1.0
142
0.0007999999797903
142
0.0
142
0.0
142
0.0
142
0.0
142
0.0007999999797903
142
0.0
142
0.0
142
0.0
142
0.0
142
1.0
142
0.0
142
0.0
142
0.0
142
0.0
142
1.0
144
0.0007999999797903
144
0.0
144
0.0
144
0.0
144
0.0
144
0.0007999999797903
144
0.0
144
0.0
144
0.0
144
0.0
144
1.0
144
0.0
144
0.0
144
0.0
144
0.0
144
1.0
1001
ACAD
1070
    -1
1070
     3
1070
     0
1000

1071
        0
1070
     0
  0
MLEADERSTYLE
  5
13B
102
{ACAD_REACTORS
330
12D
102
}
330
12D
100
AcDbMLeaderStyle
170
     2
171
     1
172
     0
 90
        2
 40
0.0
 41
0.0
173
     1
 91
-1056964608
340
14
 92
       -2
290
     1
 42
2.0
291
     1
 43
8.0
  3
Standard
 44
4.0
300

342
11
174
     1
178
     1
175
     1
176
     0
 93
-1056964608
 45
4.0
292
     0
297
     0
 46
4.0
 94
-1056964608
 47
1.0
 49
1.0
140
1.0
293
     1
141
0.0
294
     1
177
     0
142
1.0
295
     0
296
     1
143
3.75
1001
ACAD_MLEADERVER
1070
     2
  0
MLEADERSTYLE
  5
12E
102
{ACAD_REACTORS
330
12D
102
}
330
12D
100
AcDbMLeaderStyle
170
     2
171
     1
172
     0
 90
        2
 40
0.0
 41
0.0
173
     1
 91
-1056964608
340
14
 92
       -2
290
     1
 42
2.0
291
     1
 43
8.0
  3
Standard
 44
4.0
300

342
11
174
     1
178
     1
175
     1
176
     0
 93
-1056964608
 45
4.0
292
     0
297
     0
 46
4.0
 94
-1056964608
 47
1.0
 49
1.0
140
1.0
293
     1
141
0.0
294
     1
177
     0
142
1.0
295
     0
296
     0
143
3.75
1001
ACAD_MLEADERVER
1070
     2
  0
MLINESTYLE
  5
18
102
{ACAD_REACTORS
330
17
102
}
330
17
100
AcDbMlineStyle
  2
STANDARD
 70
     0
  3

 62
   256
 51
90.0
 52
90.0
 71
     2
 49
0.5
 62
   256
  6
BYLAYER
 49
-0.5
 62
   256
  6
BYLAYER
  0
ACDBPLACEHOLDER
  5
F
102
{ACAD_REACTORS
330
E
102
}
330
E
  0
SCALE
  5
10D
102
{ACAD_REACTORS
330
10C
102
}
330
10C
100
AcDbScale
 70
     0
300
1:1
140
1.0
141
1.0
290
     1
  0
SCALE
  5
188
102
{ACAD_REACTORS
330
10C
102
}
330
10C
100
AcDbScale
 70
     0
300
1:2
140
1.0
141
2.0
290
     0
  0
SCALE
  5
189
102
{ACAD_REACTORS
330
10C
102
}
330
10C
100
AcDbScale
 70
     0
300
1:4
140
1.0
141
4.0
290
     0
  0
SCALE
  5
18A
102
{ACAD_REACTORS
330
10C
102
}
330
10C
100
AcDbScale
 70
     0
300
1:5
140
1.0
141
5.0
290
     0
  0
SCALE
  5
18B
102
{ACAD_REACTORS
330
10C
102
}
330
10C
100
AcDbScale
 70
     0
300
1:8
140
1.0
141
8.0
290
     0
  0
SCALE
  5
18C
102
{ACAD_REACTORS
330
10C
102
}
330
10C
100
AcDbScale
 70
     0
300
1:10
140
1.0
141
10.0
290
     0
  0
SCALE
  5
18D
102
{ACAD_REACTORS
330
10C
102
}
330
10C
100
AcDbScale
 70
     0
300
1:16
140
1.0
141
16.0
290
     0
  0
SCALE
  5
18E
102
{ACAD_REACTORS
330
10C
102
}
330
10C
100
AcDbScale
 70
     0
300
1:20
140
1.0
141
20.0
290
     0
  0
SCALE
  5
18F
102
{ACAD_REACTORS
330
10C
102
}
330
10C
100
AcDbScale
 70
     0
300
1:30
140
1.0
141
30.0
290
     0
  0
SCALE
  5
190
102
{ACAD_REACTORS
330
10C
102
}
330
10C
100
AcDbScale
 70
     0
300
1:40
140
1.0
141
40.0
290
     0
  0
SCALE
  5
191
102
{ACAD_REACTORS
330
10C
102
}
330
10C
100
AcDbScale
 70
     0
300
1:50
140
1.0
141
50.0
290
     0
  0
SCALE
  5
192
102
{ACAD_REACTORS
330
10C
102
}
330
10C
100
AcDbScale
 70
     0
300
1:100
140
1.0
141
100.0
290
     0
  0
SCALE
  5
193
102
{ACAD_REACTORS
330
10C
102
}
330
10C
100
AcDbScale
 70
     0
300
2:1
140
2.0
141
1.0
290
     0
  0
SCALE
  5
194
102
{ACAD_REACTORS
330
10C
102
}
330
10C
100
AcDbScale
 70
     0
300
4:1
140
4.0
141
1.0
290
     0
  0
SCALE
  5
195
102
{ACAD_REACTORS
330
10C
102
}
330
10C
100
AcDbScale
 70
     0
300
8:1
140
8.0
141
1.0
290
     0
  0
SCALE
  5
196
102
{ACAD_REACTORS
330
10C
102
}
330
10C
100
AcDbScale
 70
     0
300
10:1
140
10.0
141
1.0
290
     0
  0
SCALE
  5
197
102
{ACAD_REACTORS
330
10C
102
}
330
10C
100
AcDbScale
 70
     0
300
100:1
140
100.0
141
1.0
290
     0
  0
SCALE
  5
198
102
{ACAD_REACTORS
330
10C
102
}
330
10C
100
AcDbScale
 70
     0
300
1/128" = 1'-0"
140
0.0078125
141
12.0
290
     0
  0
SCALE
  5
199
102
{ACAD_REACTORS
330
10C
102
}
330
10C
100
AcDbScale
 70
     0
300
1/64" = 1'-0"
140
0.015625
141
12.0
290
     0
  0
SCALE
  5
19A
102
{ACAD_REACTORS
330
10C
102
}
330
10C
100
AcDbScale
 70
     0
300
1/32" = 1'-0"
140
0.03125
141
12.0
290
     0
  0
SCALE
  5
19B
102
{ACAD_REACTORS
330
10C
102
}
330
10C
100
AcDbScale
 70
     0
300
1/16" = 1'-0"
140
0.0625
141
12.0
290
     0
  0
SCALE
  5
19C
102
{ACAD_REACTORS
330
10C
102
}
330
10C
100
AcDbScale
 70
     0
300
3/32" = 1'-0"
140
0.09375
141
12.0
290
     0
  0
SCALE
  5
19D
102
{ACAD_REACTORS
330
10C
102
}
330
10C
100
AcDbScale
 70
     0
300
1/8" = 1'-0"
140
0.125
141
12.0
290
     0
  0
SCALE
  5
19E
102
{ACAD_REACTORS
330
10C
102
}
330
10C
100
AcDbScale
 70
     0
300
3/16" = 1'-0"
140
0.1875
141
12.0
290
     0
  0
SCALE
  5
19F
102
{ACAD_REACTORS
330
10C
102
}
330
10C
100
AcDbScale
 70
     0
300
1/4" = 1'-0"
140
0.25
141
12.0
290
     0
  0
SCALE
  5
1A0
102
{ACAD_REACTORS
330
10C
102
}
330
10C
100
AcDbScale
 70
     0
300
3/8" = 1'-0"
140
0.375
141
12.0
290
     0
  0
SCALE
  5
1A1
102
{ACAD_REACTORS
330
10C
102
}
330
10C
100
AcDbScale
 70
     0
300
1/2" = 1'-0"
140
0.5
141
12.0
290
     0
  0
SCALE
  5
1A2
102
{ACAD_REACTORS
330
10C
102
}
330
10C
100
AcDbScale
 70
     0
300
3/4" = 1'-0"
140
0.75
141
12.0
290
     0
  0
SCALE
  5
1A3
102
{ACAD_REACTORS
330
10C
102
}
330
10C
100
AcDbScale
 70
     0
300
1" = 1'-0"
140
1.0
141
12.0
290
     0
  0
SCALE
  5
1A4
102
{ACAD_REACTORS
330
10C
102
}
330
10C
100
AcDbScale
 70
     0
300
1-1/2" = 1'-0"
140
1.5
141
12.0
290
     0
  0
SCALE
  5
1A5
102
{ACAD_REACTORS
330
10C
102
}
330
10C
100
AcDbScale
 70
     0
300
3" = 1'-0"
140
3.0
141
12.0
290
     0
  0
SCALE
  5
1A6
102
{ACAD_REACTORS
330
10C
102
}
330
10C
100
AcDbScale
 70
     0
300
6" = 1'-0"
140
6.0
141
12.0
290
     0
  0
SCALE
  5
1A7
102
{ACAD_REACTORS
330
10C
102
}
330
10C
100
AcDbScale
 70
     0
300
1'-0" = 1'-0"
140
12.0
141
12.0
290
     0
  0
TABLESTYLE
  5
7F
102
{ACAD_XDICTIONARY
360
162
102
}
102
{ACAD_REACTORS
330
7E
102
}
330
7E
100
AcDbTableStyle
  3
Standard
 70
     0
 71
     0
 40
1.5
 41
1.5
280
     0
281
     0
  7
Standard
140
4.5
170
     2
 62
     0
 63
     7
283
     0
274
    -2
284
     1
 64
     0
275
    -2
285
     1
 65
     0
276
    -2
286
     1
 66
     0
277
    -2
287
     1
 67
     0
278
    -2
288
     1
 68
     0
279
    -2
289
     1
 69
     0
  7
Standard
140
6.0
170
     5
 62
     0
 63
     7
283
     0
274
    -2
284
     1
 64
     0
275
    -2
285
     1
 65
     0
276
    -2
286
     1
 66
     0
277
    -2
287
     1
 67
     0
278
    -2
288
     1
 68
     0
279
    -2
289
     1
 69
     0
  7
Standard
140
4.5
170
     5
 62
     0
 63
     7
283
     0
274
    -2
284
     1
 64
     0
275
    -2
285
     1
 65
     0
276
    -2
286
     1
 66
     0
277
    -2
287
     1
 67
     0
278
    -2
288
     1
 68
     0
279
    -2
289
     1
 69
     0
  0
VISUALSTYLE
  5
F5
102
{ACAD_REACTORS
330
EF
102
}
330
EF
100
AcDbVisualStyle
  2
2dWireframe
 70
     4
 71
     0
 72
     2
 73
     1
 90
        0
 40
-0.6
 41
-30.0
 62
     5
 63
     7
 74
     1
 91
        4
 64
     7
 65
   257
 75
     1
175
     1
 42
1.0
 92
        0
 66
   257
 43
1.0
 76
     1
 77
     6
 78
     2
 67
     7
 79
     5
170
     0
171
     0
290
     0
174
     0
 93
        1
 44
0.0
173
     0
291
     0
 45
0.0
1001
ACAD
1000
AcDbSavedByObjectVersion
1070
     0
  0
VISUALSTYLE
  5
F7
102
{ACAD_REACTORS
330
EF
102
}
330
EF
100
AcDbVisualStyle
  2
3D Hidden
 70
     6
 71
     1
 72
     2
 73
     2
 90
        0
 40
-0.6
 41
-30.0
 62
     5
 63
     7
 74
     2
 91
        2
 64
     7
 65
   257
 75
     2
175
     1
 42
40.0
 92
        0
 66
   257
 43
1.0
 76
     1
 77
     6
 78
     2
 67
     7
 79
     3
170
     0
171
     0
290
     0
174
     0
 93
        1
 44
0.0
173
     0
291
     0
 45
0.0
1001
ACAD
1000
AcDbSavedByObjectVersion
1070
     0
  0
VISUALSTYLE
  5
F6
102
{ACAD_REACTORS
330
EF
102
}
330
EF
100
AcDbVisualStyle
  2
3dWireframe
 70
     5
 71
     0
 72
     2
 73
     1
 90
        0
 40
-0.6
 41
-30.0
 62
     5
 63
     7
 74
     1
 91
        4
 64
     7
 65
   257
 75
     1
175
     1
 42
1.0
 92
        0
 66
   257
 43
1.0
 76
     1
 77
     6
 78
     2
 67
     7
 79
     5
170
     0
171
     0
290
     0
174
     0
 93
        1
 44
0.0
173
     0
291
     0
 45
0.0
1001
ACAD
1000
AcDbSavedByObjectVersion
1070
     0
  0
VISUALSTYLE
  5
F4
102
{ACAD_REACTORS
330
EF
102
}
330
EF
100
AcDbVisualStyle
  2
Basic
 70
     7
 71
     1
 72
     0
 73
     1
 90
        0
 40
-0.6
 41
-30.0
 62
     5
 63
     7
 74
     0
 91
        4
 64
     7
 65
   257
 75
     1
175
     1
 42
1.0
 92
        8
 66
     7
 43
1.0
 76
     1
 77
     6
 78
     2
 67
     7
 79
     5
170
     0
171
     0
290
     0
174
     0
 93
        1
 44
0.0
173
     0
291
     1
 45
0.0
1001
ACAD
1000
AcDbSavedByObjectVersion
1070
     0
  0
VISUALSTYLE
  5
FB
102
{ACAD_REACTORS
330
EF
102
}
330
EF
100
AcDbVisualStyle
  2
Brighten
 70
    12
 71
     2
 72
     2
 73
     1
 90
        0
 40
-0.6
 41
-30.0
 62
     5
 63
     7
 74
     1
 91
        4
 64
     7
 65
   257
 75
     1
175
     1
 42
1.0
 92
        8
 66
     7
 43
1.0
 76
     1
 77
     6
 78
     2
 67
     7
 79
     5
170
     0
171
     0
290
     0
174
     0
 93
        1
 44
50.0
173
     0
291
     1
 45
0.0
1001
ACAD
1000
AcDbSavedByObjectVersion
1070
     0
  0
VISUALSTYLE
  5
FF
102
{ACAD_REACTORS
330
EF
102
}
330
EF
100
AcDbVisualStyle
  2
ColorChange
 70
    16
 71
     2
 72
     2
 73
     3
 90
        0
 40
-0.6
 41
-30.0
 62
     5
 63
     8
 74
     1
 91
        4
 64
     7
 65
   257
 75
     1
175
     1
 42
1.0
 92
        8
 66
     8
 43
1.0
 76
     1
 77
     6
 78
     2
 67
     7
 79
     5
170
     0
171
     0
290
     0
174
     0
 93
        1
 44
0.0
173
     0
291
     1
 45
0.0
1001
ACAD
1000
AcDbSavedByObjectVersion
1070
     0
  0
VISUALSTYLE
  5
F8
102
{ACAD_REACTORS
330
EF
102
}
330
EF
100
AcDbVisualStyle
  2
Conceptual
 70
     9
 71
     3
 72
     2
 73
     1
 90
        0
 40
-0.6
 41
-30.0
 62
     5
 63
     7
 74
     2
 91
        2
 64
     7
 65
   257
 75
     1
175
     1
 42
40.0
 92
        8
 66
     7
 43
1.0
 76
     1
 77
     6
 78
     2
 67
     7
 79
     3
170
     0
171
     0
290
     0
174
     0
 93
        1
 44
0.0
173
     0
291
     0
 45
0.0
1001
ACAD
1000
AcDbSavedByObjectVersion
1070
     0
  0
VISUALSTYLE
  5
FA
102
{ACAD_REACTORS
330
EF
102
}
330
EF
100
AcDbVisualStyle
  2
Dim
 70
    11
 71
     2
 72
     2
 73
     1
 90
        0
 40
-0.6
 41
-30.0
 62
     5
 63
     7
 74
     1
 91
        4
 64
     7
 65
   257
 75
     1
175
     1
 42
1.0
 92
        8
 66
     7
 43
1.0
 76
     1
 77
     6
 78
     2
 67
     7
 79
     5
170
     0
171
     0
290
     0
174
     0
 93
        1
 44
-50.0
173
     0
291
     1
 45
0.0
1001
ACAD
1000
AcDbSavedByObjectVersion
1070
     0
  0
VISUALSTYLE
  5
FE
102
{ACAD_REACTORS
330
EF
102
}
330
EF
100
AcDbVisualStyle
  2
Facepattern
 70
    15
 71
     2
 72
     2
 73
     1
 90
        0
 40
-0.6
 41
-30.0
 62
     5
 63
     7
 74
     1
 91
        4
 64
     7
 65
   257
 75
     1
175
     1
 42
1.0
 92
        8
 66
     7
 43
1.0
 76
     1
 77
     6
 78
     2
 67
     7
 79
     5
170
     0
171
     0
290
     0
174
     0
 93
        1
 44
0.0
173
     0
291
     1
 45
0.0
1001
ACAD
1000
AcDbSavedByObjectVersion
1070
     0
  0
VISUALSTYLE
  5
F0
102
{ACAD_REACTORS
330
EF
102
}
330
EF
100
AcDbVisualStyle
  2
Flat
 70
     0
 71
     2
 72
     1
 73
     1
 90
        2
 40
-0.6
 41
30.0
 62
     5
 63
     7
 74
     0
 91
        4
 64
     7
 65
   257
 75
     1
175
     1
 42
1.0
 92
        8
 66
     7
 43
1.0
 76
     1
 77
     6
 78
     2
 67
     7
 79
     5
170
     0
171
     0
290
     0
174
     0
 93
        1
 44
0.0
173
     0
291
     1
 45
0.0
1001
ACAD
1000
AcDbSavedByObjectVersion
1070
     0
  0
VISUALSTYLE
  5
F1
102
{ACAD_REACTORS
330
EF
102
}
330
EF
100
AcDbVisualStyle
  2
FlatWithEdges
 70
     1
 71
     2
 72
     1
 73
     1
 90
        2
 40
-0.6
 41
30.0
 62
     5
 63
     7
 74
     1
 91
        4
 64
     7
 65
   257
 75
     1
175
     1
 42
1.0
 92
        0
 66
   257
 43
1.0
 76
     1
 77
     6
 78
     2
 67
     7
 79
     5
170
     0
171
     0
290
     0
174
     0
 93
        1
 44
0.0
173
     0
291
     1
 45
0.0
1001
ACAD
1000
AcDbSavedByObjectVersion
1070
     0
  0
VISUALSTYLE
  5
F2
102
{ACAD_REACTORS
330
EF
102
}
330
EF
100
AcDbVisualStyle
  2
Gouraud
 70
     2
 71
     2
 72
     2
 73
     1
 90
        2
 40
-0.6
 41
30.0
 62
     5
 63
     7
 74
     0
 91
        4
 64
     7
 65
   257
 75
     1
175
     1
 42
1.0
 92
        0
 66
     7
 43
1.0
 76
     1
 77
     6
 78
     2
 67
     7
 79
     5
170
     0
171
     0
290
     0
174
     0
 93
        1
 44
0.0
173
     0
291
     1
 45
0.0
1001
ACAD
1000
AcDbSavedByObjectVersion
1070
     0
  0
VISUALSTYLE
  5
F3
102
{ACAD_REACTORS
330
EF
102
}
330
EF
100
AcDbVisualStyle
  2
GouraudWithEdges
 70
     3
 71
     2
 72
     2
 73
     1
 90
        2
 40
-0.6
 41
30.0
 62
     5
 63
     7
 74
     1
 91
        4
 64
     7
 65
   257
 75
     1
175
     1
 42
1.0
 92
        0
 66
   257
 43
1.0
 76
     1
 77
     6
 78
     2
 67
     7
 79
     5
170
     0
171
     0
290
     0
174
     0
 93
        1
 44
0.0
173
     0
291
     1
 45
0.0
1001
ACAD
1000
AcDbSavedByObjectVersion
1070
     0
  0
VISUALSTYLE
  5
FD
102
{ACAD_REACTORS
330
EF
102
}
330
EF
100
AcDbVisualStyle
  2
Linepattern
 70
    14
 71
     2
 72
     2
 73
     1
 90
        0
 40
-0.6
 41
-30.0
 62
     5
 63
     7
 74
     1
 91
        4
 64
     7
 65
   257
 75
     7
175
     7
 42
1.0
 92
        8
 66
     7
 43
1.0
 76
     1
 77
     6
 78
     2
 67
     7
 79
     5
170
     0
171
     0
290
     0
174
     0
 93
        1
 44
0.0
173
     0
291
     1
 45
0.0
1001
ACAD
1000
AcDbSavedByObjectVersion
1070
     0
  0
VISUALSTYLE
  5
F9
102
{ACAD_REACTORS
330
EF
102
}
330
EF
100
AcDbVisualStyle
  2
Realistic
 70
     8
 71
     2
 72
     2
 73
     1
 90
        0
 40
-0.6
 41
-30.0
 62
     5
 63
     7
 74
     1
 91
        0
 64
     7
 65
   257
 75
     1
175
     1
 42
1.0
 92
        8
 66
     8
 43
1.0
 76
     1
 77
     6
 78
     2
 67
     7
 79
     5
170
     0
171
     0
290
     0
174
     0
 93
       13
 44
0.0
173
     0
291
     0
 45
0.0
1001
ACAD
1000
AcDbSavedByObjectVersion
1070
     0
  0
VISUALSTYLE
  5
FC
102
{ACAD_REACTORS
330
EF
102
}
330
EF
100
AcDbVisualStyle
  2
Thicken
 70
    13
 71
     2
 72
     2
 73
     1
 90
        0
 40
-0.6
 41
-30.0
 62
     5
 63
     7
 74
     1
 91
        4
 64
     7
 65
   257
 75
     1
175
     1
 42
1.0
 92
       12
 66
     7
 43
1.0
 76
     1
 77
     6
 78
     2
 67
     7
 79
     5
170
     0
171
     0
290
     0
174
     0
 93
        1
 44
0.0
173
     0
291
     1
 45
0.0
1001
ACAD
1000
AcDbSavedByObjectVersion
1070
     0
  0
DICTIONARYVAR
  5
146
102
{ACAD_REACTORS
330
5E
102
}
330
5E
100
DictionaryVariables
280
     0
  1
1:1
  0
DICTIONARYVAR
  5
145
102
{ACAD_REACTORS
330
5E
102
}
330
5E
100
DictionaryVariables
280
     0
  1
STANDARD
  0
DICTIONARYVAR
  5
84
102
{ACAD_REACTORS
330
5E
102
}
330
5E
100
DictionaryVariables
280
     0
  1
STANDARD
  0
DICTIONARYVAR
  5
5F
102
{ACAD_REACTORS
330
5E
102
}
330
5E
100
DictionaryVariables
280
     0
  1
2
  0
DICTIONARYVAR
  5
63
102
{ACAD_REACTORS
330
5E
102
}
330
5E
100
DictionaryVariables
280
     0
  1
1
  0
DICTIONARYVAR
  5
38B
102
{ACAD_REACTORS
330
5E
102
}
330
5E
100
DictionaryVariables
280
     0
  1
0
  0
DICTIONARYVAR
  5
389
102
{ACAD_REACTORS
330
5E
102
}
330
5E
100
DictionaryVariables
280
     0
  1
2
  0
DICTIONARYVAR
  5
388
102
{ACAD_REACTORS
330
5E
102
}
330
5E
100
DictionaryVariables
280
     0
  1
1
  0
DICTIONARYVAR
  5
38D
102
{ACAD_REACTORS
330
5E
102
}
330
5E
100
DictionaryVariables
280
     0
  1
80.000000
  0
DICTIONARYVAR
  5
38C
102
{ACAD_REACTORS
330
5E
102
}
330
5E
100
DictionaryVariables
280
     0
  1
5.000000
  0
DICTIONARYVAR
  5
38A
102
{ACAD_REACTORS
330
5E
102
}
330
5E
100
DictionaryVariables
280
     0
  1
127
  0
DICTIONARY
  5
393
330
D3
100
AcDbDictionary
280
     1
281
     1
  3
ACAD_XREC_ROUNDTRIP
360
394
  0
DICTIONARY
  5
395
330
D7
100
AcDbDictionary
280
     1
281
     1
  3
ACAD_XREC_ROUNDTRIP
360
396
  0
DICTIONARY
  5
390
330
22
100
AcDbDictionary
280
     1
281
     1
  3
ACAD_XREC_ROUNDTRIP
360
391
  0
DICTIONARY
  5
399
330
ED
100
AcDbDictionary
280
     1
281
     1
  3
ACAD_XREC_ROUNDTRIP
360
39A
  0
DICTIONARY
  5
397
330
EC
100
AcDbDictionary
280
     1
281
     1
  3
ACAD_XREC_ROUNDTRIP
360
398
  0
DICTIONARY
  5
173
330
EE
100
AcDbDictionary
280
     1
281
     1
  3
ACAD_XREC_ROUNDTRIP
360
39B
  3
BUMPTILE
360
175
  3
DIFFUSETILE
360
174
  3
OPACITYTILE
360
176
  3
REFLECTIONTILE
360
177
  0
DICTIONARY
  5
162
330
7F
100
AcDbDictionary
280
     1
281
     1
  3
ACAD_ROUNDTRIP_2008_TABLESTYLE_CELLSTYLEMAP
360
38E
  3
ACAD_XREC_ROUNDTRIP
360
392
  0
XRECORD
  5
394
102
{ACAD_REACTORS
330
393
102
}
330
393
100
AcDbXrecord
280
     1
102
SHADEPLOT
 70
     0
102
SHADEPLOTRESLEVEL
 70
     2
102
SHADEPLOTCUSTOMDPI
 70
   300
  0
XRECORD
  5
396
102
{ACAD_REACTORS
330
395
102
}
330
395
100
AcDbXrecord
280
     1
102
SHADEPLOT
 70
     0
102
SHADEPLOTRESLEVEL
 70
     2
102
SHADEPLOTCUSTOMDPI
 70
   300
  0
XRECORD
  5
391
102
{ACAD_REACTORS
330
390
102
}
330
390
100
AcDbXrecord
280
     1
102
SHADEPLOT
 70
     0
102
SHADEPLOTRESLEVEL
 70
     2
102
SHADEPLOTCUSTOMDPI
 70
   300
  0
XRECORD
  5
39A
102
{ACAD_REACTORS
330
399
102
}
330
399
100
AcDbXrecord
280
     1
102
MATERIAL
148
0.0
149
0.0
149
0.0
 93
        0
 94
       63
282
     0
 72
     1
 77
     1
171
     1
175
     1
179
     1
273
     0
  0
XRECORD
  5
398
102
{ACAD_REACTORS
330
397
102
}
330
397
100
AcDbXrecord
280
     1
102
MATERIAL
148
0.0
149
0.0
149
0.0
 93
        0
 94
       63
282
     0
 72
     1
 77
     1
171
     1
175
     1
179
     1
273
     0
  0
XRECORD
  5
39B
102
{ACAD_REACTORS
330
173
102
}
330
173
100
AcDbXrecord
280
     1
102
MATERIAL
148
0.0
149
0.0
149
0.0
 93
        0
 94
       63
282
     0
 72
     1
 77
     1
171
     1
175
     1
179
     1
273
     0
  0
XRECORD
  5
175
102
{ACAD_REACTORS
330
173
102
}
330
173
100
AcDbXrecord
280
     1
270
     1
271
     1
  0
XRECORD
  5
174
102
{ACAD_REACTORS
330
173
102
}
330
173
100
AcDbXrecord
280
     1
270
     1
271
     1
  0
XRECORD
  5
176
102
{ACAD_REACTORS
330
173
102
}
330
173
100
AcDbXrecord
280
     1
270
     1
271
     1
  0
XRECORD
  5
177
102
{ACAD_REACTORS
330
173
102
}
330
173
100
AcDbXrecord
280
     1
270
     1
271
     1
  0
CELLSTYLEMAP
  5
38E
102
{ACAD_REACTORS
330
162
102
}
330
162
100
AcDbCellStyleMap
 90
        3
300
CELLSTYLE
  1
TABLEFORMAT_BEGIN
 90
        5
170
     1
 91
        0
 92
    32768
 62
   257
 93
        1
300
CONTENTFORMAT
  1
CONTENTFORMAT_BEGIN
 90
        0
 91
        0
 92
      512
 93
        0
300

 40
0.0
140
1.0
 94
        5
 62
     0
340
11
144
6.0
309
CONTENTFORMAT_END
171
     1
301
MARGIN
  1
CELLMARGIN_BEGIN
 40
1.5
 40
1.5
 40
1.5
 40
1.5
 40
4.5
 40
4.5
309
CELLMARGIN_END
 94
        6
 95
        1
302
GRIDFORMAT
  1
GRIDFORMAT_BEGIN
 90
        0
 91
        1
 62
     0
 92
       -2
340
14
 93
        0
 40
1.125
309
GRIDFORMAT_END
 95
        2
302
GRIDFORMAT
  1
GRIDFORMAT_BEGIN
 90
        0
 91
        1
 62
     0
 92
       -2
340
14
 93
        0
 40
1.125
309
GRIDFORMAT_END
 95
        4
302
GRIDFORMAT
  1
GRIDFORMAT_BEGIN
 90
        0
 91
        1
 62
     0
 92
       -2
340
14
 93
        0
 40
1.125
309
GRIDFORMAT_END
 95
        8
302
GRIDFORMAT
  1
GRIDFORMAT_BEGIN
 90
        0
 91
        1
 62
     0
 92
       -2
340
14
 93
        0
 40
1.125
309
GRIDFORMAT_END
 95
       16
302
GRIDFORMAT
  1
GRIDFORMAT_BEGIN
 90
        0
 91
        1
 62
     0
 92
       -2
340
14
 93
        0
 40
1.125
309
GRIDFORMAT_END
 95
       32
302
GRIDFORMAT
  1
GRIDFORMAT_BEGIN
 90
        0
 91
        1
 62
     0
 92
       -2
340
14
 93
        0
 40
1.125
309
GRIDFORMAT_END
309
TABLEFORMAT_END
  1
CELLSTYLE_BEGIN
 90
        1
 91
        1
300
_TITLE
309
CELLSTYLE_END
300
CELLSTYLE
  1
TABLEFORMAT_BEGIN
 90
        5
170
     1
 91
        0
 92
        0
 62
   257
 93
        1
300
CONTENTFORMAT
  1
CONTENTFORMAT_BEGIN
 90
        0
 91
        0
 92
      512
 93
        0
300

 40
0.0
140
1.0
 94
        5
 62
     0
340
11
144
4.5
309
CONTENTFORMAT_END
171
     1
301
MARGIN
  1
CELLMARGIN_BEGIN
 40
1.5
 40
1.5
 40
1.5
 40
1.5
 40
4.5
 40
4.5
309
CELLMARGIN_END
 94
        6
 95
        1
302
GRIDFORMAT
  1
GRIDFORMAT_BEGIN
 90
        0
 91
        1
 62
     0
 92
       -2
340
14
 93
        0
 40
1.125
309
GRIDFORMAT_END
 95
        2
302
GRIDFORMAT
  1
GRIDFORMAT_BEGIN
 90
        0
 91
        1
 62
     0
 92
       -2
340
14
 93
        0
 40
1.125
309
GRIDFORMAT_END
 95
        4
302
GRIDFORMAT
  1
GRIDFORMAT_BEGIN
 90
        0
 91
        1
 62
     0
 92
       -2
340
14
 93
        0
 40
1.125
309
GRIDFORMAT_END
 95
        8
302
GRIDFORMAT
  1
GRIDFORMAT_BEGIN
 90
        0
 91
        1
 62
     0
 92
       -2
340
14
 93
        0
 40
1.125
309
GRIDFORMAT_END
 95
       16
302
GRIDFORMAT
  1
GRIDFORMAT_BEGIN
 90
        0
 91
        1
 62
     0
 92
       -2
340
14
 93
        0
 40
1.125
309
GRIDFORMAT_END
 95
       32
302
GRIDFORMAT
  1
GRIDFORMAT_BEGIN
 90
        0
 91
        1
 62
     0
 92
       -2
340
14
 93
        0
 40
1.125
309
GRIDFORMAT_END
309
TABLEFORMAT_END
  1
CELLSTYLE_BEGIN
 90
        2
 91
        1
300
_HEADER
309
CELLSTYLE_END
300
CELLSTYLE
  1
TABLEFORMAT_BEGIN
 90
        5
170
     1
 91
        0
 92
        0
 62
   257
 93
        1
300
CONTENTFORMAT
  1
CONTENTFORMAT_BEGIN
 90
        0
 91
        0
 92
      512
 93
        0
300

 40
0.0
140
1.0
 94
        2
 62
     0
340
11
144
4.5
309
CONTENTFORMAT_END
171
     1
301
MARGIN
  1
CELLMARGIN_BEGIN
 40
1.5
 40
1.5
 40
1.5
 40
1.5
 40
4.5
 40
4.5
309
CELLMARGIN_END
 94
        6
 95
        1
302
GRIDFORMAT
  1
GRIDFORMAT_BEGIN
 90
        0
 91
        1
 62
     0
 92
       -2
340
14
 93
        0
 40
1.125
309
GRIDFORMAT_END
 95
        2
302
GRIDFORMAT
  1
GRIDFORMAT_BEGIN
 90
        0
 91
        1
 62
     0
 92
       -2
340
14
 93
        0
 40
1.125
309
GRIDFORMAT_END
 95
        4
302
GRIDFORMAT
  1
GRIDFORMAT_BEGIN
 90
        0
 91
        1
 62
     0
 92
       -2
340
14
 93
        0
 40
1.125
309
GRIDFORMAT_END
 95
        8
302
GRIDFORMAT
  1
GRIDFORMAT_BEGIN
 90
        0
 91
        1
 62
     0
 92
       -2
340
14
 93
        0
 40
1.125
309
GRIDFORMAT_END
 95
       16
302
GRIDFORMAT
  1
GRIDFORMAT_BEGIN
 90
        0
 91
        1
 62
     0
 92
       -2
340
14
 93
        0
 40
1.125
309
GRIDFORMAT_END
 95
       32
302
GRIDFORMAT
  1
GRIDFORMAT_BEGIN
 90
        0
 91
        1
 62
     0
 92
       -2
340
14
 93
        0
 40
1.125
309
GRIDFORMAT_END
309
TABLEFORMAT_END
  1
CELLSTYLE_BEGIN
 90
        3
 91
        2
300
_DATA
309
CELLSTYLE_END
  0
XRECORD
  5
392
102
{ACAD_REACTORS
330
162
102
}
330
162
100
AcDbXrecord
280
     1
102
ACAD_ROUNDTRIP_PRE2007_TABLESTYLE
 90
      512
 91
        0
  1

 92
      512
 93
        0
  2

 94
      512
 95
        0
  3

  0
ENDSEC
  0
EOF
