  0
SECTION
  2
HEADER
  9
$ACADVER
  1
AC1015
  9
$ACADMAINTVER
 70
    20
  9
$DWGCODEPAGE
  3
ANSI_1254
  9
$INSBASE
 10
0.0
 20
0.0
 30
0.0
  9
$EXTMIN
 10
2295.956595224712
 20
1268.493786603898
 30
0.0
  9
$EXTMAX
 10
2410.807039717052
 20
1334.652248465507
 30
0.0
  9
$LIMMIN
 10
0.0
 20
0.0
  9
$LIMMAX
 10
420.0
 20
297.0
  9
$ORTHOMODE
 70
     0
  9
$REGENMODE
 70
     1
  9
$FILLMODE
 70
     1
  9
$QTEXTMODE
 70
     0
  9
$MIRRTEXT
 70
     0
  9
$LTSCALE
 40
1.0
  9
$ATTMODE
 70
     1
  9
$TEXTSIZE
 40
2.5
  9
$TRACEWID
 40
1.0
  9
$TEXTSTYLE
  7
Standard
  9
$CLAYER
  8
0
  9
$CELTYPE
  6
ByLayer
  9
$CECOLOR
 62
   256
  9
$CELTSCALE
 40
1.0
  9
$DISPSILH
 70
     0
  9
$DIMSCALE
 40
1.0
  9
$DIMASZ
 40
2.5
  9
$DIMEXO
 40
0.625
  9
$DIMDLI
 40
3.75
  9
$DIMRND
 40
0.0
  9
$DIMDLE
 40
0.0
  9
$DIMEXE
 40
1.25
  9
$DIMTP
 40
0.0
  9
$DIMTM
 40
0.0
  9
$DIMTXT
 40
2.5
  9
$DIMCEN
 40
2.5
  9
$DIMTSZ
 40
0.0
  9
$DIMTOL
 70
     0
  9
$DIMLIM
 70
     0
  9
$DIMTIH
 70
     0
  9
$DIMTOH
 70
     0
  9
$DIMSE1
 70
     0
  9
$DIMSE2
 70
     0
  9
$DIMTAD
 70
     1
  9
$DIMZIN
 70
     8
  9
$DIMBLK
  1

  9
$DIMASO
 70
     1
  9
$DIMSHO
 70
     1
  9
$DIMPOST
  1

  9
$DIMAPOST
  1

  9
$DIMALT
 70
     0
  9
$DIMALTD
 70
     3
  9
$DIMALTF
 40
0.03937007874016
  9
$DIMLFAC
 40
1.0
  9
$DIMTOFL
 70
     1
  9
$DIMTVP
 40
0.0
  9
$DIMTIX
 70
     0
  9
$DIMSOXD
 70
     0
  9
$DIMSAH
 70
     0
  9
$DIMBLK1
  1

  9
$DIMBLK2
  1

  9
$DIMSTYLE
  2
ISO-25
  9
$DIMCLRD
 70
     0
  9
$DIMCLRE
 70
     0
  9
$DIMCLRT
 70
     0
  9
$DIMTFAC
 40
1.0
  9
$DIMGAP
 40
0.625
  9
$DIMJUST
 70
     0
  9
$DIMSD1
 70
     0
  9
$DIMSD2
 70
     0
  9
$DIMTOLJ
 70
     0
  9
$DIMTZIN
 70
     8
  9
$DIMALTZ
 70
     0
  9
$DIMALTTZ
 70
     0
  9
$DIMUPT
 70
     0
  9
$DIMDEC
 70
     2
  9
$DIMTDEC
 70
     2
  9
$DIMALTU
 70
     2
  9
$DIMALTTD
 70
     3
  9
$DIMTXSTY
  7
Standard
  9
$DIMAUNIT
 70
     0
  9
$DIMADEC
 70
     0
  9
$DIMALTRND
 40
0.0
  9
$DIMAZIN
 70
     0
  9
$DIMDSEP
 70
    44
  9
$DIMATFIT
 70
     3
  9
$DIMFRAC
 70
     0
  9
$DIMLDRBLK
  1

  9
$DIMLUNIT
 70
     2
  9
$DIMLWD
 70
    -2
  9
$DIMLWE
 70
    -2
  9
$DIMTMOVE
 70
     0
  9
$LUNITS
 70
     2
  9
$LUPREC
 70
     4
  9
$SKETCHINC
 40
1.0
  9
$FILLETRAD
 40
0.0
  9
$AUNITS
 70
     0
  9
$AUPREC
 70
     0
  9
$MENU
  1
.
  9
$ELEVATION
 40
0.0
  9
$PELEVATION
 40
0.0
  9
$THICKNESS
 40
0.0
  9
$LIMCHECK
 70
     0
  9
$CHAMFERA
 40
0.0
  9
$CHAMFERB
 40
0.0
  9
$CHAMFERC
 40
0.0
  9
$CHAMFERD
 40
0.0
  9
$SKPOLY
 70
     0
  9
$TDCREATE
 40
2459059.721644560
  9
$TDUCREATE
 40
2459059.596644561
  9
$TDUPDATE
 40
2459067.636982396
  9
$TDUUPDATE
 40
2459067.511982396
  9
$TDINDWG
 40
0.0004488657
  9
$TDUSRTIMER
 40
0.0004488657
  9
$USRTIMER
 70
     1
  9
$ANGBASE
 50
0.0
  9
$ANGDIR
 70
     0
  9
$PDMODE
 70
     0
  9
$PDSIZE
 40
0.0
  9
$PLINEWID
 40
0.0
  9
$SPLFRAME
 70
     0
  9
$SPLINETYPE
 70
     6
  9
$SPLINESEGS
 70
     8
  9
$HANDSEED
  5
2FF
  9
$SURFTAB1
 70
     6
  9
$SURFTAB2
 70
     6
  9
$SURFTYPE
 70
     6
  9
$SURFU
 70
     6
  9
$SURFV
 70
     6
  9
$UCSBASE
  2

  9
$UCSNAME
  2

  9
$UCSORG
 10
0.0
 20
0.0
 30
0.0
  9
$UCSXDIR
 10
1.0
 20
0.0
 30
0.0
  9
$UCSYDIR
 10
0.0
 20
1.0
 30
0.0
  9
$UCSORTHOREF
  2

  9
$UCSORTHOVIEW
 70
     0
  9
$UCSORGTOP
 10
0.0
 20
0.0
 30
0.0
  9
$UCSORGBOTTOM
 10
0.0
 20
0.0
 30
0.0
  9
$UCSORGLEFT
 10
0.0
 20
0.0
 30
0.0
  9
$UCSORGRIGHT
 10
0.0
 20
0.0
 30
0.0
  9
$UCSORGFRONT
 10
0.0
 20
0.0
 30
0.0
  9
$UCSORGBACK
 10
0.0
 20
0.0
 30
0.0
  9
$PUCSBASE
  2

  9
$PUCSNAME
  2

  9
$PUCSORG
 10
0.0
 20
0.0
 30
0.0
  9
$PUCSXDIR
 10
1.0
 20
0.0
 30
0.0
  9
$PUCSYDIR
 10
0.0
 20
1.0
 30
0.0
  9
$PUCSORTHOREF
  2

  9
$PUCSORTHOVIEW
 70
     0
  9
$PUCSORGTOP
 10
0.0
 20
0.0
 30
0.0
  9
$PUCSORGBOTTOM
 10
0.0
 20
0.0
 30
0.0
  9
$PUCSORGLEFT
 10
0.0
 20
0.0
 30
0.0
  9
$PUCSORGRIGHT
 10
0.0
 20
0.0
 30
0.0
  9
$PUCSORGFRONT
 10
0.0
 20
0.0
 30
0.0
  9
$PUCSORGBACK
 10
0.0
 20
0.0
 30
0.0
  9
$USERI1
 70
     0
  9
$USERI2
 70
     0
  9
$USERI3
 70
     0
  9
$USERI4
 70
     0
  9
$USERI5
 70
     0
  9
$USERR1
 40
0.0
  9
$USERR2
 40
0.0
  9
$USERR3
 40
0.0
  9
$USERR4
 40
0.0
  9
$USERR5
 40
0.0
  9
$WORLDVIEW
 70
     1
  9
$SHADEDGE
 70
     3
  9
$SHADEDIF
 70
    70
  9
$TILEMODE
 70
     1
  9
$MAXACTVP
 70
    64
  9
$PINSBASE
 10
0.0
 20
0.0
 30
0.0
  9
$PLIMCHECK
 70
     0
  9
$PEXTMIN
 10
0.0
 20
0.0
 30
0.0
  9
$PEXTMAX
 10
0.0
 20
0.0
 30
0.0
  9
$PLIMMIN
 10
0.0
 20
0.0
  9
$PLIMMAX
 10
12.0
 20
9.0
  9
$UNITMODE
 70
     0
  9
$VISRETAIN
 70
     1
  9
$PLINEGEN
 70
     0
  9
$PSLTSCALE
 70
     1
  9
$TREEDEPTH
 70
  3020
  9
$CMLSTYLE
  2
Standard
  9
$CMLJUST
 70
     0
  9
$CMLSCALE
 40
20.0
  9
$PROXYGRAPHICS
 70
     1
  9
$MEASUREMENT
 70
     1
  9
$CELWEIGHT
370
    -1
  9
$ENDCAPS
280
     0
  9
$JOINSTYLE
280
     0
  9
$LWDISPLAY
290
     0
  9
$INSUNITS
 70
     4
  9
$HYPERLINKBASE
  1

  9
$STYLESHEET
  1

  9
$XEDIT
290
     1
  9
$CEPSNTYPE
380
     0
  9
$PSTYLEMODE
290
     1
  9
$FINGERPRINTGUID
  2
{52FA9977-E588-417C-97F2-5F7494ACE73C}
  9
$VERSIONGUID
  2
{ECA88208-DA1A-4240-B4B9-BEEDAB6BA2CD}
  9
$EXTNAMES
290
     1
  9
$PSVPSCALE
 40
0.0
  9
$OLESTARTUP
290
     0
  0
ENDSEC
  0
SECTION
  2
CLASSES
  0
CLASS
  1
ACDBDICTIONARYWDFLT
  2
AcDbDictionaryWithDefault
  3
ObjectDBX Classes
 90
        0
280
     0
281
     0
  0
CLASS
  1
ACDBPLACEHOLDER
  2
AcDbPlaceHolder
  3
ObjectDBX Classes
 90
        0
280
     0
281
     0
  0
CLASS
  1
LAYOUT
  2
AcDbLayout
  3
ObjectDBX Classes
 90
        0
280
     0
281
     0
  0
CLASS
  1
DICTIONARYVAR
  2
AcDbDictionaryVar
  3
ObjectDBX Classes
 90
        0
280
     0
281
     0
  0
CLASS
  1
TABLESTYLE
  2
AcDbTableStyle
  3
ObjectDBX Classes
 90
     4095
280
     0
281
     0
  0
CLASS
  1
MATERIAL
  2
AcDbMaterial
  3
ObjectDBX Classes
 90
     1153
280
     0
281
     0
  0
CLASS
  1
VISUALSTYLE
  2
AcDbVisualStyle
  3
ObjectDBX Classes
 90
     4095
280
     0
281
     0
  0
CLASS
  1
SCALE
  2
AcDbScale
  3
ObjectDBX Classes
 90
     1153
280
     0
281
     0
  0
CLASS
  1
MLEADERSTYLE
  2
AcDbMLeaderStyle
  3
ACDB_MLEADERSTYLE_CLASS
 90
     4095
280
     0
281
     0
  0
CLASS
  1
CELLSTYLEMAP
  2
AcDbCellStyleMap
  3
ObjectDBX Classes
 90
     1152
280
     0
281
     0
  0
ENDSEC
  0
SECTION
  2
TABLES
  0
TABLE
  2
VPORT
  5
8
330
0
100
AcDbSymbolTable
 70
     1
  0
VPORT
  5
EA
330
8
100
AcDbSymbolTableRecord
100
AcDbViewportTableRecord
  2
*Active
 70
     0
 10
0.0
 20
0.0
 11
1.0
 21
1.0
 12
2352.915363428603
 22
1299.920448892767
 13
0.0
 23
0.0
 14
10.0
 24
10.0
 15
10.0
 25
10.0
 16
0.0
 26
0.0
 36
1.0
 17
0.0
 27
0.0
 37
0.0
 40
73.51410214133011
 41
1.903110047846889
 42
50.0
 43
0.0
 44
0.0
 50
0.0
 51
0.0
 71
     0
 72
  1000
 73
     1
 74
     3
 75
     0
 76
     0
 77
     0
 78
     0
281
     0
 65
     1
110
0.0
120
0.0
130
0.0
111
1.0
121
0.0
131
0.0
112
0.0
122
1.0
132
0.0
 79
     0
146
0.0
  0
ENDTAB
  0
TABLE
  2
LTYPE
  5
5
330
0
100
AcDbSymbolTable
 70
     1
  0
LTYPE
  5
14
330
5
100
AcDbSymbolTableRecord
100
AcDbLinetypeTableRecord
  2
ByBlock
 70
     0
  3

 72
    65
 73
     0
 40
0.0
  0
LTYPE
  5
15
330
5
100
AcDbSymbolTableRecord
100
AcDbLinetypeTableRecord
  2
ByLayer
 70
     0
  3

 72
    65
 73
     0
 40
0.0
  0
LTYPE
  5
16
330
5
100
AcDbSymbolTableRecord
100
AcDbLinetypeTableRecord
  2
Continuous
 70
     0
  3
Solid line
 72
    65
 73
     0
 40
0.0
  0
ENDTAB
  0
TABLE
  2
LAYER
  5
2
330
0
100
AcDbSymbolTable
 70
     1
  0
LAYER
  5
10
102
{ACAD_XDICTIONARY
360
13C
102
}
330
2
100
AcDbSymbolTableRecord
100
AcDbLayerTableRecord
  2
0
 70
     0
 62
     7
  6
Continuous
370
    -3
390
F
  0
ENDTAB
  0
TABLE
  2
STYLE
  5
3
330
0
100
AcDbSymbolTable
 70
     2
  0
STYLE
  5
11
330
3
100
AcDbSymbolTableRecord
100
AcDbTextStyleTableRecord
  2
Standard
 70
     0
 40
0.0
 41
1.0
 50
0.0
 71
     0
 42
2.5
  3
txt
  4

  0
STYLE
  5
132
330
3
100
AcDbSymbolTableRecord
100
AcDbTextStyleTableRecord
  2
Annotative
 70
     0
 40
0.0
 41
1.0
 50
0.0
 71
     0
 42
2.5
  3
txt.shx
  4

1001
AcadAnnotative
1000
AnnotativeData
1002
{
1070
     1
1070
     1
1002
}
  0
ENDTAB
  0
TABLE
  2
VIEW
  5
6
330
0
100
AcDbSymbolTable
 70
     0
  0
ENDTAB
  0
TABLE
  2
UCS
  5
7
330
0
100
AcDbSymbolTable
 70
     0
  0
ENDTAB
  0
TABLE
  2
APPID
  5
9
330
0
100
AcDbSymbolTable
 70
     7
  0
APPID
  5
12
330
9
100
AcDbSymbolTableRecord
100
AcDbRegAppTableRecord
  2
ACAD
 70
     0
  0
APPID
  5
9E
330
9
100
AcDbSymbolTableRecord
100
AcDbRegAppTableRecord
  2
ACAD_PSEXT
 70
     0
  0
APPID
  5
133
330
9
100
AcDbSymbolTableRecord
100
AcDbRegAppTableRecord
  2
AcadAnnoPO
 70
     0
  0
APPID
  5
134
330
9
100
AcDbSymbolTableRecord
100
AcDbRegAppTableRecord
  2
AcadAnnotative
 70
     0
  0
APPID
  5
135
330
9
100
AcDbSymbolTableRecord
100
AcDbRegAppTableRecord
  2
ACAD_DSTYLE_DIMJAG
 70
     0
  0
APPID
  5
136
330
9
100
AcDbSymbolTableRecord
100
AcDbRegAppTableRecord
  2
ACAD_DSTYLE_DIMTALN
 70
     0
  0
APPID
  5
165
330
9
100
AcDbSymbolTableRecord
100
AcDbRegAppTableRecord
  2
ACAD_MLEADERVER
 70
     0
  0
ENDTAB
  0
TABLE
  2
DIMSTYLE
  5
A
330
0
100
AcDbSymbolTable
 70
     2
100
AcDbDimStyleTable
 71
     2
340
27
340
137
  0
DIMSTYLE
105
27
330
A
100
AcDbSymbolTableRecord
100
AcDbDimStyleTableRecord
  2
ISO-25
 70
     0
 41
2.5
 42
0.625
 43
3.75
 44
1.25
 73
     0
 74
     0
 77
     1
 78
     8
140
2.5
141
2.5
143
0.03937007874016
147
0.625
171
     3
172
     1
271
     2
272
     2
274
     3
278
    44
283
     0
284
     8
340
11
  0
DIMSTYLE
105
137
330
A
100
AcDbSymbolTableRecord
100
AcDbDimStyleTableRecord
  2
Annotative
 70
     0
 40
0.0
 41
2.5
 42
0.625
 43
3.75
 44
1.25
 73
     0
 74
     0
 77
     1
 78
     8
140
2.5
141
2.5
143
0.03937007874016
147
0.625
171
     3
172
     1
271
     2
272
     2
274
     3
278
    44
283
     0
284
     8
340
11
1001
AcadAnnotative
1000
AnnotativeData
1002
{
1070
     1
1070
     1
1002
}
1001
ACAD_DSTYLE_DIMJAG
1070
   388
1040
1.5
1001
ACAD_DSTYLE_DIMTALN
1070
   392
1070
     0
  0
ENDTAB
  0
TABLE
  2
BLOCK_RECORD
  5
1
330
0
100
AcDbSymbolTable
 70
     5
  0
BLOCK_RECORD
  5
1F
330
1
100
AcDbSymbolTableRecord
100
AcDbBlockTableRecord
  2
*Model_Space
340
22
  0
BLOCK_RECORD
  5
D2
330
1
100
AcDbSymbolTableRecord
100
AcDbBlockTableRecord
  2
*Paper_Space
340
D3
  0
BLOCK_RECORD
  5
D6
330
1
100
AcDbSymbolTableRecord
100
AcDbBlockTableRecord
  2
*Paper_Space0
340
D7
  0
BLOCK_RECORD
  5
1AD
330
1
100
AcDbSymbolTableRecord
100
AcDbBlockTableRecord
  2
SW_CENTERMARKSYMBOL_0
340
0
102
{BLKREFS
331
294
102
}
  0
BLOCK_RECORD
  5
27A
330
1
100
AcDbSymbolTableRecord
100
AcDbBlockTableRecord
  2
1
340
0
310
2800000020000000200000000100080000000000000400000000000000000000000000000000000000000000000080000080000000808000800000008000800080800000C0C0C000C0DCC000F0CAA6000020400000206000002080000020A0000020C0000020E00000400000004020000040400000406000004080000040A0
310
000040C0000040E00000600000006020000060400000606000006080000060A0000060C0000060E00000800000008020000080400000806000008080000080A0000080C0000080E00000A0000000A0200000A0400000A0600000A0800000A0A00000A0C00000A0E00000C0000000C0200000C0400000C0600000C0800000C0
310
A00000C0C00000C0E00000E0000000E0200000E0400000E0600000E0800000E0A00000E0C00000E0E00040000000400020004000400040006000400080004000A0004000C0004000E00040200000402020004020400040206000402080004020A0004020C0004020E000404000004040200040404000404060004040800040
310
40A0004040C0004040E00040600000406020004060400040606000406080004060A0004060C0004060E00040800000408020004080400040806000408080004080A0004080C0004080E00040A0000040A0200040A0400040A0600040A0800040A0A00040A0C00040A0E00040C0000040C0200040C0400040C0600040C08000
310
40C0A00040C0C00040C0E00040E0000040E0200040E0400040E0600040E0800040E0A00040E0C00040E0E00080000000800020008000400080006000800080008000A0008000C0008000E00080200000802020008020400080206000802080008020A0008020C0008020E00080400000804020008040400080406000804080
310
008040A0008040C0008040E00080600000806020008060400080606000806080008060A0008060C0008060E00080800000808020008080400080806000808080008080A0008080C0008080E00080A0000080A0200080A0400080A0600080A0800080A0A00080A0C00080A0E00080C0000080C0200080C0400080C0600080C0
310
800080C0A00080C0C00080C0E00080E0000080E0200080E0400080E0600080E0800080E0A00080E0C00080E0E000C0000000C0002000C0004000C0006000C0008000C000A000C000C000C000E000C0200000C0202000C0204000C0206000C0208000C020A000C020C000C020E000C0400000C0402000C0404000C0406000C0
310
408000C040A000C040C000C040E000C0600000C0602000C0604000C0606000C0608000C060A000C060C000C060E000C0800000C0802000C0804000C0806000C0808000C080A000C080C000C080E000C0A00000C0A02000C0A04000C0A06000C0A08000C0A0A000C0A0C000C0A0E000C0C00000C0C02000C0C04000C0C06000
310
C0C08000C0C0A000F0FBFF00A4A0A000808080000000FF0000FF000000FFFF00FF000000FF00FF00FFFF0000FFFFFF0000000000000000000000000000000000000000000000000000000000000000000000000000000000000000000000000000000000000000000000000000000000000000000000000000000000000000
310
0000000000000000000000000000000000000000000000000000FFFFFFFFFFFFFFFFFFFFFFFFFFFF00000000000000000000000000000000FFFF0000000000000000000000000000FFFF0000000000000000000000000000FF0000000000000000FF0000000000000000FF000000000000000000000000FF000000000000FF
310
FFFFFFFFFFFF0000000000FF000000000000000000000000FF000000FFFFFFFF0000FF00FFFFFFFF00000000FF00000000000000000000FF000000FFFFFF00000000FF00000000FFFF000000FF00000000000000000000FF0000FFFF000000000000FF0000000000FFFF000000FF0000000000000000FF0000FFFF00000000
310
000000FF000000000000FFFF0000FF0000000000000000FF0000FFFF00000000000000FF00000000000000FF000000FF000000000000FF0000FFFF0000000000000000FF00000000000000FFFF0000FF000000000000FF0000FFFF00000000000000000000000000000000FFFF000000FF00000000FF000000FF0000000000
310
00000000FF0000000000000000FF000000FF00000000FF000000FF000000000000000000FF0000000000000000FF000000FF00000000FF0000FFFFFFFFFFFFFFFF00FFFFFFFF00FFFFFFFFFFFFFFFF0000FF00000000FF000000FF000000000000000000FF0000000000000000FF000000FF0000000000FF0000FFFF000000
310
00000000000000000000000000FFFF000000FF0000000000FF000000FF0000000000000000FF00000000000000FF000000FF00000000000000FF0000FF0000000000000000FF0000000000FFFFFF000000FF00000000000000FF0000FFFF00000000000000FF00FFFFFFFF0000000000FF000000000000000000FF0000FFFF
310
000000FFFFFFFFFF000000000000000000FF000000000000000000FF000000FFFFFFFF000000FF000000000000000000FF0000000000000000000000FF000000000000000000FF000000000000000000FF0000000000000000000000FF000000000000000000FF0000000000000000FF00000000000000000000000000FF00
310
00000000000000FF0000000000000000FF00000000000000000000000000FFFF0000000000000000000000000000FFFF00000000000000000000000000000000FFFFFFFFFFFFFFFFFFFFFFFFFFFF00000000000000000000000000000000000000000000000000000000000000000000000000000000000000000000000000
310
0000000000000000000000000000000000000000000000000000000000000000000000000000000000000000000000000000000000000000
102
{BLKREFS
331
295
102
}
1001
ACAD
1000
DesignCenter Data
1002
{
1070
     1
1070
     4
1002
}
  0
BLOCK_RECORD
  5
296
330
1
100
AcDbSymbolTableRecord
100
AcDbBlockTableRecord
  2
2
340
0
310
2800000020000000200000000100080000000000000400000000000000000000000000000000000000000000000080000080000000808000800000008000800080800000C0C0C000C0DCC000F0CAA6000020400000206000002080000020A0000020C0000020E00000400000004020000040400000406000004080000040A0
310
000040C0000040E00000600000006020000060400000606000006080000060A0000060C0000060E00000800000008020000080400000806000008080000080A0000080C0000080E00000A0000000A0200000A0400000A0600000A0800000A0A00000A0C00000A0E00000C0000000C0200000C0400000C0600000C0800000C0
310
A00000C0C00000C0E00000E0000000E0200000E0400000E0600000E0800000E0A00000E0C00000E0E00040000000400020004000400040006000400080004000A0004000C0004000E00040200000402020004020400040206000402080004020A0004020C0004020E000404000004040200040404000404060004040800040
310
40A0004040C0004040E00040600000406020004060400040606000406080004060A0004060C0004060E00040800000408020004080400040806000408080004080A0004080C0004080E00040A0000040A0200040A0400040A0600040A0800040A0A00040A0C00040A0E00040C0000040C0200040C0400040C0600040C08000
310
40C0A00040C0C00040C0E00040E0000040E0200040E0400040E0600040E0800040E0A00040E0C00040E0E00080000000800020008000400080006000800080008000A0008000C0008000E00080200000802020008020400080206000802080008020A0008020C0008020E00080400000804020008040400080406000804080
310
008040A0008040C0008040E00080600000806020008060400080606000806080008060A0008060C0008060E00080800000808020008080400080806000808080008080A0008080C0008080E00080A0000080A0200080A0400080A0600080A0800080A0A00080A0C00080A0E00080C0000080C0200080C0400080C0600080C0
310
800080C0A00080C0C00080C0E00080E0000080E0200080E0400080E0600080E0800080E0A00080E0C00080E0E000C0000000C0002000C0004000C0006000C0008000C000A000C000C000C000E000C0200000C0202000C0204000C0206000C0208000C020A000C020C000C020E000C0400000C0402000C0404000C0406000C0
310
408000C040A000C040C000C040E000C0600000C0602000C0604000C0606000C0608000C060A000C060C000C060E000C0800000C0802000C0804000C0806000C0808000C080A000C080C000C080E000C0A00000C0A02000C0A04000C0A06000C0A08000C0A0A000C0A0C000C0A0E000C0C00000C0C02000C0C04000C0C06000
310
C0C08000C0C0A000F0FBFF00A4A0A000808080000000FF0000FF000000FFFF00FF000000FF00FF00FFFF0000FFFFFF0000000000000000000000000000000000000000000000000000000000000000000000000000000000000000000000000000000000000000000000000000000000000000000000000000000000000000
310
00000000000000000000000000000000000000000000000000000000000000000000000000000000000000000000000000000000000000000000000000000000000000000000000000000000000000000000000000000000000000000000000000000000000000000000000000000000000000000000000000000000000000
310
00000000000000000000000000000000000000000000000000000000000000000000000000000000000000000000000000000000000000000000000000000000000000000000000000000000000000000000000000000000000000000000000000000000000000000000000000000000000000000000000000000000000000
310
000000000000000000000000000000000000000000000000000000000000000000000000000000000000000000000000000000000000000000000000000000000000000000000000000000000000000000000000FFFFFFFFFFFFFFFFFFFFFFFFFFFFFFFFFFFFFFFFFFFFFFFFFFFFFFFFFFFF0000FFFF00000000FF0000FF00
310
000000000000000000FF0000FF00000000FFFF0000FFFF00000000FF0000FF00000000000000000000FF0000FF00000000FFFF0000FFFFFFFFFFFFFF0000FFFFFFFFFFFFFFFFFFFFFFFF0000FFFFFFFFFFFFFF0000FF00000000000000000000000000000000000000000000000000000000FF0000FFFFFFFFFFFFFFFFFFFF
310
FFFFFFFFFFFFFFFFFFFFFFFFFFFFFFFFFFFFFFFF0000000000000000000000000000000000000000000000000000000000000000000000000000000000000000000000000000000000000000000000000000000000000000000000000000000000000000000000000000000000000000000000000000000000000000000000
310
00000000000000000000000000000000000000000000000000000000000000000000000000000000000000000000000000000000000000000000000000000000000000000000000000000000000000000000000000000000000000000000000000000000000000000000000000000000000000000000000000000000000000
310
00000000000000000000000000000000000000000000000000000000000000000000000000000000000000000000000000000000000000000000000000000000000000000000000000000000000000000000000000000000000000000000000000000000000000000000000000000000000000000000000000000000000000
310
0000000000000000000000000000000000000000000000000000000000000000000000000000000000000000000000000000000000000000
102
{BLKREFS
331
2AD
102
}
1001
ACAD
1000
DesignCenter Data
1002
{
1070
     1
1070
     4
1002
}
  0
BLOCK_RECORD
  5
2AE
330
1
100
AcDbSymbolTableRecord
100
AcDbBlockTableRecord
  2
3
340
0
310
2800000020000000200000000100080000000000000400000000000000000000000000000000000000000000000080000080000000808000800000008000800080800000C0C0C000C0DCC000F0CAA6000020400000206000002080000020A0000020C0000020E00000400000004020000040400000406000004080000040A0
310
000040C0000040E00000600000006020000060400000606000006080000060A0000060C0000060E00000800000008020000080400000806000008080000080A0000080C0000080E00000A0000000A0200000A0400000A0600000A0800000A0A00000A0C00000A0E00000C0000000C0200000C0400000C0600000C0800000C0
310
A00000C0C00000C0E00000E0000000E0200000E0400000E0600000E0800000E0A00000E0C00000E0E00040000000400020004000400040006000400080004000A0004000C0004000E00040200000402020004020400040206000402080004020A0004020C0004020E000404000004040200040404000404060004040800040
310
40A0004040C0004040E00040600000406020004060400040606000406080004060A0004060C0004060E00040800000408020004080400040806000408080004080A0004080C0004080E00040A0000040A0200040A0400040A0600040A0800040A0A00040A0C00040A0E00040C0000040C0200040C0400040C0600040C08000
310
40C0A00040C0C00040C0E00040E0000040E0200040E0400040E0600040E0800040E0A00040E0C00040E0E00080000000800020008000400080006000800080008000A0008000C0008000E00080200000802020008020400080206000802080008020A0008020C0008020E00080400000804020008040400080406000804080
310
008040A0008040C0008040E00080600000806020008060400080606000806080008060A0008060C0008060E00080800000808020008080400080806000808080008080A0008080C0008080E00080A0000080A0200080A0400080A0600080A0800080A0A00080A0C00080A0E00080C0000080C0200080C0400080C0600080C0
310
800080C0A00080C0C00080C0E00080E0000080E0200080E0400080E0600080E0800080E0A00080E0C00080E0E000C0000000C0002000C0004000C0006000C0008000C000A000C000C000C000E000C0200000C0202000C0204000C0206000C0208000C020A000C020C000C020E000C0400000C0402000C0404000C0406000C0
310
408000C040A000C040C000C040E000C0600000C0602000C0604000C0606000C0608000C060A000C060C000C060E000C0800000C0802000C0804000C0806000C0808000C080A000C080C000C080E000C0A00000C0A02000C0A04000C0A06000C0A08000C0A0A000C0A0C000C0A0E000C0C00000C0C02000C0C04000C0C06000
310
C0C08000C0C0A000F0FBFF00A4A0A000808080000000FF0000FF000000FFFF00FF000000FF00FF00FFFF0000FFFFFF0000000000000000000000000000000000000000000000000000000000000000000000000000000000000000000000000000000000000000000000000000000000000000000000000000000000000000
310
00000000000000000000000000000000000000000000000000000000000000000000000000000000000000000000000000000000000000000000000000000000000000000000000000000000000000000000000000000000000000FFFFFFFFFFFFFFFFFFFFFF00000000000000000000000000000000000000FFFFFF0000FF
310
FFFF0000000000FFFFFF0000000000000000000000000000FFFF0000FF0000FF0000FFFFFFFFFFFF0000FFFF00000000000000000000FFFF0000FFFFFF00FFFFFFFF000000000000FFFFFFFFFF0000000000000000FFFF00FFFF0000FFFF00000000FFFFFFFFFFFF0000FF00FFFF00000000000000FF00FF0000FFFF000000
310
000000000000000000FFFFFF00FFFFFF0000000000FFFFFF0000FF00000000FFFFFFFFFFFFFFFF0000000000FFFFFFFFFF00000000FF0000FFFF0000FFFFFFFF000000000000FFFFFF00000000FF00FFFF000000FFFFFFFF000000FFFF000000000000000000000000FFFF000000FFFFFFFF0000FFFF00000000FFFF000000
310
0000000000000000000000FFFF0000FF00FFFF0000FFFF00000000FF00000000000000000000000000000000FF000000FFFFFF0000FF00000000FFFF00000000000000000000000000000000FFFF0000FF00FF000000FF000000FFFF00000000000000000000000000000000FFFF000000FFFF000000FF000000FFFFFFFF00
310
000000000000000000000000FFFFFF000000FF0000000000FF0000FFFFFFFFFFFF0000000000000000FFFFFFFFFFFF000000FF0000000000FF000000FFFFFFFFFFFFFFFFFFFFFFFFFFFFFFFFFFFF00000000FF000000000000FF000000FFFFFFFFFFFFFFFFFFFFFFFFFFFFFFFFFF0000FFFF00000000000000FF00000000FF
310
FFFFFFFFFFFFFFFFFFFFFFFFFF0000FFFF00000000000000000000FF000000000000FFFFFFFFFFFFFFFFFF000000FF00000000000000000000000000FFFFFFFF000000000000000000000000FFFF000000000000000000000000000000000000FFFFFFFFFFFF00000000FFFF00000000000000000000000000000000000000
310
00000000000000FFFFFFFF0000000000000000000000000000000000000000000000000000000000000000000000000000000000000000000000000000000000000000000000000000000000000000000000000000000000000000000000000000000000000000000000000000000000000000000000000000000000000000
310
0000000000000000000000000000000000000000000000000000000000000000000000000000000000000000000000000000000000000000
102
{BLKREFS
331
2E4
102
}
1001
ACAD
1000
DesignCenter Data
1002
{
1070
     1
1070
     4
1002
}
  0
ENDTAB
  0
ENDSEC
  0
SECTION
  2
BLOCKS
  0
BLOCK
  5
20
330
1F
100
AcDbEntity
  8
0
100
AcDbBlockBegin
  2
*Model_Space
 70
     0
 10
0.0
 20
0.0
 30
0.0
  3
*Model_Space
  1

  0
ENDBLK
  5
21
330
1F
100
AcDbEntity
  8
0
100
AcDbBlockEnd
  0
BLOCK
  5
D4
330
D2
100
AcDbEntity
 67
     1
  8
0
100
AcDbBlockBegin
  2
*Paper_Space
 70
     0
 10
0.0
 20
0.0
 30
0.0
  3
*Paper_Space
  1

  0
ENDBLK
  5
D5
330
D2
100
AcDbEntity
 67
     1
  8
0
100
AcDbBlockEnd
  0
BLOCK
  5
D8
330
D6
100
AcDbEntity
 67
     1
  8
0
100
AcDbBlockBegin
  2
*Paper_Space0
 70
     0
 10
0.0
 20
0.0
 30
0.0
  3
*Paper_Space0
  1

  0
ENDBLK
  5
D9
330
D6
100
AcDbEntity
 67
     1
  8
0
100
AcDbBlockEnd
  0
BLOCK
  5
1AE
330
1AD
100
AcDbEntity
  8
0
100
AcDbBlockBegin
  2
SW_CENTERMARKSYMBOL_0
 70
     0
 10
0.0
 20
0.0
 30
0.0
  3
SW_CENTERMARKSYMBOL_0
  1

  0
LINE
  5
1AF
330
1AD
100
AcDbEntity
  8
0
  6
Continuous
 62
     0
370
     0
100
AcDbLine
 10
0.0
 20
0.0
 30
0.0
 11
0.0
 21
2.500000000000002
 31
0.0
  0
LINE
  5
1B0
330
1AD
100
AcDbEntity
  8
0
  6
Continuous
 62
     0
370
     0
100
AcDbLine
 10
0.0
 20
0.0
 30
0.0
 11
-2.500000000000002
 21
0.0
 31
0.0
  0
LINE
  5
1B1
330
1AD
100
AcDbEntity
  8
0
  6
Continuous
 62
     0
370
     0
100
AcDbLine
 10
0.0
 20
0.0
 30
0.0
 11
0.0
 21
-2.500000000000002
 31
0.0
  0
LINE
  5
1B2
330
1AD
100
AcDbEntity
  8
0
  6
Continuous
 62
     0
370
     0
100
AcDbLine
 10
0.0
 20
0.0
 30
0.0
 11
2.500000000000002
 21
0.0
 31
0.0
  0
LINE
  5
1B3
330
1AD
100
AcDbEntity
  8
0
  6
Continuous
 62
     0
370
     0
100
AcDbLine
 10
0.0
 20
5.000000000000004
 30
0.0
 11
0.0
 21
17.70000000000002
 31
0.0
  0
LINE
  5
1B4
330
1AD
100
AcDbEntity
  8
0
  6
Continuous
 62
     0
370
     0
100
AcDbLine
 10
-5.000000000000004
 20
0.0
 30
0.0
 11
-17.70000000000002
 21
0.0
 31
0.0
  0
LINE
  5
1B5
330
1AD
100
AcDbEntity
  8
0
  6
Continuous
 62
     0
370
     0
100
AcDbLine
 10
0.0
 20
-5.000000000000004
 30
0.0
 11
0.0
 21
-17.70000000000002
 31
0.0
  0
LINE
  5
1B6
330
1AD
100
AcDbEntity
  8
0
  6
Continuous
 62
     0
370
     0
100
AcDbLine
 10
5.000000000000004
 20
0.0
 30
0.0
 11
17.70000000000002
 21
0.0
 31
0.0
  0
ENDBLK
  5
1B7
330
1AD
100
AcDbEntity
  8
0
100
AcDbBlockEnd
  0
BLOCK
  5
27B
330
27A
100
AcDbEntity
  8
0
100
AcDbBlockBegin
  2
1
 70
     0
 10
0.0
 20
0.0
 30
0.0
  3
1
  1

  0
SPLINE
  5
27D
330
27A
100
AcDbEntity
  8
0
  6
Continuous
 62
     7
370
    15
100
AcDbSpline
210
0.0
220
0.0
230
1.0
 70
     8
 71
     3
 72
    64
 73
    60
 74
     0
 42
0.0000000001
 43
0.0000000001
 40
0.0
 40
0.0
 40
0.0
 40
0.0
 40
0.0147530603244883
 40
0.0295061211393002
 40
0.0475856036785486
 40
0.065665087006301
 40
0.0839532848163737
 40
0.1025414253792059
 40
0.1206209755015648
 40
0.1387005255042281
 40
0.1569887833648569
 40
0.1755769824468381
 40
0.193656754635378
 40
0.2117365258483446
 40
0.2300250385291538
 40
0.248613526863962
 40
0.2666335952045877
 40
0.2847799876420209
 40
0.3030595476464935
 40
0.3216472454696879
 40
0.3397266818595237
 40
0.3578061182285994
 40
0.3760942576091661
 40
0.394682330204948
 40
0.4087877791898284
 40
0.4229879208401381
 40
0.4371880621090948
 40
0.4514846129669993
 40
0.4662376735319226
 40
0.4809907345939302
 40
0.4990071204106094
 40
0.5171497505875234
 40
0.5354379184993565
 40
0.5540260285013644
 40
0.5721055519161742
 40
0.5901850752357633
 40
0.6084733052254984
 40
0.6270614744730345
 40
0.6451412618973782
 40
0.6632210483641043
 40
0.6815095765270535
 40
0.7000980817165635
 40
0.7181181523657473
 40
0.7362645477358026
 40
0.7545441112161529
 40
0.7731318136905109
 40
0.7911481574296806
 40
0.8092907345690429
 40
0.8275788421599978
 40
0.8461668809512127
 40
0.864230291425587
 40
0.8822937010210482
 40
0.9006151322954686
 40
0.9192036934908237
 40
0.9372237692461677
 40
0.9553701722704788
 40
0.9736497456463965
 40
0.9922374628852502
 40
1.0
 40
1.0
 40
1.0
 40
1.0
 10
2332.035523806492
 20
1319.287931372107
 30
0.0
 10
2332.199633106782
 20
1318.984048356291
 30
0.0
 10
2332.527851712816
 20
1318.376282314559
 30
0.0
 10
2332.971290111794
 20
1317.353489046363
 30
0.0
 10
2333.366525148116
 20
1316.228346391924
 30
0.0
 10
2333.686102154159
 20
1314.993396157858
 30
0.0
 10
2333.903114919572
 20
1313.724356981494
 30
0.0
 10
2334.01139721463
 20
1312.441351258121
 30
0.0
 10
2334.010508355688
 20
1311.158799248215
 30
0.0
 10
2333.903621043206
 20
1309.887743864205
 30
0.0
 10
2333.688190888418
 20
1308.618399337882
 30
0.0
 10
2333.365662028648
 20
1307.37187545889
 30
0.0
 10
2332.940225855355
 20
1306.161902679843
 30
0.0
 10
2332.418569017445
 20
1304.997863905626
 30
0.0
 10
2331.7950538878
 20
1303.871351582938
 30
0.0
 10
2331.078761374389
 20
1302.803056410263
 30
0.0
 10
2330.276943041243
 20
1301.801789854153
 30
0.0
 10
2329.399340456574
 20
1300.876146214033
 30
0.0
 10
2328.437108486618
 20
1300.018697568991
 30
0.0
 10
2327.406669192316
 20
1299.247041321429
 30
0.0
 10
2326.318585447981
 20
1298.568087513033
 30
0.0
 10
2325.18406760538
 20
1297.98511309552
 30
0.0
 10
2323.993501416818
 20
1297.495073963272
 30
0.0
 10
2322.854245676001
 20
1297.136003458624
 30
0.0
 10
2321.785067281137
 20
1296.885864563768
 30
0.0
 10
2320.80311344252
 20
1296.723000152926
 30
0.0
 10
2319.808165987625
 20
1296.624269023032
 30
0.0
 10
2318.795914022664
 20
1296.590828037233
 30
0.0
 10
2317.770700422421
 20
1296.625860611631
 30
0.0
 10
2316.663631740447
 20
1296.739330465633
 30
0.0
 10
2315.489689196556
 20
1296.950452481995
 30
0.0
 10
2314.257484106587
 20
1297.280137122525
 30
0.0
 10
2313.044731269538
 20
1297.716793307504
 30
0.0
 10
2311.874778254947
 20
1298.254391172918
 30
0.0
 10
2310.75898054009
 20
1298.886797229878
 30
0.0
 10
2309.705391666721
 20
1299.60578945133
 30
0.0
 10
2308.70674656969
 20
1300.418407347209
 30
0.0
 10
2307.7807059179
 20
1301.312997053343
 30
0.0
 10
2306.937155460813
 20
1302.279149428123
 30
0.0
 10
2306.180968591425
 20
1303.306424136595
 30
0.0
 10
2305.507604735458
 20
1304.403867640569
 30
0.0
 10
2304.930598820329
 20
1305.553389439974
 30
0.0
 10
2304.454048780488
 20
1306.744335204507
 30
0.0
 10
2304.080642522205
 20
1307.963995216147
 30
0.0
 10
2303.8082477999
 20
1309.223724569058
 30
0.0
 10
2303.64436974408
 20
1310.499102624896
 30
0.0
 10
2303.588929224544
 20
1311.780434257834
 30
0.0
 10
2303.640289413241
 20
1313.054949270014
 30
0.0
 10
2303.800274078713
 20
1314.333937998166
 30
0.0
 10
2304.068055400088
 20
1315.592959333039
 30
0.0
 10
2304.440031282582
 20
1316.819606682314
 30
0.0
 10
2304.910276975718
 20
1318.005347968646
 30
0.0
 10
2305.484158516755
 20
1319.158355509159
 30
0.0
 10
2306.153521402685
 20
1320.257626462035
 30
0.0
 10
2306.911106403941
 20
1321.292630003049
 30
0.0
 10
2307.746750477215
 20
1322.256764329249
 30
0.0
 10
2308.673511050902
 20
1323.151255101919
 30
0.0
 10
2309.473650112781
 20
1323.826520151272
 30
0.0
 10
2309.985817824118
 20
1324.170193076366
 30
0.0
 10
2310.136697615064
 20
1324.271435887938
 30
0.0
  0
SPLINE
  5
27E
330
27A
100
AcDbEntity
  8
0
  6
Continuous
 62
     7
370
    15
100
AcDbSpline
210
0.0
220
0.0
230
1.0
 70
     8
 71
     3
 72
    38
 73
    34
 74
     0
 42
0.0000000001
 43
0.0000000001
 40
0.0
 40
0.0
 40
0.0
 40
0.0
 40
0.0625000000000002
 40
0.0625000000000002
 40
0.1250000000000005
 40
0.1250000000000005
 40
0.1875000000000007
 40
0.1875000000000007
 40
0.2500000000000009
 40
0.2500000000000009
 40
0.3750000000000012
 40
0.3750000000000012
 40
0.4062500000000014
 40
0.4062500000000014
 40
0.4375000000000015
 40
0.4375000000000015
 40
0.5000000000000006
 40
0.5000000000000006
 40
0.5624999999999997
 40
0.5624999999999997
 40
0.5937499999999992
 40
0.5937499999999992
 40
0.6249999999999988
 40
0.6249999999999988
 40
0.7499999999999983
 40
0.7499999999999983
 40
0.8124999999999985
 40
0.8124999999999985
 40
0.8749999999999991
 40
0.8749999999999991
 40
0.9374999999999996
 40
0.9374999999999996
 40
1.0
 40
1.0
 40
1.0
 40
1.0
 10
2321.365796450862
 20
1296.008246784993
 30
0.0
 10
2321.986066132426
 20
1296.124924203591
 30
0.0
 10
2322.596970195117
 20
1296.27808049039
 30
0.0
 10
2323.800083904559
 20
1296.657207380304
 30
0.0
 10
2324.386772488815
 20
1296.88162196809
 30
0.0
 10
2325.523091578751
 20
1297.394560137019
 30
0.0
 10
2326.074111688219
 20
1297.683523280142
 30
0.0
 10
2327.141901364663
 20
1298.326383976674
 30
0.0
 10
2327.659694755551
 20
1298.681069778097
 30
0.0
 10
2329.153149141331
 20
1299.841627963938
 30
0.0
 10
2330.038529134092
 20
1300.717647495308
 30
0.0
 10
2331.011696380962
 20
1301.936608966531
 30
0.0
 10
2331.199563129771
 20
1302.186680529414
 30
0.0
 10
2331.561510544746
 20
1302.699616672328
 30
0.0
 10
2331.736103027457
 20
1302.963367510162
 30
0.0
 10
2332.232925608426
 20
1303.764880187479
 30
0.0
 10
2332.529742429194
 20
1304.314084076865
 30
0.0
 10
2333.05390131375
 20
1305.442509126946
 30
0.0
 10
2333.281515491512
 20
1306.021612718048
 30
0.0
 10
2333.570597146984
 20
1306.912881962988
 30
0.0
 10
2333.658210932427
 20
1307.213750840166
 30
0.0
 10
2333.815537976059
 20
1307.823222698341
 30
0.0
 10
2333.885099489841
 20
1308.13157888476
 30
0.0
 10
2334.183322676824
 20
1309.671145192631
 30
0.0
 10
2334.270029539099
 20
1310.912636037517
 30
0.0
 10
2334.173130980019
 20
1312.789574027848
 30
0.0
 10
2334.101683039417
 20
1313.419975144981
 30
0.0
 10
2333.885178942214
 20
1314.652093981061
 30
0.0
 10
2333.740208916221
 20
1315.257837966241
 30
0.0
 10
2333.377880610151
 20
1316.448989408617
 30
0.0
 10
2333.160526551459
 20
1317.034398051755
 30
0.0
 10
2332.651231404257
 20
1318.18426109292
 30
0.0
 10
2332.359967493038
 20
1318.746338970333
 30
0.0
 10
2332.035523806493
 20
1319.287931372108
 30
0.0
  0
ARC
  5
27F
330
27A
100
AcDbEntity
  8
0
  6
Continuous
 62
     7
370
    15
100
AcDbCircle
 10
2318.806595224712
 20
1311.802248465507
 30
0.0
 40
22.85
100
AcDbArc
 50
293.214269571148
 51
306.7857304288718
  0
LINE
  5
280
330
27A
100
AcDbEntity
  8
0
  6
Continuous
 62
     7
370
    15
100
AcDbLine
 10
2327.813398209124
 20
1290.802248465507
 30
0.0
 11
2309.799792240301
 21
1290.802248465507
 31
0.0
  0
ARC
  5
281
330
27A
100
AcDbEntity
  8
0
  6
Continuous
 62
     7
370
    15
100
AcDbCircle
 10
2318.806595224712
 20
1311.802248465507
 30
0.0
 40
22.85000000000002
100
AcDbArc
 50
233.2142695711282
 51
246.785730428876
  0
LINE
  5
282
330
27A
100
AcDbEntity
  8
0
  6
Continuous
 62
     7
370
    15
100
AcDbLine
 10
2305.123463237445
 20
1293.502128274125
 30
0.0
 11
2296.116660253034
 21
1309.102368656888
 31
0.0
  0
ARC
  5
283
330
27A
100
AcDbEntity
  8
0
  6
Continuous
 62
     7
370
    15
100
AcDbCircle
 10
2318.806595224712
 20
1311.802248465507
 30
0.0
 40
22.85000000000001
100
AcDbArc
 50
173.2142695711344
 51
186.7857304288656
  0
LINE
  5
284
330
27A
100
AcDbEntity
  8
0
  6
Continuous
 62
     7
370
    15
100
AcDbLine
 10
2296.116660253034
 20
1314.502128274125
 30
0.0
 11
2305.123463237445
 21
1330.102368656888
 31
0.0
  0
ARC
  5
285
330
27A
100
AcDbEntity
  8
0
  6
Continuous
 62
     7
370
    15
100
AcDbCircle
 10
2318.806595224712
 20
1311.802248465507
 30
0.0
 40
22.85000000000002
100
AcDbArc
 50
113.2142695711479
 51
126.7857304288719
  0
LINE
  5
286
330
27A
100
AcDbEntity
  8
0
  6
Continuous
 62
     7
370
    15
100
AcDbLine
 10
2309.799792240301
 20
1332.802248465507
 30
0.0
 11
2327.813398209124
 21
1332.802248465507
 31
0.0
  0
ARC
  5
287
330
27A
100
AcDbEntity
  8
0
  6
Continuous
 62
     7
370
    15
100
AcDbCircle
 10
2318.806595224712
 20
1311.802248465507
 30
0.0
 40
22.85000000000002
100
AcDbArc
 50
53.21426957112811
 51
66.78573042885203
  0
LINE
  5
288
330
27A
100
AcDbEntity
  8
0
  6
Continuous
 62
     7
370
    15
100
AcDbLine
 10
2332.48972721198
 20
1330.102368656888
 30
0.0
 11
2341.496530196391
 21
1314.502128274125
 31
0.0
  0
ARC
  5
289
330
27A
100
AcDbEntity
  8
0
  6
Continuous
 62
     7
370
    15
100
AcDbCircle
 10
2318.806595224712
 20
1311.802248465507
 30
0.0
 40
22.85000000000001
100
AcDbArc
 50
353.2142695711343
 51
6.785730428865613
  0
LINE
  5
28A
330
27A
100
AcDbEntity
  8
0
  6
Continuous
 62
     7
370
    15
100
AcDbLine
 10
2341.496530196391
 20
1309.102368656888
 30
0.0
 11
2332.48972721198
 21
1293.502128274125
 31
0.0
  0
ARC
  5
28B
330
27A
100
AcDbEntity
  8
0
  6
Continuous
 62
     7
370
    15
100
AcDbCircle
 10
2318.806595224712
 20
1311.802248465507
 30
0.0
 40
15.20000000000003
100
AcDbArc
 50
29.50365881487079
 51
123.00821503357
  0
ARC
  5
28C
330
27A
100
AcDbEntity
  8
0
  6
Continuous
 62
     7
370
    15
100
AcDbCircle
 10
2318.806595224712
 20
1311.802248465507
 30
0.0
 40
16.0
100
AcDbArc
 50
234.2608295228274
 51
279.2039985036552
  0
SPLINE
  5
28D
330
27A
100
AcDbEntity
  8
0
  6
Continuous
 62
     7
370
    15
100
AcDbSpline
210
0.0
220
0.0
230
1.0
 70
     8
 71
     3
 72
    38
 73
    34
 74
     0
 42
0.0000000001
 43
0.0000000001
 40
0.0
 40
0.0
 40
0.0
 40
0.0
 40
0.0625000000000008
 40
0.0625000000000008
 40
0.1250000000000015
 40
0.1250000000000015
 40
0.1875000000000023
 40
0.1875000000000023
 40
0.2500000000000031
 40
0.2500000000000031
 40
0.3750000000000047
 40
0.3750000000000047
 40
0.4062500000000051
 40
0.4062500000000051
 40
0.4375000000000055
 40
0.4375000000000055
 40
0.5000000000000049
 40
0.5000000000000049
 40
0.5625000000000044
 40
0.5625000000000044
 40
0.6250000000000038
 40
0.6250000000000038
 40
0.7500000000000013
 40
0.7500000000000013
 40
0.7812500000000007
 40
0.7812500000000007
 40
0.8125
 40
0.8125
 40
0.875
 40
0.875
 40
0.9375
 40
0.9375
 40
1.0
 40
1.0
 40
1.0
 40
1.0
 10
2309.461055081827
 20
1298.815298113799
 30
0.0
 10
2308.954436530028
 20
1299.200981502584
 30
0.0
 10
2308.472649616105
 20
1299.615248911069
 30
0.0
 10
2307.558646713398
 20
1300.500845461459
 30
0.0
 10
2307.1308806148
 20
1300.968083466576
 30
0.0
 10
2306.337266322298
 20
1301.94373395911
 30
0.0
 10
2305.970462183665
 20
1302.453077345688
 30
0.0
 10
2305.296812964944
 20
1303.514766722152
 30
0.0
 10
2304.989123702244
 20
1304.068128184806
 30
0.0
 10
2304.166453363281
 20
1305.790063319178
 30
0.0
 10
2303.767386969421
 20
1306.98087922259
 30
0.0
 10
2303.449239672531
 20
1308.521240104358
 30
0.0
 10
2303.394770508495
 20
1308.831940484857
 30
0.0
 10
2303.304511785541
 20
1309.45870065991
 30
0.0
 10
2303.268666395301
 20
1309.77583515605
 30
0.0
 10
2303.190756820147
 20
1310.724214005532
 30
0.0
 10
2303.177683906218
 20
1311.354045694652
 30
0.0
 10
2303.226938410711
 20
1312.609012649926
 30
0.0
 10
2303.289270537056
 20
1313.234147622839
 30
0.0
 10
2303.490376240774
 20
1314.47965629806
 30
0.0
 10
2303.630563992385
 20
1315.103955998237
 30
0.0
 10
2304.158226460849
 20
1316.925591386741
 30
0.0
 10
2304.650463926067
 20
1318.080694907069
 30
0.0
 10
2305.441732636996
 20
1319.450257919972
 30
0.0
 10
2305.609506550557
 20
1319.721340202493
 30
0.0
 10
2305.960718961141
 20
1320.250472570909
 30
0.0
 10
2306.143753147273
 20
1320.508226228648
 30
0.0
 10
2306.714621918557
 20
1321.261524454965
 30
0.0
 10
2307.124140977478
 20
1321.737181243173
 30
0.0
 10
2308.000385622125
 20
1322.636028209007
 30
0.0
 10
2308.467106012463
 20
1323.059223151551
 30
0.0
 10
2309.459775824062
 20
1323.851291498973
 30
0.0
 10
2309.982503157337
 20
1324.217224596966
 30
0.0
 10
2310.52625420693
 20
1324.548853999108
 30
0.0
  0
ARC
  5
28E
330
27A
100
AcDbEntity
  8
0
  6
Continuous
 62
     7
370
    15
100
AcDbCircle
 10
2318.806595224712
 20
1311.802248465507
 30
0.0
 40
22.85000000000002
100
AcDbArc
 50
66.78573042885203
 51
113.2142695711479
  0
ARC
  5
28F
330
27A
100
AcDbEntity
  8
0
  6
Continuous
 62
     7
370
    15
100
AcDbCircle
 10
2318.806595224712
 20
1311.802248465507
 30
0.0
 40
22.84999999999998
100
AcDbArc
 50
246.785730428876
 51
293.214269571148
  0
ARC
  5
290
330
27A
100
AcDbEntity
  8
0
  6
Continuous
 62
     7
370
    15
100
AcDbCircle
 10
2318.806595224712
 20
1311.802248465507
 30
0.0
 40
22.85000000000001
100
AcDbArc
 50
126.7857304288719
 51
173.2142695711344
  0
ARC
  5
291
330
27A
100
AcDbEntity
  8
0
  6
Continuous
 62
     7
370
    15
100
AcDbCircle
 10
2318.806595224712
 20
1311.802248465507
 30
0.0
 40
22.85000000000001
100
AcDbArc
 50
306.7857304288718
 51
353.2142695711343
  0
ARC
  5
292
330
27A
100
AcDbEntity
  8
0
  6
Continuous
 62
     7
370
    15
100
AcDbCircle
 10
2318.806595224712
 20
1311.802248465507
 30
0.0
 40
22.85000000000002
100
AcDbArc
 50
186.7857304288656
 51
233.2142695711282
  0
ARC
  5
293
330
27A
100
AcDbEntity
  8
0
  6
Continuous
 62
     7
370
    15
100
AcDbCircle
 10
2318.806595224712
 20
1311.802248465507
 30
0.0
 40
22.85000000000001
100
AcDbArc
 50
6.785730428865613
 51
53.21426957112811
  0
INSERT
  5
294
330
27A
100
AcDbEntity
  8
0
  6
Continuous
 62
     7
370
     0
100
AcDbBlockReference
  2
SW_CENTERMARKSYMBOL_0
 10
2318.806595224712
 20
1311.802248465507
 30
0.0
  0
ENDBLK
  5
27C
330
27A
100
AcDbEntity
  8
0
100
AcDbBlockEnd
  0
BLOCK
  5
297
330
296
100
AcDbEntity
  8
0
100
AcDbBlockBegin
  2
2
 70
     0
 10
0.0
 20
0.0
 30
0.0
  3
2
  1

  0
LINE
  5
299
330
296
100
AcDbEntity
  8
0
  6
Continuous
 62
     7
370
    15
100
AcDbLine
 10
2295.956595224712
 20
1275.493786603898
 30
0.0
 11
2295.956595224712
 21
1268.493786603898
 31
0.0
  0
LINE
  5
29A
330
296
100
AcDbEntity
  8
0
  6
Continuous
 62
     7
370
    15
100
AcDbLine
 10
2341.656595224713
 20
1268.493786603898
 30
0.0
 11
2341.656595224713
 21
1275.493786603898
 31
0.0
  0
LINE
  5
29B
330
296
100
AcDbEntity
  8
0
  6
Continuous
 62
     7
370
    15
100
AcDbLine
 10
2341.496530196391
 20
1268.493786603898
 30
0.0
 11
2341.656595224713
 21
1268.493786603898
 31
0.0
  0
LINE
  5
29C
330
296
100
AcDbEntity
  8
0
  6
Continuous
 62
     7
370
    15
100
AcDbLine
 10
2341.496530196391
 20
1273.493786603898
 30
0.0
 11
2341.496530196391
 21
1268.493786603898
 31
0.0
  0
LINE
  5
29D
330
296
100
AcDbEntity
  8
0
  6
Continuous
 62
     7
370
    15
100
AcDbLine
 10
2332.48972721198
 20
1273.493786603898
 30
0.0
 11
2341.496530196391
 21
1273.493786603898
 31
0.0
  0
LINE
  5
29E
330
296
100
AcDbEntity
  8
0
  6
Continuous
 62
     7
370
    15
100
AcDbLine
 10
2332.48972721198
 20
1268.493786603898
 30
0.0
 11
2332.48972721198
 21
1273.493786603898
 31
0.0
  0
LINE
  5
29F
330
296
100
AcDbEntity
  8
0
  6
Continuous
 62
     7
370
    15
100
AcDbLine
 10
2327.813398209124
 20
1268.493786603898
 30
0.0
 11
2332.48972721198
 21
1268.493786603898
 31
0.0
  0
LINE
  5
2A0
330
296
100
AcDbEntity
  8
0
  6
Continuous
 62
     7
370
    15
100
AcDbLine
 10
2327.813398209124
 20
1273.493786603898
 30
0.0
 11
2327.813398209124
 21
1268.493786603898
 31
0.0
  0
LINE
  5
2A1
330
296
100
AcDbEntity
  8
0
  6
Continuous
 62
     7
370
    15
100
AcDbLine
 10
2309.799792240301
 20
1273.493786603898
 30
0.0
 11
2327.813398209124
 21
1273.493786603898
 31
0.0
  0
LINE
  5
2A2
330
296
100
AcDbEntity
  8
0
  6
Continuous
 62
     7
370
    15
100
AcDbLine
 10
2309.799792240301
 20
1268.493786603898
 30
0.0
 11
2309.799792240301
 21
1273.493786603898
 31
0.0
  0
LINE
  5
2A3
330
296
100
AcDbEntity
  8
0
  6
Continuous
 62
     7
370
    15
100
AcDbLine
 10
2305.123463237445
 20
1268.493786603898
 30
0.0
 11
2309.799792240301
 21
1268.493786603898
 31
0.0
  0
LINE
  5
2A4
330
296
100
AcDbEntity
  8
0
  6
Continuous
 62
     7
370
    15
100
AcDbLine
 10
2305.123463237445
 20
1273.493786603898
 30
0.0
 11
2305.123463237445
 21
1268.493786603898
 31
0.0
  0
LINE
  5
2A5
330
296
100
AcDbEntity
  8
0
  6
Continuous
 62
     7
370
    15
100
AcDbLine
 10
2296.116660253034
 20
1273.493786603898
 30
0.0
 11
2305.123463237445
 21
1273.493786603898
 31
0.0
  0
LINE
  5
2A6
330
296
100
AcDbEntity
  8
0
  6
Continuous
 62
     7
370
    15
100
AcDbLine
 10
2296.116660253034
 20
1268.493786603898
 30
0.0
 11
2296.116660253034
 21
1273.493786603898
 31
0.0
  0
LINE
  5
2A7
330
296
100
AcDbEntity
  8
0
  6
Continuous
 62
     7
370
    15
100
AcDbLine
 10
2295.956595224712
 20
1268.493786603898
 30
0.0
 11
2296.116660253034
 21
1268.493786603898
 31
0.0
  0
LINE
  5
2A8
330
296
100
AcDbEntity
  8
0
  6
Continuous
 62
     7
370
    15
100
AcDbLine
 10
2318.806595224712
 20
1275.493786603898
 30
0.0
 11
2295.956595224712
 21
1275.493786603898
 31
0.0
  0
LINE
  5
2A9
330
296
100
AcDbEntity
  8
0
  6
Continuous
 62
     7
370
    15
100
AcDbLine
 10
2341.656595224713
 20
1275.493786603898
 30
0.0
 11
2318.806595224712
 21
1275.493786603898
 31
0.0
  0
LINE
  5
2AA
330
296
100
AcDbEntity
  8
0
  6
Continuous
 62
     7
370
    15
100
AcDbLine
 10
2309.799792240301
 20
1268.493786603898
 30
0.0
 11
2327.813398209124
 21
1268.493786603898
 31
0.0
  0
LINE
  5
2AB
330
296
100
AcDbEntity
  8
0
  6
Continuous
 62
     7
370
    15
100
AcDbLine
 10
2332.48972721198
 20
1268.493786603898
 30
0.0
 11
2341.496530196391
 21
1268.493786603898
 31
0.0
  0
LINE
  5
2AC
330
296
100
AcDbEntity
  8
0
  6
Continuous
 62
     7
370
    15
100
AcDbLine
 10
2296.116660253034
 20
1268.493786603898
 30
0.0
 11
2305.123463237445
 21
1268.493786603898
 31
0.0
  0
ENDBLK
  5
298
330
296
100
AcDbEntity
  8
0
100
AcDbBlockEnd
  0
BLOCK
  5
2AF
330
2AE
100
AcDbEntity
  8
0
100
AcDbBlockBegin
  2
3
 70
     0
 10
0.0
 20
0.0
 30
0.0
  3
3
  1

  0
LINE
  5
2B1
330
2AE
100
AcDbEntity
  8
0
  6
Continuous
 62
     7
370
    15
100
AcDbLine
 10
2410.807039717052
 20
1309.172867956071
 30
0.0
 11
2410.788247133131
 21
1310.714347877141
 31
0.0
  0
LINE
  5
2B2
330
2AE
100
AcDbEntity
  8
0
  6
Continuous
 62
     7
370
    15
100
AcDbLine
 10
2365.09164287797
 20
1310.157248651484
 30
0.0
 11
2365.110435461891
 21
1308.615768730414
 31
0.0
  0
LWPOLYLINE
  5
2B3
330
2AE
100
AcDbEntity
  8
0
  6
Continuous
 62
     7
370
    15
100
AcDbPolyline
 90
       73
 70
   128
 43
0.0
 10
2365.110435461891
 20
1308.615768730414
 10
2365.11044499907
 20
1308.614989122549
 10
2365.140712016257
 20
1307.971393352124
 10
2365.215646390039
 20
1307.32960425071
 10
2365.335101432862
 20
1306.69087815061
 10
2365.498843305868
 20
1306.056465388162
 10
2365.706551476652
 20
1305.427607856138
 10
2365.957819346715
 20
1304.80553657269
 10
2366.252155047403
 20
1304.191469271567
 10
2366.588982402759
 20
1303.586608018349
 10
2366.967642057419
 20
1302.992136857342
 10
2367.387392767325
 20
1302.409219493759
 10
2367.847412850752
 20
1301.838997015716
 10
2368.346801796784
 20
1301.282585660489
 10
2368.884582028107
 20
1300.741074629436
 10
2369.459700814665
 20
1300.21552395583
 10
2370.071032334426
 20
1299.706962429794
 10
2370.717379877231
 20
1299.216385584397
 10
2371.397478187413
 20
1298.744753746851
 10
2372.109995940592
 20
1298.292990158627
 10
2372.853538349806
 20
1297.861979168164
 10
2373.626649895873
 20
1297.452564499715
 10
2374.427817176636
 20
1297.06554760172
 10
2375.25547186952
 20
1296.701686077931
 10
2376.107993801596
 20
1296.361692204368
 10
2376.983714121149
 20
1296.046231535005
 10
2377.880918564529
 20
1295.755921598916
 10
2378.797850811905
 20
1295.491330691434
 10
2379.732715925344
 20
1295.252976761685
 10
2380.683683862485
 20
1295.04132639868
 10
2381.648893058933
 20
1294.856793917944
 10
2382.626454072361
 20
1294.699740550473
 10
2383.614453281177
 20
1294.57047373561
 10
2384.610956630535
 20
1294.469246519215
 10
2385.614013418332
 20
1294.396257058317
 10
2386.621660113802
 20
1294.351648233214
 10
2387.63192420122
 20
1294.335507367776
 10
2388.642828041193
 20
1294.347866058506
 10
2389.652392741981
 20
1294.388700112685
 10
2390.658642033275
 20
1294.457929595734
 10
2391.659606134832
 20
1294.55541898769
 10
2392.653325612418
 20
1294.680977448491
 10
2393.637855213492
 20
1294.834359191552
 10
2394.611267675124
 20
1295.015263964909
 10
2395.571657496712
 20
1295.223337638973
 10
2396.517144670077
 20
1295.458172899755
 10
2397.445878359679
 20
1295.719310046205
 10
2398.356040525706
 20
1296.006237890096
 10
2399.245849482978
 20
1296.318394756699
 10
2400.113563388676
 20
1296.655169584288
 10
2400.95748365208
 20
1297.015903120324
 10
2401.775958259644
 20
1297.39988921197
 10
2402.56738500889
 20
1297.806376188419
 10
2403.330214644789
 20
1298.234568332327
 10
2404.062953892506
 20
1298.683627437464
 10
2404.764168380556
 20
1299.152674449542
 10
2405.432485448648
 20
1299.640791187012
 10
2406.066596834738
 20
1300.147022138436
 10
2406.665261236009
 20
1300.670376332954
 10
2407.227306738783
 20
1301.209829280154
 10
2407.751633112594
 20
1301.764324975559
 10
2408.237213963943
 20
1302.332777967805
 10
2408.683098745511
 20
1302.914075483468
 10
2409.088414616898
 20
1303.507079605361
 10
2409.452368153254
 20
1304.110629500068
 10
2409.774246898439
 20
1304.723543690328
 10
2410.053420759695
 20
1305.344622367831
 10
2410.289343241077
 20
1305.972649741899
 10
2410.481552513249
 20
1306.606396419457
 10
2410.629672317535
 20
1307.244621811621
 10
2410.733412702465
 20
1307.886076562216
 10
2410.792570591359
 20
1308.529504993444
 10
2410.807039717052
 20
1309.172867956071
  0
ARC
  5
2B4
330
2AE
100
AcDbEntity
  8
0
  6
Continuous
 62
     7
370
    15
100
AcDbCircle
 10
2400.509347149912
 20
1314.252859629883
 30
0.0
 40
10.25312239536809
100
AcDbArc
 50
9.553531050754131
 51
29.50172570485839
  0
ARC
  5
2B5
330
2AE
100
AcDbEntity
  8
0
  6
Continuous
 62
     7
370
    15
100
AcDbCircle
 10
2388.488116714802
 20
1295.965338966476
 30
0.0
 40
32.86281739091807
100
AcDbArc
 50
74.59621803945495
 51
83.75693563204396
  0
ARC
  5
2B6
330
2AE
100
AcDbEntity
  8
0
  6
Continuous
 62
     7
370
    15
100
AcDbCircle
 10
2383.901273234196
 20
1305.656290702692
 30
0.0
 40
22.39941687945194
100
AcDbArc
 50
114.8449970468198
 51
126.6779227374272
  0
ARC
  5
2B7
330
2AE
100
AcDbEntity
  8
0
  6
Continuous
 62
     7
370
    15
100
AcDbCircle
 10
2374.408779306225
 20
1310.270836292713
 30
0.0
 40
9.317686453644878
100
AcDbArc
 50
172.1322966521491
 51
189.2646497380591
  0
LWPOLYLINE
  5
2B8
330
2AE
100
AcDbEntity
  8
0
  6
Continuous
 62
     7
370
    15
100
AcDbPolyline
 90
        3
 70
   128
 43
0.0
 10
2365.969734551871
 20
1314.275246811436
 10
2366.124435696583
 20
1314.606572917227
 10
2366.291360553922
 20
1314.935562045685
  0
LINE
  5
2B9
330
2AE
100
AcDbEntity
  8
0
  6
Continuous
 62
     7
370
    15
100
AcDbLine
 10
2365.165658426187
 20
1312.624435894719
 30
0.0
 11
2365.21263988599
 21
1308.770736092045
 31
0.0
  0
ARC
  5
2BA
330
2AE
100
AcDbEntity
  8
0
  6
Continuous
 62
     7
370
    15
100
AcDbCircle
 10
2375.276579941581
 20
1314.32613650409
 30
0.0
 40
10.25312239536752
100
AcDbArc
 50
189.5535310507541
 51
209.5017257048584
  0
LINE
  5
2BB
330
2AE
100
AcDbEntity
  8
0
  6
Continuous
 62
     7
370
    15
100
AcDbLine
 10
2366.399849995813
 20
1305.42328889169
 30
0.0
 11
2366.352868536009
 21
1309.276988694364
 31
0.0
  0
ARC
  5
2BC
330
2AE
100
AcDbEntity
  8
0
  6
Continuous
 62
     7
370
    15
100
AcDbCircle
 10
2382.778707101627
 20
1316.284470451263
 30
0.0
 40
19.65279178546129
100
AcDbArc
 50
213.5492361807437
 51
257.7707478078272
  0
LINE
  5
2BD
330
2AE
100
AcDbEntity
  8
0
  6
Continuous
 62
     7
370
    15
100
AcDbLine
 10
2378.56879688606
 20
1300.931342063496
 30
0.0
 11
2378.615778345864
 21
1297.077642260822
 31
0.0
  0
ARC
  5
2BE
330
2AE
100
AcDbEntity
  8
0
  6
Continuous
 62
     7
370
    15
100
AcDbCircle
 10
2387.297810376692
 20
1332.613657167502
 30
0.0
 40
32.86281739092386
100
AcDbArc
 50
254.596218039455
 51
263.756935632044
  0
LINE
  5
2BF
330
2AE
100
AcDbEntity
  8
0
  6
Continuous
 62
     7
370
    15
100
AcDbLine
 10
2383.771074021838
 20
1296.092032609031
 30
0.0
 11
2383.724092562034
 21
1299.945732411705
 31
0.0
  0
ARC
  5
2C0
330
2AE
100
AcDbEntity
  8
0
  6
Continuous
 62
     7
370
    15
100
AcDbCircle
 10
2387.745018141118
 20
1329.317799793992
 30
0.0
 40
33.46257367406738
100
AcDbArc
 50
263.1795785927029
 51
293.9767806602597
  0
LINE
  5
2C1
330
2AE
100
AcDbEntity
  8
0
  6
Continuous
 62
     7
370
    15
100
AcDbLine
 10
2401.29610200562
 20
1302.596404235764
 30
0.0
 11
2401.343083465424
 21
1298.742704433089
 31
0.0
  0
ARC
  5
2C2
330
2AE
100
AcDbEntity
  8
0
  6
Continuous
 62
     7
370
    15
100
AcDbCircle
 10
2391.884653857298
 20
1322.92270543128
 30
0.0
 40
22.3994168794509
100
AcDbArc
 50
294.8449970468198
 51
306.6779227374273
  0
LINE
  5
2C3
330
2AE
100
AcDbEntity
  8
0
  6
Continuous
 62
     7
370
    15
100
AcDbLine
 10
2405.311169031576
 20
1301.104541981654
 30
0.0
 11
2405.264187571772
 21
1304.958241784328
 31
0.0
  0
LWPOLYLINE
  5
2C4
330
2AE
100
AcDbEntity
  8
0
  6
Continuous
 62
     7
370
    15
100
AcDbPolyline
 90
       19
 70
   128
 43
0.0
 10
2410.66725012511
 20
1312.10086043658
 10
2410.750206093039
 20
1311.448276950585
 10
2410.786941344751
 20
1310.793641866415
 10
2410.777381443149
 20
1310.138281679295
 10
2410.72154575958
 20
1309.483524353738
 10
2410.619547434586
 20
1308.83069663267
 10
2410.471593148642
 20
1308.181121349034
 10
2410.277982703363
 20
1307.536114745321
 10
2410.039108414006
 20
1306.896983806448
 10
2409.755454314518
 20
1306.265023611398
 10
2409.427595176735
 20
1305.641514708987
 10
2409.056195345713
 20
1305.027720523072
 10
2408.642007393557
 20
1304.424884792459
 10
2408.185870594474
 20
1303.8342290507
 10
2407.688709224142
 20
1303.256950150882
 10
2407.15153068684
 20
1302.694217840431
 10
2406.575423474131
 20
1302.14717239084
 10
2405.961554959236
 20
1301.616922287117
 10
2405.311169031576
 20
1301.104541981654
  0
LINE
  5
2C5
330
2AE
100
AcDbEntity
  8
0
  6
Continuous
 62
     7
370
    15
100
AcDbLine
 10
2410.620268665307
 20
1315.954560239254
 30
0.0
 11
2410.66725012511
 21
1312.10086043658
 31
0.0
  0
SPLINE
  5
2C6
330
2AE
100
AcDbEntity
  8
0
  6
Continuous
 62
     7
370
    15
100
AcDbSpline
210
0.0
220
0.0
230
1.0
 70
     8
 71
     3
 72
    38
 73
    34
 74
     0
 42
0.0000000001
 43
0.0000000001
 40
0.0
 40
0.0
 40
0.0
 40
0.0
 40
0.0625000000000008
 40
0.0625000000000008
 40
0.1250000000000015
 40
0.1250000000000015
 40
0.1875000000000023
 40
0.1875000000000023
 40
0.2500000000000031
 40
0.2500000000000031
 40
0.3750000000000047
 40
0.3750000000000047
 40
0.4062500000000051
 40
0.4062500000000051
 40
0.4375000000000055
 40
0.4375000000000055
 40
0.5000000000000049
 40
0.5000000000000049
 40
0.5625000000000044
 40
0.5625000000000044
 40
0.6250000000000038
 40
0.6250000000000038
 40
0.7500000000000013
 40
0.7500000000000013
 40
0.7812500000000007
 40
0.7812500000000007
 40
0.8125
 40
0.8125
 40
0.875
 40
0.875
 40
0.9375
 40
0.9375
 40
1.0
 40
1.0
 40
1.0
 40
1.0
 10
2397.513195128745
 20
1306.214070709166
 30
0.0
 10
2396.99433724505
 20
1305.975206053605
 30
0.0
 10
2396.455572751998
 20
1305.756717147303
 30
0.0
 10
2395.338304581262
 20
1305.360415054373
 30
0.0
 10
2394.765029931329
 20
1305.184571532861
 30
0.0
 10
2393.597580625573
 20
1304.878197488312
 30
0.0
 10
2393.002232979173
 20
1304.747253329012
 30
0.0
 10
2391.788309890083
 20
1304.529815924809
 30
0.0
 10
2391.168513942943
 20
1304.442992705374
 30
0.0
 10
2389.279927237648
 20
1304.255099702995
 30
0.0
 10
2388.024366750812
 20
1304.228849315764
 30
0.0
 10
2386.459146380514
 20
1304.315797495611
 30
0.0
 10
2386.146316768543
 20
1304.339258711454
 30
0.0
 10
2385.521094874075
 20
1304.398562262986
 30
0.0
 10
2385.207659944456
 20
1304.43456668031
 30
0.0
 10
2384.279051892654
 20
1304.56011326135
 30
0.0
 10
2383.673847607493
 20
1304.667095154539
 30
0.0
 10
2382.49034201954
 20
1304.926229477633
 30
0.0
 10
2381.912042396544
 20
1305.078384727941
 30
0.0
 10
2380.782717606053
 20
1305.428489474586
 30
0.0
 10
2380.228364666776
 20
1305.628018852963
 30
0.0
 10
2378.646093070772
 20
1306.282628099033
 30
0.0
 10
2377.689644264357
 20
1306.793951307327
 30
0.0
 10
2376.617357762549
 20
1307.526961644949
 30
0.0
 10
2376.408433327935
 20
1307.678858641067
 30
0.0
 10
2376.007684280952
 20
1307.989836255948
 30
0.0
 10
2375.816022460607
 20
1308.148615958521
 30
0.0
 10
2375.266567834358
 20
1308.634598376527
 30
0.0
 10
2374.934209986748
 20
1308.971408188521
 30
0.0
 10
2374.336595095498
 20
1309.670372611406
 30
0.0
 10
2374.07133195789
 20
1310.032524920531
 30
0.0
 10
2373.610278797288
 20
1310.783070388586
 30
0.0
 10
2373.416337923799
 20
1311.168959949918
 30
0.0
 10
2373.261398804157
 20
1311.56142193719
 30
0.0
  0
ARC
  5
2C7
330
2AE
100
AcDbEntity
  8
0
  6
Continuous
 62
     7
370
    15
100
AcDbCircle
 10
2393.514441583951
 20
1316.13688557843
 30
0.0
 40
10.69823746426055
100
AcDbArc
 50
291.9487351183498
 51
342.7751345079213
  0
SPLINE
  5
2C8
330
2AE
100
AcDbEntity
  8
0
  6
Continuous
 62
     7
370
    15
100
AcDbSpline
210
0.0
220
0.0
230
1.0
 70
     8
 71
     3
 72
    38
 73
    34
 74
     0
 42
0.0000000001
 43
0.0000000001
 40
0.0
 40
0.0
 40
0.0
 40
0.0
 40
0.0625000000000002
 40
0.0625000000000002
 40
0.1250000000000005
 40
0.1250000000000005
 40
0.1875000000000007
 40
0.1875000000000007
 40
0.2500000000000009
 40
0.2500000000000009
 40
0.3750000000000012
 40
0.3750000000000012
 40
0.4062500000000014
 40
0.4062500000000014
 40
0.4375000000000015
 40
0.4375000000000015
 40
0.5000000000000006
 40
0.5000000000000006
 40
0.5624999999999997
 40
0.5624999999999997
 40
0.5937499999999992
 40
0.5937499999999992
 40
0.6249999999999988
 40
0.6249999999999988
 40
0.7499999999999983
 40
0.7499999999999983
 40
0.8124999999999985
 40
0.8124999999999985
 40
0.8749999999999991
 40
0.8749999999999991
 40
0.9374999999999996
 40
0.9374999999999996
 40
1.0
 40
1.0
 40
1.0
 40
1.0
 10
2403.732862449573
 20
1312.968895702386
 30
0.0
 10
2403.805895458547
 20
1313.368833269333
 30
0.0
 10
2403.841316382156
 20
1313.769712070217
 30
0.0
 10
2403.83708193408
 20
1314.57334843931
 30
0.0
 10
2403.79727052524
 20
1314.972451684641
 30
0.0
 10
2403.645422452834
 20
1315.759737964833
 30
0.0
 10
2403.533379305897
 20
1316.14884950915
 30
0.0
 10
2403.237114489173
 20
1316.918016896167
 30
0.0
 10
2403.052444676812
 20
1317.298841604884
 30
0.0
 10
2402.388485296848
 20
1318.422348461155
 30
0.0
 10
2401.815380632536
 20
1319.122722857217
 30
0.0
 10
2400.940962328762
 20
1319.939283211336
 30
0.0
 10
2400.758071702421
 20
1320.09961072765
 30
0.0
 10
2400.375977523195
 20
1320.414185202299
 30
0.0
 10
2400.176080017291
 20
1320.568906363809
 30
0.0
 10
2399.55857721159
 20
1321.018488151928
 30
0.0
 10
2399.122491614429
 20
1321.299923865886
 30
0.0
 10
2398.201004825871
 20
1321.825863770577
 30
0.0
 10
2397.715796790416
 20
1322.070512612172
 30
0.0
 10
2396.950832264319
 20
1322.409663084683
 30
0.0
 10
2396.689635330543
 20
1322.518063619506
 30
0.0
 10
2396.154535047349
 20
1322.725349092889
 30
0.0
 10
2395.88082220038
 20
1322.824096352782
 30
0.0
 10
2394.499629139306
 20
1323.287159874745
 30
0.0
 10
2393.340125464604
 20
1323.566697034834
 30
0.0
 10
2391.519350941861
 20
1323.850140325928
 30
0.0
 10
2390.896246051883
 20
1323.921591403819
 30
0.0
 10
2389.655534761679
 20
1324.01432424524
 30
0.0
 10
2389.034109986505
 20
1324.03639349484
 30
0.0
 10
2387.789152682278
 20
1324.032630940638
 30
0.0
 10
2387.165620276141
 20
1324.00680193023
 30
0.0
 10
2385.916383687473
 20
1323.905787873082
 30
0.0
 10
2385.293149781782
 20
1323.830582423359
 30
0.0
 10
2384.67960839168
 20
1323.731383358873
 30
0.0
  0
LWPOLYLINE
  5
2C9
330
2AE
100
AcDbEntity
  8
0
  6
Continuous
 62
     7
370
    15
100
AcDbPolyline
 90
       31
 70
   128
 43
0.0
 10
2384.67960839168
 20
1323.731383358873
 10
2383.876624911792
 20
1323.600248076042
 10
2383.085523745084
 20
1323.441566996499
 10
2382.308645359497
 20
1323.255809577243
 10
2381.548288144963
 20
1323.043525380458
 10
2380.806701613631
 20
1322.805342447636
 10
2380.0860797447
 20
1322.541965441521
 10
2379.388554493541
 20
1322.254173561367
 10
2378.716189484327
 20
1321.942818237686
 10
2378.070973904806
 20
1321.608820613288
 10
2377.454816621309
 20
1321.253168818095
 10
2376.869540531373
 20
1320.876915045757
 10
2376.316877170715
 20
1320.48117244075
 10
2375.798461590494
 20
1320.06711180514
 10
2375.31582752002
 20
1319.635958134773
 10
2374.870402829224
 20
1319.188986995135
 10
2374.46350530432
 20
1318.727520747598
 10
2374.096338749135
 20
1318.252924637219
 10
2373.769989423667
 20
1317.766602753678
 10
2373.485422830392
 20
1317.269993877278
 10
2373.243480857827
 20
1316.764567222331
 10
2373.044879289812
 20
1316.25181809049
 10
2372.890205687868
 20
1315.733263446913
 10
2372.779917652894
 20
1315.210437432327
 10
2372.714341471364
 20
1314.684886824286
 10
2372.69367115001
 20
1314.158166461035
 10
2372.71796784185
 20
1313.631834641533
 10
2372.78715966527
 20
1313.107448515237
 10
2372.901041916685
 20
1312.586559475278
 10
2373.059277676155
 20
1312.070708568683
 10
2373.261398804157
 20
1311.56142193719
  0
LINE
  5
2CA
330
2AE
100
AcDbEntity
  8
0
  6
Continuous
 62
     7
370
    15
100
AcDbLine
 10
2410.620268665307
 20
1315.954560239254
 30
0.0
 11
2405.264187571772
 21
1304.958241784328
 31
0.0
  0
LINE
  5
2CB
330
2AE
100
AcDbEntity
  8
0
  6
Continuous
 62
     7
370
    15
100
AcDbLine
 10
2401.29610200562
 20
1302.596404235764
 30
0.0
 11
2383.724092562034
 21
1299.945732411705
 31
0.0
  0
LINE
  5
2CC
330
2AE
100
AcDbEntity
  8
0
  6
Continuous
 62
     7
370
    15
100
AcDbLine
 10
2378.56879688606
 20
1300.931342063496
 30
0.0
 11
2366.352868536009
 21
1309.276988694364
 31
0.0
  0
LINE
  5
2CD
330
2AE
100
AcDbEntity
  8
0
  6
Continuous
 62
     7
370
    15
100
AcDbLine
 10
2365.165658426187
 20
1312.624435894719
 30
0.0
 11
2370.521739519722
 21
1323.620754349645
 31
0.0
  0
LINE
  5
2CE
330
2AE
100
AcDbEntity
  8
0
  6
Continuous
 62
     7
370
    15
100
AcDbLine
 10
2374.489825085873
 20
1325.982591898209
 30
0.0
 11
2392.061834529459
 21
1328.633263722267
 31
0.0
  0
LINE
  5
2CF
330
2AE
100
AcDbEntity
  8
0
  6
Continuous
 62
     7
370
    15
100
AcDbLine
 10
2397.217130205433
 20
1327.647654070477
 30
0.0
 11
2409.433058555484
 21
1319.302007439609
 31
0.0
  0
LINE
  5
2D0
330
2AE
100
AcDbEntity
  8
0
  6
Continuous
 62
     7
370
    15
100
AcDbLine
 10
2383.771074021838
 20
1296.092032609031
 30
0.0
 11
2401.343083465424
 21
1298.742704433089
 31
0.0
  0
SPLINE
  5
2D1
330
2AE
100
AcDbEntity
  8
0
  6
Continuous
 62
     7
370
    15
100
AcDbSpline
210
0.0
220
0.0
230
1.0
 70
     8
 71
     3
 72
    43
 73
    39
 74
     0
 42
0.0000000001
 43
0.0000000001
 40
0.0
 40
0.0
 40
0.0
 40
0.0
 40
0.0239212097558339
 40
0.0478424203066985
 40
0.0771572258172831
 40
0.1064720326063802
 40
0.1361252575135389
 40
0.1662648217527204
 40
0.1955797368452985
 40
0.2248946517437976
 40
0.254547974019361
 40
0.2846876331438616
 40
0.3140029083035433
 40
0.3433181818813908
 40
0.3729719173327192
 40
0.4031120454634731
 40
0.4323305143851421
 40
0.4617538103156137
 40
0.4913930295347968
 40
0.5215318758979911
 40
0.5508466065800486
 40
0.5801613372284445
 40
0.6098144673956348
 40
0.6399539214302871
 40
0.6628250679209892
 40
0.6858497529360555
 40
0.7088744373327803
 40
0.732055444143226
 40
0.7559766542889111
 40
0.7798978652405886
 40
0.8091103631687269
 40
0.8385275588175582
 40
0.8681807352464998
 40
0.8983202499331227
 40
0.9276351217209988
 40
0.95694999335448
 40
0.9866032704390473
 40
1.0
 40
1.0
 40
1.0
 40
1.0
 10
2384.67960839168
 20
1323.731383358873
 30
0.0
 10
2385.018576129459
 20
1323.77224357885
 30
0.0
 10
2385.696511616283
 20
1323.853964020162
 30
0.0
 10
2386.805007806776
 20
1323.925004404555
 30
0.0
 10
2387.996902963705
 20
1323.946640160621
 30
0.0
 10
2389.271155535373
 20
1323.900655840257
 30
0.0
 10
2390.547463034726
 20
1323.78540734824
 30
0.0
 10
2391.804777522759
 20
1323.601058502319
 30
0.0
 10
2393.029198328348
 20
1323.350155311351
 30
0.0
 10
2394.211124140508
 20
1323.03678974572
 30
0.0
 10
2395.359142651591
 20
1322.657499951914
 30
0.0
 10
2396.453525981571
 20
1322.217282242613
 30
0.0
 10
2397.48240915521
 20
1321.721397608866
 30
0.0
 10
2398.438821785405
 20
1321.175677636385
 30
0.0
 10
2399.329112067016
 20
1320.575347759403
 30
0.0
 10
2400.136241212394
 20
1319.928489105022
 30
0.0
 10
2400.853953183633
 20
1319.241107163077
 30
0.0
 10
2401.476936777193
 20
1318.520922971363
 30
0.0
 10
2402.009655558443
 20
1317.761025392014
 30
0.0
 10
2402.440188076718
 20
1316.974946188263
 30
0.0
 10
2402.765075907902
 20
1316.170553583407
 30
0.0
 10
2402.984521934145
 20
1315.355433164659
 30
0.0
 10
2403.098575315976
 20
1314.523035134951
 30
0.0
 10
2403.102828837982
 20
1313.747259052183
 30
0.0
 10
2403.023901127465
 20
1313.035601781262
 30
0.0
 10
2402.887566538749
 20
1312.394639382805
 30
0.0
 10
2402.686135891448
 20
1311.757684587887
 30
0.0
 10
2402.417221553257
 20
1311.122423054353
 30
0.0
 10
2402.079081782353
 20
1310.491595352434
 30
0.0
 10
2401.641735017645
 20
1309.823603935669
 30
0.0
 10
2401.091293063486
 20
1309.131290915445
 30
0.0
 10
2400.410334295806
 20
1308.423668783879
 30
0.0
 10
2399.633095277542
 20
1307.746916990315
 30
0.0
 10
2398.771990719678
 20
1307.114802787194
 30
0.0
 10
2397.837286564593
 20
1306.532104367196
 30
0.0
 10
2396.835394071525
 20
1306.006811896603
 30
0.0
 10
2395.971690809952
 20
1305.610622184973
 30
0.0
 10
2395.423194237014
 20
1305.412967243446
 30
0.0
 10
2395.252507614054
 20
1305.351459011407
 30
0.0
  0
SPLINE
  5
2D2
330
2AE
100
AcDbEntity
  8
0
  6
Continuous
 62
     7
370
    15
100
AcDbSpline
210
0.0
220
0.0
230
1.0
 70
     8
 71
     3
 72
    46
 73
    42
 74
     0
 42
0.0000000001
 43
0.0000000001
 40
0.0
 40
0.0
 40
0.0
 40
0.0
 40
0.011532850862001
 40
0.0366803227927447
 40
0.0618277937018131
 40
0.087208341783416
 40
0.1096115855976244
 40
0.1320148301666796
 40
0.1594693634451854
 40
0.1869238979518595
 40
0.2146953751203403
 40
0.2429223290183281
 40
0.2703769693164691
 40
0.2978316094700124
 40
0.3256031809068229
 40
0.3538302247720428
 40
0.3812852659815707
 40
0.4087403057369098
 40
0.4365123299643246
 40
0.464739883973857
 40
0.492104242340471
 40
0.5196604309723359
 40
0.5474188418908993
 40
0.5756451769382247
 40
0.6030038758097554
 40
0.6305542662716246
 40
0.6583256518399024
 40
0.6865524976008175
 40
0.7075255181739704
 40
0.7293260623339794
 40
0.7511266059004428
 40
0.7743004359757931
 40
0.7974742661997356
 40
0.8248386323203037
 40
0.8523948325755311
 40
0.8801532585209967
 40
0.9083796159889303
 40
0.9357381149876838
 40
0.963288301701133
 40
0.9910594779444029
 40
1.0
 40
1.0
 40
1.0
 40
1.0
 10
2372.7258253887
 20
1313.619014821682
 30
0.0
 10
2372.730010804349
 20
1313.730083446658
 30
0.0
 10
2372.743322551713
 20
1314.083338081182
 30
0.0
 10
2372.86016866007
 20
1314.676446548637
 30
0.0
 10
2373.072650173531
 20
1315.395244910565
 30
0.0
 10
2373.366643753447
 20
1316.076892092785
 30
0.0
 10
2373.723490096336
 20
1316.718495745858
 30
0.0
 10
2374.161762108532
 20
1317.361555681559
 30
0.0
 10
2374.712862253725
 20
1318.025325412945
 30
0.0
 10
2375.394170207346
 20
1318.701718374937
 30
0.0
 10
2376.171001424186
 20
1319.345496839954
 30
0.0
 10
2377.03231439414
 20
1319.945315060338
 30
0.0
 10
2377.968057033513
 20
1320.49475721141
 30
0.0
 10
2378.967963101545
 20
1320.990555143146
 30
0.0
 10
2380.040920379674
 20
1321.435734215518
 30
0.0
 10
2381.170546855191
 20
1321.821902807828
 30
0.0
 10
2382.343963239964
 20
1322.145123342953
 30
0.0
 10
2383.549752299249
 20
1322.404361906772
 30
0.0
 10
2384.797898469164
 20
1322.600949375425
 30
0.0
 10
2386.06711893278
 20
1322.728851870883
 30
0.0
 10
2387.346026283476
 20
1322.7872639911
 30
0.0
 10
2388.621683794304
 20
1322.777128701229
 30
0.0
 10
2389.905568518385
 20
1322.697504030978
 30
0.0
 10
2391.172130157058
 20
1322.548582354795
 30
0.0
 10
2392.412134033472
 20
1322.332304334053
 30
0.0
 10
2393.613874782241
 20
1322.052155835
 30
0.0
 10
2394.78758361361
 20
1321.704844576537
 30
0.0
 10
2395.823308957381
 20
1321.327230551693
 30
0.0
 10
2396.73534332972
 20
1320.934578729069
 30
0.0
 10
2397.5272938968
 20
1320.543750397937
 30
0.0
 10
2398.303163571247
 20
1320.105985725751
 30
0.0
 10
2399.045833456052
 20
1319.625777399286
 30
0.0
 10
2399.790623858477
 20
1319.071330984554
 30
0.0
 10
2400.507650227483
 20
1318.445568359455
 30
0.0
 10
2401.178555464051
 20
1317.74394207206
 30
0.0
 10
2401.762094318325
 20
1317.000083241601
 30
0.0
 10
2402.244076867693
 20
1316.228039546763
 30
0.0
 10
2402.624783599296
 20
1315.43400098623
 30
0.0
 10
2402.892673880499
 20
1314.625865977451
 30
0.0
 10
2403.041424254607
 20
1313.988878587522
 30
0.0
 10
2403.062963542411
 20
1313.62172809044
 30
0.0
 10
2403.068209076848
 20
1313.532314708086
 30
0.0
  0
SPLINE
  5
2D3
330
2AE
100
AcDbEntity
  8
0
  6
Continuous
 62
     7
370
    15
100
AcDbSpline
210
0.0
220
0.0
230
1.0
 70
     8
 71
     3
 72
    44
 73
    40
 74
     0
 42
0.0000000001
 43
0.0000000001
 40
0.0
 40
0.0
 40
0.0
 40
0.0
 40
0.0153618240043828
 40
0.0416012065289572
 40
0.0680837865150171
 40
0.0914597866844948
 40
0.1148357876415948
 40
0.1434824059569412
 40
0.1721290255537834
 40
0.2011063495690365
 40
0.2305589272660546
 40
0.2592056572478655
 40
0.2878523870788007
 40
0.3168298094555468
 40
0.3462824810262026
 40
0.3749296293271057
 40
0.4035767761106781
 40
0.4325546709383492
 40
0.4620078748039557
 40
0.4905604027825124
 40
0.5193130903607324
 40
0.5482767807851178
 40
0.5777287127607695
 40
0.6063752563786271
 40
0.6350218000024808
 40
0.6639990284402217
 40
0.693451493304819
 40
0.7153351694607477
 40
0.7380823005550354
 40
0.7608294310300053
 40
0.785009476574359
 40
0.8091895222737568
 40
0.8377356198423088
 40
0.8665969514408102
 40
0.8954582843061734
 40
0.924910239675944
 40
0.953456653870924
 40
0.9822030789254194
 40
0.9999999999999998
 40
0.9999999999999998
 40
0.9999999999999998
 40
0.9999999999999998
 10
2372.810989247057
 20
1313.095766675809
 30
0.0
 10
2372.833196470198
 20
1313.237094084107
 30
0.0
 10
2372.893335635708
 20
1313.619821467205
 30
0.0
 10
2373.09010565971
 20
1314.238981850751
 30
0.0
 10
2373.379951740098
 20
1314.920817980283
 30
0.0
 10
2373.737782723209
 20
1315.562376776178
 30
0.0
 10
2374.175789965756
 20
1316.205448773969
 30
0.0
 10
2374.726976027986
 20
1316.86921459124
 30
0.0
 10
2375.408259399985
 20
1317.545608673095
 30
0.0
 10
2376.185097301523
 20
1318.189386833576
 30
0.0
 10
2377.046408455565
 20
1318.789205136692
 30
0.0
 10
2377.98215157111
 20
1319.338647266054
 30
0.0
 10
2378.982057512472
 20
1319.834445203626
 30
0.0
 10
2380.055014824957
 20
1320.279624274184
 30
0.0
 10
2381.18464129148
 20
1320.665792867842
 30
0.0
 10
2382.358057677375
 20
1320.989013399493
 30
0.0
 10
2383.563846740969
 20
1321.248251975862
 30
0.0
 10
2384.811992892227
 20
1321.444839396991
 30
0.0
 10
2386.081213426644
 20
1321.572742071179
 30
0.0
 10
2387.360120519289
 20
1321.63115354039
 30
0.0
 10
2388.635778995619
 20
1321.621020686163
 30
0.0
 10
2389.919660064079
 20
1321.541386794017
 30
0.0
 10
2391.187690759212
 20
1321.392328713728
 30
0.0
 10
2392.427601685819
 20
1321.175807888116
 30
0.0
 10
2393.629329492075
 20
1320.895673549026
 30
0.0
 10
2394.801674550144
 20
1320.548727318401
 30
0.0
 10
2395.837404078041
 20
1320.171122031726
 30
0.0
 10
2396.749437587898
 20
1319.778468429636
 30
0.0
 10
2397.541388436224
 20
1319.38764060182
 30
0.0
 10
2398.317257779817
 20
1318.949875563762
 30
0.0
 10
2399.059928762275
 20
1318.469668241785
 30
0.0
 10
2399.804652480816
 20
1317.915264344531
 30
0.0
 10
2400.522606007145
 20
1317.288738761497
 30
0.0
 10
2401.193288092823
 20
1316.586981749566
 30
0.0
 10
2401.776493951626
 20
1315.843057257669
 30
0.0
 10
2402.259297093945
 20
1315.072007957202
 30
0.0
 10
2402.634776435758
 20
1314.277595202749
 30
0.0
 10
2402.885014633107
 20
1313.575423337575
 30
0.0
 10
2402.966333046652
 20
1313.132295591805
 30
0.0
 10
2402.997427016212
 20
1312.962855485467
 30
0.0
  0
SPLINE
  5
2D4
330
2AE
100
AcDbEntity
  8
0
  6
Continuous
 62
     7
370
    15
100
AcDbSpline
210
0.0
220
0.0
230
1.0
 70
     8
 71
     3
 72
    43
 73
    39
 74
     0
 42
0.0000000001
 43
0.0000000001
 40
0.0
 40
0.0
 40
0.0
 40
0.0
 40
0.022400499579096
 40
0.0500154264524158
 40
0.0743909418142362
 40
0.0987664579973564
 40
0.1286379535375414
 40
0.1585094504140165
 40
0.1887257920275202
 40
0.2194377083046369
 40
0.2422566998816176
 40
0.2659760259461463
 40
0.2896953518617904
 40
0.3149087885020736
 40
0.3401222246420804
 40
0.3699671316932764
 40
0.3998120371682549
 40
0.4300832558558883
 40
0.4607958250754222
 40
0.4905624934655057
 40
0.5206578685570391
 40
0.5507532448253471
 40
0.5814644877712287
 40
0.611335905419996
 40
0.6412073230750157
 40
0.6714235650242855
 40
0.7021353636444731
 40
0.724954745935909
 40
0.748674502926248
 40
0.7723942592707892
 40
0.7976081995233005
 40
0.8228221399374852
 40
0.8525888166468218
 40
0.8826842062190907
 40
0.9127795971123905
 40
0.9434908644526803
 40
0.9732578713268152
 40
1.0
 40
1.0
 40
1.0
 40
1.0
 10
2372.938988670059
 20
1312.49283176474
 30
0.0
 10
2372.993270269265
 20
1312.688740289935
 30
0.0
 10
2373.114469232851
 20
1313.126161267922
 30
0.0
 10
2373.396036861393
 20
1313.764539925199
 30
0.0
 10
2373.751375433355
 20
1314.406309202297
 30
0.0
 10
2374.190053232648
 20
1315.049324594315
 30
0.0
 10
2374.741020116322
 20
1315.713108813741
 30
0.0
 10
2375.422372351082
 20
1316.389497499575
 30
0.0
 10
2376.199168175034
 20
1317.033277624538
 30
0.0
 10
2376.993671046744
 20
1317.586504537379
 30
0.0
 10
2377.784835072419
 20
1318.060524751341
 30
0.0
 10
2378.547758630773
 20
1318.461237485174
 30
0.0
 10
2379.37866693775
 20
1318.841841914458
 30
0.0
 10
2380.267354563272
 20
1319.192767784813
 30
0.0
 10
2381.269679681455
 20
1319.529220172671
 30
0.0
 10
2382.371101304826
 20
1319.832620855948
 30
0.0
 10
2383.576823032066
 20
1320.091945380685
 30
0.0
 10
2384.825329230724
 20
1320.288654900519
 30
0.0
 10
2386.095213667518
 20
1320.416614958495
 30
0.0
 10
2387.375625569459
 20
1320.475138571862
 30
0.0
 10
2388.651290343585
 20
1320.464758081695
 30
0.0
 10
2389.93524742555
 20
1320.385130414809
 30
0.0
 10
2391.201784695095
 20
1320.236211218584
 30
0.0
 10
2392.441696256362
 20
1320.019699946949
 30
0.0
 10
2393.643423895134
 20
1319.739563065578
 30
0.0
 10
2394.81576899351
 20
1319.392617527316
 30
0.0
 10
2395.851498529492
 20
1319.015012063627
 30
0.0
 10
2396.763531984233
 20
1318.622358491069
 30
0.0
 10
2397.555483039659
 20
1318.231530678238
 30
0.0
 10
2398.331351583602
 20
1317.793765550185
 30
0.0
 10
2399.074025733513
 20
1317.31355859374
 30
0.0
 10
2399.818736763192
 20
1316.759153229559
 30
0.0
 10
2400.536746248598
 20
1316.132634116625
 30
0.0
 10
2401.207210445293
 20
1315.430851911709
 30
0.0
 10
2401.791235683218
 20
1314.687022158974
 30
0.0
 10
2402.270953007009
 20
1313.915616066558
 30
0.0
 10
2402.64385644065
 20
1313.150855158948
 30
0.0
 10
2402.802744945221
 20
1312.641819058897
 30
0.0
 10
2402.877936625165
 20
1312.400925108654
 30
0.0
  0
LINE
  5
2D5
330
2AE
100
AcDbEntity
  8
0
  6
Continuous
 62
     7
370
    15
100
AcDbLine
 10
2373.130654760257
 20
1311.925276863683
 30
0.0
 11
2373.435125914305
 21
1312.633624605254
 31
0.0
  0
LINE
  5
2D6
330
2AE
100
AcDbEntity
  8
0
  6
Continuous
 62
     7
370
    15
100
AcDbLine
 10
2373.139899962346
 20
1312.826572023618
 30
0.0
 11
2373.435125914305
 21
1312.633624605254
 31
0.0
  0
LINE
  5
2D7
330
2AE
100
AcDbEntity
  8
0
  6
Continuous
 62
     7
370
    15
100
AcDbLine
 10
2375.418749236063
 20
1315.736461416489
 30
0.0
 11
2375.415084682199
 21
1316.037050001097
 31
0.0
  0
LINE
  5
2D8
330
2AE
100
AcDbEntity
  8
0
  6
Continuous
 62
     7
370
    15
100
AcDbLine
 10
2375.415084682198
 20
1316.037050001096
 30
0.0
 11
2375.335830088099
 21
1315.978543177748
 31
0.0
  0
LWPOLYLINE
  5
2D9
330
2AE
100
AcDbEntity
  8
0
  6
Continuous
 62
     7
370
    15
100
AcDbPolyline
 90
       44
 70
   128
 43
0.0
 10
2374.00782979663
 20
1313.783711113286
 10
2374.01982968856
 20
1313.797391448295
 10
2374.453748782122
 20
1314.26225803904
 10
2374.925308701703
 20
1314.712163219075
 10
2375.43319512523
 20
1315.14585302197
 10
2375.975992482148
 20
1315.562118676459
 10
2376.552187898869
 20
1315.959799975504
 10
2377.16017541542
 20
1316.337788509996
 10
2377.798260461548
 20
1316.695030758096
 10
2378.464664579784
 20
1317.030531021584
 10
2379.157530382325
 20
1317.343354201051
 10
2379.87492672791
 20
1317.632628402189
 10
2380.614854104254
 20
1317.897547365916
 10
2381.375250201048
 20
1318.137372715566
 10
2382.153995657987
 20
1318.351436014874
 10
2382.94891997181
 20
1318.539140631031
 10
2383.757807545879
 20
1318.699963397607
 10
2384.578403865445
 20
1318.833456072706
 10
2385.408421781386
 20
1318.9392465883
 10
2386.245547884902
 20
1319.017040087246
 10
2387.087448955396
 20
1319.066619745113
 10
2387.931778463586
 20
1319.087847374499
 10
2388.776183111694
 20
1319.080663810195
 10
2389.618309392517
 20
1319.045089074084
 10
2390.45581014907
 20
1318.981222319334
 10
2391.286351116532
 20
1318.889241554046
 10
2392.107617428264
 20
1318.769403145112
 10
2392.917320067754
 20
1318.62204110367
 10
2393.713202248521
 20
1318.447566154159
 10
2394.49304570418
 20
1318.246464589559
 10
2395.25467687115
 20
1318.019296915998
 10
2395.995972946765
 20
1317.766696290526
 10
2396.714867805906
 20
1317.489366756393
 10
2397.409357759659
 20
1317.188081280751
 10
2398.077507139965
 20
1316.863679600258
 10
2398.717453694662
 20
1316.517065880582
 10
2399.327413777924
 20
1316.149206196326
 10
2399.905687321598
 20
1315.76112583841
 10
2400.4506625736
 20
1315.353906456394
 10
2400.960820590157
 20
1314.928683043736
 10
2401.434739469378
 20
1314.486640774352
 10
2401.871098314345
 20
1314.029011699331
 10
2402.268680914694
 20
1313.557071312984
 10
2402.36674982515
 20
1313.430624911198
  0
LINE
  5
2DA
330
2AE
100
AcDbEntity
  8
0
  6
Continuous
 62
     7
370
    15
100
AcDbLine
 10
2366.399849995813
 20
1305.42328889169
 30
0.0
 11
2378.615778345864
 21
1297.077642260822
 31
0.0
  0
LINE
  5
2DB
330
2AE
100
AcDbEntity
  8
0
  6
Continuous
 62
     7
370
    15
100
AcDbLine
 10
2373.435125914305
 20
1312.633624605254
 30
0.0
 11
2373.438790468169
 21
1312.333036020645
 31
0.0
  0
SPLINE
  5
2DC
330
2AE
100
AcDbEntity
  8
0
  6
Continuous
 62
     7
370
    15
100
AcDbSpline
210
0.0
220
0.0
230
1.0
 70
     8
 71
     3
 72
    46
 73
    42
 74
     0
 42
0.0000000001
 43
0.0000000001
 40
0.0
 40
0.0
 40
0.0
 40
0.0
 40
0.0117524246996196
 40
0.0386456277093851
 40
0.0659799174789814
 40
0.0985675543688206
 40
0.1202621835069476
 40
0.1419568133760456
 40
0.1685429596759746
 40
0.1951291071652248
 40
0.2220221724188392
 40
0.2493563076714969
 40
0.2759425576060313
 40
0.3025288074005417
 40
0.3294219639407788
 40
0.3567561863150032
 40
0.3770657723073358
 40
0.3981767063744229
 40
0.4192876398263181
 40
0.4417284186247691
 40
0.4641691966197395
 40
0.4906620449478586
 40
0.5173405292810186
 40
0.5442330185877005
 40
0.5715665545639448
 40
0.5981526315391697
 40
0.6247387085199593
 40
0.6516316850706861
 40
0.6789657156066477
 40
0.7055282711853203
 40
0.732090825471536
 40
0.7590328050715699
 40
0.7863676038117994
 40
0.8128604595441986
 40
0.8395389550240331
 40
0.8664314590958039
 40
0.8937650167834933
 40
0.9202581663682575
 40
0.9469369405846659
 40
0.9738297144313346
 40
1.0
 40
1.0
 40
1.0
 40
1.0
 10
2372.707828485565
 20
1314.05342303482
 30
0.0
 10
2372.703409915491
 20
1314.170218676298
 30
0.0
 10
2372.688880282805
 20
1314.554279071836
 30
0.0
 10
2372.779049220182
 20
1315.210342056327
 30
0.0
 10
2372.989661103793
 20
1316.065885088749
 30
0.0
 10
2373.314180216503
 20
1316.856834463588
 30
0.0
 10
2373.713055712151
 20
1317.57400971269
 30
0.0
 10
2374.151333737573
 20
1318.217079519911
 30
0.0
 10
2374.702431923871
 20
1318.880846049544
 30
0.0
 10
2375.383740467537
 20
1319.55723992165
 30
0.0
 10
2376.160571411651
 20
1320.201018161695
 30
0.0
 10
2377.021884878225
 20
1320.800836358421
 30
0.0
 10
2377.957625846625
 20
1321.350278824815
 30
0.0
 10
2378.957538099785
 20
1321.846075520938
 30
0.0
 10
2380.030471913136
 20
1322.291259299577
 30
0.0
 10
2381.072438613566
 20
1322.647416740939
 30
0.0
 10
2382.069541946815
 20
1322.92961202285
 30
0.0
 10
2383.001361125101
 20
1323.148583803585
 30
0.0
 10
2383.986820834338
 20
1323.33446517478
 30
0.0
 10
2385.011235827696
 20
1323.480314197319
 30
0.0
 10
2386.134286872253
 20
1323.587943444581
 30
0.0
 10
2387.335320665668
 20
1323.642765957308
 30
0.0
 10
2388.610963402152
 20
1323.632666907096
 30
0.0
 10
2389.894947252126
 20
1323.553039690405
 30
0.0
 10
2391.1631660963
 20
1323.403960407212
 30
0.0
 10
2392.403077702019
 20
1323.18743829255
 30
0.0
 10
2393.604804146555
 20
1322.907308047442
 30
0.0
 10
2394.777154056411
 20
1322.560346470096
 30
0.0
 10
2395.899753200957
 20
1322.151121433961
 30
0.0
 10
2396.960454981821
 20
1321.684604095155
 30
0.0
 10
2397.952870579151
 20
1321.166068945059
 30
0.0
 10
2398.88324504905
 20
1320.590725379122
 30
0.0
 10
2399.733739013578
 20
1319.967380808906
 30
0.0
 10
2400.497045312585
 20
1319.301244115307
 30
0.0
 10
2401.168005989837
 20
1318.599627440252
 30
0.0
 10
2401.751525472946
 20
1317.855716894322
 30
0.0
 10
2402.233897214938
 20
1317.083573675336
 30
0.0
 10
2402.613449676174
 20
1316.289476032058
 30
0.0
 10
2402.885659182429
 20
1315.481562326573
 30
0.0
 10
2403.060144353904
 20
1314.664487740515
 30
0.0
 10
2403.08497497705
 20
1314.11610002372
 30
0.0
 10
2403.097221246031
 20
1313.845639494134
 30
0.0
  0
SPLINE
  5
2DD
330
2AE
100
AcDbEntity
  8
0
  6
Continuous
 62
     7
370
    15
100
AcDbSpline
210
0.0
220
0.0
230
1.0
 70
     8
 71
     3
 72
    45
 73
    41
 74
     0
 42
0.0000000001
 43
0.0000000001
 40
0.0
 40
0.0
 40
0.0
 40
0.0
 40
0.0043747551018187
 40
0.0298780383815283
 40
0.0553813206251068
 40
0.0811209778479896
 40
0.1038412049527927
 40
0.1265614328231229
 40
0.1544044200403755
 40
0.1822474085031738
 40
0.2104118240465857
 40
0.2390381608555595
 40
0.2668812566066694
 40
0.294724352211136
 40
0.3228888633566793
 40
0.3515152914058297
 40
0.379358793740817
 40
0.4072022946010397
 40
0.4353672649437177
 40
0.4639942103552077
 40
0.4917394890062327
 40
0.5196791794707316
 40
0.5478429918397342
 40
0.5764687010419331
 40
0.6043116156572061
 40
0.6321545302783062
 40
0.6603188529254652
 40
0.6889450800673372
 40
0.7167633613289777
 40
0.7445816412370612
 40
0.7727972835173892
 40
0.8014243151798334
 40
0.8291696015851702
 40
0.8571093037232934
 40
0.8852731315553942
 40
0.9138988634954305
 40
0.9416194285504779
 40
0.9695338635679018
 40
0.9977485609143831
 40
1.0
 40
1.0
 40
1.0
 40
1.0
 10
2372.740815561224
 20
1313.526914955243
 30
0.0
 10
2372.742741746009
 20
1313.568449891607
 30
0.0
 10
2372.755896910489
 20
1313.852118895688
 30
0.0
 10
2372.865784871963
 20
1314.375809752112
 30
0.0
 10
2373.075784223031
 20
1315.094669431035
 30
0.0
 10
2373.370432439967
 20
1315.776300441721
 30
0.0
 10
2373.727123368265
 20
1316.417907934009
 30
0.0
 10
2374.165437171428
 20
1317.060966837345
 30
0.0
 10
2374.716523755564
 20
1317.724736903731
 30
0.0
 10
2375.397835589124
 20
1318.401129769877
 30
0.0
 10
2376.174665750857
 20
1319.044908260956
 30
0.0
 10
2377.035979007438
 20
1319.644726474265
 30
0.0
 10
2377.971721571638
 20
1320.194168627176
 30
0.0
 10
2378.97162765971
 20
1320.689966558485
 30
0.0
 10
2380.04458493224
 20
1321.135145630738
 30
0.0
 10
2381.174211409841
 20
1321.521314223965
 30
0.0
 10
2382.347627792017
 20
1321.84453475562
 30
0.0
 10
2383.553416859632
 20
1322.103773332396
 30
0.0
 10
2384.801562998291
 20
1322.300360751866
 30
0.0
 10
2386.070689633715
 20
1322.428253965172
 30
0.0
 10
2387.349403288228
 20
1322.486664325486
 30
0.0
 10
2388.625061042192
 20
1322.476554714465
 30
0.0
 10
2389.90904081266
 20
1322.396930366637
 30
0.0
 10
2391.177260763702
 20
1322.247850305
 30
0.0
 10
2392.417172079422
 20
1322.031328394482
 30
0.0
 10
2393.618898600175
 20
1321.751198095009
 30
0.0
 10
2394.79124849288
 20
1321.404236532631
 30
0.0
 10
2395.913847628628
 20
1320.995011491739
 30
0.0
 10
2396.974549460823
 20
1320.528494156701
 30
0.0
 10
2397.966964861695
 20
1320.009958996197
 30
0.0
 10
2398.897340080146
 20
1319.434615468858
 30
0.0
 10
2399.747831232172
 20
1318.811270753907
 30
0.0
 10
2400.511147769352
 20
1318.145134587102
 30
0.0
 10
2401.182070134652
 20
1317.443515940764
 30
0.0
 10
2401.765734749242
 20
1316.699612862349
 30
0.0
 10
2402.247418380613
 20
1315.927670201782
 30
0.0
 10
2402.628772353764
 20
1315.134161772375
 30
0.0
 10
2402.893692445902
 20
1314.325890455116
 30
0.0
 10
2403.03517290452
 20
1313.755695370923
 30
0.0
 10
2403.055699469617
 20
1313.455405752774
 30
0.0
 10
2403.057216377121
 20
1313.433214432755
 30
0.0
  0
SPLINE
  5
2DE
330
2AE
100
AcDbEntity
  8
0
  6
Continuous
 62
     7
370
    15
100
AcDbSpline
210
0.0
220
0.0
230
1.0
 70
     8
 71
     3
 72
    44
 73
    40
 74
     0
 42
0.0000000001
 43
0.0000000001
 40
0.0
 40
0.0
 40
0.0
 40
0.0
 40
0.0106361403982579
 40
0.0371541826629428
 40
0.0639180051229612
 40
0.0875422561850031
 40
0.1111665080430316
 40
0.1401173507130216
 40
0.1690681946781169
 40
0.1983532551110103
 40
0.2281186163744454
 40
0.2570695718967879
 40
0.2860205272666522
 40
0.3153056871056275
 40
0.3450711432396301
 40
0.374022521523574
 40
0.4029738982740734
 40
0.4322595355813569
 40
0.462025529663231
 40
0.4908747760028307
 40
0.5199261696832002
 40
0.5492106029417428
 40
0.5789753116263127
 40
0.6079260788055341
 40
0.6368768459908156
 40
0.6661618098311713
 40
0.6959270570639175
 40
0.7180431357737023
 40
0.7410318392309466
 40
0.7640205420622966
 40
0.7884573773844177
 40
0.8128942128632296
 40
0.8417434672656808
 40
0.870794873084162
 40
0.9000793224210696
 40
0.9298440547482011
 40
0.9586676041529365
 40
0.9876927374874203
 40
0.9999999999999998
 40
0.9999999999999998
 40
0.9999999999999998
 40
0.9999999999999998
 10
2372.838213334473
 20
1312.928501435155
 30
0.0
 10
2372.853830221886
 20
1313.025295220145
 30
0.0
 10
2372.908383157991
 20
1313.363415424796
 30
0.0
 10
2373.094715676608
 20
1313.938324006879
 30
0.0
 10
2373.383395065176
 20
1314.620245601641
 30
0.0
 10
2373.741503027629
 20
1315.2617841076
 30
0.0
 10
2374.179435790462
 20
1315.904861561353
 30
0.0
 10
2374.730646021159
 20
1316.568625608178
 30
0.0
 10
2375.411922478346
 20
1317.245020196574
 30
0.0
 10
2376.18876226029
 20
1317.888798219306
 30
0.0
 10
2377.050072903516
 20
1318.488616559842
 30
0.0
 10
2377.985816153005
 20
1319.038058679391
 30
0.0
 10
2378.985722058745
 20
1319.533856619576
 30
0.0
 10
2380.058679380857
 20
1319.979035689418
 30
0.0
 10
2381.188305844991
 20
1320.365204283293
 30
0.0
 10
2382.36172223069
 20
1320.688424814804
 30
0.0
 10
2383.5675112974
 20
1320.947663391519
 30
0.0
 10
2384.815657436186
 20
1321.144250811384
 30
0.0
 10
2386.084784072022
 20
1321.272144023161
 30
0.0
 10
2387.363497724798
 20
1321.330554389053
 30
0.0
 10
2388.639155485328
 20
1321.320444757155
 30
0.0
 10
2389.923135230906
 20
1321.240820488415
 30
0.0
 10
2391.191355275603
 20
1321.091740129197
 30
0.0
 10
2392.431266249881
 20
1320.875219303592
 30
0.0
 10
2393.632994042127
 20
1320.595084964002
 30
0.0
 10
2394.805339109035
 20
1320.248138735399
 30
0.0
 10
2395.841068617261
 20
1319.870533441668
 30
0.0
 10
2396.753102181304
 20
1319.477879859875
 30
0.0
 10
2397.545052834586
 20
1319.087051958773
 30
0.0
 10
2398.320922929097
 20
1318.649287202925
 30
0.0
 10
2399.063590937739
 20
1318.169078763309
 30
0.0
 10
2399.80832656925
 20
1317.614679343274
 30
0.0
 10
2400.525213834885
 20
1316.989018738535
 30
0.0
 10
2401.196278896714
 20
1316.287415785234
 30
0.0
 10
2401.779393854653
 20
1315.543469232874
 30
0.0
 10
2402.263145116068
 20
1314.771685611367
 30
0.0
 10
2402.636974796549
 20
1313.977599603721
 30
0.0
 10
2402.872820634233
 20
1313.32894837924
 30
0.0
 10
2402.946063929433
 20
1312.939758004844
 30
0.0
 10
2402.967873080411
 20
1312.82387147064
 30
0.0
  0
SPLINE
  5
2DF
330
2AE
100
AcDbEntity
  8
0
  6
Continuous
 62
     7
370
    15
100
AcDbSpline
210
0.0
220
0.0
230
1.0
 70
     8
 71
     3
 72
    41
 73
    37
 74
     0
 42
0.0000000001
 43
0.0000000001
 40
0.0
 40
0.0
 40
0.0
 40
0.0
 40
0.0167384300969462
 40
0.0446731930197137
 40
0.069331025570797
 40
0.0939888589526924
 40
0.124206326117879
 40
0.154423794634833
 40
0.18499010188014
 40
0.2160577235342113
 40
0.2462753084891387
 40
0.2764928932849166
 40
0.3070593042854084
 40
0.3381270249607157
 40
0.3683175956890667
 40
0.3985081648229436
 40
0.4291299847285863
 40
0.460198266887453
 40
0.4903096927946121
 40
0.5206321101641579
 40
0.5511977627956917
 40
0.582264703320006
 40
0.612482091691637
 40
0.6426994800695933
 40
0.6732656864963555
 40
0.7043331891307956
 40
0.734523843389857
 40
0.7647144961799287
 40
0.7953363988334671
 40
0.8264047745988591
 40
0.8565162089216268
 40
0.8868386389603374
 40
0.9174043083736785
 40
0.948471273574937
 40
0.9785558782840281
 40
1.0
 40
1.0
 40
1.0
 40
1.0
 10
2372.988778034309
 20
1312.345397246348
 30
0.0
 10
2373.029392408657
 20
1312.490048350433
 30
0.0
 10
2373.137788104916
 20
1312.87610765563
 30
0.0
 10
2373.400405150263
 20
1313.463866420191
 30
0.0
 10
2373.754862710603
 20
1314.105742016539
 30
0.0
 10
2374.19377706617
 20
1314.748728826722
 30
0.0
 10
2374.74466877265
 20
1315.412522287144
 30
0.0
 10
2375.426036362503
 20
1316.08890846004
 30
0.0
 10
2376.202851361646
 20
1316.732688771311
 30
0.0
 10
2377.064168738256
 20
1317.332506490024
 30
0.0
 10
2377.999910218164
 20
1317.881948773125
 30
0.0
 10
2378.999816609319
 20
1318.377746667952
 30
0.0
 10
2380.072773744075
 20
1318.82292575712
 30
0.0
 10
2381.202062811249
 20
1319.208978889972
 30
0.0
 10
2382.374752684872
 20
1319.532033090023
 30
0.0
 10
2383.580491163694
 20
1319.791357075605
 30
0.0
 10
2384.828992829783
 20
1319.988064321862
 30
0.0
 10
2386.098878371477
 20
1320.116034084618
 30
0.0
 10
2387.377592200908
 20
1320.174444443602
 30
0.0
 10
2388.653249908086
 20
1320.164334832934
 30
0.0
 10
2389.937229691343
 20
1320.084710485023
 30
0.0
 10
2391.205449638614
 20
1319.935630423358
 30
0.0
 10
2392.44536095642
 20
1319.719108513032
 30
0.0
 10
2393.647087472528
 20
1319.438978212822
 30
0.0
 10
2394.819437382015
 20
1319.092016653245
 30
0.0
 10
2395.942036454817
 20
1318.682791601807
 30
0.0
 10
2397.002738516234
 20
1318.216274305183
 30
0.0
 10
2397.995153062911
 20
1317.697739001528
 30
0.0
 10
2398.925531529947
 20
1317.122396018604
 30
0.0
 10
2399.776010477838
 20
1316.499049258419
 30
0.0
 10
2400.539371440512
 20
1315.832920536677
 30
0.0
 10
2401.210127562659
 20
1315.131274030418
 30
0.0
 10
2401.794421931481
 20
1314.387476489603
 30
0.0
 10
2402.273739439789
 20
1313.61513730141
 30
0.0
 10
2402.62595959041
 20
1312.899733799431
 30
0.0
 10
2402.77061075
 20
1312.441107680452
 30
0.0
 10
2402.830808571446
 20
1312.250246485158
 30
0.0
  0
LINE
  5
2E0
330
2AE
100
AcDbEntity
  8
0
  6
Continuous
 62
     7
370
    15
100
AcDbLine
 10
2373.189114395256
 20
1311.752168243775
 30
0.0
 11
2373.438790468169
 21
1312.333036020645
 31
0.0
  0
LINE
  5
2E1
330
2AE
100
AcDbEntity
  8
0
  6
Continuous
 62
     7
370
    15
100
AcDbLine
 10
2405.311169031576
 20
1301.104541981654
 30
0.0
 11
2410.66725012511
 21
1312.10086043658
 31
0.0
  0
SPLINE
  5
2E2
330
2AE
100
AcDbEntity
  8
0
  6
Continuous
 62
     7
370
    15
100
AcDbSpline
210
0.0
220
0.0
230
1.0
 70
     8
 71
     3
 72
     8
 73
     4
 74
     0
 42
0.0000000001
 43
0.0000000001
 40
0.0
 40
0.0
 40
0.0
 40
0.0
 40
0.8006724757727068
 40
0.8006724757727068
 40
0.8006724757727068
 40
0.8006724757727068
 10
2373.435125914305
 20
1312.633624605254
 30
0.0
 10
2373.736609346256
 20
1313.801665409834
 30
0.0
 10
2374.401962198845
 20
1314.964412892127
 30
0.0
 10
2375.415084682199
 20
1316.037050001097
 30
0.0
  0
SPLINE
  5
2E3
330
2AE
100
AcDbEntity
  8
0
  6
Continuous
 62
     7
370
    15
100
AcDbSpline
210
0.0
220
0.0
230
1.0
 70
     8
 71
     3
 72
     8
 73
     4
 74
     0
 42
0.0000000001
 43
0.0000000001
 40
0.0
 40
0.0
 40
0.0
 40
0.0
 40
0.8006724757727006
 40
0.8006724757727006
 40
0.8006724757727006
 40
0.8006724757727006
 10
2373.438790468169
 20
1312.333036020645
 30
0.0
 10
2373.74027390012
 20
1313.501076825236
 30
0.0
 10
2374.40562675271
 20
1314.663824307522
 30
0.0
 10
2375.418749236064
 20
1315.73646141649
 30
0.0
  0
ENDBLK
  5
2B0
330
2AE
100
AcDbEntity
  8
0
100
AcDbBlockEnd
  0
ENDSEC
  0
SECTION
  2
ENTITIES
  0
INSERT
  5
295
330
1F
100
AcDbEntity
  8
0
100
AcDbBlockReference
  2
1
 10
0.0
 20
0.0
 30
0.0
  0
INSERT
  5
2AD
330
1F
100
AcDbEntity
  8
0
100
AcDbBlockReference
  2
2
 10
0.0
 20
0.0
 30
0.0
  0
INSERT
  5
2E4
330
1F
100
AcDbEntity
  8
0
100
AcDbBlockReference
  2
3
 10
0.0
 20
0.0
 30
0.0
  0
ENDSEC
  0
SECTION
  2
OBJECTS
  0
DICTIONARY
  5
C
330
0
100
AcDbDictionary
281
     1
  3
ACAD_COLOR
350
6B
  3
ACAD_GROUP
350
D
  3
ACAD_LAYOUT
350
1A
  3
ACAD_MATERIAL
350
6A
  3
ACAD_MLEADERSTYLE
350
12D
  3
ACAD_MLINESTYLE
350
17
  3
ACAD_PLOTSETTINGS
350
19
  3
ACAD_PLOTSTYLENAME
350
E
  3
ACAD_SCALELIST
350
10C
  3
ACAD_TABLESTYLE
350
7E
  3
ACAD_VISUALSTYLE
350
EF
  3
ACDB_RECOMPOSE_DATA
350
15D
  3
AcDbVariableDictionary
350
5E
  3
DWGPROPS
350
2F2
  0
DICTIONARY
  5
13C
330
10
100
AcDbDictionary
280
     1
281
     1
  3
ADSK_XREC_LAYER_RECONCILED
360
2E5
  0
DICTIONARY
  5
6B
102
{ACAD_REACTORS
330
C
102
}
330
C
100
AcDbDictionary
281
     1
  0
DICTIONARY
  5
D
102
{ACAD_REACTORS
330
C
102
}
330
C
100
AcDbDictionary
281
     1
  0
DICTIONARY
  5
1A
102
{ACAD_REACTORS
330
C
102
}
330
C
100
AcDbDictionary
281
     1
  3
Layout1
350
D3
  3
Layout2
350
D7
  3
Model
350
22
  0
DICTIONARY
  5
6A
102
{ACAD_REACTORS
330
C
102
}
330
C
100
AcDbDictionary
281
     1
  3
ByBlock
350
ED
  3
ByLayer
350
EC
  3
Global
350
EE
  0
DICTIONARY
  5
12D
102
{ACAD_REACTORS
330
C
102
}
330
C
100
AcDbDictionary
281
     1
  3
Annotative
350
13B
  3
Standard
350
12E
  0
DICTIONARY
  5
17
102
{ACAD_REACTORS
330
C
102
}
330
C
100
AcDbDictionary
281
     1
  3
Standard
350
18
  0
DICTIONARY
  5
19
102
{ACAD_REACTORS
330
C
102
}
330
C
100
AcDbDictionary
281
     1
  0
ACDBDICTIONARYWDFLT
  5
E
102
{ACAD_REACTORS
330
C
102
}
330
C
100
AcDbDictionary
281
     1
  3
Normal
350
F
100
AcDbDictionaryWithDefault
340
F
  0
DICTIONARY
  5
10C
102
{ACAD_REACTORS
330
C
102
}
330
C
100
AcDbDictionary
281
     1
  3
A0
350
10D
  3
A1
350
188
  3
A2
350
189
  3
A3
350
18A
  3
A4
350
18B
  3
A5
350
18C
  3
A6
350
18D
  3
A7
350
18E
  3
A8
350
18F
  3
A9
350
190
  3
B0
350
191
  3
B1
350
192
  3
B2
350
193
  3
B3
350
194
  3
B4
350
195
  3
B5
350
196
  3
B6
350
197
  3
B7
350
198
  3
B8
350
199
  3
B9
350
19A
  3
C0
350
19B
  3
C1
350
19C
  3
C2
350
19D
  3
C3
350
19E
  3
C4
350
19F
  3
C5
350
1A0
  3
C6
350
1A1
  3
C7
350
1A2
  3
C8
350
1A3
  3
C9
350
1A4
  3
D0
350
1A5
  3
D1
350
1A6
  3
D2
350
1A7
  0
DICTIONARY
  5
7E
102
{ACAD_REACTORS
330
C
102
}
330
C
100
AcDbDictionary
281
     1
  3
Standard
350
7F
  0
DICTIONARY
  5
EF
102
{ACAD_REACTORS
330
C
102
}
330
C
100
AcDbDictionary
281
     1
  3
2dWireframe
350
F5
  3
3D Hidden
350
F7
  3
3dWireframe
350
F6
  3
Basic
350
F4
  3
Brighten
350
FB
  3
ColorChange
350
FF
  3
Conceptual
350
F8
  3
Dim
350
FA
  3
Facepattern
350
FE
  3
Flat
350
F0
  3
FlatWithEdges
350
F1
  3
Gouraud
350
F2
  3
GouraudWithEdges
350
F3
  3
Linepattern
350
FD
  3
Realistic
350
F9
  3
Thicken
350
FC
  0
XRECORD
  5
15D
102
{ACAD_REACTORS
330
C
102
}
330
C
100
AcDbXrecord
280
     1
 90
        1
330
7F
  0
DICTIONARY
  5
5E
102
{ACAD_REACTORS
330
C
102
}
330
C
100
AcDbDictionary
281
     1
  3
CANNOSCALE
350
146
  3
CMLEADERSTYLE
350
145
  3
CTABLESTYLE
350
84
  3
DIMASSOC
350
5F
  3
HIDETEXT
350
63
  3
INDEXCTL
350
2EE
  3
LIGHTINGUNITS
350
2EC
  3
MSLTSCALE
350
2EB
  3
PSOLHEIGHT
350
2F0
  3
PSOLWIDTH
350
2EF
  3
SORTENTS
350
2ED
  0
XRECORD
  5
2F2
102
{ACAD_REACTORS
330
C
102
}
330
C
100
AcDbXrecord
280
     1
  1
DWGPROPS COOKIE
  2

  3

  4

  6

  7

  8
orhan kara
  9

300
=
301
=
302
=
303
=
304
=
305
=
306
=
307
=
308
=
309
=
 40
0.0004486805555556
 41
2459059.72164456
 42
2459067.636982396
  1

 90
        0
  0
XRECORD
  5
2E5
102
{ACAD_REACTORS
330
13C
102
}
330
13C
100
AcDbXrecord
280
     1
290
     1
  0
LAYOUT
  5
D3
102
{ACAD_XDICTIONARY
360
2F6
102
}
102
{ACAD_REACTORS
330
1A
102
}
330
1A
100
AcDbPlotSettings
  1

  2
C:\Documents and Settings\basas\Application Data\Autodesk\AutoCAD 2005\R16.1\enu\plotters\Default Windows System Printer.pc3
  4

  6

 40
0.0
 41
0.0
 42
0.0
 43
0.0
 44
0.0
 45
0.0
 46
0.0
 47
0.0
 48
0.0
 49
0.0
140
0.0
141
0.0
142
1.0
143
1.0
 70
   688
 72
     0
 73
     0
 74
     5
  7

 75
    16
147
1.0
148
0.0
149
0.0
100
AcDbLayout
  1
Layout1
 70
     1
 71
     1
 10
0.0
 20
0.0
 11
12.0
 21
9.0
 12
0.0
 22
0.0
 32
0.0
 14
0.0
 24
0.0
 34
0.0
 15
0.0
 25
0.0
 35
0.0
146
0.0
 13
0.0
 23
0.0
 33
0.0
 16
1.0
 26
0.0
 36
0.0
 17
0.0
 27
1.0
 37
0.0
 76
     0
330
D2
  0
LAYOUT
  5
D7
102
{ACAD_XDICTIONARY
360
2F8
102
}
102
{ACAD_REACTORS
330
1A
102
}
330
1A
100
AcDbPlotSettings
  1

  2
C:\Documents and Settings\basas\Application Data\Autodesk\AutoCAD 2005\R16.1\enu\plotters\Default Windows System Printer.pc3
  4

  6

 40
0.0
 41
0.0
 42
0.0
 43
0.0
 44
0.0
 45
0.0
 46
0.0
 47
0.0
 48
0.0
 49
0.0
140
0.0
141
0.0
142
1.0
143
1.0
 70
   688
 72
     0
 73
     0
 74
     5
  7

 75
    16
147
1.0
148
0.0
149
0.0
100
AcDbLayout
  1
Layout2
 70
     1
 71
     2
 10
0.0
 20
0.0
 11
12.0
 21
9.0
 12
0.0
 22
0.0
 32
0.0
 14
0.0
 24
0.0
 34
0.0
 15
0.0
 25
0.0
 35
0.0
146
0.0
 13
0.0
 23
0.0
 33
0.0
 16
1.0
 26
0.0
 36
0.0
 17
0.0
 27
1.0
 37
0.0
 76
     0
330
D6
  0
LAYOUT
  5
22
102
{ACAD_XDICTIONARY
360
2F3
102
}
102
{ACAD_REACTORS
330
1A
102
}
330
1A
100
AcDbPlotSettings
  1

  2
none_device
  4
ISO_A4_(210.00_x_297.00_MM)
  6

 40
7.5
 41
20.0
 42
7.5
 43
20.0
 44
210.0
 45
297.0
 46
11.54999923706054
 47
-13.65000009536743
 48
0.0
 49
0.0
140
0.0
141
0.0
142
1.0
143
8.704084754739808
 70
 11952
 72
     1
 73
     0
 74
     0
  7

 75
     0
147
0.1148885871608098
148
0.0
149
0.0
100
AcDbLayout
  1
Model
 70
     1
 71
     0
 10
0.0
 20
0.0
 11
12.0
 21
9.0
 12
0.0
 22
0.0
 32
0.0
 14
0.0
 24
0.0
 34
0.0
 15
0.0
 25
0.0
 35
0.0
146
0.0
 13
0.0
 23
0.0
 33
0.0
 16
1.0
 26
0.0
 36
0.0
 17
0.0
 27
1.0
 37
0.0
 76
     0
330
1F
331
EA
1001
ACAD_PSEXT
1000
None
1000
None
1000
Not applicable
1000
The layout will not be plotted unless a new plotter configuration name is selected.
1070
     0
  0
MATERIAL
  5
ED
102
{ACAD_XDICTIONARY
360
2FC
102
}
102
{ACAD_REACTORS
330
6A
102
}
330
6A
100
AcDbMaterial
  1
ByBlock
  0
MATERIAL
  5
EC
102
{ACAD_XDICTIONARY
360
2FA
102
}
102
{ACAD_REACTORS
330
6A
102
}
330
6A
100
AcDbMaterial
  1
ByLayer
  0
MATERIAL
  5
EE
102
{ACAD_XDICTIONARY
360
173
102
}
102
{ACAD_REACTORS
330
6A
102
}
330
6A
100
AcDbMaterial
  1
Global
 43
0.0007999999797903
 43
0.0
 43
0.0
 43
0.0
 43
0.0
 43
0.0007999999797903
 43
0.0
 43
0.0
 43
0.0
 43
0.0
 43
1.0
 43
0.0
 43
0.0
 43
0.0
 43
0.0
 43
1.0
 49
0.0007999999797903
 49
0.0
 49
0.0
 49
0.0
 49
0.0
 49
0.0007999999797903
 49
0.0
 49
0.0
 49
0.0
 49
0.0
 49
1.0
 49
0.0
 49
0.0
 49
0.0
 49
0.0
 49
1.0
142
0.0007999999797903
142
0.0
142
0.0
142
0.0
142
0.0
142
0.0007999999797903
142
0.0
142
0.0
142
0.0
142
0.0
142
1.0
142
0.0
142
0.0
142
0.0
142
0.0
142
1.0
144
0.0007999999797903
144
0.0
144
0.0
144
0.0
144
0.0
144
0.0007999999797903
144
0.0
144
0.0
144
0.0
144
0.0
144
1.0
144
0.0
144
0.0
144
0.0
144
0.0
144
1.0
1001
ACAD
1070
    -1
1070
     3
1070
     0
1000

1071
        0
1070
     0
  0
MLEADERSTYLE
  5
13B
102
{ACAD_REACTORS
330
12D
102
}
330
12D
100
AcDbMLeaderStyle
170
     2
171
     1
172
     0
 90
        2
 40
0.0
 41
0.0
173
     1
 91
-1056964608
340
14
 92
       -2
290
     1
 42
2.0
291
     1
 43
8.0
  3
Standard
 44
4.0
300

342
11
174
     1
178
     1
175
     1
176
     0
 93
-1056964608
 45
4.0
292
     0
297
     0
 46
4.0
 94
-1056964608
 47
1.0
 49
1.0
140
1.0
293
     1
141
0.0
294
     1
177
     0
142
1.0
295
     0
296
     1
143
3.75
1001
ACAD_MLEADERVER
1070
     2
  0
MLEADERSTYLE
  5
12E
102
{ACAD_REACTORS
330
12D
102
}
330
12D
100
AcDbMLeaderStyle
170
     2
171
     1
172
     0
 90
        2
 40
0.0
 41
0.0
173
     1
 91
-1056964608
340
14
 92
       -2
290
     1
 42
2.0
291
     1
 43
8.0
  3
Standard
 44
4.0
300

342
11
174
     1
178
     1
175
     1
176
     0
 93
-1056964608
 45
4.0
292
     0
297
     0
 46
4.0
 94
-1056964608
 47
1.0
 49
1.0
140
1.0
293
     1
141
0.0
294
     1
177
     0
142
1.0
295
     0
296
     0
143
3.75
1001
ACAD_MLEADERVER
1070
     2
  0
MLINESTYLE
  5
18
102
{ACAD_REACTORS
330
17
102
}
330
17
100
AcDbMlineStyle
  2
STANDARD
 70
     0
  3

 62
   256
 51
90.0
 52
90.0
 71
     2
 49
0.5
 62
   256
  6
BYLAYER
 49
-0.5
 62
   256
  6
BYLAYER
  0
ACDBPLACEHOLDER
  5
F
102
{ACAD_REACTORS
330
E
102
}
330
E
  0
SCALE
  5
10D
102
{ACAD_REACTORS
330
10C
102
}
330
10C
100
AcDbScale
 70
     0
300
1:1
140
1.0
141
1.0
290
     1
  0
SCALE
  5
188
102
{ACAD_REACTORS
330
10C
102
}
330
10C
100
AcDbScale
 70
     0
300
1:2
140
1.0
141
2.0
290
     0
  0
SCALE
  5
189
102
{ACAD_REACTORS
330
10C
102
}
330
10C
100
AcDbScale
 70
     0
300
1:4
140
1.0
141
4.0
290
     0
  0
SCALE
  5
18A
102
{ACAD_REACTORS
330
10C
102
}
330
10C
100
AcDbScale
 70
     0
300
1:5
140
1.0
141
5.0
290
     0
  0
SCALE
  5
18B
102
{ACAD_REACTORS
330
10C
102
}
330
10C
100
AcDbScale
 70
     0
300
1:8
140
1.0
141
8.0
290
     0
  0
SCALE
  5
18C
102
{ACAD_REACTORS
330
10C
102
}
330
10C
100
AcDbScale
 70
     0
300
1:10
140
1.0
141
10.0
290
     0
  0
SCALE
  5
18D
102
{ACAD_REACTORS
330
10C
102
}
330
10C
100
AcDbScale
 70
     0
300
1:16
140
1.0
141
16.0
290
     0
  0
SCALE
  5
18E
102
{ACAD_REACTORS
330
10C
102
}
330
10C
100
AcDbScale
 70
     0
300
1:20
140
1.0
141
20.0
290
     0
  0
SCALE
  5
18F
102
{ACAD_REACTORS
330
10C
102
}
330
10C
100
AcDbScale
 70
     0
300
1:30
140
1.0
141
30.0
290
     0
  0
SCALE
  5
190
102
{ACAD_REACTORS
330
10C
102
}
330
10C
100
AcDbScale
 70
     0
300
1:40
140
1.0
141
40.0
290
     0
  0
SCALE
  5
191
102
{ACAD_REACTORS
330
10C
102
}
330
10C
100
AcDbScale
 70
     0
300
1:50
140
1.0
141
50.0
290
     0
  0
SCALE
  5
192
102
{ACAD_REACTORS
330
10C
102
}
330
10C
100
AcDbScale
 70
     0
300
1:100
140
1.0
141
100.0
290
     0
  0
SCALE
  5
193
102
{ACAD_REACTORS
330
10C
102
}
330
10C
100
AcDbScale
 70
     0
300
2:1
140
2.0
141
1.0
290
     0
  0
SCALE
  5
194
102
{ACAD_REACTORS
330
10C
102
}
330
10C
100
AcDbScale
 70
     0
300
4:1
140
4.0
141
1.0
290
     0
  0
SCALE
  5
195
102
{ACAD_REACTORS
330
10C
102
}
330
10C
100
AcDbScale
 70
     0
300
8:1
140
8.0
141
1.0
290
     0
  0
SCALE
  5
196
102
{ACAD_REACTORS
330
10C
102
}
330
10C
100
AcDbScale
 70
     0
300
10:1
140
10.0
141
1.0
290
     0
  0
SCALE
  5
197
102
{ACAD_REACTORS
330
10C
102
}
330
10C
100
AcDbScale
 70
     0
300
100:1
140
100.0
141
1.0
290
     0
  0
SCALE
  5
198
102
{ACAD_REACTORS
330
10C
102
}
330
10C
100
AcDbScale
 70
     0
300
1/128" = 1'-0"
140
0.0078125
141
12.0
290
     0
  0
SCALE
  5
199
102
{ACAD_REACTORS
330
10C
102
}
330
10C
100
AcDbScale
 70
     0
300
1/64" = 1'-0"
140
0.015625
141
12.0
290
     0
  0
SCALE
  5
19A
102
{ACAD_REACTORS
330
10C
102
}
330
10C
100
AcDbScale
 70
     0
300
1/32" = 1'-0"
140
0.03125
141
12.0
290
     0
  0
SCALE
  5
19B
102
{ACAD_REACTORS
330
10C
102
}
330
10C
100
AcDbScale
 70
     0
300
1/16" = 1'-0"
140
0.0625
141
12.0
290
     0
  0
SCALE
  5
19C
102
{ACAD_REACTORS
330
10C
102
}
330
10C
100
AcDbScale
 70
     0
300
3/32" = 1'-0"
140
0.09375
141
12.0
290
     0
  0
SCALE
  5
19D
102
{ACAD_REACTORS
330
10C
102
}
330
10C
100
AcDbScale
 70
     0
300
1/8" = 1'-0"
140
0.125
141
12.0
290
     0
  0
SCALE
  5
19E
102
{ACAD_REACTORS
330
10C
102
}
330
10C
100
AcDbScale
 70
     0
300
3/16" = 1'-0"
140
0.1875
141
12.0
290
     0
  0
SCALE
  5
19F
102
{ACAD_REACTORS
330
10C
102
}
330
10C
100
AcDbScale
 70
     0
300
1/4" = 1'-0"
140
0.25
141
12.0
290
     0
  0
SCALE
  5
1A0
102
{ACAD_REACTORS
330
10C
102
}
330
10C
100
AcDbScale
 70
     0
300
3/8" = 1'-0"
140
0.375
141
12.0
290
     0
  0
SCALE
  5
1A1
102
{ACAD_REACTORS
330
10C
102
}
330
10C
100
AcDbScale
 70
     0
300
1/2" = 1'-0"
140
0.5
141
12.0
290
     0
  0
SCALE
  5
1A2
102
{ACAD_REACTORS
330
10C
102
}
330
10C
100
AcDbScale
 70
     0
300
3/4" = 1'-0"
140
0.75
141
12.0
290
     0
  0
SCALE
  5
1A3
102
{ACAD_REACTORS
330
10C
102
}
330
10C
100
AcDbScale
 70
     0
300
1" = 1'-0"
140
1.0
141
12.0
290
     0
  0
SCALE
  5
1A4
102
{ACAD_REACTORS
330
10C
102
}
330
10C
100
AcDbScale
 70
     0
300
1-1/2" = 1'-0"
140
1.5
141
12.0
290
     0
  0
SCALE
  5
1A5
102
{ACAD_REACTORS
330
10C
102
}
330
10C
100
AcDbScale
 70
     0
300
3" = 1'-0"
140
3.0
141
12.0
290
     0
  0
SCALE
  5
1A6
102
{ACAD_REACTORS
330
10C
102
}
330
10C
100
AcDbScale
 70
     0
300
6" = 1'-0"
140
6.0
141
12.0
290
     0
  0
SCALE
  5
1A7
102
{ACAD_REACTORS
330
10C
102
}
330
10C
100
AcDbScale
 70
     0
300
1'-0" = 1'-0"
140
12.0
141
12.0
290
     0
  0
TABLESTYLE
  5
7F
102
{ACAD_XDICTIONARY
360
162
102
}
102
{ACAD_REACTORS
330
7E
102
}
330
7E
100
AcDbTableStyle
  3
Standard
 70
     0
 71
     0
 40
1.5
 41
1.5
280
     0
281
     0
  7
Standard
140
4.5
170
     2
 62
     0
 63
     7
283
     0
274
    -2
284
     1
 64
     0
275
    -2
285
     1
 65
     0
276
    -2
286
     1
 66
     0
277
    -2
287
     1
 67
     0
278
    -2
288
     1
 68
     0
279
    -2
289
     1
 69
     0
  7
Standard
140
6.0
170
     5
 62
     0
 63
     7
283
     0
274
    -2
284
     1
 64
     0
275
    -2
285
     1
 65
     0
276
    -2
286
     1
 66
     0
277
    -2
287
     1
 67
     0
278
    -2
288
     1
 68
     0
279
    -2
289
     1
 69
     0
  7
Standard
140
4.5
170
     5
 62
     0
 63
     7
283
     0
274
    -2
284
     1
 64
     0
275
    -2
285
     1
 65
     0
276
    -2
286
     1
 66
     0
277
    -2
287
     1
 67
     0
278
    -2
288
     1
 68
     0
279
    -2
289
     1
 69
     0
  0
VISUALSTYLE
  5
F5
102
{ACAD_REACTORS
330
EF
102
}
330
EF
100
AcDbVisualStyle
  2
2dWireframe
 70
     4
 71
     0
 72
     2
 73
     1
 90
        0
 40
-0.6
 41
-30.0
 62
     5
 63
     7
 74
     1
 91
        4
 64
     7
 65
   257
 75
     1
175
     1
 42
1.0
 92
        0
 66
   257
 43
1.0
 76
     1
 77
     6
 78
     2
 67
     7
 79
     5
170
     0
171
     0
290
     0
174
     0
 93
        1
 44
0.0
173
     0
291
     0
 45
0.0
1001
ACAD
1000
AcDbSavedByObjectVersion
1070
     0
  0
VISUALSTYLE
  5
F7
102
{ACAD_REACTORS
330
EF
102
}
330
EF
100
AcDbVisualStyle
  2
3D Hidden
 70
     6
 71
     1
 72
     2
 73
     2
 90
        0
 40
-0.6
 41
-30.0
 62
     5
 63
     7
 74
     2
 91
        2
 64
     7
 65
   257
 75
     2
175
     1
 42
40.0
 92
        0
 66
   257
 43
1.0
 76
     1
 77
     6
 78
     2
 67
     7
 79
     3
170
     0
171
     0
290
     0
174
     0
 93
        1
 44
0.0
173
     0
291
     0
 45
0.0
1001
ACAD
1000
AcDbSavedByObjectVersion
1070
     0
  0
VISUALSTYLE
  5
F6
102
{ACAD_REACTORS
330
EF
102
}
330
EF
100
AcDbVisualStyle
  2
3dWireframe
 70
     5
 71
     0
 72
     2
 73
     1
 90
        0
 40
-0.6
 41
-30.0
 62
     5
 63
     7
 74
     1
 91
        4
 64
     7
 65
   257
 75
     1
175
     1
 42
1.0
 92
        0
 66
   257
 43
1.0
 76
     1
 77
     6
 78
     2
 67
     7
 79
     5
170
     0
171
     0
290
     0
174
     0
 93
        1
 44
0.0
173
     0
291
     0
 45
0.0
1001
ACAD
1000
AcDbSavedByObjectVersion
1070
     0
  0
VISUALSTYLE
  5
F4
102
{ACAD_REACTORS
330
EF
102
}
330
EF
100
AcDbVisualStyle
  2
Basic
 70
     7
 71
     1
 72
     0
 73
     1
 90
        0
 40
-0.6
 41
-30.0
 62
     5
 63
     7
 74
     0
 91
        4
 64
     7
 65
   257
 75
     1
175
     1
 42
1.0
 92
        8
 66
     7
 43
1.0
 76
     1
 77
     6
 78
     2
 67
     7
 79
     5
170
     0
171
     0
290
     0
174
     0
 93
        1
 44
0.0
173
     0
291
     1
 45
0.0
1001
ACAD
1000
AcDbSavedByObjectVersion
1070
     0
  0
VISUALSTYLE
  5
FB
102
{ACAD_REACTORS
330
EF
102
}
330
EF
100
AcDbVisualStyle
  2
Brighten
 70
    12
 71
     2
 72
     2
 73
     1
 90
        0
 40
-0.6
 41
-30.0
 62
     5
 63
     7
 74
     1
 91
        4
 64
     7
 65
   257
 75
     1
175
     1
 42
1.0
 92
        8
 66
     7
 43
1.0
 76
     1
 77
     6
 78
     2
 67
     7
 79
     5
170
     0
171
     0
290
     0
174
     0
 93
        1
 44
50.0
173
     0
291
     1
 45
0.0
1001
ACAD
1000
AcDbSavedByObjectVersion
1070
     0
  0
VISUALSTYLE
  5
FF
102
{ACAD_REACTORS
330
EF
102
}
330
EF
100
AcDbVisualStyle
  2
ColorChange
 70
    16
 71
     2
 72
     2
 73
     3
 90
        0
 40
-0.6
 41
-30.0
 62
     5
 63
     8
 74
     1
 91
        4
 64
     7
 65
   257
 75
     1
175
     1
 42
1.0
 92
        8
 66
     8
 43
1.0
 76
     1
 77
     6
 78
     2
 67
     7
 79
     5
170
     0
171
     0
290
     0
174
     0
 93
        1
 44
0.0
173
     0
291
     1
 45
0.0
1001
ACAD
1000
AcDbSavedByObjectVersion
1070
     0
  0
VISUALSTYLE
  5
F8
102
{ACAD_REACTORS
330
EF
102
}
330
EF
100
AcDbVisualStyle
  2
Conceptual
 70
     9
 71
     3
 72
     2
 73
     1
 90
        0
 40
-0.6
 41
-30.0
 62
     5
 63
     7
 74
     2
 91
        2
 64
     7
 65
   257
 75
     1
175
     1
 42
40.0
 92
        8
 66
     7
 43
1.0
 76
     1
 77
     6
 78
     2
 67
     7
 79
     3
170
     0
171
     0
290
     0
174
     0
 93
        1
 44
0.0
173
     0
291
     0
 45
0.0
1001
ACAD
1000
AcDbSavedByObjectVersion
1070
     0
  0
VISUALSTYLE
  5
FA
102
{ACAD_REACTORS
330
EF
102
}
330
EF
100
AcDbVisualStyle
  2
Dim
 70
    11
 71
     2
 72
     2
 73
     1
 90
        0
 40
-0.6
 41
-30.0
 62
     5
 63
     7
 74
     1
 91
        4
 64
     7
 65
   257
 75
     1
175
     1
 42
1.0
 92
        8
 66
     7
 43
1.0
 76
     1
 77
     6
 78
     2
 67
     7
 79
     5
170
     0
171
     0
290
     0
174
     0
 93
        1
 44
-50.0
173
     0
291
     1
 45
0.0
1001
ACAD
1000
AcDbSavedByObjectVersion
1070
     0
  0
VISUALSTYLE
  5
FE
102
{ACAD_REACTORS
330
EF
102
}
330
EF
100
AcDbVisualStyle
  2
Facepattern
 70
    15
 71
     2
 72
     2
 73
     1
 90
        0
 40
-0.6
 41
-30.0
 62
     5
 63
     7
 74
     1
 91
        4
 64
     7
 65
   257
 75
     1
175
     1
 42
1.0
 92
        8
 66
     7
 43
1.0
 76
     1
 77
     6
 78
     2
 67
     7
 79
     5
170
     0
171
     0
290
     0
174
     0
 93
        1
 44
0.0
173
     0
291
     1
 45
0.0
1001
ACAD
1000
AcDbSavedByObjectVersion
1070
     0
  0
VISUALSTYLE
  5
F0
102
{ACAD_REACTORS
330
EF
102
}
330
EF
100
AcDbVisualStyle
  2
Flat
 70
     0
 71
     2
 72
     1
 73
     1
 90
        2
 40
-0.6
 41
30.0
 62
     5
 63
     7
 74
     0
 91
        4
 64
     7
 65
   257
 75
     1
175
     1
 42
1.0
 92
        8
 66
     7
 43
1.0
 76
     1
 77
     6
 78
     2
 67
     7
 79
     5
170
     0
171
     0
290
     0
174
     0
 93
        1
 44
0.0
173
     0
291
     1
 45
0.0
1001
ACAD
1000
AcDbSavedByObjectVersion
1070
     0
  0
VISUALSTYLE
  5
F1
102
{ACAD_REACTORS
330
EF
102
}
330
EF
100
AcDbVisualStyle
  2
FlatWithEdges
 70
     1
 71
     2
 72
     1
 73
     1
 90
        2
 40
-0.6
 41
30.0
 62
     5
 63
     7
 74
     1
 91
        4
 64
     7
 65
   257
 75
     1
175
     1
 42
1.0
 92
        0
 66
   257
 43
1.0
 76
     1
 77
     6
 78
     2
 67
     7
 79
     5
170
     0
171
     0
290
     0
174
     0
 93
        1
 44
0.0
173
     0
291
     1
 45
0.0
1001
ACAD
1000
AcDbSavedByObjectVersion
1070
     0
  0
VISUALSTYLE
  5
F2
102
{ACAD_REACTORS
330
EF
102
}
330
EF
100
AcDbVisualStyle
  2
Gouraud
 70
     2
 71
     2
 72
     2
 73
     1
 90
        2
 40
-0.6
 41
30.0
 62
     5
 63
     7
 74
     0
 91
        4
 64
     7
 65
   257
 75
     1
175
     1
 42
1.0
 92
        0
 66
     7
 43
1.0
 76
     1
 77
     6
 78
     2
 67
     7
 79
     5
170
     0
171
     0
290
     0
174
     0
 93
        1
 44
0.0
173
     0
291
     1
 45
0.0
1001
ACAD
1000
AcDbSavedByObjectVersion
1070
     0
  0
VISUALSTYLE
  5
F3
102
{ACAD_REACTORS
330
EF
102
}
330
EF
100
AcDbVisualStyle
  2
GouraudWithEdges
 70
     3
 71
     2
 72
     2
 73
     1
 90
        2
 40
-0.6
 41
30.0
 62
     5
 63
     7
 74
     1
 91
        4
 64
     7
 65
   257
 75
     1
175
     1
 42
1.0
 92
        0
 66
   257
 43
1.0
 76
     1
 77
     6
 78
     2
 67
     7
 79
     5
170
     0
171
     0
290
     0
174
     0
 93
        1
 44
0.0
173
     0
291
     1
 45
0.0
1001
ACAD
1000
AcDbSavedByObjectVersion
1070
     0
  0
VISUALSTYLE
  5
FD
102
{ACAD_REACTORS
330
EF
102
}
330
EF
100
AcDbVisualStyle
  2
Linepattern
 70
    14
 71
     2
 72
     2
 73
     1
 90
        0
 40
-0.6
 41
-30.0
 62
     5
 63
     7
 74
     1
 91
        4
 64
     7
 65
   257
 75
     7
175
     7
 42
1.0
 92
        8
 66
     7
 43
1.0
 76
     1
 77
     6
 78
     2
 67
     7
 79
     5
170
     0
171
     0
290
     0
174
     0
 93
        1
 44
0.0
173
     0
291
     1
 45
0.0
1001
ACAD
1000
AcDbSavedByObjectVersion
1070
     0
  0
VISUALSTYLE
  5
F9
102
{ACAD_REACTORS
330
EF
102
}
330
EF
100
AcDbVisualStyle
  2
Realistic
 70
     8
 71
     2
 72
     2
 73
     1
 90
        0
 40
-0.6
 41
-30.0
 62
     5
 63
     7
 74
     1
 91
        0
 64
     7
 65
   257
 75
     1
175
     1
 42
1.0
 92
        8
 66
     8
 43
1.0
 76
     1
 77
     6
 78
     2
 67
     7
 79
     5
170
     0
171
     0
290
     0
174
     0
 93
       13
 44
0.0
173
     0
291
     0
 45
0.0
1001
ACAD
1000
AcDbSavedByObjectVersion
1070
     0
  0
VISUALSTYLE
  5
FC
102
{ACAD_REACTORS
330
EF
102
}
330
EF
100
AcDbVisualStyle
  2
Thicken
 70
    13
 71
     2
 72
     2
 73
     1
 90
        0
 40
-0.6
 41
-30.0
 62
     5
 63
     7
 74
     1
 91
        4
 64
     7
 65
   257
 75
     1
175
     1
 42
1.0
 92
       12
 66
     7
 43
1.0
 76
     1
 77
     6
 78
     2
 67
     7
 79
     5
170
     0
171
     0
290
     0
174
     0
 93
        1
 44
0.0
173
     0
291
     1
 45
0.0
1001
ACAD
1000
AcDbSavedByObjectVersion
1070
     0
  0
DICTIONARYVAR
  5
146
102
{ACAD_REACTORS
330
5E
102
}
330
5E
100
DictionaryVariables
280
     0
  1
1:1
  0
DICTIONARYVAR
  5
145
102
{ACAD_REACTORS
330
5E
102
}
330
5E
100
DictionaryVariables
280
     0
  1
STANDARD
  0
DICTIONARYVAR
  5
84
102
{ACAD_REACTORS
330
5E
102
}
330
5E
100
DictionaryVariables
280
     0
  1
STANDARD
  0
DICTIONARYVAR
  5
5F
102
{ACAD_REACTORS
330
5E
102
}
330
5E
100
DictionaryVariables
280
     0
  1
2
  0
DICTIONARYVAR
  5
63
102
{ACAD_REACTORS
330
5E
102
}
330
5E
100
DictionaryVariables
280
     0
  1
1
  0
DICTIONARYVAR
  5
2EE
102
{ACAD_REACTORS
330
5E
102
}
330
5E
100
DictionaryVariables
280
     0
  1
0
  0
DICTIONARYVAR
  5
2EC
102
{ACAD_REACTORS
330
5E
102
}
330
5E
100
DictionaryVariables
280
     0
  1
2
  0
DICTIONARYVAR
  5
2EB
102
{ACAD_REACTORS
330
5E
102
}
330
5E
100
DictionaryVariables
280
     0
  1
1
  0
DICTIONARYVAR
  5
2F0
102
{ACAD_REACTORS
330
5E
102
}
330
5E
100
DictionaryVariables
280
     0
  1
80.000000
  0
DICTIONARYVAR
  5
2EF
102
{ACAD_REACTORS
330
5E
102
}
330
5E
100
DictionaryVariables
280
     0
  1
5.000000
  0
DICTIONARYVAR
  5
2ED
102
{ACAD_REACTORS
330
5E
102
}
330
5E
100
DictionaryVariables
280
     0
  1
127
  0
DICTIONARY
  5
2F6
330
D3
100
AcDbDictionary
280
     1
281
     1
  3
ACAD_XREC_ROUNDTRIP
360
2F7
  0
DICTIONARY
  5
2F8
330
D7
100
AcDbDictionary
280
     1
281
     1
  3
ACAD_XREC_ROUNDTRIP
360
2F9
  0
DICTIONARY
  5
2F3
330
22
100
AcDbDictionary
280
     1
281
     1
  3
ACAD_XREC_ROUNDTRIP
360
2F4
  0
DICTIONARY
  5
2FC
330
ED
100
AcDbDictionary
280
     1
281
     1
  3
ACAD_XREC_ROUNDTRIP
360
2FD
  0
DICTIONARY
  5
2FA
330
EC
100
AcDbDictionary
280
     1
281
     1
  3
ACAD_XREC_ROUNDTRIP
360
2FB
  0
DICTIONARY
  5
173
330
EE
100
AcDbDictionary
280
     1
281
     1
  3
ACAD_XREC_ROUNDTRIP
360
2FE
  3
BUMPTILE
360
175
  3
DIFFUSETILE
360
174
  3
OPACITYTILE
360
176
  3
REFLECTIONTILE
360
177
  0
DICTIONARY
  5
162
330
7F
100
AcDbDictionary
280
     1
281
     1
  3
ACAD_ROUNDTRIP_2008_TABLESTYLE_CELLSTYLEMAP
360
2F1
  3
ACAD_XREC_ROUNDTRIP
360
2F5
  0
XRECORD
  5
2F7
102
{ACAD_REACTORS
330
2F6
102
}
330
2F6
100
AcDbXrecord
280
     1
102
SHADEPLOT
 70
     0
102
SHADEPLOTRESLEVEL
 70
     2
102
SHADEPLOTCUSTOMDPI
 70
   300
  0
XRECORD
  5
2F9
102
{ACAD_REACTORS
330
2F8
102
}
330
2F8
100
AcDbXrecord
280
     1
102
SHADEPLOT
 70
     0
102
SHADEPLOTRESLEVEL
 70
     2
102
SHADEPLOTCUSTOMDPI
 70
   300
  0
XRECORD
  5
2F4
102
{ACAD_REACTORS
330
2F3
102
}
330
2F3
100
AcDbXrecord
280
     1
102
SHADEPLOT
 70
     0
102
SHADEPLOTRESLEVEL
 70
     2
102
SHADEPLOTCUSTOMDPI
 70
   300
  0
XRECORD
  5
2FD
102
{ACAD_REACTORS
330
2FC
102
}
330
2FC
100
AcDbXrecord
280
     1
102
MATERIAL
148
0.0
149
0.0
149
0.0
 93
        0
 94
       63
282
     0
 72
     1
 77
     1
171
     1
175
     1
179
     1
273
     0
  0
XRECORD
  5
2FB
102
{ACAD_REACTORS
330
2FA
102
}
330
2FA
100
AcDbXrecord
280
     1
102
MATERIAL
148
0.0
149
0.0
149
0.0
 93
        0
 94
       63
282
     0
 72
     1
 77
     1
171
     1
175
     1
179
     1
273
     0
  0
XRECORD
  5
2FE
102
{ACAD_REACTORS
330
173
102
}
330
173
100
AcDbXrecord
280
     1
102
MATERIAL
148
0.0
149
0.0
149
0.0
 93
        0
 94
       63
282
     0
 72
     1
 77
     1
171
     1
175
     1
179
     1
273
     0
  0
XRECORD
  5
175
102
{ACAD_REACTORS
330
173
102
}
330
173
100
AcDbXrecord
280
     1
270
     1
271
     1
  0
XRECORD
  5
174
102
{ACAD_REACTORS
330
173
102
}
330
173
100
AcDbXrecord
280
     1
270
     1
271
     1
  0
XRECORD
  5
176
102
{ACAD_REACTORS
330
173
102
}
330
173
100
AcDbXrecord
280
     1
270
     1
271
     1
  0
XRECORD
  5
177
102
{ACAD_REACTORS
330
173
102
}
330
173
100
AcDbXrecord
280
     1
270
     1
271
     1
  0
CELLSTYLEMAP
  5
2F1
102
{ACAD_REACTORS
330
162
102
}
330
162
100
AcDbCellStyleMap
 90
        3
300
CELLSTYLE
  1
TABLEFORMAT_BEGIN
 90
        5
170
     1
 91
        0
 92
    32768
 62
   257
 93
        1
300
CONTENTFORMAT
  1
CONTENTFORMAT_BEGIN
 90
        0
 91
        0
 92
      512
 93
        0
300

 40
0.0
140
1.0
 94
        5
 62
     0
340
11
144
6.0
309
CONTENTFORMAT_END
171
     1
301
MARGIN
  1
CELLMARGIN_BEGIN
 40
1.5
 40
1.5
 40
1.5
 40
1.5
 40
4.5
 40
4.5
309
CELLMARGIN_END
 94
        6
 95
        1
302
GRIDFORMAT
  1
GRIDFORMAT_BEGIN
 90
        0
 91
        1
 62
     0
 92
       -2
340
14
 93
        0
 40
1.125
309
GRIDFORMAT_END
 95
        2
302
GRIDFORMAT
  1
GRIDFORMAT_BEGIN
 90
        0
 91
        1
 62
     0
 92
       -2
340
14
 93
        0
 40
1.125
309
GRIDFORMAT_END
 95
        4
302
GRIDFORMAT
  1
GRIDFORMAT_BEGIN
 90
        0
 91
        1
 62
     0
 92
       -2
340
14
 93
        0
 40
1.125
309
GRIDFORMAT_END
 95
        8
302
GRIDFORMAT
  1
GRIDFORMAT_BEGIN
 90
        0
 91
        1
 62
     0
 92
       -2
340
14
 93
        0
 40
1.125
309
GRIDFORMAT_END
 95
       16
302
GRIDFORMAT
  1
GRIDFORMAT_BEGIN
 90
        0
 91
        1
 62
     0
 92
       -2
340
14
 93
        0
 40
1.125
309
GRIDFORMAT_END
 95
       32
302
GRIDFORMAT
  1
GRIDFORMAT_BEGIN
 90
        0
 91
        1
 62
     0
 92
       -2
340
14
 93
        0
 40
1.125
309
GRIDFORMAT_END
309
TABLEFORMAT_END
  1
CELLSTYLE_BEGIN
 90
        1
 91
        1
300
_TITLE
309
CELLSTYLE_END
300
CELLSTYLE
  1
TABLEFORMAT_BEGIN
 90
        5
170
     1
 91
        0
 92
        0
 62
   257
 93
        1
300
CONTENTFORMAT
  1
CONTENTFORMAT_BEGIN
 90
        0
 91
        0
 92
      512
 93
        0
300

 40
0.0
140
1.0
 94
        5
 62
     0
340
11
144
4.5
309
CONTENTFORMAT_END
171
     1
301
MARGIN
  1
CELLMARGIN_BEGIN
 40
1.5
 40
1.5
 40
1.5
 40
1.5
 40
4.5
 40
4.5
309
CELLMARGIN_END
 94
        6
 95
        1
302
GRIDFORMAT
  1
GRIDFORMAT_BEGIN
 90
        0
 91
        1
 62
     0
 92
       -2
340
14
 93
        0
 40
1.125
309
GRIDFORMAT_END
 95
        2
302
GRIDFORMAT
  1
GRIDFORMAT_BEGIN
 90
        0
 91
        1
 62
     0
 92
       -2
340
14
 93
        0
 40
1.125
309
GRIDFORMAT_END
 95
        4
302
GRIDFORMAT
  1
GRIDFORMAT_BEGIN
 90
        0
 91
        1
 62
     0
 92
       -2
340
14
 93
        0
 40
1.125
309
GRIDFORMAT_END
 95
        8
302
GRIDFORMAT
  1
GRIDFORMAT_BEGIN
 90
        0
 91
        1
 62
     0
 92
       -2
340
14
 93
        0
 40
1.125
309
GRIDFORMAT_END
 95
       16
302
GRIDFORMAT
  1
GRIDFORMAT_BEGIN
 90
        0
 91
        1
 62
     0
 92
       -2
340
14
 93
        0
 40
1.125
309
GRIDFORMAT_END
 95
       32
302
GRIDFORMAT
  1
GRIDFORMAT_BEGIN
 90
        0
 91
        1
 62
     0
 92
       -2
340
14
 93
        0
 40
1.125
309
GRIDFORMAT_END
309
TABLEFORMAT_END
  1
CELLSTYLE_BEGIN
 90
        2
 91
        1
300
_HEADER
309
CELLSTYLE_END
300
CELLSTYLE
  1
TABLEFORMAT_BEGIN
 90
        5
170
     1
 91
        0
 92
        0
 62
   257
 93
        1
300
CONTENTFORMAT
  1
CONTENTFORMAT_BEGIN
 90
        0
 91
        0
 92
      512
 93
        0
300

 40
0.0
140
1.0
 94
        2
 62
     0
340
11
144
4.5
309
CONTENTFORMAT_END
171
     1
301
MARGIN
  1
CELLMARGIN_BEGIN
 40
1.5
 40
1.5
 40
1.5
 40
1.5
 40
4.5
 40
4.5
309
CELLMARGIN_END
 94
        6
 95
        1
302
GRIDFORMAT
  1
GRIDFORMAT_BEGIN
 90
        0
 91
        1
 62
     0
 92
       -2
340
14
 93
        0
 40
1.125
309
GRIDFORMAT_END
 95
        2
302
GRIDFORMAT
  1
GRIDFORMAT_BEGIN
 90
        0
 91
        1
 62
     0
 92
       -2
340
14
 93
        0
 40
1.125
309
GRIDFORMAT_END
 95
        4
302
GRIDFORMAT
  1
GRIDFORMAT_BEGIN
 90
        0
 91
        1
 62
     0
 92
       -2
340
14
 93
        0
 40
1.125
309
GRIDFORMAT_END
 95
        8
302
GRIDFORMAT
  1
GRIDFORMAT_BEGIN
 90
        0
 91
        1
 62
     0
 92
       -2
340
14
 93
        0
 40
1.125
309
GRIDFORMAT_END
 95
       16
302
GRIDFORMAT
  1
GRIDFORMAT_BEGIN
 90
        0
 91
        1
 62
     0
 92
       -2
340
14
 93
        0
 40
1.125
309
GRIDFORMAT_END
 95
       32
302
GRIDFORMAT
  1
GRIDFORMAT_BEGIN
 90
        0
 91
        1
 62
     0
 92
       -2
340
14
 93
        0
 40
1.125
309
GRIDFORMAT_END
309
TABLEFORMAT_END
  1
CELLSTYLE_BEGIN
 90
        3
 91
        2
300
_DATA
309
CELLSTYLE_END
  0
XRECORD
  5
2F5
102
{ACAD_REACTORS
330
162
102
}
330
162
100
AcDbXrecord
280
     1
102
ACAD_ROUNDTRIP_PRE2007_TABLESTYLE
 90
      512
 91
        0
  1

 92
      512
 93
        0
  2

 94
      512
 95
        0
  3

  0
ENDSEC
  0
EOF
