  0
SECTION
  2
HEADER
  9
$ACADVER
  1
AC1015
  9
$ACADMAINTVER
 70
    20
  9
$DWGCODEPAGE
  3
ANSI_1254
  9
$INSBASE
 10
0.0
 20
0.0
 30
0.0
  9
$EXTMIN
 10
1882.762371197951
 20
777.7152251974738
 30
0.0
  9
$EXTMAX
 10
1983.329586098173
 20
832.9666299312087
 30
0.0
  9
$LIMMIN
 10
0.0
 20
0.0
  9
$LIMMAX
 10
420.0
 20
297.0
  9
$ORTHOMODE
 70
     0
  9
$REGENMODE
 70
     1
  9
$FILLMODE
 70
     1
  9
$QTEXTMODE
 70
     0
  9
$MIRRTEXT
 70
     0
  9
$LTSCALE
 40
1.0
  9
$ATTMODE
 70
     1
  9
$TEXTSIZE
 40
2.5
  9
$TRACEWID
 40
1.0
  9
$TEXTSTYLE
  7
Standard
  9
$CLAYER
  8
0
  9
$CELTYPE
  6
ByLayer
  9
$CECOLOR
 62
   256
  9
$CELTSCALE
 40
1.0
  9
$DISPSILH
 70
     0
  9
$DIMSCALE
 40
1.0
  9
$DIMASZ
 40
2.5
  9
$DIMEXO
 40
0.625
  9
$DIMDLI
 40
3.75
  9
$DIMRND
 40
0.0
  9
$DIMDLE
 40
0.0
  9
$DIMEXE
 40
1.25
  9
$DIMTP
 40
0.0
  9
$DIMTM
 40
0.0
  9
$DIMTXT
 40
2.5
  9
$DIMCEN
 40
2.5
  9
$DIMTSZ
 40
0.0
  9
$DIMTOL
 70
     0
  9
$DIMLIM
 70
     0
  9
$DIMTIH
 70
     0
  9
$DIMTOH
 70
     0
  9
$DIMSE1
 70
     0
  9
$DIMSE2
 70
     0
  9
$DIMTAD
 70
     1
  9
$DIMZIN
 70
     8
  9
$DIMBLK
  1

  9
$DIMASO
 70
     1
  9
$DIMSHO
 70
     1
  9
$DIMPOST
  1

  9
$DIMAPOST
  1

  9
$DIMALT
 70
     0
  9
$DIMALTD
 70
     3
  9
$DIMALTF
 40
0.03937007874016
  9
$DIMLFAC
 40
1.0
  9
$DIMTOFL
 70
     1
  9
$DIMTVP
 40
0.0
  9
$DIMTIX
 70
     0
  9
$DIMSOXD
 70
     0
  9
$DIMSAH
 70
     0
  9
$DIMBLK1
  1

  9
$DIMBLK2
  1

  9
$DIMSTYLE
  2
ISO-25
  9
$DIMCLRD
 70
     0
  9
$DIMCLRE
 70
     0
  9
$DIMCLRT
 70
     0
  9
$DIMTFAC
 40
1.0
  9
$DIMGAP
 40
0.625
  9
$DIMJUST
 70
     0
  9
$DIMSD1
 70
     0
  9
$DIMSD2
 70
     0
  9
$DIMTOLJ
 70
     0
  9
$DIMTZIN
 70
     8
  9
$DIMALTZ
 70
     0
  9
$DIMALTTZ
 70
     0
  9
$DIMUPT
 70
     0
  9
$DIMDEC
 70
     2
  9
$DIMTDEC
 70
     2
  9
$DIMALTU
 70
     2
  9
$DIMALTTD
 70
     3
  9
$DIMTXSTY
  7
Standard
  9
$DIMAUNIT
 70
     0
  9
$DIMADEC
 70
     0
  9
$DIMALTRND
 40
0.0
  9
$DIMAZIN
 70
     0
  9
$DIMDSEP
 70
    44
  9
$DIMATFIT
 70
     3
  9
$DIMFRAC
 70
     0
  9
$DIMLDRBLK
  1

  9
$DIMLUNIT
 70
     2
  9
$DIMLWD
 70
    -2
  9
$DIMLWE
 70
    -2
  9
$DIMTMOVE
 70
     0
  9
$LUNITS
 70
     2
  9
$LUPREC
 70
     4
  9
$SKETCHINC
 40
1.0
  9
$FILLETRAD
 40
0.0
  9
$AUNITS
 70
     0
  9
$AUPREC
 70
     0
  9
$MENU
  1
.
  9
$ELEVATION
 40
0.0
  9
$PELEVATION
 40
0.0
  9
$THICKNESS
 40
0.0
  9
$LIMCHECK
 70
     0
  9
$CHAMFERA
 40
0.0
  9
$CHAMFERB
 40
0.0
  9
$CHAMFERC
 40
0.0
  9
$CHAMFERD
 40
0.0
  9
$SKPOLY
 70
     0
  9
$TDCREATE
 40
2459004.702089190
  9
$TDUCREATE
 40
2459004.577089190
  9
$TDUPDATE
 40
2459067.627318646
  9
$TDUUPDATE
 40
2459067.502318646
  9
$TDINDWG
 40
0.0007769792
  9
$TDUSRTIMER
 40
0.0007769792
  9
$USRTIMER
 70
     1
  9
$ANGBASE
 50
0.0
  9
$ANGDIR
 70
     0
  9
$PDMODE
 70
     0
  9
$PDSIZE
 40
0.0
  9
$PLINEWID
 40
0.0
  9
$SPLFRAME
 70
     0
  9
$SPLINETYPE
 70
     6
  9
$SPLINESEGS
 70
     8
  9
$HANDSEED
  5
305
  9
$SURFTAB1
 70
     6
  9
$SURFTAB2
 70
     6
  9
$SURFTYPE
 70
     6
  9
$SURFU
 70
     6
  9
$SURFV
 70
     6
  9
$UCSBASE
  2

  9
$UCSNAME
  2

  9
$UCSORG
 10
0.0
 20
0.0
 30
0.0
  9
$UCSXDIR
 10
1.0
 20
0.0
 30
0.0
  9
$UCSYDIR
 10
0.0
 20
1.0
 30
0.0
  9
$UCSORTHOREF
  2

  9
$UCSORTHOVIEW
 70
     0
  9
$UCSORGTOP
 10
0.0
 20
0.0
 30
0.0
  9
$UCSORGBOTTOM
 10
0.0
 20
0.0
 30
0.0
  9
$UCSORGLEFT
 10
0.0
 20
0.0
 30
0.0
  9
$UCSORGRIGHT
 10
0.0
 20
0.0
 30
0.0
  9
$UCSORGFRONT
 10
0.0
 20
0.0
 30
0.0
  9
$UCSORGBACK
 10
0.0
 20
0.0
 30
0.0
  9
$PUCSBASE
  2

  9
$PUCSNAME
  2

  9
$PUCSORG
 10
0.0
 20
0.0
 30
0.0
  9
$PUCSXDIR
 10
1.0
 20
0.0
 30
0.0
  9
$PUCSYDIR
 10
0.0
 20
1.0
 30
0.0
  9
$PUCSORTHOREF
  2

  9
$PUCSORTHOVIEW
 70
     0
  9
$PUCSORGTOP
 10
0.0
 20
0.0
 30
0.0
  9
$PUCSORGBOTTOM
 10
0.0
 20
0.0
 30
0.0
  9
$PUCSORGLEFT
 10
0.0
 20
0.0
 30
0.0
  9
$PUCSORGRIGHT
 10
0.0
 20
0.0
 30
0.0
  9
$PUCSORGFRONT
 10
0.0
 20
0.0
 30
0.0
  9
$PUCSORGBACK
 10
0.0
 20
0.0
 30
0.0
  9
$USERI1
 70
     0
  9
$USERI2
 70
     0
  9
$USERI3
 70
     0
  9
$USERI4
 70
     0
  9
$USERI5
 70
     0
  9
$USERR1
 40
0.0
  9
$USERR2
 40
0.0
  9
$USERR3
 40
0.0
  9
$USERR4
 40
0.0
  9
$USERR5
 40
0.0
  9
$WORLDVIEW
 70
     1
  9
$SHADEDGE
 70
     3
  9
$SHADEDIF
 70
    70
  9
$TILEMODE
 70
     1
  9
$MAXACTVP
 70
    64
  9
$PINSBASE
 10
0.0
 20
0.0
 30
0.0
  9
$PLIMCHECK
 70
     0
  9
$PEXTMIN
 10
0.0
 20
0.0
 30
0.0
  9
$PEXTMAX
 10
0.0
 20
0.0
 30
0.0
  9
$PLIMMIN
 10
0.0
 20
0.0
  9
$PLIMMAX
 10
12.0
 20
9.0
  9
$UNITMODE
 70
     0
  9
$VISRETAIN
 70
     1
  9
$PLINEGEN
 70
     0
  9
$PSLTSCALE
 70
     1
  9
$TREEDEPTH
 70
  3020
  9
$CMLSTYLE
  2
Standard
  9
$CMLJUST
 70
     0
  9
$CMLSCALE
 40
20.0
  9
$PROXYGRAPHICS
 70
     1
  9
$MEASUREMENT
 70
     1
  9
$CELWEIGHT
370
    -1
  9
$ENDCAPS
280
     0
  9
$JOINSTYLE
280
     0
  9
$LWDISPLAY
290
     0
  9
$INSUNITS
 70
     4
  9
$HYPERLINKBASE
  1

  9
$STYLESHEET
  1

  9
$XEDIT
290
     1
  9
$CEPSNTYPE
380
     0
  9
$PSTYLEMODE
290
     1
  9
$FINGERPRINTGUID
  2
{4C7A7E0B-ADFF-42F0-8E51-999E536A0F19}
  9
$VERSIONGUID
  2
{FBBB3F36-CB9A-4A16-8696-0F3E03FA8CF3}
  9
$EXTNAMES
290
     1
  9
$PSVPSCALE
 40
0.0
  9
$OLESTARTUP
290
     0
  0
ENDSEC
  0
SECTION
  2
CLASSES
  0
CLASS
  1
ACDBDICTIONARYWDFLT
  2
AcDbDictionaryWithDefault
  3
ObjectDBX Classes
 90
        0
280
     0
281
     0
  0
CLASS
  1
ACDBPLACEHOLDER
  2
AcDbPlaceHolder
  3
ObjectDBX Classes
 90
        0
280
     0
281
     0
  0
CLASS
  1
LAYOUT
  2
AcDbLayout
  3
ObjectDBX Classes
 90
        0
280
     0
281
     0
  0
CLASS
  1
DICTIONARYVAR
  2
AcDbDictionaryVar
  3
ObjectDBX Classes
 90
        0
280
     0
281
     0
  0
CLASS
  1
TABLESTYLE
  2
AcDbTableStyle
  3
ObjectDBX Classes
 90
     4095
280
     0
281
     0
  0
CLASS
  1
MATERIAL
  2
AcDbMaterial
  3
ObjectDBX Classes
 90
     1153
280
     0
281
     0
  0
CLASS
  1
VISUALSTYLE
  2
AcDbVisualStyle
  3
ObjectDBX Classes
 90
     4095
280
     0
281
     0
  0
CLASS
  1
SCALE
  2
AcDbScale
  3
ObjectDBX Classes
 90
     1153
280
     0
281
     0
  0
CLASS
  1
MLEADERSTYLE
  2
AcDbMLeaderStyle
  3
ACDB_MLEADERSTYLE_CLASS
 90
     4095
280
     0
281
     0
  0
CLASS
  1
CELLSTYLEMAP
  2
AcDbCellStyleMap
  3
ObjectDBX Classes
 90
     1152
280
     0
281
     0
  0
ENDSEC
  0
SECTION
  2
TABLES
  0
TABLE
  2
VPORT
  5
8
330
0
100
AcDbSymbolTable
 70
     1
  0
VPORT
  5
EA
330
8
100
AcDbSymbolTableRecord
100
AcDbViewportTableRecord
  2
*Active
 70
     0
 10
0.0
 20
0.0
 11
1.0
 21
1.0
 12
1931.179709829747
 22
802.909807693579
 13
0.0
 23
0.0
 14
10.0
 24
10.0
 15
10.0
 25
10.0
 16
0.0
 26
0.0
 36
1.0
 17
0.0
 27
0.0
 37
0.0
 40
69.57595467469639
 41
1.903110047846889
 42
50.0
 43
0.0
 44
0.0
 50
0.0
 51
0.0
 71
     0
 72
  1000
 73
     1
 74
     3
 75
     0
 76
     0
 77
     0
 78
     0
281
     0
 65
     1
110
0.0
120
0.0
130
0.0
111
1.0
121
0.0
131
0.0
112
0.0
122
1.0
132
0.0
 79
     0
146
0.0
  0
ENDTAB
  0
TABLE
  2
LTYPE
  5
5
330
0
100
AcDbSymbolTable
 70
     1
  0
LTYPE
  5
14
330
5
100
AcDbSymbolTableRecord
100
AcDbLinetypeTableRecord
  2
ByBlock
 70
     0
  3

 72
    65
 73
     0
 40
0.0
  0
LTYPE
  5
15
330
5
100
AcDbSymbolTableRecord
100
AcDbLinetypeTableRecord
  2
ByLayer
 70
     0
  3

 72
    65
 73
     0
 40
0.0
  0
LTYPE
  5
16
330
5
100
AcDbSymbolTableRecord
100
AcDbLinetypeTableRecord
  2
Continuous
 70
     0
  3
Solid line
 72
    65
 73
     0
 40
0.0
  0
ENDTAB
  0
TABLE
  2
LAYER
  5
2
330
0
100
AcDbSymbolTable
 70
     1
  0
LAYER
  5
10
102
{ACAD_XDICTIONARY
360
13C
102
}
330
2
100
AcDbSymbolTableRecord
100
AcDbLayerTableRecord
  2
0
 70
     0
 62
     7
  6
Continuous
370
    -3
390
F
  0
ENDTAB
  0
TABLE
  2
STYLE
  5
3
330
0
100
AcDbSymbolTable
 70
     2
  0
STYLE
  5
11
330
3
100
AcDbSymbolTableRecord
100
AcDbTextStyleTableRecord
  2
Standard
 70
     0
 40
0.0
 41
1.0
 50
0.0
 71
     0
 42
2.5
  3
txt
  4

  0
STYLE
  5
132
330
3
100
AcDbSymbolTableRecord
100
AcDbTextStyleTableRecord
  2
Annotative
 70
     0
 40
0.0
 41
1.0
 50
0.0
 71
     0
 42
2.5
  3
txt.shx
  4

1001
AcadAnnotative
1000
AnnotativeData
1002
{
1070
     1
1070
     1
1002
}
  0
ENDTAB
  0
TABLE
  2
VIEW
  5
6
330
0
100
AcDbSymbolTable
 70
     0
  0
ENDTAB
  0
TABLE
  2
UCS
  5
7
330
0
100
AcDbSymbolTable
 70
     0
  0
ENDTAB
  0
TABLE
  2
APPID
  5
9
330
0
100
AcDbSymbolTable
 70
     7
  0
APPID
  5
12
330
9
100
AcDbSymbolTableRecord
100
AcDbRegAppTableRecord
  2
ACAD
 70
     0
  0
APPID
  5
9E
330
9
100
AcDbSymbolTableRecord
100
AcDbRegAppTableRecord
  2
ACAD_PSEXT
 70
     0
  0
APPID
  5
133
330
9
100
AcDbSymbolTableRecord
100
AcDbRegAppTableRecord
  2
AcadAnnoPO
 70
     0
  0
APPID
  5
134
330
9
100
AcDbSymbolTableRecord
100
AcDbRegAppTableRecord
  2
AcadAnnotative
 70
     0
  0
APPID
  5
135
330
9
100
AcDbSymbolTableRecord
100
AcDbRegAppTableRecord
  2
ACAD_DSTYLE_DIMJAG
 70
     0
  0
APPID
  5
136
330
9
100
AcDbSymbolTableRecord
100
AcDbRegAppTableRecord
  2
ACAD_DSTYLE_DIMTALN
 70
     0
  0
APPID
  5
165
330
9
100
AcDbSymbolTableRecord
100
AcDbRegAppTableRecord
  2
ACAD_MLEADERVER
 70
     0
  0
ENDTAB
  0
TABLE
  2
DIMSTYLE
  5
A
330
0
100
AcDbSymbolTable
 70
     2
100
AcDbDimStyleTable
 71
     2
340
27
340
137
  0
DIMSTYLE
105
27
330
A
100
AcDbSymbolTableRecord
100
AcDbDimStyleTableRecord
  2
ISO-25
 70
     0
 41
2.5
 42
0.625
 43
3.75
 44
1.25
 73
     0
 74
     0
 77
     1
 78
     8
140
2.5
141
2.5
143
0.03937007874016
147
0.625
171
     3
172
     1
271
     2
272
     2
274
     3
278
    44
283
     0
284
     8
340
11
  0
DIMSTYLE
105
137
330
A
100
AcDbSymbolTableRecord
100
AcDbDimStyleTableRecord
  2
Annotative
 70
     0
 40
0.0
 41
2.5
 42
0.625
 43
3.75
 44
1.25
 73
     0
 74
     0
 77
     1
 78
     8
140
2.5
141
2.5
143
0.03937007874016
147
0.625
171
     3
172
     1
271
     2
272
     2
274
     3
278
    44
283
     0
284
     8
340
11
1001
AcadAnnotative
1000
AnnotativeData
1002
{
1070
     1
1070
     1
1002
}
1001
ACAD_DSTYLE_DIMJAG
1070
   388
1040
1.5
1001
ACAD_DSTYLE_DIMTALN
1070
   392
1070
     0
  0
ENDTAB
  0
TABLE
  2
BLOCK_RECORD
  5
1
330
0
100
AcDbSymbolTable
 70
     5
  0
BLOCK_RECORD
  5
1F
330
1
100
AcDbSymbolTableRecord
100
AcDbBlockTableRecord
  2
*Model_Space
340
22
  0
BLOCK_RECORD
  5
D2
330
1
100
AcDbSymbolTableRecord
100
AcDbBlockTableRecord
  2
*Paper_Space
340
D3
  0
BLOCK_RECORD
  5
D6
330
1
100
AcDbSymbolTableRecord
100
AcDbBlockTableRecord
  2
*Paper_Space0
340
D7
  0
BLOCK_RECORD
  5
1AD
330
1
100
AcDbSymbolTableRecord
100
AcDbBlockTableRecord
  2
SW_CENTERMARKSYMBOL_0
340
0
102
{BLKREFS
331
29A
102
}
  0
BLOCK_RECORD
  5
27E
330
1
100
AcDbSymbolTableRecord
100
AcDbBlockTableRecord
  2
1
340
0
310
2800000020000000200000000100080000000000000400000000000000000000000000000000000000000000000080000080000000808000800000008000800080800000C0C0C000C0DCC000F0CAA6000020400000206000002080000020A0000020C0000020E00000400000004020000040400000406000004080000040A0
310
000040C0000040E00000600000006020000060400000606000006080000060A0000060C0000060E00000800000008020000080400000806000008080000080A0000080C0000080E00000A0000000A0200000A0400000A0600000A0800000A0A00000A0C00000A0E00000C0000000C0200000C0400000C0600000C0800000C0
310
A00000C0C00000C0E00000E0000000E0200000E0400000E0600000E0800000E0A00000E0C00000E0E00040000000400020004000400040006000400080004000A0004000C0004000E00040200000402020004020400040206000402080004020A0004020C0004020E000404000004040200040404000404060004040800040
310
40A0004040C0004040E00040600000406020004060400040606000406080004060A0004060C0004060E00040800000408020004080400040806000408080004080A0004080C0004080E00040A0000040A0200040A0400040A0600040A0800040A0A00040A0C00040A0E00040C0000040C0200040C0400040C0600040C08000
310
40C0A00040C0C00040C0E00040E0000040E0200040E0400040E0600040E0800040E0A00040E0C00040E0E00080000000800020008000400080006000800080008000A0008000C0008000E00080200000802020008020400080206000802080008020A0008020C0008020E00080400000804020008040400080406000804080
310
008040A0008040C0008040E00080600000806020008060400080606000806080008060A0008060C0008060E00080800000808020008080400080806000808080008080A0008080C0008080E00080A0000080A0200080A0400080A0600080A0800080A0A00080A0C00080A0E00080C0000080C0200080C0400080C0600080C0
310
800080C0A00080C0C00080C0E00080E0000080E0200080E0400080E0600080E0800080E0A00080E0C00080E0E000C0000000C0002000C0004000C0006000C0008000C000A000C000C000C000E000C0200000C0202000C0204000C0206000C0208000C020A000C020C000C020E000C0400000C0402000C0404000C0406000C0
310
408000C040A000C040C000C040E000C0600000C0602000C0604000C0606000C0608000C060A000C060C000C060E000C0800000C0802000C0804000C0806000C0808000C080A000C080C000C080E000C0A00000C0A02000C0A04000C0A06000C0A08000C0A0A000C0A0C000C0A0E000C0C00000C0C02000C0C04000C0C06000
310
C0C08000C0C0A000F0FBFF00A4A0A000808080000000FF0000FF000000FFFF00FF000000FF00FF00FFFF0000FFFFFF00000000000000000000000000000000000000000000000000000000000000000000000000000000000000000000000000FF000000000000000000000000000000000000000000000000000000000000
310
00FF00000000000000000000000000000000000000000000000000000000000000FF00000000000000000000000000000000000000000000000000FFFFFFFFFFFFFFFFFFFFFFFF000000000000000000000000000000000000FFFF000000000000FF0000000000FFFF000000000000000000000000000000FF000000000000
310
0000FF00000000000000FF0000000000000000000000000000FF000000000000FFFFFFFF000000000000FF00000000000000000000000000FF00000000FFFFFF0000FFFFFFFFFF00000000FF000000000000000000000000FF000000FFFF00000000FF000000FFFF000000FF0000000000000000000000FF000000FFFF0000
310
000000FF00000000FFFF000000FF00000000000000000000FF0000FFFF000000000000FF0000000000FFFF0000FF000000000000000000FF000000FFFF000000000000FF0000000000FFFF000000FF0000000000000000FF0000FFFFFF00000000000000000000000000FFFF0000FF00000000000000FF000000FF00FF0000
310
00000000FF000000000000FFFF000000FF000000000000FF000000FFFF00000000000000FF00000000000000FF000000FF00000000FFFFFFFFFFFFFFFFFFFFFFFF00FFFFFFFF00FFFFFFFFFFFFFFFFFFFFFFFF00000000FF000000FFFF00000000000000FF000000000000FFFF000000FF00000000000000FF0000FFFF0000
310
000000000000000000000000FFFF0000FF0000000000000000FF000000FFFF000000000000FF0000000000FFFFFF0000FF000000000000000000FF0000FF00FF0000000000FF00000000FF00FF0000FF00000000000000000000FF000000FF00FF00000000FF00000000FFFF000000FF0000000000000000000000FF0000FF
310
FF00FF000000FFFFFFFFFFFFFF0000FF000000000000000000000000FF00000000FFFFFFFFFFFFFFFFFFFFFF000000FF00000000000000000000000000FF00000000FFFFFFFFFF00000000000000FF0000000000000000000000000000FF0000000000000000FF00000000000000FF000000000000000000000000000000FF
310
00000000000000FF000000000000FF0000000000000000000000000000000000FFFFFFFFFFFFFFFFFFFFFFFFFFFF00000000000000000000000000000000000000000000000000FF00000000000000000000000000000000000000000000000000000000000000FF0000000000000000000000000000000000000000000000
310
0000000000000000FF0000000000000000000000000000000000000000000000000000000000000000000000000000000000000000000000
102
{BLKREFS
331
29B
102
}
1001
ACAD
1000
DesignCenter Data
1002
{
1070
     1
1070
     4
1002
}
  0
BLOCK_RECORD
  5
29C
330
1
100
AcDbSymbolTableRecord
100
AcDbBlockTableRecord
  2
2
340
0
310
2800000020000000200000000100080000000000000400000000000000000000000000000000000000000000000080000080000000808000800000008000800080800000C0C0C000C0DCC000F0CAA6000020400000206000002080000020A0000020C0000020E00000400000004020000040400000406000004080000040A0
310
000040C0000040E00000600000006020000060400000606000006080000060A0000060C0000060E00000800000008020000080400000806000008080000080A0000080C0000080E00000A0000000A0200000A0400000A0600000A0800000A0A00000A0C00000A0E00000C0000000C0200000C0400000C0600000C0800000C0
310
A00000C0C00000C0E00000E0000000E0200000E0400000E0600000E0800000E0A00000E0C00000E0E00040000000400020004000400040006000400080004000A0004000C0004000E00040200000402020004020400040206000402080004020A0004020C0004020E000404000004040200040404000404060004040800040
310
40A0004040C0004040E00040600000406020004060400040606000406080004060A0004060C0004060E00040800000408020004080400040806000408080004080A0004080C0004080E00040A0000040A0200040A0400040A0600040A0800040A0A00040A0C00040A0E00040C0000040C0200040C0400040C0600040C08000
310
40C0A00040C0C00040C0E00040E0000040E0200040E0400040E0600040E0800040E0A00040E0C00040E0E00080000000800020008000400080006000800080008000A0008000C0008000E00080200000802020008020400080206000802080008020A0008020C0008020E00080400000804020008040400080406000804080
310
008040A0008040C0008040E00080600000806020008060400080606000806080008060A0008060C0008060E00080800000808020008080400080806000808080008080A0008080C0008080E00080A0000080A0200080A0400080A0600080A0800080A0A00080A0C00080A0E00080C0000080C0200080C0400080C0600080C0
310
800080C0A00080C0C00080C0E00080E0000080E0200080E0400080E0600080E0800080E0A00080E0C00080E0E000C0000000C0002000C0004000C0006000C0008000C000A000C000C000C000E000C0200000C0202000C0204000C0206000C0208000C020A000C020C000C020E000C0400000C0402000C0404000C0406000C0
310
408000C040A000C040C000C040E000C0600000C0602000C0604000C0606000C0608000C060A000C060C000C060E000C0800000C0802000C0804000C0806000C0808000C080A000C080C000C080E000C0A00000C0A02000C0A04000C0A06000C0A08000C0A0A000C0A0C000C0A0E000C0C00000C0C02000C0C04000C0C06000
310
C0C08000C0C0A000F0FBFF00A4A0A000808080000000FF0000FF000000FFFF00FF000000FF00FF00FFFF0000FFFFFF0000000000000000000000000000000000000000000000000000000000000000000000000000000000000000000000000000000000000000000000000000000000000000000000000000000000000000
310
00000000000000000000000000000000000000000000000000000000000000000000000000000000000000000000000000000000000000000000000000000000000000000000000000000000000000000000000000000000000000000000000000000000000000000000000000000000000000000000000000000000000000
310
00000000000000000000000000000000000000000000000000000000000000000000000000000000000000000000000000000000000000000000000000000000000000000000000000000000000000000000000000000000000000000000000000000000000000000000000000000000000000000000000000000000000000
310
000000000000000000000000000000000000000000000000000000000000000000000000000000000000000000000000000000000000000000000000000000000000000000000000000000000000000000000000FFFFFFFFFFFFFFFFFFFFFFFFFFFFFFFFFFFFFFFFFFFFFFFFFFFFFFFFFFFF0000FF0000000000FF0000FF00
310
000000000000000000FF0000FF0000000000FF0000FF0000000000FF0000FF00000000000000000000FF0000FF0000000000FF0000FF0000000000FF0000FF00000000000000000000FF0000FF0000000000FF0000FFFFFFFFFFFFFF0000FFFFFFFFFFFFFFFFFFFFFFFF0000FFFFFFFFFFFFFF0000FFFFFFFFFFFFFFFFFFFF
310
FFFFFFFFFFFFFFFFFFFFFFFFFFFFFFFFFFFFFFFF0000000000000000000000000000000000000000000000000000000000000000000000000000000000000000000000000000000000000000000000000000000000000000000000000000000000000000000000000000000000000000000000000000000000000000000000
310
00000000000000000000000000000000000000000000000000000000000000000000000000000000000000000000000000000000000000000000000000000000000000000000000000000000000000000000000000000000000000000000000000000000000000000000000000000000000000000000000000000000000000
310
00000000000000000000000000000000000000000000000000000000000000000000000000000000000000000000000000000000000000000000000000000000000000000000000000000000000000000000000000000000000000000000000000000000000000000000000000000000000000000000000000000000000000
310
0000000000000000000000000000000000000000000000000000000000000000000000000000000000000000000000000000000000000000
102
{BLKREFS
331
2B2
102
}
1001
ACAD
1000
DesignCenter Data
1002
{
1070
     1
1070
     4
1002
}
  0
BLOCK_RECORD
  5
2B3
330
1
100
AcDbSymbolTableRecord
100
AcDbBlockTableRecord
  2
3
340
0
310
2800000020000000200000000100080000000000000400000000000000000000000000000000000000000000000080000080000000808000800000008000800080800000C0C0C000C0DCC000F0CAA6000020400000206000002080000020A0000020C0000020E00000400000004020000040400000406000004080000040A0
310
000040C0000040E00000600000006020000060400000606000006080000060A0000060C0000060E00000800000008020000080400000806000008080000080A0000080C0000080E00000A0000000A0200000A0400000A0600000A0800000A0A00000A0C00000A0E00000C0000000C0200000C0400000C0600000C0800000C0
310
A00000C0C00000C0E00000E0000000E0200000E0400000E0600000E0800000E0A00000E0C00000E0E00040000000400020004000400040006000400080004000A0004000C0004000E00040200000402020004020400040206000402080004020A0004020C0004020E000404000004040200040404000404060004040800040
310
40A0004040C0004040E00040600000406020004060400040606000406080004060A0004060C0004060E00040800000408020004080400040806000408080004080A0004080C0004080E00040A0000040A0200040A0400040A0600040A0800040A0A00040A0C00040A0E00040C0000040C0200040C0400040C0600040C08000
310
40C0A00040C0C00040C0E00040E0000040E0200040E0400040E0600040E0800040E0A00040E0C00040E0E00080000000800020008000400080006000800080008000A0008000C0008000E00080200000802020008020400080206000802080008020A0008020C0008020E00080400000804020008040400080406000804080
310
008040A0008040C0008040E00080600000806020008060400080606000806080008060A0008060C0008060E00080800000808020008080400080806000808080008080A0008080C0008080E00080A0000080A0200080A0400080A0600080A0800080A0A00080A0C00080A0E00080C0000080C0200080C0400080C0600080C0
310
800080C0A00080C0C00080C0E00080E0000080E0200080E0400080E0600080E0800080E0A00080E0C00080E0E000C0000000C0002000C0004000C0006000C0008000C000A000C000C000C000E000C0200000C0202000C0204000C0206000C0208000C020A000C020C000C020E000C0400000C0402000C0404000C0406000C0
310
408000C040A000C040C000C040E000C0600000C0602000C0604000C0606000C0608000C060A000C060C000C060E000C0800000C0802000C0804000C0806000C0808000C080A000C080C000C080E000C0A00000C0A02000C0A04000C0A06000C0A08000C0A0A000C0A0C000C0A0E000C0C00000C0C02000C0C04000C0C06000
310
C0C08000C0C0A000F0FBFF00A4A0A000808080000000FF0000FF000000FFFF00FF000000FF00FF00FFFF0000FFFFFF0000000000000000000000000000000000000000000000000000000000000000000000000000000000000000000000000000000000000000000000000000000000000000000000000000000000000000
310
00000000000000000000000000000000000000000000000000000000000000000000000000000000000000000000000000000000000000000000000000000000000000000000000000000000000000000000000000000000000000000000000000000000000000000000000000000000000000000000000000000000000000
310
000000000000000000000000000000000000000000000000000000FFFFFFFFFFFFFFFFFFFFFFFFFF00000000000000000000000000000000FFFFFF0000FFFF0000FFFFFF00000000FFFFFF0000000000000000000000FFFF0000FFFFFF00FF0000FF0000FFFFFFFFFFFF00FFFF0000000000000000FFFFFFFFFF00000000FF
310
0000FF0000000000000000FFFFFFFFFF0000000000FFFFFF000000000000FFFFFFFFFFFFFF0000000000000000FFFFFFFF00000000FFFF00000000FFFFFF00000000000000FFFFFFFFFF0000FF00FFFFFF000000FFFFFF00FFFFFF000000FFFFFFFFFFFFFF0000000000FFFFFF00FFFFFFFF0000FFFFFFFF000000FFFFFF00
310
000000000000FFFFFFFFFF000000FFFFFFFFFF000000FFFF000000FFFF00000000000000000000000000FFFFFF0000FF00FFFF000000FF000000FFFFFFFFFFFFFFFFFFFF0000000000000000FFFF0000FFFF00000000FF000000FFFFFFFFFF0000000000FFFFFFFFFFFFFFFFFFFF0000FFFF0000000000FF0000FFFFFFFFFF
310
FFFFFFFFFFFFFFFFFFFFFFFFFFFFFF0000FFFF0000000000FF0000FFFFFFFFFFFFFFFFFFFFFFFFFFFFFFFFFFFFFFFF000000FF000000000000FF0000FFFFFFFFFFFFFFFFFFFFFFFFFFFFFFFFFFFF00000000FF000000000000FF00000000FFFFFFFFFFFFFFFFFFFFFFFFFFFFFF000000FFFF0000000000000000FFFFFF0000
310
00FFFFFFFFFFFFFFFFFFFF000000FFFFFF00000000000000000000000000FFFFFFFFFFFF00000000000000FFFFFF00000000000000000000000000000000000000000000FFFFFFFFFFFFFF00000000000000000000000000000000000000000000000000000000000000000000000000000000000000000000000000000000
310
00000000000000000000000000000000000000000000000000000000000000000000000000000000000000000000000000000000000000000000000000000000000000000000000000000000000000000000000000000000000000000000000000000000000000000000000000000000000000000000000000000000000000
310
0000000000000000000000000000000000000000000000000000000000000000000000000000000000000000000000000000000000000000
102
{BLKREFS
331
2EA
102
}
1001
ACAD
1000
DesignCenter Data
1002
{
1070
     1
1070
     4
1002
}
  0
ENDTAB
  0
ENDSEC
  0
SECTION
  2
BLOCKS
  0
BLOCK
  5
20
330
1F
100
AcDbEntity
  8
0
100
AcDbBlockBegin
  2
*Model_Space
 70
     0
 10
0.0
 20
0.0
 30
0.0
  3
*Model_Space
  1

  0
ENDBLK
  5
21
330
1F
100
AcDbEntity
  8
0
100
AcDbBlockEnd
  0
BLOCK
  5
D4
330
D2
100
AcDbEntity
 67
     1
  8
0
100
AcDbBlockBegin
  2
*Paper_Space
 70
     0
 10
0.0
 20
0.0
 30
0.0
  3
*Paper_Space
  1

  0
ENDBLK
  5
D5
330
D2
100
AcDbEntity
 67
     1
  8
0
100
AcDbBlockEnd
  0
BLOCK
  5
D8
330
D6
100
AcDbEntity
 67
     1
  8
0
100
AcDbBlockBegin
  2
*Paper_Space0
 70
     0
 10
0.0
 20
0.0
 30
0.0
  3
*Paper_Space0
  1

  0
ENDBLK
  5
D9
330
D6
100
AcDbEntity
 67
     1
  8
0
100
AcDbBlockEnd
  0
BLOCK
  5
1AE
330
1AD
100
AcDbEntity
  8
0
100
AcDbBlockBegin
  2
SW_CENTERMARKSYMBOL_0
 70
     0
 10
0.0
 20
0.0
 30
0.0
  3
SW_CENTERMARKSYMBOL_0
  1

  0
LINE
  5
1AF
330
1AD
100
AcDbEntity
  8
0
  6
Continuous
 62
     0
370
     0
100
AcDbLine
 10
0.0
 20
0.0
 30
0.0
 11
0.0
 21
2.500000000000002
 31
0.0
  0
LINE
  5
1B0
330
1AD
100
AcDbEntity
  8
0
  6
Continuous
 62
     0
370
     0
100
AcDbLine
 10
0.0
 20
0.0
 30
0.0
 11
-2.500000000000002
 21
0.0
 31
0.0
  0
LINE
  5
1B1
330
1AD
100
AcDbEntity
  8
0
  6
Continuous
 62
     0
370
     0
100
AcDbLine
 10
0.0
 20
0.0
 30
0.0
 11
0.0
 21
-2.500000000000002
 31
0.0
  0
LINE
  5
1B2
330
1AD
100
AcDbEntity
  8
0
  6
Continuous
 62
     0
370
     0
100
AcDbLine
 10
0.0
 20
0.0
 30
0.0
 11
2.500000000000002
 21
0.0
 31
0.0
  0
LINE
  5
1B3
330
1AD
100
AcDbEntity
  8
0
  6
Continuous
 62
     0
370
     0
100
AcDbLine
 10
0.0
 20
5.000000000000004
 30
0.0
 11
0.0
 21
19.99999999999999
 31
0.0
  0
LINE
  5
1B4
330
1AD
100
AcDbEntity
  8
0
  6
Continuous
 62
     0
370
     0
100
AcDbLine
 10
-5.000000000000004
 20
0.0
 30
0.0
 11
-20.00000000000002
 21
0.0
 31
0.0
  0
LINE
  5
1B5
330
1AD
100
AcDbEntity
  8
0
  6
Continuous
 62
     0
370
     0
100
AcDbLine
 10
0.0
 20
-5.000000000000004
 30
0.0
 11
0.0
 21
-19.99999999999999
 31
0.0
  0
LINE
  5
1B6
330
1AD
100
AcDbEntity
  8
0
  6
Continuous
 62
     0
370
     0
100
AcDbLine
 10
5.000000000000004
 20
0.0
 30
0.0
 11
19.99999999999999
 21
0.0
 31
0.0
  0
ENDBLK
  5
1B7
330
1AD
100
AcDbEntity
  8
0
100
AcDbBlockEnd
  0
BLOCK
  5
27F
330
27E
100
AcDbEntity
  8
0
100
AcDbBlockBegin
  2
1
 70
     0
 10
0.0
 20
0.0
 30
0.0
  3
1
  1

  0
LINE
  5
281
330
27E
100
AcDbEntity
  8
0
  6
Continuous
 62
     7
370
    15
100
AcDbLine
 10
1893.120905071589
 20
806.3475737268529
 30
0.0
 11
1893.53638854235
 21
805.7902299885519
 31
0.0
  0
LINE
  5
282
330
27E
100
AcDbEntity
  8
0
  6
Continuous
 62
     7
370
    15
100
AcDbLine
 10
1909.363275520633
 20
803.3115838202316
 30
0.0
 11
1910.189802173753
 21
803.9278385038327
 31
0.0
  0
ARC
  5
283
330
27E
100
AcDbEntity
  8
0
  6
Continuous
 62
     7
370
    15
100
AcDbCircle
 10
1902.761603946844
 20
812.9671839298074
 30
0.0
 40
11.6996943391926
100
AcDbArc
 50
309.6412181065016
 51
215.3271023527655
  0
SPLINE
  5
284
330
27E
100
AcDbEntity
  8
0
  6
Continuous
 62
     7
370
    15
100
AcDbSpline
210
0.0
220
0.0
230
1.0
 70
     8
 71
     3
 72
    34
 73
    30
 74
     0
 42
0.0000000001
 43
0.0000000001
 40
0.0
 40
0.0
 40
0.0
 40
0.0
 40
0.0625000000000001
 40
0.0625000000000001
 40
0.1250000000000002
 40
0.1250000000000002
 40
0.2500000000000003
 40
0.2500000000000003
 40
0.3125000000000004
 40
0.3125000000000004
 40
0.3750000000000004
 40
0.3750000000000004
 40
0.4375000000000006
 40
0.4375000000000006
 40
0.5000000000000006
 40
0.5000000000000006
 40
0.5625000000000006
 40
0.5625000000000006
 40
0.6250000000000006
 40
0.6250000000000006
 40
0.7500000000000005
 40
0.7500000000000005
 40
0.8125000000000003
 40
0.8125000000000003
 40
0.8750000000000003
 40
0.8750000000000003
 40
0.9375000000000001
 40
0.9375000000000001
 40
1.0
 40
1.0
 40
1.0
 40
1.0
 10
1893.21624268164
 20
806.2019103989538
 30
0.0
 10
1892.918709550031
 20
806.5918008150152
 30
0.0
 10
1892.646967033724
 20
806.9981565754789
 30
0.0
 10
1892.154655116264
 20
807.843538234567
 30
0.0
 10
1891.934397152657
 20
808.2828806886571
 30
0.0
 10
1891.363318035224
 20
809.6222062495657
 30
0.0
 10
1891.095263084031
 20
810.5519087902335
 30
0.0
 10
1890.866774456075
 20
812.0031931898642
 30
0.0
 10
1890.821215201817
 20
812.4891347108311
 30
0.0
 10
1890.789998791435
 20
813.4572392575732
 30
0.0
 10
1890.803361798644
 20
813.9407292011908
 30
0.0
 10
1890.888210866004
 20
814.9065809229362
 30
0.0
 10
1890.960314380046
 20
815.3916757486802
 30
0.0
 10
1891.162407359364
 20
816.3473793936285
 30
0.0
 10
1891.291376173197
 20
816.815005708751
 30
0.0
 10
1891.603515948433
 20
817.7304088287966
 30
0.0
 10
1891.786690128548
 20
818.1781844549874
 30
0.0
 10
1892.207983568368
 20
819.053614126092
 30
0.0
 10
1892.447963809491
 20
819.4837927066462
 30
0.0
 10
1893.235130120476
 20
820.71347631933
 30
0.0
 10
1893.850706678411
 20
821.4588825548553
 30
0.0
 10
1894.90670746191
 20
822.4683361248967
 30
0.0
 10
1895.281887454842
 20
822.7868249951015
 30
0.0
 10
1896.05772925337
 20
823.3707428894728
 30
0.0
 10
1896.460586477701
 20
823.6384831868214
 30
0.0
 10
1897.295819120319
 20
824.1261012182652
 30
0.0
 10
1897.728192784311
 20
824.3459817968798
 30
0.0
 10
1898.623328369992
 20
824.7364696175258
 30
0.0
 10
1899.08448572336
 20
824.9061171459647
 30
0.0
 10
1899.553693106262
 20
825.0477881912397
 30
0.0
  0
LINE
  5
285
330
27E
100
AcDbEntity
  8
0
  6
Continuous
 62
     7
370
    15
100
AcDbLine
 10
1912.975215981064
 20
798.755795985376
 30
0.0
 11
1920.175736795561
 21
811.2274638770415
 31
0.0
  0
LINE
  5
286
330
27E
100
AcDbEntity
  8
0
  6
Continuous
 62
     7
370
    15
100
AcDbLine
 10
1920.175736795561
 20
814.7057959853761
 30
0.0
 11
1912.975215981064
 21
827.1774638770414
 31
0.0
  0
LINE
  5
287
330
27E
100
AcDbEntity
  8
0
  6
Continuous
 62
     7
370
    15
100
AcDbLine
 10
1892.549526414837
 20
827.1774638770414
 30
0.0
 11
1885.34900560034
 21
814.7057959853759
 31
0.0
  0
LINE
  5
288
330
27E
100
AcDbEntity
  8
0
  6
Continuous
 62
     7
370
    15
100
AcDbLine
 10
1885.34900560034
 20
811.2274638770415
 30
0.0
 11
1892.549526414837
 21
798.755795985376
 31
0.0
  0
LINE
  5
289
330
27E
100
AcDbEntity
  8
0
  6
Continuous
 62
     7
370
    15
100
AcDbLine
 10
1895.561850383454
 20
797.0166299312088
 30
0.0
 11
1909.962892012448
 21
797.0166299312088
 31
0.0
  0
ARC
  5
28A
330
27E
100
AcDbEntity
  8
0
  6
Continuous
 62
     7
370
    15
100
AcDbCircle
 10
1902.762371197951
 20
812.9666299312088
 30
0.0
 40
17.49999999999998
100
AcDbArc
 50
174.2964779271371
 51
185.7035220728629
  0
ARC
  5
28B
330
27E
100
AcDbEntity
  8
0
  6
Continuous
 62
     7
370
    15
100
AcDbCircle
 10
1902.762371197951
 20
812.9666299312088
 30
0.0
 40
17.49999999999998
100
AcDbArc
 50
234.2964779271369
 51
245.7035220728643
  0
ARC
  5
28C
330
27E
100
AcDbEntity
  8
0
  6
Continuous
 62
     7
370
    15
100
AcDbCircle
 10
1902.762371197951
 20
812.9666299312088
 30
0.0
 40
17.49999999999999
100
AcDbArc
 50
294.2964779271357
 51
305.7035220728631
  0
ARC
  5
28D
330
27E
100
AcDbEntity
  8
0
  6
Continuous
 62
     7
370
    15
100
AcDbCircle
 10
1902.762371197951
 20
812.9666299312088
 30
0.0
 40
17.50000000000001
100
AcDbArc
 50
354.2964779271371
 51
5.703522072862889
  0
ARC
  5
28E
330
27E
100
AcDbEntity
  8
0
  6
Continuous
 62
     7
370
    15
100
AcDbCircle
 10
1902.762371197951
 20
812.9666299312088
 30
0.0
 40
17.49999999999999
100
AcDbArc
 50
54.29647792713688
 51
65.70352207286427
  0
ARC
  5
28F
330
27E
100
AcDbEntity
  8
0
  6
Continuous
 62
     7
370
    15
100
AcDbCircle
 10
1902.762371197951
 20
812.9666299312088
 30
0.0
 40
17.49999999999999
100
AcDbArc
 50
114.2964779271357
 51
125.7035220728631
  0
LINE
  5
290
330
27E
100
AcDbEntity
  8
0
  6
Continuous
 62
     7
370
    15
100
AcDbLine
 10
1909.962892012448
 20
828.9166299312087
 30
0.0
 11
1895.561850383454
 21
828.9166299312087
 31
0.0
  0
ARC
  5
291
330
27E
100
AcDbEntity
  8
0
  6
Continuous
 62
     7
370
    15
100
AcDbCircle
 10
1902.762371197951
 20
812.9666299312088
 30
0.0
 40
12.50000000000001
100
AcDbArc
 50
60.17131720684174
 51
104.874000485777
  0
SPLINE
  5
292
330
27E
100
AcDbEntity
  8
0
  6
Continuous
 62
     7
370
    15
100
AcDbSpline
210
0.0
220
0.0
230
1.0
 70
     8
 71
     3
 72
    26
 73
    22
 74
     0
 42
0.0000000001
 43
0.0000000001
 40
0.0
 40
0.0
 40
0.0
 40
0.0
 40
0.25
 40
0.25
 40
0.3125
 40
0.3125
 40
0.3749999999999999
 40
0.3749999999999999
 40
0.5
 40
0.5
 40
0.5625
 40
0.5625
 40
0.625
 40
0.625
 40
0.75
 40
0.75
 40
0.8125
 40
0.8125
 40
0.875
 40
0.875
 40
1.0
 40
1.0
 40
1.0
 40
1.0
 10
1910.117348804298
 20
803.8674923671242
 30
0.0
 10
1908.873017504351
 20
802.8616795874482
 30
0.0
 10
1907.423313951715
 20
802.1171089199976
 30
0.0
 10
1905.500972842095
 20
801.5846609943286
 30
0.0
 10
1905.111862383242
 20
801.4980030969924
 30
0.0
 10
1904.324325959013
 20
801.3644832498112
 30
0.0
 10
1903.927434162463
 20
801.3180539213298
 30
0.0
 10
1902.742468494647
 20
801.2398919807287
 30
0.0
 10
1901.954237910332
 20
801.2676059625118
 30
0.0
 10
1900.774533561764
 20
801.4299032793445
 30
0.0
 10
1900.380353709841
 20
801.5047329550618
 30
0.0
 10
1899.605304471415
 20
801.6935638314437
 30
0.0
 10
1899.223281627738
 20
801.8075766403224
 30
0.0
 10
1898.093801865389
 20
802.2087044004022
 30
0.0
 10
1897.369803779886
 20
802.5527870988911
 30
0.0
 10
1896.345931369384
 20
803.1748590801297
 30
0.0
 10
1896.016280686898
 20
803.3990052871455
 30
0.0
 10
1895.38019435033
 20
803.8807814015745
 30
0.0
 10
1895.073464660494
 20
804.1389049434178
 30
0.0
 10
1894.201331452576
 20
804.9522274403555
 30
0.0
 10
1893.678789389504
 20
805.5491811472803
 30
0.0
 10
1893.21624268164
 20
806.2019103989539
 30
0.0
  0
SPLINE
  5
293
330
27E
100
AcDbEntity
  8
0
  6
Continuous
 62
     7
370
    15
100
AcDbSpline
210
0.0
220
0.0
230
1.0
 70
     8
 71
     3
 72
    32
 73
    28
 74
     0
 42
0.0000000001
 43
0.0000000001
 40
0.0
 40
0.0
 40
0.0
 40
0.0
 40
0.0625000000000001
 40
0.0625000000000001
 40
0.1250000000000001
 40
0.1250000000000001
 40
0.25
 40
0.25
 40
0.375
 40
0.375
 40
0.4375
 40
0.4375
 40
0.5
 40
0.5
 40
0.5625
 40
0.5625
 40
0.625
 40
0.625
 40
0.75
 40
0.75
 40
0.8124999999999998
 40
0.8124999999999998
 40
0.875
 40
0.875
 40
0.9375
 40
0.9375
 40
1.0
 40
1.0
 40
1.0
 40
1.0
 10
1908.979975074046
 20
823.8105868676761
 30
0.0
 10
1909.399665825882
 20
823.5508034383526
 30
0.0
 10
1909.802138187699
 20
823.2675429849557
 30
0.0
 10
1910.572886970104
 20
822.6543964102233
 30
0.0
 10
1910.940919484024
 20
822.3242428080009
 30
0.0
 10
1911.973680288088
 20
821.2828944964735
 30
0.0
 10
1912.574330487091
 20
820.5148986036332
 30
0.0
 10
1913.592236360445
 20
818.8249309776102
 30
0.0
 10
1913.991274477817
 20
817.9333684821717
 30
0.0
 10
1914.426737650084
 20
816.5369982314402
 30
0.0
 10
1914.54501518364
 20
816.0593123087407
 30
0.0
 10
1914.723268010075
 20
815.0902082990748
 30
0.0
 10
1914.782361642407
 20
814.604881385104
 30
0.0
 10
1914.84254039035
 20
813.6327308149905
 30
0.0
 10
1914.843850936353
 20
813.1459129754276
 30
0.0
 10
1914.786826536844
 20
812.1707383167258
 30
0.0
 10
1914.727523471278
 20
811.6789350666806
 30
0.0
 10
1914.460461654339
 20
810.2300438106938
 30
0.0
 10
1914.167570372445
 20
809.3018370356743
 30
0.0
 10
1913.557466065956
 20
807.9656127785517
 30
0.0
 10
1913.323675332485
 20
807.527619732286
 30
0.0
 10
1912.809921295968
 20
806.6939445158602
 30
0.0
 10
1912.529085563764
 20
806.295623609782
 30
0.0
 10
1911.920276539427
 20
805.5354124741006
 30
0.0
 10
1911.592305535156
 20
805.1735204763028
 30
0.0
 10
1910.887837058615
 20
804.4872405869641
 30
0.0
 10
1910.512039418822
 20
804.1644498846816
 30
0.0
 10
1910.117348804298
 20
803.8674923671242
 30
0.0
  0
ARC
  5
294
330
27E
100
AcDbEntity
  8
0
  6
Continuous
 62
     7
370
    15
100
AcDbCircle
 10
1902.762371197951
 20
812.9666299312088
 30
0.0
 40
17.49999999999998
100
AcDbArc
 50
125.7035220728631
 51
174.2964779271371
  0
ARC
  5
295
330
27E
100
AcDbEntity
  8
0
  6
Continuous
 62
     7
370
    15
100
AcDbCircle
 10
1902.762371197951
 20
812.9666299312088
 30
0.0
 40
17.49999999999999
100
AcDbArc
 50
245.7035220728643
 51
294.2964779271357
  0
ARC
  5
296
330
27E
100
AcDbEntity
  8
0
  6
Continuous
 62
     7
370
    15
100
AcDbCircle
 10
1902.762371197951
 20
812.9666299312088
 30
0.0
 40
17.50000000000001
100
AcDbArc
 50
305.7035220728631
 51
354.2964779271371
  0
ARC
  5
297
330
27E
100
AcDbEntity
  8
0
  6
Continuous
 62
     7
370
    15
100
AcDbCircle
 10
1902.762371197951
 20
812.9666299312088
 30
0.0
 40
17.49999999999999
100
AcDbArc
 50
65.70352207286427
 51
114.2964779271357
  0
ARC
  5
298
330
27E
100
AcDbEntity
  8
0
  6
Continuous
 62
     7
370
    15
100
AcDbCircle
 10
1902.762371197951
 20
812.9666299312088
 30
0.0
 40
17.49999999999998
100
AcDbArc
 50
185.7035220728629
 51
234.2964779271369
  0
ARC
  5
299
330
27E
100
AcDbEntity
  8
0
  6
Continuous
 62
     7
370
    15
100
AcDbCircle
 10
1902.762371197951
 20
812.9666299312088
 30
0.0
 40
17.50000000000001
100
AcDbArc
 50
5.703522072862889
 51
54.29647792713688
  0
INSERT
  5
29A
330
27E
100
AcDbEntity
  8
0
  6
Continuous
 62
     7
370
     0
100
AcDbBlockReference
  2
SW_CENTERMARKSYMBOL_0
 10
1902.762371197951
 20
812.9666299312088
 30
0.0
  0
ENDBLK
  5
280
330
27E
100
AcDbEntity
  8
0
100
AcDbBlockEnd
  0
BLOCK
  5
29D
330
29C
100
AcDbEntity
  8
0
100
AcDbBlockBegin
  2
2
 70
     0
 10
0.0
 20
0.0
 30
0.0
  3
2
  1

  0
LINE
  5
29F
330
29C
100
AcDbEntity
  8
0
  6
Continuous
 62
     7
370
    15
100
AcDbLine
 10
1885.262371197951
 20
783.7152251974738
 30
0.0
 11
1885.262371197951
 21
777.7152251974738
 31
0.0
  0
LINE
  5
2A0
330
29C
100
AcDbEntity
  8
0
  6
Continuous
 62
     7
370
    15
100
AcDbLine
 10
1920.262371197951
 20
777.7152251974738
 30
0.0
 11
1920.262371197951
 21
783.7152251974738
 31
0.0
  0
LINE
  5
2A1
330
29C
100
AcDbEntity
  8
0
  6
Continuous
 62
     7
370
    15
100
AcDbLine
 10
1885.34900560034
 20
782.5152251974738
 30
0.0
 11
1885.34900560034
 21
777.7152251974738
 31
0.0
  0
LINE
  5
2A2
330
29C
100
AcDbEntity
  8
0
  6
Continuous
 62
     7
370
    15
100
AcDbLine
 10
1885.34900560034
 20
777.7152251974738
 30
0.0
 11
1885.262371197951
 21
777.7152251974738
 31
0.0
  0
LINE
  5
2A3
330
29C
100
AcDbEntity
  8
0
  6
Continuous
 62
     7
370
    15
100
AcDbLine
 10
1920.262371197951
 20
777.7152251974738
 30
0.0
 11
1920.175736795561
 21
777.7152251974738
 31
0.0
  0
LINE
  5
2A4
330
29C
100
AcDbEntity
  8
0
  6
Continuous
 62
     7
370
    15
100
AcDbLine
 10
1920.175736795561
 20
782.5152251974738
 30
0.0
 11
1920.175736795561
 21
777.7152251974738
 31
0.0
  0
LINE
  5
2A5
330
29C
100
AcDbEntity
  8
0
  6
Continuous
 62
     7
370
    15
100
AcDbLine
 10
1912.975215981064
 20
782.5152251974738
 30
0.0
 11
1920.175736795561
 21
782.5152251974738
 31
0.0
  0
LINE
  5
2A6
330
29C
100
AcDbEntity
  8
0
  6
Continuous
 62
     7
370
    15
100
AcDbLine
 10
1912.975215981064
 20
782.5152251974738
 30
0.0
 11
1912.975215981064
 21
777.7152251974738
 31
0.0
  0
LINE
  5
2A7
330
29C
100
AcDbEntity
  8
0
  6
Continuous
 62
     7
370
    15
100
AcDbLine
 10
1912.975215981064
 20
777.7152251974738
 30
0.0
 11
1909.962892012448
 21
777.7152251974738
 31
0.0
  0
LINE
  5
2A8
330
29C
100
AcDbEntity
  8
0
  6
Continuous
 62
     7
370
    15
100
AcDbLine
 10
1909.962892012448
 20
782.5152251974738
 30
0.0
 11
1909.962892012448
 21
777.7152251974738
 31
0.0
  0
LINE
  5
2A9
330
29C
100
AcDbEntity
  8
0
  6
Continuous
 62
     7
370
    15
100
AcDbLine
 10
1895.561850383454
 20
782.5152251974738
 30
0.0
 11
1895.561850383454
 21
777.7152251974738
 31
0.0
  0
LINE
  5
2AA
330
29C
100
AcDbEntity
  8
0
  6
Continuous
 62
     7
370
    15
100
AcDbLine
 10
1895.561850383454
 20
777.7152251974738
 30
0.0
 11
1892.549526414837
 21
777.7152251974738
 31
0.0
  0
LINE
  5
2AB
330
29C
100
AcDbEntity
  8
0
  6
Continuous
 62
     7
370
    15
100
AcDbLine
 10
1892.549526414837
 20
782.5152251974738
 30
0.0
 11
1892.549526414837
 21
777.7152251974738
 31
0.0
  0
LINE
  5
2AC
330
29C
100
AcDbEntity
  8
0
  6
Continuous
 62
     7
370
    15
100
AcDbLine
 10
1885.34900560034
 20
782.5152251974738
 30
0.0
 11
1892.549526414837
 21
782.5152251974738
 31
0.0
  0
LINE
  5
2AD
330
29C
100
AcDbEntity
  8
0
  6
Continuous
 62
     7
370
    15
100
AcDbLine
 10
1895.561850383454
 20
782.5152251974738
 30
0.0
 11
1909.962892012448
 21
782.5152251974738
 31
0.0
  0
LINE
  5
2AE
330
29C
100
AcDbEntity
  8
0
  6
Continuous
 62
     7
370
    15
100
AcDbLine
 10
1885.262371197951
 20
783.7152251974738
 30
0.0
 11
1920.262371197951
 21
783.7152251974738
 31
0.0
  0
LINE
  5
2AF
330
29C
100
AcDbEntity
  8
0
  6
Continuous
 62
     7
370
    15
100
AcDbLine
 10
1909.962892012448
 20
777.7152251974738
 30
0.0
 11
1895.561850383454
 21
777.7152251974738
 31
0.0
  0
LINE
  5
2B0
330
29C
100
AcDbEntity
  8
0
  6
Continuous
 62
     7
370
    15
100
AcDbLine
 10
1892.549526414837
 20
777.7152251974738
 30
0.0
 11
1885.34900560034
 21
777.7152251974738
 31
0.0
  0
LINE
  5
2B1
330
29C
100
AcDbEntity
  8
0
  6
Continuous
 62
     7
370
    15
100
AcDbLine
 10
1920.175736795561
 20
777.7152251974738
 30
0.0
 11
1912.975215981064
 21
777.7152251974738
 31
0.0
  0
ENDBLK
  5
29E
330
29C
100
AcDbEntity
  8
0
100
AcDbBlockEnd
  0
BLOCK
  5
2B4
330
2B3
100
AcDbEntity
  8
0
100
AcDbBlockBegin
  2
3
 70
     0
 10
0.0
 20
0.0
 30
0.0
  3
3
  1

  0
LINE
  5
2B6
330
2B3
100
AcDbEntity
  8
0
  6
Continuous
 62
     7
370
    15
100
AcDbLine
 10
1983.329586098173
 20
815.5932461187715
 30
0.0
 11
1983.299627567368
 21
816.6550194176707
 31
0.0
  0
LINE
  5
2B7
330
2B3
100
AcDbEntity
  8
0
  6
Continuous
 62
     7
370
    15
100
AcDbLine
 10
1948.313551318569
 20
815.6678675989796
 30
0.0
 11
1948.343509849374
 21
814.6060943000806
 31
0.0
  0
LINE
  5
2B8
330
2B3
100
AcDbEntity
  8
0
  6
Continuous
 62
     7
370
    15
100
AcDbLine
 10
1982.635642018627
 20
818.7585463447907
 30
0.0
 11
1982.515807895406
 21
823.0056395403872
 31
0.0
  0
ARC
  5
2B9
330
2B3
100
AcDbEntity
  8
0
  6
Continuous
 62
     7
370
    15
100
AcDbCircle
 10
1976.883508117898
 20
819.4259911313286
 30
0.0
 40
6.673581011436025
100
AcDbArc
 50
32.43829096902628
 51
49.26835566732906
  0
ARC
  5
2BA
330
2B3
100
AcDbEntity
  8
0
  6
Continuous
 62
     7
370
    15
100
AcDbCircle
 10
1966.535289098143
 20
792.1566826676812
 30
0.0
 40
36.40597967662954
100
AcDbArc
 50
84.59864776652521
 51
90.01984364853168
  0
ARC
  5
2BB
330
2B3
100
AcDbEntity
  8
0
  6
Continuous
 62
     7
370
    15
100
AcDbCircle
 10
1959.542347038629
 20
812.8392970192363
 30
0.0
 40
14.4623071686557
100
AcDbArc
 50
116.3058251250737
 51
126.3450816551391
  0
ARC
  5
2BC
330
2B3
100
AcDbEntity
  8
0
  6
Continuous
 62
     7
370
    15
100
AcDbCircle
 10
1952.378195046385
 20
815.7825538078506
 30
0.0
 40
4.060165706912646
100
AcDbArc
 50
150.1164253311755
 51
213.1159823462675
  0
LINE
  5
2BD
330
2B3
100
AcDbEntity
  8
0
  6
Continuous
 62
     7
370
    15
100
AcDbLine
 10
1948.97753686731
 20
813.5643406718596
 30
0.0
 11
1948.85770274409
 21
817.8114338674561
 31
0.0
  0
ARC
  5
2BE
330
2B3
100
AcDbEntity
  8
0
  6
Continuous
 62
     7
370
    15
100
AcDbCircle
 10
1954.490002521598
 20
821.3910822765136
 30
0.0
 40
6.673581011434309
100
AcDbArc
 50
212.4382909690193
 51
229.2683556673333
  0
LINE
  5
2BF
330
2B3
100
AcDbEntity
  8
0
  6
Continuous
 62
     7
370
    15
100
AcDbLine
 10
1950.255211448671
 20
812.0869224492365
 30
0.0
 11
1950.135377325451
 21
816.3340156448329
 31
0.0
  0
ARC
  5
2C0
330
2B3
100
AcDbEntity
  8
0
  6
Continuous
 62
     7
370
    15
100
AcDbCircle
 10
1962.272939625276
 20
828.4889969553088
 30
0.0
 40
20.33356433657242
100
AcDbArc
 50
233.7699298714853
 51
267.909171019151
  0
LINE
  5
2C1
330
2B3
100
AcDbEntity
  8
0
  6
Continuous
 62
     7
370
    15
100
AcDbLine
 10
1961.531094921829
 20
808.1689697637546
 30
0.0
 11
1961.411260798609
 21
812.4160629593511
 31
0.0
  0
ARC
  5
2C2
330
2B3
100
AcDbEntity
  8
0
  6
Continuous
 62
     7
370
    15
100
AcDbCircle
 10
1964.838221541356
 20
848.6603907401955
 30
0.0
 40
36.40597967666308
100
AcDbArc
 50
264.5986477665252
 51
270.0198436485317
  0
LINE
  5
2C3
330
2B3
100
AcDbEntity
  8
0
  6
Continuous
 62
     7
370
    15
100
AcDbLine
 10
1964.970664402196
 20
808.0073200513719
 30
0.0
 11
1964.850830278976
 21
812.2544132469686
 31
0.0
  0
ARC
  5
2C4
330
2B3
100
AcDbEntity
  8
0
  6
Continuous
 62
     7
370
    15
100
AcDbCircle
 10
1965.554954840628
 20
839.0434996754036
 30
0.0
 40
31.04167909394716
100
AcDbArc
 50
268.9214709305216
 51
294.3629910989412
  0
LINE
  5
2C5
330
2B3
100
AcDbEntity
  8
0
  6
Continuous
 62
     7
370
    15
100
AcDbLine
 10
1978.360147497487
 20
810.7660726002203
 30
0.0
 11
1978.240313374267
 21
815.0131657958166
 31
0.0
  0
ARC
  5
2C6
330
2B3
100
AcDbEntity
  8
0
  6
Continuous
 62
     7
370
    15
100
AcDbCircle
 10
1971.831163600868
 20
827.9777763886057
 30
0.0
 40
14.46230716865439
100
AcDbArc
 50
296.3058251250737
 51
306.3450816551391
  0
LINE
  5
2C7
330
2B3
100
AcDbEntity
  8
0
  6
Continuous
 62
     7
370
    15
100
AcDbLine
 10
1980.522042396493
 20
812.0818411104608
 30
0.0
 11
1980.402208273273
 21
816.3289343060572
 31
0.0
  0
LWPOLYLINE
  5
2C8
330
2B3
100
AcDbEntity
  8
0
  6
Continuous
 62
     7
370
    15
100
AcDbPolyline
 90
       20
 70
   128
 43
0.0
 10
1982.635642018627
 20
818.7585463447907
 10
1982.832144704225
 20
818.4110517347109
 10
1982.994729928267
 20
818.0590755673858
 10
1983.12307379658
 20
817.703319032171
 10
1983.216920628917
 20
817.3444908494824
 10
1983.276083468301
 20
816.983305858919
 10
1983.300444453476
 20
816.6204835951944
 10
1983.289955053702
 20
816.2567468547166
 10
1983.244636165439
 20
815.892820255668
 10
1983.164578070714
 20
815.5294287944581
 10
1983.049940257268
 20
815.1672964014215
 10
1982.900951100834
 20
814.8071444986399
 10
1982.717907410171
 20
814.4496905627612
 10
1982.501173835788
 20
814.0956466956781
 10
1982.251182143494
 20
813.7457182059151
 10
1981.968430354264
 20
813.4006022035462
 10
1981.653481752102
 20
813.0609862114493
 10
1981.306963761898
 20
812.7275467956557
 10
1980.929566699496
 20
812.4009482175299
 10
1980.522042396493
 20
812.0818411104608
  0
LWPOLYLINE
  5
2C9
330
2B3
100
AcDbEntity
  8
0
  6
Continuous
 62
     7
370
    15
100
AcDbPolyline
 90
       73
 70
   128
 43
0.0
 10
1983.329586098173
 20
815.5932461187715
 10
1983.32686891328
 20
815.307281931652
 10
1983.292744675711
 20
814.9465114608396
 10
1983.224449113354
 20
814.58604080547
 10
1983.122115917979
 20
814.2265756037787
 10
1982.985945411622
 20
813.8688195257783
 10
1982.816204154444
 20
813.513472895792
 10
1982.613224422927
 20
813.1612313215352
 10
1982.377403559427
 20
812.8127843324307
 10
1982.109203194359
 20
812.4688140298227
 10
1981.809148342532
 20
812.1299937517312
 10
1981.477826375408
 20
811.7969867547619
 10
1981.115885871298
 20
811.4704449157493
 10
1980.724035345736
 20
811.1510074556777
 10
1980.303041864525
 20
810.8392996883759
 10
1979.853729542177
 20
810.5359317964364
 10
1979.37697792866
 20
810.2414976367537
 10
1978.873720287647
 20
809.956573578022
 10
1978.344941769604
 20
809.6817173724664
 10
1977.79167748331
 20
809.4174670640164
 10
1977.215010469588
 20
809.1643399350601
 10
1976.616069581197
 20
808.9228314938393
 10
1975.996027273053
 20
808.6934145044692
 10
1975.356097307091
 20
808.4765380614793
 10
1974.69753237627
 20
808.2726267106918
 10
1974.021621652369
 20
808.0820796181514
 10
1973.329688262371
 20
807.90526978874
 10
1972.623086698379
 20
807.7425433360012
 10
1971.903200166138
 20
807.5942188046084
 10
1971.17143787734
 20
807.4605865467969
 10
1970.429232291029
 20
807.3419081539869
 10
1969.678036309495
 20
807.238415944705
 10
1968.919320434147
 20
807.1503125098114
 10
1968.15456988694
 20
807.0777703159171
 10
1967.385281702984
 20
807.0209313677732
 10
1966.612961800024
 20
806.9799069302897
 10
1965.839122030539
 20
806.9547773107297
 10
1965.065277222217
 20
806.9455917015035
 10
1964.29294221261
 20
806.9523680838724
 10
1963.523628883769
 20
806.9750931927499
 10
1962.758843202661
 20
807.0137225426682
 10
1962.000082273171
 20
807.0681805148607
 10
1961.248831405452
 20
807.1383605052893
 10
1960.506561208353
 20
807.2241251333275
 10
1959.774724710645
 20
807.3253065106881
 10
1959.054754516638
 20
807.4417065700734
 10
1958.348060001797
 20
807.5730974529012
 10
1957.65602455382
 20
807.7192219553481
 10
1956.980002864596
 20
807.8797940318386
 10
1956.321318278327
 20
808.0544993549926
 10
1955.681260201023
 20
808.2429959309356
 10
1955.061081576426
 20
808.4449147687687
 10
1954.461996433319
 20
808.6598606028845
 10
1953.885177509002
 20
808.8874126667187
 10
1953.331753953606
 20
809.127125516421
 10
1952.802809119731
 20
809.3785299028306
 10
1952.299378441727
 20
809.6411336900557
 10
1951.82244740879
 20
809.9144228188503
 10
1951.37294963581
 20
810.1978623129117
 10
1950.951765035789
 20
810.4908973261197
 10
1950.559718097359
 20
810.7929542286749
 10
1950.197576270812
 20
811.1034417300059
 10
1949.866048465781
 20
811.4217520362487
 10
1949.565783663513
 20
811.7472620400306
 10
1949.297369646458
 20
812.0793345402333
 10
1949.061331847659
 20
812.4173194893437
 10
1948.858132322192
 20
812.7605552659519
 10
1948.688168842671
 20
813.108369969907
 10
1948.551774120587
 20
813.4600827375924
 10
1948.449215155015
 20
813.8150050747491
 10
1948.380692709946
 20
814.1724422042347
 10
1948.346340921284
 20
814.5316944260835
 10
1948.343509849374
 20
814.6060943000806
  0
SPLINE
  5
2CA
330
2B3
100
AcDbEntity
  8
0
  6
Continuous
 62
     7
370
    15
100
AcDbSpline
210
0.0
220
0.0
230
1.0
 70
     8
 71
     3
 72
    34
 73
    30
 74
     0
 42
0.0000000001
 43
0.0000000001
 40
0.0
 40
0.0
 40
0.0
 40
0.0
 40
0.0625000000000001
 40
0.0625000000000001
 40
0.1250000000000002
 40
0.1250000000000002
 40
0.2500000000000003
 40
0.2500000000000003
 40
0.3125000000000004
 40
0.3125000000000004
 40
0.3750000000000004
 40
0.3750000000000004
 40
0.4375000000000006
 40
0.4375000000000006
 40
0.5000000000000006
 40
0.5000000000000006
 40
0.5625000000000006
 40
0.5625000000000006
 40
0.6250000000000006
 40
0.6250000000000006
 40
0.7500000000000005
 40
0.7500000000000005
 40
0.8125000000000003
 40
0.8125000000000003
 40
0.8750000000000003
 40
0.8750000000000003
 40
0.9375000000000001
 40
0.9375000000000001
 40
1.0
 40
1.0
 40
1.0
 40
1.0
 10
1972.077501011544
 20
825.1105602130346
 30
0.0
 10
1972.497350884775
 20
825.0019519190164
 30
0.0
 10
1972.899269842953
 20
824.8814093760941
 30
0.0
 10
1973.667529671307
 20
824.6166446421948
 30
0.0
 10
1974.033697258341
 20
824.4722283336866
 30
0.0
 10
1975.05662892765
 20
824.0127505335397
 30
0.0
 10
1975.64735713307
 20
823.6692105355517
 30
0.0
 10
1976.392887726964
 20
823.0965495744236
 30
0.0
 10
1976.61374475014
 20
822.8988739924158
 30
0.0
 10
1976.998376412232
 20
822.4936525244242
 30
0.0
 10
1977.163549470753
 20
822.2857307349297
 30
0.0
 10
1977.43944081446
 20
821.8592319318625
 30
0.0
 10
1977.550588930737
 20
821.6393757756559
 30
0.0
 10
1977.713744182631
 20
821.1947273899905
 30
0.0
 10
1977.765604731967
 20
820.971397498576
 30
0.0
 10
1977.811639752578
 20
820.5227854777236
 30
0.0
 10
1977.805810798255
 20
820.297503232355
 30
0.0
 10
1977.735676126373
 20
819.8449597448737
 30
0.0
 10
1977.670567468852
 20
819.6162697075688
 30
0.0
 10
1977.390385528559
 20
818.9431683299071
 30
0.0
 10
1977.091853863094
 20
818.5086340968299
 30
0.0
 10
1976.480825169572
 20
817.8775756250342
 30
0.0
 10
1976.248987164429
 20
817.6704259847989
 30
0.0
 10
1975.742129085384
 20
817.2737823694381
 30
0.0
 10
1975.465916789359
 20
817.0828861152648
 30
0.0
 10
1974.868466357192
 20
816.7157684970064
 30
0.0
 10
1974.54723089698
 20
816.5395462607778
 30
0.0
 10
1973.858406976962
 20
816.2022092282375
 30
0.0
 10
1973.491957851567
 20
816.0418094503782
 30
0.0
 10
1973.107747715697
 20
815.8917505434601
 30
0.0
  0
SPLINE
  5
2CB
330
2B3
100
AcDbEntity
  8
0
  6
Continuous
 62
     7
370
    15
100
AcDbSpline
210
0.0
220
0.0
230
1.0
 70
     8
 71
     3
 72
    26
 73
    22
 74
     0
 42
0.0000000001
 43
0.0000000001
 40
0.0
 40
0.0
 40
0.0
 40
0.0
 40
0.25
 40
0.25
 40
0.3125
 40
0.3125
 40
0.3749999999999999
 40
0.3749999999999999
 40
0.5
 40
0.5
 40
0.5625
 40
0.5625
 40
0.625
 40
0.625
 40
0.75
 40
0.75
 40
0.8125
 40
0.8125
 40
0.875
 40
0.875
 40
1.0
 40
1.0
 40
1.0
 40
1.0
 10
1955.506075471426
 20
822.8644216737883
 30
0.0
 10
1956.293543311221
 20
823.5300114811947
 30
0.0
 10
1957.367918114289
 20
824.1239813304687
 30
0.0
 10
1958.95964920524
 20
824.7183936207214
 30
0.0
 10
1959.28959623345
 20
824.8297418840254
 30
0.0
 10
1959.972769459608
 20
825.0373196561641
 30
0.0
 10
1960.32472816405
 20
825.1330715146266
 30
0.0
 10
1961.397748676391
 20
825.3932700715626
 30
0.0
 10
1962.140792345334
 20
825.5324969072853
 30
0.0
 10
1963.297247541004
 20
825.6895527347138
 30
0.0
 10
1963.691226125968
 20
825.7332804307177
 30
0.0
 10
1964.481196422767
 20
825.8015479200931
 30
0.0
 10
1964.878264834568
 20
825.8263037462725
 30
0.0
 10
1966.075751455755
 20
825.8722952401113
 30
0.0
 10
1966.875284244444
 20
825.864839992735
 30
0.0
 10
1968.055739686735
 20
825.7967548437283
 30
0.0
 10
1968.444569296163
 20
825.7646988798994
 30
0.0
 10
1969.212943521605
 20
825.6819175683174
 30
0.0
 10
1969.592942843435
 20
825.6310388771211
 30
0.0
 10
1970.702568443114
 20
825.4526521556741
 30
0.0
 10
1971.407681461042
 20
825.2991980294293
 30
0.0
 10
1972.077501011544
 20
825.1105602130346
 30
0.0
  0
SPLINE
  5
2CC
330
2B3
100
AcDbEntity
  8
0
  6
Continuous
 62
     7
370
    15
100
AcDbSpline
210
0.0
220
0.0
230
1.0
 70
     8
 71
     3
 72
    32
 73
    28
 74
     0
 42
0.0000000001
 43
0.0000000001
 40
0.0
 40
0.0
 40
0.0
 40
0.0
 40
0.0625000000000001
 40
0.0625000000000001
 40
0.1250000000000001
 40
0.1250000000000001
 40
0.25
 40
0.25
 40
0.375
 40
0.375
 40
0.4375
 40
0.4375
 40
0.5
 40
0.5
 40
0.5625
 40
0.5625
 40
0.625
 40
0.625
 40
0.75
 40
0.75
 40
0.8124999999999998
 40
0.8124999999999998
 40
0.875
 40
0.875
 40
0.9375
 40
0.9375
 40
1.0
 40
1.0
 40
1.0
 40
1.0
 10
1963.889133378746
 20
814.6114937788874
 30
0.0
 10
1963.403497893911
 20
814.6414379864358
 30
0.0
 10
1962.925247671778
 20
814.684652498634
 30
0.0
 10
1961.983414453018
 20
814.7974365165813
 30
0.0
 10
1961.51995997843
 20
814.8671663588492
 30
0.0
 10
1960.177230256713
 20
815.111636010886
 30
0.0
 10
1959.336667691585
 20
815.3227772640256
 30
0.0
 10
1957.769496071458
 20
815.845593049344
 30
0.0
 10
1957.070994975461
 20
816.1478411548142
 30
0.0
 10
1956.153199431732
 20
816.6575280608933
 30
0.0
 10
1955.867764488209
 20
816.8377667224033
 30
0.0
 10
1955.346057421156
 20
817.2152455066049
 30
0.0
 10
1955.112842462075
 20
817.41006730576
 30
0.0
 10
1954.699796634917
 20
817.8114591138903
 30
0.0
 10
1954.519758307707
 20
818.0179834674396
 30
0.0
 10
1954.214572219826
 20
818.443111913665
 30
0.0
 10
1954.089058619976
 20
818.6633653336203
 30
0.0
 10
1953.805149055996
 20
819.329940515559
 30
0.0
 10
1953.73651450675
 20
819.7803035162039
 30
0.0
 10
1953.812936711805
 20
820.464738838255
 30
0.0
 10
1953.869420185145
 20
820.6955623620224
 30
0.0
 10
1954.04085824277
 20
821.1480830083896
 30
0.0
 10
1954.155654704193
 20
821.3710680594587
 30
0.0
 10
1954.442456007478
 20
821.8105942290925
 30
0.0
 10
1954.61445807268
 20
822.027135660419
 30
0.0
 10
1955.017356228294
 20
822.4535847201137
 30
0.0
 10
1955.248188329706
 20
822.6626798796431
 30
0.0
 10
1955.506075471425
 20
822.8644216737881
 30
0.0
  0
ARC
  5
2CD
330
2B3
100
AcDbEntity
  8
0
  6
Continuous
 62
     7
370
    15
100
AcDbCircle
 10
1965.21751414394
 20
838.8762543574129
 30
0.0
 40
24.30109465416114
100
AcDbArc
 50
266.8664552859339
 51
288.9465733067295
  0
LINE
  5
2CE
330
2B3
100
AcDbEntity
  8
0
  6
Continuous
 62
     7
370
    15
100
AcDbLine
 10
1950.971302366224
 20
824.4881391017859
 30
0.0
 11
1948.85770274409
 21
817.8114338674561
 31
0.0
  0
LINE
  5
2CF
330
2B3
100
AcDbEntity
  8
0
  6
Continuous
 62
     7
370
    15
100
AcDbLine
 10
1966.522680360522
 20
828.5626601608747
 30
0.0
 11
1953.13319726523
 21
825.8039076120265
 31
0.0
  0
LINE
  5
2D0
330
2B3
100
AcDbEntity
  8
0
  6
Continuous
 62
     7
370
    15
100
AcDbLine
 10
1981.238133314046
 20
824.4830577630102
 30
0.0
 11
1969.962249840888
 21
828.401010448492
 31
0.0
  0
LINE
  5
2D1
330
2B3
100
AcDbEntity
  8
0
  6
Continuous
 62
     7
370
    15
100
AcDbLine
 10
1980.402208273273
 20
816.3289343060572
 30
0.0
 11
1982.515807895406
 21
823.0056395403872
 31
0.0
  0
LINE
  5
2D2
330
2B3
100
AcDbEntity
  8
0
  6
Continuous
 62
     7
370
    15
100
AcDbLine
 10
1964.850830278976
 20
812.2544132469686
 30
0.0
 11
1978.240313374267
 21
815.0131657958166
 31
0.0
  0
LINE
  5
2D3
330
2B3
100
AcDbEntity
  8
0
  6
Continuous
 62
     7
370
    15
100
AcDbLine
 10
1950.135377325451
 20
816.3340156448329
 30
0.0
 11
1961.411260798609
 21
812.4160629593511
 31
0.0
  0
LINE
  5
2D4
330
2B3
100
AcDbEntity
  8
0
  6
Continuous
 62
     7
370
    15
100
AcDbLine
 10
1950.255211448671
 20
812.0869224492365
 30
0.0
 11
1961.531094921829
 21
808.1689697637546
 31
0.0
  0
LINE
  5
2D5
330
2B3
100
AcDbEntity
  8
0
  6
Continuous
 62
     7
370
    15
100
AcDbLine
 10
1964.970664402196
 20
808.0073200513719
 30
0.0
 11
1978.360147497487
 21
810.7660726002203
 31
0.0
  0
SPLINE
  5
2D6
330
2B3
100
AcDbEntity
  8
0
  6
Continuous
 62
     7
370
    15
100
AcDbSpline
210
0.0
220
0.0
230
1.0
 70
     8
 71
     3
 72
    33
 73
    29
 74
     0
 42
0.0000000001
 43
0.0000000001
 40
0.0
 40
0.0
 40
0.0
 40
0.0
 40
0.0275890544005747
 40
0.0679451185068817
 40
0.1086977745761655
 40
0.1496516423444042
 40
0.1906054686469598
 40
0.231358001538361
 40
0.2717138643235163
 40
0.3114890073177781
 40
0.3512646977567975
 40
0.3916209631532426
 40
0.4323737423674804
 40
0.4733276515674797
 40
0.51428143637043
 40
0.5550338460510205
 40
0.5953895074840118
 40
0.6351643770288483
 40
0.6749403412108634
 40
0.7152968078664323
 40
0.7560497101926942
 40
0.7970036607905319
 40
0.8379574040599553
 40
0.8787096904968072
 40
0.9190651505466233
 40
0.9588397468660607
 40
0.998615984762759
 40
1.0
 40
1.0
 40
1.0
 40
1.0
 10
1976.548126925331
 20
818.3416421668963
 30
0.0
 10
1976.444496276003
 20
818.4554695674044
 30
0.0
 10
1976.189279237846
 20
818.7357987191232
 30
0.0
 10
1975.665630925554
 20
819.1563514503705
 30
0.0
 10
1974.996103951529
 20
819.6014221326628
 30
0.0
 10
1974.229164374737
 20
820.0127732184164
 30
0.0
 10
1973.380314822236
 20
820.3851525079402
 30
0.0
 10
1972.461307631989
 20
820.7130783548455
 30
0.0
 10
1971.48732697155
 20
820.9929100499637
 30
0.0
 10
1970.467756893496
 20
821.2235296961241
 30
0.0
 10
1969.40459908487
 20
821.4063819761255
 30
0.0
 10
1968.298528230922
 20
821.5414809882195
 30
0.0
 10
1967.157440081944
 20
821.6259814715431
 30
0.0
 10
1965.997460757267
 20
821.6575811276694
 30
0.0
 10
1964.835593891449
 20
821.635408878806
 30
0.0
 10
1963.688898129359
 20
821.5601699009033
 30
0.0
 10
1962.573661367627
 20
821.4341774382571
 30
0.0
 10
1961.497939488355
 20
821.2596799072684
 30
0.0
 10
1960.462480786502
 20
821.0386267580874
 30
0.0
 10
1959.469239874204
 20
820.7715765968778
 30
0.0
 10
1958.527744993867
 20
820.4590832502253
 30
0.0
 10
1957.653174163735
 20
820.1048315805628
 30
0.0
 10
1956.858629535466
 20
819.7137682012273
 30
0.0
 10
1956.156347813468
 20
819.2917628076424
 30
0.0
 10
1955.550209500891
 20
818.8461258831074
 30
0.0
 10
1955.058023404792
 20
818.3792167873646
 30
0.0
 10
1954.762273317471
 20
818.0551704964571
 30
0.0
 10
1954.661227923967
 20
817.8848931600564
 30
0.0
 10
1954.657830268375
 20
817.879167577481
 30
0.0
  0
SPLINE
  5
2D7
330
2B3
100
AcDbEntity
  8
0
  6
Continuous
 62
     7
370
    15
100
AcDbSpline
210
0.0
220
0.0
230
1.0
 70
     8
 71
     3
 72
    35
 73
    31
 74
     0
 42
0.0000000001
 43
0.0000000001
 40
0.0
 40
0.0
 40
0.0
 40
0.0
 40
0.0345649003430751
 40
0.0703727924402437
 40
0.1067028626421357
 40
0.1433893830176931
 40
0.180256446133408
 40
0.2171228746816116
 40
0.2538075100120723
 40
0.2901344993081882
 40
0.3259382105294968
 40
0.3617463488723041
 40
0.3980766000526621
 40
0.4347632310464287
 40
0.4716303312148074
 40
0.508496722160683
 40
0.5451812463393735
 40
0.5815080541545016
 40
0.6173115208293938
 40
0.6531199053923448
 40
0.6894503375232426
 40
0.726137079105571
 40
0.7630042162960739
 40
0.7998705696090882
 40
0.8365549826063704
 40
0.8728816089126008
 40
0.9086848312427552
 40
0.9444934620003538
 40
0.9808240750538647
 40
1.0
 40
1.0
 40
1.0
 40
1.0
 10
1977.003702632817
 20
819.0295851515706
 30
0.0
 10
1976.893265366904
 20
819.1947069259621
 30
0.0
 10
1976.668419389782
 20
819.5308884349865
 30
0.0
 10
1976.198728643262
 20
820.0152669401386
 30
0.0
 10
1975.62889293473
 20
820.4856648099278
 30
0.0
 10
1974.955545398841
 20
820.9298858596145
 30
0.0
 10
1974.189260076806
 20
821.3413215545871
 30
0.0
 10
1973.339905316084
 20
821.7135085138078
 30
0.0
 10
1972.420759996779
 20
822.0412961265566
 30
0.0
 10
1971.446606584178
 20
822.3209619084732
 30
0.0
 10
1970.426896391982
 20
822.5514216964779
 30
0.0
 10
1969.363595869641
 20
822.7341208773434
 30
0.0
 10
1968.257385698077
 20
822.8690590723982
 30
0.0
 10
1967.11620842414
 20
822.953389176099
 30
0.0
 10
1965.956194876286
 20
822.9848129398847
 30
0.0
 10
1964.794350086715
 20
822.9624646656985
 30
0.0
 10
1963.647731518182
 20
822.8870544095327
 30
0.0
 10
1962.532623240341
 20
822.7609009893379
 30
0.0
 10
1961.457031579032
 20
822.5862459041113
 30
0.0
 10
1960.421707894147
 20
822.3650444962892
 30
0.0
 10
1959.42860677413
 20
822.0978409702494
 30
0.0
 10
1958.487322926566
 20
821.7852025099098
 30
0.0
 10
1957.612935700319
 20
821.4308270998994
 30
0.0
 10
1956.818893779461
 20
821.039630412296
 30
0.0
 10
1956.116113446724
 20
820.6176155865094
 30
0.0
 10
1955.513301315434
 20
820.1716142133049
 30
0.0
 10
1955.010464385674
 20
819.7057341372564
 30
0.0
 10
1954.613690827015
 20
819.2215062314247
 30
0.0
 10
1954.349302433975
 20
818.802074882998
 30
0.0
 10
1954.261760257626
 20
818.5422862520615
 30
0.0
 10
1954.231516933797
 20
818.4525366933927
 30
0.0
  0
SPLINE
  5
2D8
330
2B3
100
AcDbEntity
  8
0
  6
Continuous
 62
     7
370
    15
100
AcDbSpline
210
0.0
220
0.0
230
1.0
 70
     8
 71
     3
 72
    38
 73
    34
 74
     0
 42
0.0000000001
 43
0.0000000001
 40
0.0
 40
0.0
 40
0.0
 40
0.0
 40
0.0070980682092716
 40
0.0402859016889991
 40
0.0729952599333441
 40
0.1057117971298141
 40
0.1389049285936191
 40
0.1724232050817005
 40
0.2061058909742665
 40
0.2397874514653809
 40
0.2733023848379485
 40
0.306490052334887
 40
0.3391991884470195
 40
0.3719159504315902
 40
0.4051092470364636
 40
0.4386276243706366
 40
0.4723103438919755
 40
0.5059918698057495
 40
0.5395067014114458
 40
0.5726942029001022
 40
0.6054031170642858
 40
0.6381201038136563
 40
0.6713135655340782
 40
0.7048320436872512
 40
0.7385147968094634
 40
0.7721962881180006
 40
0.8057110179297525
 40
0.838898353384634
 40
0.8716070457851337
 40
0.9043242572760023
 40
0.9375178840864514
 40
0.9710364630315355
 40
1.0
 40
1.0
 40
1.0
 40
1.0
 10
1977.273585499992
 20
819.6905711821663
 30
0.0
 10
1977.263339780632
 20
819.7295538967081
 30
0.0
 10
1977.205189023171
 20
819.9508047722
 30
0.0
 10
1976.991192875899
 20
820.3407356234118
 30
0.0
 10
1976.631536024394
 20
820.8534209472771
 30
0.0
 10
1976.160534940052
 20
821.3442506802751
 30
0.0
 10
1975.589138591509
 20
821.8143330211368
 30
0.0
 10
1974.915801576617
 20
822.2585236933058
 30
0.0
 10
1974.149135812399
 20
822.6698226149879
 30
0.0
 10
1973.299553456777
 20
823.0418765302131
 30
0.0
 10
1972.380196314949
 20
823.3695100750113
 30
0.0
 10
1971.405889702796
 20
823.649014121708
 30
0.0
 10
1970.386034272942
 20
823.8793129817779
 30
0.0
 10
1969.322592413827
 20
824.0618593349378
 30
0.0
 10
1968.216242707443
 20
824.1966365946428
 30
0.0
 10
1967.074976584157
 20
824.2807963143214
 30
0.0
 10
1965.914928971112
 20
824.3120441708008
 30
0.0
 10
1964.753106442933
 20
824.2895198807207
 30
0.0
 10
1963.606565266105
 20
824.2139383700539
 30
0.0
 10
1962.491585394345
 20
824.0876240151186
 30
0.0
 10
1961.41612428719
 20
823.912811378633
 30
0.0
 10
1960.380934421169
 20
823.691461810187
 30
0.0
 10
1959.387977912302
 20
823.4241045096833
 30
0.0
 10
1958.446887674825
 20
823.1113226217273
 30
0.0
 10
1957.572750266846
 20
822.7568173353223
 30
0.0
 10
1956.778964776132
 20
822.3655104871712
 30
0.0
 10
1956.076598094923
 20
821.9434008485345
 30
0.0
 10
1955.473759509068
 20
821.4973491240185
 30
0.0
 10
1954.972585178085
 20
821.0313445302283
 30
0.0
 10
1954.571156867288
 20
820.5472869536576
 30
0.0
 10
1954.275345976779
 20
820.046516106364
 30
0.0
 10
1954.085786578887
 20
819.5565632463894
 30
0.0
 10
1954.052481707086
 20
819.2347614533961
 30
0.0
 10
1954.037043259275
 20
819.0855904787643
 30
0.0
  0
SPLINE
  5
2D9
330
2B3
100
AcDbEntity
  8
0
  6
Continuous
 62
     7
370
    15
100
AcDbSpline
210
0.0
220
0.0
230
1.0
 70
     8
 71
     3
 72
    34
 73
    30
 74
     0
 42
0.0000000001
 43
0.0000000001
 40
0.0
 40
0.0
 40
0.0
 40
0.0
 40
0.0197644385672216
 40
0.0578813144809337
 40
0.0956254682451425
 40
0.1328249314572835
 40
0.1700366193113434
 40
0.2077898114426002
 40
0.2459122171470419
 40
0.2842209997091247
 40
0.3225278817283416
 40
0.3606446416835638
 40
0.3983886064379062
 40
0.4355878186880276
 40
0.4727997619892886
 40
0.5105531417089403
 40
0.5486756618626086
 40
0.5869844824179769
 40
0.625291324857383
 40
0.6634079688233281
 40
0.7011517445388172
 40
0.7383507060364975
 40
0.7755629047584496
 40
0.8133164720374628
 40
0.8506411363103874
 40
0.8881480876797487
 40
0.9256606432086329
 40
0.9630019619261677
 40
1.0
 40
1.0
 40
1.0
 40
1.0
 10
1977.377950122935
 20
820.2954954225894
 30
0.0
 10
1977.373936132028
 20
820.3921746814071
 30
0.0
 10
1977.362180924854
 20
820.6753055461861
 30
0.0
 10
1977.218503483551
 20
821.1364814018667
 30
0.0
 10
1976.959533846705
 20
821.6702457578351
 30
0.0
 10
1976.590900140426
 20
822.1821247996958
 30
0.0
 10
1976.121876595441
 20
822.673085369626
 30
0.0
 10
1975.54950945995
 20
823.143041516324
 30
0.0
 10
1974.876022574393
 20
823.5871501985364
 30
0.0
 10
1974.109019831197
 20
823.9983261991493
 30
0.0
 10
1973.259198398374
 20
824.3702432814545
 30
0.0
 10
1972.339632688326
 20
824.6977237130945
 30
0.0
 10
1971.365172100405
 20
824.9770657671914
 30
0.0
 10
1970.345171662057
 20
825.2072037974201
 30
0.0
 10
1969.281588411804
 20
825.38959728189
 30
0.0
 10
1968.175099342218
 20
825.524213573173
 30
0.0
 10
1967.033744543104
 20
825.608202880784
 30
0.0
 10
1965.873663036787
 20
825.6392748233942
 30
0.0
 10
1964.71186300239
 20
825.6165745174094
 30
0.0
 10
1963.565399214039
 20
825.5408218054478
 30
0.0
 10
1962.450548417443
 20
825.4143464320558
 30
0.0
 10
1961.375215455387
 20
825.2393766380478
 30
0.0
 10
1960.340168478439
 20
825.0178775455063
 30
0.0
 10
1959.354328086975
 20
824.7522591770964
 30
0.0
 10
1958.426103096897
 20
824.4441435635167
 30
0.0
 10
1957.567778062377
 20
824.0982148984297
 30
0.0
 10
1956.787883521572
 20
823.7163402084922
 30
0.0
 10
1956.088235648836
 20
823.3062713708678
 30
0.0
 10
1955.699530549434
 20
823.0112507956231
 30
0.0
 10
1955.506075471425
 20
822.8644216737881
 30
0.0
  0
SPLINE
  5
2DA
330
2B3
100
AcDbEntity
  8
0
  6
Continuous
 62
     7
370
    15
100
AcDbSpline
210
0.0
220
0.0
230
1.0
 70
     8
 71
     3
 72
    17
 73
    13
 74
     0
 42
0.0000000001
 43
0.0000000001
 40
0.0
 40
0.0
 40
0.0
 40
0.0
 40
0.0819205147946808
 40
0.1963442324114062
 40
0.31189208252961
 40
0.4280101424028097
 40
0.5441278496068862
 40
0.6596746520846157
 40
0.7740966574373082
 40
0.8868720862932486
 40
0.9996506185141109
 40
0.9999999999999998
 40
0.9999999999999998
 40
0.9999999999999998
 40
0.9999999999999998
 10
1970.481405945487
 20
821.2083643014121
 30
0.0
 10
1970.209798151271
 20
821.2573141236145
 30
0.0
 10
1969.558818063973
 20
821.3746353500633
 30
0.0
 10
1968.479487428965
 20
821.4998336921185
 30
0.0
 10
1967.261621353054
 20
821.5901232223234
 30
0.0
 10
1966.022070823727
 20
821.6219961843005
 30
0.0
 10
1964.780777189412
 20
821.5970327967228
 30
0.0
 10
1963.556106234006
 20
821.5148385436203
 30
0.0
 10
1962.363137432341
 20
821.3800583695382
 30
0.0
 10
1961.219489616522
 20
821.1877677354982
 30
0.0
 10
1960.470556187002
 20
821.0411718990071
 30
0.0
 10
1960.120910691246
 20
820.9466523529687
 30
0.0
 10
1960.119830854636
 20
820.946360441111
 30
0.0
  0
SPLINE
  5
2DB
330
2B3
100
AcDbEntity
  8
0
  6
Continuous
 62
     7
370
    15
100
AcDbSpline
210
0.0
220
0.0
230
1.0
 70
     8
 71
     3
 72
    16
 73
    12
 74
     0
 42
0.0000000001
 43
0.0000000001
 40
0.0
 40
0.0
 40
0.0
 40
0.0
 40
0.0822005732910382
 40
0.1966423123340266
 40
0.3122065433242115
 40
0.4283391975397689
 40
0.5444696179216583
 40
0.6600272130755536
 40
0.7744581065048953
 40
0.8872406203756256
 40
1.0
 40
1.0
 40
1.0
 40
1.0
 10
1970.442964465829
 20
822.5357930976853
 30
0.0
 10
1970.170429106538
 20
822.5848681594158
 30
0.0
 10
1969.518463054503
 20
822.7022667763627
 30
0.0
 10
1968.438094287736
 20
822.8274390192934
 30
0.0
 10
1967.220139641439
 20
822.9175297349367
 30
0.0
 10
1965.980507905221
 20
822.9492548586078
 30
0.0
 10
1964.739409654299
 20
822.9239599153922
 30
0.0
 10
1963.51418374092
 20
822.8421125077499
 30
0.0
 10
1962.323695386989
 20
822.7052139985294
 30
0.0
 10
1961.171711433152
 20
822.5199254016873
 30
0.0
 10
1960.445509865812
 20
822.3557529476824
 30
0.0
 10
1960.082446326057
 20
822.273675140415
 30
0.0
  0
SPLINE
  5
2DC
330
2B3
100
AcDbEntity
  8
0
  6
Continuous
 62
     7
370
    15
100
AcDbSpline
210
0.0
220
0.0
230
1.0
 70
     8
 71
     3
 72
    16
 73
    12
 74
     0
 42
0.0000000001
 43
0.0000000001
 40
0.0
 40
0.0
 40
0.0
 40
0.0
 40
0.0826687754692691
 40
0.1970975935517693
 40
0.3126469593035904
 40
0.4287628079769891
 40
0.544874542322806
 40
0.6604116860346428
 40
0.774820528409705
 40
0.8875796800947918
 40
1.0
 40
1.0
 40
1.0
 40
1.0
 10
1970.406628782931
 20
823.8628628861153
 30
0.0
 10
1970.132470181647
 20
823.912191709846
 30
0.0
 10
1969.47882555878
 20
824.0298007151183
 30
0.0
 10
1968.396706324848
 20
824.1550456928484
 30
0.0
 10
1967.178647200694
 20
824.2449425898996
 30
0.0
 10
1965.93898155575
 20
824.2764830084258
 30
0.0
 10
1964.697906806197
 20
824.2509987950139
 30
0.0
 10
1963.472762220647
 20
824.1689702544336
 30
0.0
 10
1962.282416636911
 20
824.0318944231662
 30
0.0
 10
1961.131663017958
 20
823.8466368916219
 30
0.0
 10
1960.406618957994
 20
823.6826099617555
 30
0.0
 10
1960.044642421719
 20
823.6007199040232
 30
0.0
  0
SPLINE
  5
2DD
330
2B3
100
AcDbEntity
  8
0
  6
Continuous
 62
     7
370
    15
100
AcDbSpline
210
0.0
220
0.0
230
1.0
 70
     8
 71
     3
 72
    16
 73
    12
 74
     0
 42
0.0000000001
 43
0.0000000001
 40
0.0
 40
0.0
 40
0.0
 40
0.0
 40
0.0829476140510641
 40
0.1974045590000245
 40
0.3129805089143875
 40
0.4291212044037904
 40
0.5452559034966966
 40
0.6608140404886514
 40
0.7752418719892834
 40
0.8880181560154843
 40
1.0
 40
1.0
 40
1.0
 40
1.0
 10
1970.368101165322
 20
825.1903072810428
 30
0.0
 10
1970.093042925739
 20
825.2397555721289
 30
0.0
 10
1969.438440004299
 20
825.3574360890052
 30
0.0
 10
1968.355314786477
 20
825.4826475071746
 30
0.0
 10
1967.137155410083
 20
825.5723559822992
 30
0.0
 10
1965.897454920811
 20
825.603710265077
 30
0.0
 10
1964.656404325026
 20
825.5780370069667
 30
0.0
 10
1963.431340571378
 20
825.495827909884
 30
0.0
 10
1962.241140017282
 20
825.3585724008711
 30
0.0
 10
1961.092081722281
 20
825.1734313155859
 30
0.0
 10
1960.368640878432
 20
825.0096559718624
 30
0.0
 10
1960.008199009545
 20
824.9280577437954
 30
0.0
  0
SPLINE
  5
2DE
330
2B3
100
AcDbEntity
  8
0
  6
Continuous
 62
     7
370
    15
100
AcDbSpline
210
0.0
220
0.0
230
1.0
 70
     8
 71
     3
 72
    24
 73
    20
 74
     0
 42
0.0000000001
 43
0.0000000001
 40
0.0
 40
0.0
 40
0.0
 40
0.0
 40
0.0501745514941279
 40
0.1104047880423913
 40
0.1700488270835642
 40
0.2288346763953107
 40
0.2876213346401067
 40
0.3472659685972651
 40
0.4074965691213837
 40
0.4680243978309021
 40
0.5285520427270705
 40
0.5887820972144291
 40
0.648425838728877
 40
0.7072112839773856
 40
0.7659983467191662
 40
0.8256432780655821
 40
0.8858740605046497
 40
0.9464019503850453
 40
1.0
 40
1.0
 40
1.0
 40
1.0
 10
1974.613789657733
 20
821.0994371845632
 30
0.0
 10
1974.367505754925
 20
821.211348095429
 30
0.0
 10
1973.825579194985
 20
821.4575984360065
 30
0.0
 10
1972.893409366275
 20
821.7831262425137
 30
0.0
 10
1971.854751880748
 20
822.0816205733534
 30
0.0
 10
1970.765011167512
 20
822.3264182816702
 30
0.0
 10
1969.629330130108
 20
822.520495776002
 30
0.0
 10
1968.447633864174
 20
822.6634045064512
 30
0.0
 10
1967.228573060762
 20
822.7522395665747
 30
0.0
 10
1965.989317245554
 20
822.7845279643728
 30
0.0
 10
1964.74804905474
 20
822.7593690644464
 30
0.0
 10
1963.522984614968
 20
822.6775382877866
 30
0.0
 10
1962.331541159501
 20
822.5415174224046
 30
0.0
 10
1961.182270222432
 20
822.3537584446249
 30
0.0
 10
1960.076177936106
 20
822.116197693273
 30
0.0
 10
1959.014575559567
 20
821.8296659696887
 30
0.0
 10
1958.010588745412
 20
821.493644747152
 30
0.0
 10
1957.105313400642
 20
821.1307979300991
 30
0.0
 10
1956.582939066336
 20
820.8624376086067
 30
0.0
 10
1956.337611443084
 20
820.7364050003354
 30
0.0
  0
SPLINE
  5
2DF
330
2B3
100
AcDbEntity
  8
0
  6
Continuous
 62
     7
370
    15
100
AcDbSpline
210
0.0
220
0.0
230
1.0
 70
     8
 71
     3
 72
    24
 73
    20
 74
     0
 42
0.0000000001
 43
0.0000000001
 40
0.0
 40
0.0
 40
0.0
 40
0.0
 40
0.0503219328603886
 40
0.1105514212443589
 40
0.1701937815558166
 40
0.2289771002745526
 40
0.2877676860542852
 40
0.3474154006723617
 40
0.407648164877413
 40
0.4681771947651696
 40
0.5287050604880791
 40
0.5889343664198169
 40
0.6485764288345214
 40
0.7073593461333223
 40
0.7661503360800874
 40
0.825798347724279
 40
0.8860312934571634
 40
0.9465603841155431
 40
1.0
 40
1.0
 40
1.0
 40
1.0
 10
1974.575664654102
 20
822.4270369747681
 30
0.0
 10
1974.328588552051
 20
822.5392396394134
 30
0.0
 10
1973.785791153685
 20
822.7857358159083
 30
0.0
 10
1972.852642960481
 20
823.1114081957974
 30
0.0
 10
1971.813810157685
 20
823.4097247539482
 30
0.0
 10
1970.723917334165
 20
823.6543521622738
 30
0.0
 10
1969.588084503653
 20
823.8482657701837
 30
0.0
 10
1968.406239233291
 20
823.9910025804437
 30
0.0
 10
1967.187083272588
 20
824.0796555125278
 30
0.0
 10
1965.947790886382
 20
824.1117559795933
 30
0.0
 10
1964.706546279001
 20
824.0864090696184
 30
0.0
 10
1963.481564307345
 20
824.0043954408355
 30
0.0
 10
1962.290258069631
 20
823.8682027538237
 30
0.0
 10
1961.141126358583
 20
823.6802758099585
 30
0.0
 10
1960.035177876419
 20
823.4425562073923
 30
0.0
 10
1958.973726465088
 20
823.1558611701569
 30
0.0
 10
1957.969958895846
 20
822.8196823484253
 30
0.0
 10
1957.065717569777
 20
822.4570471942495
 30
0.0
 10
1956.544241838219
 20
822.1889916810747
 30
0.0
 10
1956.299723288937
 20
822.0633011815129
 30
0.0
  0
SPLINE
  5
2E0
330
2B3
100
AcDbEntity
  8
0
  6
Continuous
 62
     7
370
    15
100
AcDbSpline
210
0.0
220
0.0
230
1.0
 70
     8
 71
     3
 72
    24
 73
    20
 74
     0
 42
0.0000000001
 43
0.0000000001
 40
0.0
 40
0.0
 40
0.0
 40
0.0
 40
0.0504002610815413
 40
0.1105466378009257
 40
0.170105760188095
 40
0.2288061890529126
 40
0.2875203006592861
 40
0.3470895230240156
 40
0.4072420790158283
 40
0.4676895342563461
 40
0.528134847890356
 40
0.5882810420162623
 40
0.6478398665445998
 40
0.7065398971782746
 40
0.7652544120693711
 40
0.8248239306912992
 40
0.8849766675760582
 40
0.9454241831043653
 40
1.0
 40
1.0
 40
1.0
 40
1.0
 10
1974.537539475621
 20
823.7546372602306
 30
0.0
 10
1974.289670963336
 20
823.8671313560288
 30
0.0
 10
1973.746002536589
 20
824.1138730156171
 30
0.0
 10
1972.811875893352
 20
824.4396895855757
 30
0.0
 10
1971.772867853194
 20
824.7378283902778
 30
0.0
 10
1970.682822924826
 20
824.9822855240756
 30
0.0
 10
1969.546838306598
 20
825.1760352230263
 30
0.0
 10
1968.364844199238
 20
825.3186000717754
 30
0.0
 10
1967.145593265312
 20
825.4070708491422
 30
0.0
 10
1965.906264512825
 20
825.4389833723971
 30
0.0
 10
1964.665043653971
 20
825.4134484743483
 30
0.0
 10
1963.440144455974
 20
825.3312519700825
 30
0.0
 10
1962.248975014968
 20
825.1948876672917
 30
0.0
 10
1961.099984128421
 20
825.0067920936139
 30
0.0
 10
1959.994173535819
 20
824.7689162320646
 30
0.0
 10
1958.932895839269
 20
824.4820479983523
 30
0.0
 10
1957.929262281935
 20
824.1457491286587
 30
0.0
 10
1957.019258875665
 20
823.7803380584741
 30
0.0
 10
1956.492556883658
 20
823.5093049359615
 30
0.0
 10
1956.242649400814
 20
823.3807062094667
 30
0.0
  0
LINE
  5
2E1
330
2B3
100
AcDbEntity
  8
0
  6
Continuous
 62
     7
370
    15
100
AcDbLine
 10
1976.720426726452
 20
818.5674344288974
 30
0.0
 11
1976.68096582507
 21
818.5371531250353
 31
0.0
  0
SPLINE
  5
2E2
330
2B3
100
AcDbEntity
  8
0
  6
Continuous
 62
     7
370
    15
100
AcDbSpline
210
0.0
220
0.0
230
1.0
 70
     8
 71
     3
 72
    33
 73
    29
 74
     0
 42
0.0000000001
 43
0.0000000001
 40
0.0
 40
0.0
 40
0.0
 40
0.0
 40
0.0386996154227982
 40
0.0779641735758003
 40
0.1176145971132727
 40
0.1574607902014851
 40
0.1973069429497783
 40
0.2369572466535602
 40
0.2762216089511372
 40
0.3149209581305119
 40
0.3536208398919235
 40
0.3928855938701825
 40
0.4325361372093139
 40
0.4723823706044476
 40
0.512228482979824
 40
0.5518786668178847
 40
0.5911428332298695
 40
0.6298419163837411
 40
0.6685420644562261
 40
0.7078070142295728
 40
0.7474576773383311
 40
0.787303951007388
 40
0.8271500229768498
 40
0.866800086917159
 40
0.906064057413385
 40
0.9447628747596747
 40
0.9834632891156919
 40
1.0
 40
1.0
 40
1.0
 40
1.0
 10
1976.68096582507
 20
818.5371531250353
 30
0.0
 10
1976.532741257623
 20
818.7015449630383
 30
0.0
 10
1976.234128318493
 20
819.0327284554966
 30
0.0
 10
1975.657017584901
 20
819.501699561114
 30
0.0
 10
1974.986063578636
 20
819.9464249172148
 30
0.0
 10
1974.219509473939
 20
820.3578692791984
 30
0.0
 10
1973.370556569408
 20
820.7302235563478
 30
0.0
 10
1972.451576896662
 20
821.0581560600921
 30
0.0
 10
1971.477588975066
 20
821.3379859966574
 30
0.0
 10
1970.458020818113
 20
821.5686061066485
 30
0.0
 10
1969.394862505455
 20
821.7514582639354
 30
0.0
 10
1968.288791798961
 20
821.8865573115419
 30
0.0
 10
1967.147703619936
 20
821.9710577881576
 30
0.0
 10
1965.98772431172
 20
822.0026574499936
 30
0.0
 10
1964.825857451498
 20
821.9804852039217
 30
0.0
 10
1963.679161685224
 20
821.9052462314458
 30
0.0
 10
1962.563924960727
 20
821.7792537694394
 30
0.0
 10
1961.488202957417
 20
821.604756257493
 30
0.0
 10
1960.452744731078
 20
821.3837030609672
 30
0.0
 10
1959.45950202169
 20
821.1166531052759
 30
0.0
 10
1958.518013947274
 20
820.8041590089651
 30
0.0
 10
1957.643417541003
 20
820.4499101845696
 30
0.0
 10
1956.848968279149
 20
820.0588362226435
 30
0.0
 10
1956.146333476913
 20
819.6368700337645
 30
0.0
 10
1955.54149284816
 20
819.1910890402496
 30
0.0
 10
1955.04454060706
 20
818.7247091004348
 30
0.0
 10
1954.706089904435
 20
818.3365608700503
 30
0.0
 10
1954.572481594002
 20
818.1010560746846
 30
0.0
 10
1954.532482372614
 20
818.0305514150761
 30
0.0
  0
SPLINE
  5
2E3
330
2B3
100
AcDbEntity
  8
0
  6
Continuous
 62
     7
370
    15
100
AcDbSpline
210
0.0
220
0.0
230
1.0
 70
     8
 71
     3
 72
    36
 73
    32
 74
     0
 42
0.0000000001
 43
0.0000000001
 40
0.0
 40
0.0
 40
0.0
 40
0.0
 40
0.0112406158665317
 40
0.0460880158670136
 40
0.0809392464332892
 40
0.1162987043877792
 40
0.152005089474675
 40
0.1878871938948964
 40
0.223768680766029
 40
0.2594732313627252
 40
0.2948296910380392
 40
0.3296768528541335
 40
0.3645283230620265
 40
0.3998879571413592
 40
0.4355944498798296
 40
0.4714765903590297
 40
0.5073580406363187
 40
0.5430624830622418
 40
0.5784187661237198
 40
0.6132656899516743
 40
0.6481173997763765
 40
0.6834772099533777
 40
0.7191838103145734
 40
0.7550659868230357
 40
0.7909474004767661
 40
0.8266517347030783
 40
0.8620078411235621
 40
0.8968545271596248
 40
0.9317064765763261
 40
0.9670664628238208
 40
1.0
 40
1.0
 40
1.0
 40
1.0
 10
1977.090129608506
 20
819.1873927950261
 30
0.0
 10
1977.063501560766
 20
819.2441308763942
 30
0.0
 10
1976.954323033424
 20
819.476764535031
 30
0.0
 10
1976.654286840215
 20
819.8688217018803
 30
0.0
 10
1976.191673798976
 20
820.3607563791647
 30
0.0
 10
1975.618425960051
 20
820.830628353724
 30
0.0
 10
1974.946006807365
 20
821.2749924925891
 30
0.0
 10
1974.179470766603
 20
821.6863895509211
 30
0.0
 10
1973.330183274365
 20
822.0585868863345
 30
0.0
 10
1972.411020087996
 20
822.3863717566342
 30
0.0
 10
1971.436871426307
 20
822.6660382844883
 30
0.0
 10
1970.417160011843
 20
822.896497898286
 30
0.0
 10
1969.353859845132
 20
823.079197147698
 30
0.0
 10
1968.247649605747
 20
823.2141353475
 30
0.0
 10
1967.106472373498
 20
823.2984654754234
 30
0.0
 10
1965.946458829562
 20
823.3298892598462
 30
0.0
 10
1964.784614044915
 20
823.3075410082207
 30
0.0
 10
1963.63799547347
 20
823.2321307741335
 30
0.0
 10
1962.522887180641
 20
823.105977375712
 30
0.0
 10
1961.447295524807
 20
822.9313223109302
 30
0.0
 10
1960.411971765396
 20
822.7101209280593
 30
0.0
 10
1959.418870868612
 20
822.4429174083946
 30
0.0
 10
1958.47758610185
 20
822.130279028531
 30
0.0
 10
1957.60320221979
 20
821.7759034153711
 30
0.0
 10
1956.80914768579
 20
821.3847075764322
 30
0.0
 10
1956.106413876465
 20
820.962689688992
 30
0.0
 10
1955.503430562435
 20
820.5166996353691
 30
0.0
 10
1955.001222151806
 20
820.0507780397463
 30
0.0
 10
1954.602097947931
 20
819.5667054567238
 30
0.0
 10
1954.303952522486
 20
819.079355496728
 30
0.0
 10
1954.197208518405
 20
818.750686535815
 30
0.0
 10
1954.145732808111
 20
818.5921908117663
 30
0.0
  0
SPLINE
  5
2E4
330
2B3
100
AcDbEntity
  8
0
  6
Continuous
 62
     7
370
    15
100
AcDbSpline
210
0.0
220
0.0
230
1.0
 70
     8
 71
     3
 72
    40
 73
    36
 74
     0
 42
0.0000000001
 43
0.0000000001
 40
0.0
 40
0.0
 40
0.0
 40
0.0
 40
0.0176904763250457
 40
0.048909402652694
 40
0.0796782399441033
 40
0.1104538295797396
 40
0.141677739057816
 40
0.1732075040494415
 40
0.2048919247716221
 40
0.2365752869695413
 40
0.2681019075109154
 40
0.2993206777193731
 40
0.3300893060785157
 40
0.3608651071442174
 40
0.3920891719498664
 40
0.4236190317948313
 40
0.4553034841474356
 40
0.486986813822827
 40
0.5185133386448904
 40
0.5497319527101819
 40
0.5805003723103534
 40
0.6112763847842065
 40
0.6425006048934272
 40
0.6740305595662526
 40
0.7057150435230417
 40
0.7373983406496686
 40
0.7689247697269602
 40
0.8001432276251103
 40
0.8309114386396073
 40
0.8616876624996969
 40
0.8929120378884864
 40
0.9244420873636959
 40
0.9561266028984276
 40
0.9878098674500545
 40
1.0
 40
1.0
 40
1.0
 40
1.0
 10
1977.3176193007
 20
819.8430534998703
 30
0.0
 10
1977.292111735416
 20
819.9465026310582
 30
0.0
 10
1977.221590187081
 20
820.2325116179487
 30
0.0
 10
1976.984099617223
 20
820.6860782595951
 30
0.0
 10
1976.621096122826
 20
821.1984259268779
 30
0.0
 10
1976.150990340034
 20
821.689345995675
 30
0.0
 10
1975.579350309388
 20
822.1594037553765
 30
0.0
 10
1974.906079684364
 20
822.603601136989
 30
0.0
 10
1974.139396074614
 20
823.0148982748815
 30
0.0
 10
1973.289818581193
 20
823.3869527027227
 30
0.0
 10
1972.370460211107
 20
823.7145861503291
 30
0.0
 10
1971.396153976154
 20
823.9940902654351
 30
0.0
 10
1970.376298495205
 20
824.2243891511133
 30
0.0
 10
1969.312856697433
 20
824.4069355399929
 30
0.0
 10
1968.206507022059
 20
824.5417128347096
 30
0.0
 10
1967.065240926907
 20
824.6258725929228
 30
0.0
 10
1965.90519332741
 20
824.6571204895399
 30
0.0
 10
1964.743370800528
 20
824.6345962402596
 30
0.0
 10
1963.596829611543
 20
824.5590147698454
 30
0.0
 10
1962.481849716711
 20
824.4327004532902
 30
0.0
 10
1961.40638858094
 20
824.2578878549711
 30
0.0
 10
1960.37119870251
 20
824.0365383228063
 30
0.0
 10
1959.378242112178
 20
823.7691810610582
 30
0.0
 10
1958.437152030653
 20
823.4563992073473
 30
0.0
 10
1957.563013824644
 20
823.1018939618236
 30
0.0
 10
1956.769231043066
 20
822.7105871147974
 30
0.0
 10
1956.066854019131
 20
822.2884776049228
 30
0.0
 10
1955.464053094752
 20
821.8424255160561
 30
0.0
 10
1954.962740063067
 20
821.3764223485474
 30
0.0
 10
1954.561830115678
 20
820.8923595234974
 30
0.0
 10
1954.264050177756
 20
820.3916086872943
 30
0.0
 10
1954.072592938266
 20
819.8774130121853
 30
0.0
 10
1954.001857258903
 20
819.3578967944873
 30
0.0
 10
1954.015816430527
 20
818.9438977360884
 30
0.0
 10
1954.093160180714
 20
818.7082633079169
 30
0.0
 10
1954.114649981573
 20
818.6427927699028
 30
0.0
  0
SPLINE
  5
2E5
330
2B3
100
AcDbEntity
  8
0
  6
Continuous
 62
     7
370
    15
100
AcDbSpline
210
0.0
220
0.0
230
1.0
 70
     8
 71
     3
 72
    29
 73
    25
 74
     0
 42
0.0000000001
 43
0.0000000001
 40
0.0
 40
0.0
 40
0.0
 40
0.0
 40
0.0117060704449677
 40
0.0607724609553152
 40
0.110078930915893
 40
0.1593831546432336
 40
0.2084428724971715
 40
0.2570229604057996
 40
0.3049020668161783
 40
0.3527962536774372
 40
0.4013874888247509
 40
0.4504540267046135
 40
0.4997605456423231
 40
0.5490647185142951
 40
0.5981242871755049
 40
0.6467041318758208
 40
0.6945829150409598
 40
0.742477430683468
 40
0.7910689072845877
 40
0.8401355924943134
 40
0.8894421603683163
 40
0.926432276325589
 40
0.9633184912100704
 40
1.0
 40
1.0
 40
1.0
 40
1.0
 10
1971.787157342162
 20
815.4717541636705
 30
0.0
 10
1971.86719310626
 20
815.4962376391049
 30
0.0
 10
1972.282701484713
 20
815.6233444305669
 30
0.0
 10
1972.976272625249
 20
815.8974562588836
 30
0.0
 10
1973.852810132579
 20
816.2921456351128
 30
0.0
 10
1974.644235815864
 20
816.7273006067718
 30
0.0
 10
1975.345529084751
 20
817.1915968113873
 30
0.0
 10
1975.946920366203
 20
817.6789644455919
 30
0.0
 10
1976.447007596121
 20
818.1842586199262
 30
0.0
 10
1976.846531443858
 20
818.7076646602942
 30
0.0
 10
1977.143380789079
 20
819.2497251890726
 30
0.0
 10
1977.331931899383
 20
819.806183038427
 30
0.0
 10
1977.407004417247
 20
820.3691794431978
 30
0.0
 10
1977.366667738428
 20
820.9304289105382
 30
0.0
 10
1977.212375590543
 20
821.4816966622324
 30
0.0
 10
1976.948850153393
 20
822.0152847312734
 30
0.0
 10
1976.581416885699
 20
822.5272110932007
 30
0.0
 10
1976.112069712072
 20
823.0181557486297
 30
0.0
 10
1975.539800800128
 20
823.4881287042899
 30
0.0
 10
1974.866249634429
 20
823.9321857353138
 30
0.0
 10
1974.163348870058
 20
824.3092510809457
 30
0.0
 10
1973.462678995822
 20
824.6230836284691
 30
0.0
 10
1972.793324506646
 20
824.8830777163686
 30
0.0
 10
1972.315665806352
 20
825.0348735074268
 30
0.0
 10
1972.077501011544
 20
825.1105602130348
 30
0.0
  0
LWPOLYLINE
  5
2E6
330
2B3
100
AcDbEntity
  8
0
  6
Continuous
 62
     7
370
    15
100
AcDbPolyline
 90
       38
 70
   128
 43
0.0
 10
1974.806362509132
 20
819.697881643577
 10
1974.576212595528
 20
819.8006623065072
 10
1974.097297287825
 20
819.9975789668815
 10
1973.595712469032
 20
820.1820408820706
 10
1973.072832948274
 20
820.3535424547872
 10
1972.530091901971
 20
820.5116136111412
 10
1971.968976945608
 20
820.6558210890804
 10
1971.391026056275
 20
820.7857696259315
 10
1970.797823357189
 20
820.9011030417878
 10
1970.190994775714
 20
821.001505215773
 10
1969.572203586811
 20
821.086700952507
 10
1968.943145854119
 20
821.1564567363975
 10
1968.305545781157
 20
821.2105813716892
 10
1967.661150985406
 20
821.2489265065194
 10
1967.01172770821
 20
821.2713870395385
 10
1966.359055973631
 20
821.2779014079867
 10
1965.704924709526
 20
821.2684517564332
 10
1965.051126844223
 20
821.2430639857156
 10
1964.399454392225
 20
821.2018076819493
 10
1963.751693542426
 20
821.1447959257949
 10
1963.10961976229
 20
821.0721849825132
 10
1962.474992931418
 20
820.9841738736527
 10
1961.849552517842
 20
820.8810038315451
 10
1961.235012810261
 20
820.7629576381048
 10
1960.633058219298
 20
820.6303588497423
 10
1960.045338660644
 20
820.4835709105202
 10
1959.473465032759
 20
820.3229961559763
 10
1958.919004801506
 20
820.1490747103516
 10
1958.38347770384
 20
819.9622832802395
 10
1957.868351582309
 20
819.7631338479663
 10
1957.375038361808
 20
819.5521722682828
 10
1956.904890179584
 20
819.3299767722155
 10
1956.459195679125
 20
819.0971563821744
 10
1956.039176478078
 20
818.8543492426655
 10
1955.645983819876
 20
818.6022208711804
 10
1955.280695418266
 20
818.3414623340608
 10
1954.944312503365
 20
818.0727883523317
 10
1954.686555031449
 20
817.8432024922804
  0
LINE
  5
2E7
330
2B3
100
AcDbEntity
  8
0
  6
Continuous
 62
     7
370
    15
100
AcDbLine
 10
1976.68096582507
 20
818.5371531250353
 30
0.0
 11
1976.681548943005
 21
818.5164865890911
 31
0.0
  0
ARC
  5
2E8
330
2B3
100
AcDbEntity
  8
0
  6
Continuous
 62
     7
370
    15
100
AcDbCircle
 10
1966.359789359482
 20
797.3405122422244
 30
0.0
 40
23.87020305621383
100
AcDbArc
 50
68.75035816108523
 51
115.4074268321105
  0
LINE
  5
2E9
330
2B3
100
AcDbEntity
  8
0
  6
Continuous
 62
     7
370
    15
100
AcDbLine
 10
1980.522042396493
 20
812.0818411104608
 30
0.0
 11
1982.635642018627
 21
818.7585463447907
 31
0.0
  0
ENDBLK
  5
2B5
330
2B3
100
AcDbEntity
  8
0
100
AcDbBlockEnd
  0
ENDSEC
  0
SECTION
  2
ENTITIES
  0
INSERT
  5
29B
330
1F
100
AcDbEntity
  8
0
100
AcDbBlockReference
  2
1
 10
0.0
 20
0.0
 30
0.0
  0
INSERT
  5
2B2
330
1F
100
AcDbEntity
  8
0
100
AcDbBlockReference
  2
2
 10
0.0
 20
0.0
 30
0.0
  0
INSERT
  5
2EA
330
1F
100
AcDbEntity
  8
0
100
AcDbBlockReference
  2
3
 10
0.0
 20
0.0
 30
0.0
  0
ENDSEC
  0
SECTION
  2
OBJECTS
  0
DICTIONARY
  5
C
330
0
100
AcDbDictionary
281
     1
  3
ACAD_COLOR
350
6B
  3
ACAD_GROUP
350
D
  3
ACAD_LAYOUT
350
1A
  3
ACAD_MATERIAL
350
6A
  3
ACAD_MLEADERSTYLE
350
12D
  3
ACAD_MLINESTYLE
350
17
  3
ACAD_PLOTSETTINGS
350
19
  3
ACAD_PLOTSTYLENAME
350
E
  3
ACAD_SCALELIST
350
10C
  3
ACAD_TABLESTYLE
350
7E
  3
ACAD_VISUALSTYLE
350
EF
  3
ACDB_RECOMPOSE_DATA
350
15D
  3
AcDbVariableDictionary
350
5E
  3
DWGPROPS
350
2F8
  0
DICTIONARY
  5
13C
330
10
100
AcDbDictionary
280
     1
281
     1
  3
ADSK_XREC_LAYER_RECONCILED
360
2EB
  0
DICTIONARY
  5
6B
102
{ACAD_REACTORS
330
C
102
}
330
C
100
AcDbDictionary
281
     1
  0
DICTIONARY
  5
D
102
{ACAD_REACTORS
330
C
102
}
330
C
100
AcDbDictionary
281
     1
  0
DICTIONARY
  5
1A
102
{ACAD_REACTORS
330
C
102
}
330
C
100
AcDbDictionary
281
     1
  3
Layout1
350
D3
  3
Layout2
350
D7
  3
Model
350
22
  0
DICTIONARY
  5
6A
102
{ACAD_REACTORS
330
C
102
}
330
C
100
AcDbDictionary
281
     1
  3
ByBlock
350
ED
  3
ByLayer
350
EC
  3
Global
350
EE
  0
DICTIONARY
  5
12D
102
{ACAD_REACTORS
330
C
102
}
330
C
100
AcDbDictionary
281
     1
  3
Annotative
350
13B
  3
Standard
350
12E
  0
DICTIONARY
  5
17
102
{ACAD_REACTORS
330
C
102
}
330
C
100
AcDbDictionary
281
     1
  3
Standard
350
18
  0
DICTIONARY
  5
19
102
{ACAD_REACTORS
330
C
102
}
330
C
100
AcDbDictionary
281
     1
  0
ACDBDICTIONARYWDFLT
  5
E
102
{ACAD_REACTORS
330
C
102
}
330
C
100
AcDbDictionary
281
     1
  3
Normal
350
F
100
AcDbDictionaryWithDefault
340
F
  0
DICTIONARY
  5
10C
102
{ACAD_REACTORS
330
C
102
}
330
C
100
AcDbDictionary
281
     1
  3
A0
350
10D
  3
A1
350
188
  3
A2
350
189
  3
A3
350
18A
  3
A4
350
18B
  3
A5
350
18C
  3
A6
350
18D
  3
A7
350
18E
  3
A8
350
18F
  3
A9
350
190
  3
B0
350
191
  3
B1
350
192
  3
B2
350
193
  3
B3
350
194
  3
B4
350
195
  3
B5
350
196
  3
B6
350
197
  3
B7
350
198
  3
B8
350
199
  3
B9
350
19A
  3
C0
350
19B
  3
C1
350
19C
  3
C2
350
19D
  3
C3
350
19E
  3
C4
350
19F
  3
C5
350
1A0
  3
C6
350
1A1
  3
C7
350
1A2
  3
C8
350
1A3
  3
C9
350
1A4
  3
D0
350
1A5
  3
D1
350
1A6
  3
D2
350
1A7
  0
DICTIONARY
  5
7E
102
{ACAD_REACTORS
330
C
102
}
330
C
100
AcDbDictionary
281
     1
  3
Standard
350
7F
  0
DICTIONARY
  5
EF
102
{ACAD_REACTORS
330
C
102
}
330
C
100
AcDbDictionary
281
     1
  3
2dWireframe
350
F5
  3
3D Hidden
350
F7
  3
3dWireframe
350
F6
  3
Basic
350
F4
  3
Brighten
350
FB
  3
ColorChange
350
FF
  3
Conceptual
350
F8
  3
Dim
350
FA
  3
Facepattern
350
FE
  3
Flat
350
F0
  3
FlatWithEdges
350
F1
  3
Gouraud
350
F2
  3
GouraudWithEdges
350
F3
  3
Linepattern
350
FD
  3
Realistic
350
F9
  3
Thicken
350
FC
  0
XRECORD
  5
15D
102
{ACAD_REACTORS
330
C
102
}
330
C
100
AcDbXrecord
280
     1
 90
        1
330
7F
  0
DICTIONARY
  5
5E
102
{ACAD_REACTORS
330
C
102
}
330
C
100
AcDbDictionary
281
     1
  3
CANNOSCALE
350
146
  3
CMLEADERSTYLE
350
145
  3
CTABLESTYLE
350
84
  3
DIMASSOC
350
5F
  3
HIDETEXT
350
63
  3
INDEXCTL
350
2F4
  3
LIGHTINGUNITS
350
2F2
  3
MSLTSCALE
350
2F1
  3
PSOLHEIGHT
350
2F6
  3
PSOLWIDTH
350
2F5
  3
SORTENTS
350
2F3
  0
XRECORD
  5
2F8
102
{ACAD_REACTORS
330
C
102
}
330
C
100
AcDbXrecord
280
     1
  1
DWGPROPS COOKIE
  2

  3

  4

  6

  7

  8
orhan kara
  9

300
=
301
=
302
=
303
=
304
=
305
=
306
=
307
=
308
=
309
=
 40
0.0007769560185185
 41
2459004.70208919
 42
2459067.627318646
  1

 90
        0
  0
XRECORD
  5
2EB
102
{ACAD_REACTORS
330
13C
102
}
330
13C
100
AcDbXrecord
280
     1
290
     1
  0
LAYOUT
  5
D3
102
{ACAD_XDICTIONARY
360
2FC
102
}
102
{ACAD_REACTORS
330
1A
102
}
330
1A
100
AcDbPlotSettings
  1

  2
C:\Documents and Settings\basas\Application Data\Autodesk\AutoCAD 2005\R16.1\enu\plotters\Default Windows System Printer.pc3
  4

  6

 40
0.0
 41
0.0
 42
0.0
 43
0.0
 44
0.0
 45
0.0
 46
0.0
 47
0.0
 48
0.0
 49
0.0
140
0.0
141
0.0
142
1.0
143
1.0
 70
   688
 72
     0
 73
     0
 74
     5
  7

 75
    16
147
1.0
148
0.0
149
0.0
100
AcDbLayout
  1
Layout1
 70
     1
 71
     1
 10
0.0
 20
0.0
 11
12.0
 21
9.0
 12
0.0
 22
0.0
 32
0.0
 14
0.0
 24
0.0
 34
0.0
 15
0.0
 25
0.0
 35
0.0
146
0.0
 13
0.0
 23
0.0
 33
0.0
 16
1.0
 26
0.0
 36
0.0
 17
0.0
 27
1.0
 37
0.0
 76
     0
330
D2
  0
LAYOUT
  5
D7
102
{ACAD_XDICTIONARY
360
2FE
102
}
102
{ACAD_REACTORS
330
1A
102
}
330
1A
100
AcDbPlotSettings
  1

  2
C:\Documents and Settings\basas\Application Data\Autodesk\AutoCAD 2005\R16.1\enu\plotters\Default Windows System Printer.pc3
  4

  6

 40
0.0
 41
0.0
 42
0.0
 43
0.0
 44
0.0
 45
0.0
 46
0.0
 47
0.0
 48
0.0
 49
0.0
140
0.0
141
0.0
142
1.0
143
1.0
 70
   688
 72
     0
 73
     0
 74
     5
  7

 75
    16
147
1.0
148
0.0
149
0.0
100
AcDbLayout
  1
Layout2
 70
     1
 71
     2
 10
0.0
 20
0.0
 11
12.0
 21
9.0
 12
0.0
 22
0.0
 32
0.0
 14
0.0
 24
0.0
 34
0.0
 15
0.0
 25
0.0
 35
0.0
146
0.0
 13
0.0
 23
0.0
 33
0.0
 16
1.0
 26
0.0
 36
0.0
 17
0.0
 27
1.0
 37
0.0
 76
     0
330
D6
  0
LAYOUT
  5
22
102
{ACAD_XDICTIONARY
360
2F9
102
}
102
{ACAD_REACTORS
330
1A
102
}
330
1A
100
AcDbPlotSettings
  1

  2
none_device
  4
ISO_A4_(210.00_x_297.00_MM)
  6

 40
7.5
 41
20.0
 42
7.5
 43
20.0
 44
210.0
 45
297.0
 46
11.54999923706054
 47
-13.65000009536743
 48
0.0
 49
0.0
140
0.0
141
0.0
142
1.0
143
8.704084754739808
 70
 11952
 72
     1
 73
     0
 74
     0
  7

 75
     0
147
0.1148885871608098
148
0.0
149
0.0
100
AcDbLayout
  1
Model
 70
     1
 71
     0
 10
0.0
 20
0.0
 11
12.0
 21
9.0
 12
0.0
 22
0.0
 32
0.0
 14
0.0
 24
0.0
 34
0.0
 15
0.0
 25
0.0
 35
0.0
146
0.0
 13
0.0
 23
0.0
 33
0.0
 16
1.0
 26
0.0
 36
0.0
 17
0.0
 27
1.0
 37
0.0
 76
     0
330
1F
331
EA
1001
ACAD_PSEXT
1000
None
1000
None
1000
Not applicable
1000
The layout will not be plotted unless a new plotter configuration name is selected.
1070
     0
  0
MATERIAL
  5
ED
102
{ACAD_XDICTIONARY
360
302
102
}
102
{ACAD_REACTORS
330
6A
102
}
330
6A
100
AcDbMaterial
  1
ByBlock
  0
MATERIAL
  5
EC
102
{ACAD_XDICTIONARY
360
300
102
}
102
{ACAD_REACTORS
330
6A
102
}
330
6A
100
AcDbMaterial
  1
ByLayer
  0
MATERIAL
  5
EE
102
{ACAD_XDICTIONARY
360
173
102
}
102
{ACAD_REACTORS
330
6A
102
}
330
6A
100
AcDbMaterial
  1
Global
 43
0.0007999999797903
 43
0.0
 43
0.0
 43
0.0
 43
0.0
 43
0.0007999999797903
 43
0.0
 43
0.0
 43
0.0
 43
0.0
 43
1.0
 43
0.0
 43
0.0
 43
0.0
 43
0.0
 43
1.0
 49
0.0007999999797903
 49
0.0
 49
0.0
 49
0.0
 49
0.0
 49
0.0007999999797903
 49
0.0
 49
0.0
 49
0.0
 49
0.0
 49
1.0
 49
0.0
 49
0.0
 49
0.0
 49
0.0
 49
1.0
142
0.0007999999797903
142
0.0
142
0.0
142
0.0
142
0.0
142
0.0007999999797903
142
0.0
142
0.0
142
0.0
142
0.0
142
1.0
142
0.0
142
0.0
142
0.0
142
0.0
142
1.0
144
0.0007999999797903
144
0.0
144
0.0
144
0.0
144
0.0
144
0.0007999999797903
144
0.0
144
0.0
144
0.0
144
0.0
144
1.0
144
0.0
144
0.0
144
0.0
144
0.0
144
1.0
1001
ACAD
1070
    -1
1070
     3
1070
     0
1000

1071
        0
1070
     0
  0
MLEADERSTYLE
  5
13B
102
{ACAD_REACTORS
330
12D
102
}
330
12D
100
AcDbMLeaderStyle
170
     2
171
     1
172
     0
 90
        2
 40
0.0
 41
0.0
173
     1
 91
-1056964608
340
14
 92
       -2
290
     1
 42
2.0
291
     1
 43
8.0
  3
Standard
 44
4.0
300

342
11
174
     1
178
     1
175
     1
176
     0
 93
-1056964608
 45
4.0
292
     0
297
     0
 46
4.0
 94
-1056964608
 47
1.0
 49
1.0
140
1.0
293
     1
141
0.0
294
     1
177
     0
142
1.0
295
     0
296
     1
143
3.75
1001
ACAD_MLEADERVER
1070
     2
  0
MLEADERSTYLE
  5
12E
102
{ACAD_REACTORS
330
12D
102
}
330
12D
100
AcDbMLeaderStyle
170
     2
171
     1
172
     0
 90
        2
 40
0.0
 41
0.0
173
     1
 91
-1056964608
340
14
 92
       -2
290
     1
 42
2.0
291
     1
 43
8.0
  3
Standard
 44
4.0
300

342
11
174
     1
178
     1
175
     1
176
     0
 93
-1056964608
 45
4.0
292
     0
297
     0
 46
4.0
 94
-1056964608
 47
1.0
 49
1.0
140
1.0
293
     1
141
0.0
294
     1
177
     0
142
1.0
295
     0
296
     0
143
3.75
1001
ACAD_MLEADERVER
1070
     2
  0
MLINESTYLE
  5
18
102
{ACAD_REACTORS
330
17
102
}
330
17
100
AcDbMlineStyle
  2
STANDARD
 70
     0
  3

 62
   256
 51
90.0
 52
90.0
 71
     2
 49
0.5
 62
   256
  6
BYLAYER
 49
-0.5
 62
   256
  6
BYLAYER
  0
ACDBPLACEHOLDER
  5
F
102
{ACAD_REACTORS
330
E
102
}
330
E
  0
SCALE
  5
10D
102
{ACAD_REACTORS
330
10C
102
}
330
10C
100
AcDbScale
 70
     0
300
1:1
140
1.0
141
1.0
290
     1
  0
SCALE
  5
188
102
{ACAD_REACTORS
330
10C
102
}
330
10C
100
AcDbScale
 70
     0
300
1:2
140
1.0
141
2.0
290
     0
  0
SCALE
  5
189
102
{ACAD_REACTORS
330
10C
102
}
330
10C
100
AcDbScale
 70
     0
300
1:4
140
1.0
141
4.0
290
     0
  0
SCALE
  5
18A
102
{ACAD_REACTORS
330
10C
102
}
330
10C
100
AcDbScale
 70
     0
300
1:5
140
1.0
141
5.0
290
     0
  0
SCALE
  5
18B
102
{ACAD_REACTORS
330
10C
102
}
330
10C
100
AcDbScale
 70
     0
300
1:8
140
1.0
141
8.0
290
     0
  0
SCALE
  5
18C
102
{ACAD_REACTORS
330
10C
102
}
330
10C
100
AcDbScale
 70
     0
300
1:10
140
1.0
141
10.0
290
     0
  0
SCALE
  5
18D
102
{ACAD_REACTORS
330
10C
102
}
330
10C
100
AcDbScale
 70
     0
300
1:16
140
1.0
141
16.0
290
     0
  0
SCALE
  5
18E
102
{ACAD_REACTORS
330
10C
102
}
330
10C
100
AcDbScale
 70
     0
300
1:20
140
1.0
141
20.0
290
     0
  0
SCALE
  5
18F
102
{ACAD_REACTORS
330
10C
102
}
330
10C
100
AcDbScale
 70
     0
300
1:30
140
1.0
141
30.0
290
     0
  0
SCALE
  5
190
102
{ACAD_REACTORS
330
10C
102
}
330
10C
100
AcDbScale
 70
     0
300
1:40
140
1.0
141
40.0
290
     0
  0
SCALE
  5
191
102
{ACAD_REACTORS
330
10C
102
}
330
10C
100
AcDbScale
 70
     0
300
1:50
140
1.0
141
50.0
290
     0
  0
SCALE
  5
192
102
{ACAD_REACTORS
330
10C
102
}
330
10C
100
AcDbScale
 70
     0
300
1:100
140
1.0
141
100.0
290
     0
  0
SCALE
  5
193
102
{ACAD_REACTORS
330
10C
102
}
330
10C
100
AcDbScale
 70
     0
300
2:1
140
2.0
141
1.0
290
     0
  0
SCALE
  5
194
102
{ACAD_REACTORS
330
10C
102
}
330
10C
100
AcDbScale
 70
     0
300
4:1
140
4.0
141
1.0
290
     0
  0
SCALE
  5
195
102
{ACAD_REACTORS
330
10C
102
}
330
10C
100
AcDbScale
 70
     0
300
8:1
140
8.0
141
1.0
290
     0
  0
SCALE
  5
196
102
{ACAD_REACTORS
330
10C
102
}
330
10C
100
AcDbScale
 70
     0
300
10:1
140
10.0
141
1.0
290
     0
  0
SCALE
  5
197
102
{ACAD_REACTORS
330
10C
102
}
330
10C
100
AcDbScale
 70
     0
300
100:1
140
100.0
141
1.0
290
     0
  0
SCALE
  5
198
102
{ACAD_REACTORS
330
10C
102
}
330
10C
100
AcDbScale
 70
     0
300
1/128" = 1'-0"
140
0.0078125
141
12.0
290
     0
  0
SCALE
  5
199
102
{ACAD_REACTORS
330
10C
102
}
330
10C
100
AcDbScale
 70
     0
300
1/64" = 1'-0"
140
0.015625
141
12.0
290
     0
  0
SCALE
  5
19A
102
{ACAD_REACTORS
330
10C
102
}
330
10C
100
AcDbScale
 70
     0
300
1/32" = 1'-0"
140
0.03125
141
12.0
290
     0
  0
SCALE
  5
19B
102
{ACAD_REACTORS
330
10C
102
}
330
10C
100
AcDbScale
 70
     0
300
1/16" = 1'-0"
140
0.0625
141
12.0
290
     0
  0
SCALE
  5
19C
102
{ACAD_REACTORS
330
10C
102
}
330
10C
100
AcDbScale
 70
     0
300
3/32" = 1'-0"
140
0.09375
141
12.0
290
     0
  0
SCALE
  5
19D
102
{ACAD_REACTORS
330
10C
102
}
330
10C
100
AcDbScale
 70
     0
300
1/8" = 1'-0"
140
0.125
141
12.0
290
     0
  0
SCALE
  5
19E
102
{ACAD_REACTORS
330
10C
102
}
330
10C
100
AcDbScale
 70
     0
300
3/16" = 1'-0"
140
0.1875
141
12.0
290
     0
  0
SCALE
  5
19F
102
{ACAD_REACTORS
330
10C
102
}
330
10C
100
AcDbScale
 70
     0
300
1/4" = 1'-0"
140
0.25
141
12.0
290
     0
  0
SCALE
  5
1A0
102
{ACAD_REACTORS
330
10C
102
}
330
10C
100
AcDbScale
 70
     0
300
3/8" = 1'-0"
140
0.375
141
12.0
290
     0
  0
SCALE
  5
1A1
102
{ACAD_REACTORS
330
10C
102
}
330
10C
100
AcDbScale
 70
     0
300
1/2" = 1'-0"
140
0.5
141
12.0
290
     0
  0
SCALE
  5
1A2
102
{ACAD_REACTORS
330
10C
102
}
330
10C
100
AcDbScale
 70
     0
300
3/4" = 1'-0"
140
0.75
141
12.0
290
     0
  0
SCALE
  5
1A3
102
{ACAD_REACTORS
330
10C
102
}
330
10C
100
AcDbScale
 70
     0
300
1" = 1'-0"
140
1.0
141
12.0
290
     0
  0
SCALE
  5
1A4
102
{ACAD_REACTORS
330
10C
102
}
330
10C
100
AcDbScale
 70
     0
300
1-1/2" = 1'-0"
140
1.5
141
12.0
290
     0
  0
SCALE
  5
1A5
102
{ACAD_REACTORS
330
10C
102
}
330
10C
100
AcDbScale
 70
     0
300
3" = 1'-0"
140
3.0
141
12.0
290
     0
  0
SCALE
  5
1A6
102
{ACAD_REACTORS
330
10C
102
}
330
10C
100
AcDbScale
 70
     0
300
6" = 1'-0"
140
6.0
141
12.0
290
     0
  0
SCALE
  5
1A7
102
{ACAD_REACTORS
330
10C
102
}
330
10C
100
AcDbScale
 70
     0
300
1'-0" = 1'-0"
140
12.0
141
12.0
290
     0
  0
TABLESTYLE
  5
7F
102
{ACAD_XDICTIONARY
360
162
102
}
102
{ACAD_REACTORS
330
7E
102
}
330
7E
100
AcDbTableStyle
  3
Standard
 70
     0
 71
     0
 40
1.5
 41
1.5
280
     0
281
     0
  7
Standard
140
4.5
170
     2
 62
     0
 63
     7
283
     0
274
    -2
284
     1
 64
     0
275
    -2
285
     1
 65
     0
276
    -2
286
     1
 66
     0
277
    -2
287
     1
 67
     0
278
    -2
288
     1
 68
     0
279
    -2
289
     1
 69
     0
  7
Standard
140
6.0
170
     5
 62
     0
 63
     7
283
     0
274
    -2
284
     1
 64
     0
275
    -2
285
     1
 65
     0
276
    -2
286
     1
 66
     0
277
    -2
287
     1
 67
     0
278
    -2
288
     1
 68
     0
279
    -2
289
     1
 69
     0
  7
Standard
140
4.5
170
     5
 62
     0
 63
     7
283
     0
274
    -2
284
     1
 64
     0
275
    -2
285
     1
 65
     0
276
    -2
286
     1
 66
     0
277
    -2
287
     1
 67
     0
278
    -2
288
     1
 68
     0
279
    -2
289
     1
 69
     0
  0
VISUALSTYLE
  5
F5
102
{ACAD_REACTORS
330
EF
102
}
330
EF
100
AcDbVisualStyle
  2
2dWireframe
 70
     4
 71
     0
 72
     2
 73
     1
 90
        0
 40
-0.6
 41
-30.0
 62
     5
 63
     7
 74
     1
 91
        4
 64
     7
 65
   257
 75
     1
175
     1
 42
1.0
 92
        0
 66
   257
 43
1.0
 76
     1
 77
     6
 78
     2
 67
     7
 79
     5
170
     0
171
     0
290
     0
174
     0
 93
        1
 44
0.0
173
     0
291
     0
 45
0.0
1001
ACAD
1000
AcDbSavedByObjectVersion
1070
     0
  0
VISUALSTYLE
  5
F7
102
{ACAD_REACTORS
330
EF
102
}
330
EF
100
AcDbVisualStyle
  2
3D Hidden
 70
     6
 71
     1
 72
     2
 73
     2
 90
        0
 40
-0.6
 41
-30.0
 62
     5
 63
     7
 74
     2
 91
        2
 64
     7
 65
   257
 75
     2
175
     1
 42
40.0
 92
        0
 66
   257
 43
1.0
 76
     1
 77
     6
 78
     2
 67
     7
 79
     3
170
     0
171
     0
290
     0
174
     0
 93
        1
 44
0.0
173
     0
291
     0
 45
0.0
1001
ACAD
1000
AcDbSavedByObjectVersion
1070
     0
  0
VISUALSTYLE
  5
F6
102
{ACAD_REACTORS
330
EF
102
}
330
EF
100
AcDbVisualStyle
  2
3dWireframe
 70
     5
 71
     0
 72
     2
 73
     1
 90
        0
 40
-0.6
 41
-30.0
 62
     5
 63
     7
 74
     1
 91
        4
 64
     7
 65
   257
 75
     1
175
     1
 42
1.0
 92
        0
 66
   257
 43
1.0
 76
     1
 77
     6
 78
     2
 67
     7
 79
     5
170
     0
171
     0
290
     0
174
     0
 93
        1
 44
0.0
173
     0
291
     0
 45
0.0
1001
ACAD
1000
AcDbSavedByObjectVersion
1070
     0
  0
VISUALSTYLE
  5
F4
102
{ACAD_REACTORS
330
EF
102
}
330
EF
100
AcDbVisualStyle
  2
Basic
 70
     7
 71
     1
 72
     0
 73
     1
 90
        0
 40
-0.6
 41
-30.0
 62
     5
 63
     7
 74
     0
 91
        4
 64
     7
 65
   257
 75
     1
175
     1
 42
1.0
 92
        8
 66
     7
 43
1.0
 76
     1
 77
     6
 78
     2
 67
     7
 79
     5
170
     0
171
     0
290
     0
174
     0
 93
        1
 44
0.0
173
     0
291
     1
 45
0.0
1001
ACAD
1000
AcDbSavedByObjectVersion
1070
     0
  0
VISUALSTYLE
  5
FB
102
{ACAD_REACTORS
330
EF
102
}
330
EF
100
AcDbVisualStyle
  2
Brighten
 70
    12
 71
     2
 72
     2
 73
     1
 90
        0
 40
-0.6
 41
-30.0
 62
     5
 63
     7
 74
     1
 91
        4
 64
     7
 65
   257
 75
     1
175
     1
 42
1.0
 92
        8
 66
     7
 43
1.0
 76
     1
 77
     6
 78
     2
 67
     7
 79
     5
170
     0
171
     0
290
     0
174
     0
 93
        1
 44
50.0
173
     0
291
     1
 45
0.0
1001
ACAD
1000
AcDbSavedByObjectVersion
1070
     0
  0
VISUALSTYLE
  5
FF
102
{ACAD_REACTORS
330
EF
102
}
330
EF
100
AcDbVisualStyle
  2
ColorChange
 70
    16
 71
     2
 72
     2
 73
     3
 90
        0
 40
-0.6
 41
-30.0
 62
     5
 63
     8
 74
     1
 91
        4
 64
     7
 65
   257
 75
     1
175
     1
 42
1.0
 92
        8
 66
     8
 43
1.0
 76
     1
 77
     6
 78
     2
 67
     7
 79
     5
170
     0
171
     0
290
     0
174
     0
 93
        1
 44
0.0
173
     0
291
     1
 45
0.0
1001
ACAD
1000
AcDbSavedByObjectVersion
1070
     0
  0
VISUALSTYLE
  5
F8
102
{ACAD_REACTORS
330
EF
102
}
330
EF
100
AcDbVisualStyle
  2
Conceptual
 70
     9
 71
     3
 72
     2
 73
     1
 90
        0
 40
-0.6
 41
-30.0
 62
     5
 63
     7
 74
     2
 91
        2
 64
     7
 65
   257
 75
     1
175
     1
 42
40.0
 92
        8
 66
     7
 43
1.0
 76
     1
 77
     6
 78
     2
 67
     7
 79
     3
170
     0
171
     0
290
     0
174
     0
 93
        1
 44
0.0
173
     0
291
     0
 45
0.0
1001
ACAD
1000
AcDbSavedByObjectVersion
1070
     0
  0
VISUALSTYLE
  5
FA
102
{ACAD_REACTORS
330
EF
102
}
330
EF
100
AcDbVisualStyle
  2
Dim
 70
    11
 71
     2
 72
     2
 73
     1
 90
        0
 40
-0.6
 41
-30.0
 62
     5
 63
     7
 74
     1
 91
        4
 64
     7
 65
   257
 75
     1
175
     1
 42
1.0
 92
        8
 66
     7
 43
1.0
 76
     1
 77
     6
 78
     2
 67
     7
 79
     5
170
     0
171
     0
290
     0
174
     0
 93
        1
 44
-50.0
173
     0
291
     1
 45
0.0
1001
ACAD
1000
AcDbSavedByObjectVersion
1070
     0
  0
VISUALSTYLE
  5
FE
102
{ACAD_REACTORS
330
EF
102
}
330
EF
100
AcDbVisualStyle
  2
Facepattern
 70
    15
 71
     2
 72
     2
 73
     1
 90
        0
 40
-0.6
 41
-30.0
 62
     5
 63
     7
 74
     1
 91
        4
 64
     7
 65
   257
 75
     1
175
     1
 42
1.0
 92
        8
 66
     7
 43
1.0
 76
     1
 77
     6
 78
     2
 67
     7
 79
     5
170
     0
171
     0
290
     0
174
     0
 93
        1
 44
0.0
173
     0
291
     1
 45
0.0
1001
ACAD
1000
AcDbSavedByObjectVersion
1070
     0
  0
VISUALSTYLE
  5
F0
102
{ACAD_REACTORS
330
EF
102
}
330
EF
100
AcDbVisualStyle
  2
Flat
 70
     0
 71
     2
 72
     1
 73
     1
 90
        2
 40
-0.6
 41
30.0
 62
     5
 63
     7
 74
     0
 91
        4
 64
     7
 65
   257
 75
     1
175
     1
 42
1.0
 92
        8
 66
     7
 43
1.0
 76
     1
 77
     6
 78
     2
 67
     7
 79
     5
170
     0
171
     0
290
     0
174
     0
 93
        1
 44
0.0
173
     0
291
     1
 45
0.0
1001
ACAD
1000
AcDbSavedByObjectVersion
1070
     0
  0
VISUALSTYLE
  5
F1
102
{ACAD_REACTORS
330
EF
102
}
330
EF
100
AcDbVisualStyle
  2
FlatWithEdges
 70
     1
 71
     2
 72
     1
 73
     1
 90
        2
 40
-0.6
 41
30.0
 62
     5
 63
     7
 74
     1
 91
        4
 64
     7
 65
   257
 75
     1
175
     1
 42
1.0
 92
        0
 66
   257
 43
1.0
 76
     1
 77
     6
 78
     2
 67
     7
 79
     5
170
     0
171
     0
290
     0
174
     0
 93
        1
 44
0.0
173
     0
291
     1
 45
0.0
1001
ACAD
1000
AcDbSavedByObjectVersion
1070
     0
  0
VISUALSTYLE
  5
F2
102
{ACAD_REACTORS
330
EF
102
}
330
EF
100
AcDbVisualStyle
  2
Gouraud
 70
     2
 71
     2
 72
     2
 73
     1
 90
        2
 40
-0.6
 41
30.0
 62
     5
 63
     7
 74
     0
 91
        4
 64
     7
 65
   257
 75
     1
175
     1
 42
1.0
 92
        0
 66
     7
 43
1.0
 76
     1
 77
     6
 78
     2
 67
     7
 79
     5
170
     0
171
     0
290
     0
174
     0
 93
        1
 44
0.0
173
     0
291
     1
 45
0.0
1001
ACAD
1000
AcDbSavedByObjectVersion
1070
     0
  0
VISUALSTYLE
  5
F3
102
{ACAD_REACTORS
330
EF
102
}
330
EF
100
AcDbVisualStyle
  2
GouraudWithEdges
 70
     3
 71
     2
 72
     2
 73
     1
 90
        2
 40
-0.6
 41
30.0
 62
     5
 63
     7
 74
     1
 91
        4
 64
     7
 65
   257
 75
     1
175
     1
 42
1.0
 92
        0
 66
   257
 43
1.0
 76
     1
 77
     6
 78
     2
 67
     7
 79
     5
170
     0
171
     0
290
     0
174
     0
 93
        1
 44
0.0
173
     0
291
     1
 45
0.0
1001
ACAD
1000
AcDbSavedByObjectVersion
1070
     0
  0
VISUALSTYLE
  5
FD
102
{ACAD_REACTORS
330
EF
102
}
330
EF
100
AcDbVisualStyle
  2
Linepattern
 70
    14
 71
     2
 72
     2
 73
     1
 90
        0
 40
-0.6
 41
-30.0
 62
     5
 63
     7
 74
     1
 91
        4
 64
     7
 65
   257
 75
     7
175
     7
 42
1.0
 92
        8
 66
     7
 43
1.0
 76
     1
 77
     6
 78
     2
 67
     7
 79
     5
170
     0
171
     0
290
     0
174
     0
 93
        1
 44
0.0
173
     0
291
     1
 45
0.0
1001
ACAD
1000
AcDbSavedByObjectVersion
1070
     0
  0
VISUALSTYLE
  5
F9
102
{ACAD_REACTORS
330
EF
102
}
330
EF
100
AcDbVisualStyle
  2
Realistic
 70
     8
 71
     2
 72
     2
 73
     1
 90
        0
 40
-0.6
 41
-30.0
 62
     5
 63
     7
 74
     1
 91
        0
 64
     7
 65
   257
 75
     1
175
     1
 42
1.0
 92
        8
 66
     8
 43
1.0
 76
     1
 77
     6
 78
     2
 67
     7
 79
     5
170
     0
171
     0
290
     0
174
     0
 93
       13
 44
0.0
173
     0
291
     0
 45
0.0
1001
ACAD
1000
AcDbSavedByObjectVersion
1070
     0
  0
VISUALSTYLE
  5
FC
102
{ACAD_REACTORS
330
EF
102
}
330
EF
100
AcDbVisualStyle
  2
Thicken
 70
    13
 71
     2
 72
     2
 73
     1
 90
        0
 40
-0.6
 41
-30.0
 62
     5
 63
     7
 74
     1
 91
        4
 64
     7
 65
   257
 75
     1
175
     1
 42
1.0
 92
       12
 66
     7
 43
1.0
 76
     1
 77
     6
 78
     2
 67
     7
 79
     5
170
     0
171
     0
290
     0
174
     0
 93
        1
 44
0.0
173
     0
291
     1
 45
0.0
1001
ACAD
1000
AcDbSavedByObjectVersion
1070
     0
  0
DICTIONARYVAR
  5
146
102
{ACAD_REACTORS
330
5E
102
}
330
5E
100
DictionaryVariables
280
     0
  1
1:1
  0
DICTIONARYVAR
  5
145
102
{ACAD_REACTORS
330
5E
102
}
330
5E
100
DictionaryVariables
280
     0
  1
STANDARD
  0
DICTIONARYVAR
  5
84
102
{ACAD_REACTORS
330
5E
102
}
330
5E
100
DictionaryVariables
280
     0
  1
STANDARD
  0
DICTIONARYVAR
  5
5F
102
{ACAD_REACTORS
330
5E
102
}
330
5E
100
DictionaryVariables
280
     0
  1
2
  0
DICTIONARYVAR
  5
63
102
{ACAD_REACTORS
330
5E
102
}
330
5E
100
DictionaryVariables
280
     0
  1
1
  0
DICTIONARYVAR
  5
2F4
102
{ACAD_REACTORS
330
5E
102
}
330
5E
100
DictionaryVariables
280
     0
  1
0
  0
DICTIONARYVAR
  5
2F2
102
{ACAD_REACTORS
330
5E
102
}
330
5E
100
DictionaryVariables
280
     0
  1
2
  0
DICTIONARYVAR
  5
2F1
102
{ACAD_REACTORS
330
5E
102
}
330
5E
100
DictionaryVariables
280
     0
  1
1
  0
DICTIONARYVAR
  5
2F6
102
{ACAD_REACTORS
330
5E
102
}
330
5E
100
DictionaryVariables
280
     0
  1
80.000000
  0
DICTIONARYVAR
  5
2F5
102
{ACAD_REACTORS
330
5E
102
}
330
5E
100
DictionaryVariables
280
     0
  1
5.000000
  0
DICTIONARYVAR
  5
2F3
102
{ACAD_REACTORS
330
5E
102
}
330
5E
100
DictionaryVariables
280
     0
  1
127
  0
DICTIONARY
  5
2FC
330
D3
100
AcDbDictionary
280
     1
281
     1
  3
ACAD_XREC_ROUNDTRIP
360
2FD
  0
DICTIONARY
  5
2FE
330
D7
100
AcDbDictionary
280
     1
281
     1
  3
ACAD_XREC_ROUNDTRIP
360
2FF
  0
DICTIONARY
  5
2F9
330
22
100
AcDbDictionary
280
     1
281
     1
  3
ACAD_XREC_ROUNDTRIP
360
2FA
  0
DICTIONARY
  5
302
330
ED
100
AcDbDictionary
280
     1
281
     1
  3
ACAD_XREC_ROUNDTRIP
360
303
  0
DICTIONARY
  5
300
330
EC
100
AcDbDictionary
280
     1
281
     1
  3
ACAD_XREC_ROUNDTRIP
360
301
  0
DICTIONARY
  5
173
330
EE
100
AcDbDictionary
280
     1
281
     1
  3
ACAD_XREC_ROUNDTRIP
360
304
  3
BUMPTILE
360
175
  3
DIFFUSETILE
360
174
  3
OPACITYTILE
360
176
  3
REFLECTIONTILE
360
177
  0
DICTIONARY
  5
162
330
7F
100
AcDbDictionary
280
     1
281
     1
  3
ACAD_ROUNDTRIP_2008_TABLESTYLE_CELLSTYLEMAP
360
2F7
  3
ACAD_XREC_ROUNDTRIP
360
2FB
  0
XRECORD
  5
2FD
102
{ACAD_REACTORS
330
2FC
102
}
330
2FC
100
AcDbXrecord
280
     1
102
SHADEPLOT
 70
     0
102
SHADEPLOTRESLEVEL
 70
     2
102
SHADEPLOTCUSTOMDPI
 70
   300
  0
XRECORD
  5
2FF
102
{ACAD_REACTORS
330
2FE
102
}
330
2FE
100
AcDbXrecord
280
     1
102
SHADEPLOT
 70
     0
102
SHADEPLOTRESLEVEL
 70
     2
102
SHADEPLOTCUSTOMDPI
 70
   300
  0
XRECORD
  5
2FA
102
{ACAD_REACTORS
330
2F9
102
}
330
2F9
100
AcDbXrecord
280
     1
102
SHADEPLOT
 70
     0
102
SHADEPLOTRESLEVEL
 70
     2
102
SHADEPLOTCUSTOMDPI
 70
   300
  0
XRECORD
  5
303
102
{ACAD_REACTORS
330
302
102
}
330
302
100
AcDbXrecord
280
     1
102
MATERIAL
148
0.0
149
0.0
149
0.0
 93
        0
 94
       63
282
     0
 72
     1
 77
     1
171
     1
175
     1
179
     1
273
     0
  0
XRECORD
  5
301
102
{ACAD_REACTORS
330
300
102
}
330
300
100
AcDbXrecord
280
     1
102
MATERIAL
148
0.0
149
0.0
149
0.0
 93
        0
 94
       63
282
     0
 72
     1
 77
     1
171
     1
175
     1
179
     1
273
     0
  0
XRECORD
  5
304
102
{ACAD_REACTORS
330
173
102
}
330
173
100
AcDbXrecord
280
     1
102
MATERIAL
148
0.0
149
0.0
149
0.0
 93
        0
 94
       63
282
     0
 72
     1
 77
     1
171
     1
175
     1
179
     1
273
     0
  0
XRECORD
  5
175
102
{ACAD_REACTORS
330
173
102
}
330
173
100
AcDbXrecord
280
     1
270
     1
271
     1
  0
XRECORD
  5
174
102
{ACAD_REACTORS
330
173
102
}
330
173
100
AcDbXrecord
280
     1
270
     1
271
     1
  0
XRECORD
  5
176
102
{ACAD_REACTORS
330
173
102
}
330
173
100
AcDbXrecord
280
     1
270
     1
271
     1
  0
XRECORD
  5
177
102
{ACAD_REACTORS
330
173
102
}
330
173
100
AcDbXrecord
280
     1
270
     1
271
     1
  0
CELLSTYLEMAP
  5
2F7
102
{ACAD_REACTORS
330
162
102
}
330
162
100
AcDbCellStyleMap
 90
        3
300
CELLSTYLE
  1
TABLEFORMAT_BEGIN
 90
        5
170
     1
 91
        0
 92
    32768
 62
   257
 93
        1
300
CONTENTFORMAT
  1
CONTENTFORMAT_BEGIN
 90
        0
 91
        0
 92
      512
 93
        0
300

 40
0.0
140
1.0
 94
        5
 62
     0
340
11
144
6.0
309
CONTENTFORMAT_END
171
     1
301
MARGIN
  1
CELLMARGIN_BEGIN
 40
1.5
 40
1.5
 40
1.5
 40
1.5
 40
4.5
 40
4.5
309
CELLMARGIN_END
 94
        6
 95
        1
302
GRIDFORMAT
  1
GRIDFORMAT_BEGIN
 90
        0
 91
        1
 62
     0
 92
       -2
340
14
 93
        0
 40
1.125
309
GRIDFORMAT_END
 95
        2
302
GRIDFORMAT
  1
GRIDFORMAT_BEGIN
 90
        0
 91
        1
 62
     0
 92
       -2
340
14
 93
        0
 40
1.125
309
GRIDFORMAT_END
 95
        4
302
GRIDFORMAT
  1
GRIDFORMAT_BEGIN
 90
        0
 91
        1
 62
     0
 92
       -2
340
14
 93
        0
 40
1.125
309
GRIDFORMAT_END
 95
        8
302
GRIDFORMAT
  1
GRIDFORMAT_BEGIN
 90
        0
 91
        1
 62
     0
 92
       -2
340
14
 93
        0
 40
1.125
309
GRIDFORMAT_END
 95
       16
302
GRIDFORMAT
  1
GRIDFORMAT_BEGIN
 90
        0
 91
        1
 62
     0
 92
       -2
340
14
 93
        0
 40
1.125
309
GRIDFORMAT_END
 95
       32
302
GRIDFORMAT
  1
GRIDFORMAT_BEGIN
 90
        0
 91
        1
 62
     0
 92
       -2
340
14
 93
        0
 40
1.125
309
GRIDFORMAT_END
309
TABLEFORMAT_END
  1
CELLSTYLE_BEGIN
 90
        1
 91
        1
300
_TITLE
309
CELLSTYLE_END
300
CELLSTYLE
  1
TABLEFORMAT_BEGIN
 90
        5
170
     1
 91
        0
 92
        0
 62
   257
 93
        1
300
CONTENTFORMAT
  1
CONTENTFORMAT_BEGIN
 90
        0
 91
        0
 92
      512
 93
        0
300

 40
0.0
140
1.0
 94
        5
 62
     0
340
11
144
4.5
309
CONTENTFORMAT_END
171
     1
301
MARGIN
  1
CELLMARGIN_BEGIN
 40
1.5
 40
1.5
 40
1.5
 40
1.5
 40
4.5
 40
4.5
309
CELLMARGIN_END
 94
        6
 95
        1
302
GRIDFORMAT
  1
GRIDFORMAT_BEGIN
 90
        0
 91
        1
 62
     0
 92
       -2
340
14
 93
        0
 40
1.125
309
GRIDFORMAT_END
 95
        2
302
GRIDFORMAT
  1
GRIDFORMAT_BEGIN
 90
        0
 91
        1
 62
     0
 92
       -2
340
14
 93
        0
 40
1.125
309
GRIDFORMAT_END
 95
        4
302
GRIDFORMAT
  1
GRIDFORMAT_BEGIN
 90
        0
 91
        1
 62
     0
 92
       -2
340
14
 93
        0
 40
1.125
309
GRIDFORMAT_END
 95
        8
302
GRIDFORMAT
  1
GRIDFORMAT_BEGIN
 90
        0
 91
        1
 62
     0
 92
       -2
340
14
 93
        0
 40
1.125
309
GRIDFORMAT_END
 95
       16
302
GRIDFORMAT
  1
GRIDFORMAT_BEGIN
 90
        0
 91
        1
 62
     0
 92
       -2
340
14
 93
        0
 40
1.125
309
GRIDFORMAT_END
 95
       32
302
GRIDFORMAT
  1
GRIDFORMAT_BEGIN
 90
        0
 91
        1
 62
     0
 92
       -2
340
14
 93
        0
 40
1.125
309
GRIDFORMAT_END
309
TABLEFORMAT_END
  1
CELLSTYLE_BEGIN
 90
        2
 91
        1
300
_HEADER
309
CELLSTYLE_END
300
CELLSTYLE
  1
TABLEFORMAT_BEGIN
 90
        5
170
     1
 91
        0
 92
        0
 62
   257
 93
        1
300
CONTENTFORMAT
  1
CONTENTFORMAT_BEGIN
 90
        0
 91
        0
 92
      512
 93
        0
300

 40
0.0
140
1.0
 94
        2
 62
     0
340
11
144
4.5
309
CONTENTFORMAT_END
171
     1
301
MARGIN
  1
CELLMARGIN_BEGIN
 40
1.5
 40
1.5
 40
1.5
 40
1.5
 40
4.5
 40
4.5
309
CELLMARGIN_END
 94
        6
 95
        1
302
GRIDFORMAT
  1
GRIDFORMAT_BEGIN
 90
        0
 91
        1
 62
     0
 92
       -2
340
14
 93
        0
 40
1.125
309
GRIDFORMAT_END
 95
        2
302
GRIDFORMAT
  1
GRIDFORMAT_BEGIN
 90
        0
 91
        1
 62
     0
 92
       -2
340
14
 93
        0
 40
1.125
309
GRIDFORMAT_END
 95
        4
302
GRIDFORMAT
  1
GRIDFORMAT_BEGIN
 90
        0
 91
        1
 62
     0
 92
       -2
340
14
 93
        0
 40
1.125
309
GRIDFORMAT_END
 95
        8
302
GRIDFORMAT
  1
GRIDFORMAT_BEGIN
 90
        0
 91
        1
 62
     0
 92
       -2
340
14
 93
        0
 40
1.125
309
GRIDFORMAT_END
 95
       16
302
GRIDFORMAT
  1
GRIDFORMAT_BEGIN
 90
        0
 91
        1
 62
     0
 92
       -2
340
14
 93
        0
 40
1.125
309
GRIDFORMAT_END
 95
       32
302
GRIDFORMAT
  1
GRIDFORMAT_BEGIN
 90
        0
 91
        1
 62
     0
 92
       -2
340
14
 93
        0
 40
1.125
309
GRIDFORMAT_END
309
TABLEFORMAT_END
  1
CELLSTYLE_BEGIN
 90
        3
 91
        2
300
_DATA
309
CELLSTYLE_END
  0
XRECORD
  5
2FB
102
{ACAD_REACTORS
330
162
102
}
330
162
100
AcDbXrecord
280
     1
102
ACAD_ROUNDTRIP_PRE2007_TABLESTYLE
 90
      512
 91
        0
  1

 92
      512
 93
        0
  2

 94
      512
 95
        0
  3

  0
ENDSEC
  0
EOF
