  0
SECTION
  2
HEADER
  9
$ACADVER
  1
AC1015
  9
$ACADMAINTVER
 70
    20
  9
$DWGCODEPAGE
  3
ANSI_1254
  9
$INSBASE
 10
0.0
 20
0.0
 30
0.0
  9
$EXTMIN
 10
1911.348137927369
 20
933.5179424690746
 30
0.0
  9
$EXTMAX
 10
1996.699098080278
 20
988.0496899773801
 30
0.0
  9
$LIMMIN
 10
0.0
 20
0.0
  9
$LIMMAX
 10
420.0
 20
297.0
  9
$ORTHOMODE
 70
     0
  9
$REGENMODE
 70
     1
  9
$FILLMODE
 70
     1
  9
$QTEXTMODE
 70
     0
  9
$MIRRTEXT
 70
     0
  9
$LTSCALE
 40
1.0
  9
$ATTMODE
 70
     1
  9
$TEXTSIZE
 40
2.5
  9
$TRACEWID
 40
1.0
  9
$TEXTSTYLE
  7
Standard
  9
$CLAYER
  8
0
  9
$CELTYPE
  6
ByLayer
  9
$CECOLOR
 62
   256
  9
$CELTSCALE
 40
1.0
  9
$DISPSILH
 70
     0
  9
$DIMSCALE
 40
1.0
  9
$DIMASZ
 40
2.5
  9
$DIMEXO
 40
0.625
  9
$DIMDLI
 40
3.75
  9
$DIMRND
 40
0.0
  9
$DIMDLE
 40
0.0
  9
$DIMEXE
 40
1.25
  9
$DIMTP
 40
0.0
  9
$DIMTM
 40
0.0
  9
$DIMTXT
 40
2.5
  9
$DIMCEN
 40
2.5
  9
$DIMTSZ
 40
0.0
  9
$DIMTOL
 70
     0
  9
$DIMLIM
 70
     0
  9
$DIMTIH
 70
     0
  9
$DIMTOH
 70
     0
  9
$DIMSE1
 70
     0
  9
$DIMSE2
 70
     0
  9
$DIMTAD
 70
     1
  9
$DIMZIN
 70
     8
  9
$DIMBLK
  1

  9
$DIMASO
 70
     1
  9
$DIMSHO
 70
     1
  9
$DIMPOST
  1

  9
$DIMAPOST
  1

  9
$DIMALT
 70
     0
  9
$DIMALTD
 70
     3
  9
$DIMALTF
 40
0.03937007874016
  9
$DIMLFAC
 40
1.0
  9
$DIMTOFL
 70
     1
  9
$DIMTVP
 40
0.0
  9
$DIMTIX
 70
     0
  9
$DIMSOXD
 70
     0
  9
$DIMSAH
 70
     0
  9
$DIMBLK1
  1

  9
$DIMBLK2
  1

  9
$DIMSTYLE
  2
ISO-25
  9
$DIMCLRD
 70
     0
  9
$DIMCLRE
 70
     0
  9
$DIMCLRT
 70
     0
  9
$DIMTFAC
 40
1.0
  9
$DIMGAP
 40
0.625
  9
$DIMJUST
 70
     0
  9
$DIMSD1
 70
     0
  9
$DIMSD2
 70
     0
  9
$DIMTOLJ
 70
     0
  9
$DIMTZIN
 70
     8
  9
$DIMALTZ
 70
     0
  9
$DIMALTTZ
 70
     0
  9
$DIMUPT
 70
     0
  9
$DIMDEC
 70
     2
  9
$DIMTDEC
 70
     2
  9
$DIMALTU
 70
     2
  9
$DIMALTTD
 70
     3
  9
$DIMTXSTY
  7
Standard
  9
$DIMAUNIT
 70
     0
  9
$DIMADEC
 70
     0
  9
$DIMALTRND
 40
0.0
  9
$DIMAZIN
 70
     0
  9
$DIMDSEP
 70
    44
  9
$DIMATFIT
 70
     3
  9
$DIMFRAC
 70
     0
  9
$DIMLDRBLK
  1

  9
$DIMLUNIT
 70
     2
  9
$DIMLWD
 70
    -2
  9
$DIMLWE
 70
    -2
  9
$DIMTMOVE
 70
     0
  9
$LUNITS
 70
     2
  9
$LUPREC
 70
     4
  9
$SKETCHINC
 40
1.0
  9
$FILLETRAD
 40
0.0
  9
$AUNITS
 70
     0
  9
$AUPREC
 70
     0
  9
$MENU
  1
.
  9
$ELEVATION
 40
0.0
  9
$PELEVATION
 40
0.0
  9
$THICKNESS
 40
0.0
  9
$LIMCHECK
 70
     0
  9
$CHAMFERA
 40
0.0
  9
$CHAMFERB
 40
0.0
  9
$CHAMFERC
 40
0.0
  9
$CHAMFERD
 40
0.0
  9
$SKPOLY
 70
     0
  9
$TDCREATE
 40
2459004.696718009
  9
$TDUCREATE
 40
2459004.571718009
  9
$TDUPDATE
 40
2459067.626336134
  9
$TDUUPDATE
 40
2459067.501336134
  9
$TDINDWG
 40
0.0005001968
  9
$TDUSRTIMER
 40
0.0005001968
  9
$USRTIMER
 70
     1
  9
$ANGBASE
 50
0.0
  9
$ANGDIR
 70
     0
  9
$PDMODE
 70
     0
  9
$PDSIZE
 40
0.0
  9
$PLINEWID
 40
0.0
  9
$SPLFRAME
 70
     0
  9
$SPLINETYPE
 70
     6
  9
$SPLINESEGS
 70
     8
  9
$HANDSEED
  5
341
  9
$SURFTAB1
 70
     6
  9
$SURFTAB2
 70
     6
  9
$SURFTYPE
 70
     6
  9
$SURFU
 70
     6
  9
$SURFV
 70
     6
  9
$UCSBASE
  2

  9
$UCSNAME
  2

  9
$UCSORG
 10
0.0
 20
0.0
 30
0.0
  9
$UCSXDIR
 10
1.0
 20
0.0
 30
0.0
  9
$UCSYDIR
 10
0.0
 20
1.0
 30
0.0
  9
$UCSORTHOREF
  2

  9
$UCSORTHOVIEW
 70
     0
  9
$UCSORGTOP
 10
0.0
 20
0.0
 30
0.0
  9
$UCSORGBOTTOM
 10
0.0
 20
0.0
 30
0.0
  9
$UCSORGLEFT
 10
0.0
 20
0.0
 30
0.0
  9
$UCSORGRIGHT
 10
0.0
 20
0.0
 30
0.0
  9
$UCSORGFRONT
 10
0.0
 20
0.0
 30
0.0
  9
$UCSORGBACK
 10
0.0
 20
0.0
 30
0.0
  9
$PUCSBASE
  2

  9
$PUCSNAME
  2

  9
$PUCSORG
 10
0.0
 20
0.0
 30
0.0
  9
$PUCSXDIR
 10
1.0
 20
0.0
 30
0.0
  9
$PUCSYDIR
 10
0.0
 20
1.0
 30
0.0
  9
$PUCSORTHOREF
  2

  9
$PUCSORTHOVIEW
 70
     0
  9
$PUCSORGTOP
 10
0.0
 20
0.0
 30
0.0
  9
$PUCSORGBOTTOM
 10
0.0
 20
0.0
 30
0.0
  9
$PUCSORGLEFT
 10
0.0
 20
0.0
 30
0.0
  9
$PUCSORGRIGHT
 10
0.0
 20
0.0
 30
0.0
  9
$PUCSORGFRONT
 10
0.0
 20
0.0
 30
0.0
  9
$PUCSORGBACK
 10
0.0
 20
0.0
 30
0.0
  9
$USERI1
 70
     0
  9
$USERI2
 70
     0
  9
$USERI3
 70
     0
  9
$USERI4
 70
     0
  9
$USERI5
 70
     0
  9
$USERR1
 40
0.0
  9
$USERR2
 40
0.0
  9
$USERR3
 40
0.0
  9
$USERR4
 40
0.0
  9
$USERR5
 40
0.0
  9
$WORLDVIEW
 70
     1
  9
$SHADEDGE
 70
     3
  9
$SHADEDIF
 70
    70
  9
$TILEMODE
 70
     1
  9
$MAXACTVP
 70
    64
  9
$PINSBASE
 10
0.0
 20
0.0
 30
0.0
  9
$PLIMCHECK
 70
     0
  9
$PEXTMIN
 10
0.0
 20
0.0
 30
0.0
  9
$PEXTMAX
 10
0.0
 20
0.0
 30
0.0
  9
$PLIMMIN
 10
0.0
 20
0.0
  9
$PLIMMAX
 10
12.0
 20
9.0
  9
$UNITMODE
 70
     0
  9
$VISRETAIN
 70
     1
  9
$PLINEGEN
 70
     0
  9
$PSLTSCALE
 70
     1
  9
$TREEDEPTH
 70
  3020
  9
$CMLSTYLE
  2
Standard
  9
$CMLJUST
 70
     0
  9
$CMLSCALE
 40
20.0
  9
$PROXYGRAPHICS
 70
     1
  9
$MEASUREMENT
 70
     1
  9
$CELWEIGHT
370
    -1
  9
$ENDCAPS
280
     0
  9
$JOINSTYLE
280
     0
  9
$LWDISPLAY
290
     0
  9
$INSUNITS
 70
     4
  9
$HYPERLINKBASE
  1

  9
$STYLESHEET
  1

  9
$XEDIT
290
     1
  9
$CEPSNTYPE
380
     0
  9
$PSTYLEMODE
290
     1
  9
$FINGERPRINTGUID
  2
{4AD5DFA0-83EC-45F0-8FE2-7FE8AF70EBC2}
  9
$VERSIONGUID
  2
{AA25BF37-8EBF-4CEA-9C7C-B884A57A3B4B}
  9
$EXTNAMES
290
     1
  9
$PSVPSCALE
 40
0.0
  9
$OLESTARTUP
290
     0
  0
ENDSEC
  0
SECTION
  2
CLASSES
  0
CLASS
  1
ACDBDICTIONARYWDFLT
  2
AcDbDictionaryWithDefault
  3
ObjectDBX Classes
 90
        0
280
     0
281
     0
  0
CLASS
  1
ACDBPLACEHOLDER
  2
AcDbPlaceHolder
  3
ObjectDBX Classes
 90
        0
280
     0
281
     0
  0
CLASS
  1
LAYOUT
  2
AcDbLayout
  3
ObjectDBX Classes
 90
        0
280
     0
281
     0
  0
CLASS
  1
DICTIONARYVAR
  2
AcDbDictionaryVar
  3
ObjectDBX Classes
 90
        0
280
     0
281
     0
  0
CLASS
  1
TABLESTYLE
  2
AcDbTableStyle
  3
ObjectDBX Classes
 90
     4095
280
     0
281
     0
  0
CLASS
  1
MATERIAL
  2
AcDbMaterial
  3
ObjectDBX Classes
 90
     1153
280
     0
281
     0
  0
CLASS
  1
VISUALSTYLE
  2
AcDbVisualStyle
  3
ObjectDBX Classes
 90
     4095
280
     0
281
     0
  0
CLASS
  1
SCALE
  2
AcDbScale
  3
ObjectDBX Classes
 90
     1153
280
     0
281
     0
  0
CLASS
  1
MLEADERSTYLE
  2
AcDbMLeaderStyle
  3
ACDB_MLEADERSTYLE_CLASS
 90
     4095
280
     0
281
     0
  0
CLASS
  1
CELLSTYLEMAP
  2
AcDbCellStyleMap
  3
ObjectDBX Classes
 90
     1152
280
     0
281
     0
  0
ENDSEC
  0
SECTION
  2
TABLES
  0
TABLE
  2
VPORT
  5
8
330
0
100
AcDbSymbolTable
 70
     1
  0
VPORT
  5
EA
330
8
100
AcDbSymbolTableRecord
100
AcDbViewportTableRecord
  2
*Active
 70
     0
 10
0.0
 20
0.0
 11
1.0
 21
1.0
 12
1954.029775734136
 22
963.9122342672312
 13
0.0
 23
0.0
 14
10.0
 24
10.0
 15
10.0
 25
10.0
 16
0.0
 26
0.0
 36
1.0
 17
0.0
 27
0.0
 37
0.0
 40
61.25206333320805
 41
1.903110047846889
 42
50.0
 43
0.0
 44
0.0
 50
0.0
 51
0.0
 71
     0
 72
  1000
 73
     1
 74
     3
 75
     0
 76
     0
 77
     0
 78
     0
281
     0
 65
     1
110
0.0
120
0.0
130
0.0
111
1.0
121
0.0
131
0.0
112
0.0
122
1.0
132
0.0
 79
     0
146
0.0
  0
ENDTAB
  0
TABLE
  2
LTYPE
  5
5
330
0
100
AcDbSymbolTable
 70
     1
  0
LTYPE
  5
14
330
5
100
AcDbSymbolTableRecord
100
AcDbLinetypeTableRecord
  2
ByBlock
 70
     0
  3

 72
    65
 73
     0
 40
0.0
  0
LTYPE
  5
15
330
5
100
AcDbSymbolTableRecord
100
AcDbLinetypeTableRecord
  2
ByLayer
 70
     0
  3

 72
    65
 73
     0
 40
0.0
  0
LTYPE
  5
16
330
5
100
AcDbSymbolTableRecord
100
AcDbLinetypeTableRecord
  2
Continuous
 70
     0
  3
Solid line
 72
    65
 73
     0
 40
0.0
  0
ENDTAB
  0
TABLE
  2
LAYER
  5
2
330
0
100
AcDbSymbolTable
 70
     1
  0
LAYER
  5
10
102
{ACAD_XDICTIONARY
360
13C
102
}
330
2
100
AcDbSymbolTableRecord
100
AcDbLayerTableRecord
  2
0
 70
     0
 62
     7
  6
Continuous
370
    -3
390
F
  0
ENDTAB
  0
TABLE
  2
STYLE
  5
3
330
0
100
AcDbSymbolTable
 70
     2
  0
STYLE
  5
11
330
3
100
AcDbSymbolTableRecord
100
AcDbTextStyleTableRecord
  2
Standard
 70
     0
 40
0.0
 41
1.0
 50
0.0
 71
     0
 42
2.5
  3
txt
  4

  0
STYLE
  5
132
330
3
100
AcDbSymbolTableRecord
100
AcDbTextStyleTableRecord
  2
Annotative
 70
     0
 40
0.0
 41
1.0
 50
0.0
 71
     0
 42
2.5
  3
txt.shx
  4

1001
AcadAnnotative
1000
AnnotativeData
1002
{
1070
     1
1070
     1
1002
}
  0
ENDTAB
  0
TABLE
  2
VIEW
  5
6
330
0
100
AcDbSymbolTable
 70
     0
  0
ENDTAB
  0
TABLE
  2
UCS
  5
7
330
0
100
AcDbSymbolTable
 70
     0
  0
ENDTAB
  0
TABLE
  2
APPID
  5
9
330
0
100
AcDbSymbolTable
 70
     7
  0
APPID
  5
12
330
9
100
AcDbSymbolTableRecord
100
AcDbRegAppTableRecord
  2
ACAD
 70
     0
  0
APPID
  5
9E
330
9
100
AcDbSymbolTableRecord
100
AcDbRegAppTableRecord
  2
ACAD_PSEXT
 70
     0
  0
APPID
  5
133
330
9
100
AcDbSymbolTableRecord
100
AcDbRegAppTableRecord
  2
AcadAnnoPO
 70
     0
  0
APPID
  5
134
330
9
100
AcDbSymbolTableRecord
100
AcDbRegAppTableRecord
  2
AcadAnnotative
 70
     0
  0
APPID
  5
135
330
9
100
AcDbSymbolTableRecord
100
AcDbRegAppTableRecord
  2
ACAD_DSTYLE_DIMJAG
 70
     0
  0
APPID
  5
136
330
9
100
AcDbSymbolTableRecord
100
AcDbRegAppTableRecord
  2
ACAD_DSTYLE_DIMTALN
 70
     0
  0
APPID
  5
165
330
9
100
AcDbSymbolTableRecord
100
AcDbRegAppTableRecord
  2
ACAD_MLEADERVER
 70
     0
  0
ENDTAB
  0
TABLE
  2
DIMSTYLE
  5
A
330
0
100
AcDbSymbolTable
 70
     2
100
AcDbDimStyleTable
 71
     2
340
27
340
137
  0
DIMSTYLE
105
27
330
A
100
AcDbSymbolTableRecord
100
AcDbDimStyleTableRecord
  2
ISO-25
 70
     0
 41
2.5
 42
0.625
 43
3.75
 44
1.25
 73
     0
 74
     0
 77
     1
 78
     8
140
2.5
141
2.5
143
0.03937007874016
147
0.625
171
     3
172
     1
271
     2
272
     2
274
     3
278
    44
283
     0
284
     8
340
11
  0
DIMSTYLE
105
137
330
A
100
AcDbSymbolTableRecord
100
AcDbDimStyleTableRecord
  2
Annotative
 70
     0
 40
0.0
 41
2.5
 42
0.625
 43
3.75
 44
1.25
 73
     0
 74
     0
 77
     1
 78
     8
140
2.5
141
2.5
143
0.03937007874016
147
0.625
171
     3
172
     1
271
     2
272
     2
274
     3
278
    44
283
     0
284
     8
340
11
1001
AcadAnnotative
1000
AnnotativeData
1002
{
1070
     1
1070
     1
1002
}
1001
ACAD_DSTYLE_DIMJAG
1070
   388
1040
1.5
1001
ACAD_DSTYLE_DIMTALN
1070
   392
1070
     0
  0
ENDTAB
  0
TABLE
  2
BLOCK_RECORD
  5
1
330
0
100
AcDbSymbolTable
 70
     5
  0
BLOCK_RECORD
  5
1F
330
1
100
AcDbSymbolTableRecord
100
AcDbBlockTableRecord
  2
*Model_Space
340
22
  0
BLOCK_RECORD
  5
D2
330
1
100
AcDbSymbolTableRecord
100
AcDbBlockTableRecord
  2
*Paper_Space
340
D3
  0
BLOCK_RECORD
  5
D6
330
1
100
AcDbSymbolTableRecord
100
AcDbBlockTableRecord
  2
*Paper_Space0
340
D7
  0
BLOCK_RECORD
  5
1AD
330
1
100
AcDbSymbolTableRecord
100
AcDbBlockTableRecord
  2
SW_CENTERMARKSYMBOL_0
340
0
102
{BLKREFS
331
2C4
102
}
  0
BLOCK_RECORD
  5
2A6
330
1
100
AcDbSymbolTableRecord
100
AcDbBlockTableRecord
  2
1
340
0
310
2800000020000000200000000100080000000000000400000000000000000000000000000000000000000000000080000080000000808000800000008000800080800000C0C0C000C0DCC000F0CAA6000020400000206000002080000020A0000020C0000020E00000400000004020000040400000406000004080000040A0
310
000040C0000040E00000600000006020000060400000606000006080000060A0000060C0000060E00000800000008020000080400000806000008080000080A0000080C0000080E00000A0000000A0200000A0400000A0600000A0800000A0A00000A0C00000A0E00000C0000000C0200000C0400000C0600000C0800000C0
310
A00000C0C00000C0E00000E0000000E0200000E0400000E0600000E0800000E0A00000E0C00000E0E00040000000400020004000400040006000400080004000A0004000C0004000E00040200000402020004020400040206000402080004020A0004020C0004020E000404000004040200040404000404060004040800040
310
40A0004040C0004040E00040600000406020004060400040606000406080004060A0004060C0004060E00040800000408020004080400040806000408080004080A0004080C0004080E00040A0000040A0200040A0400040A0600040A0800040A0A00040A0C00040A0E00040C0000040C0200040C0400040C0600040C08000
310
40C0A00040C0C00040C0E00040E0000040E0200040E0400040E0600040E0800040E0A00040E0C00040E0E00080000000800020008000400080006000800080008000A0008000C0008000E00080200000802020008020400080206000802080008020A0008020C0008020E00080400000804020008040400080406000804080
310
008040A0008040C0008040E00080600000806020008060400080606000806080008060A0008060C0008060E00080800000808020008080400080806000808080008080A0008080C0008080E00080A0000080A0200080A0400080A0600080A0800080A0A00080A0C00080A0E00080C0000080C0200080C0400080C0600080C0
310
800080C0A00080C0C00080C0E00080E0000080E0200080E0400080E0600080E0800080E0A00080E0C00080E0E000C0000000C0002000C0004000C0006000C0008000C000A000C000C000C000E000C0200000C0202000C0204000C0206000C0208000C020A000C020C000C020E000C0400000C0402000C0404000C0406000C0
310
408000C040A000C040C000C040E000C0600000C0602000C0604000C0606000C0608000C060A000C060C000C060E000C0800000C0802000C0804000C0806000C0808000C080A000C080C000C080E000C0A00000C0A02000C0A04000C0A06000C0A08000C0A0A000C0A0C000C0A0E000C0C00000C0C02000C0C04000C0C06000
310
C0C08000C0C0A000F0FBFF00A4A0A000808080000000FF0000FF000000FFFF00FF000000FF00FF00FFFF0000FFFFFF00000000000000000000000000000000000000000000000000000000000000000000000000000000000000000000000000FF000000000000000000000000000000000000000000000000000000000000
310
00FF00000000000000000000000000000000000000000000000000000000000000FF00000000000000000000000000000000000000000000000000000000000000FF00000000000000000000000000000000000000000000000000FFFFFFFFFFFFFFFFFFFFFFFF00000000000000000000000000000000000000FF00000000
310
0000FF0000000000FF0000000000000000000000000000000000FF0000000000FFFFFFFF0000000000FF00000000000000000000000000000000FF000000FFFFFFFFFFFFFFFFFF0000FF000000000000000000000000000000FF0000FFFFFF000000FF0000FFFFFF0000FF0000000000000000000000000000FF00FFFFFF00
310
000000FF00000000FFFF00FF00000000000000000000000000FF0000FF000000000000FF0000000000FF0000FF000000000000000000000000FF00FF00000000000000000000000000FFFF00FF0000000000000000000000FF00FFFF00000000000000FF000000000000FF0000FF00000000000000000000FF00FFFF000000
310
00000000FF000000000000FF0000FF000000000000000000FF000000FF00000000000000FF000000000000FF000000FF0000000000FFFFFFFFFFFFFFFFFFFFFF00FFFFFFFFFFFF00FFFFFFFFFFFFFFFFFFFFFF000000000000FF0000FF00000000000000FF000000000000FF0000FF00000000000000000000FF0000FFFF00
310
0000000000FF000000000000FF0000FF0000000000000000000000FF00FFFF000000000000000000000000FFFF00FF000000000000000000000000FF0000FF000000000000FF0000000000FF0000FF00000000000000000000000000FF00FFFF0000000000FF00000000FFFF00FF0000000000000000000000000000FF0000
310
FFFFFF000000FF0000FFFFFF0000FF000000000000000000000000000000FF0000FFFFFFFFFFFFFFFFFF000000FF00000000000000000000000000000000FF0000000000FFFFFF000000000000FF0000000000000000000000000000000000FF000000000000FF0000000000FF000000000000000000000000000000000000
310
00FFFFFFFFFFFFFFFFFFFFFFFF0000000000000000000000000000000000000000000000000000FF00000000000000000000000000000000000000000000000000000000000000FF00000000000000000000000000000000000000000000000000000000000000FF0000000000000000000000000000000000000000000000
310
0000000000000000FF0000000000000000000000000000000000000000000000000000000000000000000000000000000000000000000000
102
{BLKREFS
331
2C5
102
}
1001
ACAD
1000
DesignCenter Data
1002
{
1070
     1
1070
     4
1002
}
  0
BLOCK_RECORD
  5
2C6
330
1
100
AcDbSymbolTableRecord
100
AcDbBlockTableRecord
  2
2
340
0
310
2800000020000000200000000100080000000000000400000000000000000000000000000000000000000000000080000080000000808000800000008000800080800000C0C0C000C0DCC000F0CAA6000020400000206000002080000020A0000020C0000020E00000400000004020000040400000406000004080000040A0
310
000040C0000040E00000600000006020000060400000606000006080000060A0000060C0000060E00000800000008020000080400000806000008080000080A0000080C0000080E00000A0000000A0200000A0400000A0600000A0800000A0A00000A0C00000A0E00000C0000000C0200000C0400000C0600000C0800000C0
310
A00000C0C00000C0E00000E0000000E0200000E0400000E0600000E0800000E0A00000E0C00000E0E00040000000400020004000400040006000400080004000A0004000C0004000E00040200000402020004020400040206000402080004020A0004020C0004020E000404000004040200040404000404060004040800040
310
40A0004040C0004040E00040600000406020004060400040606000406080004060A0004060C0004060E00040800000408020004080400040806000408080004080A0004080C0004080E00040A0000040A0200040A0400040A0600040A0800040A0A00040A0C00040A0E00040C0000040C0200040C0400040C0600040C08000
310
40C0A00040C0C00040C0E00040E0000040E0200040E0400040E0600040E0800040E0A00040E0C00040E0E00080000000800020008000400080006000800080008000A0008000C0008000E00080200000802020008020400080206000802080008020A0008020C0008020E00080400000804020008040400080406000804080
310
008040A0008040C0008040E00080600000806020008060400080606000806080008060A0008060C0008060E00080800000808020008080400080806000808080008080A0008080C0008080E00080A0000080A0200080A0400080A0600080A0800080A0A00080A0C00080A0E00080C0000080C0200080C0400080C0600080C0
310
800080C0A00080C0C00080C0E00080E0000080E0200080E0400080E0600080E0800080E0A00080E0C00080E0E000C0000000C0002000C0004000C0006000C0008000C000A000C000C000C000E000C0200000C0202000C0204000C0206000C0208000C020A000C020C000C020E000C0400000C0402000C0404000C0406000C0
310
408000C040A000C040C000C040E000C0600000C0602000C0604000C0606000C0608000C060A000C060C000C060E000C0800000C0802000C0804000C0806000C0808000C080A000C080C000C080E000C0A00000C0A02000C0A04000C0A06000C0A08000C0A0A000C0A0C000C0A0E000C0C00000C0C02000C0C04000C0C06000
310
C0C08000C0C0A000F0FBFF00A4A0A000808080000000FF0000FF000000FFFF00FF000000FF00FF00FFFF0000FFFFFF0000000000000000000000000000000000000000000000000000000000000000000000000000000000000000000000000000000000000000000000000000000000000000000000000000000000000000
310
00000000000000000000000000000000000000000000000000000000000000000000000000000000000000000000000000000000000000000000000000000000000000000000000000000000000000000000000000000000000000000000000000000000000000000000000000000000000000000000000000000000000000
310
00000000000000000000000000000000000000000000000000000000000000000000000000000000000000000000000000000000000000000000000000000000000000000000000000000000000000000000000000000000000000000000000000000000000000000000000000000000000000000000000000000000000000
310
000000000000000000000000000000000000000000000000000000000000000000000000000000000000000000000000000000000000000000000000000000000000000000000000000000000000000000000000FFFFFFFFFFFFFFFFFFFFFFFFFFFFFFFFFFFFFFFFFFFFFFFFFFFFFFFFFFFF0000FF000000000000FFFF0000
310
00000000000000000000FFFF000000000000FF0000FF000000000000FFFF000000000000000000000000FFFF000000000000FF0000FF000000000000FFFF000000000000000000000000FFFF000000000000FF0000FFFFFFFFFFFFFFFFFFFFFFFFFFFFFFFFFFFFFFFFFFFFFFFFFFFFFFFFFFFF0000FFFFFFFFFFFFFFFFFFFF
310
FFFFFFFFFFFFFFFFFFFFFFFFFFFFFFFFFFFFFFFF0000000000000000000000000000000000000000000000000000000000000000000000000000000000000000000000000000000000000000000000000000000000000000000000000000000000000000000000000000000000000000000000000000000000000000000000
310
00000000000000000000000000000000000000000000000000000000000000000000000000000000000000000000000000000000000000000000000000000000000000000000000000000000000000000000000000000000000000000000000000000000000000000000000000000000000000000000000000000000000000
310
00000000000000000000000000000000000000000000000000000000000000000000000000000000000000000000000000000000000000000000000000000000000000000000000000000000000000000000000000000000000000000000000000000000000000000000000000000000000000000000000000000000000000
310
0000000000000000000000000000000000000000000000000000000000000000000000000000000000000000000000000000000000000000
102
{BLKREFS
331
2DC
102
}
1001
ACAD
1000
DesignCenter Data
1002
{
1070
     1
1070
     4
1002
}
  0
BLOCK_RECORD
  5
2DD
330
1
100
AcDbSymbolTableRecord
100
AcDbBlockTableRecord
  2
3
340
0
310
2800000020000000200000000100080000000000000400000000000000000000000000000000000000000000000080000080000000808000800000008000800080800000C0C0C000C0DCC000F0CAA6000020400000206000002080000020A0000020C0000020E00000400000004020000040400000406000004080000040A0
310
000040C0000040E00000600000006020000060400000606000006080000060A0000060C0000060E00000800000008020000080400000806000008080000080A0000080C0000080E00000A0000000A0200000A0400000A0600000A0800000A0A00000A0C00000A0E00000C0000000C0200000C0400000C0600000C0800000C0
310
A00000C0C00000C0E00000E0000000E0200000E0400000E0600000E0800000E0A00000E0C00000E0E00040000000400020004000400040006000400080004000A0004000C0004000E00040200000402020004020400040206000402080004020A0004020C0004020E000404000004040200040404000404060004040800040
310
40A0004040C0004040E00040600000406020004060400040606000406080004060A0004060C0004060E00040800000408020004080400040806000408080004080A0004080C0004080E00040A0000040A0200040A0400040A0600040A0800040A0A00040A0C00040A0E00040C0000040C0200040C0400040C0600040C08000
310
40C0A00040C0C00040C0E00040E0000040E0200040E0400040E0600040E0800040E0A00040E0C00040E0E00080000000800020008000400080006000800080008000A0008000C0008000E00080200000802020008020400080206000802080008020A0008020C0008020E00080400000804020008040400080406000804080
310
008040A0008040C0008040E00080600000806020008060400080606000806080008060A0008060C0008060E00080800000808020008080400080806000808080008080A0008080C0008080E00080A0000080A0200080A0400080A0600080A0800080A0A00080A0C00080A0E00080C0000080C0200080C0400080C0600080C0
310
800080C0A00080C0C00080C0E00080E0000080E0200080E0400080E0600080E0800080E0A00080E0C00080E0E000C0000000C0002000C0004000C0006000C0008000C000A000C000C000C000E000C0200000C0202000C0204000C0206000C0208000C020A000C020C000C020E000C0400000C0402000C0404000C0406000C0
310
408000C040A000C040C000C040E000C0600000C0602000C0604000C0606000C0608000C060A000C060C000C060E000C0800000C0802000C0804000C0806000C0808000C080A000C080C000C080E000C0A00000C0A02000C0A04000C0A06000C0A08000C0A0A000C0A0C000C0A0E000C0C00000C0C02000C0C04000C0C06000
310
C0C08000C0C0A000F0FBFF00A4A0A000808080000000FF0000FF000000FFFF00FF000000FF00FF00FFFF0000FFFFFF0000000000000000000000000000000000000000000000000000000000000000000000000000000000000000000000000000000000000000000000000000000000000000000000000000000000000000
310
0000000000000000000000000000000000000000000000000000000000000000000000000000000000000000000000000000000000000000000000000000000000000000000000000000000000000000000000000000000000000000000000000000000000000000000000000000000000000000000000000000FFFFFFFFFF
310
FFFFFFFFFFFFFFFF0000000000000000000000000000000000FFFFFFFFFF00FF00FF00FFFFFFFFFFFFFFFF000000000000000000000000FFFFFFFFFF000000FF00FF0000000000FFFFFFFFFFFF0000000000000000FFFFFFFF000000000000FF00FF000000000000000000FFFFFF000000000000FFFFFF00000000000000FF
310
FFFFFFFF000000000000000000FFFFFF0000000000FFFF000000000000FFFF0000000000FFFFFFFF0000000000FFFFFFFF00000000FFFF000000FFFFFF000000FFFFFFFF00000000FFFFFFFF00FFFFFFFF000000FFFFFF00FFFF0000FFFFFFFFFF000000FFFFFFFFFF000000FFFFFFFFFFFF0000FFFFFFFF000000FFFF0000
310
000000000000000000FFFFFF000000FFFF00FF000000FFFF000000FF000000000000000000000000000000FFFF0000FFFF00FF000000FFFF0000FFFFFF000000000000000000000000000000FFFF0000FFFF00000000FFFF0000FFFFFFFFFF0000000000000000000000FFFFFFFF0000FFFF0000000000FF0000FFFFFFFFFF
310
FFFFFF0000000000FFFFFFFFFFFFFF0000FFFF0000000000FF0000FFFFFFFFFFFFFFFFFFFFFFFFFFFFFFFFFFFFFFFF0000FFFF0000000000FF000000FFFFFFFFFFFFFFFFFFFFFFFFFFFFFFFFFFFF00000000FF0000000000FF00000000FFFFFFFFFFFFFFFFFFFFFFFFFFFFFFFFFF0000FFFFFF000000000000FFFF000000FF
310
FFFFFFFFFFFFFFFFFFFFFFFFFF0000FFFF0000000000000000000000FFFFFFFF000000FFFFFFFFFFFFFF0000FFFFFF0000000000000000000000000000000000FFFFFFFF000000000000FFFF000000000000000000000000000000000000000000000000FFFFFFFFFFFF000000000000000000000000000000000000000000
310
00000000000000000000000000000000000000000000000000000000000000000000000000000000000000000000000000000000000000000000000000000000000000000000000000000000000000000000000000000000000000000000000000000000000000000000000000000000000000000000000000000000000000
310
0000000000000000000000000000000000000000000000000000000000000000000000000000000000000000000000000000000000000000
102
{BLKREFS
331
326
102
}
1001
ACAD
1000
DesignCenter Data
1002
{
1070
     1
1070
     4
1002
}
  0
ENDTAB
  0
ENDSEC
  0
SECTION
  2
BLOCKS
  0
BLOCK
  5
20
330
1F
100
AcDbEntity
  8
0
100
AcDbBlockBegin
  2
*Model_Space
 70
     0
 10
0.0
 20
0.0
 30
0.0
  3
*Model_Space
  1

  0
ENDBLK
  5
21
330
1F
100
AcDbEntity
  8
0
100
AcDbBlockEnd
  0
BLOCK
  5
D4
330
D2
100
AcDbEntity
 67
     1
  8
0
100
AcDbBlockBegin
  2
*Paper_Space
 70
     0
 10
0.0
 20
0.0
 30
0.0
  3
*Paper_Space
  1

  0
ENDBLK
  5
D5
330
D2
100
AcDbEntity
 67
     1
  8
0
100
AcDbBlockEnd
  0
BLOCK
  5
D8
330
D6
100
AcDbEntity
 67
     1
  8
0
100
AcDbBlockBegin
  2
*Paper_Space0
 70
     0
 10
0.0
 20
0.0
 30
0.0
  3
*Paper_Space0
  1

  0
ENDBLK
  5
D9
330
D6
100
AcDbEntity
 67
     1
  8
0
100
AcDbBlockEnd
  0
BLOCK
  5
1AE
330
1AD
100
AcDbEntity
  8
0
100
AcDbBlockBegin
  2
SW_CENTERMARKSYMBOL_0
 70
     0
 10
0.0
 20
0.0
 30
0.0
  3
SW_CENTERMARKSYMBOL_0
  1

  0
LINE
  5
1AF
330
1AD
100
AcDbEntity
  8
0
  6
Continuous
 62
     0
370
     0
100
AcDbLine
 10
0.0
 20
0.0
 30
0.0
 11
0.0
 21
2.500000000000002
 31
0.0
  0
LINE
  5
1B0
330
1AD
100
AcDbEntity
  8
0
  6
Continuous
 62
     0
370
     0
100
AcDbLine
 10
0.0
 20
0.0
 30
0.0
 11
-2.500000000000002
 21
0.0
 31
0.0
  0
LINE
  5
1B1
330
1AD
100
AcDbEntity
  8
0
  6
Continuous
 62
     0
370
     0
100
AcDbLine
 10
0.0
 20
0.0
 30
0.0
 11
0.0
 21
-2.500000000000002
 31
0.0
  0
LINE
  5
1B2
330
1AD
100
AcDbEntity
  8
0
  6
Continuous
 62
     0
370
     0
100
AcDbLine
 10
0.0
 20
0.0
 30
0.0
 11
2.500000000000002
 21
0.0
 31
0.0
  0
LINE
  5
1B3
330
1AD
100
AcDbEntity
  8
0
  6
Continuous
 62
     0
370
     0
100
AcDbLine
 10
0.0
 20
5.000000000000004
 30
0.0
 11
0.0
 21
17.00000000000001
 31
0.0
  0
LINE
  5
1B4
330
1AD
100
AcDbEntity
  8
0
  6
Continuous
 62
     0
370
     0
100
AcDbLine
 10
-5.000000000000004
 20
0.0
 30
0.0
 11
-17.00000000000001
 21
0.0
 31
0.0
  0
LINE
  5
1B5
330
1AD
100
AcDbEntity
  8
0
  6
Continuous
 62
     0
370
     0
100
AcDbLine
 10
0.0
 20
-5.000000000000004
 30
0.0
 11
0.0
 21
-17.0
 31
0.0
  0
LINE
  5
1B6
330
1AD
100
AcDbEntity
  8
0
  6
Continuous
 62
     0
370
     0
100
AcDbLine
 10
5.000000000000004
 20
0.0
 30
0.0
 11
17.00000000000001
 21
0.0
 31
0.0
  0
ENDBLK
  5
1B7
330
1AD
100
AcDbEntity
  8
0
100
AcDbBlockEnd
  0
BLOCK
  5
2A7
330
2A6
100
AcDbEntity
  8
0
100
AcDbBlockBegin
  2
1
 70
     0
 10
0.0
 20
0.0
 30
0.0
  3
1
  1

  0
LINE
  5
2A9
330
2A6
100
AcDbEntity
  8
0
  6
Continuous
 62
     7
370
    15
100
AcDbLine
 10
1937.81142941439
 20
972.4675958091443
 30
0.0
 11
1937.853132924305
 21
972.1620082118633
 31
0.0
  0
SPLINE
  5
2AA
330
2A6
100
AcDbEntity
  8
0
  6
Continuous
 62
     7
370
    15
100
AcDbSpline
210
0.0
220
0.0
230
1.0
 70
     8
 71
     3
 72
    79
 73
    75
 74
     0
 42
0.0000000001
 43
0.0000000001
 40
0.0
 40
0.0
 40
0.0
 40
0.0
 40
0.0107713234577567
 40
0.022889906641413
 40
0.0339262849846277
 40
0.0447012128800726
 40
0.055593027037789
 40
0.0665801780148689
 40
0.0804120739480551
 40
0.0943109818139872
 40
0.1082292287586561
 40
0.1221187628535326
 40
0.1359321360321202
 40
0.1498000997584007
 40
0.1638846084108668
 40
0.1781098019814656
 40
0.1924269129529584
 40
0.2067852320176922
 40
0.2211331671397282
 40
0.2354193494400101
 40
0.2495937271898338
 40
0.2636085903670465
 40
0.277479577986604
 40
0.2915005245836276
 40
0.3056788480157836
 40
0.319966733819681
 40
0.3343140710602633
 40
0.3486694803911758
 40
0.3629814090179447
 40
0.3771992349029314
 40
0.3912742996790788
 40
0.4051653637312361
 40
0.4191095925453142
 40
0.4332278590023356
 40
0.4474735060944219
 40
0.4617972341488017
 40
0.4761480881610366
 40
0.4904745316868262
 40
0.5047255516210879
 40
0.5188519832311353
 40
0.5328072662709334
 40
0.5466792343513642
 40
0.5607300739041177
 40
0.5749267626803105
 40
0.5892209723929859
 40
0.6035623235428229
 40
0.6178994299402754
 40
0.6321810813634745
 40
0.6463575515618139
 40
0.6603809728780428
 40
0.6742394933895407
 40
0.6882209184827754
 40
0.7023664103674279
 40
0.7166287056068695
 40
0.7309581054959832
 40
0.7453034833819103
 40
0.7596132970830634
 40
0.7738367993470601
 40
0.7879251076137407
 40
0.8018321299712683
 40
0.8157397638773149
 40
0.8298285867811008
 40
0.844052497416481
 40
0.8583626063019448
 40
0.8727081548462752
 40
0.8870375596186235
 40
0.901299692042682
 40
0.9154448583571335
 40
0.9294258033118239
 40
0.9432845286387218
 40
0.9573085234729237
 40
0.9714854125072111
 40
0.9857672997642188
 40
1.0
 40
1.0
 40
1.0
 40
1.0
 10
1937.91945242284
 20
971.3052504326253
 30
0.0
 10
1937.921226852771
 20
971.1020493304118
 30
0.0
 10
1937.924997655459
 20
970.6702310606015
 30
0.0
 10
1937.875844786609
 20
970.0314724760058
 30
0.0
 10
1937.786384385413
 20
969.3975332384052
 30
0.0
 10
1937.660193120954
 20
968.7933748854336
 30
0.0
 10
1937.496060586014
 20
968.1994068549771
 30
0.0
 10
1937.274921117159
 20
967.5628072028981
 30
0.0
 10
1936.985108208304
 20
966.8917011254768
 30
0.0
 10
1936.615310648362
 20
966.1977606395934
 30
0.0
 10
1936.189185159175
 20
965.5355969646382
 30
0.0
 10
1935.711123966347
 20
964.9119280104724
 30
0.0
 10
1935.184297512233
 20
964.3301443325389
 30
0.0
 10
1934.608998892247
 20
963.7908312661316
 30
0.0
 10
1933.985058059635
 20
963.2959868336072
 30
0.0
 10
1933.314877975619
 20
962.8503113796554
 30
0.0
 10
1932.604996242217
 20
962.4601900256996
 30
0.0
 10
1931.862520583828
 20
962.1306126973582
 30
0.0
 10
1931.095341794122
 20
961.865323359302
 30
0.0
 10
1930.311856597167
 20
961.6666798225558
 30
0.0
 10
1929.520664914857
 20
961.5355877016433
 30
0.0
 10
1928.729133641904
 20
961.4714200075244
 30
0.0
 10
1927.937910664352
 20
961.4726226918721
 30
0.0
 10
1927.146390314284
 20
961.5392265063199
 30
0.0
 10
1926.355388515642
 20
961.6727978337838
 30
0.0
 10
1925.572431350652
 20
961.8738963277213
 30
0.0
 10
1924.806112984558
 20
962.1415571555003
 30
0.0
 10
1924.064811734448
 20
962.4733653161936
 30
0.0
 10
1923.356388166504
 20
962.8655248468488
 30
0.0
 10
1922.687909969066
 20
963.3130016756338
 30
0.0
 10
1922.065357775283
 20
963.8097806957093
 30
0.0
 10
1921.489707094155
 20
964.3527067031129
 30
0.0
 10
1920.960067599401
 20
964.9417056459688
 30
0.0
 10
1920.476984297163
 20
965.5778947891898
 30
0.0
 10
1920.04501680486
 20
966.2583531500489
 30
0.0
 10
1919.669935614883
 20
966.9767127666084
 30
0.0
 10
1919.356411772676
 20
967.725650100564
 30
0.0
 10
1919.107830036321
 20
968.4971299916421
 30
0.0
 10
1918.926166935573
 20
969.282695379181
 30
0.0
 10
1918.811947470725
 20
970.0737722109986
 30
0.0
 10
1918.764129308114
 20
970.8644396213898
 30
0.0
 10
1918.781390977169
 20
971.6549320252507
 30
0.0
 10
1918.864227054933
 20
972.44585433903
 30
0.0
 10
1919.014213986649
 20
973.2349578578762
 30
0.0
 10
1919.231507512271
 20
974.0139420861533
 30
0.0
 10
1919.514793212321
 20
974.7742596293688
 30
0.0
 10
1919.861321858975
 20
975.5076532480973
 30
0.0
 10
1920.267000097936
 20
976.2064568142264
 30
0.0
 10
1920.726547939104
 20
976.863852647946
 30
0.0
 10
1921.234110224735
 20
977.4745607852738
 30
0.0
 10
1921.787630531309
 20
978.0387865685039
 30
0.0
 10
1922.387396236443
 20
978.5571250492649
 30
0.0
 10
1923.03429825945
 20
979.0283725549404
 30
0.0
 10
1923.724060901747
 20
979.4471289535369
 30
0.0
 10
1924.450087759942
 20
979.8078602447175
 30
0.0
 10
1925.204876962105
 20
980.1061767051873
 30
0.0
 10
1925.980276159881
 20
980.339006906561
 30
0.0
 10
1926.767774497008
 20
980.5047026033523
 30
0.0
 10
1927.558808753691
 20
980.6030667979069
 30
0.0
 10
1928.349296542583
 20
980.6354789155284
 30
0.0
 10
1929.139786231302
 20
980.6028757831587
 30
0.0
 10
1929.930825209231
 20
980.5043146266044
 30
0.0
 10
1930.718305109859
 20
980.3384195295054
 30
0.0
 10
1931.493662055682
 20
980.1053912844167
 30
0.0
 10
1932.248384845134
 20
979.8068824145602
 30
0.0
 10
1932.974320939452
 20
979.4459685201882
 30
0.0
 10
1933.663972112712
 20
979.0270445206846
 30
0.0
 10
1934.31073692777
 20
978.5556444816386
 30
0.0
 10
1934.910384175885
 20
978.0371730459679
 30
0.0
 10
1935.463702406375
 20
977.472778647194
 30
0.0
 10
1935.971381552767
 20
976.8620344767121
 30
0.0
 10
1936.429814393946
 20
976.204096964939
 30
0.0
 10
1936.837956245151
 20
975.5084171291709
 30
0.0
 10
1937.058982717391
 20
975.0178423610291
 30
0.0
 10
1937.169305320668
 20
974.7729780921714
 30
0.0
  0
SPLINE
  5
2AB
330
2A6
100
AcDbEntity
  8
0
  6
Continuous
 62
     7
370
    15
100
AcDbSpline
210
0.0
220
0.0
230
1.0
 70
     8
 71
     3
 72
     9
 73
     5
 74
     0
 42
0.0000000001
 43
0.0000000001
 40
0.0
 40
0.0
 40
0.0
 40
0.0
 40
0.6944758734428922
 40
1.0
 40
1.0
 40
1.0
 40
1.0
 10
1937.735494974452
 20
972.8937670392454
 30
0.0
 10
1937.76867915647
 20
972.7428887685926
 30
0.0
 10
1937.816462216022
 20
972.525633891321
 30
0.0
 10
1937.836740964439
 20
972.3043350762013
 30
0.0
 10
1937.842936611336
 20
972.2367229490037
 30
0.0
  0
SPLINE
  5
2AC
330
2A6
100
AcDbEntity
  8
0
  6
Continuous
 62
     7
370
    15
100
AcDbSpline
210
0.0
220
0.0
230
1.0
 70
     8
 71
     3
 72
     9
 73
     5
 74
     0
 42
0.0000000001
 43
0.0000000001
 40
0.0
 40
0.0
 40
0.0
 40
0.0
 40
0.956210420491587
 40
0.9999999999999998
 40
0.9999999999999998
 40
0.9999999999999998
 40
0.9999999999999998
 10
1921.465480910049
 20
964.3958557003186
 30
0.0
 10
1921.328109296559
 20
964.5364332601404
 30
0.0
 10
1921.184446761047
 20
964.6834485580388
 30
0.0
 10
1921.056937986533
 20
964.8442444988379
 30
0.0
 10
1921.051354430913
 20
964.8512856854722
 30
0.0
  0
SPLINE
  5
2AD
330
2A6
100
AcDbEntity
  8
0
  6
Continuous
 62
     7
370
    15
100
AcDbSpline
210
0.0
220
0.0
230
1.0
 70
     8
 71
     3
 72
    22
 73
    18
 74
     0
 42
0.0000000001
 43
0.0000000001
 40
0.0
 40
0.0
 40
0.0
 40
0.0
 40
0.1250000000000002
 40
0.1250000000000002
 40
0.2500000000000003
 40
0.2500000000000003
 40
0.3750000000000003
 40
0.3750000000000003
 40
0.5000000000000002
 40
0.5000000000000002
 40
0.6250000000000002
 40
0.6250000000000002
 40
0.7500000000000001
 40
0.7500000000000001
 40
0.8750000000000001
 40
0.8750000000000001
 40
1.0
 40
1.0
 40
1.0
 40
1.0
 10
1937.176619267411
 20
967.1623040033479
 30
0.0
 10
1936.970164066294
 20
966.6547760261524
 30
0.0
 10
1936.722246237938
 20
966.1684426195376
 30
0.0
 10
1936.143537835955
 20
965.2381381061884
 30
0.0
 10
1935.818654399099
 20
964.8037489608389
 30
0.0
 10
1935.101840350657
 20
963.9954095490287
 30
0.0
 10
1934.709958024036
 20
963.6210058803001
 30
0.0
 10
1933.857881814787
 20
962.9329407668119
 30
0.0
 10
1933.408843161742
 20
962.6286955964204
 30
0.0
 10
1932.468042110153
 20
962.0975701025061
 30
0.0
 10
1931.976046467966
 20
961.8705031957766
 30
0.0
 10
1930.947110788015
 20
961.4964880647015
 30
0.0
 10
1930.42324295041
 20
961.3544113796752
 30
0.0
 10
1929.361346303968
 20
961.1575722276295
 30
0.0
 10
1928.822655617087
 20
961.102655350796
 30
0.0
 10
1927.72928537234
 20
961.0826596718389
 30
0.0
 10
1927.186025587172
 20
961.1173055965643
 30
0.0
 10
1926.651288048725
 20
961.1947064416584
 30
0.0
  0
SPLINE
  5
2AE
330
2A6
100
AcDbEntity
  8
0
  6
Continuous
 62
     7
370
    15
100
AcDbSpline
210
0.0
220
0.0
230
1.0
 70
     8
 71
     3
 72
   224
 73
   220
 74
     0
 42
0.0000000001
 43
0.0000000001
 40
0.0
 40
0.0
 40
0.0
 40
0.0
 40
0.0078124999999999
 40
0.0078124999999999
 40
0.0156249999999999
 40
0.0156249999999999
 40
0.0312499999999998
 40
0.0312499999999998
 40
0.0390624999999997
 40
0.0390624999999997
 40
0.0429687499999997
 40
0.0429687499999997
 40
0.0468749999999997
 40
0.0468749999999997
 40
0.0624999999999996
 40
0.0624999999999996
 40
0.0781249999999994
 40
0.0781249999999994
 40
0.0820312499999995
 40
0.0820312499999995
 40
0.0859374999999994
 40
0.0859374999999994
 40
0.0937499999999994
 40
0.0937499999999994
 40
0.1093749999999993
 40
0.1093749999999993
 40
0.1171874999999992
 40
0.1171874999999992
 40
0.1249999999999992
 40
0.1249999999999992
 40
0.1406249999999991
 40
0.1406249999999991
 40
0.1484374999999991
 40
0.1484374999999991
 40
0.152343749999999
 40
0.152343749999999
 40
0.156249999999999
 40
0.156249999999999
 40
0.171874999999999
 40
0.171874999999999
 40
0.1874999999999989
 40
0.1874999999999989
 40
0.1914062499999989
 40
0.1914062499999989
 40
0.1953124999999989
 40
0.1953124999999989
 40
0.2031249999999989
 40
0.2031249999999989
 40
0.2187499999999988
 40
0.2187499999999988
 40
0.2265624999999988
 40
0.2265624999999988
 40
0.2343749999999988
 40
0.2343749999999988
 40
0.2499999999999987
 40
0.2499999999999987
 40
0.2656249999999987
 40
0.2656249999999987
 40
0.2695312499999986
 40
0.2695312499999986
 40
0.2734374999999986
 40
0.2734374999999986
 40
0.2812499999999986
 40
0.2812499999999986
 40
0.2968749999999986
 40
0.2968749999999986
 40
0.3046874999999986
 40
0.3046874999999986
 40
0.3124999999999986
 40
0.3124999999999986
 40
0.3281249999999985
 40
0.3281249999999985
 40
0.3359374999999985
 40
0.3359374999999985
 40
0.3398437499999984
 40
0.3398437499999984
 40
0.3437499999999984
 40
0.3437499999999984
 40
0.3593749999999984
 40
0.3593749999999984
 40
0.3749999999999983
 40
0.3749999999999983
 40
0.3789062499999983
 40
0.3789062499999983
 40
0.3828124999999983
 40
0.3828124999999983
 40
0.3906249999999983
 40
0.3906249999999983
 40
0.4062499999999984
 40
0.4062499999999984
 40
0.4140624999999984
 40
0.4140624999999984
 40
0.4218749999999984
 40
0.4218749999999984
 40
0.4374999999999984
 40
0.4374999999999984
 40
0.4531249999999984
 40
0.4531249999999984
 40
0.4570312499999984
 40
0.4570312499999984
 40
0.4609374999999984
 40
0.4609374999999984
 40
0.4687499999999984
 40
0.4687499999999984
 40
0.4843749999999984
 40
0.4843749999999984
 40
0.4921874999999984
 40
0.4921874999999984
 40
0.4960937499999984
 40
0.4960937499999984
 40
0.4999999999999984
 40
0.4999999999999984
 40
0.5156249999999984
 40
0.5156249999999984
 40
0.5234374999999984
 40
0.5234374999999984
 40
0.5312499999999986
 40
0.5312499999999986
 40
0.5468749999999986
 40
0.5468749999999986
 40
0.5624999999999986
 40
0.5624999999999986
 40
0.5664062499999986
 40
0.5664062499999986
 40
0.5703124999999984
 40
0.5703124999999984
 40
0.5781249999999986
 40
0.5781249999999986
 40
0.5937499999999986
 40
0.5937499999999986
 40
0.6015624999999986
 40
0.6015624999999986
 40
0.6093749999999987
 40
0.6093749999999987
 40
0.6249999999999987
 40
0.6249999999999987
 40
0.6406249999999987
 40
0.6406249999999987
 40
0.6445312499999987
 40
0.6445312499999987
 40
0.6484374999999986
 40
0.6484374999999986
 40
0.6562499999999987
 40
0.6562499999999987
 40
0.6718749999999987
 40
0.6718749999999987
 40
0.6796874999999987
 40
0.6796874999999987
 40
0.6835937499999987
 40
0.6835937499999987
 40
0.6874999999999987
 40
0.6874999999999987
 40
0.7031249999999987
 40
0.7031249999999987
 40
0.7187499999999987
 40
0.7187499999999987
 40
0.7265624999999987
 40
0.7265624999999987
 40
0.7343749999999988
 40
0.7343749999999988
 40
0.7499999999999988
 40
0.7499999999999988
 40
0.7539062499999988
 40
0.7539062499999988
 40
0.7578124999999987
 40
0.7578124999999987
 40
0.7656249999999988
 40
0.7656249999999988
 40
0.781249999999999
 40
0.781249999999999
 40
0.789062499999999
 40
0.789062499999999
 40
0.792968749999999
 40
0.792968749999999
 40
0.796874999999999
 40
0.796874999999999
 40
0.8124999999999989
 40
0.8124999999999989
 40
0.8281249999999991
 40
0.8281249999999991
 40
0.8359374999999991
 40
0.8359374999999991
 40
0.8437499999999992
 40
0.8437499999999992
 40
0.8593749999999992
 40
0.8593749999999992
 40
0.8671874999999992
 40
0.8671874999999992
 40
0.8710937499999992
 40
0.8710937499999992
 40
0.8749999999999992
 40
0.8749999999999992
 40
0.8906249999999994
 40
0.8906249999999994
 40
0.9062499999999996
 40
0.9062499999999996
 40
0.9101562499999996
 40
0.9101562499999996
 40
0.9140624999999994
 40
0.9140624999999994
 40
0.9218749999999996
 40
0.9218749999999996
 40
0.9374999999999996
 40
0.9374999999999996
 40
0.9414062499999998
 40
0.9414062499999998
 40
0.9453124999999998
 40
0.9453124999999998
 40
0.9531249999999998
 40
0.9531249999999998
 40
0.96875
 40
0.96875
 40
0.9765625
 40
0.9765625
 40
0.98046875
 40
0.98046875
 40
0.984375
 40
0.984375
 40
1.0
 40
1.0
 40
1.0
 40
1.0
 10
1920.958019357104
 20
964.8496899773801
 30
0.0
 10
1921.291648296907
 20
964.4520194251841
 30
0.0
 10
1921.649440073356
 20
964.089121227707
 30
0.0
 10
1922.433194497069
 20
963.4119210312396
 30
0.0
 10
1922.857676689783
 20
963.1006281954427
 30
0.0
 10
1924.208536170029
 20
962.2728379733388
 30
0.0
 10
1925.213461164592
 20
961.8659891910285
 30
0.0
 10
1926.757593343258
 20
961.5206713016206
 30
0.0
 10
1927.278032696536
 20
961.4488779440337
 30
0.0
 10
1928.051635876662
 20
961.4043462757779
 30
0.0
 10
1928.307027180087
 20
961.3999206785928
 30
0.0
 10
1928.82026103594
 20
961.4113894330044
 30
0.0
 10
1929.078575364769
 20
961.427424780467
 30
0.0
 10
1930.372428566259
 20
961.5608079523202
 30
0.0
 10
1931.414717125465
 20
961.8421631364739
 30
0.0
 10
1933.344962150942
 20
962.7301824088448
 30
0.0
 10
1934.23029388884
 20
963.3353917087529
 30
0.0
 10
1935.163621032433
 20
964.2182141829215
 30
0.0
 10
1935.341860759635
 20
964.4007588810968
 30
0.0
 10
1935.687336184742
 20
964.7841802042924
 30
0.0
 10
1935.853566479536
 20
964.9841616655637
 30
0.0
 10
1936.329469637307
 20
965.606790703946
 30
0.0
 10
1936.616199401832
 20
966.0522834350027
 30
0.0
 10
1937.362970613913
 20
967.4565179849631
 30
0.0
 10
1937.705915826434
 20
968.4835851088294
 30
0.0
 10
1937.95550088475
 20
970.0361853063311
 30
0.0
 10
1937.995453685099
 20
970.555111943746
 30
0.0
 10
1937.993678044134
 20
971.5777663133264
 30
0.0
 10
1937.951865872279
 20
972.0971879173275
 30
0.0
 10
1937.696647577478
 20
973.6495321591805
 30
0.0
 10
1937.349885722992
 20
974.6754634876849
 30
0.0
 10
1936.598195627209
 20
976.0767528914735
 30
0.0
 10
1936.309959583388
 20
976.5210654454957
 30
0.0
 10
1935.832073554762
 20
977.1417122430817
 30
0.0
 10
1935.665228002771
 20
977.3409979453472
 30
0.0
 10
1935.318621067471
 20
977.7229746193615
 30
0.0
 10
1935.139846275165
 20
977.9048087877008
 30
0.0
 10
1934.20284180012
 20
978.7849310392948
 30
0.0
 10
1933.314975483443
 20
979.3871435811746
 30
0.0
 10
1931.381410940691
 20
980.2682507506519
 30
0.0
 10
1930.33835325993
 20
980.545718311804
 30
0.0
 10
1929.044708531018
 20
980.67446247061
 30
0.0
 10
1928.786491937596
 20
980.6895808985778
 30
0.0
 10
1928.273557886217
 20
980.6992541658983
 30
0.0
 10
1928.0179351182
 20
980.6939428543213
 30
0.0
 10
1927.244036021679
 20
980.6466682170345
 30
0.0
 10
1926.723618127197
 20
980.5729843244506
 30
0.0
 10
1925.18025955846
 20
980.2220281962013
 30
0.0
 10
1924.176826793707
 20
979.8114797735204
 30
0.0
 10
1922.829329755082
 20
978.9790874936372
 30
0.0
 10
1922.406147576187
 20
978.6664159833254
 30
0.0
 10
1921.625225253719
 20
977.9868514693488
 30
0.0
 10
1921.268602486119
 20
977.6226475651849
 30
0.0
 10
1920.271391609962
 20
976.4254676454484
 30
0.0
 10
1919.722332490106
 20
975.4969793144374
 30
0.0
 10
1918.961138428064
 20
973.5128469535133
 30
0.0
 10
1918.749933679367
 20
972.4600578161805
 30
0.0
 10
1918.699055335661
 20
971.1736183034492
 30
0.0
 10
1918.699146964208
 20
970.9187559086503
 30
0.0
 10
1918.71987638706
 20
970.4041281686221
 30
0.0
 10
1918.740635036424
 20
970.1453875941934
 30
0.0
 10
1918.834984012313
 20
969.3686654267649
 30
0.0
 10
1918.940869929946
 20
968.8501730533161
 30
0.0
 10
1919.387080578603
 20
967.3246185360911
 30
0.0
 10
1919.859030937967
 20
966.3495869302899
 30
0.0
 10
1920.766335427956
 20
965.0625674001712
 30
0.0
 10
1921.101169232988
 20
964.6623905656019
 30
0.0
 10
1921.818231986577
 20
963.930948695563
 30
0.0
 10
1922.209025903293
 20
963.5905097915161
 30
0.0
 10
1923.474326284908
 20
962.6594179565556
 30
0.0
 10
1924.438529785343
 20
962.1674642135062
 30
0.0
 10
1925.956112014497
 20
961.6894899805725
 30
0.0
 10
1926.473287125036
 20
961.5727532005731
 30
0.0
 10
1927.250006537789
 20
961.4623886957991
 30
0.0
 10
1927.50907218834
 20
961.4363346969586
 30
0.0
 10
1928.024964559246
 20
961.4051998386452
 30
0.0
 10
1928.280535604428
 20
961.4000734456439
 30
0.0
 10
1929.563028912027
 20
961.4251920063326
 30
0.0
 10
1930.617685087433
 20
961.614055170666
 30
0.0
 10
1932.61632834407
 20
962.3339227085613
 30
0.0
 10
1933.557412454694
 20
962.8641727145023
 30
0.0
 10
1934.574641676353
 20
963.6772860350477
 30
0.0
 10
1934.770317022321
 20
963.8472213554777
 30
0.0
 10
1935.144812413276
 20
964.1994962202838
 30
0.0
 10
1935.323473253666
 20
964.3814760423769
 30
0.0
 10
1935.843030774939
 20
964.9548935292003
 30
0.0
 10
1936.163425133695
 20
965.3705264074019
 30
0.0
 10
1937.021715719582
 20
966.698374920711
 30
0.0
 10
1937.453234574315
 20
967.6928917636091
 30
0.0
 10
1937.836360112351
 20
969.2312431318827
 30
0.0
 10
1937.920863510913
 20
969.7513431727299
 30
0.0
 10
1938.004885333624
 20
970.7850977349457
 30
0.0
 10
1938.005394939598
 20
971.2946237600037
 30
0.0
 10
1937.882585632749
 20
972.8450093746211
 30
0.0
 10
1937.627373271214
 20
973.8920430930313
 30
0.0
 10
1936.786098117899
 20
975.8438538902593
 30
0.0
 10
1936.201300355833
 20
976.7459066925232
 30
0.0
 10
1935.337020098877
 20
977.7037077867422
 30
0.0
 10
1935.158671152279
 20
977.8861017845068
 30
0.0
 10
1934.785033195539
 20
978.2390062529962
 30
0.0
 10
1934.589772396376
 20
978.4092856308541
 30
0.0
 10
1933.980621019077
 20
978.8982677391917
 30
0.0
 10
1933.543192798445
 20
979.1949698122904
 30
0.0
 10
1932.159216430578
 20
979.9744217943352
 30
0.0
 10
1931.140181585558
 20
980.3428732327569
 30
0.0
 10
1929.589880935646
 20
980.6303034423491
 30
0.0
 10
1929.069803596687
 20
980.6827850049948
 30
0.0
 10
1928.300045469124
 20
980.6994260755709
 30
0.0
 10
1928.044609349251
 20
980.6948159741958
 30
0.0
 10
1927.528831975495
 20
980.6647470676635
 30
0.0
 10
1927.269792207099
 20
980.6392349599017
 30
0.0
 10
1925.975222152878
 20
980.4580226094749
 30
0.0
 10
1924.942078000466
 20
980.1369798182633
 30
0.0
 10
1923.521519069806
 20
979.4186301722447
 30
0.0
 10
1923.069431755414
 20
979.1406395002885
 30
0.0
 10
1922.224400954707
 20
978.521506926539
 30
0.0
 10
1921.832536775118
 20
978.1815119116446
 30
0.0
 10
1920.755144886111
 20
977.0869632970764
 30
0.0
 10
1920.133120503321
 20
976.2163923050744
 30
0.0
 10
1919.205984266217
 20
974.3058150757592
 30
0.0
 10
1918.902481506582
 20
973.2683368237292
 30
0.0
 10
1918.742514494492
 20
971.9737632205331
 30
0.0
 10
1918.721217099454
 20
971.7149822132043
 30
0.0
 10
1918.699430155162
 20
971.2002114460936
 30
0.0
 10
1918.698826258575
 20
970.9453393821357
 30
0.0
 10
1918.727769060541
 20
970.1736966375268
 30
0.0
 10
1918.788788447545
 20
969.6533285545282
 30
0.0
 10
1919.10187699651
 20
968.105364561725
 30
0.0
 10
1919.487440368746
 20
967.0923117356601
 30
0.0
 10
1920.288563255081
 20
965.7226977296748
 30
0.0
 10
1920.5918309078
 20
965.2909172667815
 30
0.0
 10
1921.255201955158
 20
964.491182448356
 30
0.0
 10
1921.611155166948
 20
964.1262047247606
 30
0.0
 10
1922.780055404926
 20
963.1048024007474
 30
0.0
 10
1923.693033235496
 20
962.5342162757597
 30
0.0
 10
1925.658483796157
 20
961.7250423856619
 30
0.0
 10
1926.708173890517
 20
961.4875866414909
 30
0.0
 10
1927.998282294394
 20
961.406127662083
 30
0.0
 10
1928.254059287607
 20
961.4002988177341
 30
0.0
 10
1928.766814388221
 20
961.4089270115439
 30
0.0
 10
1929.024971821371
 20
961.4235115687701
 30
0.0
 10
1929.801078990542
 20
961.499136887792
 30
0.0
 10
1930.320687179769
 20
961.5922695638396
 30
0.0
 10
1931.854338056735
 20
962.000932663169
 30
0.0
 10
1932.84128802258
 20
962.448930019738
 30
0.0
 10
1934.152976081455
 20
963.3273450761487
 30
0.0
 10
1934.562456254295
 20
963.6536970570851
 30
0.0
 10
1935.125942136452
 20
964.1808199573821
 30
0.0
 10
1935.305042111335
 20
964.3622539995757
 30
0.0
 10
1935.652304642478
 20
964.743386434098
 30
0.0
 10
1935.819506905731
 20
964.9422653269006
 30
0.0
 10
1936.617900844433
 20
965.9747438288325
 30
0.0
 10
1937.132874980645
 20
966.9254418398638
 30
0.0
 10
1937.819562851778
 20
968.9347106166533
 30
0.0
 10
1937.990664119893
 20
969.9903491362245
 30
0.0
 10
1937.996436194191
 20
971.5249357182274
 30
0.0
 10
1937.957563383028
 20
972.043381539226
 30
0.0
 10
1937.793361808193
 20
973.0785385052547
 30
0.0
 10
1937.668000189667
 20
973.5944228997469
 30
0.0
 10
1937.164899103188
 20
975.1049529600173
 30
0.0
 10
1936.657293224807
 20
976.060099391303
 30
0.0
 10
1935.866056878307
 20
977.0997331892335
 30
0.0
 10
1935.700187156456
 20
977.3001189711804
 30
0.0
 10
1935.35537528359
 20
977.6843802570411
 30
0.0
 10
1935.177434282362
 20
977.8673532941123
 30
0.0
 10
1934.618727065298
 20
978.3979851289162
 30
0.0
 10
1934.212220796347
 20
978.7271150987145
 30
0.0
 10
1932.90838864605
 20
979.6149601708291
 30
0.0
 10
1931.925187785268
 20
980.0707366903816
 30
0.0
 10
1930.393998736425
 20
980.4915375340247
 30
0.0
 10
1929.87469969092
 20
980.5887842501309
 30
0.0
 10
1929.098321623017
 20
980.6704379407824
 30
0.0
 10
1928.839952515978
 20
980.687008384743
 30
0.0
 10
1928.326548099734
 20
980.6995252896435
 30
0.0
 10
1928.071272412146
 20
980.6956149086563
 30
0.0
 10
1926.782232160775
 20
980.6240572454958
 30
0.0
 10
1925.731435018443
 20
980.3950687533108
 30
0.0
 10
1923.759765737662
 20
979.6013026456387
 30
0.0
 10
1922.841701382752
 20
979.0375925833092
 30
0.0
 10
1921.663600409466
 20
978.0238713199542
 30
0.0
 10
1921.305115212339
 20
977.6617216412756
 30
0.0
 10
1920.636436523777
 20
976.8680052963203
 30
0.0
 10
1920.330096453198
 20
976.438965926745
 30
0.0
 10
1919.518787963304
 20
975.0763708840407
 30
0.0
 10
1919.125124935261
 20
974.0663199211258
 30
0.0
 10
1918.799813877449
 20
972.5196911396862
 30
0.0
 10
1918.73471515356
 20
971.9992573146827
 30
0.0
 10
1918.699878545223
 20
971.2268174619575
 30
0.0
 10
1918.698578927786
 20
970.9719094729107
 30
0.0
 10
1918.716441814688
 20
970.4576860193897
 30
0.0
 10
1918.735739480339
 20
970.1990635111512
 30
0.0
 10
1918.885611618924
 20
968.9046684726795
 30
0.0
 10
1919.180730288995
 20
967.8652830207422
 30
0.0
 10
1920.093110840502
 20
965.9471084475372
 30
0.0
 10
1920.708821292674
 20
965.0708852529275
 30
0.0
 10
1921.601043698917
 20
964.1506838742557
 30
0.0
 10
1921.78635823891
 20
963.9741142756696
 30
0.0
 10
1922.174865081427
 20
963.6327211517702
 30
0.0
 10
1922.377292029242
 20
963.4687065157633
 30
0.0
 10
1923.006876404108
 20
962.999931482224
 30
0.0
 10
1923.456493218753
 20
962.7186007848367
 30
0.0
 10
1924.870963703242
 20
961.9894117076409
 30
0.0
 10
1925.901886337259
 20
961.6600456497932
 30
0.0
 10
1927.19627344723
 20
961.4686909226438
 30
0.0
 10
1927.455400971803
 20
961.4411637945053
 30
0.0
 10
1927.97158938254
 20
961.4071298467814
 30
0.0
 10
1928.22759851543
 20
961.4005966706592
 30
0.0
 10
1928.996359324689
 20
961.4114133088639
 30
0.0
 10
1929.516225901204
 20
961.4598414936228
 30
0.0
 10
1931.067418052785
 20
961.7350535391752
 30
0.0
 10
1932.089149219877
 20
962.0953050352577
 30
0.0
 10
1933.479786882268
 20
962.8642998118957
 30
0.0
 10
1933.91985349173
 20
963.1578200747789
 30
0.0
 10
1934.533397184761
 20
963.6426417459178
 30
0.0
 10
1934.73019390885
 20
963.8116354772929
 30
0.0
 10
1935.107010324793
 20
964.1621856824746
 30
0.0
 10
1935.286567618604
 20
964.3430928853977
 30
0.0
 10
1936.156937531788
 20
965.2930521001385
 30
0.0
 10
1936.748396692388
 20
966.1897854424861
 30
0.0
 10
1937.176619267412
 20
967.1623040033495
 30
0.0
  0
SPLINE
  5
2AF
330
2A6
100
AcDbEntity
  8
0
  6
Continuous
 62
     7
370
    15
100
AcDbSpline
210
0.0
220
0.0
230
1.0
 70
     8
 71
     3
 72
    28
 73
    24
 74
     0
 42
0.0000000001
 43
0.0000000001
 40
0.0
 40
0.0
 40
0.0
 40
0.0
 40
0.125
 40
0.125
 40
0.1875
 40
0.1875
 40
0.2499999999999999
 40
0.2499999999999999
 40
0.3749999999999997
 40
0.3749999999999997
 40
0.4374999999999998
 40
0.4374999999999998
 40
0.4999999999999997
 40
0.4999999999999997
 40
0.6249999999999997
 40
0.6249999999999997
 40
0.6874999999999997
 40
0.6874999999999997
 40
0.7499999999999997
 40
0.7499999999999997
 40
0.8749999999999998
 40
0.8749999999999998
 40
1.0
 40
1.0
 40
1.0
 40
1.0
 10
1933.927580114338
 20
978.9188498667744
 30
0.0
 10
1934.368074275825
 20
978.5877982381858
 30
0.0
 10
1934.781645080824
 20
978.2236641808651
 30
0.0
 10
1935.354031697612
 20
977.62977599179
 30
0.0
 10
1935.537239730297
 20
977.4231759686871
 30
0.0
 10
1935.883211387053
 20
976.9989436669698
 30
0.0
 10
1936.046604862536
 20
976.780718762985
 30
0.0
 10
1936.50845781521
 20
976.108004103386
 30
0.0
 10
1936.778781990211
 20
975.6355967818622
 30
0.0
 10
1937.126317913282
 20
974.890080952449
 30
0.0
 10
1937.232527127239
 20
974.6348737882852
 30
0.0
 10
1937.421506396807
 20
974.1213833928476
 30
0.0
 10
1937.504848110798
 20
973.861996359316
 30
0.0
 10
1937.722046074062
 20
973.0760558693674
 30
0.0
 10
1937.823301339346
 20
972.5417766272519
 30
0.0
 10
1937.908249945748
 20
971.7244956664082
 30
0.0
 10
1937.925302997735
 20
971.448704438346
 30
0.0
 10
1937.936091604819
 20
970.8991167992829
 30
0.0
 10
1937.929987639918
 20
970.6245538994414
 30
0.0
 10
1937.877512956788
 20
969.8015512910924
 30
0.0
 10
1937.796667031712
 20
969.2562309841658
 30
0.0
 10
1937.550171968934
 20
968.1933130688989
 30
0.0
 10
1937.38419443431
 20
967.6725851878462
 30
0.0
 10
1937.176619267411
 20
967.1623040033479
 30
0.0
  0
LINE
  5
2B0
330
2A6
100
AcDbEntity
  8
0
  6
Continuous
 62
     7
370
    15
100
AcDbLine
 10
1942.817776321233
 20
971.9875411120584
 30
0.0
 11
1936.3951600319
 21
983.1118388427018
 31
0.0
  0
LINE
  5
2B1
330
2A6
100
AcDbEntity
  8
0
  6
Continuous
 62
     7
370
    15
100
AcDbLine
 10
1936.3951600319
 20
958.9875411120585
 30
0.0
 11
1942.817776321233
 21
970.1118388427019
 31
0.0
  0
ARC
  5
2B2
330
2A6
100
AcDbEntity
  8
0
  6
Continuous
 62
     7
370
    15
100
AcDbCircle
 10
1928.348137927369
 20
971.0496899773801
 30
0.0
 40
14.50000000000002
100
AcDbArc
 50
116.2915552747281
 51
123.7084447252669
  0
ARC
  5
2B3
330
2A6
100
AcDbEntity
  8
0
  6
Continuous
 62
     7
370
    15
100
AcDbCircle
 10
1928.348137927369
 20
971.0496899773801
 30
0.0
 40
14.5
100
AcDbArc
 50
176.2915552747293
 51
183.7084447252706
  0
ARC
  5
2B4
330
2A6
100
AcDbEntity
  8
0
  6
Continuous
 62
     7
370
    15
100
AcDbCircle
 10
1928.348137927369
 20
971.0496899773801
 30
0.0
 40
14.50000000000002
100
AcDbArc
 50
236.2915552747331
 51
243.7084447252719
  0
ARC
  5
2B5
330
2A6
100
AcDbEntity
  8
0
  6
Continuous
 62
     7
370
    15
100
AcDbCircle
 10
1928.348137927369
 20
971.0496899773801
 30
0.0
 40
14.50000000000001
100
AcDbArc
 50
296.2915552747281
 51
303.7084447252778
  0
ARC
  5
2B6
330
2A6
100
AcDbEntity
  8
0
  6
Continuous
 62
     7
370
    15
100
AcDbCircle
 10
1928.348137927369
 20
971.0496899773801
 30
0.0
 40
14.49999999999997
100
AcDbArc
 50
356.2915552747294
 51
3.708444725270627
  0
ARC
  5
2B7
330
2A6
100
AcDbEntity
  8
0
  6
Continuous
 62
     7
370
    15
100
AcDbCircle
 10
1928.348137927369
 20
971.0496899773801
 30
0.0
 40
14.50000000000002
100
AcDbArc
 50
56.29155527473304
 51
63.70844472527189
  0
LINE
  5
2B8
330
2A6
100
AcDbEntity
  8
0
  6
Continuous
 62
     7
370
    15
100
AcDbLine
 10
1934.770754216702
 20
984.0496899773802
 30
0.0
 11
1921.925521638036
 21
984.0496899773802
 31
0.0
  0
LINE
  5
2B9
330
2A6
100
AcDbEntity
  8
0
  6
Continuous
 62
     7
370
    15
100
AcDbLine
 10
1920.301115822837
 20
983.1118388427018
 30
0.0
 11
1913.878499533505
 21
971.9875411120584
 31
0.0
  0
LINE
  5
2BA
330
2A6
100
AcDbEntity
  8
0
  6
Continuous
 62
     7
370
    15
100
AcDbLine
 10
1913.878499533505
 20
970.1118388427019
 30
0.0
 11
1920.301115822837
 21
958.9875411120583
 31
0.0
  0
LINE
  5
2BB
330
2A6
100
AcDbEntity
  8
0
  6
Continuous
 62
     7
370
    15
100
AcDbLine
 10
1921.925521638036
 20
958.0496899773802
 30
0.0
 11
1934.770754216702
 21
958.0496899773802
 31
0.0
  0
SPLINE
  5
2BC
330
2A6
100
AcDbEntity
  8
0
  6
Continuous
 62
     7
370
    15
100
AcDbSpline
210
0.0
220
0.0
230
1.0
 70
     8
 71
     3
 72
    22
 73
    18
 74
     0
 42
0.0000000001
 43
0.0000000001
 40
0.0
 40
0.0
 40
0.0
 40
0.0
 40
0.125
 40
0.125
 40
0.2499999999999999
 40
0.2499999999999999
 40
0.3749999999999998
 40
0.3749999999999998
 40
0.4999999999999999
 40
0.4999999999999999
 40
0.6249999999999999
 40
0.6249999999999999
 40
0.75
 40
0.75
 40
0.8749999999999998
 40
0.8749999999999998
 40
1.0
 40
1.0
 40
1.0
 40
1.0
 10
1921.92002376376
 20
978.7099346405495
 30
0.0
 10
1922.339888277742
 20
979.043939795483
 30
0.0
 10
1922.784542532334
 20
979.3423849104925
 30
0.0
 10
1923.723869904441
 20
979.8675247825572
 30
0.0
 10
1924.221660252602
 20
980.0945755750218
 30
0.0
 10
1925.232713605582
 20
980.4593802160125
 30
0.0
 10
1925.749750934911
 20
980.5997816850062
 30
0.0
 10
1926.806872849313
 20
980.7964882316255
 30
0.0
 10
1927.351191426171
 20
980.8523480000401
 30
0.0
 10
1928.426812797622
 20
980.8743774925364
 30
0.0
 10
1928.96149165905
 20
980.8417406541193
 30
0.0
 10
1930.024451145014
 20
980.6872879069622
 30
0.0
 10
1930.557458276712
 20
980.5638529393597
 30
0.0
 10
1931.58292153249
 20
980.2338640369491
 30
0.0
 10
1932.077657804133
 20
980.0278732326697
 30
0.0
 10
1933.031484767278
 20
979.5346851856827
 30
0.0
 10
1933.492977957318
 20
979.245473382927
 30
0.0
 10
1933.927580114338
 20
978.9188498667744
 30
0.0
  0
ARC
  5
2BD
330
2A6
100
AcDbEntity
  8
0
  6
Continuous
 62
     7
370
    15
100
AcDbCircle
 10
1928.348137927369
 20
971.0496899773801
 30
0.0
 40
10.00000000000001
100
AcDbArc
 50
130.0017806274334
 51
260.2304959032393
  0
ARC
  5
2BE
330
2A6
100
AcDbEntity
  8
0
  6
Continuous
 62
     7
370
    15
100
AcDbCircle
 10
1928.348137927369
 20
971.0496899773801
 30
0.0
 40
14.49999999999999
100
AcDbArc
 50
3.708444725270627
 51
56.29155527473304
  0
ARC
  5
2BF
330
2A6
100
AcDbEntity
  8
0
  6
Continuous
 62
     7
370
    15
100
AcDbCircle
 10
1928.348137927369
 20
971.0496899773801
 30
0.0
 40
14.50000000000001
100
AcDbArc
 50
243.7084447252719
 51
296.2915552747281
  0
ARC
  5
2C0
330
2A6
100
AcDbEntity
  8
0
  6
Continuous
 62
     7
370
    15
100
AcDbCircle
 10
1928.348137927369
 20
971.0496899773801
 30
0.0
 40
14.50000000000002
100
AcDbArc
 50
63.70844472527189
 51
116.2915552747281
  0
ARC
  5
2C1
330
2A6
100
AcDbEntity
  8
0
  6
Continuous
 62
     7
370
    15
100
AcDbCircle
 10
1928.348137927369
 20
971.0496899773801
 30
0.0
 40
14.50000000000002
100
AcDbArc
 50
183.7084447252706
 51
236.2915552747331
  0
ARC
  5
2C2
330
2A6
100
AcDbEntity
  8
0
  6
Continuous
 62
     7
370
    15
100
AcDbCircle
 10
1928.348137927369
 20
971.0496899773801
 30
0.0
 40
14.49999999999999
100
AcDbArc
 50
303.7084447252778
 51
356.2915552747294
  0
ARC
  5
2C3
330
2A6
100
AcDbEntity
  8
0
  6
Continuous
 62
     7
370
    15
100
AcDbCircle
 10
1928.348137927369
 20
971.0496899773801
 30
0.0
 40
14.50000000000001
100
AcDbArc
 50
123.7084447252669
 51
176.2915552747293
  0
INSERT
  5
2C4
330
2A6
100
AcDbEntity
  8
0
  6
Continuous
 62
     7
370
     0
100
AcDbBlockReference
  2
SW_CENTERMARKSYMBOL_0
 10
1928.348137927369
 20
971.0496899773801
 30
0.0
  0
ENDBLK
  5
2A8
330
2A6
100
AcDbEntity
  8
0
100
AcDbBlockEnd
  0
BLOCK
  5
2C7
330
2C6
100
AcDbEntity
  8
0
100
AcDbBlockBegin
  2
2
 70
     0
 10
0.0
 20
0.0
 30
0.0
  3
2
  1

  0
LINE
  5
2C9
330
2C6
100
AcDbEntity
  8
0
  6
Continuous
 62
     7
370
    15
100
AcDbLine
 10
1942.848137927369
 20
933.5179424690746
 30
0.0
 11
1942.848137927369
 21
938.5179424690745
 31
0.0
  0
LINE
  5
2CA
330
2C6
100
AcDbEntity
  8
0
  6
Continuous
 62
     7
370
    15
100
AcDbLine
 10
1913.848137927369
 20
938.5179424690745
 30
0.0
 11
1913.848137927369
 21
933.5179424690746
 31
0.0
  0
LINE
  5
2CB
330
2C6
100
AcDbEntity
  8
0
  6
Continuous
 62
     7
370
    15
100
AcDbLine
 10
1942.848137927369
 20
938.5179424690745
 30
0.0
 11
1913.848137927369
 21
938.5179424690745
 31
0.0
  0
LINE
  5
2CC
330
2C6
100
AcDbEntity
  8
0
  6
Continuous
 62
     7
370
    15
100
AcDbLine
 10
1920.301115822837
 20
933.5179424690746
 30
0.0
 11
1921.925521638036
 21
933.5179424690746
 31
0.0
  0
LINE
  5
2CD
330
2C6
100
AcDbEntity
  8
0
  6
Continuous
 62
     7
370
    15
100
AcDbLine
 10
1920.301115822837
 20
937.7679424690745
 30
0.0
 11
1920.301115822837
 21
933.5179424690746
 31
0.0
  0
LINE
  5
2CE
330
2C6
100
AcDbEntity
  8
0
  6
Continuous
 62
     7
370
    15
100
AcDbLine
 10
1913.878499533505
 20
937.7679424690745
 30
0.0
 11
1920.301115822837
 21
937.7679424690745
 31
0.0
  0
LINE
  5
2CF
330
2C6
100
AcDbEntity
  8
0
  6
Continuous
 62
     7
370
    15
100
AcDbLine
 10
1913.878499533505
 20
933.5179424690746
 30
0.0
 11
1913.878499533505
 21
937.7679424690745
 31
0.0
  0
LINE
  5
2D0
330
2C6
100
AcDbEntity
  8
0
  6
Continuous
 62
     7
370
    15
100
AcDbLine
 10
1913.848137927369
 20
933.5179424690746
 30
0.0
 11
1913.878499533505
 21
933.5179424690746
 31
0.0
  0
LINE
  5
2D1
330
2C6
100
AcDbEntity
  8
0
  6
Continuous
 62
     7
370
    15
100
AcDbLine
 10
1942.817776321233
 20
933.5179424690746
 30
0.0
 11
1942.848137927369
 21
933.5179424690746
 31
0.0
  0
LINE
  5
2D2
330
2C6
100
AcDbEntity
  8
0
  6
Continuous
 62
     7
370
    15
100
AcDbLine
 10
1942.817776321233
 20
937.7679424690745
 30
0.0
 11
1942.817776321233
 21
933.5179424690746
 31
0.0
  0
LINE
  5
2D3
330
2C6
100
AcDbEntity
  8
0
  6
Continuous
 62
     7
370
    15
100
AcDbLine
 10
1936.3951600319
 20
937.7679424690745
 30
0.0
 11
1942.817776321233
 21
937.7679424690745
 31
0.0
  0
LINE
  5
2D4
330
2C6
100
AcDbEntity
  8
0
  6
Continuous
 62
     7
370
    15
100
AcDbLine
 10
1936.3951600319
 20
933.5179424690746
 30
0.0
 11
1936.3951600319
 21
937.7679424690745
 31
0.0
  0
LINE
  5
2D5
330
2C6
100
AcDbEntity
  8
0
  6
Continuous
 62
     7
370
    15
100
AcDbLine
 10
1934.770754216702
 20
933.5179424690746
 30
0.0
 11
1936.3951600319
 21
933.5179424690746
 31
0.0
  0
LINE
  5
2D6
330
2C6
100
AcDbEntity
  8
0
  6
Continuous
 62
     7
370
    15
100
AcDbLine
 10
1934.770754216702
 20
937.7679424690745
 30
0.0
 11
1934.770754216702
 21
933.5179424690746
 31
0.0
  0
LINE
  5
2D7
330
2C6
100
AcDbEntity
  8
0
  6
Continuous
 62
     7
370
    15
100
AcDbLine
 10
1921.925521638036
 20
937.7679424690745
 30
0.0
 11
1934.770754216702
 21
937.7679424690745
 31
0.0
  0
LINE
  5
2D8
330
2C6
100
AcDbEntity
  8
0
  6
Continuous
 62
     7
370
    15
100
AcDbLine
 10
1921.925521638036
 20
933.5179424690746
 30
0.0
 11
1921.925521638036
 21
937.7679424690745
 31
0.0
  0
LINE
  5
2D9
330
2C6
100
AcDbEntity
  8
0
  6
Continuous
 62
     7
370
    15
100
AcDbLine
 10
1934.770754216702
 20
933.5179424690746
 30
0.0
 11
1921.925521638036
 21
933.5179424690746
 31
0.0
  0
LINE
  5
2DA
330
2C6
100
AcDbEntity
  8
0
  6
Continuous
 62
     7
370
    15
100
AcDbLine
 10
1942.817776321233
 20
933.5179424690746
 30
0.0
 11
1936.3951600319
 21
933.5179424690746
 31
0.0
  0
LINE
  5
2DB
330
2C6
100
AcDbEntity
  8
0
  6
Continuous
 62
     7
370
    15
100
AcDbLine
 10
1920.301115822837
 20
933.5179424690746
 30
0.0
 11
1913.878499533505
 21
933.5179424690746
 31
0.0
  0
ENDBLK
  5
2C8
330
2C6
100
AcDbEntity
  8
0
100
AcDbBlockEnd
  0
BLOCK
  5
2DE
330
2DD
100
AcDbEntity
  8
0
100
AcDbBlockBegin
  2
3
 70
     0
 10
0.0
 20
0.0
 30
0.0
  3
3
  1

  0
LINE
  5
2E0
330
2DD
100
AcDbEntity
  8
0
  6
Continuous
 62
     7
370
    15
100
AcDbLine
 10
1967.691614533802
 20
969.6954563117365
 30
0.0
 11
1967.71063930588
 21
969.0683560698682
 31
0.0
  0
LINE
  5
2E1
330
2DD
100
AcDbEntity
  8
0
  6
Continuous
 62
     7
370
    15
100
AcDbLine
 10
1996.697303068057
 20
969.9477444587532
 30
0.0
 11
1996.678278295979
 21
970.5748447006216
 31
0.0
  0
LINE
  5
2E2
330
2DD
100
AcDbEntity
  8
0
  6
Continuous
 62
     7
370
    15
100
AcDbLine
 10
1975.651339287759
 20
976.8686575086228
 30
0.0
 11
1975.747281563143
 21
976.9183805371964
 31
0.0
  0
SPLINE
  5
2E3
330
2DD
100
AcDbEntity
  8
0
  6
Continuous
 62
     7
370
    15
100
AcDbSpline
210
0.0
220
0.0
230
1.0
 70
     8
 71
     3
 72
    40
 73
    36
 74
     0
 42
0.0000000001
 43
0.0000000001
 40
0.0
 40
0.0
 40
0.0
 40
0.0
 40
0.0058022837932447
 40
0.0358224380490306
 40
0.0695744591631437
 40
0.1038611665719766
 40
0.1442070304036345
 40
0.1792064571351869
 40
0.2087216598371238
 40
0.2294007231840735
 40
0.2460410328673035
 40
0.2597041245255086
 40
0.2752440380236403
 40
0.2932470487253485
 40
0.3137029827835521
 40
0.3502676866301629
 40
0.3907337124996341
 40
0.4351306332349886
 40
0.4728264664696813
 40
0.5119646654087376
 40
0.5468461481151681
 40
0.5776082877690927
 40
0.6043138390381669
 40
0.6278113422008481
 40
0.6489057853173993
 40
0.6675558112552288
 40
0.6870927546510065
 40
0.708928357052684
 40
0.7346612936495426
 40
0.7642919601763384
 40
0.7978007963942595
 40
0.8334585059910713
 40
0.8925898996890614
 40
0.9511483635317189
 40
1.0
 40
1.0
 40
1.0
 40
1.0
 10
1974.985765856476
 20
969.8952412907258
 30
0.0
 10
1974.965933562737
 20
969.9057373017254
 30
0.0
 10
1974.843491927831
 20
969.9705381141624
 30
0.0
 10
1974.619718987123
 20
970.1051563761023
 30
0.0
 10
1974.318111874976
 20
970.3017928871148
 30
0.0
 10
1974.009590308553
 20
970.5300769757998
 30
0.0
 10
1973.724715561196
 20
970.7705247764465
 30
0.0
 10
1973.47998236575
 20
971.0091539616069
 30
0.0
 10
1973.300989545841
 20
971.2082963286301
 30
0.0
 10
1973.173050021953
 20
971.3672953188924
 30
0.0
 10
1973.082682621755
 20
971.4899232776811
 30
0.0
 10
1973.006972632783
 20
971.6007399690123
 30
0.0
 10
1972.934718714704
 20
971.7149826217619
 30
0.0
 10
1972.859186842145
 20
971.8462451997739
 30
0.0
 10
1972.765442654809
 20
972.0295418211543
 30
0.0
 10
1972.664845983778
 20
972.2696348299448
 30
0.0
 10
1972.574780017801
 20
972.572195223354
 30
0.0
 10
1972.523250774637
 20
972.8801678264231
 30
0.0
 10
1972.509904470747
 20
973.1866866400844
 30
0.0
 10
1972.530094083037
 20
973.4699609792317
 30
0.0
 10
1972.578333435102
 20
973.7358045186065
 30
0.0
 10
1972.643842290689
 20
973.9696333171981
 30
0.0
 10
1972.718881614033
 20
974.1738465866815
 30
0.0
 10
1972.798770534463
 20
974.3534077055235
 30
0.0
 10
1972.880656352625
 20
974.5123942315993
 30
0.0
 10
1972.966810824531
 20
974.6612596181034
 30
0.0
 10
1973.063295399999
 20
974.8117603364637
 30
0.0
 10
1973.181808945425
 20
974.9786721681434
 30
0.0
 10
1973.331992898023
 20
975.1684892917078
 30
0.0
 10
1973.522960564508
 20
975.3833772051972
 30
0.0
 10
1973.757810264658
 20
975.617100672115
 30
0.0
 10
1974.092920382081
 20
975.9114952866687
 30
0.0
 10
1974.541366017084
 20
976.2446402548741
 30
0.0
 10
1975.08184610799
 20
976.5833348460441
 30
0.0
 10
1975.473300348971
 20
976.7794579433566
 30
0.0
 10
1975.651339287759
 20
976.8686575086228
 30
0.0
  0
LINE
  5
2E4
330
2DD
100
AcDbEntity
  8
0
  6
Continuous
 62
     7
370
    15
100
AcDbLine
 10
1975.680456967612
 20
975.6881381943143
 30
0.0
 11
1975.783848218702
 21
975.7398125841564
 31
0.0
  0
SPLINE
  5
2E5
330
2DD
100
AcDbEntity
  8
0
  6
Continuous
 62
     7
370
    15
100
AcDbSpline
210
0.0
220
0.0
230
1.0
 70
     8
 71
     3
 72
    24
 73
    20
 74
     0
 42
0.0000000001
 43
0.0000000001
 40
0.0
 40
0.0
 40
0.0
 40
0.0
 40
0.0094853707929921
 40
0.073446477026506
 40
0.1450927800580861
 40
0.2034147031522752
 40
0.2550950123258314
 40
0.2996826197892508
 40
0.3370837913854888
 40
0.3691311166868223
 40
0.4123304523217769
 40
0.4648453696289186
 40
0.5266704481242943
 40
0.5977551487562963
 40
0.6771584277976884
 40
0.7736692059838873
 40
0.8630795410443553
 40
0.9453614580954994
 40
1.0
 40
1.0
 40
1.0
 40
1.0
 10
1972.605128720836
 20
972.4915021764761
 30
0.0
 10
1972.6070600675
 20
972.50265115405
 30
0.0
 10
1972.622014739435
 20
972.5889791577852
 30
0.0
 10
1972.670331940118
 20
972.7596676913355
 30
0.0
 10
1972.750114324387
 20
972.9870264270543
 30
0.0
 10
1972.84576684373
 20
973.1987709638371
 30
0.0
 10
1972.94077973533
 20
973.3780539619072
 30
0.0
 10
1973.033622480902
 20
973.5322808733888
 30
0.0
 10
1973.120594257716
 20
973.6632701771481
 30
0.0
 10
1973.213345096669
 20
973.7925433753654
 30
0.0
 10
1973.326441787087
 20
973.9381506759716
 30
0.0
 10
1973.477913780685
 20
974.1155269084822
 30
0.0
 10
1973.672717108811
 20
974.3207269169255
 30
0.0
 10
1973.917103462947
 20
974.5501844279942
 30
0.0
 10
1974.2289910007
 20
974.8092869679178
 30
0.0
 10
1974.595168135373
 20
975.0746220023243
 30
0.0
 10
1974.997208573325
 20
975.3271026089068
 30
0.0
 10
1975.356608408247
 20
975.5291982034462
 30
0.0
 10
1975.588085358854
 20
975.6428036012524
 30
0.0
 10
1975.680456967612
 20
975.6881381943143
 30
0.0
  0
LINE
  5
2E6
330
2DD
100
AcDbEntity
  8
0
  6
Continuous
 62
     7
370
    15
100
AcDbLine
 10
1975.712369898037
 20
974.5078836248053
 30
0.0
 11
1975.819689798622
 21
974.5608997975045
 31
0.0
  0
SPLINE
  5
2E7
330
2DD
100
AcDbEntity
  8
0
  6
Continuous
 62
     7
370
    15
100
AcDbSpline
210
0.0
220
0.0
230
1.0
 70
     8
 71
     3
 72
    21
 73
    17
 74
     0
 42
0.0000000001
 43
0.0000000001
 40
0.0
 40
0.0
 40
0.0
 40
0.0
 40
0.0096310864178098
 40
0.0508916165477628
 40
0.1009349785214066
 40
0.1621350159366373
 40
0.2345618725099841
 40
0.3101769527135917
 40
0.3950797694903727
 40
0.4891907428156194
 40
0.5872428011234744
 40
0.6784202822723398
 40
0.782160097939206
 40
0.8745357558128947
 40
0.9556279953009985
 40
1.0
 40
1.0
 40
1.0
 40
1.0
 10
1972.831164571036
 20
971.9043279013229
 30
0.0
 10
1972.834988682796
 20
971.9136550262737
 30
0.0
 10
1972.855195668896
 20
971.9629404802603
 30
0.0
 10
1972.904115977852
 20
972.0614026001021
 30
0.0
 10
1972.982600173224
 20
972.2098988207722
 30
0.0
 10
1973.090193660192
 20
972.3878227008462
 30
0.0
 10
1973.228112190546
 20
972.5884734265706
 30
0.0
 10
1973.40086412883
 20
972.8086572701549
 30
0.0
 10
1973.611769023713
 20
973.0448313841828
 30
0.0
 10
1973.867469074865
 20
973.2955596858055
 30
0.0
 10
1974.156610082037
 20
973.5438968096236
 30
0.0
 10
1974.481772527414
 20
973.7904505047392
 30
0.0
 10
1974.825816766494
 20
974.0215146419496
 30
0.0
 10
1975.181205245478
 20
974.232654028035
 30
0.0
 10
1975.473508050036
 20
974.3913782447551
 30
0.0
 10
1975.649964027021
 20
974.4774450270091
 30
0.0
 10
1975.712369898037
 20
974.5078836248053
 30
0.0
  0
SPLINE
  5
2E8
330
2DD
100
AcDbEntity
  8
0
  6
Continuous
 62
     7
370
    15
100
AcDbSpline
210
0.0
220
0.0
230
1.0
 70
     8
 71
     3
 72
    13
 73
     9
 74
     0
 42
0.0000000001
 43
0.0000000001
 40
0.0
 40
0.0
 40
0.0
 40
0.0
 40
0.0310176650584362
 40
0.1842347887031415
 40
0.3662911615961914
 40
0.5770701517763578
 40
0.8161863132375625
 40
1.0
 40
1.0
 40
1.0
 40
1.0
 10
1973.208485388393
 20
971.3255810517051
 30
0.0
 10
1973.218123712927
 20
971.3398875876016
 30
0.0
 10
1973.275372209247
 20
971.4248637330667
 30
0.0
 10
1973.405985291409
 20
971.5909561207208
 30
0.0
 10
1973.617955644808
 20
971.8349118478945
 30
0.0
 10
1973.896716536174
 20
972.1093069297799
 30
0.0
 10
1974.204545355968
 20
972.3769783543486
 30
0.0
 10
1974.441311781862
 20
972.5449342953428
 30
0.0
 10
1974.544215158929
 20
972.6179312731099
 30
0.0
  0
SPLINE
  5
2E9
330
2DD
100
AcDbEntity
  8
0
  6
Continuous
 62
     7
370
    15
100
AcDbSpline
210
0.0
220
0.0
230
1.0
 70
     8
 71
     3
 72
    21
 73
    17
 74
     0
 42
0.0000000001
 43
0.0000000001
 40
0.0
 40
0.0
 40
0.0
 40
0.0
 40
0.0628364861607075
 40
0.139599020961879
 40
0.2272669317987907
 40
0.3246809985360566
 40
0.4077748852425771
 40
0.4975966677138727
 40
0.589207305940499
 40
0.6705182865483815
 40
0.7419999202854029
 40
0.8018489108083812
 40
0.8499222937756218
 40
0.8966111286085951
 40
0.953465412311735
 40
0.9999999999999998
 40
0.9999999999999998
 40
0.9999999999999998
 40
0.9999999999999998
 10
1987.862932969845
 20
974.8521250033046
 30
0.0
 10
1987.958510767354
 20
974.813794228171
 30
0.0
 10
1988.170848658495
 20
974.7286376733043
 30
0.0
 10
1988.526769814704
 20
974.5651177435776
 30
0.0
 10
1988.915196570594
 20
974.3666108955496
 30
0.0
 10
1989.291393721474
 20
974.1503866354481
 30
0.0
 10
1989.646807659504
 20
973.9211104910419
 30
0.0
 10
1989.971697469838
 20
973.686178572554
 30
0.0
 10
1990.269417904254
 20
973.4424646643088
 30
0.0
 10
1990.523267843722
 20
973.2074228163538
 30
0.0
 10
1990.725803641409
 20
972.9970920947431
 30
0.0
 10
1990.882928942289
 20
972.8158944588754
 30
0.0
 10
1991.008533240275
 20
972.6573586825969
 30
0.0
 10
1991.12221204943
 20
972.5006525647966
 30
0.0
 10
1991.226466091615
 20
972.3445409508022
 30
0.0
 10
1991.288109326005
 20
972.2355709684128
 30
0.0
 10
1991.315854502614
 20
972.1865243627902
 30
0.0
  0
SPLINE
  5
2EA
330
2DD
100
AcDbEntity
  8
0
  6
Continuous
 62
     7
370
    15
100
AcDbSpline
210
0.0
220
0.0
230
1.0
 70
     8
 71
     3
 72
    23
 73
    19
 74
     0
 42
0.0000000001
 43
0.0000000001
 40
0.0
 40
0.0
 40
0.0
 40
0.0
 40
0.0106478505279611
 40
0.0268628205720056
 40
0.0634808783418761
 40
0.1136651506037129
 40
0.177209431370373
 40
0.2517944271181041
 40
0.3246367593804431
 40
0.4153821011341688
 40
0.5016007251770971
 40
0.5829546147090216
 40
0.6809013881912019
 40
0.7708568555109303
 40
0.8541947245828064
 40
0.9123739445117873
 40
0.9730845780344409
 40
0.9999999999999998
 40
0.9999999999999998
 40
0.9999999999999998
 40
0.9999999999999998
 10
1987.826744503297
 20
976.0312436501495
 30
0.0
 10
1987.84622742819
 20
976.0234160097603
 30
0.0
 10
1987.895379725569
 20
976.0036681274314
 30
0.0
 10
1988.016753306385
 20
975.9541259485486
 30
0.0
 10
1988.212856200434
 20
975.8704215956475
 30
0.0
 10
1988.49469982657
 20
975.7409134590083
 30
0.0
 10
1988.836030400905
 20
975.5685592409596
 30
0.0
 10
1989.200792548763
 20
975.3625633677327
 30
0.0
 10
1989.587358173127
 20
975.1177874421555
 30
0.0
 10
1989.962407411943
 20
974.8469761669751
 30
0.0
 10
1990.314175830903
 20
974.5524198444272
 30
0.0
 10
1990.639027982863
 20
974.2370809867143
 30
0.0
 10
1990.927299257593
 20
973.9050504929952
 30
0.0
 10
1991.171917199318
 20
973.5603982631705
 30
0.0
 10
1991.343845693226
 20
973.2610267254738
 30
0.0
 10
1991.465450991035
 20
972.9976657179213
 30
0.0
 10
1991.541152269147
 20
972.806672424811
 30
0.0
 10
1991.573200328792
 20
972.6905962832727
 30
0.0
 10
1991.58304428495
 20
972.6549420670441
 30
0.0
  0
SPLINE
  5
2EB
330
2DD
100
AcDbEntity
  8
0
  6
Continuous
 62
     7
370
    15
100
AcDbSpline
210
0.0
220
0.0
230
1.0
 70
     8
 71
     3
 72
    24
 73
    20
 74
     0
 42
0.0000000001
 43
0.0000000001
 40
0.0
 40
0.0
 40
0.0
 40
0.0
 40
0.0292173042686008
 40
0.0717862380354174
 40
0.1235671048387112
 40
0.1837063066122078
 40
0.2438525663837576
 40
0.3398048239465668
 40
0.4318060795982951
 40
0.5196297873426622
 40
0.5852226552255141
 40
0.651393593409564
 40
0.717757999449809
 40
0.7787480412223174
 40
0.8321013824077246
 40
0.8787089130617047
 40
0.9245163161585335
 40
0.970594836005484
 40
0.9999999999999998
 40
0.9999999999999998
 40
0.9999999999999998
 40
0.9999999999999998
 10
1987.819672587402
 20
977.1983373205872
 30
0.0
 10
1987.888591593764
 20
977.1701877908453
 30
0.0
 10
1988.057923991797
 20
977.1010250500236
 30
0.0
 10
1988.346199937153
 20
976.9729336128097
 30
0.0
 10
1988.696164462336
 20
976.8022950992287
 30
0.0
 10
1989.069825480388
 20
976.5975361571191
 30
0.0
 10
1989.511413125433
 20
976.3259185400203
 30
0.0
 10
1989.974459696887
 20
975.9936875763658
 30
0.0
 10
1990.426061054357
 20
975.5995245103886
 30
0.0
 10
1990.771523663641
 20
975.2301551139682
 30
0.0
 10
1991.034304139706
 20
974.8895443267398
 30
0.0
 10
1991.234822561911
 20
974.5759276898526
 30
0.0
 10
1991.394171450864
 20
974.2653344167747
 30
0.0
 10
1991.510776930119
 20
973.9714349815939
 30
0.0
 10
1991.58860243437
 20
973.7072750741342
 30
0.0
 10
1991.638815533994
 20
973.4670855662054
 30
0.0
 10
1991.667313493119
 20
973.2379597471004
 30
0.0
 10
1991.680668548967
 20
973.0367250619089
 30
0.0
 10
1991.673231390476
 20
972.9115636759727
 30
0.0
 10
1991.67033419662
 20
972.8628062373855
 30
0.0
  0
LINE
  5
2EC
330
2DD
100
AcDbEntity
  8
0
  6
Continuous
 62
     7
370
    15
100
AcDbLine
 10
1987.791359454609
 20
977.2100381996979
 30
0.0
 11
1987.819672587402
 21
977.1983373205872
 31
0.0
  0
LWPOLYLINE
  5
2ED
330
2DD
100
AcDbEntity
  8
0
  6
Continuous
 62
     7
370
    15
100
AcDbPolyline
 90
       73
 70
   128
 43
0.0
 10
1967.71063930588
 20
969.0683560698682
 10
1967.719602445836
 20
968.8915626896273
 10
1967.758714430012
 20
968.5414091222591
 10
1967.82610368264
 20
968.1931478003203
 10
1967.921638286093
 20
967.8474604617024
 10
1968.045131226898
 20
967.5050238056046
 10
1968.196340761825
 20
967.166508167862
 10
1968.374970891108
 20
966.8325762087322
 10
1968.580671937882
 20
966.5038816157064
 10
1968.813041232685
 20
966.1810678238863
 10
1969.071623901714
 20
965.8647667564286
 10
1969.355913757249
 20
965.5555975875262
 10
1969.665354288548
 20
965.2541655303462
 10
1969.99933975124
 20
964.9610606522955
 10
1970.357216353097
 20
964.6768567199373
 10
1970.738283533866
 20
964.402110075815
 10
1971.141795336645
 20
964.1373585493873
 10
1971.566961868132
 20
963.8831204041993
 10
1972.012950844874
 20
963.6398933233595
 10
1972.478889222507
 20
963.4081534353006
 10
1972.963864904777
 20
963.1883543817359
 10
1973.466928529009
 20
962.9809264296348
 10
1973.987095324536
 20
962.7862756289539
 10
1974.523347040429
 20
962.6047830177768
 10
1975.074633938771
 20
962.4368038764124
 10
1975.639876849571
 20
962.2826670319184
 10
1976.217969283286
 20
962.1426742144064
 10
1976.80777959683
 20
962.0170994663904
 10
1977.408153208818
 20
961.9061886063368
 10
1978.01791485971
 20
961.8101587474624
 10
1978.63587091244
 20
961.7291978727259
 10
1979.260811689016
 20
961.663464466841
 10
1979.89151383852
 20
961.613087206037
 10
1980.526742731876
 20
961.5781647061673
 10
1981.165254878696
 20
961.5587653296655
 10
1981.805800361467
 20
961.5549270517222
 10
1982.447125282328
 20
961.5666573859467
 10
1983.087974217628
 20
961.5939333696585
 10
1983.727092675484
 20
961.6367016088393
 10
1984.363229551499
 20
961.6948783826519
 10
1984.995139577867
 20
961.7683498073299
 10
1985.621585761036
 20
961.8569720591093
 10
1986.241341803186
 20
961.9605716557702
 10
1986.853194502758
 20
962.0789457962374
 10
1987.455946129363
 20
962.2118627575719
 10
1988.048416768385
 20
962.3590623485803
 10
1988.629446630725
 20
962.5202564191507
 10
1989.197898323144
 20
962.6951294243198
 10
1989.752659074759
 20
962.8833390419687
 10
1990.292642915346
 20
963.0845168429319
 10
1990.816792801181
 20
963.2982690122171
 10
1991.324082684247
 20
963.5241771199147
 10
1991.813519520776
 20
963.7617989402956
 10
1992.284145215177
 20
964.0106693174875
 10
1992.735038495553
 20
964.2703010760401
 10
1993.165316717132
 20
964.5401859745938
 10
1993.574137590091
 20
964.8197957007857
 10
1993.960700828372
 20
965.1085829054464
 10
1994.324249716283
 20
965.4059822740613
 10
1994.664072589804
 20
965.7114116334003
 10
1994.979504229703
 20
966.0242730911498
 10
1995.26992716373
 20
966.3439542063143
 10
1995.534772875355
 20
966.6698291880981
 10
1995.773522916659
 20
967.0012601209219
 10
1995.985709923226
 20
967.3375982131702
 10
1996.170918529026
 20
967.6781850672332
 10
1996.328786179515
 20
968.0223539683499
 10
1996.459003841353
 20
968.3694311897346
 10
1996.561316607354
 20
968.7187373114273
 10
1996.635524195473
 20
969.0695885502913
 10
1996.681481340871
 20
969.4212980985508
 10
1996.699098080278
 20
969.7731774682486
 10
1996.697303068057
 20
969.9477444587532
  0
ARC
  5
2EE
330
2DD
100
AcDbEntity
  8
0
  6
Continuous
 62
     7
370
    15
100
AcDbCircle
 10
1989.893872683199
 20
972.7338734869903
 30
0.0
 40
7.028521960047689
100
AcDbArc
 50
35.4786867206899
 51
45.31759395985351
  0
ARC
  5
2EF
330
2DD
100
AcDbEntity
  8
0
  6
Continuous
 62
     7
370
    15
100
AcDbCircle
 10
1982.640388009775
 20
955.5387092516197
 30
0.0
 40
26.10365061104353
100
AcDbArc
 50
86.20957933157743
 51
90.3099525415226
  0
ARC
  5
2F0
330
2DD
100
AcDbEntity
  8
0
  6
Continuous
 62
     7
370
    15
100
AcDbCircle
 10
1976.899559841314
 20
969.6905765769866
 30
0.0
 40
10.66804432848605
100
AcDbArc
 50
124.7046813844643
 51
132.152624469421
  0
ARC
  5
2F1
330
2DD
100
AcDbEntity
  8
0
  6
Continuous
 62
     7
370
    15
100
AcDbCircle
 10
1972.561709126503
 20
969.8660783003919
 30
0.0
 40
4.847344241407458
100
AcDbArc
 50
137.7222468682538
 51
216.0912208195755
  0
LINE
  5
2F2
330
2DD
100
AcDbEntity
  8
0
  6
Continuous
 62
     7
370
    15
100
AcDbLine
 10
1968.536859401799
 20
970.5642089254803
 30
0.0
 11
1968.644666443572
 21
967.010640888226
 31
0.0
  0
ARC
  5
2F3
330
2DD
100
AcDbEntity
  8
0
  6
Continuous
 62
     7
370
    15
100
AcDbCircle
 10
1974.260406063031
 20
974.643563599873
 30
0.0
 40
7.028521960041678
100
AcDbArc
 50
215.4786867206899
 51
225.3175939598674
  0
LINE
  5
2F4
330
2DD
100
AcDbEntity
  8
0
  6
Continuous
 62
     7
370
    15
100
AcDbLine
 10
1969.425922316926
 20
966.0926079740027
 30
0.0
 11
1969.318115275153
 21
969.6461760112573
 31
0.0
  0
ARC
  5
2F5
330
2DD
100
AcDbEntity
  8
0
  6
Continuous
 62
     7
370
    15
100
AcDbCircle
 10
1980.102332096603
 20
978.9480737976424
 30
0.0
 40
16.71073688759188
100
AcDbArc
 50
230.2905125435601
 51
269.2927469323408
  0
LINE
  5
2F6
330
2DD
100
AcDbEntity
  8
0
  6
Continuous
 62
     7
370
    15
100
AcDbLine
 10
1979.788254717127
 20
965.7921780531321
 30
0.0
 11
1979.8960617589
 21
962.2386100158776
 31
0.0
  0
ARC
  5
2F7
330
2DD
100
AcDbEntity
  8
0
  6
Continuous
 62
     7
370
    15
100
AcDbCircle
 10
1981.513890736458
 20
991.8387278352069
 30
0.0
 40
26.10365061100302
100
AcDbArc
 50
266.2095793315774
 51
270.3099525415356
  0
LINE
  5
2F8
330
2DD
100
AcDbEntity
  8
0
  6
Continuous
 62
     7
370
    15
100
AcDbLine
 10
1981.762909809134
 20
962.1818911447045
 30
0.0
 11
1981.65510276736
 21
965.7354591819586
 31
0.0
  0
ARC
  5
2F9
330
2DD
100
AcDbEntity
  8
0
  6
Continuous
 62
     7
370
    15
100
AcDbCircle
 10
1982.253013117945
 20
983.3917559434894
 30
0.0
 40
21.21552653214264
100
AcDbArc
 50
268.6762831787687
 51
301.8117070145295
  0
LINE
  5
2FA
330
2DD
100
AcDbEntity
  8
0
  6
Continuous
 62
     7
370
    15
100
AcDbLine
 10
1993.328534688445
 20
968.9166876710851
 30
0.0
 11
1993.436341730219
 21
965.3631196338308
 31
0.0
  0
ARC
  5
2FB
330
2DD
100
AcDbEntity
  8
0
  6
Continuous
 62
     7
370
    15
100
AcDbCircle
 10
1987.254718904922
 20
977.686860509878
 30
0.0
 40
10.66804432848265
100
AcDbArc
 50
304.7046813844606
 51
312.152624469421
  0
LINE
  5
2FC
330
2DD
100
AcDbEntity
  8
0
  6
Continuous
 62
     7
370
    15
100
AcDbLine
 10
1994.521933907098
 20
966.2244336768807
 30
0.0
 11
1994.414126865325
 21
969.7780017141351
 31
0.0
  0
ARC
  5
2FD
330
2DD
100
AcDbEntity
  8
0
  6
Continuous
 62
     7
370
    15
100
AcDbCircle
 10
1991.537150141004
 20
970.3554634386966
 30
0.0
 40
5.096502822852442
100
AcDbArc
 50
305.8491570416324
 51
34.7391446956999
  0
LINE
  5
2FE
330
2DD
100
AcDbEntity
  8
0
  6
Continuous
 62
     7
370
    15
100
AcDbLine
 10
1995.617419344435
 20
976.8132281613867
 30
0.0
 11
1995.725226386209
 21
973.2596601241324
 31
0.0
  0
SPLINE
  5
2FF
330
2DD
100
AcDbEntity
  8
0
  6
Continuous
 62
     7
370
    15
100
AcDbSpline
210
0.0
220
0.0
230
1.0
 70
     8
 71
     3
 72
    28
 73
    24
 74
     0
 42
0.0000000001
 43
0.0000000001
 40
0.0
 40
0.0
 40
0.0
 40
0.0
 40
0.125
 40
0.125
 40
0.1875
 40
0.1875
 40
0.2499999999999999
 40
0.2499999999999999
 40
0.3749999999999997
 40
0.3749999999999997
 40
0.4374999999999998
 40
0.4374999999999998
 40
0.4999999999999997
 40
0.4999999999999997
 40
0.6249999999999997
 40
0.6249999999999997
 40
0.6874999999999997
 40
0.6874999999999997
 40
0.7499999999999997
 40
0.7499999999999997
 40
0.8749999999999998
 40
0.8749999999999998
 40
1.0
 40
1.0
 40
1.0
 40
1.0
 10
1989.386492133471
 20
970.3949512522177
 30
0.0
 10
1989.015739412348
 20
970.1637068679735
 30
0.0
 10
1988.614582505032
 20
969.9482085518184
 30
0.0
 10
1987.969878755696
 20
969.6526756190648
 30
0.0
 10
1987.747091753391
 20
969.5585814360494
 30
0.0
 10
1987.29245272519
 20
969.3819239031164
 30
0.0
 10
1987.059951869319
 20
969.2990335090952
 30
0.0
 10
1986.347148121199
 20
969.0664225527465
 30
0.0
 10
1985.851647850573
 20
968.9326532647049
 30
0.0
 10
1985.077095373328
 20
968.7648542049002
 30
0.0
 10
1984.813143635266
 20
968.71440144954
 30
0.0
 10
1984.284374303661
 20
968.6264263861927
 30
0.0
 10
1984.018404567558
 20
968.5886243632813
 30
0.0
 10
1983.215827817474
 20
968.4934327046855
 30
0.0
 10
1982.674585423278
 20
968.454131973278
 30
0.0
 10
1981.853204760638
 20
968.4323198776334
 30
0.0
 10
1981.577117935171
 20
968.4313196426257
 30
0.0
 10
1981.029113979127
 20
968.4420296498799
 30
0.0
 10
1980.75641894475
 20
968.4536751762429
 30
0.0
 10
1979.942216934057
 20
968.5073016822869
 30
0.0
 10
1979.407044140353
 20
968.5680701176414
 30
0.0
 10
1978.372234429095
 20
968.7352146991777
 30
0.0
 10
1977.869512778197
 20
968.8418653611057
 30
0.0
 10
1977.381085218215
 20
968.9709828033832
 30
0.0
  0
SPLINE
  5
300
330
2DD
100
AcDbEntity
  8
0
  6
Continuous
 62
     7
370
    15
100
AcDbSpline
210
0.0
220
0.0
230
1.0
 70
     8
 71
     3
 72
    22
 73
    18
 74
     0
 42
0.0000000001
 43
0.0000000001
 40
0.0
 40
0.0
 40
0.0
 40
0.0
 40
0.125
 40
0.125
 40
0.2499999999999999
 40
0.2499999999999999
 40
0.3749999999999998
 40
0.3749999999999998
 40
0.4999999999999999
 40
0.4999999999999999
 40
0.6249999999999999
 40
0.6249999999999999
 40
0.75
 40
0.75
 40
0.8749999999999998
 40
0.8749999999999998
 40
1.0
 40
1.0
 40
1.0
 40
1.0
 10
1990.303385247405
 20
976.9777067685531
 30
0.0
 10
1990.596482427944
 20
976.7376505912745
 30
0.0
 10
1990.851865220582
 20
976.4850925711643
 30
0.0
 10
1991.286533567559
 20
975.9547512584139
 30
0.0
 10
1991.465881466351
 20
975.6752499185591
 30
0.0
 10
1991.734252425066
 20
975.1104732211807
 30
0.0
 10
1991.825557043062
 20
974.8230506369877
 30
0.0
 10
1991.922307884038
 20
974.2381256482159
 30
0.0
 10
1991.926914275651
 20
973.9383177873383
 30
0.0
 10
1991.848079663725
 20
973.3485428144994
 30
0.0
 10
1991.765510207
 20
973.0566905709249
 30
0.0
 10
1991.512212553908
 20
972.4791870072291
 30
0.0
 10
1991.339430180223
 20
972.1909959769664
 30
0.0
 10
1990.914937491243
 20
971.6393367768953
 30
0.0
 10
1990.663574052689
 20
971.3746027609809
 30
0.0
 10
1990.083363212921
 20
970.8671130955485
 30
0.0
 10
1989.752285704439
 20
970.6231025354307
 30
0.0
 10
1989.386492133471
 20
970.3949512522177
 30
0.0
  0
LWPOLYLINE
  5
301
330
2DD
100
AcDbEntity
  8
0
  6
Continuous
 62
     7
370
    15
100
AcDbPolyline
 90
       43
 70
   128
 43
0.0
 10
1972.427630547273
 20
974.9160713036847
 10
1972.583043103547
 20
975.2034533383589
 10
1972.766253900031
 20
975.4864003051251
 10
1972.976726504653
 20
975.7640837493806
 10
1973.213844664127
 20
976.0356906278547
 10
1973.476914108312
 20
976.3004256891578
 10
1973.765164583001
 20
976.5575138022382
 10
1974.077752105184
 20
976.8062022259274
 10
1974.413761434193
 20
977.0457628129278
 10
1974.772208751475
 20
977.2754941417927
 10
1975.152044541168
 20
977.4947235706525
 10
1975.552156663032
 20
977.7028092066771
 10
1975.971373608734
 20
977.8991417855056
 10
1976.408467931972
 20
978.0831464551427
 10
1976.862159842377
 20
978.2542844590958
 10
1977.331120952667
 20
978.4120547138272
 10
1977.813978168111
 20
978.5559952759028
 10
1978.30931770687
 20
978.6856846945376
 10
1978.815689239489
 20
978.8007432455845
 10
1979.331610135383
 20
978.9008340433463
 10
1979.855569803907
 20
978.9856640269608
 10
1980.386034117296
 20
979.0549848184681
 10
1980.921449902502
 20
979.1085934500493
 10
1981.46024948882
 20
979.1463329583057
 10
1982.000855297943
 20
979.1680928438399
 10
1982.541684463031
 20
979.1738093947925
 10
1983.081153463274
 20
979.1634658733878
 10
1983.61768276035
 20
979.1370925649403
 10
1984.149701423248
 20
979.0947666891813
 10
1984.675651727865
 20
979.0366121741636
 10
1985.193993717949
 20
978.9627992934056
 10
1985.703209714014
 20
978.8735441673393
 10
1986.201808757027
 20
978.7691081305213
 10
1986.688330973868
 20
978.6497969664567
 10
1987.161351851758
 20
978.5159600122817
 10
1987.619486409165
 20
978.3679891359206
 10
1988.061393250962
 20
978.206317588717
 10
1988.485778495964
 20
978.0314187368954
 10
1988.891399565347
 20
977.8438046755677
 10
1989.277068820855
 20
977.6440247293457
 10
1989.641657042151
 20
977.4326638439447
 10
1989.98409673311
 20
977.2103408734919
 10
1990.303385247405
 20
976.9777067685533
  0
SPLINE
  5
302
330
2DD
100
AcDbEntity
  8
0
  6
Continuous
 62
     7
370
    15
100
AcDbSpline
210
0.0
220
0.0
230
1.0
 70
     8
 71
     3
 72
    22
 73
    18
 74
     0
 42
0.0000000001
 43
0.0000000001
 40
0.0
 40
0.0
 40
0.0
 40
0.0
 40
0.1250000000000002
 40
0.1250000000000002
 40
0.2500000000000003
 40
0.2500000000000003
 40
0.3750000000000003
 40
0.3750000000000003
 40
0.5000000000000002
 40
0.5000000000000002
 40
0.6250000000000002
 40
0.6250000000000002
 40
0.7500000000000001
 40
0.7500000000000001
 40
0.8750000000000001
 40
0.8750000000000001
 40
1.0
 40
1.0
 40
1.0
 40
1.0
 10
1977.381085218215
 20
968.9709828033832
 30
0.0
 10
1976.895292954941
 20
969.0994035962528
 30
0.0
 10
1976.434479274702
 20
969.2498922261867
 30
0.0
 10
1975.56277744686
 20
969.5949772129752
 30
0.0
 10
1975.160872671082
 20
969.7860485339989
 30
0.0
 10
1974.423497421807
 20
970.2030847573931
 30
0.0
 10
1974.087571163168
 20
970.4290369248044
 30
0.0
 10
1973.482573303742
 20
970.9165181592522
 30
0.0
 10
1973.221828548533
 20
971.171652864084
 30
0.0
 10
1972.78134088341
 20
971.7029822964176
 30
0.0
 10
1972.601434120429
 20
971.979310411552
 30
0.0
 10
1972.325571297886
 20
972.5541596234512
 30
0.0
 10
1972.233239227693
 20
972.845373876318
 30
0.0
 10
1972.13680368597
 20
973.4329179557132
 30
0.0
 10
1972.13260853573
 20
973.729614956469
 30
0.0
 10
1972.215130007485
 20
974.3290493388064
 30
0.0
 10
1972.300502894927
 20
974.625540530307
 30
0.0
 10
1972.427630547273
 20
974.9160713036847
 30
0.0
  0
LINE
  5
303
330
2DD
100
AcDbEntity
  8
0
  6
Continuous
 62
     7
370
    15
100
AcDbLine
 10
1994.836163471081
 20
977.7312610756098
 30
0.0
 11
1984.366024029108
 21
981.585259033735
 31
0.0
  0
LINE
  5
304
330
2DD
100
AcDbEntity
  8
0
  6
Continuous
 62
     7
370
    15
100
AcDbLine
 10
1994.414126865325
 20
969.7780017141351
 30
0.0
 11
1995.617419344435
 21
976.8132281613867
 31
0.0
  0
LINE
  5
305
330
2DD
100
AcDbEntity
  8
0
  6
Continuous
 62
     7
370
    15
100
AcDbLine
 10
1981.65510276736
 20
965.7354591819586
 30
0.0
 11
1993.328534688445
 21
968.9166876710851
 31
0.0
  0
LINE
  5
306
330
2DD
100
AcDbEntity
  8
0
  6
Continuous
 62
     7
370
    15
100
AcDbLine
 10
1969.318115275153
 20
969.6461760112573
 30
0.0
 11
1979.788254717127
 21
965.7921780531321
 31
0.0
  0
LINE
  5
307
330
2DD
100
AcDbEntity
  8
0
  6
Continuous
 62
     7
370
    15
100
AcDbLine
 10
1969.74015188091
 20
977.599435372732
 30
0.0
 11
1968.536859401799
 21
970.5642089254803
 31
0.0
  0
LINE
  5
308
330
2DD
100
AcDbEntity
  8
0
  6
Continuous
 62
     7
370
    15
100
AcDbLine
 10
1982.499175978874
 20
981.6419779049082
 30
0.0
 11
1970.825744057789
 21
978.4607494157819
 31
0.0
  0
LINE
  5
309
330
2DD
100
AcDbEntity
  8
0
  6
Continuous
 62
     7
370
    15
100
AcDbLine
 10
1993.436341730219
 20
965.3631196338308
 30
0.0
 11
1981.762909809134
 21
962.1818911447045
 31
0.0
  0
LINE
  5
30A
330
2DD
100
AcDbEntity
  8
0
  6
Continuous
 62
     7
370
    15
100
AcDbLine
 10
1979.8960617589
 20
962.2386100158776
 30
0.0
 11
1969.425922316926
 21
966.0926079740027
 31
0.0
  0
SPLINE
  5
30B
330
2DD
100
AcDbEntity
  8
0
  6
Continuous
 62
     7
370
    15
100
AcDbSpline
210
0.0
220
0.0
230
1.0
 70
     8
 71
     3
 72
    24
 73
    20
 74
     0
 42
0.0000000001
 43
0.0000000001
 40
0.0
 40
0.0
 40
0.0
 40
0.0
 40
0.0210730221992047
 40
0.0827522827595458
 40
0.1448636948368908
 40
0.2074733180326792
 40
0.2711097344071051
 40
0.3325129148154069
 40
0.3947923094329299
 40
0.4575167524607261
 40
0.5211557114774531
 40
0.5828348496969898
 40
0.6449461524149579
 40
0.7075556672348722
 40
0.7711919662174294
 40
0.832817672818528
 40
0.8948744175331283
 40
0.9575987820842508
 40
1.0
 40
1.0
 40
1.0
 40
1.0
 10
1988.081770018685
 20
974.7582049203366
 30
0.0
 10
1988.006604882893
 20
974.79009386435
 30
0.0
 10
1987.711436657287
 20
974.9153195148025
 30
0.0
 10
1987.152403373787
 20
975.1014195882966
 30
0.0
 10
1986.409389550369
 20
975.3152423055874
 30
0.0
 10
1985.625407138367
 20
975.4928783962894
 30
0.0
 10
1984.820376278127
 20
975.6327166131283
 30
0.0
 10
1983.997890485978
 20
975.7338484503103
 30
0.0
 10
1983.166705546759
 20
975.7960073848828
 30
0.0
 10
1982.318463612928
 20
975.8195820023896
 30
0.0
 10
1981.471868051115
 20
975.8040981070267
 30
0.0
 10
1980.633159080364
 20
975.7500344949889
 30
0.0
 10
1979.809853771652
 20
975.6587415476078
 30
0.0
 10
1978.994730037083
 20
975.5289476090666
 30
0.0
 10
1978.204688465378
 20
975.3624109379341
 30
0.0
 10
1977.444848501414
 20
975.1612754282167
 30
0.0
 10
1976.723590899454
 20
974.9266253003497
 30
0.0
 10
1976.105104857327
 20
974.6911648325406
 30
0.0
 10
1975.748807557536
 20
974.5214548958587
 30
0.0
 10
1975.605099060549
 20
974.4530043071547
 30
0.0
  0
SPLINE
  5
30C
330
2DD
100
AcDbEntity
  8
0
  6
Continuous
 62
     7
370
    15
100
AcDbSpline
210
0.0
220
0.0
230
1.0
 70
     8
 71
     3
 72
    24
 73
    20
 74
     0
 42
0.0000000001
 43
0.0000000001
 40
0.0
 40
0.0
 40
0.0
 40
0.0
 40
0.0494690296992855
 40
0.1111491254582007
 40
0.1732613758984733
 40
0.2358718460527561
 40
0.2995091309582944
 40
0.3611911915771632
 40
0.4233055123360751
 40
0.4859181506395799
 40
0.5495577608561817
 40
0.6112378391968202
 40
0.6733500816468334
 40
0.7359605404918013
 40
0.7995977960564025
 40
0.8610019872900117
 40
0.9232824036437403
 40
0.9860078861130952
 40
1.0
 40
1.0
 40
1.0
 40
1.0
 10
1988.04953646049
 20
975.9397457832269
 30
0.0
 10
1987.867884207179
 20
976.0106834992544
 30
0.0
 10
1987.459740178162
 20
976.1700693846535
 30
0.0
 10
1986.781302241115
 20
976.3825091063866
 30
0.0
 10
1986.022425822918
 20
976.5790005297123
 30
0.0
 10
1985.226989873694
 20
976.7400704642135
 30
0.0
 10
1984.411390620979
 20
976.8626753062875
 30
0.0
 10
1983.581815201015
 20
976.9461506359686
 30
0.0
 10
1982.746702602638
 20
976.9903494944038
 30
0.0
 10
1981.898499922539
 20
976.9963717980463
 30
0.0
 10
1981.053960174592
 20
976.9632972503329
 30
0.0
 10
1980.21951437465
 20
976.8918718348851
 30
0.0
 10
1979.403102576733
 20
976.7835533237182
 30
0.0
 10
1978.597544455341
 20
976.6369673225399
 30
0.0
 10
1977.820726379491
 20
976.4543181705946
 30
0.0
 10
1977.074989301705
 20
976.2379079917955
 30
0.0
 10
1976.372308927332
 20
975.9875638836366
 30
0.0
 10
1975.867454941196
 20
975.7840375206692
 30
0.0
 10
1975.614548354744
 20
975.6561835660999
 30
0.0
 10
1975.568422069139
 20
975.6328649641337
 30
0.0
  0
SPLINE
  5
30D
330
2DD
100
AcDbEntity
  8
0
  6
Continuous
 62
     7
370
    15
100
AcDbSpline
210
0.0
220
0.0
230
1.0
 70
     8
 71
     3
 72
    25
 73
    21
 74
     0
 42
0.0000000001
 43
0.0000000001
 40
0.0
 40
0.0
 40
0.0
 40
0.0
 40
0.0296391153561098
 40
0.0913225644709349
 40
0.153438193785589
 40
0.2160520687903498
 40
0.2796928094138193
 40
0.3413226830843861
 40
0.4033836624600238
 40
0.4661122973360225
 40
0.5297555047339086
 40
0.5914388315495924
 40
0.6535543498063657
 40
0.7161681126458058
 40
0.7798087276931694
 40
0.8259597057502114
 40
0.8722907247692919
 40
0.9191770866998831
 40
0.9662522927430259
 40
1.0
 40
1.0
 40
1.0
 40
1.0
 10
1988.009292522781
 20
977.1157866730984
 30
0.0
 10
1987.902833004521
 20
977.1600965024727
 30
0.0
 10
1987.574815244779
 20
977.2966217395156
 30
0.0
 10
1986.980046611673
 20
977.4910129823902
 30
0.0
 10
1986.232097284451
 20
977.6996242768053
 30
0.0
 10
1985.444526237413
 20
977.8722673395179
 30
0.0
 10
1984.635575268973
 20
978.007007965596
 30
0.0
 10
1983.810941060686
 20
978.1027578971121
 30
0.0
 10
1982.978434633499
 20
978.1594150751057
 30
0.0
 10
1982.130693278298
 20
978.1776743931533
 30
0.0
 10
1981.284435390208
 20
978.1568504405283
 30
0.0
 10
1980.446892256377
 20
978.097516547232
 30
0.0
 10
1979.625532692412
 20
978.0010572500151
 30
0.0
 10
1978.813240001808
 20
977.8661298616579
 30
0.0
 10
1978.091391653062
 20
977.708837174276
 30
0.0
 10
1977.45925058398
 20
977.5406525539484
 30
0.0
 10
1976.912667454121
 20
977.3720105985823
 30
0.0
 10
1976.384605031897
 20
977.1829582239938
 30
0.0
 10
1975.919438520366
 20
976.9979105829598
 30
0.0
 10
1975.648114035882
 20
976.8659252125329
 30
0.0
 10
1975.534822162327
 20
976.8108145581219
 30
0.0
  0
LINE
  5
30E
330
2DD
100
AcDbEntity
  8
0
  6
Continuous
 62
     7
370
    15
100
AcDbLine
 10
1987.789130886624
 20
977.2085559920222
 30
0.0
 11
1987.818201948794
 21
977.1959576309575
 31
0.0
  0
LINE
  5
30F
330
2DD
100
AcDbEntity
  8
0
  6
Continuous
 62
     7
370
    15
100
AcDbLine
 10
1987.825111094879
 20
976.0295149547651
 30
0.0
 11
1987.840445045253
 21
976.0228697678011
 31
0.0
  0
LINE
  5
310
330
2DD
100
AcDbEntity
  8
0
  6
Continuous
 62
     7
370
    15
100
AcDbLine
 10
1987.860929541534
 20
974.8505440192134
 30
0.0
 11
1987.88118630329
 21
974.8417654614467
 31
0.0
  0
SPLINE
  5
311
330
2DD
100
AcDbEntity
  8
0
  6
Continuous
 62
     7
370
    15
100
AcDbSpline
210
0.0
220
0.0
230
1.0
 70
     8
 71
     3
 72
    10
 73
     6
 74
     0
 42
0.0000000001
 43
0.0000000001
 40
0.0
 40
0.0
 40
0.0
 40
0.0
 40
0.2903677698975942
 40
0.7150930128864763
 40
1.0
 40
1.0
 40
1.0
 40
1.0
 10
1974.52917443486
 20
972.6067092022558
 30
0.0
 10
1974.643837931401
 20
972.6877940883372
 30
0.0
 10
1974.926221424714
 20
972.887483039724
 30
0.0
 10
1975.372183201188
 20
973.1457720031681
 30
0.0
 10
1975.719330396599
 20
973.3115966474699
 30
0.0
 10
1975.858704930807
 20
973.3781728228366
 30
0.0
  0
SPLINE
  5
312
330
2DD
100
AcDbEntity
  8
0
  6
Continuous
 62
     7
370
    15
100
AcDbSpline
210
0.0
220
0.0
230
1.0
 70
     8
 71
     3
 72
     8
 73
     4
 74
     0
 42
0.0000000001
 43
0.0000000001
 40
0.0
 40
0.0
 40
0.0
 40
0.0
 40
1.0
 40
1.0
 40
1.0
 40
1.0
 10
1976.725284372455
 20
973.7506829530621
 30
0.0
 10
1976.725792205137
 20
973.7506720629504
 30
0.0
 10
1976.726303698333
 20
973.7506617067207
 30
0.0
 10
1976.726818854007
 20
973.7506518817598
 30
0.0
  0
SPLINE
  5
313
330
2DD
100
AcDbEntity
  8
0
  6
Continuous
 62
     7
370
    15
100
AcDbSpline
210
0.0
220
0.0
230
1.0
 70
     8
 71
     3
 72
     9
 73
     5
 74
     0
 42
0.0000000001
 43
0.0000000001
 40
0.0
 40
0.0
 40
0.0
 40
0.0
 40
0.2169144853845252
 40
1.0
 40
1.0
 40
1.0
 40
1.0
 10
1975.834080111654
 20
973.3657823835047
 30
0.0
 10
1975.894607918072
 20
973.3963222046657
 30
0.0
 10
1976.173647864667
 20
973.5371141905339
 30
0.0
 10
1976.483880315554
 20
973.6568715939089
 30
0.0
 10
1976.726818854007
 20
973.7506518817598
 30
0.0
  0
LINE
  5
314
330
2DD
100
AcDbEntity
  8
0
  6
Continuous
 62
     7
370
    15
100
AcDbLine
 10
1976.768223277789
 20
973.9927289347422
 30
0.0
 11
1976.752857161315
 21
974.4992314738446
 31
0.0
  0
SPLINE
  5
315
330
2DD
100
AcDbEntity
  8
0
  6
Continuous
 62
     7
370
    15
100
AcDbSpline
210
0.0
220
0.0
230
1.0
 70
     8
 71
     3
 72
    16
 73
    12
 74
     0
 42
0.0000000001
 43
0.0000000001
 40
0.0
 40
0.0
 40
0.0
 40
0.0
 40
0.0647147335151747
 40
0.196324891284449
 40
0.3288573047039521
 40
0.4624529867755538
 40
0.5982398268167696
 40
0.7298473343099305
 40
0.8623769427048504
 40
0.9959696024009456
 40
1.0
 40
1.0
 40
1.0
 40
1.0
 10
1976.752857161315
 20
974.4992314738446
 30
0.0
 10
1976.639259658032
 20
974.4579110636164
 30
0.0
 10
1976.294639255987
 20
974.3325574601128
 30
0.0
 10
1975.746268448453
 20
974.0998346550847
 30
0.0
 10
1975.126417169945
 20
973.791632415449
 30
0.0
 10
1974.550686642763
 20
973.4536445779429
 30
0.0
 10
1974.031666466151
 20
973.0923303794064
 30
0.0
 10
1973.570083570981
 20
972.7111130908099
 30
0.0
 10
1973.179277464427
 20
972.3123868530622
 30
0.0
 10
1972.936700059512
 20
972.0345216797156
 30
0.0
 10
1972.844796573475
 20
971.887254898521
 30
0.0
 10
1972.842105108856
 20
971.882942077014
 30
0.0
  0
SPLINE
  5
316
330
2DD
100
AcDbEntity
  8
0
  6
Continuous
 62
     7
370
    15
100
AcDbSpline
210
0.0
220
0.0
230
1.0
 70
     8
 71
     3
 72
    36
 73
    32
 74
     0
 42
0.0000000001
 43
0.0000000001
 40
0.0
 40
0.0
 40
0.0
 40
0.0
 40
0.0297386688954652
 40
0.0649357548797145
 40
0.1007101155486685
 40
0.1353841553936731
 40
0.1703011703575317
 40
0.2054983067525444
 40
0.2412727233196423
 40
0.2759462614308832
 40
0.3108627370377547
 40
0.3460592867034817
 40
0.3818330582876118
 40
0.4164764901622143
 40
0.4513622550971129
 40
0.4866233237415673
 40
0.5223984938737692
 40
0.5570719623370847
 40
0.5919883748573686
 40
0.6271848611052278
 40
0.6629585623446746
 40
0.6976020199872301
 40
0.7324877912275695
 40
0.7677488734538355
 40
0.8035240646002586
 40
0.8381976216352903
 40
0.8731141417036031
 40
0.9083107501708237
 40
0.9440845983788632
 40
0.978758692009501
 40
1.0
 40
1.0
 40
1.0
 40
1.0
 10
1991.37913174083
 20
973.17756886994
 30
0.0
 10
1991.284177203264
 20
973.299778210865
 30
0.0
 10
1991.076839591826
 20
973.566627942244
 30
0.0
 10
1990.677506889066
 20
973.9579590438388
 30
0.0
 10
1990.203898212985
 20
974.3478456044561
 30
0.0
 10
1989.672517761882
 20
974.7110887935845
 30
0.0
 10
1989.091903286307
 20
975.0464254042869
 30
0.0
 10
1988.455647758431
 20
975.3563707109289
 30
0.0
 10
1987.775527988062
 20
975.6342239010562
 30
0.0
 10
1987.057264932477
 20
975.8782387213168
 30
0.0
 10
1986.308631185136
 20
976.0867289581302
 30
0.0
 10
1985.522547082871
 20
976.2611164992669
 30
0.0
 10
1984.714229651094
 20
976.3971504644953
 30
0.0
 10
1983.890185728317
 20
976.494348032314
 30
0.0
 10
1983.058008067579
 20
976.5524439606792
 30
0.0
 10
1982.210391361202
 20
976.5721150511467
 30
0.0
 10
1981.364031766804
 20
976.5527139498622
 30
0.0
 10
1980.526166443773
 20
976.4947842260188
 30
0.0
 10
1979.704279325243
 20
976.3997016330719
 30
0.0
 10
1978.891213606869
 20
976.2661383060372
 30
0.0
 10
1978.103672129111
 20
976.096031852308
 30
0.0
 10
1977.347367561221
 20
975.8911713683193
 30
0.0
 10
1976.62833882312
 20
975.6540835391298
 30
0.0
 10
1975.940932385749
 20
975.3821993244725
 30
0.0
 10
1975.299664726753
 20
975.0803905406426
 30
0.0
 10
1974.709324678381
 20
974.7527855800832
 30
0.0
 10
1974.174507800776
 20
974.4026321164904
 30
0.0
 10
1973.690133450468
 20
974.0267577945608
 30
0.0
 10
1973.2706573043
 20
973.6314782886118
 30
0.0
 10
1972.952361042148
 20
973.2756101228007
 30
0.0
 10
1972.8030876291
 20
973.0496894777402
 30
0.0
 10
1972.746381203868
 20
972.963866075529
 30
0.0
  0
SPLINE
  5
317
330
2DD
100
AcDbEntity
  8
0
  6
Continuous
 62
     7
370
    15
100
AcDbSpline
210
0.0
220
0.0
230
1.0
 70
     8
 71
     3
 72
    36
 73
    32
 74
     0
 42
0.0000000001
 43
0.0000000001
 40
0.0
 40
0.0
 40
0.0
 40
0.0
 40
0.0256860106766308
 40
0.0602043918267049
 40
0.0952153440670878
 40
0.130476491803252
 40
0.1662517427542929
 40
0.200925238304452
 40
0.2358416885971789
 40
0.2710382202642231
 40
0.3068119791030212
 40
0.3414863668056906
 40
0.3764037150987728
 40
0.4116011759222184
 40
0.4473759480458002
 40
0.4820494993866175
 40
0.5169660259072487
 40
0.5521626540232365
 40
0.5879365434605342
 40
0.6226099863229854
 40
0.6575263643666332
 40
0.6927228171658287
 40
0.728496495933777
 40
0.7631397031701627
 40
0.798025239716282
 40
0.8332860751457571
 40
0.8690609899376184
 40
0.9037344646904045
 40
0.938650879394293
 40
0.9738473663478114
 40
1.0
 40
1.0
 40
1.0
 40
1.0
 10
1991.342505446783
 20
974.353227901593
 30
0.0
 10
1991.262445547391
 20
974.4592845842648
 30
0.0
 10
1991.074796417547
 20
974.7078665131525
 30
0.0
 10
1990.703168693022
 20
975.0798706309147
 30
0.0
 10
1990.242759900192
 20
975.4702086756209
 30
0.0
 10
1989.716410970693
 20
975.8397952195062
 30
0.0
 10
1989.137602387698
 20
976.1817538446061
 30
0.0
 10
1988.510599703529
 20
976.4939943931455
 30
0.0
 10
1987.84235585071
 20
976.7742735449463
 30
0.0
 10
1987.126315035727
 20
977.0247028934662
 30
0.0
 10
1986.37585650057
 20
977.2396491387368
 30
0.0
 10
1985.597160174954
 20
977.4179005789427
 30
0.0
 10
1984.798372866105
 20
977.5584555132374
 30
0.0
 10
1983.972108978129
 20
977.6621293386751
 30
0.0
 10
1983.134374061522
 20
977.7259514240199
 30
0.0
 10
1982.291739888454
 20
977.7504041691896
 30
0.0
 10
1981.452500734891
 20
977.7368767100172
 30
0.0
 10
1980.609192210075
 20
977.6845534121395
 30
0.0
 10
1979.778636243811
 20
977.5937449760505
 30
0.0
 10
1978.96705244444
 20
977.4656075602964
 30
0.0
 10
1978.181951805164
 20
977.3021479704576
 30
0.0
 10
1977.416648453288
 20
977.1014607478068
 30
0.0
 10
1976.687100602944
 20
976.8668669763464
 30
0.0
 10
1975.998436137198
 20
976.6006284499122
 30
0.0
 10
1975.355916455779
 20
976.3057062140283
 30
0.0
 10
1974.754611940856
 20
975.980372649875
 30
0.0
 10
1974.20771022674
 20
975.6302780546112
 30
0.0
 10
1973.718373622821
 20
975.2589522010357
 30
0.0
 10
1973.29278737945
 20
974.8696887152348
 30
0.0
 10
1972.951017621599
 20
974.4979579972136
 30
0.0
 10
1972.782895986034
 20
974.2508343841221
 30
0.0
 10
1972.711227093302
 20
974.1454875876859
 30
0.0
  0
SPLINE
  5
318
330
2DD
100
AcDbEntity
  8
0
  6
Continuous
 62
     7
370
    15
100
AcDbSpline
210
0.0
220
0.0
230
1.0
 70
     8
 71
     3
 72
    41
 73
    37
 74
     0
 42
0.0000000001
 43
0.0000000001
 40
0.0
 40
0.0
 40
0.0
 40
0.0
 40
0.0175437571935985
 40
0.0486575600389081
 40
0.0799893584430912
 40
0.1115724800484273
 40
0.1436735721609203
 40
0.1747882184931024
 40
0.2061209072802163
 40
0.2377049682397248
 40
0.2698070601989393
 40
0.3009208705751062
 40
0.3322526794254417
 40
0.3638358076213521
 40
0.3959368926747835
 40
0.4192160145737544
 40
0.4425859547944409
 40
0.4662360275229709
 40
0.4899813576611887
 40
0.5220838257574821
 40
0.5531976270936049
 40
0.5845294378344158
 40
0.6161125736828711
 40
0.6482136729355697
 40
0.6793283925110446
 40
0.7106611333679215
 40
0.7422452350717189
 40
0.77434739131681
 40
0.8054612222165163
 40
0.8367930820975757
 40
0.8683762835465389
 40
0.9004774776845923
 40
0.9251659168109394
 40
0.949962771205311
 40
0.974925340651068
 40
1.0
 40
1.0
 40
1.0
 40
1.0
 10
1991.8771677862
 20
974.4913819781654
 30
0.0
 10
1991.84712009265
 20
974.5779192956431
 30
0.0
 10
1991.763782901146
 20
974.8179302963837
 30
0.0
 10
1991.55052159778
 20
975.2011477763989
 30
0.0
 10
1991.246181943732
 20
975.6393313775269
 30
0.0
 10
1990.869980785426
 20
976.0643138403263
 30
0.0
 10
1990.432343113394
 20
976.4678992675065
 30
0.0
 10
1989.936225965909
 20
976.8470554990896
 30
0.0
 10
1989.387940730891
 20
977.1987839271931
 30
0.0
 10
1988.781839431185
 20
977.5269681065688
 30
0.0
 10
1988.128916767731
 20
977.82430771964
 30
0.0
 10
1987.434760015233
 20
978.0889631437323
 30
0.0
 10
1986.70695647456
 20
978.3190072085023
 30
0.0
 10
1985.93859049766
 20
978.5160662615487
 30
0.0
 10
1985.209813954879
 20
978.6623414014105
 30
0.0
 10
1984.53418493481
 20
978.7670886283967
 30
0.0
 10
1983.921454980262
 20
978.8394284020558
 30
0.0
 10
1983.297365647053
 20
978.8904827064778
 30
0.0
 10
1982.590852994272
 20
978.9229289670007
 30
0.0
 10
1981.814453114965
 20
978.9271200533937
 30
0.0
 10
1980.972397027992
 20
978.8929615965178
 30
0.0
 10
1980.14270447172
 20
978.8212385507895
 30
0.0
 10
1979.318122827118
 20
978.7108270196615
 30
0.0
 10
1978.515272729093
 20
978.5631449612555
 30
0.0
 10
1977.740052289777
 20
978.3797873037848
 30
0.0
 10
1976.999444359861
 20
978.163241877314
 30
0.0
 10
1976.287272483076
 20
977.9112212170554
 30
0.0
 10
1975.618409754829
 20
977.6278097314555
 30
0.0
 10
1974.997448150763
 20
977.3165025778332
 30
0.0
 10
1974.429457214288
 20
976.9812844403384
 30
0.0
 10
1973.909997258751
 20
976.618761690298
 30
0.0
 10
1973.481699518607
 20
976.2615942307196
 30
0.0
 10
1973.133808996412
 20
975.9176820927139
 30
0.0
 10
1972.856435801815
 20
975.5937602839654
 30
0.0
 10
1972.615474757785
 20
975.2599179375012
 30
0.0
 10
1972.490338724443
 20
975.0308578897273
 30
0.0
 10
1972.427630547273
 20
974.9160713036847
 30
0.0
  0
LWPOLYLINE
  5
319
330
2DD
100
AcDbEntity
  8
0
  6
Continuous
 62
     7
370
    15
100
AcDbPolyline
 90
       33
 70
   128
 43
0.0
 10
1976.768223277789
 20
973.9927289347422
 10
1977.224122992583
 20
974.1550343456612
 10
1977.69424116444
 20
974.304071692765
 10
1978.177235512477
 20
974.4394154447842
 10
1978.671726991762
 20
974.5606791683878
 10
1979.176303730772
 20
974.6675166315259
 10
1979.689525062558
 20
974.7596227919924
 10
1980.20992563814
 20
974.8367346683791
 10
1980.736019610371
 20
974.8986320909416
 10
1981.266304876322
 20
974.9451383302279
 10
1981.799267366087
 20
974.9761206016746
 10
1982.333385365754
 20
974.9914904447347
 10
1982.867133862201
 20
974.9912039754491
 10
1983.398988897311
 20
974.9752620117448
 10
1983.927431919173
 20
974.9437100710988
 10
1984.450954117858
 20
974.896638240577
 10
1984.96806073336
 20
974.8341809196183
 10
1985.477275323443
 20
974.7565164362963
 10
1985.977143979171
 20
974.6638665381579
 10
1986.466239476111
 20
974.5564957590902
 10
1986.943165349341
 20
974.4347106640228
 10
1987.406559880633
 20
974.2988589736244
 10
1987.855099986435
 20
974.1493285714918
 10
1988.287504995531
 20
973.9865463966635
 10
1988.702540305617
 20
973.8109772246255
 10
1989.099020908335
 20
973.6231223402839
 10
1989.475814772706
 20
973.4235181066969
 10
1989.831846077303
 20
973.2127344336518
 10
1990.16609828194
 20
972.991373150459
 10
1990.477617030091
 20
972.7600662876094
 10
1990.765512873771
 20
972.5194742722027
 10
1991.028963813084
 20
972.2702840422952
 10
1991.226191421797
 20
972.0600659237554
  0
SPLINE
  5
31A
330
2DD
100
AcDbEntity
  8
0
  6
Continuous
 62
     7
370
    15
100
AcDbSpline
210
0.0
220
0.0
230
1.0
 70
     8
 71
     3
 72
    11
 73
     7
 74
     0
 42
0.0000000001
 43
0.0000000001
 40
0.0
 40
0.0
 40
0.0
 40
0.0
 40
0.0004587740067473
 40
0.0004587740067473
 40
0.0004587740067473
 40
0.0005404289811189
 40
0.0005404289811189
 40
0.0005404289811189
 40
0.0005404289811189
 10
1976.717511667959
 20
974.0068891693622
 30
0.0
 10
1976.727578619115
 20
974.1458290381254
 30
0.0
 10
1976.737588109197
 20
974.2851068706899
 30
0.0
 10
1976.747545326013
 20
974.424678014752
 30
0.0
 10
1976.749317581635
 20
974.4495198705985
 30
0.0
 10
1976.751088184271
 20
974.4743710995612
 30
0.0
 10
1976.752857161306
 20
974.4992314738423
 30
0.0
  0
SPLINE
  5
31B
330
2DD
100
AcDbEntity
  8
0
  6
Continuous
 62
     7
370
    15
100
AcDbSpline
210
0.0
220
0.0
230
1.0
 70
     8
 71
     3
 72
    14
 73
    10
 74
     0
 42
0.0000000001
 43
0.0000000001
 40
0.0
 40
0.0
 40
0.0
 40
0.0
 40
0.25
 40
0.25
 40
0.5
 40
0.5
 40
0.75
 40
0.75
 40
1.0
 40
1.0
 40
1.0
 40
1.0
 10
1976.725284372455
 20
973.7506829530621
 30
0.0
 10
1976.722392694975
 20
973.7507363487702
 30
0.0
 10
1976.719684889514
 20
973.7563421173449
 30
0.0
 10
1976.715200884766
 20
973.7815643864214
 30
0.0
 10
1976.713443169304
 20
973.8019366478004
 30
0.0
 10
1976.711824090734
 20
973.8536130558646
 30
0.0
 10
1976.711956973719
 20
973.8850612478275
 30
0.0
 10
1976.713796984249
 20
973.9474556013071
 30
0.0
 10
1976.715444694247
 20
973.9783616587281
 30
0.0
 10
1976.717511667958
 20
974.0068891693601
 30
0.0
  0
LINE
  5
31C
330
2DD
100
AcDbEntity
  8
0
  6
Continuous
 62
     7
370
    15
100
AcDbLine
 10
1995.725226386209
 20
973.2596601241324
 30
0.0
 11
1994.521933907098
 21
966.2244336768807
 31
0.0
  0
LINE
  5
31D
330
2DD
100
AcDbEntity
  8
0
  6
Continuous
 62
     7
370
    15
100
AcDbLine
 10
1976.726818854007
 20
973.7506518817598
 30
0.0
 11
1976.768223277789
 21
973.9927289347422
 31
0.0
  0
SPLINE
  5
31E
330
2DD
100
AcDbEntity
  8
0
  6
Continuous
 62
     8
370
    15
100
AcDbSpline
210
0.0
220
0.0
230
1.0
 70
     8
 71
     3
 72
    24
 73
    20
 74
     0
 42
0.0000000001
 43
0.0000000001
 40
0.0
 40
0.0
 40
0.0
 40
0.0
 40
0.0301115430989858
 40
0.093483539888464
 40
0.1577119782236942
 40
0.2225638666765278
 40
0.2877919777162549
 40
0.3531402921131633
 40
0.4171889447048388
 40
0.4808616122153882
 40
0.5439245425326542
 40
0.6061574037035102
 40
0.6695294004929884
 40
0.7337578388282188
 40
0.7986097272810524
 40
0.8638378383207797
 40
0.929186152717688
 40
0.9932348053093633
 40
1.0
 40
1.0
 40
1.0
 40
1.0
 10
1975.651960931333
 20
976.8662697123247
 30
0.0
 10
1975.748970102432
 20
976.9149578274726
 30
0.0
 10
1976.050142336819
 20
977.0661137260448
 30
0.0
 10
1976.608269352427
 20
977.2903618679995
 30
0.0
 10
1977.321397978758
 20
977.5368432801503
 30
0.0
 10
1978.081159139698
 20
977.7489366300601
 30
0.0
 10
1978.876209656017
 20
977.9252388054693
 30
0.0
 10
1979.693544090397
 20
978.061913496603
 30
0.0
 10
1980.522837204857
 20
978.1583178080337
 30
0.0
 10
1981.354207041402
 20
978.2146265242092
 30
0.0
 10
1982.183160767537
 20
978.2316524882041
 30
0.0
 10
1983.010152426643
 20
978.2104683290155
 30
0.0
 10
1983.835565402555
 20
978.1500763886171
 30
0.0
 10
1984.659299738346
 20
978.0484451184463
 30
0.0
 10
1985.470808046288
 20
977.9052352883965
 30
0.0
 10
1986.261747143341
 20
977.7222967379966
 30
0.0
 10
1987.012046870064
 20
977.4983291619095
 30
0.0
 10
1987.52221756781
 20
977.3251240896984
 30
0.0
 10
1987.765855005388
 20
977.2187211842627
 30
0.0
 10
1987.789130886624
 20
977.2085559920222
 30
0.0
  0
SPLINE
  5
31F
330
2DD
100
AcDbEntity
  8
0
  6
Continuous
 62
     8
370
    15
100
AcDbSpline
210
0.0
220
0.0
230
1.0
 70
     8
 71
     3
 72
    24
 73
    20
 74
     0
 42
0.0000000001
 43
0.0000000001
 40
0.0
 40
0.0
 40
0.0
 40
0.0
 40
0.0306883247845738
 40
0.0940212872204883
 40
0.1582101636719554
 40
0.2230221062232649
 40
0.2882100396249561
 40
0.3535181023438649
 40
0.4175273037918618
 40
0.4811607517489512
 40
0.544184838083962
 40
0.606379366558528
 40
0.6697123289944436
 40
0.7339012054459121
 40
0.7987131479972227
 40
0.8639010813989148
 40
0.9292091441178195
 40
0.9932183455658163
 40
0.9999999999999998
 40
0.9999999999999998
 40
0.9999999999999998
 40
0.9999999999999998
 10
1975.68190924098
 20
975.6844690938009
 30
0.0
 10
1975.780824269476
 20
975.7341285651085
 30
0.0
 10
1976.083874969372
 20
975.8862726605519
 30
0.0
 10
1976.644010150667
 20
976.1114292588592
 30
0.0
 10
1977.357171569029
 20
976.357890510255
 30
0.0
 10
1978.116923810686
 20
976.5699893437972
 30
0.0
 10
1978.91197673941
 20
976.7462900360495
 30
0.0
 10
1979.729310527631
 20
976.8829651244258
 30
0.0
 10
1980.558603811853
 20
976.9793693315588
 30
0.0
 10
1981.389973603376
 20
977.0356780751457
 30
0.0
 10
1982.218927342073
 20
977.0527040324026
 30
0.0
 10
1983.04591899538
 20
977.0315198731351
 30
0.0
 10
1983.871331982286
 20
976.9711279398444
 30
0.0
 10
1984.695066279233
 20
976.8694966407542
 30
0.0
 10
1985.506574733355
 20
976.7262869206497
 30
0.0
 10
1986.297513280647
 20
976.5433479564595
 30
0.0
 10
1987.047815051335
 20
976.3193819188913
 30
0.0
 10
1987.558057812218
 20
976.1461466263101
 30
0.0
 10
1987.801764382608
 20
976.0397112947995
 30
0.0
 10
1987.825111094879
 20
976.0295149547651
 30
0.0
  0
SPLINE
  5
320
330
2DD
100
AcDbEntity
  8
0
  6
Continuous
 62
     8
370
    15
100
AcDbSpline
210
0.0
220
0.0
230
1.0
 70
     8
 71
     3
 72
    24
 73
    20
 74
     0
 42
0.0000000001
 43
0.0000000001
 40
0.0
 40
0.0
 40
0.0
 40
0.0
 40
0.031033200110599
 40
0.0943433019219149
 40
0.1585090087986217
 40
0.2232975568736397
 40
0.2884619600816289
 40
0.3537464492450307
 40
0.4177325459736376
 40
0.4813430248430707
 40
0.544344362045197
 40
0.6065164408235395
 40
0.6698265426348556
 40
0.7339922495115625
 40
0.7987807975865807
 40
0.8639452007945697
 40
0.9292296899579723
 40
0.9932157866865797
 40
0.9999999999999998
 40
0.9999999999999998
 40
0.9999999999999998
 40
0.9999999999999998
 10
1975.714195765627
 20
974.5038146891072
 30
0.0
 10
1975.814250577522
 20
974.55405524931
 30
0.0
 10
1976.118424858413
 20
974.706790394994
 30
0.0
 10
1976.679761477188
 20
974.9324901768632
 30
0.0
 10
1977.392942292161
 20
975.1789395030952
 30
0.0
 10
1978.152689258029
 20
975.3910415802272
 30
0.0
 10
1978.947743613698
 20
975.5673413951855
 30
0.0
 10
1979.765077019719
 20
975.7040167185362
 30
0.0
 10
1980.594370404337
 20
975.8004208639626
 30
0.0
 10
1981.425740169298
 20
975.8567296238153
 30
0.0
 10
1982.254693915174
 20
975.8737555768972
 30
0.0
 10
1983.081685565981
 20
975.8525714182825
 30
0.0
 10
1983.907098555851
 20
975.7921794865342
 30
0.0
 10
1984.730832843289
 20
975.6905481804746
 30
0.0
 10
1985.542341332914
 20
975.5473384870425
 30
0.0
 10
1986.333279746763
 20
975.364399422421
 30
0.0
 10
1987.083582013562
 20
975.1404337582803
 30
0.0
 10
1987.593842273059
 20
974.9671911278216
 30
0.0
 10
1987.83756563026
 20
974.8607479226475
 30
0.0
 10
1987.860929541534
 20
974.8505440192134
 30
0.0
  0
SPLINE
  5
321
330
2DD
100
AcDbEntity
  8
0
  6
Continuous
 62
     8
370
    15
100
AcDbSpline
210
0.0
220
0.0
230
1.0
 70
     8
 71
     3
 72
     9
 73
     5
 74
     0
 42
0.0000000001
 43
0.0000000001
 40
0.0
 40
0.0
 40
0.0
 40
0.0
 40
0.2372772478348884
 40
1.0
 40
1.0
 40
1.0
 40
1.0
 10
1975.858704930807
 20
973.3781728228366
 30
0.0
 10
1975.923023421292
 20
973.4103456785081
 30
0.0
 10
1976.194092354665
 20
973.5459375060642
 30
0.0
 10
1976.495439811114
 20
973.6620904556682
 30
0.0
 10
1976.725284372455
 20
973.7506829530621
 30
0.0
  0
SPLINE
  5
322
330
2DD
100
AcDbEntity
  8
0
  6
Continuous
 62
     8
370
    15
100
AcDbSpline
210
0.0
220
0.0
230
1.0
 70
     8
 71
     3
 72
    55
 73
    51
 74
     0
 42
0.0000000001
 43
0.0000000001
 40
0.0
 40
0.0
 40
0.0
 40
0.0
 40
0.0222689844452372
 40
0.0444174863553697
 40
0.0663512351872692
 40
0.0879814210105528
 40
0.1084934986466163
 40
0.1292827869808935
 40
0.1502738719739849
 40
0.171386731683067
 40
0.1925384984918064
 40
0.2132695942597061
 40
0.2338789921868437
 40
0.2542910320176637
 40
0.2744343972976249
 40
0.2949464749336884
 40
0.3157357632679658
 40
0.3367268482610571
 40
0.3578397079701392
 40
0.3789914747788793
 40
0.399722570546779
 40
0.4203319684739166
 40
0.4407440083047366
 40
0.4608873735846972
 40
0.4813994512207607
 40
0.502188739555038
 40
0.5231798245481293
 40
0.5442926842572114
 40
0.5654444510659515
 40
0.5861755468338511
 40
0.6067849447609887
 40
0.6271969845918087
 40
0.6473403498717693
 40
0.6678524275078327
 40
0.6886417158421101
 40
0.7096328008352016
 40
0.7307456605442836
 40
0.7518974273530237
 40
0.7726285231209235
 40
0.793237921048061
 40
0.8136499608788808
 40
0.8337933261588414
 40
0.8543054037949055
 40
0.8750946921291834
 40
0.8960857771222755
 40
0.9171986368313582
 40
0.9383504036400964
 40
0.9590814994079959
 40
0.9796908973351335
 40
1.0
 40
1.0
 40
1.0
 40
1.0
 10
1977.381085218217
 20
968.9709828033828
 30
0.0
 10
1977.121876749145
 20
969.0438847539208
 30
0.0
 10
1976.604862214132
 20
969.1892942314504
 30
0.0
 10
1975.891202693983
 20
969.4567944403672
 30
0.0
 10
1975.234481435706
 20
969.7550075503315
 30
0.0
 10
1974.651328846454
 20
970.0791970563294
 30
0.0
 10
1974.136723570783
 20
970.4250951809294
 30
0.0
 10
1973.687787643555
 20
970.7911198585257
 30
0.0
 10
1973.299684722055
 20
971.1821003101965
 30
0.0
 10
1972.978465626818
 20
971.5939341171253
 30
0.0
 10
1972.73019086783
 20
972.0194386858977
 30
0.0
 10
1972.556248706648
 20
972.4533137572999
 30
0.0
 10
1972.456229344748
 20
972.8903015851653
 30
0.0
 10
1972.428538740756
 20
973.3279417830143
 30
0.0
 10
1972.471541790943
 20
973.766611061198
 30
0.0
 10
1972.585782768472
 20
974.2058373165127
 30
0.0
 10
1972.773844656282
 20
974.6448440182929
 30
0.0
 10
1973.036040599543
 20
975.0784540032189
 30
0.0
 10
1973.370982657909
 20
975.5013315046427
 30
0.0
 10
1973.773125721124
 20
975.905930175886
 30
0.0
 10
1974.236324767631
 20
976.2878664572388
 30
0.0
 10
1974.753258859257
 20
976.6434891532439
 30
0.0
 10
1975.319637765101
 20
976.9716166017808
 30
0.0
 10
1975.934619774674
 20
977.2732025881024
 30
0.0
 10
1976.59887355982
 20
977.5475117970627
 30
0.0
 10
1977.314067285914
 20
977.792792497919
 30
0.0
 10
1978.073266747443
 20
978.0052124345198
 30
0.0
 10
1978.868469193308
 20
978.1814262827426
 30
0.0
 10
1979.685762910108
 20
978.3181246138067
 30
0.0
 10
1980.515066807998
 20
978.4145227815441
 30
0.0
 10
1981.346433468236
 20
978.4708328799794
 30
0.0
 10
1982.175389239662
 20
978.487859363104
 30
0.0
 10
1983.002375893443
 20
978.4666717938833
 30
0.0
 10
1983.827807218753
 20
978.4062932350334
 30
0.0
 10
1984.651471872511
 20
978.3046108994106
 30
0.0
 10
1985.463243829767
 20
978.1615943487388
 30
0.0
 10
1986.253190997753
 20
977.9779286040627
 30
0.0
 10
1987.00717873749
 20
977.756664756405
 30
0.0
 10
1987.71709183907
 20
977.5011897840986
 30
0.0
 10
1988.376179830549
 20
977.2155730944033
 30
0.0
 10
1988.982405962102
 20
976.9021491192329
 30
0.0
 10
1989.537233099096
 20
976.5615740996091
 30
0.0
 10
1990.040592606939
 20
976.1927926197474
 30
0.0
 10
1990.490520664467
 20
975.7941564025804
 30
0.0
 10
1990.879659845989
 20
975.3696669912754
 30
0.0
 10
1991.201831746462
 20
974.9237175766101
 30
0.0
 10
1991.451448494265
 20
974.4641217859419
 30
0.0
 10
1991.625287688216
 20
973.9965513488732
 30
0.0
 10
1991.730272580273
 20
973.5275090604051
 30
0.0
 10
1991.739405503867
 20
973.2132371646084
 30
0.0
 10
1991.743938453027
 20
973.0572544158741
 30
0.0
  0
SPLINE
  5
323
330
2DD
100
AcDbEntity
  8
0
  6
Continuous
 62
     8
370
    15
100
AcDbSpline
210
0.0
220
0.0
230
1.0
 70
     8
 71
     3
 72
    41
 73
    37
 74
     0
 42
0.0000000001
 43
0.0000000001
 40
0.0
 40
0.0
 40
0.0
 40
0.0
 40
0.0203184540128662
 40
0.0509777094175013
 40
0.0819345668950358
 40
0.1130710131136253
 40
0.1442648380498645
 40
0.1748382732606317
 40
0.2052322331030207
 40
0.235335136696447
 40
0.2650418092336165
 40
0.2952922447950334
 40
0.3259515001996685
 40
0.3569083576772029
 40
0.3880448038957924
 40
0.4192386288320316
 40
0.4498120640427988
 40
0.4802060238851878
 40
0.5103089274786142
 40
0.5400156000157837
 40
0.570266035577201
 40
0.6009252909818367
 40
0.6318821484593716
 40
0.6630185946779618
 40
0.694212419614199
 40
0.7247858548249662
 40
0.7551798146673551
 40
0.7852827182607813
 40
0.8149893907979507
 40
0.845239826359368
 40
0.8758990817640038
 40
0.9068559392415386
 40
0.9379923854601287
 40
0.9691862103963659
 40
0.9997596456071333
 40
0.9999999999999998
 40
0.9999999999999998
 40
0.9999999999999998
 40
0.9999999999999998
 10
1972.556095022563
 20
972.7288700327548
 30
0.0
 10
1972.578946643993
 20
972.8274115395235
 30
0.0
 10
1972.636279909421
 20
973.0746459154481
 30
0.0
 10
1972.811379935408
 20
973.4658025217237
 30
0.0
 10
1973.071328246543
 20
973.8995307420569
 30
0.0
 10
1973.406878222579
 20
974.3223762643182
 30
0.0
 10
1973.808858459495
 20
974.7269835009459
 30
0.0
 10
1974.272100271969
 20
975.1089175326196
 30
0.0
 10
1974.789023067682
 20
975.4645408228398
 30
0.0
 10
1975.355404957579
 20
975.7926681144024
 30
0.0
 10
1975.970386177426
 20
976.0942541422672
 30
0.0
 10
1976.634640177559
 20
976.3685633399179
 30
0.0
 10
1977.349833844829
 20
976.6138440438686
 30
0.0
 10
1978.109033322358
 20
976.8262639796279
 30
0.0
 10
1978.904235763895
 20
977.0024778280783
 30
0.0
 10
1979.721529481854
 20
977.1391761590814
 30
0.0
 10
1980.550833379442
 20
977.2355743268349
 30
0.0
 10
1981.382200039755
 20
977.2918844252657
 30
0.0
 10
1982.211155811178
 20
977.3089109083928
 30
0.0
 10
1983.038142464895
 20
977.2877233391657
 30
0.0
 10
1983.863573790468
 20
977.2273447803394
 30
0.0
 10
1984.687238443222
 20
977.1256624446273
 30
0.0
 10
1985.499010404279
 20
976.9826458942933
 30
0.0
 10
1986.288957557963
 20
976.7989801483457
 30
0.0
 10
1987.042945350874
 20
976.577716305416
 30
0.0
 10
1987.752858258133
 20
976.3222413158308
 30
0.0
 10
1988.411946965349
 20
976.0366246897783
 30
0.0
 10
1989.01817046482
 20
975.7232004805656
 30
0.0
 10
1989.573007339721
 20
975.3826263268276
 30
0.0
 10
1990.076329792087
 20
975.013841552027
 30
0.0
 10
1990.52639895164
 20
974.6152178815217
 30
0.0
 10
1990.915004154229
 20
974.1906809893039
 30
0.0
 10
1991.239185074457
 20
973.744910214817
 30
0.0
 10
1991.481332237245
 20
973.2846502355577
 30
0.0
 10
1991.616660399096
 20
972.9716941121562
 30
0.0
 10
1991.650710295685
 20
972.8129039484889
 30
0.0
 10
1991.65097589243
 20
972.8116653499954
 30
0.0
  0
SPLINE
  5
324
330
2DD
100
AcDbEntity
  8
0
  6
Continuous
 62
     8
370
    15
100
AcDbSpline
210
0.0
220
0.0
230
1.0
 70
     8
 71
     3
 72
    38
 73
    34
 74
     0
 42
0.0000000001
 43
0.0000000001
 40
0.0
 40
0.0
 40
0.0
 40
0.0
 40
0.0172525032815419
 40
0.0509101077596719
 40
0.0847629687110904
 40
0.1186782142306269
 40
0.1519189458070956
 40
0.184964544173844
 40
0.2176936938792391
 40
0.2499920444254132
 40
0.2828815971248825
 40
0.3162156360450812
 40
0.3498732405232111
 40
0.3837261014746296
 40
0.4176413469941662
 40
0.4508820785706348
 40
0.4839276769373832
 40
0.5166568266427784
 40
0.5489551771889526
 40
0.5818447298884219
 40
0.6151787688086207
 40
0.6488363732867505
 40
0.6826892342381691
 40
0.7166044797577059
 40
0.7498452113341749
 40
0.7828908097009235
 40
0.8156199594063188
 40
0.8479183099524918
 40
0.8808078626519611
 40
0.9141419015721599
 40
0.9477995060502896
 40
0.9816523670017083
 40
1.0
 40
1.0
 40
1.0
 40
1.0
 10
1972.759336510896
 20
972.056725596447
 30
0.0
 10
1972.789959587301
 20
972.1326883065186
 30
0.0
 10
1972.880324683557
 20
972.3568453283927
 30
0.0
 10
1973.109905112582
 20
972.7203020489028
 30
0.0
 10
1973.441887871479
 20
973.1435032888157
 30
0.0
 10
1973.844823561402
 20
973.5480152490735
 30
0.0
 10
1974.307814426261
 20
973.9299743048745
 30
0.0
 10
1974.824803505579
 20
974.2855909853911
 30
0.0
 10
1975.391167885267
 20
974.613720023046
 30
0.0
 10
1976.006153739169
 20
974.9153055888093
 30
0.0
 10
1976.670406477769
 20
975.1896149122586
 30
0.0
 10
1977.385600490217
 20
975.4348955817887
 30
0.0
 10
1978.144799873858
 20
975.6473155269102
 30
0.0
 10
1978.94000234079
 20
975.8235293728285
 30
0.0
 10
1979.757296051946
 20
975.9602277045093
 30
0.0
 10
1980.586599951326
 20
976.056625872086
 30
0.0
 10
1981.417966611145
 20
976.1129359705593
 30
0.0
 10
1982.246922382773
 20
976.1299624536906
 30
0.0
 10
1983.073909036161
 20
976.1087748844051
 30
0.0
 10
1983.899340362871
 20
976.0483963258128
 30
0.0
 10
1984.723005011326
 20
975.9467139892066
 30
0.0
 10
1985.534776988643
 20
975.8036974422569
 30
0.0
 10
1986.324724081151
 20
975.6200316835766
 30
0.0
 10
1987.078712101516
 20
975.3987678879873
 30
0.0
 10
1987.788624177547
 20
975.143292725397
 30
0.0
 10
1988.447715946412
 20
974.857676736571
 30
0.0
 10
1989.053928186852
 20
974.5442501839958
 30
0.0
 10
1989.608806716752
 20
974.2036846999882
 30
0.0
 10
1990.111970660118
 20
973.8348669344226
 30
0.0
 10
1990.56264339956
 20
973.4363688880922
 30
0.0
 10
1990.948964446806
 20
973.0113565904881
 30
0.0
 10
1991.230662304576
 20
972.6355203157755
 30
0.0
 10
1991.353679218579
 20
972.397163742606
 30
0.0
 10
1991.396917682815
 20
972.3133852455777
 30
0.0
  0
SPLINE
  5
325
330
2DD
100
AcDbEntity
  8
0
  6
Continuous
 62
     8
370
    15
100
AcDbSpline
210
0.0
220
0.0
230
1.0
 70
     8
 71
     3
 72
    15
 73
    11
 74
     0
 42
0.0000000001
 43
0.0000000001
 40
0.0
 40
0.0
 40
0.0
 40
0.0
 40
0.0258616950876024
 40
0.1678030014179428
 40
0.3100058793509405
 40
0.4493805948324832
 40
0.5879371383215357
 40
0.7251668475308073
 40
0.860590263454743
 40
0.9999999999999998
 40
0.9999999999999998
 40
0.9999999999999998
 40
0.9999999999999998
 10
1973.10657021052
 20
971.459122100399
 30
0.0
 10
1973.122287600667
 20
971.4856601440928
 30
0.0
 10
1973.224269517641
 20
971.6578516175637
 30
0.0
 10
1973.48232983444
 20
971.963814864493
 30
0.0
 10
1973.879354705525
 20
972.3692680654194
 30
0.0
 10
1974.343940377483
 20
972.7509465967338
 30
0.0
 10
1974.860352225005
 20
973.1067600831464
 30
0.0
 10
1975.427442660668
 20
973.4343859318514
 30
0.0
 10
1976.042363246525
 20
973.7388884893778
 30
0.0
 10
1976.490296509758
 20
973.9166959392999
 30
0.0
 10
1976.717511667959
 20
974.0068891693622
 30
0.0
  0
ENDBLK
  5
2DF
330
2DD
100
AcDbEntity
  8
0
100
AcDbBlockEnd
  0
ENDSEC
  0
SECTION
  2
ENTITIES
  0
INSERT
  5
2C5
330
1F
100
AcDbEntity
  8
0
100
AcDbBlockReference
  2
1
 10
0.0
 20
0.0
 30
0.0
  0
INSERT
  5
2DC
330
1F
100
AcDbEntity
  8
0
100
AcDbBlockReference
  2
2
 10
0.0
 20
0.0
 30
0.0
  0
INSERT
  5
326
330
1F
100
AcDbEntity
  8
0
100
AcDbBlockReference
  2
3
 10
0.0
 20
0.0
 30
0.0
  0
ENDSEC
  0
SECTION
  2
OBJECTS
  0
DICTIONARY
  5
C
330
0
100
AcDbDictionary
281
     1
  3
ACAD_COLOR
350
6B
  3
ACAD_GROUP
350
D
  3
ACAD_LAYOUT
350
1A
  3
ACAD_MATERIAL
350
6A
  3
ACAD_MLEADERSTYLE
350
12D
  3
ACAD_MLINESTYLE
350
17
  3
ACAD_PLOTSETTINGS
350
19
  3
ACAD_PLOTSTYLENAME
350
E
  3
ACAD_SCALELIST
350
10C
  3
ACAD_TABLESTYLE
350
7E
  3
ACAD_VISUALSTYLE
350
EF
  3
ACDB_RECOMPOSE_DATA
350
15D
  3
AcDbVariableDictionary
350
5E
  3
DWGPROPS
350
334
  0
DICTIONARY
  5
13C
330
10
100
AcDbDictionary
280
     1
281
     1
  3
ADSK_XREC_LAYER_RECONCILED
360
327
  0
DICTIONARY
  5
6B
102
{ACAD_REACTORS
330
C
102
}
330
C
100
AcDbDictionary
281
     1
  0
DICTIONARY
  5
D
102
{ACAD_REACTORS
330
C
102
}
330
C
100
AcDbDictionary
281
     1
  0
DICTIONARY
  5
1A
102
{ACAD_REACTORS
330
C
102
}
330
C
100
AcDbDictionary
281
     1
  3
Layout1
350
D3
  3
Layout2
350
D7
  3
Model
350
22
  0
DICTIONARY
  5
6A
102
{ACAD_REACTORS
330
C
102
}
330
C
100
AcDbDictionary
281
     1
  3
ByBlock
350
ED
  3
ByLayer
350
EC
  3
Global
350
EE
  0
DICTIONARY
  5
12D
102
{ACAD_REACTORS
330
C
102
}
330
C
100
AcDbDictionary
281
     1
  3
Annotative
350
13B
  3
Standard
350
12E
  0
DICTIONARY
  5
17
102
{ACAD_REACTORS
330
C
102
}
330
C
100
AcDbDictionary
281
     1
  3
Standard
350
18
  0
DICTIONARY
  5
19
102
{ACAD_REACTORS
330
C
102
}
330
C
100
AcDbDictionary
281
     1
  0
ACDBDICTIONARYWDFLT
  5
E
102
{ACAD_REACTORS
330
C
102
}
330
C
100
AcDbDictionary
281
     1
  3
Normal
350
F
100
AcDbDictionaryWithDefault
340
F
  0
DICTIONARY
  5
10C
102
{ACAD_REACTORS
330
C
102
}
330
C
100
AcDbDictionary
281
     1
  3
A0
350
10D
  3
A1
350
188
  3
A2
350
189
  3
A3
350
18A
  3
A4
350
18B
  3
A5
350
18C
  3
A6
350
18D
  3
A7
350
18E
  3
A8
350
18F
  3
A9
350
190
  3
B0
350
191
  3
B1
350
192
  3
B2
350
193
  3
B3
350
194
  3
B4
350
195
  3
B5
350
196
  3
B6
350
197
  3
B7
350
198
  3
B8
350
199
  3
B9
350
19A
  3
C0
350
19B
  3
C1
350
19C
  3
C2
350
19D
  3
C3
350
19E
  3
C4
350
19F
  3
C5
350
1A0
  3
C6
350
1A1
  3
C7
350
1A2
  3
C8
350
1A3
  3
C9
350
1A4
  3
D0
350
1A5
  3
D1
350
1A6
  3
D2
350
1A7
  0
DICTIONARY
  5
7E
102
{ACAD_REACTORS
330
C
102
}
330
C
100
AcDbDictionary
281
     1
  3
Standard
350
7F
  0
DICTIONARY
  5
EF
102
{ACAD_REACTORS
330
C
102
}
330
C
100
AcDbDictionary
281
     1
  3
2dWireframe
350
F5
  3
3D Hidden
350
F7
  3
3dWireframe
350
F6
  3
Basic
350
F4
  3
Brighten
350
FB
  3
ColorChange
350
FF
  3
Conceptual
350
F8
  3
Dim
350
FA
  3
Facepattern
350
FE
  3
Flat
350
F0
  3
FlatWithEdges
350
F1
  3
Gouraud
350
F2
  3
GouraudWithEdges
350
F3
  3
Linepattern
350
FD
  3
Realistic
350
F9
  3
Thicken
350
FC
  0
XRECORD
  5
15D
102
{ACAD_REACTORS
330
C
102
}
330
C
100
AcDbXrecord
280
     1
 90
        1
330
7F
  0
DICTIONARY
  5
5E
102
{ACAD_REACTORS
330
C
102
}
330
C
100
AcDbDictionary
281
     1
  3
CANNOSCALE
350
146
  3
CMLEADERSTYLE
350
145
  3
CTABLESTYLE
350
84
  3
DIMASSOC
350
5F
  3
HIDETEXT
350
63
  3
INDEXCTL
350
330
  3
LIGHTINGUNITS
350
32E
  3
MSLTSCALE
350
32D
  3
PSOLHEIGHT
350
332
  3
PSOLWIDTH
350
331
  3
SORTENTS
350
32F
  0
XRECORD
  5
334
102
{ACAD_REACTORS
330
C
102
}
330
C
100
AcDbXrecord
280
     1
  1
DWGPROPS COOKIE
  2

  3

  4

  6

  7

  8
orhan kara
  9

300
=
301
=
302
=
303
=
304
=
305
=
306
=
307
=
308
=
309
=
 40
0.0005001736111111
 41
2459004.696718009
 42
2459067.626336134
  1

 90
        0
  0
XRECORD
  5
327
102
{ACAD_REACTORS
330
13C
102
}
330
13C
100
AcDbXrecord
280
     1
290
     1
  0
LAYOUT
  5
D3
102
{ACAD_XDICTIONARY
360
338
102
}
102
{ACAD_REACTORS
330
1A
102
}
330
1A
100
AcDbPlotSettings
  1

  2
C:\Documents and Settings\basas\Application Data\Autodesk\AutoCAD 2005\R16.1\enu\plotters\Default Windows System Printer.pc3
  4

  6

 40
0.0
 41
0.0
 42
0.0
 43
0.0
 44
0.0
 45
0.0
 46
0.0
 47
0.0
 48
0.0
 49
0.0
140
0.0
141
0.0
142
1.0
143
1.0
 70
   688
 72
     0
 73
     0
 74
     5
  7

 75
    16
147
1.0
148
0.0
149
0.0
100
AcDbLayout
  1
Layout1
 70
     1
 71
     1
 10
0.0
 20
0.0
 11
12.0
 21
9.0
 12
0.0
 22
0.0
 32
0.0
 14
0.0
 24
0.0
 34
0.0
 15
0.0
 25
0.0
 35
0.0
146
0.0
 13
0.0
 23
0.0
 33
0.0
 16
1.0
 26
0.0
 36
0.0
 17
0.0
 27
1.0
 37
0.0
 76
     0
330
D2
  0
LAYOUT
  5
D7
102
{ACAD_XDICTIONARY
360
33A
102
}
102
{ACAD_REACTORS
330
1A
102
}
330
1A
100
AcDbPlotSettings
  1

  2
C:\Documents and Settings\basas\Application Data\Autodesk\AutoCAD 2005\R16.1\enu\plotters\Default Windows System Printer.pc3
  4

  6

 40
0.0
 41
0.0
 42
0.0
 43
0.0
 44
0.0
 45
0.0
 46
0.0
 47
0.0
 48
0.0
 49
0.0
140
0.0
141
0.0
142
1.0
143
1.0
 70
   688
 72
     0
 73
     0
 74
     5
  7

 75
    16
147
1.0
148
0.0
149
0.0
100
AcDbLayout
  1
Layout2
 70
     1
 71
     2
 10
0.0
 20
0.0
 11
12.0
 21
9.0
 12
0.0
 22
0.0
 32
0.0
 14
0.0
 24
0.0
 34
0.0
 15
0.0
 25
0.0
 35
0.0
146
0.0
 13
0.0
 23
0.0
 33
0.0
 16
1.0
 26
0.0
 36
0.0
 17
0.0
 27
1.0
 37
0.0
 76
     0
330
D6
  0
LAYOUT
  5
22
102
{ACAD_XDICTIONARY
360
335
102
}
102
{ACAD_REACTORS
330
1A
102
}
330
1A
100
AcDbPlotSettings
  1

  2
none_device
  4
ISO_A4_(210.00_x_297.00_MM)
  6

 40
7.5
 41
20.0
 42
7.5
 43
20.0
 44
210.0
 45
297.0
 46
11.54999923706054
 47
-13.65000009536743
 48
0.0
 49
0.0
140
0.0
141
0.0
142
1.0
143
8.704084754739808
 70
 11952
 72
     1
 73
     0
 74
     0
  7

 75
     0
147
0.1148885871608098
148
0.0
149
0.0
100
AcDbLayout
  1
Model
 70
     1
 71
     0
 10
0.0
 20
0.0
 11
12.0
 21
9.0
 12
0.0
 22
0.0
 32
0.0
 14
0.0
 24
0.0
 34
0.0
 15
0.0
 25
0.0
 35
0.0
146
0.0
 13
0.0
 23
0.0
 33
0.0
 16
1.0
 26
0.0
 36
0.0
 17
0.0
 27
1.0
 37
0.0
 76
     0
330
1F
331
EA
1001
ACAD_PSEXT
1000
None
1000
None
1000
Not applicable
1000
The layout will not be plotted unless a new plotter configuration name is selected.
1070
     0
  0
MATERIAL
  5
ED
102
{ACAD_XDICTIONARY
360
33E
102
}
102
{ACAD_REACTORS
330
6A
102
}
330
6A
100
AcDbMaterial
  1
ByBlock
  0
MATERIAL
  5
EC
102
{ACAD_XDICTIONARY
360
33C
102
}
102
{ACAD_REACTORS
330
6A
102
}
330
6A
100
AcDbMaterial
  1
ByLayer
  0
MATERIAL
  5
EE
102
{ACAD_XDICTIONARY
360
173
102
}
102
{ACAD_REACTORS
330
6A
102
}
330
6A
100
AcDbMaterial
  1
Global
 43
0.0007999999797903
 43
0.0
 43
0.0
 43
0.0
 43
0.0
 43
0.0007999999797903
 43
0.0
 43
0.0
 43
0.0
 43
0.0
 43
1.0
 43
0.0
 43
0.0
 43
0.0
 43
0.0
 43
1.0
 49
0.0007999999797903
 49
0.0
 49
0.0
 49
0.0
 49
0.0
 49
0.0007999999797903
 49
0.0
 49
0.0
 49
0.0
 49
0.0
 49
1.0
 49
0.0
 49
0.0
 49
0.0
 49
0.0
 49
1.0
142
0.0007999999797903
142
0.0
142
0.0
142
0.0
142
0.0
142
0.0007999999797903
142
0.0
142
0.0
142
0.0
142
0.0
142
1.0
142
0.0
142
0.0
142
0.0
142
0.0
142
1.0
144
0.0007999999797903
144
0.0
144
0.0
144
0.0
144
0.0
144
0.0007999999797903
144
0.0
144
0.0
144
0.0
144
0.0
144
1.0
144
0.0
144
0.0
144
0.0
144
0.0
144
1.0
1001
ACAD
1070
    -1
1070
     3
1070
     0
1000

1071
        0
1070
     0
  0
MLEADERSTYLE
  5
13B
102
{ACAD_REACTORS
330
12D
102
}
330
12D
100
AcDbMLeaderStyle
170
     2
171
     1
172
     0
 90
        2
 40
0.0
 41
0.0
173
     1
 91
-1056964608
340
14
 92
       -2
290
     1
 42
2.0
291
     1
 43
8.0
  3
Standard
 44
4.0
300

342
11
174
     1
178
     1
175
     1
176
     0
 93
-1056964608
 45
4.0
292
     0
297
     0
 46
4.0
 94
-1056964608
 47
1.0
 49
1.0
140
1.0
293
     1
141
0.0
294
     1
177
     0
142
1.0
295
     0
296
     1
143
3.75
1001
ACAD_MLEADERVER
1070
     2
  0
MLEADERSTYLE
  5
12E
102
{ACAD_REACTORS
330
12D
102
}
330
12D
100
AcDbMLeaderStyle
170
     2
171
     1
172
     0
 90
        2
 40
0.0
 41
0.0
173
     1
 91
-1056964608
340
14
 92
       -2
290
     1
 42
2.0
291
     1
 43
8.0
  3
Standard
 44
4.0
300

342
11
174
     1
178
     1
175
     1
176
     0
 93
-1056964608
 45
4.0
292
     0
297
     0
 46
4.0
 94
-1056964608
 47
1.0
 49
1.0
140
1.0
293
     1
141
0.0
294
     1
177
     0
142
1.0
295
     0
296
     0
143
3.75
1001
ACAD_MLEADERVER
1070
     2
  0
MLINESTYLE
  5
18
102
{ACAD_REACTORS
330
17
102
}
330
17
100
AcDbMlineStyle
  2
STANDARD
 70
     0
  3

 62
   256
 51
90.0
 52
90.0
 71
     2
 49
0.5
 62
   256
  6
BYLAYER
 49
-0.5
 62
   256
  6
BYLAYER
  0
ACDBPLACEHOLDER
  5
F
102
{ACAD_REACTORS
330
E
102
}
330
E
  0
SCALE
  5
10D
102
{ACAD_REACTORS
330
10C
102
}
330
10C
100
AcDbScale
 70
     0
300
1:1
140
1.0
141
1.0
290
     1
  0
SCALE
  5
188
102
{ACAD_REACTORS
330
10C
102
}
330
10C
100
AcDbScale
 70
     0
300
1:2
140
1.0
141
2.0
290
     0
  0
SCALE
  5
189
102
{ACAD_REACTORS
330
10C
102
}
330
10C
100
AcDbScale
 70
     0
300
1:4
140
1.0
141
4.0
290
     0
  0
SCALE
  5
18A
102
{ACAD_REACTORS
330
10C
102
}
330
10C
100
AcDbScale
 70
     0
300
1:5
140
1.0
141
5.0
290
     0
  0
SCALE
  5
18B
102
{ACAD_REACTORS
330
10C
102
}
330
10C
100
AcDbScale
 70
     0
300
1:8
140
1.0
141
8.0
290
     0
  0
SCALE
  5
18C
102
{ACAD_REACTORS
330
10C
102
}
330
10C
100
AcDbScale
 70
     0
300
1:10
140
1.0
141
10.0
290
     0
  0
SCALE
  5
18D
102
{ACAD_REACTORS
330
10C
102
}
330
10C
100
AcDbScale
 70
     0
300
1:16
140
1.0
141
16.0
290
     0
  0
SCALE
  5
18E
102
{ACAD_REACTORS
330
10C
102
}
330
10C
100
AcDbScale
 70
     0
300
1:20
140
1.0
141
20.0
290
     0
  0
SCALE
  5
18F
102
{ACAD_REACTORS
330
10C
102
}
330
10C
100
AcDbScale
 70
     0
300
1:30
140
1.0
141
30.0
290
     0
  0
SCALE
  5
190
102
{ACAD_REACTORS
330
10C
102
}
330
10C
100
AcDbScale
 70
     0
300
1:40
140
1.0
141
40.0
290
     0
  0
SCALE
  5
191
102
{ACAD_REACTORS
330
10C
102
}
330
10C
100
AcDbScale
 70
     0
300
1:50
140
1.0
141
50.0
290
     0
  0
SCALE
  5
192
102
{ACAD_REACTORS
330
10C
102
}
330
10C
100
AcDbScale
 70
     0
300
1:100
140
1.0
141
100.0
290
     0
  0
SCALE
  5
193
102
{ACAD_REACTORS
330
10C
102
}
330
10C
100
AcDbScale
 70
     0
300
2:1
140
2.0
141
1.0
290
     0
  0
SCALE
  5
194
102
{ACAD_REACTORS
330
10C
102
}
330
10C
100
AcDbScale
 70
     0
300
4:1
140
4.0
141
1.0
290
     0
  0
SCALE
  5
195
102
{ACAD_REACTORS
330
10C
102
}
330
10C
100
AcDbScale
 70
     0
300
8:1
140
8.0
141
1.0
290
     0
  0
SCALE
  5
196
102
{ACAD_REACTORS
330
10C
102
}
330
10C
100
AcDbScale
 70
     0
300
10:1
140
10.0
141
1.0
290
     0
  0
SCALE
  5
197
102
{ACAD_REACTORS
330
10C
102
}
330
10C
100
AcDbScale
 70
     0
300
100:1
140
100.0
141
1.0
290
     0
  0
SCALE
  5
198
102
{ACAD_REACTORS
330
10C
102
}
330
10C
100
AcDbScale
 70
     0
300
1/128" = 1'-0"
140
0.0078125
141
12.0
290
     0
  0
SCALE
  5
199
102
{ACAD_REACTORS
330
10C
102
}
330
10C
100
AcDbScale
 70
     0
300
1/64" = 1'-0"
140
0.015625
141
12.0
290
     0
  0
SCALE
  5
19A
102
{ACAD_REACTORS
330
10C
102
}
330
10C
100
AcDbScale
 70
     0
300
1/32" = 1'-0"
140
0.03125
141
12.0
290
     0
  0
SCALE
  5
19B
102
{ACAD_REACTORS
330
10C
102
}
330
10C
100
AcDbScale
 70
     0
300
1/16" = 1'-0"
140
0.0625
141
12.0
290
     0
  0
SCALE
  5
19C
102
{ACAD_REACTORS
330
10C
102
}
330
10C
100
AcDbScale
 70
     0
300
3/32" = 1'-0"
140
0.09375
141
12.0
290
     0
  0
SCALE
  5
19D
102
{ACAD_REACTORS
330
10C
102
}
330
10C
100
AcDbScale
 70
     0
300
1/8" = 1'-0"
140
0.125
141
12.0
290
     0
  0
SCALE
  5
19E
102
{ACAD_REACTORS
330
10C
102
}
330
10C
100
AcDbScale
 70
     0
300
3/16" = 1'-0"
140
0.1875
141
12.0
290
     0
  0
SCALE
  5
19F
102
{ACAD_REACTORS
330
10C
102
}
330
10C
100
AcDbScale
 70
     0
300
1/4" = 1'-0"
140
0.25
141
12.0
290
     0
  0
SCALE
  5
1A0
102
{ACAD_REACTORS
330
10C
102
}
330
10C
100
AcDbScale
 70
     0
300
3/8" = 1'-0"
140
0.375
141
12.0
290
     0
  0
SCALE
  5
1A1
102
{ACAD_REACTORS
330
10C
102
}
330
10C
100
AcDbScale
 70
     0
300
1/2" = 1'-0"
140
0.5
141
12.0
290
     0
  0
SCALE
  5
1A2
102
{ACAD_REACTORS
330
10C
102
}
330
10C
100
AcDbScale
 70
     0
300
3/4" = 1'-0"
140
0.75
141
12.0
290
     0
  0
SCALE
  5
1A3
102
{ACAD_REACTORS
330
10C
102
}
330
10C
100
AcDbScale
 70
     0
300
1" = 1'-0"
140
1.0
141
12.0
290
     0
  0
SCALE
  5
1A4
102
{ACAD_REACTORS
330
10C
102
}
330
10C
100
AcDbScale
 70
     0
300
1-1/2" = 1'-0"
140
1.5
141
12.0
290
     0
  0
SCALE
  5
1A5
102
{ACAD_REACTORS
330
10C
102
}
330
10C
100
AcDbScale
 70
     0
300
3" = 1'-0"
140
3.0
141
12.0
290
     0
  0
SCALE
  5
1A6
102
{ACAD_REACTORS
330
10C
102
}
330
10C
100
AcDbScale
 70
     0
300
6" = 1'-0"
140
6.0
141
12.0
290
     0
  0
SCALE
  5
1A7
102
{ACAD_REACTORS
330
10C
102
}
330
10C
100
AcDbScale
 70
     0
300
1'-0" = 1'-0"
140
12.0
141
12.0
290
     0
  0
TABLESTYLE
  5
7F
102
{ACAD_XDICTIONARY
360
162
102
}
102
{ACAD_REACTORS
330
7E
102
}
330
7E
100
AcDbTableStyle
  3
Standard
 70
     0
 71
     0
 40
1.5
 41
1.5
280
     0
281
     0
  7
Standard
140
4.5
170
     2
 62
     0
 63
     7
283
     0
274
    -2
284
     1
 64
     0
275
    -2
285
     1
 65
     0
276
    -2
286
     1
 66
     0
277
    -2
287
     1
 67
     0
278
    -2
288
     1
 68
     0
279
    -2
289
     1
 69
     0
  7
Standard
140
6.0
170
     5
 62
     0
 63
     7
283
     0
274
    -2
284
     1
 64
     0
275
    -2
285
     1
 65
     0
276
    -2
286
     1
 66
     0
277
    -2
287
     1
 67
     0
278
    -2
288
     1
 68
     0
279
    -2
289
     1
 69
     0
  7
Standard
140
4.5
170
     5
 62
     0
 63
     7
283
     0
274
    -2
284
     1
 64
     0
275
    -2
285
     1
 65
     0
276
    -2
286
     1
 66
     0
277
    -2
287
     1
 67
     0
278
    -2
288
     1
 68
     0
279
    -2
289
     1
 69
     0
  0
VISUALSTYLE
  5
F5
102
{ACAD_REACTORS
330
EF
102
}
330
EF
100
AcDbVisualStyle
  2
2dWireframe
 70
     4
 71
     0
 72
     2
 73
     1
 90
        0
 40
-0.6
 41
-30.0
 62
     5
 63
     7
 74
     1
 91
        4
 64
     7
 65
   257
 75
     1
175
     1
 42
1.0
 92
        0
 66
   257
 43
1.0
 76
     1
 77
     6
 78
     2
 67
     7
 79
     5
170
     0
171
     0
290
     0
174
     0
 93
        1
 44
0.0
173
     0
291
     0
 45
0.0
1001
ACAD
1000
AcDbSavedByObjectVersion
1070
     0
  0
VISUALSTYLE
  5
F7
102
{ACAD_REACTORS
330
EF
102
}
330
EF
100
AcDbVisualStyle
  2
3D Hidden
 70
     6
 71
     1
 72
     2
 73
     2
 90
        0
 40
-0.6
 41
-30.0
 62
     5
 63
     7
 74
     2
 91
        2
 64
     7
 65
   257
 75
     2
175
     1
 42
40.0
 92
        0
 66
   257
 43
1.0
 76
     1
 77
     6
 78
     2
 67
     7
 79
     3
170
     0
171
     0
290
     0
174
     0
 93
        1
 44
0.0
173
     0
291
     0
 45
0.0
1001
ACAD
1000
AcDbSavedByObjectVersion
1070
     0
  0
VISUALSTYLE
  5
F6
102
{ACAD_REACTORS
330
EF
102
}
330
EF
100
AcDbVisualStyle
  2
3dWireframe
 70
     5
 71
     0
 72
     2
 73
     1
 90
        0
 40
-0.6
 41
-30.0
 62
     5
 63
     7
 74
     1
 91
        4
 64
     7
 65
   257
 75
     1
175
     1
 42
1.0
 92
        0
 66
   257
 43
1.0
 76
     1
 77
     6
 78
     2
 67
     7
 79
     5
170
     0
171
     0
290
     0
174
     0
 93
        1
 44
0.0
173
     0
291
     0
 45
0.0
1001
ACAD
1000
AcDbSavedByObjectVersion
1070
     0
  0
VISUALSTYLE
  5
F4
102
{ACAD_REACTORS
330
EF
102
}
330
EF
100
AcDbVisualStyle
  2
Basic
 70
     7
 71
     1
 72
     0
 73
     1
 90
        0
 40
-0.6
 41
-30.0
 62
     5
 63
     7
 74
     0
 91
        4
 64
     7
 65
   257
 75
     1
175
     1
 42
1.0
 92
        8
 66
     7
 43
1.0
 76
     1
 77
     6
 78
     2
 67
     7
 79
     5
170
     0
171
     0
290
     0
174
     0
 93
        1
 44
0.0
173
     0
291
     1
 45
0.0
1001
ACAD
1000
AcDbSavedByObjectVersion
1070
     0
  0
VISUALSTYLE
  5
FB
102
{ACAD_REACTORS
330
EF
102
}
330
EF
100
AcDbVisualStyle
  2
Brighten
 70
    12
 71
     2
 72
     2
 73
     1
 90
        0
 40
-0.6
 41
-30.0
 62
     5
 63
     7
 74
     1
 91
        4
 64
     7
 65
   257
 75
     1
175
     1
 42
1.0
 92
        8
 66
     7
 43
1.0
 76
     1
 77
     6
 78
     2
 67
     7
 79
     5
170
     0
171
     0
290
     0
174
     0
 93
        1
 44
50.0
173
     0
291
     1
 45
0.0
1001
ACAD
1000
AcDbSavedByObjectVersion
1070
     0
  0
VISUALSTYLE
  5
FF
102
{ACAD_REACTORS
330
EF
102
}
330
EF
100
AcDbVisualStyle
  2
ColorChange
 70
    16
 71
     2
 72
     2
 73
     3
 90
        0
 40
-0.6
 41
-30.0
 62
     5
 63
     8
 74
     1
 91
        4
 64
     7
 65
   257
 75
     1
175
     1
 42
1.0
 92
        8
 66
     8
 43
1.0
 76
     1
 77
     6
 78
     2
 67
     7
 79
     5
170
     0
171
     0
290
     0
174
     0
 93
        1
 44
0.0
173
     0
291
     1
 45
0.0
1001
ACAD
1000
AcDbSavedByObjectVersion
1070
     0
  0
VISUALSTYLE
  5
F8
102
{ACAD_REACTORS
330
EF
102
}
330
EF
100
AcDbVisualStyle
  2
Conceptual
 70
     9
 71
     3
 72
     2
 73
     1
 90
        0
 40
-0.6
 41
-30.0
 62
     5
 63
     7
 74
     2
 91
        2
 64
     7
 65
   257
 75
     1
175
     1
 42
40.0
 92
        8
 66
     7
 43
1.0
 76
     1
 77
     6
 78
     2
 67
     7
 79
     3
170
     0
171
     0
290
     0
174
     0
 93
        1
 44
0.0
173
     0
291
     0
 45
0.0
1001
ACAD
1000
AcDbSavedByObjectVersion
1070
     0
  0
VISUALSTYLE
  5
FA
102
{ACAD_REACTORS
330
EF
102
}
330
EF
100
AcDbVisualStyle
  2
Dim
 70
    11
 71
     2
 72
     2
 73
     1
 90
        0
 40
-0.6
 41
-30.0
 62
     5
 63
     7
 74
     1
 91
        4
 64
     7
 65
   257
 75
     1
175
     1
 42
1.0
 92
        8
 66
     7
 43
1.0
 76
     1
 77
     6
 78
     2
 67
     7
 79
     5
170
     0
171
     0
290
     0
174
     0
 93
        1
 44
-50.0
173
     0
291
     1
 45
0.0
1001
ACAD
1000
AcDbSavedByObjectVersion
1070
     0
  0
VISUALSTYLE
  5
FE
102
{ACAD_REACTORS
330
EF
102
}
330
EF
100
AcDbVisualStyle
  2
Facepattern
 70
    15
 71
     2
 72
     2
 73
     1
 90
        0
 40
-0.6
 41
-30.0
 62
     5
 63
     7
 74
     1
 91
        4
 64
     7
 65
   257
 75
     1
175
     1
 42
1.0
 92
        8
 66
     7
 43
1.0
 76
     1
 77
     6
 78
     2
 67
     7
 79
     5
170
     0
171
     0
290
     0
174
     0
 93
        1
 44
0.0
173
     0
291
     1
 45
0.0
1001
ACAD
1000
AcDbSavedByObjectVersion
1070
     0
  0
VISUALSTYLE
  5
F0
102
{ACAD_REACTORS
330
EF
102
}
330
EF
100
AcDbVisualStyle
  2
Flat
 70
     0
 71
     2
 72
     1
 73
     1
 90
        2
 40
-0.6
 41
30.0
 62
     5
 63
     7
 74
     0
 91
        4
 64
     7
 65
   257
 75
     1
175
     1
 42
1.0
 92
        8
 66
     7
 43
1.0
 76
     1
 77
     6
 78
     2
 67
     7
 79
     5
170
     0
171
     0
290
     0
174
     0
 93
        1
 44
0.0
173
     0
291
     1
 45
0.0
1001
ACAD
1000
AcDbSavedByObjectVersion
1070
     0
  0
VISUALSTYLE
  5
F1
102
{ACAD_REACTORS
330
EF
102
}
330
EF
100
AcDbVisualStyle
  2
FlatWithEdges
 70
     1
 71
     2
 72
     1
 73
     1
 90
        2
 40
-0.6
 41
30.0
 62
     5
 63
     7
 74
     1
 91
        4
 64
     7
 65
   257
 75
     1
175
     1
 42
1.0
 92
        0
 66
   257
 43
1.0
 76
     1
 77
     6
 78
     2
 67
     7
 79
     5
170
     0
171
     0
290
     0
174
     0
 93
        1
 44
0.0
173
     0
291
     1
 45
0.0
1001
ACAD
1000
AcDbSavedByObjectVersion
1070
     0
  0
VISUALSTYLE
  5
F2
102
{ACAD_REACTORS
330
EF
102
}
330
EF
100
AcDbVisualStyle
  2
Gouraud
 70
     2
 71
     2
 72
     2
 73
     1
 90
        2
 40
-0.6
 41
30.0
 62
     5
 63
     7
 74
     0
 91
        4
 64
     7
 65
   257
 75
     1
175
     1
 42
1.0
 92
        0
 66
     7
 43
1.0
 76
     1
 77
     6
 78
     2
 67
     7
 79
     5
170
     0
171
     0
290
     0
174
     0
 93
        1
 44
0.0
173
     0
291
     1
 45
0.0
1001
ACAD
1000
AcDbSavedByObjectVersion
1070
     0
  0
VISUALSTYLE
  5
F3
102
{ACAD_REACTORS
330
EF
102
}
330
EF
100
AcDbVisualStyle
  2
GouraudWithEdges
 70
     3
 71
     2
 72
     2
 73
     1
 90
        2
 40
-0.6
 41
30.0
 62
     5
 63
     7
 74
     1
 91
        4
 64
     7
 65
   257
 75
     1
175
     1
 42
1.0
 92
        0
 66
   257
 43
1.0
 76
     1
 77
     6
 78
     2
 67
     7
 79
     5
170
     0
171
     0
290
     0
174
     0
 93
        1
 44
0.0
173
     0
291
     1
 45
0.0
1001
ACAD
1000
AcDbSavedByObjectVersion
1070
     0
  0
VISUALSTYLE
  5
FD
102
{ACAD_REACTORS
330
EF
102
}
330
EF
100
AcDbVisualStyle
  2
Linepattern
 70
    14
 71
     2
 72
     2
 73
     1
 90
        0
 40
-0.6
 41
-30.0
 62
     5
 63
     7
 74
     1
 91
        4
 64
     7
 65
   257
 75
     7
175
     7
 42
1.0
 92
        8
 66
     7
 43
1.0
 76
     1
 77
     6
 78
     2
 67
     7
 79
     5
170
     0
171
     0
290
     0
174
     0
 93
        1
 44
0.0
173
     0
291
     1
 45
0.0
1001
ACAD
1000
AcDbSavedByObjectVersion
1070
     0
  0
VISUALSTYLE
  5
F9
102
{ACAD_REACTORS
330
EF
102
}
330
EF
100
AcDbVisualStyle
  2
Realistic
 70
     8
 71
     2
 72
     2
 73
     1
 90
        0
 40
-0.6
 41
-30.0
 62
     5
 63
     7
 74
     1
 91
        0
 64
     7
 65
   257
 75
     1
175
     1
 42
1.0
 92
        8
 66
     8
 43
1.0
 76
     1
 77
     6
 78
     2
 67
     7
 79
     5
170
     0
171
     0
290
     0
174
     0
 93
       13
 44
0.0
173
     0
291
     0
 45
0.0
1001
ACAD
1000
AcDbSavedByObjectVersion
1070
     0
  0
VISUALSTYLE
  5
FC
102
{ACAD_REACTORS
330
EF
102
}
330
EF
100
AcDbVisualStyle
  2
Thicken
 70
    13
 71
     2
 72
     2
 73
     1
 90
        0
 40
-0.6
 41
-30.0
 62
     5
 63
     7
 74
     1
 91
        4
 64
     7
 65
   257
 75
     1
175
     1
 42
1.0
 92
       12
 66
     7
 43
1.0
 76
     1
 77
     6
 78
     2
 67
     7
 79
     5
170
     0
171
     0
290
     0
174
     0
 93
        1
 44
0.0
173
     0
291
     1
 45
0.0
1001
ACAD
1000
AcDbSavedByObjectVersion
1070
     0
  0
DICTIONARYVAR
  5
146
102
{ACAD_REACTORS
330
5E
102
}
330
5E
100
DictionaryVariables
280
     0
  1
1:1
  0
DICTIONARYVAR
  5
145
102
{ACAD_REACTORS
330
5E
102
}
330
5E
100
DictionaryVariables
280
     0
  1
STANDARD
  0
DICTIONARYVAR
  5
84
102
{ACAD_REACTORS
330
5E
102
}
330
5E
100
DictionaryVariables
280
     0
  1
STANDARD
  0
DICTIONARYVAR
  5
5F
102
{ACAD_REACTORS
330
5E
102
}
330
5E
100
DictionaryVariables
280
     0
  1
2
  0
DICTIONARYVAR
  5
63
102
{ACAD_REACTORS
330
5E
102
}
330
5E
100
DictionaryVariables
280
     0
  1
1
  0
DICTIONARYVAR
  5
330
102
{ACAD_REACTORS
330
5E
102
}
330
5E
100
DictionaryVariables
280
     0
  1
0
  0
DICTIONARYVAR
  5
32E
102
{ACAD_REACTORS
330
5E
102
}
330
5E
100
DictionaryVariables
280
     0
  1
2
  0
DICTIONARYVAR
  5
32D
102
{ACAD_REACTORS
330
5E
102
}
330
5E
100
DictionaryVariables
280
     0
  1
1
  0
DICTIONARYVAR
  5
332
102
{ACAD_REACTORS
330
5E
102
}
330
5E
100
DictionaryVariables
280
     0
  1
80.000000
  0
DICTIONARYVAR
  5
331
102
{ACAD_REACTORS
330
5E
102
}
330
5E
100
DictionaryVariables
280
     0
  1
5.000000
  0
DICTIONARYVAR
  5
32F
102
{ACAD_REACTORS
330
5E
102
}
330
5E
100
DictionaryVariables
280
     0
  1
127
  0
DICTIONARY
  5
338
330
D3
100
AcDbDictionary
280
     1
281
     1
  3
ACAD_XREC_ROUNDTRIP
360
339
  0
DICTIONARY
  5
33A
330
D7
100
AcDbDictionary
280
     1
281
     1
  3
ACAD_XREC_ROUNDTRIP
360
33B
  0
DICTIONARY
  5
335
330
22
100
AcDbDictionary
280
     1
281
     1
  3
ACAD_XREC_ROUNDTRIP
360
336
  0
DICTIONARY
  5
33E
330
ED
100
AcDbDictionary
280
     1
281
     1
  3
ACAD_XREC_ROUNDTRIP
360
33F
  0
DICTIONARY
  5
33C
330
EC
100
AcDbDictionary
280
     1
281
     1
  3
ACAD_XREC_ROUNDTRIP
360
33D
  0
DICTIONARY
  5
173
330
EE
100
AcDbDictionary
280
     1
281
     1
  3
ACAD_XREC_ROUNDTRIP
360
340
  3
BUMPTILE
360
175
  3
DIFFUSETILE
360
174
  3
OPACITYTILE
360
176
  3
REFLECTIONTILE
360
177
  0
DICTIONARY
  5
162
330
7F
100
AcDbDictionary
280
     1
281
     1
  3
ACAD_ROUNDTRIP_2008_TABLESTYLE_CELLSTYLEMAP
360
333
  3
ACAD_XREC_ROUNDTRIP
360
337
  0
XRECORD
  5
339
102
{ACAD_REACTORS
330
338
102
}
330
338
100
AcDbXrecord
280
     1
102
SHADEPLOT
 70
     0
102
SHADEPLOTRESLEVEL
 70
     2
102
SHADEPLOTCUSTOMDPI
 70
   300
  0
XRECORD
  5
33B
102
{ACAD_REACTORS
330
33A
102
}
330
33A
100
AcDbXrecord
280
     1
102
SHADEPLOT
 70
     0
102
SHADEPLOTRESLEVEL
 70
     2
102
SHADEPLOTCUSTOMDPI
 70
   300
  0
XRECORD
  5
336
102
{ACAD_REACTORS
330
335
102
}
330
335
100
AcDbXrecord
280
     1
102
SHADEPLOT
 70
     0
102
SHADEPLOTRESLEVEL
 70
     2
102
SHADEPLOTCUSTOMDPI
 70
   300
  0
XRECORD
  5
33F
102
{ACAD_REACTORS
330
33E
102
}
330
33E
100
AcDbXrecord
280
     1
102
MATERIAL
148
0.0
149
0.0
149
0.0
 93
        0
 94
       63
282
     0
 72
     1
 77
     1
171
     1
175
     1
179
     1
273
     0
  0
XRECORD
  5
33D
102
{ACAD_REACTORS
330
33C
102
}
330
33C
100
AcDbXrecord
280
     1
102
MATERIAL
148
0.0
149
0.0
149
0.0
 93
        0
 94
       63
282
     0
 72
     1
 77
     1
171
     1
175
     1
179
     1
273
     0
  0
XRECORD
  5
340
102
{ACAD_REACTORS
330
173
102
}
330
173
100
AcDbXrecord
280
     1
102
MATERIAL
148
0.0
149
0.0
149
0.0
 93
        0
 94
       63
282
     0
 72
     1
 77
     1
171
     1
175
     1
179
     1
273
     0
  0
XRECORD
  5
175
102
{ACAD_REACTORS
330
173
102
}
330
173
100
AcDbXrecord
280
     1
270
     1
271
     1
  0
XRECORD
  5
174
102
{ACAD_REACTORS
330
173
102
}
330
173
100
AcDbXrecord
280
     1
270
     1
271
     1
  0
XRECORD
  5
176
102
{ACAD_REACTORS
330
173
102
}
330
173
100
AcDbXrecord
280
     1
270
     1
271
     1
  0
XRECORD
  5
177
102
{ACAD_REACTORS
330
173
102
}
330
173
100
AcDbXrecord
280
     1
270
     1
271
     1
  0
CELLSTYLEMAP
  5
333
102
{ACAD_REACTORS
330
162
102
}
330
162
100
AcDbCellStyleMap
 90
        3
300
CELLSTYLE
  1
TABLEFORMAT_BEGIN
 90
        5
170
     1
 91
        0
 92
    32768
 62
   257
 93
        1
300
CONTENTFORMAT
  1
CONTENTFORMAT_BEGIN
 90
        0
 91
        0
 92
      512
 93
        0
300

 40
0.0
140
1.0
 94
        5
 62
     0
340
11
144
6.0
309
CONTENTFORMAT_END
171
     1
301
MARGIN
  1
CELLMARGIN_BEGIN
 40
1.5
 40
1.5
 40
1.5
 40
1.5
 40
4.5
 40
4.5
309
CELLMARGIN_END
 94
        6
 95
        1
302
GRIDFORMAT
  1
GRIDFORMAT_BEGIN
 90
        0
 91
        1
 62
     0
 92
       -2
340
14
 93
        0
 40
1.125
309
GRIDFORMAT_END
 95
        2
302
GRIDFORMAT
  1
GRIDFORMAT_BEGIN
 90
        0
 91
        1
 62
     0
 92
       -2
340
14
 93
        0
 40
1.125
309
GRIDFORMAT_END
 95
        4
302
GRIDFORMAT
  1
GRIDFORMAT_BEGIN
 90
        0
 91
        1
 62
     0
 92
       -2
340
14
 93
        0
 40
1.125
309
GRIDFORMAT_END
 95
        8
302
GRIDFORMAT
  1
GRIDFORMAT_BEGIN
 90
        0
 91
        1
 62
     0
 92
       -2
340
14
 93
        0
 40
1.125
309
GRIDFORMAT_END
 95
       16
302
GRIDFORMAT
  1
GRIDFORMAT_BEGIN
 90
        0
 91
        1
 62
     0
 92
       -2
340
14
 93
        0
 40
1.125
309
GRIDFORMAT_END
 95
       32
302
GRIDFORMAT
  1
GRIDFORMAT_BEGIN
 90
        0
 91
        1
 62
     0
 92
       -2
340
14
 93
        0
 40
1.125
309
GRIDFORMAT_END
309
TABLEFORMAT_END
  1
CELLSTYLE_BEGIN
 90
        1
 91
        1
300
_TITLE
309
CELLSTYLE_END
300
CELLSTYLE
  1
TABLEFORMAT_BEGIN
 90
        5
170
     1
 91
        0
 92
        0
 62
   257
 93
        1
300
CONTENTFORMAT
  1
CONTENTFORMAT_BEGIN
 90
        0
 91
        0
 92
      512
 93
        0
300

 40
0.0
140
1.0
 94
        5
 62
     0
340
11
144
4.5
309
CONTENTFORMAT_END
171
     1
301
MARGIN
  1
CELLMARGIN_BEGIN
 40
1.5
 40
1.5
 40
1.5
 40
1.5
 40
4.5
 40
4.5
309
CELLMARGIN_END
 94
        6
 95
        1
302
GRIDFORMAT
  1
GRIDFORMAT_BEGIN
 90
        0
 91
        1
 62
     0
 92
       -2
340
14
 93
        0
 40
1.125
309
GRIDFORMAT_END
 95
        2
302
GRIDFORMAT
  1
GRIDFORMAT_BEGIN
 90
        0
 91
        1
 62
     0
 92
       -2
340
14
 93
        0
 40
1.125
309
GRIDFORMAT_END
 95
        4
302
GRIDFORMAT
  1
GRIDFORMAT_BEGIN
 90
        0
 91
        1
 62
     0
 92
       -2
340
14
 93
        0
 40
1.125
309
GRIDFORMAT_END
 95
        8
302
GRIDFORMAT
  1
GRIDFORMAT_BEGIN
 90
        0
 91
        1
 62
     0
 92
       -2
340
14
 93
        0
 40
1.125
309
GRIDFORMAT_END
 95
       16
302
GRIDFORMAT
  1
GRIDFORMAT_BEGIN
 90
        0
 91
        1
 62
     0
 92
       -2
340
14
 93
        0
 40
1.125
309
GRIDFORMAT_END
 95
       32
302
GRIDFORMAT
  1
GRIDFORMAT_BEGIN
 90
        0
 91
        1
 62
     0
 92
       -2
340
14
 93
        0
 40
1.125
309
GRIDFORMAT_END
309
TABLEFORMAT_END
  1
CELLSTYLE_BEGIN
 90
        2
 91
        1
300
_HEADER
309
CELLSTYLE_END
300
CELLSTYLE
  1
TABLEFORMAT_BEGIN
 90
        5
170
     1
 91
        0
 92
        0
 62
   257
 93
        1
300
CONTENTFORMAT
  1
CONTENTFORMAT_BEGIN
 90
        0
 91
        0
 92
      512
 93
        0
300

 40
0.0
140
1.0
 94
        2
 62
     0
340
11
144
4.5
309
CONTENTFORMAT_END
171
     1
301
MARGIN
  1
CELLMARGIN_BEGIN
 40
1.5
 40
1.5
 40
1.5
 40
1.5
 40
4.5
 40
4.5
309
CELLMARGIN_END
 94
        6
 95
        1
302
GRIDFORMAT
  1
GRIDFORMAT_BEGIN
 90
        0
 91
        1
 62
     0
 92
       -2
340
14
 93
        0
 40
1.125
309
GRIDFORMAT_END
 95
        2
302
GRIDFORMAT
  1
GRIDFORMAT_BEGIN
 90
        0
 91
        1
 62
     0
 92
       -2
340
14
 93
        0
 40
1.125
309
GRIDFORMAT_END
 95
        4
302
GRIDFORMAT
  1
GRIDFORMAT_BEGIN
 90
        0
 91
        1
 62
     0
 92
       -2
340
14
 93
        0
 40
1.125
309
GRIDFORMAT_END
 95
        8
302
GRIDFORMAT
  1
GRIDFORMAT_BEGIN
 90
        0
 91
        1
 62
     0
 92
       -2
340
14
 93
        0
 40
1.125
309
GRIDFORMAT_END
 95
       16
302
GRIDFORMAT
  1
GRIDFORMAT_BEGIN
 90
        0
 91
        1
 62
     0
 92
       -2
340
14
 93
        0
 40
1.125
309
GRIDFORMAT_END
 95
       32
302
GRIDFORMAT
  1
GRIDFORMAT_BEGIN
 90
        0
 91
        1
 62
     0
 92
       -2
340
14
 93
        0
 40
1.125
309
GRIDFORMAT_END
309
TABLEFORMAT_END
  1
CELLSTYLE_BEGIN
 90
        3
 91
        2
300
_DATA
309
CELLSTYLE_END
  0
XRECORD
  5
337
102
{ACAD_REACTORS
330
162
102
}
330
162
100
AcDbXrecord
280
     1
102
ACAD_ROUNDTRIP_PRE2007_TABLESTYLE
 90
      512
 91
        0
  1

 92
      512
 93
        0
  2

 94
      512
 95
        0
  3

  0
ENDSEC
  0
EOF
