  0
SECTION
  2
HEADER
  9
$ACADVER
  1
AC1015
  9
$ACADMAINTVER
 70
    20
  9
$DWGCODEPAGE
  3
ANSI_1254
  9
$INSBASE
 10
0.0
 20
0.0
 30
0.0
  9
$EXTMIN
 10
1947.730010116336
 20
868.6001436870482
 30
0.0
  9
$EXTMAX
 10
2021.584207419726
 20
922.1389218496478
 30
0.0
  9
$LIMMIN
 10
0.0
 20
0.0
  9
$LIMMAX
 10
420.0
 20
297.0
  9
$ORTHOMODE
 70
     0
  9
$REGENMODE
 70
     1
  9
$FILLMODE
 70
     1
  9
$QTEXTMODE
 70
     0
  9
$MIRRTEXT
 70
     0
  9
$LTSCALE
 40
1.0
  9
$ATTMODE
 70
     1
  9
$TEXTSIZE
 40
2.5
  9
$TRACEWID
 40
1.0
  9
$TEXTSTYLE
  7
Standard
  9
$CLAYER
  8
0
  9
$CELTYPE
  6
ByLayer
  9
$CECOLOR
 62
   256
  9
$CELTSCALE
 40
1.0
  9
$DISPSILH
 70
     0
  9
$DIMSCALE
 40
1.0
  9
$DIMASZ
 40
2.5
  9
$DIMEXO
 40
0.625
  9
$DIMDLI
 40
3.75
  9
$DIMRND
 40
0.0
  9
$DIMDLE
 40
0.0
  9
$DIMEXE
 40
1.25
  9
$DIMTP
 40
0.0
  9
$DIMTM
 40
0.0
  9
$DIMTXT
 40
2.5
  9
$DIMCEN
 40
2.5
  9
$DIMTSZ
 40
0.0
  9
$DIMTOL
 70
     0
  9
$DIMLIM
 70
     0
  9
$DIMTIH
 70
     0
  9
$DIMTOH
 70
     0
  9
$DIMSE1
 70
     0
  9
$DIMSE2
 70
     0
  9
$DIMTAD
 70
     1
  9
$DIMZIN
 70
     8
  9
$DIMBLK
  1

  9
$DIMASO
 70
     1
  9
$DIMSHO
 70
     1
  9
$DIMPOST
  1

  9
$DIMAPOST
  1

  9
$DIMALT
 70
     0
  9
$DIMALTD
 70
     3
  9
$DIMALTF
 40
0.03937007874016
  9
$DIMLFAC
 40
1.0
  9
$DIMTOFL
 70
     1
  9
$DIMTVP
 40
0.0
  9
$DIMTIX
 70
     0
  9
$DIMSOXD
 70
     0
  9
$DIMSAH
 70
     0
  9
$DIMBLK1
  1

  9
$DIMBLK2
  1

  9
$DIMSTYLE
  2
ISO-25
  9
$DIMCLRD
 70
     0
  9
$DIMCLRE
 70
     0
  9
$DIMCLRT
 70
     0
  9
$DIMTFAC
 40
1.0
  9
$DIMGAP
 40
0.625
  9
$DIMJUST
 70
     0
  9
$DIMSD1
 70
     0
  9
$DIMSD2
 70
     0
  9
$DIMTOLJ
 70
     0
  9
$DIMTZIN
 70
     8
  9
$DIMALTZ
 70
     0
  9
$DIMALTTZ
 70
     0
  9
$DIMUPT
 70
     0
  9
$DIMDEC
 70
     2
  9
$DIMTDEC
 70
     2
  9
$DIMALTU
 70
     2
  9
$DIMALTTD
 70
     3
  9
$DIMTXSTY
  7
Standard
  9
$DIMAUNIT
 70
     0
  9
$DIMADEC
 70
     0
  9
$DIMALTRND
 40
0.0
  9
$DIMAZIN
 70
     0
  9
$DIMDSEP
 70
    44
  9
$DIMATFIT
 70
     3
  9
$DIMFRAC
 70
     0
  9
$DIMLDRBLK
  1

  9
$DIMLUNIT
 70
     2
  9
$DIMLWD
 70
    -2
  9
$DIMLWE
 70
    -2
  9
$DIMTMOVE
 70
     0
  9
$LUNITS
 70
     2
  9
$LUPREC
 70
     4
  9
$SKETCHINC
 40
1.0
  9
$FILLETRAD
 40
0.0
  9
$AUNITS
 70
     0
  9
$AUPREC
 70
     0
  9
$MENU
  1
.
  9
$ELEVATION
 40
0.0
  9
$PELEVATION
 40
0.0
  9
$THICKNESS
 40
0.0
  9
$LIMCHECK
 70
     0
  9
$CHAMFERA
 40
0.0
  9
$CHAMFERB
 40
0.0
  9
$CHAMFERC
 40
0.0
  9
$CHAMFERD
 40
0.0
  9
$SKPOLY
 70
     0
  9
$TDCREATE
 40
2459004.691661354
  9
$TDUCREATE
 40
2459004.566661354
  9
$TDUPDATE
 40
2459067.625083136
  9
$TDUUPDATE
 40
2459067.500083136
  9
$TDINDWG
 40
0.0003348611
  9
$TDUSRTIMER
 40
0.0003348611
  9
$USRTIMER
 70
     1
  9
$ANGBASE
 50
0.0
  9
$ANGDIR
 70
     0
  9
$PDMODE
 70
     0
  9
$PDSIZE
 40
0.0
  9
$PLINEWID
 40
0.0
  9
$SPLFRAME
 70
     0
  9
$SPLINETYPE
 70
     6
  9
$SPLINESEGS
 70
     8
  9
$HANDSEED
  5
38C
  9
$SURFTAB1
 70
     6
  9
$SURFTAB2
 70
     6
  9
$SURFTYPE
 70
     6
  9
$SURFU
 70
     6
  9
$SURFV
 70
     6
  9
$UCSBASE
  2

  9
$UCSNAME
  2

  9
$UCSORG
 10
0.0
 20
0.0
 30
0.0
  9
$UCSXDIR
 10
1.0
 20
0.0
 30
0.0
  9
$UCSYDIR
 10
0.0
 20
1.0
 30
0.0
  9
$UCSORTHOREF
  2

  9
$UCSORTHOVIEW
 70
     0
  9
$UCSORGTOP
 10
0.0
 20
0.0
 30
0.0
  9
$UCSORGBOTTOM
 10
0.0
 20
0.0
 30
0.0
  9
$UCSORGLEFT
 10
0.0
 20
0.0
 30
0.0
  9
$UCSORGRIGHT
 10
0.0
 20
0.0
 30
0.0
  9
$UCSORGFRONT
 10
0.0
 20
0.0
 30
0.0
  9
$UCSORGBACK
 10
0.0
 20
0.0
 30
0.0
  9
$PUCSBASE
  2

  9
$PUCSNAME
  2

  9
$PUCSORG
 10
0.0
 20
0.0
 30
0.0
  9
$PUCSXDIR
 10
1.0
 20
0.0
 30
0.0
  9
$PUCSYDIR
 10
0.0
 20
1.0
 30
0.0
  9
$PUCSORTHOREF
  2

  9
$PUCSORTHOVIEW
 70
     0
  9
$PUCSORGTOP
 10
0.0
 20
0.0
 30
0.0
  9
$PUCSORGBOTTOM
 10
0.0
 20
0.0
 30
0.0
  9
$PUCSORGLEFT
 10
0.0
 20
0.0
 30
0.0
  9
$PUCSORGRIGHT
 10
0.0
 20
0.0
 30
0.0
  9
$PUCSORGFRONT
 10
0.0
 20
0.0
 30
0.0
  9
$PUCSORGBACK
 10
0.0
 20
0.0
 30
0.0
  9
$USERI1
 70
     0
  9
$USERI2
 70
     0
  9
$USERI3
 70
     0
  9
$USERI4
 70
     0
  9
$USERI5
 70
     0
  9
$USERR1
 40
0.0
  9
$USERR2
 40
0.0
  9
$USERR3
 40
0.0
  9
$USERR4
 40
0.0
  9
$USERR5
 40
0.0
  9
$WORLDVIEW
 70
     1
  9
$SHADEDGE
 70
     3
  9
$SHADEDIF
 70
    70
  9
$TILEMODE
 70
     1
  9
$MAXACTVP
 70
    64
  9
$PINSBASE
 10
0.0
 20
0.0
 30
0.0
  9
$PLIMCHECK
 70
     0
  9
$PEXTMIN
 10
0.0
 20
0.0
 30
0.0
  9
$PEXTMAX
 10
0.0
 20
0.0
 30
0.0
  9
$PLIMMIN
 10
0.0
 20
0.0
  9
$PLIMMAX
 10
12.0
 20
9.0
  9
$UNITMODE
 70
     0
  9
$VISRETAIN
 70
     1
  9
$PLINEGEN
 70
     0
  9
$PSLTSCALE
 70
     1
  9
$TREEDEPTH
 70
  3020
  9
$CMLSTYLE
  2
Standard
  9
$CMLJUST
 70
     0
  9
$CMLSCALE
 40
20.0
  9
$PROXYGRAPHICS
 70
     1
  9
$MEASUREMENT
 70
     1
  9
$CELWEIGHT
370
    -1
  9
$ENDCAPS
280
     0
  9
$JOINSTYLE
280
     0
  9
$LWDISPLAY
290
     0
  9
$INSUNITS
 70
     4
  9
$HYPERLINKBASE
  1

  9
$STYLESHEET
  1

  9
$XEDIT
290
     1
  9
$CEPSNTYPE
380
     0
  9
$PSTYLEMODE
290
     1
  9
$FINGERPRINTGUID
  2
{0FEE484B-144D-4F1D-8402-D36CC911086D}
  9
$VERSIONGUID
  2
{36C20D8A-E652-4848-B2F2-A9D9817E2AB8}
  9
$EXTNAMES
290
     1
  9
$PSVPSCALE
 40
0.0
  9
$OLESTARTUP
290
     0
  0
ENDSEC
  0
SECTION
  2
CLASSES
  0
CLASS
  1
ACDBDICTIONARYWDFLT
  2
AcDbDictionaryWithDefault
  3
ObjectDBX Classes
 90
        0
280
     0
281
     0
  0
CLASS
  1
ACDBPLACEHOLDER
  2
AcDbPlaceHolder
  3
ObjectDBX Classes
 90
        0
280
     0
281
     0
  0
CLASS
  1
LAYOUT
  2
AcDbLayout
  3
ObjectDBX Classes
 90
        0
280
     0
281
     0
  0
CLASS
  1
DICTIONARYVAR
  2
AcDbDictionaryVar
  3
ObjectDBX Classes
 90
        0
280
     0
281
     0
  0
CLASS
  1
TABLESTYLE
  2
AcDbTableStyle
  3
ObjectDBX Classes
 90
     4095
280
     0
281
     0
  0
CLASS
  1
MATERIAL
  2
AcDbMaterial
  3
ObjectDBX Classes
 90
     1153
280
     0
281
     0
  0
CLASS
  1
VISUALSTYLE
  2
AcDbVisualStyle
  3
ObjectDBX Classes
 90
     4095
280
     0
281
     0
  0
CLASS
  1
SCALE
  2
AcDbScale
  3
ObjectDBX Classes
 90
     1153
280
     0
281
     0
  0
CLASS
  1
MLEADERSTYLE
  2
AcDbMLeaderStyle
  3
ACDB_MLEADERSTYLE_CLASS
 90
     4095
280
     0
281
     0
  0
CLASS
  1
CELLSTYLEMAP
  2
AcDbCellStyleMap
  3
ObjectDBX Classes
 90
     1152
280
     0
281
     0
  0
ENDSEC
  0
SECTION
  2
TABLES
  0
TABLE
  2
VPORT
  5
8
330
0
100
AcDbSymbolTable
 70
     1
  0
VPORT
  5
EA
330
8
100
AcDbSymbolTableRecord
100
AcDbViewportTableRecord
  2
*Active
 70
     0
 10
0.0
 20
0.0
 11
1.0
 21
1.0
 12
1984.629594722557
 22
898.4277772582906
 13
0.0
 23
0.0
 14
10.0
 24
10.0
 15
10.0
 25
10.0
 16
0.0
 26
0.0
 36
1.0
 17
0.0
 27
0.0
 37
0.0
 40
60.16649265640099
 41
1.903110047846889
 42
50.0
 43
0.0
 44
0.0
 50
0.0
 51
0.0
 71
     0
 72
  1000
 73
     1
 74
     3
 75
     0
 76
     0
 77
     0
 78
     0
281
     0
 65
     1
110
0.0
120
0.0
130
0.0
111
1.0
121
0.0
131
0.0
112
0.0
122
1.0
132
0.0
 79
     0
146
0.0
  0
ENDTAB
  0
TABLE
  2
LTYPE
  5
5
330
0
100
AcDbSymbolTable
 70
     1
  0
LTYPE
  5
14
330
5
100
AcDbSymbolTableRecord
100
AcDbLinetypeTableRecord
  2
ByBlock
 70
     0
  3

 72
    65
 73
     0
 40
0.0
  0
LTYPE
  5
15
330
5
100
AcDbSymbolTableRecord
100
AcDbLinetypeTableRecord
  2
ByLayer
 70
     0
  3

 72
    65
 73
     0
 40
0.0
  0
LTYPE
  5
16
330
5
100
AcDbSymbolTableRecord
100
AcDbLinetypeTableRecord
  2
Continuous
 70
     0
  3
Solid line
 72
    65
 73
     0
 40
0.0
  0
ENDTAB
  0
TABLE
  2
LAYER
  5
2
330
0
100
AcDbSymbolTable
 70
     1
  0
LAYER
  5
10
102
{ACAD_XDICTIONARY
360
13C
102
}
330
2
100
AcDbSymbolTableRecord
100
AcDbLayerTableRecord
  2
0
 70
     0
 62
     7
  6
Continuous
370
    -3
390
F
  0
ENDTAB
  0
TABLE
  2
STYLE
  5
3
330
0
100
AcDbSymbolTable
 70
     2
  0
STYLE
  5
11
330
3
100
AcDbSymbolTableRecord
100
AcDbTextStyleTableRecord
  2
Standard
 70
     0
 40
0.0
 41
1.0
 50
0.0
 71
     0
 42
2.5
  3
txt
  4

  0
STYLE
  5
132
330
3
100
AcDbSymbolTableRecord
100
AcDbTextStyleTableRecord
  2
Annotative
 70
     0
 40
0.0
 41
1.0
 50
0.0
 71
     0
 42
2.5
  3
txt.shx
  4

1001
AcadAnnotative
1000
AnnotativeData
1002
{
1070
     1
1070
     1
1002
}
  0
ENDTAB
  0
TABLE
  2
VIEW
  5
6
330
0
100
AcDbSymbolTable
 70
     0
  0
ENDTAB
  0
TABLE
  2
UCS
  5
7
330
0
100
AcDbSymbolTable
 70
     0
  0
ENDTAB
  0
TABLE
  2
APPID
  5
9
330
0
100
AcDbSymbolTable
 70
     7
  0
APPID
  5
12
330
9
100
AcDbSymbolTableRecord
100
AcDbRegAppTableRecord
  2
ACAD
 70
     0
  0
APPID
  5
9E
330
9
100
AcDbSymbolTableRecord
100
AcDbRegAppTableRecord
  2
ACAD_PSEXT
 70
     0
  0
APPID
  5
133
330
9
100
AcDbSymbolTableRecord
100
AcDbRegAppTableRecord
  2
AcadAnnoPO
 70
     0
  0
APPID
  5
134
330
9
100
AcDbSymbolTableRecord
100
AcDbRegAppTableRecord
  2
AcadAnnotative
 70
     0
  0
APPID
  5
135
330
9
100
AcDbSymbolTableRecord
100
AcDbRegAppTableRecord
  2
ACAD_DSTYLE_DIMJAG
 70
     0
  0
APPID
  5
136
330
9
100
AcDbSymbolTableRecord
100
AcDbRegAppTableRecord
  2
ACAD_DSTYLE_DIMTALN
 70
     0
  0
APPID
  5
165
330
9
100
AcDbSymbolTableRecord
100
AcDbRegAppTableRecord
  2
ACAD_MLEADERVER
 70
     0
  0
ENDTAB
  0
TABLE
  2
DIMSTYLE
  5
A
330
0
100
AcDbSymbolTable
 70
     2
100
AcDbDimStyleTable
 71
     2
340
27
340
137
  0
DIMSTYLE
105
27
330
A
100
AcDbSymbolTableRecord
100
AcDbDimStyleTableRecord
  2
ISO-25
 70
     0
 41
2.5
 42
0.625
 43
3.75
 44
1.25
 73
     0
 74
     0
 77
     1
 78
     8
140
2.5
141
2.5
143
0.03937007874016
147
0.625
171
     3
172
     1
271
     2
272
     2
274
     3
278
    44
283
     0
284
     8
340
11
  0
DIMSTYLE
105
137
330
A
100
AcDbSymbolTableRecord
100
AcDbDimStyleTableRecord
  2
Annotative
 70
     0
 40
0.0
 41
2.5
 42
0.625
 43
3.75
 44
1.25
 73
     0
 74
     0
 77
     1
 78
     8
140
2.5
141
2.5
143
0.03937007874016
147
0.625
171
     3
172
     1
271
     2
272
     2
274
     3
278
    44
283
     0
284
     8
340
11
1001
AcadAnnotative
1000
AnnotativeData
1002
{
1070
     1
1070
     1
1002
}
1001
ACAD_DSTYLE_DIMJAG
1070
   388
1040
1.5
1001
ACAD_DSTYLE_DIMTALN
1070
   392
1070
     0
  0
ENDTAB
  0
TABLE
  2
BLOCK_RECORD
  5
1
330
0
100
AcDbSymbolTable
 70
     5
  0
BLOCK_RECORD
  5
1F
330
1
100
AcDbSymbolTableRecord
100
AcDbBlockTableRecord
  2
*Model_Space
340
22
  0
BLOCK_RECORD
  5
D2
330
1
100
AcDbSymbolTableRecord
100
AcDbBlockTableRecord
  2
*Paper_Space
340
D3
  0
BLOCK_RECORD
  5
D6
330
1
100
AcDbSymbolTableRecord
100
AcDbBlockTableRecord
  2
*Paper_Space0
340
D7
  0
BLOCK_RECORD
  5
1AD
330
1
100
AcDbSymbolTableRecord
100
AcDbBlockTableRecord
  2
SW_CENTERMARKSYMBOL_0
340
0
102
{BLKREFS
331
2F9
102
}
  0
BLOCK_RECORD
  5
2D8
330
1
100
AcDbSymbolTableRecord
100
AcDbBlockTableRecord
  2
1
340
0
310
2800000020000000200000000100080000000000000400000000000000000000000000000000000000000000000080000080000000808000800000008000800080800000C0C0C000C0DCC000F0CAA6000020400000206000002080000020A0000020C0000020E00000400000004020000040400000406000004080000040A0
310
000040C0000040E00000600000006020000060400000606000006080000060A0000060C0000060E00000800000008020000080400000806000008080000080A0000080C0000080E00000A0000000A0200000A0400000A0600000A0800000A0A00000A0C00000A0E00000C0000000C0200000C0400000C0600000C0800000C0
310
A00000C0C00000C0E00000E0000000E0200000E0400000E0600000E0800000E0A00000E0C00000E0E00040000000400020004000400040006000400080004000A0004000C0004000E00040200000402020004020400040206000402080004020A0004020C0004020E000404000004040200040404000404060004040800040
310
40A0004040C0004040E00040600000406020004060400040606000406080004060A0004060C0004060E00040800000408020004080400040806000408080004080A0004080C0004080E00040A0000040A0200040A0400040A0600040A0800040A0A00040A0C00040A0E00040C0000040C0200040C0400040C0600040C08000
310
40C0A00040C0C00040C0E00040E0000040E0200040E0400040E0600040E0800040E0A00040E0C00040E0E00080000000800020008000400080006000800080008000A0008000C0008000E00080200000802020008020400080206000802080008020A0008020C0008020E00080400000804020008040400080406000804080
310
008040A0008040C0008040E00080600000806020008060400080606000806080008060A0008060C0008060E00080800000808020008080400080806000808080008080A0008080C0008080E00080A0000080A0200080A0400080A0600080A0800080A0A00080A0C00080A0E00080C0000080C0200080C0400080C0600080C0
310
800080C0A00080C0C00080C0E00080E0000080E0200080E0400080E0600080E0800080E0A00080E0C00080E0E000C0000000C0002000C0004000C0006000C0008000C000A000C000C000C000E000C0200000C0202000C0204000C0206000C0208000C020A000C020C000C020E000C0400000C0402000C0404000C0406000C0
310
408000C040A000C040C000C040E000C0600000C0602000C0604000C0606000C0608000C060A000C060C000C060E000C0800000C0802000C0804000C0806000C0808000C080A000C080C000C080E000C0A00000C0A02000C0A04000C0A06000C0A08000C0A0A000C0A0C000C0A0E000C0C00000C0C02000C0C04000C0C06000
310
C0C08000C0C0A000F0FBFF00A4A0A000808080000000FF0000FF000000FFFF00FF000000FF00FF00FFFF0000FFFFFF00000000000000000000000000000000000000000000000000000000000000000000000000000000000000000000000000FF000000000000000000000000000000000000000000000000000000000000
310
00FF00000000000000000000000000000000000000000000000000000000000000FF00000000000000000000000000000000000000000000000000000000000000FF0000000000000000000000000000000000000000000000000000FFFFFFFFFFFFFFFFFFFF0000000000000000000000000000000000000000FFFF000000
310
0000FF00000000FFFF0000000000000000000000000000000000FF00000000000000FF000000000000FF00000000000000000000000000000000FF000000FFFFFFFFFFFFFF00000000FF000000000000000000000000000000FF000000FFFFFFFF00FFFFFFFFFF000000FF0000000000000000000000000000FF0000FFFFFF
310
000000FF000000FFFF000000FF000000000000000000000000FF0000FFFF0000000000FF00000000FFFF0000FF0000000000000000000000FF000000FF000000000000000000000000FF000000FF00000000000000000000FF0000FFFF000000000000FF0000000000FFFF0000FF000000000000000000FF000000FF000000
310
00000000FF0000000000FFFF000000FF0000000000000000FF000000FF00000000000000FF000000000000FF000000FF0000000000FFFFFFFFFFFFFFFFFFFFFF00FFFFFFFFFFFF00FFFFFFFFFFFFFFFFFFFFFF0000000000FF000000FF00000000000000FF000000000000FF000000FF000000000000000000FF0000FFFF00
310
0000000000FF0000000000FFFF0000FF00000000000000000000FF000000FFFF0000000000000000000000FFFF0000FF0000000000000000000000FF0000FFFF0000000000FF00000000FFFF0000FF00000000000000000000000000FF0000FFFF00000000FF000000FFFF000000FF00000000000000000000000000FF0000
310
00FFFFFF0000FF00FFFFFF000000FF000000000000000000000000000000FF00000000FFFFFFFFFFFF00000000FF00000000000000000000000000000000FF00000000000000FF000000000000FF0000000000000000000000000000000000FF000000000000FF0000000000FF000000000000000000000000000000000000
310
00FFFFFFFFFFFFFFFFFFFFFFFF0000000000000000000000000000000000000000000000000000FF00000000000000000000000000000000000000000000000000000000000000FF00000000000000000000000000000000000000000000000000000000000000FF0000000000000000000000000000000000000000000000
310
0000000000000000FF0000000000000000000000000000000000000000000000000000000000000000000000000000000000000000000000
102
{BLKREFS
331
2FA
102
}
1001
ACAD
1000
DesignCenter Data
1002
{
1070
     1
1070
     4
1002
}
  0
BLOCK_RECORD
  5
2FB
330
1
100
AcDbSymbolTableRecord
100
AcDbBlockTableRecord
  2
2
340
0
310
2800000020000000200000000100080000000000000400000000000000000000000000000000000000000000000080000080000000808000800000008000800080800000C0C0C000C0DCC000F0CAA6000020400000206000002080000020A0000020C0000020E00000400000004020000040400000406000004080000040A0
310
000040C0000040E00000600000006020000060400000606000006080000060A0000060C0000060E00000800000008020000080400000806000008080000080A0000080C0000080E00000A0000000A0200000A0400000A0600000A0800000A0A00000A0C00000A0E00000C0000000C0200000C0400000C0600000C0800000C0
310
A00000C0C00000C0E00000E0000000E0200000E0400000E0600000E0800000E0A00000E0C00000E0E00040000000400020004000400040006000400080004000A0004000C0004000E00040200000402020004020400040206000402080004020A0004020C0004020E000404000004040200040404000404060004040800040
310
40A0004040C0004040E00040600000406020004060400040606000406080004060A0004060C0004060E00040800000408020004080400040806000408080004080A0004080C0004080E00040A0000040A0200040A0400040A0600040A0800040A0A00040A0C00040A0E00040C0000040C0200040C0400040C0600040C08000
310
40C0A00040C0C00040C0E00040E0000040E0200040E0400040E0600040E0800040E0A00040E0C00040E0E00080000000800020008000400080006000800080008000A0008000C0008000E00080200000802020008020400080206000802080008020A0008020C0008020E00080400000804020008040400080406000804080
310
008040A0008040C0008040E00080600000806020008060400080606000806080008060A0008060C0008060E00080800000808020008080400080806000808080008080A0008080C0008080E00080A0000080A0200080A0400080A0600080A0800080A0A00080A0C00080A0E00080C0000080C0200080C0400080C0600080C0
310
800080C0A00080C0C00080C0E00080E0000080E0200080E0400080E0600080E0800080E0A00080E0C00080E0E000C0000000C0002000C0004000C0006000C0008000C000A000C000C000C000E000C0200000C0202000C0204000C0206000C0208000C020A000C020C000C020E000C0400000C0402000C0404000C0406000C0
310
408000C040A000C040C000C040E000C0600000C0602000C0604000C0606000C0608000C060A000C060C000C060E000C0800000C0802000C0804000C0806000C0808000C080A000C080C000C080E000C0A00000C0A02000C0A04000C0A06000C0A08000C0A0A000C0A0C000C0A0E000C0C00000C0C02000C0C04000C0C06000
310
C0C08000C0C0A000F0FBFF00A4A0A000808080000000FF0000FF000000FFFF00FF000000FF00FF00FFFF0000FFFFFF0000000000000000000000000000000000000000000000000000000000000000000000000000000000000000000000000000000000000000000000000000000000000000000000000000000000000000
310
00000000000000000000000000000000000000000000000000000000000000000000000000000000000000000000000000000000000000000000000000000000000000000000000000000000000000000000000000000000000000000000000000000000000000000000000000000000000000000000000000000000000000
310
00000000000000000000000000000000000000000000000000000000000000000000000000000000000000000000000000000000000000000000000000000000000000000000000000000000000000000000000000000000000000000000000000000000000000000000000000000000000000000000000000000000000000
310
000000000000000000000000000000000000000000000000000000000000000000000000000000000000000000000000000000000000000000000000000000000000000000000000000000000000000000000000FFFFFFFFFFFFFFFFFFFFFFFFFFFFFFFFFFFFFFFFFFFFFFFFFFFFFFFFFFFF0000FF0000000000FF0000FF00
310
000000000000000000FF0000FF0000000000FF0000FF0000000000FF0000FF00000000000000000000FF0000FF0000000000FF0000FF0000000000FF0000FF00000000000000000000FF0000FF0000000000FF0000FFFFFFFFFFFFFF0000FFFFFFFFFFFFFFFFFFFFFFFF0000FFFFFFFFFFFFFF0000FFFFFFFFFFFFFFFFFFFF
310
FFFFFFFFFFFFFFFFFFFFFFFFFFFFFFFFFFFFFFFF0000000000000000000000000000000000000000000000000000000000000000000000000000000000000000000000000000000000000000000000000000000000000000000000000000000000000000000000000000000000000000000000000000000000000000000000
310
00000000000000000000000000000000000000000000000000000000000000000000000000000000000000000000000000000000000000000000000000000000000000000000000000000000000000000000000000000000000000000000000000000000000000000000000000000000000000000000000000000000000000
310
00000000000000000000000000000000000000000000000000000000000000000000000000000000000000000000000000000000000000000000000000000000000000000000000000000000000000000000000000000000000000000000000000000000000000000000000000000000000000000000000000000000000000
310
0000000000000000000000000000000000000000000000000000000000000000000000000000000000000000000000000000000000000000
102
{BLKREFS
331
311
102
}
1001
ACAD
1000
DesignCenter Data
1002
{
1070
     1
1070
     4
1002
}
  0
BLOCK_RECORD
  5
312
330
1
100
AcDbSymbolTableRecord
100
AcDbBlockTableRecord
  2
3
340
0
310
2800000020000000200000000100080000000000000400000000000000000000000000000000000000000000000080000080000000808000800000008000800080800000C0C0C000C0DCC000F0CAA6000020400000206000002080000020A0000020C0000020E00000400000004020000040400000406000004080000040A0
310
000040C0000040E00000600000006020000060400000606000006080000060A0000060C0000060E00000800000008020000080400000806000008080000080A0000080C0000080E00000A0000000A0200000A0400000A0600000A0800000A0A00000A0C00000A0E00000C0000000C0200000C0400000C0600000C0800000C0
310
A00000C0C00000C0E00000E0000000E0200000E0400000E0600000E0800000E0A00000E0C00000E0E00040000000400020004000400040006000400080004000A0004000C0004000E00040200000402020004020400040206000402080004020A0004020C0004020E000404000004040200040404000404060004040800040
310
40A0004040C0004040E00040600000406020004060400040606000406080004060A0004060C0004060E00040800000408020004080400040806000408080004080A0004080C0004080E00040A0000040A0200040A0400040A0600040A0800040A0A00040A0C00040A0E00040C0000040C0200040C0400040C0600040C08000
310
40C0A00040C0C00040C0E00040E0000040E0200040E0400040E0600040E0800040E0A00040E0C00040E0E00080000000800020008000400080006000800080008000A0008000C0008000E00080200000802020008020400080206000802080008020A0008020C0008020E00080400000804020008040400080406000804080
310
008040A0008040C0008040E00080600000806020008060400080606000806080008060A0008060C0008060E00080800000808020008080400080806000808080008080A0008080C0008080E00080A0000080A0200080A0400080A0600080A0800080A0A00080A0C00080A0E00080C0000080C0200080C0400080C0600080C0
310
800080C0A00080C0C00080C0E00080E0000080E0200080E0400080E0600080E0800080E0A00080E0C00080E0E000C0000000C0002000C0004000C0006000C0008000C000A000C000C000C000E000C0200000C0202000C0204000C0206000C0208000C020A000C020C000C020E000C0400000C0402000C0404000C0406000C0
310
408000C040A000C040C000C040E000C0600000C0602000C0604000C0606000C0608000C060A000C060C000C060E000C0800000C0802000C0804000C0806000C0808000C080A000C080C000C080E000C0A00000C0A02000C0A04000C0A06000C0A08000C0A0A000C0A0C000C0A0E000C0C00000C0C02000C0C04000C0C06000
310
C0C08000C0C0A000F0FBFF00A4A0A000808080000000FF0000FF000000FFFF00FF000000FF00FF00FFFF0000FFFFFF0000000000000000000000000000000000000000000000000000000000000000000000000000000000000000000000000000000000000000000000000000000000000000000000000000000000000000
310
00000000000000000000000000000000000000000000000000000000000000000000000000000000000000000000000000000000000000000000000000000000000000000000000000000000000000000000000000000000000000FFFFFFFFFFFFFFFFFFFF00000000000000000000000000000000000000FFFFFFFF0000FF
310
FFFFFFFFFF00FFFFFFFF0000000000000000000000000000FFFFFFFFFFFFFF0000000000FF0000FFFFFFFFFF0000000000000000000000FF00FF00000000000000000000FF0000FF0000FFFFFFFF0000000000000000FF0000FF000000000000000000FF000000FF000000FFFFFFFF000000000000FFFF0000FF0000000000
310
FFFFFFFFFFFF0000FF0000000000FFFFFF0000000000FFFF0000FFFFFFFFFFFF000000000000FFFFFF00000000000000FF00000000FFFFFFFFFF000000000000000000000000000000FFFF0000000000FF000000FF00FFFF0000000000FFFFFFFFFFFFFFFFFFFFFF000000FFFF000000FFFF000000FF00FF000000FFFF0000
310
000000000000000000FFFF000000FFFFFFFFFF000000FFFF000000FFFF00000000000000000000000000FFFFFF000000FFFF00000000FFFF0000FFFFFF0000000000000000000000000000FFFF00000000FF00000000FF000000FFFFFFFFFF00000000000000000000FFFFFFFFFF000000FF000000FFFF000000FFFFFFFFFF
310
FFFFFFFFFFFFFFFFFFFFFFFFFFFFFF000000FF000000FF00000000FFFFFFFFFFFFFFFFFFFFFFFFFFFFFFFFFFFFFFFF0000FF0000000000FF00000000FFFFFFFFFFFFFFFFFFFFFFFFFFFFFFFFFFFF000000FF0000000000FF0000000000FFFFFFFFFFFFFFFFFFFFFFFFFFFFFFFFFF0000FF00000000000000FFFF00000000FF
310
FFFFFFFFFFFFFFFFFFFFFFFFFF00000000FF000000000000000000FFFF00000000FFFFFFFFFFFFFFFFFFFFFF00000000FF000000000000000000000000FFFF00000000000000000000000000000000FF000000000000000000000000000000FFFFFF00000000000000FFFFFFFFFFFF00000000000000000000000000000000
310
000000FFFFFFFFFFFFFF000000000000000000000000000000000000000000000000000000000000000000000000000000000000000000000000000000000000000000000000000000000000000000000000000000000000000000000000000000000000000000000000000000000000000000000000000000000000000000
310
0000000000000000000000000000000000000000000000000000000000000000000000000000000000000000000000000000000000000000
102
{BLKREFS
331
371
102
}
1001
ACAD
1000
DesignCenter Data
1002
{
1070
     1
1070
     4
1002
}
  0
ENDTAB
  0
ENDSEC
  0
SECTION
  2
BLOCKS
  0
BLOCK
  5
20
330
1F
100
AcDbEntity
  8
0
100
AcDbBlockBegin
  2
*Model_Space
 70
     0
 10
0.0
 20
0.0
 30
0.0
  3
*Model_Space
  1

  0
ENDBLK
  5
21
330
1F
100
AcDbEntity
  8
0
100
AcDbBlockEnd
  0
BLOCK
  5
D4
330
D2
100
AcDbEntity
 67
     1
  8
0
100
AcDbBlockBegin
  2
*Paper_Space
 70
     0
 10
0.0
 20
0.0
 30
0.0
  3
*Paper_Space
  1

  0
ENDBLK
  5
D5
330
D2
100
AcDbEntity
 67
     1
  8
0
100
AcDbBlockEnd
  0
BLOCK
  5
D8
330
D6
100
AcDbEntity
 67
     1
  8
0
100
AcDbBlockBegin
  2
*Paper_Space0
 70
     0
 10
0.0
 20
0.0
 30
0.0
  3
*Paper_Space0
  1

  0
ENDBLK
  5
D9
330
D6
100
AcDbEntity
 67
     1
  8
0
100
AcDbBlockEnd
  0
BLOCK
  5
1AE
330
1AD
100
AcDbEntity
  8
0
100
AcDbBlockBegin
  2
SW_CENTERMARKSYMBOL_0
 70
     0
 10
0.0
 20
0.0
 30
0.0
  3
SW_CENTERMARKSYMBOL_0
  1

  0
LINE
  5
1AF
330
1AD
100
AcDbEntity
  8
0
  6
Continuous
 62
     0
370
     0
100
AcDbLine
 10
0.0
 20
0.0
 30
0.0
 11
0.0
 21
2.500000000000002
 31
0.0
  0
LINE
  5
1B0
330
1AD
100
AcDbEntity
  8
0
  6
Continuous
 62
     0
370
     0
100
AcDbLine
 10
0.0
 20
0.0
 30
0.0
 11
-2.500000000000002
 21
0.0
 31
0.0
  0
LINE
  5
1B1
330
1AD
100
AcDbEntity
  8
0
  6
Continuous
 62
     0
370
     0
100
AcDbLine
 10
0.0
 20
0.0
 30
0.0
 11
0.0
 21
-2.500000000000002
 31
0.0
  0
LINE
  5
1B2
330
1AD
100
AcDbEntity
  8
0
  6
Continuous
 62
     0
370
     0
100
AcDbLine
 10
0.0
 20
0.0
 30
0.0
 11
2.500000000000002
 21
0.0
 31
0.0
  0
LINE
  5
1B3
330
1AD
100
AcDbEntity
  8
0
  6
Continuous
 62
     0
370
     0
100
AcDbLine
 10
0.0
 20
5.000000000000004
 30
0.0
 11
0.0
 21
14.50000000000001
 31
0.0
  0
LINE
  5
1B4
330
1AD
100
AcDbEntity
  8
0
  6
Continuous
 62
     0
370
     0
100
AcDbLine
 10
-5.000000000000004
 20
0.0
 30
0.0
 11
-14.50000000000001
 21
0.0
 31
0.0
  0
LINE
  5
1B5
330
1AD
100
AcDbEntity
  8
0
  6
Continuous
 62
     0
370
     0
100
AcDbLine
 10
0.0
 20
-5.000000000000004
 30
0.0
 11
0.0
 21
-14.50000000000001
 31
0.0
  0
LINE
  5
1B6
330
1AD
100
AcDbEntity
  8
0
  6
Continuous
 62
     0
370
     0
100
AcDbLine
 10
5.000000000000004
 20
0.0
 30
0.0
 11
14.50000000000001
 21
0.0
 31
0.0
  0
ENDBLK
  5
1B7
330
1AD
100
AcDbEntity
  8
0
100
AcDbBlockEnd
  0
BLOCK
  5
2D9
330
2D8
100
AcDbEntity
  8
0
100
AcDbBlockBegin
  2
1
 70
     0
 10
0.0
 20
0.0
 30
0.0
  3
1
  1

  0
LINE
  5
2DB
330
2D8
100
AcDbEntity
  8
0
  6
Continuous
 62
     7
370
    15
100
AcDbLine
 10
1958.475127819379
 20
914.1425687644177
 30
0.0
 11
1958.734895305426
 21
914.2834971775391
 31
0.0
  0
SPLINE
  5
2DC
330
2D8
100
AcDbEntity
  8
0
  6
Continuous
 62
     7
370
    15
100
AcDbSpline
210
0.0
220
0.0
230
1.0
 70
     8
 71
     3
 72
    69
 73
    65
 74
     0
 42
0.0000000001
 43
0.0000000001
 40
0.0
 40
0.0
 40
0.0
 40
0.0
 40
0.006410469640923
 40
0.0119301398521536
 40
0.0161132897569758
 40
0.0201716943635569
 40
0.0243074773521547
 40
0.0285152228651599
 40
0.0401318348358308
 40
0.0517486362489282
 40
0.0693437565982838
 40
0.0869391341388391
 40
0.1045226620571448
 40
0.1219954679261012
 40
0.1395498697007289
 40
0.1571439254996138
 40
0.1747388533705857
 40
0.1923349218713264
 40
0.2099306740759425
 40
0.2275199878437079
 40
0.245010152996079
 40
0.2625415799006036
 40
0.2801343085078011
 40
0.2977298998731134
 40
0.3153263041551334
 40
0.3329212699696944
 40
0.3505132193665419
 40
0.3680310562142355
 40
0.3855346189746091
 40
0.4031254114477216
 40
0.4207213003245349
 40
0.4383168606079235
 40
0.4559121151352529
 40
0.4735058511228234
 40
0.4910513853884252
 40
0.5085305466870338
 40
0.5261170135349286
 40
0.5437120062210309
 40
0.5613074135174894
 40
0.5789036138137992
 40
0.5964983436221997
 40
0.6140623906474593
 40
0.6315280655075993
 40
0.6491081036575651
 40
0.666702490787169
 40
0.6842987724645237
 40
0.7018947316775624
 40
0.7194888201412219
 40
0.7370651780072412
 40
0.75452912635219
 40
0.7720987061752775
 40
0.7896938911180486
 40
0.8072898851761973
 40
0.8248850113964859
 40
0.8424804198505901
 40
0.8600645701190078
 40
0.8775388544921845
 40
0.8950912563234016
 40
0.9126851901514143
 40
0.9302801021997787
 40
0.9478761858780096
 40
0.9654719508441791
 40
0.9830616532989296
 40
1.0
 40
1.0
 40
1.0
 40
1.0
 10
1958.851492163039
 20
914.3451443220218
 30
0.0
 10
1958.941207867497
 20
914.38934649703
 30
0.0
 10
1959.108172374167
 20
914.4716085088878
 30
0.0
 10
1959.339096969042
 20
914.5710821402946
 30
0.0
 10
1959.538461630064
 20
914.6506905383612
 30
0.0
 10
1959.71961949599
 20
914.7175276435094
 30
0.0
 10
1959.902772869309
 20
914.7798784187598
 30
0.0
 10
1960.200047147468
 20
914.8725137768217
 30
0.0
 10
1960.614897276146
 20
914.9796712922293
 30
0.0
 10
1961.241901591489
 20
915.0940131906006
 30
0.0
 10
1961.970659843194
 20
915.1592963726013
 30
0.0
 10
1962.795307219556
 20
915.1424872150728
 30
0.0
 10
1963.611319245344
 20
915.0357803802638
 30
0.0
 10
1964.41020741264
 20
914.8408581848888
 30
0.0
 10
1965.183247039609
 20
914.559983093215
 30
0.0
 10
1965.92263266809
 20
914.1954259782336
 30
0.0
 10
1966.618204372771
 20
913.7517755731963
 30
0.0
 10
1967.261044519674
 20
913.2346286340416
 30
0.0
 10
1967.843347510655
 20
912.6502693534318
 30
0.0
 10
1968.357164666784
 20
912.0069640639478
 30
0.0
 10
1968.79717551031
 20
911.3122606070026
 30
0.0
 10
1969.158894424237
 20
910.5737043157786
 30
0.0
 10
1969.438295158128
 20
909.7985114689782
 30
0.0
 10
1969.631391542356
 20
908.9964180051332
 30
0.0
 10
1969.735518466644
 20
908.1779760411576
 30
0.0
 10
1969.749417794352
 20
907.3531051737397
 30
0.0
 10
1969.673051751438
 20
906.532877743305
 30
0.0
 10
1969.507833149367
 20
905.7272816003459
 30
0.0
 10
1969.255826437035
 20
904.9444997187896
 30
0.0
 10
1968.919369304398
 20
904.1928147267295
 30
0.0
 10
1968.501931412832
 20
903.4812494597147
 30
0.0
 10
1968.009064699827
 20
902.8196111770421
 30
0.0
 10
1967.446747351629
 20
902.2159280971584
 30
0.0
 10
1966.822305791392
 20
901.6779320479168
 30
0.0
 10
1966.14427354709
 20
901.2124406622701
 30
0.0
 10
1965.41965115539
 20
900.8236574292395
 30
0.0
 10
1964.65623716376
 20
900.5159633941511
 30
0.0
 10
1963.861998898131
 20
900.2931859259833
 30
0.0
 10
1963.048004404028
 20
900.1586730257182
 30
0.0
 10
1962.224178117581
 20
900.1140830726258
 30
0.0
 10
1961.400899210286
 20
900.1599244109147
 30
0.0
 10
1960.58956809992
 20
900.2952080508734
 30
0.0
 10
1959.798027122583
 20
900.5180480060444
 30
0.0
 10
1959.035073837801
 20
900.8260363931608
 30
0.0
 10
1958.308621928236
 20
901.2166214337259
 30
0.0
 10
1957.629099258357
 20
901.6845231005115
 30
0.0
 10
1957.004890260655
 20
902.2240033146593
 30
0.0
 10
1956.443696584057
 20
902.828355224917
 30
0.0
 10
1955.953216882807
 20
903.4888394982614
 30
0.0
 10
1955.537851925631
 20
904.1985367603091
 30
0.0
 10
1955.202199260529
 20
904.9495393106449
 30
0.0
 10
1954.950093830143
 20
905.7347017060363
 30
0.0
 10
1954.78538397262
 20
906.5431242645599
 30
0.0
 10
1954.710167066705
 20
907.3647212045379
 30
0.0
 10
1954.725343379079
 20
908.1894389819238
 30
0.0
 10
1954.830449030802
 20
909.0056841314911
 30
0.0
 10
1955.023801283944
 20
909.804958714259
 30
0.0
 10
1955.303157525309
 20
910.5785324124102
 30
0.0
 10
1955.66622759849
 20
911.3186304078491
 30
0.0
 10
1956.108557359278
 20
912.0149817088092
 30
0.0
 10
1956.624239303464
 20
912.6591849393735
 30
0.0
 10
1957.208187218398
 20
913.2413578455206
 30
0.0
 10
1957.84105227308
 20
913.755786417567
 30
0.0
 10
1958.302394394431
 20
914.0347765997864
 30
0.0
 10
1958.528713951727
 20
914.1716401802135
 30
0.0
  0
SPLINE
  5
2DD
330
2D8
100
AcDbEntity
  8
0
  6
Continuous
 62
     7
370
    15
100
AcDbSpline
210
0.0
220
0.0
230
1.0
 70
     8
 71
     3
 72
   216
 73
   212
 74
     0
 42
0.0000000001
 43
0.0000000001
 40
0.0
 40
0.0
 40
0.0
 40
0.0
 40
0.0078125
 40
0.0078125
 40
0.015625
 40
0.015625
 40
0.03125
 40
0.03125
 40
0.046875
 40
0.046875
 40
0.05078125
 40
0.05078125
 40
0.0546875
 40
0.0546875
 40
0.0625
 40
0.0625
 40
0.0781250000000001
 40
0.0781250000000001
 40
0.0859375000000001
 40
0.0859375000000001
 40
0.0937500000000001
 40
0.0937500000000001
 40
0.1093750000000001
 40
0.1093750000000001
 40
0.1250000000000001
 40
0.1250000000000001
 40
0.1289062500000001
 40
0.1289062500000001
 40
0.1328125000000001
 40
0.1328125000000001
 40
0.1406250000000001
 40
0.1406250000000001
 40
0.1562500000000001
 40
0.1562500000000001
 40
0.1640625000000001
 40
0.1640625000000001
 40
0.1679687500000001
 40
0.1679687500000001
 40
0.1718750000000001
 40
0.1718750000000001
 40
0.1875000000000001
 40
0.1875000000000001
 40
0.1953125000000001
 40
0.1953125000000001
 40
0.2031250000000001
 40
0.2031250000000001
 40
0.2187500000000001
 40
0.2187500000000001
 40
0.2343750000000002
 40
0.2343750000000002
 40
0.2382812500000002
 40
0.2382812500000002
 40
0.2421875000000002
 40
0.2421875000000002
 40
0.2500000000000002
 40
0.2500000000000002
 40
0.2656250000000002
 40
0.2656250000000002
 40
0.2734375000000003
 40
0.2734375000000003
 40
0.2812500000000003
 40
0.2812500000000003
 40
0.2968750000000003
 40
0.2968750000000003
 40
0.3125000000000004
 40
0.3125000000000004
 40
0.3164062500000004
 40
0.3164062500000004
 40
0.3203125000000004
 40
0.3203125000000004
 40
0.3281250000000004
 40
0.3281250000000004
 40
0.3437500000000004
 40
0.3437500000000004
 40
0.3515625000000005
 40
0.3515625000000005
 40
0.3554687500000005
 40
0.3554687500000005
 40
0.3593750000000005
 40
0.3593750000000005
 40
0.3750000000000005
 40
0.3750000000000005
 40
0.3828125000000006
 40
0.3828125000000006
 40
0.3906250000000007
 40
0.3906250000000007
 40
0.4062500000000007
 40
0.4062500000000007
 40
0.4218750000000008
 40
0.4218750000000008
 40
0.4257812500000008
 40
0.4257812500000008
 40
0.4296875000000008
 40
0.4296875000000008
 40
0.4375000000000008
 40
0.4375000000000008
 40
0.4531250000000008
 40
0.4531250000000008
 40
0.4609375000000008
 40
0.4609375000000008
 40
0.4687500000000008
 40
0.4687500000000008
 40
0.4843750000000008
 40
0.4843750000000008
 40
0.5000000000000008
 40
0.5000000000000008
 40
0.5039062500000008
 40
0.5039062500000008
 40
0.5078125000000008
 40
0.5078125000000008
 40
0.5156250000000008
 40
0.5156250000000008
 40
0.5312500000000008
 40
0.5312500000000008
 40
0.5390625000000008
 40
0.5390625000000008
 40
0.5429687500000008
 40
0.5429687500000008
 40
0.5468750000000008
 40
0.5468750000000008
 40
0.5625000000000008
 40
0.5625000000000008
 40
0.5703125000000008
 40
0.5703125000000008
 40
0.5781250000000008
 40
0.5781250000000008
 40
0.5937500000000008
 40
0.5937500000000008
 40
0.6093750000000008
 40
0.6093750000000008
 40
0.6132812500000008
 40
0.6132812500000008
 40
0.6171875000000008
 40
0.6171875000000008
 40
0.6250000000000008
 40
0.6250000000000008
 40
0.6406250000000008
 40
0.6406250000000008
 40
0.6484375000000008
 40
0.6484375000000008
 40
0.6562500000000008
 40
0.6562500000000008
 40
0.6718750000000008
 40
0.6718750000000008
 40
0.6875000000000008
 40
0.6875000000000008
 40
0.6914062500000008
 40
0.6914062500000008
 40
0.6953125000000008
 40
0.6953125000000008
 40
0.7031250000000008
 40
0.7031250000000008
 40
0.7187500000000008
 40
0.7187500000000008
 40
0.7265625000000008
 40
0.7265625000000008
 40
0.7343750000000008
 40
0.7343750000000008
 40
0.7500000000000007
 40
0.7500000000000007
 40
0.7578125000000007
 40
0.7578125000000007
 40
0.7656250000000007
 40
0.7656250000000007
 40
0.7812500000000007
 40
0.7812500000000007
 40
0.7968750000000007
 40
0.7968750000000007
 40
0.8007812500000007
 40
0.8007812500000007
 40
0.8046875000000007
 40
0.8046875000000007
 40
0.8125000000000007
 40
0.8125000000000007
 40
0.8281250000000005
 40
0.8281250000000005
 40
0.8359375000000005
 40
0.8359375000000005
 40
0.8437500000000005
 40
0.8437500000000005
 40
0.8593750000000005
 40
0.8593750000000005
 40
0.8750000000000005
 40
0.8750000000000005
 40
0.8789062500000005
 40
0.8789062500000005
 40
0.8828125000000005
 40
0.8828125000000005
 40
0.8906250000000005
 40
0.8906250000000005
 40
0.9062500000000003
 40
0.9062500000000003
 40
0.9140625000000003
 40
0.9140625000000003
 40
0.9218750000000003
 40
0.9218750000000003
 40
0.9375000000000003
 40
0.9375000000000003
 40
0.9453125000000003
 40
0.9453125000000003
 40
0.9531250000000003
 40
0.9531250000000003
 40
0.9687500000000001
 40
0.9687500000000001
 40
0.9843750000000001
 40
0.9843750000000001
 40
0.9882812500000001
 40
0.9882812500000001
 40
0.9921875000000001
 40
0.9921875000000001
 40
1.0
 40
1.0
 40
1.0
 40
1.0
 10
1961.79836768348
 20
915.1899415002484
 30
0.0
 10
1962.215186109966
 20
915.2137682849732
 30
0.0
 10
1962.632652555897
 20
915.2027806169538
 30
0.0
 10
1963.452183029514
 20
915.1142394854529
 30
0.0
 10
1963.853128088653
 20
915.0370230301428
 30
0.0
 10
1965.017843384325
 20
914.7157148326808
 30
0.0
 10
1965.784234651543
 20
914.3671926954139
 30
0.0
 10
1967.1669986993
 20
913.4292831814081
 30
0.0
 10
1967.781254239409
 20
912.8410038305363
 30
0.0
 10
1968.397968633581
 20
912.0210001681126
 30
0.0
 10
1968.513937661961
 20
911.8528890218724
 30
0.0
 10
1968.730536653379
 20
911.510409866994
 30
0.0
 10
1968.830846372273
 20
911.3367883382174
 30
0.0
 10
1969.113586775856
 20
910.7987884436093
 30
0.0
 10
1969.27581154775
 20
910.419665559789
 30
0.0
 10
1969.668171616208
 20
909.2403362902764
 30
0.0
 10
1969.801046055593
 20
908.3977842016841
 30
0.0
 10
1969.788982104874
 20
907.1498242035527
 30
0.0
 10
1969.750449170685
 20
906.7366720852879
 30
0.0
 10
1969.609537026737
 20
905.9319828389837
 30
0.0
 10
1969.508813244246
 20
905.5438715681376
 30
0.0
 10
1969.108037055995
 20
904.3891604454465
 30
0.0
 10
1968.705862295317
 20
903.6430928480713
 30
0.0
 10
1967.676685842431
 20
902.325068785381
 30
0.0
 10
1967.051189229254
 20
901.7549757640194
 30
0.0
 10
1966.201188234559
 20
901.1987952324188
 30
0.0
 10
1966.028808143142
 20
901.0956689080014
 30
0.0
 10
1965.674092878081
 20
900.9022075587576
 30
0.0
 10
1965.491524264174
 20
900.8118686075539
 30
0.0
 10
1964.930346151967
 20
900.5621946073697
 30
0.0
 10
1964.538163355111
 20
900.4243471092539
 30
0.0
 10
1963.329039194869
 20
900.1096365942393
 30
0.0
 10
1962.479639658062
 20
900.0345696415109
 30
0.0
 10
1961.242419681856
 20
900.1289320558933
 30
0.0
 10
1960.836225604247
 20
900.1941403730711
 30
0.0
 10
1960.247410584385
 20
900.3372569411398
 30
0.0
 10
1960.054221894296
 20
900.3924437239417
 30
0.0
 10
1959.668284279153
 20
900.5197182180179
 30
0.0
 10
1959.4765598202
 20
900.5915805239265
 30
0.0
 10
1958.529302449484
 20
900.9916892546012
 30
0.0
 10
1957.809144420741
 20
901.4455949453221
 30
0.0
 10
1956.875774371459
 20
902.280689191946
 30
0.0
 10
1956.588867976045
 20
902.5840695512883
 30
0.0
 10
1956.07308424585
 20
903.2268610805143
 30
0.0
 10
1955.844858277183
 20
903.5650605657371
 30
0.0
 10
1955.249911833193
 20
904.6170634520297
 30
0.0
 10
1954.955640043278
 20
905.4060437442855
 30
0.0
 10
1954.643672400454
 20
907.0475804475885
 30
0.0
 10
1954.626679581807
 20
907.8978526390383
 30
0.0
 10
1954.771980494844
 20
908.9133232119072
 30
0.0
 10
1954.809153239636
 20
909.1140914616865
 30
0.0
 10
1954.898748157653
 20
909.5091732396799
 30
0.0
 10
1954.950881997595
 20
909.7027949525241
 30
0.0
 10
1955.132321310348
 20
910.2830262666223
 30
0.0
 10
1955.28632455443
 20
910.6656586405838
 30
0.0
 10
1955.844629218278
 20
911.7762991666014
 30
0.0
 10
1956.347574183171
 20
912.4652299381379
 30
0.0
 10
1957.239826678139
 20
913.3376326281085
 30
0.0
 10
1957.559576438061
 20
913.6019770937476
 30
0.0
 10
1958.228785820178
 20
914.0701878773585
 30
0.0
 10
1958.574724055074
 20
914.2728631663496
 30
0.0
 10
1959.675719113674
 20
914.8044038952127
 30
0.0
 10
1960.488145554211
 20
915.0462971219003
 30
0.0
 10
1962.148177271531
 20
915.2479036450181
 30
0.0
 10
1962.993399532112
 20
915.2073747012623
 30
0.0
 10
1963.987136306568
 20
914.998131883242
 30
0.0
 10
1964.18180974143
 20
914.9488826601082
 30
0.0
 10
1964.569364191335
 20
914.8342308311139
 30
0.0
 10
1964.762287215241
 20
914.7686989892607
 30
0.0
 10
1965.335431509764
 20
914.5474901943336
 30
0.0
 10
1965.70999642582
 20
914.367026274575
 30
0.0
 10
1966.78661242787
 20
913.7328132157138
 30
0.0
 10
1967.439397853402
 20
913.1842390159141
 30
0.0
 10
1968.245906546032
 20
912.2415532306915
 30
0.0
 10
1968.486443102569
 20
911.9079216151156
 30
0.0
 10
1968.800714048392
 20
911.390033382203
 30
0.0
 10
1968.898066882763
 20
911.2141896946448
 30
0.0
 10
1969.080456057094
 20
910.8509168086266
 30
0.0
 10
1969.164940690298
 20
910.6643578723987
 30
0.0
 10
1969.550419784888
 20
909.7108318562598
 30
0.0
 10
1969.737360039023
 20
908.8802777456521
 30
0.0
 10
1969.804862751981
 20
907.6297515711505
 30
0.0
 10
1969.79255301361
 20
907.2124280454875
 30
0.0
 10
1969.701479046535
 20
906.3934885663384
 30
0.0
 10
1969.623169292955
 20
905.993381333392
 30
0.0
 10
1969.298101572959
 20
904.8289629343189
 30
0.0
 10
1968.947000882909
 20
904.0634076412635
 30
0.0
 10
1968.004619055695
 20
902.6835047723421
 30
0.0
 10
1967.414466000888
 20
902.0712645156226
 30
0.0
 10
1966.59289444154
 20
901.457374555734
 30
0.0
 10
1966.424506931972
 20
901.34198481708
 30
0.0
 10
1966.081551185227
 20
901.126560455871
 30
0.0
 10
1965.907616349235
 20
901.0267729420458
 30
0.0
 10
1965.36845281418
 20
900.7455379423221
 30
0.0
 10
1964.988659539055
 20
900.5844332692026
 30
0.0
 10
1963.807747964307
 20
900.1956747424591
 30
0.0
 10
1962.964736545494
 20
900.0655261337053
 30
0.0
 10
1961.71710189743
 20
900.0815333276008
 30
0.0
 10
1961.304221529798
 20
900.1213548159551
 30
0.0
 10
1960.500358431924
 20
900.2646962181907
 30
0.0
 10
1960.112607455754
 20
900.366578201612
 30
0.0
 10
1958.958568841875
 20
900.7711319740314
 30
0.0
 10
1958.213606417056
 20
901.1758119280655
 30
0.0
 10
1956.898881380153
 20
902.2091562071651
 30
0.0
 10
1956.330967950305
 20
902.8362981358737
 30
0.0
 10
1955.7777073758
 20
903.6875635639741
 30
0.0
 10
1955.675169382356
 20
903.8601475749031
 30
0.0
 10
1955.482689270307
 20
904.2156582798854
 30
0.0
 10
1955.392870417134
 20
904.3985995095217
 30
0.0
 10
1955.144833935453
 20
904.9608045702255
 30
0.0
 10
1955.008181987251
 20
905.3535497305885
 30
0.0
 10
1954.69724198852
 20
906.5638988423511
 30
0.0
 10
1954.624932151621
 20
907.4134750085043
 30
0.0
 10
1954.723151915378
 20
908.649985125511
 30
0.0
 10
1954.789599216367
 20
909.0557860775325
 30
0.0
 10
1954.93443970546
 20
909.6438200379122
 30
0.0
 10
1954.990257745706
 20
909.8369956248776
 30
0.0
 10
1955.118791471338
 20
910.2227391985392
 30
0.0
 10
1955.191283979398
 20
910.4143274716109
 30
0.0
 10
1955.594514343975
 20
911.3607054955469
 30
0.0
 10
1956.050814569359
 20
912.0794987999683
 30
0.0
 10
1956.888764719892
 20
913.0100998065804
 30
0.0
 10
1957.192976232029
 20
913.2959685114336
 30
0.0
 10
1957.837135267521
 20
913.8095407690055
 30
0.0
 10
1958.175523766746
 20
914.0364090723389
 30
0.0
 10
1959.229969590492
 20
914.628480296113
 30
0.0
 10
1960.020176589279
 20
914.9203340108114
 30
0.0
 10
1961.662840255876
 20
915.2271130456727
 30
0.0
 10
1962.51300565192
 20
915.2413565708867
 30
0.0
 10
1963.527580743255
 20
915.0929528981743
 30
0.0
 10
1963.728133462937
 20
915.0551758397085
 30
0.0
 10
1964.122719163049
 20
914.9644149573649
 30
0.0
 10
1964.316205448426
 20
914.9116869470018
 30
0.0
 10
1964.896190636687
 20
914.7283601258312
 30
0.0
 10
1965.278501934408
 20
914.5730911568962
 30
0.0
 10
1966.387705666837
 20
914.0111235283692
 30
0.0
 10
1967.075028234935
 20
913.5059301728459
 30
0.0
 10
1967.944407027849
 20
912.6111270406463
 30
0.0
 10
1968.207646791011
 20
912.2906611018965
 30
0.0
 10
1968.673553850158
 20
911.6203239187251
 30
0.0
 10
1968.875161310329
 20
911.2738116694703
 30
0.0
 10
1969.403549078352
 20
910.1706274946105
 30
0.0
 10
1969.64288649234
 20
909.3572170978283
 30
0.0
 10
1969.839211772456
 20
907.6965836423811
 30
0.0
 10
1969.795979738962
 20
906.8517456387844
 30
0.0
 10
1969.583782001533
 20
905.8591858792471
 30
0.0
 10
1969.533969791105
 20
905.6647718307871
 30
0.0
 10
1969.418061431779
 20
905.2773517121824
 30
0.0
 10
1969.351898348121
 20
905.0845344817824
 30
0.0
 10
1969.128805872101
 20
904.5118264715027
 30
0.0
 10
1968.947099681114
 20
904.1377123469398
 30
0.0
 10
1968.309358069371
 20
903.0629049771324
 30
0.0
 10
1967.758713979002
 20
902.4119491895977
 30
0.0
 10
1966.813810752982
 20
901.608674438788
 30
0.0
 10
1966.479583944251
 20
901.3692929565067
 30
0.0
 10
1965.788183184941
 20
900.952627764696
 30
0.0
 10
1965.424831162265
 20
900.7711191117449
 30
0.0
 10
1964.278704705476
 20
900.3119446101136
 30
0.0
 10
1963.44742881322
 20
900.1276646198848
 30
0.0
 10
1962.196850691569
 20
900.0641391114074
 30
0.0
 10
1961.77967633142
 20
900.0777697132582
 30
0.0
 10
1960.96133939762
 20
900.1713722679618
 30
0.0
 10
1960.562047063842
 20
900.2507761154095
 30
0.0
 10
1959.397943116489
 20
900.5796052972542
 30
0.0
 10
1958.633236697201
 20
900.9332819129728
 30
0.0
 10
1957.256216662577
 20
901.8801229585362
 30
0.0
 10
1956.646000224318
 20
902.4721393530121
 30
0.0
 10
1956.034940173707
 20
903.2952645726478
 30
0.0
 10
1955.920130574786
 20
903.4639255412942
 30
0.0
 10
1955.705882056701
 20
903.8073520584118
 30
0.0
 10
1955.606604197995
 20
903.9816223776874
 30
0.0
 10
1955.326881201421
 20
904.5219435259896
 30
0.0
 10
1955.166900498356
 20
904.9024023375512
 30
0.0
 10
1954.78175255279
 20
906.084879871754
 30
0.0
 10
1954.654332139307
 20
906.9283373176343
 30
0.0
 10
1954.67427964297
 20
908.1756280320568
 30
0.0
 10
1954.715387683152
 20
908.5882306991567
 30
0.0
 10
1954.861152721773
 20
909.3912569499245
 30
0.0
 10
1954.964198476839
 20
909.7786698476399
 30
0.0
 10
1955.372529474889
 20
910.9320178843299
 30
0.0
 10
1955.779710203755
 20
911.6758625465164
 30
0.0
 10
1956.817206417111
 20
912.9872688153879
 30
0.0
 10
1957.445982345425
 20
913.5529956885633
 30
0.0
 10
1958.298497675212
 20
914.1033328059606
 30
0.0
 10
1958.471307155533
 20
914.2052960668298
 30
0.0
 10
1958.827609441676
 20
914.3967904453438
 30
0.0
 10
1959.01092114785
 20
914.4860870739883
 30
0.0
 10
1959.574146177598
 20
914.7324801572885
 30
0.0
 10
1959.967448289798
 20
914.8679333111898
 30
0.0
 10
1961.179004772591
 20
915.1750959338016
 30
0.0
 10
1962.028744077528
 20
915.2446481424389
 30
0.0
 10
1963.264526515499
 20
915.1425763359544
 30
0.0
 10
1963.669928807225
 20
915.0748927749051
 30
0.0
 10
1964.452923014202
 20
914.8794803699653
 30
0.0
 10
1964.838256995168
 20
914.7502304938784
 30
0.0
 10
1965.972837202635
 20
914.2626108670363
 30
0.0
 10
1966.690253812636
 20
913.8039222616409
 30
0.0
 10
1967.618072732392
 20
912.9631299539788
 30
0.0
 10
1967.902900201733
 20
912.6580925684356
 30
0.0
 10
1968.4142558597
 20
912.0125772099861
 30
0.0
 10
1968.639782061887
 20
911.6739828455292
 30
0.0
 10
1969.228964306561
 20
910.617105175123
 30
0.0
 10
1969.518392715099
 20
909.8256824763785
 30
0.0
 10
1969.819977166298
 20
908.1819164399091
 30
0.0
 10
1969.831472734863
 20
907.3318711962787
 30
0.0
 10
1969.679972538639
 20
906.3182054993026
 30
0.0
 10
1969.641592626579
 20
906.1178709585371
 30
0.0
 10
1969.549669052153
 20
905.723786297576
 30
0.0
 10
1969.496339947438
 20
905.5304109174146
 30
0.0
 10
1969.311125240642
 20
904.950680789328
 30
0.0
 10
1969.15459126207
 20
904.5686967386064
 30
0.0
 10
1968.966049472475
 20
904.1994470719897
 30
0.0
  0
SPLINE
  5
2DE
330
2D8
100
AcDbEntity
  8
0
  6
Continuous
 62
     7
370
    15
100
AcDbSpline
210
0.0
220
0.0
230
1.0
 70
     8
 71
     3
 72
    26
 73
    22
 74
     0
 42
0.0000000001
 43
0.0000000001
 40
0.0
 40
0.0
 40
0.0
 40
0.0
 40
0.125
 40
0.125
 40
0.1875
 40
0.1875
 40
0.25
 40
0.25
 40
0.375
 40
0.375
 40
0.5
 40
0.5
 40
0.5625
 40
0.5625
 40
0.625
 40
0.625
 40
0.75
 40
0.75
 40
0.8749999999999998
 40
0.8749999999999998
 40
1.0
 40
1.0
 40
1.0
 40
1.0
 10
1961.79836768348
 20
915.1899415002484
 30
0.0
 10
1962.298911256504
 20
915.2379290421826
 30
0.0
 10
1962.797821111626
 20
915.2357038930928
 30
0.0
 10
1963.54377742234
 20
915.1583412360341
 30
0.0
 10
1963.793147988037
 20
915.1198252606771
 30
0.0
 10
1964.282547028308
 20
915.0190505529437
 30
0.0
 10
1964.523229132763
 20
914.9569240764696
 30
0.0
 10
1965.23386329367
 20
914.7371976728683
 30
0.0
 10
1965.692369054421
 20
914.546151003023
 30
0.0
 10
1966.577679866288
 20
914.0714263433926
 30
0.0
 10
1966.991480215877
 20
913.7945408198902
 30
0.0
 10
1967.567507694672
 20
913.3242498207751
 30
0.0
 10
1967.752203755453
 20
913.1581605142196
 30
0.0
 10
1968.106681771098
 20
912.806963481022
 30
0.0
 10
1968.277151858525
 20
912.6208981688206
 30
0.0
 10
1968.755875974108
 20
912.0446812352586
 30
0.0
 10
1969.034153367864
 20
911.6343105317527
 30
0.0
 10
1969.513025064829
 20
910.7637227211835
 30
0.0
 10
1969.714442958916
 20
910.2991907422484
 30
0.0
 10
1970.022673666677
 20
909.3541137968985
 30
0.0
 10
1970.131956734492
 20
908.870640182606
 30
0.0
 10
1970.195970925195
 20
908.3761249368125
 30
0.0
  0
LINE
  5
2DF
330
2D8
100
AcDbEntity
  8
0
  6
Continuous
 62
     7
370
    15
100
AcDbLine
 10
1958.849612739233
 20
900.3882037077756
 30
0.0
 11
1958.979424674121
 21
900.3395516470655
 31
0.0
  0
SPLINE
  5
2E0
330
2D8
100
AcDbEntity
  8
0
  6
Continuous
 62
     7
370
    15
100
AcDbSpline
210
0.0
220
0.0
230
1.0
 70
     8
 71
     3
 72
    10
 73
     6
 74
     0
 42
0.0000000001
 43
0.0000000001
 40
0.0
 40
0.0
 40
0.0
 40
0.0
 40
0.5
 40
0.5
 40
1.0
 40
1.0
 40
1.0
 40
1.0
 10
1959.096340211932
 20
914.4658642539129
 30
0.0
 10
1959.521407565896
 20
914.6636470079075
 30
0.0
 10
1959.963435447845
 20
914.8232876409732
 30
0.0
 10
1960.868472802917
 20
915.0643080791672
 30
0.0
 10
1961.331708198122
 20
915.1452024548795
 30
0.0
 10
1961.79836768348
 20
915.1899415002484
 30
0.0
  0
SPLINE
  5
2E1
330
2D8
100
AcDbEntity
  8
0
  6
Continuous
 62
     7
370
    15
100
AcDbSpline
210
0.0
220
0.0
230
1.0
 70
     8
 71
     3
 72
     8
 73
     4
 74
     0
 42
0.0000000001
 43
0.0000000001
 40
0.0
 40
0.0
 40
0.0
 40
0.0
 40
1.0
 40
1.0
 40
1.0
 40
1.0
 10
1958.47511187063
 20
914.1425963884616
 30
0.0
 10
1958.677294180414
 20
914.2594940380321
 30
0.0
 10
1958.884596036407
 20
914.3673399009538
 30
0.0
 10
1959.096340346229
 20
914.4658639541148
 30
0.0
  0
LINE
  5
2E2
330
2D8
100
AcDbEntity
  8
0
  6
Continuous
 62
     7
370
    15
100
AcDbLine
 10
1969.71399480273
 20
906.993168073312
 30
0.0
 11
1969.719213785801
 21
907.0630883119259
 31
0.0
  0
LINE
  5
2E3
330
2D8
100
AcDbEntity
  8
0
  6
Continuous
 62
     7
370
    15
100
AcDbLine
 10
1950.305814913051
 20
908.9856099181886
 30
0.0
 11
1955.101646436364
 21
917.2922337811067
 31
0.0
  0
ARC
  5
2E4
330
2D8
100
AcDbEntity
  8
0
  6
Continuous
 62
     7
370
    15
100
AcDbCircle
 10
1962.230010116336
 20
907.6389218496478
 30
0.0
 40
12.0
100
AcDbArc
 50
113.556464309102
 51
126.4435356908958
  0
LINE
  5
2E5
330
2D8
100
AcDbEntity
  8
0
  6
Continuous
 62
     7
370
    15
100
AcDbLine
 10
1957.434178593024
 20
918.6389218496477
 30
0.0
 11
1967.025841639649
 21
918.6389218496477
 31
0.0
  0
ARC
  5
2E6
330
2D8
100
AcDbEntity
  8
0
  6
Continuous
 62
     7
370
    15
100
AcDbCircle
 10
1962.230010116336
 20
907.6389218496478
 30
0.0
 40
11.99999999999999
100
AcDbArc
 50
53.55646430910415
 51
66.443535690898
  0
LINE
  5
2E7
330
2D8
100
AcDbEntity
  8
0
  6
Continuous
 62
     7
370
    15
100
AcDbLine
 10
1969.358373796309
 20
917.2922337811067
 30
0.0
 11
1974.154205319621
 21
908.9856099181886
 31
0.0
  0
ARC
  5
2E8
330
2D8
100
AcDbEntity
  8
0
  6
Continuous
 62
     7
370
    15
100
AcDbCircle
 10
1962.230010116336
 20
907.6389218496478
 30
0.0
 40
12.00000000000001
100
AcDbArc
 50
353.556464309103
 51
6.443535690897072
  0
LINE
  5
2E9
330
2D8
100
AcDbEntity
  8
0
  6
Continuous
 62
     7
370
    15
100
AcDbLine
 10
1974.154205319621
 20
906.2922337811068
 30
0.0
 11
1969.358373796309
 21
897.9856099181887
 31
0.0
  0
ARC
  5
2EA
330
2D8
100
AcDbEntity
  8
0
  6
Continuous
 62
     7
370
    15
100
AcDbCircle
 10
1962.230010116336
 20
907.6389218496478
 30
0.0
 40
12.00000000000001
100
AcDbArc
 50
293.556464309102
 51
306.4435356908958
  0
LINE
  5
2EB
330
2D8
100
AcDbEntity
  8
0
  6
Continuous
 62
     7
370
    15
100
AcDbLine
 10
1967.025841639649
 20
896.6389218496477
 30
0.0
 11
1957.434178593024
 21
896.6389218496477
 31
0.0
  0
ARC
  5
2EC
330
2D8
100
AcDbEntity
  8
0
  6
Continuous
 62
     7
370
    15
100
AcDbCircle
 10
1962.230010116336
 20
907.6389218496478
 30
0.0
 40
12.00000000000003
100
AcDbArc
 50
233.5564643091041
 51
246.443535690898
  0
LINE
  5
2ED
330
2D8
100
AcDbEntity
  8
0
  6
Continuous
 62
     7
370
    15
100
AcDbLine
 10
1950.305814913051
 20
906.2922337811066
 30
0.0
 11
1955.101646436364
 21
897.9856099181887
 31
0.0
  0
ARC
  5
2EE
330
2D8
100
AcDbEntity
  8
0
  6
Continuous
 62
     7
370
    15
100
AcDbCircle
 10
1962.230010116336
 20
907.6389218496478
 30
0.0
 40
12.00000000000001
100
AcDbArc
 50
173.5564643091029
 51
186.4435356909035
  0
LINE
  5
2EF
330
2D8
100
AcDbEntity
  8
0
  6
Continuous
 62
     7
370
    15
100
AcDbLine
 10
1958.230010116336
 20
914.5671250799232
 30
0.0
 11
1958.47511187063
 21
914.1425963884616
 31
0.0
  0
ARC
  5
2F0
330
2D8
100
AcDbEntity
  8
0
  6
Continuous
 62
     7
370
    15
100
AcDbCircle
 10
1962.230010116336
 20
907.6389218496478
 30
0.0
 40
7.999999999999994
100
AcDbArc
 50
120.0000000000005
 51
5.287329338897643
  0
ARC
  5
2F1
330
2D8
100
AcDbEntity
  8
0
  6
Continuous
 62
     7
370
    15
100
AcDbCircle
 10
1962.230010116336
 20
907.6389218496478
 30
0.0
 40
12.0
100
AcDbArc
 50
6.443535690897072
 51
53.55646430910415
  0
ARC
  5
2F2
330
2D8
100
AcDbEntity
  8
0
  6
Continuous
 62
     7
370
    15
100
AcDbCircle
 10
1962.230010116336
 20
907.6389218496478
 30
0.0
 40
12.00000000000001
100
AcDbArc
 50
306.4435356908958
 51
353.556464309103
  0
ARC
  5
2F3
330
2D8
100
AcDbEntity
  8
0
  6
Continuous
 62
     7
370
    15
100
AcDbCircle
 10
1962.230010116336
 20
907.6389218496478
 30
0.0
 40
12.00000000000001
100
AcDbArc
 50
246.443535690898
 51
293.556464309102
  0
ARC
  5
2F4
330
2D8
100
AcDbEntity
  8
0
  6
Continuous
 62
     7
370
    15
100
AcDbCircle
 10
1962.230010116336
 20
907.6389218496478
 30
0.0
 40
12.0
100
AcDbArc
 50
126.4435356908958
 51
173.5564643091029
  0
ARC
  5
2F5
330
2D8
100
AcDbEntity
  8
0
  6
Continuous
 62
     7
370
    15
100
AcDbCircle
 10
1962.230010116336
 20
907.6389218496478
 30
0.0
 40
12.00000000000003
100
AcDbArc
 50
186.4435356909035
 51
233.5564643091041
  0
ARC
  5
2F6
330
2D8
100
AcDbEntity
  8
0
  6
Continuous
 62
     7
370
    15
100
AcDbCircle
 10
1962.230010116336
 20
907.6389218496478
 30
0.0
 40
11.99999999999999
100
AcDbArc
 50
66.443535690898
 51
113.556464309102
  0
LINE
  5
2F7
330
2D8
100
AcDbEntity
  8
0
  6
Continuous
 62
     8
370
    15
100
AcDbLine
 10
1959.096340346234
 20
914.4658639541173
 30
0.0
 11
1959.1458519294
 21
914.485705521656
 31
0.0
  0
SPLINE
  5
2F8
330
2D8
100
AcDbEntity
  8
0
  6
Continuous
 62
     8
370
    15
100
AcDbSpline
210
0.0
220
0.0
230
1.0
 70
     8
 71
     3
 72
    10
 73
     6
 74
     0
 42
0.0000000001
 43
0.0000000001
 40
0.0
 40
0.0
 40
0.0
 40
0.0
 40
0.0436096590143477
 40
0.5232127799306449
 40
1.0
 40
1.0
 40
1.0
 40
1.0
 10
1969.677501585288
 20
908.5943888461841
 30
0.0
 10
1969.681520971958
 20
908.5714135166924
 30
0.0
 10
1969.729744106949
 20
908.2957638949151
 30
0.0
 10
1969.752894345368
 20
907.7583333520479
 30
0.0
 10
1969.726935840394
 20
907.2477220351217
 30
0.0
 10
1969.71399480273
 20
906.9931680733134
 30
0.0
  0
INSERT
  5
2F9
330
2D8
100
AcDbEntity
  8
0
  6
Continuous
 62
     7
370
     0
100
AcDbBlockReference
  2
SW_CENTERMARKSYMBOL_0
 10
1962.230010116336
 20
907.6389218496478
 30
0.0
  0
ENDBLK
  5
2DA
330
2D8
100
AcDbEntity
  8
0
100
AcDbBlockEnd
  0
BLOCK
  5
2FC
330
2FB
100
AcDbEntity
  8
0
100
AcDbBlockBegin
  2
2
 70
     0
 10
0.0
 20
0.0
 30
0.0
  3
2
  1

  0
LINE
  5
2FE
330
2FB
100
AcDbEntity
  8
0
  6
Continuous
 62
     7
370
    15
100
AcDbLine
 10
1950.230010116336
 20
873.6001436870481
 30
0.0
 11
1950.230010116336
 21
868.6001436870482
 31
0.0
  0
LINE
  5
2FF
330
2FB
100
AcDbEntity
  8
0
  6
Continuous
 62
     7
370
    15
100
AcDbLine
 10
1974.230010116336
 20
868.6001436870482
 30
0.0
 11
1974.230010116336
 21
873.6001436870481
 31
0.0
  0
LINE
  5
300
330
2FB
100
AcDbEntity
  8
0
  6
Continuous
 62
     7
370
    15
100
AcDbLine
 10
1950.230010116336
 20
873.6001436870481
 30
0.0
 11
1974.230010116336
 21
873.6001436870481
 31
0.0
  0
LINE
  5
301
330
2FB
100
AcDbEntity
  8
0
  6
Continuous
 62
     7
370
    15
100
AcDbLine
 10
1969.358373796309
 20
872.800143687048
 30
0.0
 11
1974.154205319621
 21
872.800143687048
 31
0.0
  0
LINE
  5
302
330
2FB
100
AcDbEntity
  8
0
  6
Continuous
 62
     7
370
    15
100
AcDbLine
 10
1969.358373796309
 20
868.6001436870482
 30
0.0
 11
1969.358373796309
 21
872.800143687048
 31
0.0
  0
LINE
  5
303
330
2FB
100
AcDbEntity
  8
0
  6
Continuous
 62
     7
370
    15
100
AcDbLine
 10
1967.025841639649
 20
868.6001436870482
 30
0.0
 11
1969.358373796309
 21
868.6001436870482
 31
0.0
  0
LINE
  5
304
330
2FB
100
AcDbEntity
  8
0
  6
Continuous
 62
     7
370
    15
100
AcDbLine
 10
1967.025841639649
 20
872.800143687048
 30
0.0
 11
1967.025841639649
 21
868.6001436870482
 31
0.0
  0
LINE
  5
305
330
2FB
100
AcDbEntity
  8
0
  6
Continuous
 62
     7
370
    15
100
AcDbLine
 10
1957.434178593024
 20
872.800143687048
 30
0.0
 11
1967.025841639649
 21
872.800143687048
 31
0.0
  0
LINE
  5
306
330
2FB
100
AcDbEntity
  8
0
  6
Continuous
 62
     7
370
    15
100
AcDbLine
 10
1957.434178593024
 20
868.6001436870482
 30
0.0
 11
1957.434178593024
 21
872.800143687048
 31
0.0
  0
LINE
  5
307
330
2FB
100
AcDbEntity
  8
0
  6
Continuous
 62
     7
370
    15
100
AcDbLine
 10
1955.101646436364
 20
868.6001436870482
 30
0.0
 11
1957.434178593024
 21
868.6001436870482
 31
0.0
  0
LINE
  5
308
330
2FB
100
AcDbEntity
  8
0
  6
Continuous
 62
     7
370
    15
100
AcDbLine
 10
1955.101646436364
 20
872.800143687048
 30
0.0
 11
1955.101646436364
 21
868.6001436870482
 31
0.0
  0
LINE
  5
309
330
2FB
100
AcDbEntity
  8
0
  6
Continuous
 62
     7
370
    15
100
AcDbLine
 10
1950.305814913051
 20
872.800143687048
 30
0.0
 11
1955.101646436364
 21
872.800143687048
 31
0.0
  0
LINE
  5
30A
330
2FB
100
AcDbEntity
  8
0
  6
Continuous
 62
     7
370
    15
100
AcDbLine
 10
1950.305814913051
 20
868.6001436870482
 30
0.0
 11
1950.305814913051
 21
872.800143687048
 31
0.0
  0
LINE
  5
30B
330
2FB
100
AcDbEntity
  8
0
  6
Continuous
 62
     7
370
    15
100
AcDbLine
 10
1950.230010116336
 20
868.6001436870482
 30
0.0
 11
1950.305814913051
 21
868.6001436870482
 31
0.0
  0
LINE
  5
30C
330
2FB
100
AcDbEntity
  8
0
  6
Continuous
 62
     7
370
    15
100
AcDbLine
 10
1974.154205319621
 20
868.6001436870482
 30
0.0
 11
1974.230010116336
 21
868.6001436870482
 31
0.0
  0
LINE
  5
30D
330
2FB
100
AcDbEntity
  8
0
  6
Continuous
 62
     7
370
    15
100
AcDbLine
 10
1974.154205319621
 20
872.800143687048
 30
0.0
 11
1974.154205319621
 21
868.6001436870482
 31
0.0
  0
LINE
  5
30E
330
2FB
100
AcDbEntity
  8
0
  6
Continuous
 62
     7
370
    15
100
AcDbLine
 10
1957.434178593024
 20
868.6001436870482
 30
0.0
 11
1967.025841639649
 21
868.6001436870482
 31
0.0
  0
LINE
  5
30F
330
2FB
100
AcDbEntity
  8
0
  6
Continuous
 62
     7
370
    15
100
AcDbLine
 10
1969.358373796309
 20
868.6001436870482
 30
0.0
 11
1974.154205319621
 21
868.6001436870482
 31
0.0
  0
LINE
  5
310
330
2FB
100
AcDbEntity
  8
0
  6
Continuous
 62
     7
370
    15
100
AcDbLine
 10
1950.305814913051
 20
868.6001436870482
 30
0.0
 11
1955.101646436364
 21
868.6001436870482
 31
0.0
  0
ENDBLK
  5
2FD
330
2FB
100
AcDbEntity
  8
0
100
AcDbBlockEnd
  0
BLOCK
  5
313
330
312
100
AcDbEntity
  8
0
100
AcDbBlockBegin
  2
3
 70
     0
 10
0.0
 20
0.0
 30
0.0
  3
3
  1

  0
LINE
  5
315
330
312
100
AcDbEntity
  8
0
  6
Continuous
 62
     7
370
    15
100
AcDbLine
 10
2021.581965224772
 20
906.6312011230239
 30
0.0
 11
2021.558765641269
 21
907.2834897043451
 31
0.0
  0
LINE
  5
316
330
312
100
AcDbEntity
  8
0
  6
Continuous
 62
     7
370
    15
100
AcDbLine
 10
1997.573930915966
 20
906.4304344893033
 30
0.0
 11
1997.597130499469
 21
905.7781459079821
 31
0.0
  0
SPLINE
  5
317
330
312
100
AcDbEntity
  8
0
  6
Continuous
 62
     7
370
    15
100
AcDbSpline
210
0.0
220
0.0
230
1.0
 70
     8
 71
     3
 72
    12
 73
     8
 74
     0
 42
0.0000000001
 43
0.0000000001
 40
0.0
 40
0.0
 40
0.0
 40
0.0
 40
0.2280050656938332
 40
0.4703593427701799
 40
0.6958394629332999
 40
0.8906329071200838
 40
1.0
 40
1.0
 40
1.0
 40
1.0
 10
2016.925753644826
 20
909.4137530210202
 30
0.0
 10
2016.906875790194
 20
909.3205317461459
 30
0.0
 10
2016.867932026945
 20
909.1282224329793
 30
0.0
 10
2016.765665751204
 20
908.8383981929215
 30
0.0
 10
2016.635985681936
 20
908.5604739257318
 30
0.0
 10
2016.512606618288
 20
908.3415112904205
 30
0.0
 10
2016.428562394452
 20
908.218084234323
 30
0.0
 10
2016.398342588414
 20
908.1737035318218
 30
0.0
  0
LINE
  5
318
330
312
100
AcDbEntity
  8
0
  6
Continuous
 62
     7
370
    15
100
AcDbLine
 10
2016.933671366012
 20
909.448605220659
 30
0.0
 11
2016.925753644826
 21
909.4137530210202
 31
0.0
  0
LINE
  5
319
330
312
100
AcDbEntity
  8
0
  6
Continuous
 62
     7
370
    15
100
AcDbLine
 10
2002.06377863083
 20
908.3286269260645
 30
0.0
 11
2002.042532307857
 21
908.3995593560141
 31
0.0
  0
SPLINE
  5
31A
330
312
100
AcDbEntity
  8
0
  6
Continuous
 62
     7
370
    15
100
AcDbSpline
210
0.0
220
0.0
230
1.0
 70
     8
 71
     3
 72
    18
 73
    14
 74
     0
 42
0.0000000001
 43
0.0000000001
 40
0.0
 40
0.0
 40
0.0
 40
0.0
 40
0.0880798323559531
 40
0.1609455115574464
 40
0.2304993722497141
 40
0.4016061585787158
 40
0.5697989792320764
 40
0.6533358436116185
 40
0.734502534306289
 40
0.8092848043144577
 40
0.8798506834516732
 40
0.9622297906546419
 40
0.9999999999999998
 40
0.9999999999999998
 40
0.9999999999999998
 40
0.9999999999999998
 10
2014.093833453459
 20
910.9631950192571
 30
0.0
 10
2014.200917803464
 20
910.9141980663666
 30
0.0
 10
2014.396589673296
 20
910.824667473077
 30
0.0
 10
2014.663965517867
 20
910.6844738506607
 30
0.0
 10
2015.01398329066
 20
910.4852170742811
 30
0.0
 10
2015.436468697763
 20
910.2053523688963
 30
0.0
 10
2015.819107344526
 20
909.8907146632868
 30
0.0
 10
2016.085987793817
 20
909.6306084058102
 30
0.0
 10
2016.261346166923
 20
909.4377680224967
 30
0.0
 10
2016.412266751112
 20
909.2506555451986
 30
0.0
 10
2016.548223205219
 20
909.0583558530143
 30
0.0
 10
2016.652819123927
 20
908.8948575077628
 30
0.0
 10
2016.70553016351
 20
908.7891289805073
 30
0.0
 10
2016.722100436709
 20
908.7558920989092
 30
0.0
  0
SPLINE
  5
31B
330
312
100
AcDbEntity
  8
0
  6
Continuous
 62
     7
370
    15
100
AcDbSpline
210
0.0
220
0.0
230
1.0
 70
     8
 71
     3
 72
     9
 73
     5
 74
     0
 42
0.0000000001
 43
0.0000000001
 40
0.0
 40
0.0
 40
0.0
 40
0.0
 40
0.1101667532179026
 40
1.0
 40
1.0
 40
1.0
 40
1.0
 10
2016.847812689301
 20
909.6001349148286
 30
0.0
 10
2016.851131231681
 20
909.591984923893
 30
0.0
 10
2016.881254134307
 20
909.5180062443219
 30
0.0
 10
2016.900201426039
 20
909.44259487571
 30
0.0
 10
2016.917061356158
 20
909.3754913327337
 30
0.0
  0
SPLINE
  5
31C
330
312
100
AcDbEntity
  8
0
  6
Continuous
 62
     7
370
    15
100
AcDbSpline
210
0.0
220
0.0
230
1.0
 70
     8
 71
     3
 72
    22
 73
    18
 74
     0
 42
0.0000000001
 43
0.0000000001
 40
0.0
 40
0.0
 40
0.0
 40
0.0
 40
0.0094467168069018
 40
0.0868052154712135
 40
0.1555094458331667
 40
0.2906942926785592
 40
0.423432219263342
 40
0.5114102501468084
 40
0.5974788545292009
 40
0.6729390111089319
 40
0.6980529126224584
 40
0.7241570769073725
 40
0.7599578117399291
 40
0.8061714862810653
 40
0.8628826674581308
 40
0.9301577293070323
 40
0.9999999999999998
 40
0.9999999999999998
 40
0.9999999999999998
 40
0.9999999999999998
 10
2014.004839680414
 20
912.2053877529037
 30
0.0
 10
2014.018641080649
 20
912.1997254420962
 30
0.0
 10
2014.145461175464
 20
912.1476948668435
 30
0.0
 10
2014.360283548031
 20
912.0427654959311
 30
0.0
 10
2014.740064869869
 20
911.8453304874238
 30
0.0
 10
2015.161746929539
 20
911.5884072525341
 30
0.0
 10
2015.561876783946
 20
911.2933767888184
 30
0.0
 10
2015.87070995245
 20
911.0240422676367
 30
0.0
 10
2016.098033661371
 20
910.7963907129489
 30
0.0
 10
2016.250870668886
 20
910.6203179847264
 30
0.0
 10
2016.347144577267
 20
910.4986052855538
 30
0.0
 10
2016.410518202878
 20
910.4144168887822
 30
0.0
 10
2016.484605724494
 20
910.3096434247058
 30
0.0
 10
2016.572750566284
 20
910.1739116999894
 30
0.0
 10
2016.669844793684
 20
910.005407840544
 30
0.0
 10
2016.76740450813
 20
909.811136681597
 30
0.0
 10
2016.820677490608
 20
909.6713412868984
 30
0.0
 10
2016.847812689301
 20
909.6001349148286
 30
0.0
  0
SPLINE
  5
31D
330
312
100
AcDbEntity
  8
0
  6
Continuous
 62
     7
370
    15
100
AcDbSpline
210
0.0
220
0.0
230
1.0
 70
     8
 71
     3
 72
     9
 73
     5
 74
     0
 42
0.0000000001
 43
0.0000000001
 40
0.0
 40
0.0
 40
0.0
 40
0.0
 40
0.0180984321891934
 40
1.0
 40
1.0
 40
1.0
 40
1.0
 10
2016.805670011911
 20
910.8217819321172
 30
0.0
 10
2016.806400422375
 20
910.820012921712
 30
0.0
 10
2016.846758087409
 20
910.7222690736966
 30
0.0
 10
2016.871217908473
 20
910.6229952904847
 30
0.0
 10
2016.895235045122
 20
910.5255182071063
 30
0.0
  0
SPLINE
  5
31E
330
312
100
AcDbEntity
  8
0
  6
Continuous
 62
     7
370
    15
100
AcDbSpline
210
0.0
220
0.0
230
1.0
 70
     8
 71
     3
 72
    23
 73
    19
 74
     0
 42
0.0000000001
 43
0.0000000001
 40
0.0
 40
0.0
 40
0.0
 40
0.0
 40
0.0490273125448608
 40
0.1251677492471884
 40
0.2030274312718319
 40
0.2785967211755307
 40
0.3526014154751546
 40
0.4280427801013164
 40
0.5050228501911598
 40
0.5702638258207952
 40
0.6277943677826532
 40
0.6787396324499265
 40
0.7329933757760019
 40
0.7727264165079168
 40
0.8160394586829884
 40
0.8680668544244699
 40
0.929879249566566
 40
1.0
 40
1.0
 40
1.0
 40
1.0
 10
2013.216544284218
 20
913.7145244943319
 30
0.0
 10
2013.30320802741
 20
913.6854214680109
 30
0.0
 10
2013.524462367358
 20
913.6111208361425
 30
0.0
 10
2013.877649976971
 20
913.4698993619034
 30
0.0
 10
2014.259343055813
 20
913.2964543669388
 30
0.0
 10
2014.61764872916
 20
913.1103491333513
 30
0.0
 10
2014.951799329116
 20
912.9135888794086
 30
0.0
 10
2015.266200487134
 20
912.7036010579397
 30
0.0
 10
2015.545824522903
 20
912.490834320387
 30
0.0
 10
2015.782073768199
 20
912.2869964965763
 30
0.0
 10
2015.971655462298
 20
912.103871052996
 30
0.0
 10
2016.135679081299
 20
911.927747022721
 30
0.0
 10
2016.269787162135
 20
911.7670523456659
 30
0.0
 10
2016.386454968962
 20
911.6119104758897
 30
0.0
 10
2016.492270214695
 20
911.4567636828843
 30
0.0
 10
2016.601399287874
 20
911.275224681678
 30
0.0
 10
2016.712707735257
 20
911.060656453859
 30
0.0
 10
2016.773408398897
 20
910.9046809063752
 30
0.0
 10
2016.805670011911
 20
910.8217819321172
 30
0.0
  0
LINE
  5
31F
330
312
100
AcDbEntity
  8
0
  6
Continuous
 62
     7
370
    15
100
AcDbLine
 10
2013.131927546383
 20
913.7436377517213
 30
0.0
 11
2013.216544284218
 21
913.7145244943319
 31
0.0
  0
SPLINE
  5
320
330
312
100
AcDbEntity
  8
0
  6
Continuous
 62
     7
370
    15
100
AcDbSpline
210
0.0
220
0.0
230
1.0
 70
     8
 71
     3
 72
    18
 73
    14
 74
     0
 42
0.0000000001
 43
0.0000000001
 40
0.0
 40
0.0
 40
0.0
 40
0.0
 40
0.0882510653181179
 40
0.1660370807688266
 40
0.2329618201373315
 40
0.288743385639813
 40
0.3357881441584549
 40
0.4288935150980083
 40
0.5246944021526683
 40
0.6375603649316188
 40
0.7555229274500271
 40
0.8773088410604962
 40
1.0
 40
1.0
 40
1.0
 40
1.0
 10
2002.178457049394
 20
911.1742430416331
 30
0.0
 10
2002.21965915213
 20
911.2550798513217
 30
0.0
 10
2002.297177500893
 20
911.4071676233043
 30
0.0
 10
2002.434038609894
 20
911.6160929808732
 30
0.0
 10
2002.566513203634
 20
911.7928922851154
 30
0.0
 10
2002.690300032852
 20
911.9399954486581
 30
0.0
 10
2002.843945064753
 20
912.1071711977647
 30
0.0
 10
2003.046468518448
 20
912.3037754183172
 30
0.0
 10
2003.334475929344
 20
912.5458840271546
 30
0.0
 10
2003.679286318304
 20
912.7955391064746
 30
0.0
 10
2004.089342962177
 20
913.0482494160762
 30
0.0
 10
2004.545676204562
 20
913.2889659104893
 30
0.0
 10
2004.874172965859
 20
913.4285355957752
 30
0.0
 10
2005.039029522471
 20
913.4985788364845
 30
0.0
  0
SPLINE
  5
321
330
312
100
AcDbEntity
  8
0
  6
Continuous
 62
     7
370
    15
100
AcDbSpline
210
0.0
220
0.0
230
1.0
 70
     8
 71
     3
 72
    20
 73
    16
 74
     0
 42
0.0000000001
 43
0.0000000001
 40
0.0
 40
0.0
 40
0.0
 40
0.0
 40
0.0854888555458947
 40
0.17658179760206
 40
0.2690607819191002
 40
0.3491869058693485
 40
0.4157451959719284
 40
0.4803493718897437
 40
0.5524511071229023
 40
0.6430173996659502
 40
0.7320442100048942
 40
0.8190994666339205
 40
0.8803855448755388
 40
0.9557662321631495
 40
1.0
 40
1.0
 40
1.0
 40
1.0
 10
2002.010966971655
 20
909.290929965476
 30
0.0
 10
2002.025230455696
 20
909.3642527151374
 30
0.0
 10
2002.054692443883
 20
909.5157047711699
 30
0.0
 10
2002.133729328245
 20
909.7569683268273
 30
0.0
 10
2002.239852090935
 20
909.9970533481636
 30
0.0
 10
2002.358911770491
 20
910.2110352110337
 30
0.0
 10
2002.481038914668
 20
910.3974465033928
 30
0.0
 10
2002.612952721336
 20
910.5740909995622
 30
0.0
 10
2002.776911587587
 20
910.7679888029599
 30
0.0
 10
2002.979682441157
 20
910.9773351663617
 30
0.0
 10
2003.218450925011
 20
911.1917601377834
 30
0.0
 10
2003.451259736181
 20
911.3760871190093
 30
0.0
 10
2003.685770778509
 20
911.5423142158926
 30
0.0
 10
2003.883395873543
 20
911.6726367404865
 30
0.0
 10
2004.024747347637
 20
911.7531769421439
 30
0.0
 10
2004.077019527299
 20
911.7829609392195
 30
0.0
  0
SPLINE
  5
322
330
312
100
AcDbEntity
  8
0
  6
Continuous
 62
     7
370
    15
100
AcDbSpline
210
0.0
220
0.0
230
1.0
 70
     8
 71
     3
 72
    20
 73
    16
 74
     0
 42
0.0000000001
 43
0.0000000001
 40
0.0
 40
0.0
 40
0.0
 40
0.0
 40
0.0209485382778697
 40
0.1018040571692112
 40
0.1732644424251194
 40
0.2347613071949679
 40
0.2868069079331165
 40
0.3413786948014017
 40
0.4029473774421486
 40
0.4701730768280383
 40
0.5764554732660691
 40
0.6797186111062636
 40
0.7851677299233196
 40
0.8941124053388989
 40
1.0
 40
1.0
 40
1.0
 40
1.0
 10
2002.103599612228
 20
908.2811605397907
 30
0.0
 10
2002.10832235371
 20
908.3027383561422
 30
0.0
 10
2002.131273560968
 20
908.4076005293535
 30
0.0
 10
2002.201456963812
 20
908.5915716166029
 30
0.0
 10
2002.307836613545
 20
908.8211071086169
 30
0.0
 10
2002.420293198992
 20
909.0163185176873
 30
0.0
 10
2002.536742188409
 20
909.1914540816594
 30
0.0
 10
2002.666869820025
 20
909.3640996260745
 30
0.0
 10
2002.824468412024
 20
909.5488277189248
 30
0.0
 10
2003.04833911802
 20
909.7799556575939
 30
0.0
 10
2003.345662460462
 20
910.0420339810838
 30
0.0
 10
2003.728054506296
 20
910.3245002131377
 30
0.0
 10
2004.154770583496
 20
910.5902319357424
 30
0.0
 10
2004.626076201957
 20
910.840846324216
 30
0.0
 10
2004.960775168283
 20
910.9825411717883
 30
0.0
 10
2005.125743254628
 20
911.052380430946
 30
0.0
  0
SPLINE
  5
323
330
312
100
AcDbEntity
  8
0
  6
Continuous
 62
     7
370
    15
100
AcDbSpline
210
0.0
220
0.0
230
1.0
 70
     8
 71
     3
 72
    18
 73
    14
 74
     0
 42
0.0000000001
 43
0.0000000001
 40
0.0
 40
0.0
 40
0.0
 40
0.0
 40
0.0035224303252666
 40
0.0778141273628727
 40
0.1589425894603711
 40
0.2435520178922479
 40
0.3564480570024183
 40
0.4696278182805015
 40
0.5867421925798567
 40
0.6776157493310575
 40
0.7724272297177272
 40
0.8795558109809133
 40
1.0
 40
1.0
 40
1.0
 40
1.0
 10
2002.493804489959
 20
907.8362024098568
 30
0.0
 10
2002.495483577275
 20
907.8389992106364
 30
0.0
 10
2002.532576351918
 20
907.90078343118
 30
0.0
 10
2002.621766714645
 20
908.0247766007433
 30
0.0
 10
2002.766134954556
 20
908.2097895282849
 30
0.0
 10
2002.954983465413
 20
908.4196449310004
 30
0.0
 10
2003.189960278536
 20
908.6469494173078
 30
0.0
 10
2003.480104838641
 20
908.8881326500407
 30
0.0
 10
2003.779301343142
 20
909.1032999082701
 30
0.0
 10
2004.08350699028
 20
909.2962153518431
 30
0.0
 10
2004.396428378538
 20
909.4734723713923
 30
0.0
 10
2004.756202873594
 20
909.6542044568481
 30
0.0
 10
2005.026875688588
 20
909.7689645303308
 30
0.0
 10
2005.170130822543
 20
909.8297019549587
 30
0.0
  0
LINE
  5
324
330
312
100
AcDbEntity
  8
0
  6
Continuous
 62
     7
370
    15
100
AcDbLine
 10
2016.953084911059
 20
909.6123485903547
 30
0.0
 11
2016.933669829897
 21
909.4485980435768
 31
0.0
  0
SPLINE
  5
325
330
312
100
AcDbEntity
  8
0
  6
Continuous
 62
     7
370
    15
100
AcDbSpline
210
0.0
220
0.0
230
1.0
 70
     8
 71
     3
 72
    13
 73
     9
 74
     0
 42
0.0000000001
 43
0.0000000001
 40
0.0
 40
0.0
 40
0.0
 40
0.0
 40
0.1552029223849148
 40
0.317130967978773
 40
0.4623005792023908
 40
0.6477636555570151
 40
0.8885978155974804
 40
1.0
 40
1.0
 40
1.0
 40
1.0
 10
2016.900493110398
 20
910.5006615673246
 30
0.0
 10
2016.910473149712
 20
910.4561176882397
 30
0.0
 10
2016.930865675055
 20
910.365099791961
 30
0.0
 10
2016.951035730512
 20
910.229490962144
 30
0.0
 10
2016.966139194094
 20
910.0811028137506
 30
0.0
 10
2016.972783561351
 20
909.9102419502219
 30
0.0
 10
2016.971157784448
 20
909.749876405239
 30
0.0
 10
2016.957427426723
 20
909.645393512295
 30
0.0
 10
2016.953084911059
 20
909.6123485903547
 30
0.0
  0
LINE
  5
326
330
312
100
AcDbEntity
  8
0
  6
Continuous
 62
     7
370
    15
100
AcDbLine
 10
2016.895232349784
 20
910.5255307034965
 30
0.0
 11
2016.900493110398
 21
910.5006615673246
 31
0.0
  0
LINE
  5
327
330
312
100
AcDbEntity
  8
0
  6
Continuous
 62
     7
370
    15
100
AcDbLine
 10
2002.005396190006
 20
909.2440644330627
 30
0.0
 11
2002.010945775795
 21
909.2908059504653
 31
0.0
  0
SPLINE
  5
328
330
312
100
AcDbEntity
  8
0
  6
Continuous
 62
     7
370
    15
100
AcDbSpline
210
0.0
220
0.0
230
1.0
 70
     8
 71
     3
 72
    12
 73
     8
 74
     0
 42
0.0000000001
 43
0.0000000001
 40
0.0
 40
0.0
 40
0.0
 40
0.0
 40
0.2341021597201416
 40
0.4266777591315565
 40
0.5777565166280608
 40
0.7949038955835743
 40
1.0
 40
1.0
 40
1.0
 40
1.0
 10
2002.04255185398
 20
908.3994800922056
 30
0.0
 10
2002.028540817038
 20
908.464308282023
 30
0.0
 10
2002.003004111815
 20
908.5824650166422
 30
0.0
 10
2001.985310393219
 20
908.7447724483281
 30
0.0
 10
2001.978086483496
 20
908.9054889983071
 30
0.0
 10
2001.98123594933
 20
909.0696740061924
 30
0.0
 10
2001.997497483562
 20
909.1870509783168
 30
0.0
 10
2002.005396190006
 20
909.2440644330627
 30
0.0
  0
ARC
  5
329
330
312
100
AcDbEntity
  8
0
  6
Continuous
 62
     7
370
    15
100
AcDbCircle
 10
2003.46874492318
 20
906.5211751142857
 30
0.0
 40
5.918441377774279
100
AcDbArc
 50
187.2122151254393
 51
246.6178353720205
  0
LWPOLYLINE
  5
32A
330
312
100
AcDbEntity
  8
0
  6
Continuous
 62
     7
370
    15
100
AcDbPolyline
 90
       55
 70
   128
 43
0.0
 10
2021.581965224772
 20
906.6312011230239
 10
2021.584207419726
 20
906.5370915860555
 10
2021.576038616232
 20
906.2276295217881
 10
2021.544071744868
 20
905.9181218804951
 10
2021.488370272899
 20
905.609183160949
 10
2021.40904479044
 20
905.3014267323806
 10
2021.306252790895
 20
904.9954636166914
 10
2021.180198358264
 20
904.6919012753267
 10
2021.031131761953
 20
904.391342403216
 10
2020.859348959894
 20
904.0943837321789
 10
2020.665191010937
 20
903.8016148461688
 10
2020.449043397718
 20
903.5136170107088
 10
2020.211335261316
 20
903.2309620188433
 10
2019.952538549232
 20
902.9542110558946
 10
2019.673167078384
 20
902.6839135852823
 10
2019.373775514965
 20
902.4206062576142
 10
2019.054958273213
 20
902.1648118452169
 10
2018.71734833525
 20
901.9170382042187
 10
2018.361615994356
 20
901.6777772662484
 10
2017.988467524167
 20
901.4475040617517
 10
2017.598643776431
 20
901.2266757768609
 10
2017.192918710113
 20
901.0157308456948
 10
2016.772097854779
 20
900.8150880798881
 10
2016.337016711283
 20
900.6251458370801
 10
2015.888539092961
 20
900.446281230012
 10
2015.427555410614
 20
900.2788493778046
 10
2014.95498090467
 20
900.1231827009023
 10
2014.471753828069
 20
899.9795902610829
 10
2013.97883358344
 20
899.8483571478439
 10
2013.477198818304
 20
899.7297439123842
 10
2012.967845482052
 20
899.6239860503036
 10
2012.451784848586
 20
899.5312935340479
 10
2011.930041508525
 20
899.4518503960277
 10
2011.403651334974
 20
899.3858143632404
 10
2010.8736594269
 20
899.3333165441162
 10
2010.341118034178
 20
899.2944611682158
 10
2009.807084468447
 20
899.2693253792911
 10
2009.272619003921
 20
899.2579590821245
 10
2008.738782772306
 20
899.2603848434468
 10
2008.206635656026
 20
899.2765978471338
 10
2007.677234183923
 20
899.3065659037672
 10
2007.151629433616
 20
899.3502295145443
 10
2006.630864944685
 20
899.4075019894077
 10
2006.115974646817
 20
899.4782696191602
 10
2005.607980807039
 20
899.5623919012235
 10
2005.107892000097
 20
899.659701818593
 10
2004.616701106028
 20
899.7700061714352
 10
2004.135383338885
 20
899.8930859606682
 10
2003.66489431054
 20
900.0286968227626
 10
2003.206168133411
 20
900.1765695149051
 10
2002.760115565859
 20
900.3364104495529
 10
2002.327622203969
 20
900.507902277326
 10
2001.909546723277
 20
900.6907045170741
 10
2001.506719173952
 20
900.8844542318716
 10
2001.119939332806
 20
901.0887667495936
  0
ARC
  5
32B
330
312
100
AcDbEntity
  8
0
  6
Continuous
 62
     7
370
    15
100
AcDbCircle
 10
2009.786347407663
 20
897.6988785020953
 30
0.0
 40
19.52088642212885
100
AcDbArc
 50
96.3037104396767
 51
104.0615623728165
  0
ARC
  5
32C
330
312
100
AcDbEntity
  8
0
  6
Continuous
 62
     7
370
    15
100
AcDbCircle
 10
2002.402027701002
 20
909.7467883076916
 30
0.0
 40
4.987687120792437
100
AcDbArc
 50
145.8642746120337
 51
165.1660217422219
  0
LINE
  5
32D
330
312
100
AcDbEntity
  8
0
  6
Continuous
 62
     7
370
    15
100
AcDbLine
 10
1997.702369371778
 20
907.5992162771045
 30
0.0
 11
1997.580571558388
 21
911.0237313290404
 31
0.0
  0
ARC
  5
32E
330
312
100
AcDbEntity
  8
0
  6
Continuous
 62
     7
370
    15
100
AcDbCircle
 10
2002.644252002513
 20
906.6895862961233
 30
0.0
 40
5.024901057559303
100
AcDbArc
 50
169.5705628445321
 51
240.855227271136
  0
LINE
  5
32F
330
312
100
AcDbEntity
  8
0
  6
Continuous
 62
     7
370
    15
100
AcDbLine
 10
2000.075236800071
 20
905.7253933731558
 30
0.0
 11
2000.197034613461
 21
902.3008783212199
 31
0.0
  0
ARC
  5
330
330
312
100
AcDbEntity
  8
0
  6
Continuous
 62
     7
370
    15
100
AcDbCircle
 10
2006.314292382066
 20
914.7494725694706
 30
0.0
 40
10.97086231326309
100
AcDbArc
 50
235.3408462071903
 51
246.7388662640865
  0
LINE
  5
331
330
312
100
AcDbEntity
  8
0
  6
Continuous
 62
     7
370
    15
100
AcDbLine
 10
2002.103451043948
 20
901.2458673860097
 30
0.0
 11
2001.981653230559
 21
904.6703824379456
 31
0.0
  0
ARC
  5
332
330
312
100
AcDbEntity
  8
0
  6
Continuous
 62
     7
370
    15
100
AcDbCircle
 10
2009.059827404344
 20
918.4485401143417
 30
0.0
 40
18.55594570658093
100
AcDbArc
 50
247.9826925872853
 51
277.1452733538112
  0
LINE
  5
333
330
312
100
AcDbEntity
  8
0
  6
Continuous
 62
     7
370
    15
100
AcDbLine
 10
2011.246121068076
 20
903.4612156384406
 30
0.0
 11
2011.367918881465
 21
900.0367005865047
 31
0.0
  0
ARC
  5
334
330
312
100
AcDbEntity
  8
0
  6
Continuous
 62
     7
370
    15
100
AcDbCircle
 10
2009.102753522794
 20
922.8640757954229
 30
0.0
 40
19.52088642212688
100
AcDbArc
 50
276.3037104396767
 51
284.0615623728165
  0
LINE
  5
335
330
312
100
AcDbEntity
  8
0
  6
Continuous
 62
     7
370
    15
100
AcDbLine
 10
2013.967429950788
 20
900.5036132057293
 30
0.0
 11
2013.845632137398
 21
903.9281282576652
 31
0.0
  0
ARC
  5
336
330
312
100
AcDbEntity
  8
0
  6
Continuous
 62
     7
370
    15
100
AcDbCircle
 10
2011.830644729879
 20
911.6895935309239
 30
0.0
 40
11.38823985152799
100
AcDbArc
 50
280.8145559901506
 51
321.4520056533541
  0
LINE
  5
337
330
312
100
AcDbEntity
  8
0
  6
Continuous
 62
     7
370
    15
100
AcDbLine
 10
2020.615434733233
 20
908.0172994140449
 30
0.0
 11
2020.737232546622
 21
904.592784362109
 31
0.0
  0
ARC
  5
338
330
312
100
AcDbEntity
  8
0
  6
Continuous
 62
     7
370
    15
100
AcDbCircle
 10
2016.487073229455
 20
910.8161659898284
 30
0.0
 40
4.987687120792075
100
AcDbArc
 50
325.8642746120338
 51
345.166021742222
  0
LINE
  5
339
330
312
100
AcDbEntity
  8
0
  6
Continuous
 62
     7
370
    15
100
AcDbLine
 10
2021.430327185457
 20
906.1147079165438
 30
0.0
 11
2021.308529372068
 21
909.5392229684799
 31
0.0
  0
ARC
  5
33A
330
312
100
AcDbEntity
  8
0
  6
Continuous
 62
     7
370
    15
100
AcDbCircle
 10
2017.481135678469
 20
907.138462917852
 30
0.0
 40
4.079728895597664
100
AcDbArc
 50
345.4670330275977
 51
18.60686371472456
  0
ARC
  5
33B
330
312
100
AcDbEntity
  8
0
  6
Continuous
 62
     7
370
    15
100
AcDbCircle
 10
2012.574808548391
 20
905.8134817280496
 30
0.0
 40
10.97086231326327
100
AcDbArc
 50
55.34084620719037
 51
66.73886626408652
  0
LINE
  5
33C
330
312
100
AcDbEntity
  8
0
  6
Continuous
 62
     7
370
    15
100
AcDbLine
 10
2000.075236800071
 20
905.7253933731558
 30
0.0
 11
1997.580571558388
 21
911.0237313290404
 31
0.0
  0
LINE
  5
33D
330
312
100
AcDbEntity
  8
0
  6
Continuous
 62
     7
370
    15
100
AcDbLine
 10
1998.273666197224
 20
912.5456548834753
 30
0.0
 11
2005.043468793058
 21
916.6348260398549
 31
0.0
  0
LINE
  5
33E
330
312
100
AcDbEntity
  8
0
  6
Continuous
 62
     7
370
    15
100
AcDbLine
 10
2007.642979862381
 20
917.1017386590795
 30
0.0
 11
2016.907447699898
 21
915.8925718595746
 31
0.0
  0
LINE
  5
33F
330
312
100
AcDbEntity
  8
0
  6
Continuous
 62
     7
370
    15
100
AcDbLine
 10
2018.813864130386
 20
914.8375609243643
 30
0.0
 11
2021.308529372068
 21
909.5392229684799
 31
0.0
  0
LINE
  5
340
330
312
100
AcDbEntity
  8
0
  6
Continuous
 62
     7
370
    15
100
AcDbLine
 10
2020.615434733233
 20
908.0172994140449
 30
0.0
 11
2013.845632137398
 21
903.9281282576652
 31
0.0
  0
LINE
  5
341
330
312
100
AcDbEntity
  8
0
  6
Continuous
 62
     7
370
    15
100
AcDbLine
 10
2001.981653230559
 20
904.6703824379456
 30
0.0
 11
2011.246121068076
 21
903.4612156384406
 31
0.0
  0
SPLINE
  5
342
330
312
100
AcDbEntity
  8
0
  6
Continuous
 62
     7
370
    15
100
AcDbSpline
210
0.0
220
0.0
230
1.0
 70
     8
 71
     3
 72
    26
 73
    22
 74
     0
 42
0.0000000001
 43
0.0000000001
 40
0.0
 40
0.0
 40
0.0
 40
0.0
 40
0.125
 40
0.125
 40
0.1875
 40
0.1875
 40
0.25
 40
0.25
 40
0.375
 40
0.375
 40
0.5
 40
0.5
 40
0.5625
 40
0.5625
 40
0.625
 40
0.625
 40
0.75
 40
0.75
 40
0.8749999999999998
 40
0.8749999999999998
 40
1.0
 40
1.0
 40
1.0
 40
1.0
 10
2003.795159619647
 20
913.0552348038863
 30
0.0
 10
2004.114477248874
 20
913.2874263212537
 30
0.0
 10
2004.46818317677
 20
913.4992527428313
 30
0.0
 10
2005.049438246568
 20
913.7869695895377
 30
0.0
 10
2005.252706417103
 20
913.8781957073259
 30
0.0
 10
2005.669454621964
 20
914.0473649960549
 30
0.0
 10
2005.883302375798
 20
914.1256386315223
 30
0.0
 10
2006.540394474987
 20
914.3425320438709
 30
0.0
 10
2006.99923417754
 20
914.4631706906512
 30
0.0
 10
2007.9601051883
 20
914.6546489401224
 30
0.0
 10
2008.44814994831
 20
914.7226049542412
 30
0.0
 10
2009.187590344097
 20
914.7839645027017
 30
0.0
 10
2009.435509728925
 20
914.7976470176095
 30
0.0
 10
2009.934283666106
 20
914.8112041581985
 30
0.0
 10
2010.186301697897
 20
914.8109970606071
 30
0.0
 10
2010.932041449104
 20
914.7893818996813
 30
0.0
 10
2011.418917041312
 20
914.7472740999328
 30
0.0
 10
2012.373121558769
 20
914.610415089883
 30
0.0
 10
2012.844085913129
 20
914.5143248372804
 30
0.0
 10
2013.730576547742
 20
914.2755393884639
 30
0.0
 10
2014.149919280806
 20
914.1327501565104
 30
0.0
 10
2014.545126658668
 20
913.9663365743869
 30
0.0
  0
SPLINE
  5
343
330
312
100
AcDbEntity
  8
0
  6
Continuous
 62
     7
370
    15
100
AcDbSpline
210
0.0
220
0.0
230
1.0
 70
     8
 71
     3
 72
    10
 73
     6
 74
     0
 42
0.0000000001
 43
0.0000000001
 40
0.0
 40
0.0
 40
0.0
 40
0.0
 40
0.5
 40
0.5
 40
1.0
 40
1.0
 40
1.0
 40
1.0
 10
2002.400580628691
 20
911.6196661936314
 30
0.0
 10
2002.560599546121
 20
911.8783559160956
 30
0.0
 10
2002.759586843895
 20
912.1293358569126
 30
0.0
 10
2003.227764577181
 20
912.6095855104834
 30
0.0
 10
2003.497458063677
 20
912.8387613941002
 30
0.0
 10
2003.795159619647
 20
913.0552348038863
 30
0.0
  0
SPLINE
  5
344
330
312
100
AcDbEntity
  8
0
  6
Continuous
 62
     7
370
    15
100
AcDbSpline
210
0.0
220
0.0
230
1.0
 70
     8
 71
     3
 72
     8
 73
     4
 74
     0
 42
0.0000000001
 43
0.0000000001
 40
0.0
 40
0.0
 40
0.0
 40
0.0
 40
1.0
 40
1.0
 40
1.0
 40
1.0
 10
2002.190931596135
 20
911.2281947872252
 30
0.0
 10
2002.250889913287
 20
911.360179756606
 30
0.0
 10
2002.320868614947
 20
911.4908016824813
 30
0.0
 10
2002.40058093568
 20
911.6196661334528
 30
0.0
  0
LINE
  5
345
330
312
100
AcDbEntity
  8
0
  6
Continuous
 62
     7
370
    15
100
AcDbLine
 10
2001.717450134466
 20
911.2899919755443
 30
0.0
 11
2002.190931596135
 21
911.2281947872252
 31
0.0
  0
LWPOLYLINE
  5
346
330
312
100
AcDbEntity
  8
0
  6
Continuous
 62
     7
370
    15
100
AcDbPolyline
 90
       79
 70
   128
 43
0.0
 10
2001.717450134466
 20
911.2899919755443
 10
2001.616151694169
 20
911.0404881971778
 10
2001.538429772335
 20
910.7886985314262
 10
2001.484518441394
 20
910.5353812845377
 10
2001.454580064242
 20
910.2812993633246
 10
2001.448704805257
 20
910.0272179775416
 10
2001.466910358752
 20
909.7739023353314
 10
2001.50914189569
 20
909.5221153386733
 10
2001.57527222881
 20
909.2726152857771
 10
2001.665102195667
 20
909.0261535873432
 10
2001.778361258453
 20
908.783472503565
 10
2001.914708318753
 20
908.5453029086886
 10
2002.073732744832
 20
908.3123620898652
 10
2002.254955608312
 20
908.0853515869209
 10
2002.457831126549
 20
907.8649550795551
 10
2002.681748306345
 20
907.651836328324
 10
2002.926032784055
 20
907.4466371756169
 10
2003.189948856546
 20
907.2499756126422
 10
2003.47270169689
 20
907.0624439182431
 10
2003.773439748114
 20
906.8846068751531
 10
2004.091257287805
 20
906.7170000690584
 10
2004.425197155845
 20
906.5601282755938
 10
2004.774253637056
 20
906.414463940127
 10
2005.137375490079
 20
906.2804457549111
 10
2005.513469113356
 20
906.15847733789
 10
2005.901401838701
 20
906.0489260171371
 10
2006.300005342509
 20
905.9521217245848
 10
2006.708079164363
 20
905.8683560023808
 10
2007.124394322412
 20
905.7978811248608
 10
2007.547697014661
 20
905.7409093387811
 10
2007.976712394996
 20
905.6976122241044
 10
2008.410148412601
 20
905.6681201772571
 10
2008.846699703176
 20
905.6525220184187
 10
2009.285051520262
 20
905.6508647240264
 10
2009.723883694818
 20
905.6631532852962
 10
2010.161874611124
 20
905.6893506931926
 10
2010.597705187051
 20
905.7293780498856
 10
2011.030062846692
 20
905.7831148063664
 10
2011.457645473401
 20
905.8503991254998
 10
2011.879165331334
 20
905.9310283694232
 10
2012.293352943681
 20
906.024759709825
 10
2012.6989609159
 20
906.1313108592614
 10
2013.094767692456
 20
906.2503609213123
 10
2013.479581235738
 20
906.3815513570133
 10
2013.852242616077
 20
906.524487064656
 10
2014.21162950205
 20
906.6787375697018
 10
2014.556659540573
 20
906.8438383212267
 10
2014.886293616587
 20
907.0192920909944
 10
2015.199538982516
 20
907.2045704709401
 10
2015.4954522481
 20
907.3991154645598
 10
2015.77314222157
 20
907.6023411674096
 10
2016.031772593612
 20
907.8136355316516
 10
2016.270564456059
 20
908.0323622093402
 10
2016.488798647699
 20
908.2578624688871
 10
2016.685817920146
 20
908.4894571789414
 10
2016.861028917257
 20
908.7264488537057
 10
2017.013903962116
 20
908.9681237535309
 10
2017.143982646225
 20
909.2137540344596
 10
2017.2508732161
 20
909.4625999402504
 10
2017.334253753102
 20
909.7139120302752
 10
2017.393873142941
 20
909.9669334365835
 10
2017.429551831961
 20
910.2209021433367
 10
2017.441182367882
 20
910.4750532817435
 10
2017.428729723424
 20
910.72862143359
 10
2017.392231401784
 20
910.9808429364223
 10
2017.331797323699
 20
911.2309581834434
 10
2017.247609496396
 20
911.4782139111936
 10
2017.139921465451
 20
911.7218654681293
 10
2017.009057551189
 20
911.9611790572635
 10
2016.855411871947
 20
912.1954339461174
 10
2016.679447157115
 20
912.423924637325
 10
2016.481693353553
 20
912.6459629933554
 10
2016.262746029568
 20
912.8608803089532
 10
2016.023264581261
 20
913.0680293250547
 10
2015.763970246646
 20
913.2667861781156
 10
2015.485643933524
 20
913.4565522789799
 10
2015.189123867649
 20
913.6367561156289
 10
2014.875303068273
 20
913.8068549743858
 10
2014.545126658668
 20
913.9663365743869
  0
LINE
  5
347
330
312
100
AcDbEntity
  8
0
  6
Continuous
 62
     7
370
    15
100
AcDbLine
 10
2011.367918881465
 20
900.0367005865047
 30
0.0
 11
2002.103451043948
 21
901.2458673860097
 31
0.0
  0
SPLINE
  5
348
330
312
100
AcDbEntity
  8
0
  6
Continuous
 62
     7
370
    15
100
AcDbSpline
210
0.0
220
0.0
230
1.0
 70
     8
 71
     3
 72
    31
 73
    27
 74
     0
 42
0.0000000001
 43
0.0000000001
 40
0.0
 40
0.0
 40
0.0
 40
0.0
 40
0.0273836505032296
 40
0.0697901076058518
 40
0.1128161796575606
 40
0.1562654929569202
 40
0.1999295668093071
 40
0.2435936406616939
 40
0.2870429539610535
 40
0.3300690260127623
 40
0.3724754831153799
 40
0.4148819402180006
 40
0.4579080122697094
 40
0.5013573255690691
 40
0.5450213994214558
 40
0.5886854732738426
 40
0.6321347865732023
 40
0.6751608586249111
 40
0.7175673157275301
 40
0.7599737728301507
 40
0.8029998448818595
 40
0.8464491581812191
 40
0.890113232033606
 40
0.9337773058859928
 40
0.9772266191853525
 40
1.0
 40
1.0
 40
1.0
 40
1.0
 10
2016.726112425664
 20
908.764510268484
 30
0.0
 10
2016.652129326366
 20
908.8528136892572
 30
0.0
 10
2016.463575632241
 20
909.0778642257806
 30
0.0
 10
2016.084332280149
 20
909.415924760094
 30
0.0
 10
2015.599402840676
 20
909.7790590998082
 30
0.0
 10
2015.048475871733
 20
910.114131367148
 30
0.0
 10
2014.44180241126
 20
910.4167697035357
 30
0.0
 10
2013.786982688181
 20
910.6819418931189
 30
0.0
 10
2013.09422825951
 20
910.9061014823247
 30
0.0
 10
2012.374333419292
 20
911.0869330026973
 30
0.0
 10
2011.633918163307
 20
911.2240228665399
 30
0.0
 10
2010.874216623384
 20
911.3187650495486
 30
0.0
 10
2010.095896414796
 20
911.3712982003447
 30
0.0
 10
2009.304853653585
 20
911.3796538238158
 30
0.0
 10
2008.512522937353
 20
911.3427942580958
 30
0.0
 10
2007.730602904755
 20
911.2609174220793
 30
0.0
 10
2006.970486536809
 20
911.1355407689826
 30
0.0
 10
2006.242716488578
 20
910.9694900195485
 30
0.0
 10
2005.55219747395
 20
910.7650603387627
 30
0.0
 10
2004.89924443798
 20
910.5240019444435
 30
0.0
 10
2004.285179300236
 20
910.2470026687599
 30
0.0
 10
2003.71660905418
 20
909.9349418339448
 30
0.0
 10
2003.201744962481
 20
909.5920134679463
 30
0.0
 10
2002.753137577348
 20
909.2219900552874
 30
0.0
 10
2002.421224739569
 20
908.8947056482695
 30
0.0
 10
2002.267659440656
 20
908.685821672921
 30
0.0
 10
2002.214849734272
 20
908.613988378001
 30
0.0
  0
SPLINE
  5
349
330
312
100
AcDbEntity
  8
0
  6
Continuous
 62
     7
370
    15
100
AcDbSpline
210
0.0
220
0.0
230
1.0
 70
     8
 71
     3
 72
    31
 73
    27
 74
     0
 42
0.0000000001
 43
0.0000000001
 40
0.0
 40
0.0
 40
0.0
 40
0.0
 40
0.0256091427284994
 40
0.0681310619016933
 40
0.1112742830789626
 40
0.1548418978828869
 40
0.1986248579785746
 40
0.2424078180742622
 40
0.2859754328781865
 40
0.3291186540554559
 40
0.3716405732286521
 40
0.4141624924018467
 40
0.457305713579116
 40
0.5008733283830403
 40
0.5446562884787278
 40
0.5884392485744153
 40
0.6320068633783395
 40
0.675150084555609
 40
0.717672003728805
 40
0.7601939229019987
 40
0.8033371440792681
 40
0.8469047588831923
 40
0.8906877189788801
 40
0.9344706790745679
 40
0.9780382938784921
 40
1.0
 40
1.0
 40
1.0
 40
1.0
 10
2016.667189436367
 20
910.0052256583996
 30
0.0
 10
2016.598100852527
 20
910.087552348963
 30
0.0
 10
2016.414296238988
 20
910.3065758793642
 30
0.0
 10
2016.040696066218
 20
910.6389184918157
 30
0.0
 10
2015.555940952438
 20
911.0021130948164
 30
0.0
 10
2015.004966553147
 20
911.3371689657856
 30
0.0
 10
2014.398305904504
 20
911.6398117311414
 30
0.0
 10
2013.743482746069
 20
911.9049827331441
 30
0.0
 10
2013.050729231775
 20
912.1291426384441
 30
0.0
 10
2012.33083414999
 20
912.3099740753083
 30
0.0
 10
2011.590418957608
 20
912.44706396114
 30
0.0
 10
2010.830717400687
 20
912.5418061382649
 30
0.0
 10
2010.052397196681
 20
912.5943392906746
 30
0.0
 10
2009.261354434399
 20
912.6026949136626
 30
0.0
 10
2008.469023717795
 20
912.5658353482391
 30
0.0
 10
2007.687103687763
 20
912.4839585115246
 30
0.0
 10
2006.926987310003
 20
912.3585818609027
 30
0.0
 10
2006.199217297928
 20
912.1925311024005
 30
0.0
 10
2005.508698150488
 20
911.988101454912
 30
0.0
 10
2004.855745611122
 20
911.7470429360924
 30
0.0
 10
2004.24167858734
 20
911.4700441332438
 30
0.0
 10
2003.673115480294
 20
911.1579815086592
 30
0.0
 10
2003.158224567009
 20
910.8150598669061
 30
0.0
 10
2002.709717210402
 20
910.4450113768212
 30
0.0
 10
2002.380125954284
 20
910.1203998256
 30
0.0
 10
2002.228454034826
 20
909.9142960575163
 30
0.0
 10
2002.177622222822
 20
909.8452217817376
 30
0.0
  0
SPLINE
  5
34A
330
312
100
AcDbEntity
  8
0
  6
Continuous
 62
     7
370
    15
100
AcDbSpline
210
0.0
220
0.0
230
1.0
 70
     8
 71
     3
 72
    34
 73
    30
 74
     0
 42
0.0000000001
 43
0.0000000001
 40
0.0
 40
0.0
 40
0.0
 40
0.0
 40
0.0219696540868458
 40
0.0590628880710416
 40
0.096698103721637
 40
0.1347035315451776
 40
0.1728968119739179
 40
0.2110900924026581
 40
0.2490955202261988
 40
0.2867307358767942
 40
0.3238239698609914
 40
0.3609172038451872
 40
0.3985524194957826
 40
0.4365578473193234
 40
0.4747511277480637
 40
0.512944408176804
 40
0.5509498360003447
 40
0.5885850516509401
 40
0.625678285635137
 40
0.6627715196193329
 40
0.7004067352699283
 40
0.738412163093469
 40
0.7766054435222093
 40
0.8147987239509497
 40
0.8528041517744902
 40
0.8904393674250858
 40
0.9275326014092826
 40
0.9646258353934785
 40
1.0
 40
1.0
 40
1.0
 40
1.0
 10
2016.620152001383
 20
911.2323212362495
 30
0.0
 10
2016.552187280017
 20
911.3132772300509
 30
0.0
 10
2016.369471943902
 20
911.5309181078577
 30
0.0
 10
2015.997164269171
 20
911.8619483197923
 30
0.0
 10
2015.512450610805
 20
912.2251572536663
 30
0.0
 10
2014.961464932369
 20
912.560209225507
 30
0.0
 10
2014.354807330436
 20
912.8628530440906
 30
0.0
 10
2013.699983355056
 20
913.1280237636817
 30
0.0
 10
2013.007230058212
 20
913.3521837441488
 30
0.0
 10
2012.287334918954
 20
913.5330151611608
 30
0.0
 10
2011.546919741802
 20
913.6701050521974
 30
0.0
 10
2010.787218180446
 20
913.7648472280137
 30
0.0
 10
2010.008897979023
 20
913.8173803804628
 30
0.0
 10
2009.217855210834
 20
913.8257360046395
 30
0.0
 10
2008.425524515377
 20
913.7888764343884
 30
0.0
 10
2007.64360440676
 20
913.7069996157752
 30
0.0
 10
2006.883488319852
 20
913.5816228981152
 30
0.0
 10
2006.155717238799
 20
913.4155723860123
 30
0.0
 10
2005.465202017385
 20
913.2111418335723
 30
0.0
 10
2004.812234798079
 20
912.9700866984881
 30
0.0
 10
2004.198223526707
 20
912.6930750446742
 30
0.0
 10
2003.6294493863
 20
912.3810610634121
 30
0.0
 10
2003.11535133498
 20
912.0379566664766
 30
0.0
 10
2002.663887075908
 20
911.6685897442717
 30
0.0
 10
2002.281377371513
 20
911.2785547767817
 30
0.0
 10
2001.97129097317
 20
910.8740271268484
 30
0.0
 10
2001.73611102695
 20
910.4584139155617
 30
0.0
 10
2001.570492796559
 20
910.0420441210626
 30
0.0
 10
2001.522474369747
 20
909.763511533049
 30
0.0
 10
2001.499034702156
 20
909.6275489097415
 30
0.0
  0
SPLINE
  5
34B
330
312
100
AcDbEntity
  8
0
  6
Continuous
 62
     7
370
    15
100
AcDbSpline
210
0.0
220
0.0
230
1.0
 70
     8
 71
     3
 72
    16
 73
    12
 74
     0
 42
0.0000000001
 43
0.0000000001
 40
0.0
 40
0.0
 40
0.0
 40
0.0
 40
0.0938444623240562
 40
0.2144243051889748
 40
0.3344110793946307
 40
0.4532290583268947
 40
0.5703359492500504
 40
0.675997634908493
 40
0.7830962482592927
 40
0.8912367749092576
 40
1.0
 40
1.0
 40
1.0
 40
1.0
 10
2017.428018625888
 20
910.5637191520942
 30
0.0
 10
2017.414626118878
 20
910.6876400066173
 30
0.0
 10
2017.384025709015
 20
910.9707855697276
 30
0.0
 10
2017.243473822147
 20
911.404221976289
 30
0.0
 10
2017.025403726237
 20
911.858147587216
 30
0.0
 10
2016.734201183249
 20
912.2910387514609
 30
0.0
 10
2016.388877690162
 20
912.6866823135138
 30
0.0
 10
2015.997896789547
 20
913.048144026586
 30
0.0
 10
2015.566182549024
 20
913.3781053842156
 30
0.0
 10
2015.084902276991
 20
913.6889448810515
 30
0.0
 10
2014.725395894576
 20
913.8736958790543
 30
0.0
 10
2014.545126658668
 20
913.9663365743869
 30
0.0
  0
SPLINE
  5
34C
330
312
100
AcDbEntity
  8
0
  6
Continuous
 62
     7
370
    15
100
AcDbSpline
210
0.0
220
0.0
230
1.0
 70
     8
 71
     3
 72
    19
 73
    15
 74
     0
 42
0.0000000001
 43
0.0000000001
 40
0.0
 40
0.0
 40
0.0
 40
0.0
 40
0.0724532854761601
 40
0.1590062469558509
 40
0.2468238627472838
 40
0.3355053277236625
 40
0.4246251259903828
 40
0.5137449242571033
 40
0.6024263892334821
 40
0.690244005024915
 40
0.7767969665046053
 40
0.8633499279842961
 40
0.9511675437757293
 40
1.0
 40
1.0
 40
1.0
 40
1.0
 10
2004.912738452651
 20
913.4428678042358
 30
0.0
 10
2005.09168476052
 20
913.5115930337381
 30
0.0
 10
2005.484400986347
 20
913.6624176753333
 30
0.0
 10
2006.140872757071
 20
913.8531421153977
 30
0.0
 10
2006.867702661928
 20
914.0199581686234
 30
0.0
 10
2007.628074328356
 20
914.1451260676653
 30
0.0
 10
2008.409927258676
 20
914.2270612871104
 30
0.0
 10
2009.202269036053
 20
914.2638977576737
 30
0.0
 10
2009.993334514581
 20
914.2555758258257
 30
0.0
 10
2010.771554403731
 20
914.2029325352599
 30
0.0
 10
2011.531628828828
 20
914.1085912472362
 30
0.0
 10
2012.270648625701
 20
913.9700033521105
 30
0.0
 10
2012.885985827528
 20
913.8213927229688
 30
0.0
 10
2013.238978855579
 20
913.7029895050202
 30
0.0
 10
2013.36512234263
 20
913.6606776359373
 30
0.0
  0
SPLINE
  5
34D
330
312
100
AcDbEntity
  8
0
  6
Continuous
 62
     7
370
    15
100
AcDbSpline
210
0.0
220
0.0
230
1.0
 70
     8
 71
     3
 72
    19
 73
    15
 74
     0
 42
0.0000000001
 43
0.0000000001
 40
0.0
 40
0.0
 40
0.0
 40
0.0
 40
0.0852018343318696
 40
0.1705651795476105
 40
0.2571757971933902
 40
0.3446383909579324
 40
0.4325332933961848
 40
0.5204281958344371
 40
0.6078907895989793
 40
0.6945014072447592
 40
0.7798647524605023
 40
0.865228097676243
 40
0.9518387153220226
 40
1.0
 40
1.0
 40
1.0
 40
1.0
 10
2004.851774593913
 20
912.1812867116668
 30
0.0
 10
2005.064917308349
 20
912.263437070649
 30
0.0
 10
2005.491606776269
 20
912.4278935150389
 30
0.0
 10
2006.18416176255
 20
912.6302957048819
 30
0.0
 10
2006.911259163782
 20
912.7968640288781
 30
0.0
 10
2007.671558050084
 20
912.9220993298231
 30
0.0
 10
2008.453430639685
 20
913.0040163427461
 30
0.0
 10
2009.245767145634
 20
913.0408576951952
 30
0.0
 10
2010.036834027243
 20
913.0325344639505
 30
0.0
 10
2010.815053545709
 20
912.9798915166761
 30
0.0
 10
2011.575128068437
 20
912.8855501382362
 30
0.0
 10
2012.314147839095
 20
912.7469622673878
 30
0.0
 10
2012.929485047286
 20
912.5983516323341
 30
0.0
 10
2013.282478074783
 20
912.4799484148846
 30
0.0
 10
2013.408621561618
 20
912.4376365459857
 30
0.0
  0
SPLINE
  5
34E
330
312
100
AcDbEntity
  8
0
  6
Continuous
 62
     7
370
    15
100
AcDbSpline
210
0.0
220
0.0
230
1.0
 70
     8
 71
     3
 72
    19
 73
    15
 74
     0
 42
0.0000000001
 43
0.0000000001
 40
0.0
 40
0.0
 40
0.0
 40
0.0
 40
0.0726455749515683
 40
0.1591805931596652
 40
0.2469800035043513
 40
0.3356430839496365
 40
0.4247444068145047
 40
0.5138457296793728
 40
0.6025088101246583
 40
0.6903082204693442
 40
0.7768432386774411
 40
0.8633782568855364
 40
0.9511776672302227
 40
1.0
 40
1.0
 40
1.0
 40
1.0
 10
2004.998182582673
 20
910.996212186853
 30
0.0
 10
2005.177637967101
 20
911.0651369213062
 30
0.0
 10
2005.570859640383
 20
911.2161644287763
 30
0.0
 10
2006.22786777671
 20
911.407063101323
 30
0.0
 10
2006.954702031596
 20
911.5738751259733
 30
0.0
 10
2007.715072514474
 20
911.6990441211058
 30
0.0
 10
2008.496925764493
 20
911.7809790444763
 30
0.0
 10
2009.289267456145
 20
911.8178155944285
 30
0.0
 10
2010.080332957491
 20
911.80949364145
 30
0.0
 10
2010.858552840613
 20
911.7568503564667
 30
0.0
 10
2011.618627267298
 20
911.6625090669728
 30
0.0
 10
2012.357647063744
 20
911.5239211722416
 30
0.0
 10
2012.972984265645
 20
911.3753105430118
 30
0.0
 10
2013.32597729366
 20
911.256907325081
 30
0.0
 10
2013.45212078068
 20
911.2145954560107
 30
0.0
  0
LINE
  5
34F
330
312
100
AcDbEntity
  8
0
  6
Continuous
 62
     7
370
    15
100
AcDbLine
 10
2001.731497366906
 20
910.8950344833711
 30
0.0
 11
2002.142630605117
 21
911.1387329878635
 31
0.0
  0
LINE
  5
350
330
312
100
AcDbEntity
  8
0
  6
Continuous
 62
     7
370
    15
100
AcDbLine
 10
2005.029574817578
 20
913.4938451002922
 30
0.0
 11
2005.039290557351
 21
913.4982114206293
 31
0.0
  0
LINE
  5
351
330
312
100
AcDbEntity
  8
0
  6
Continuous
 62
     7
370
    15
100
AcDbLine
 10
2013.12941088129
 20
913.7382023420055
 30
0.0
 11
2013.215490896222
 21
913.7102099220488
 31
0.0
  0
SPLINE
  5
352
330
312
100
AcDbEntity
  8
0
  6
Continuous
 62
     7
370
    15
100
AcDbSpline
210
0.0
220
0.0
230
1.0
 70
     8
 71
     3
 72
     9
 73
     5
 74
     0
 42
0.0000000001
 43
0.0000000001
 40
0.0
 40
0.0
 40
0.0
 40
0.0
 40
0.4565881184954062
 40
1.0
 40
1.0
 40
1.0
 40
1.0
 10
2004.06615316098
 20
911.7748292269499
 30
0.0
 10
2004.212228462279
 20
911.8582693810763
 30
0.0
 10
2004.532156413493
 20
912.0410164801493
 30
0.0
 10
2004.896230687422
 20
912.1960137299877
 30
0.0
 10
2005.094072973625
 20
912.2802410771505
 30
0.0
  0
SPLINE
  5
353
330
312
100
AcDbEntity
  8
0
  6
Continuous
 62
     7
370
    15
100
AcDbSpline
210
0.0
220
0.0
230
1.0
 70
     8
 71
     3
 72
     9
 73
     5
 74
     0
 42
0.0000000001
 43
0.0000000001
 40
0.0
 40
0.0
 40
0.0
 40
0.0
 40
0.3509809640174315
 40
1.0
 40
1.0
 40
1.0
 40
1.0
 10
2013.172910107146
 20
912.5151612498207
 30
0.0
 10
2013.276264039384
 20
912.4829279818566
 30
0.0
 10
2013.570735657032
 20
912.3910903289106
 30
0.0
 10
2013.839214644275
 20
912.2741839553413
 30
0.0
 10
2014.013462617757
 20
912.1983094934671
 30
0.0
  0
SPLINE
  5
354
330
312
100
AcDbEntity
  8
0
  6
Continuous
 62
     7
370
    15
100
AcDbSpline
210
0.0
220
0.0
230
1.0
 70
     8
 71
     3
 72
     9
 73
     5
 74
     0
 42
0.0000000001
 43
0.0000000001
 40
0.0
 40
0.0
 40
0.0
 40
0.0
 40
0.3324815266341038
 40
1.0
 40
1.0
 40
1.0
 40
1.0
 10
2013.216409321258
 20
911.2921201614554
 30
0.0
 10
2013.319706998878
 20
911.2598326363169
 30
0.0
 10
2013.63039396746
 20
911.1627219021796
 30
0.0
 10
2013.913642062322
 20
911.0391476109171
 30
0.0
 10
2014.102715398188
 20
910.9566594886661
 30
0.0
  0
SPLINE
  5
355
330
312
100
AcDbEntity
  8
0
  6
Continuous
 62
     7
370
    15
100
AcDbSpline
210
0.0
220
0.0
230
1.0
 70
     8
 71
     3
 72
    18
 73
    14
 74
     0
 42
0.0000000001
 43
0.0000000001
 40
0.0
 40
0.0
 40
0.0
 40
0.0
 40
0.0914681956747286
 40
0.1831012491054888
 40
0.2745741208431052
 40
0.3665132103910797
 40
0.4587808495511747
 40
0.551048504194192
 40
0.6429876149306903
 40
0.7349071488464997
 40
0.8271509972043601
 40
0.9194057830023998
 40
1.0
 40
1.0
 40
1.0
 40
1.0
 10
2011.759439760305
 20
910.447108977307
 30
0.0
 10
2011.554829880791
 20
910.4792019827531
 30
0.0
 10
2011.145241343029
 20
910.5434458364923
 30
0.0
 10
2010.513362085854
 20
910.6009140799391
 30
0.0
 10
2009.873186275199
 20
910.6298968559872
 30
0.0
 10
2009.227057165097
 20
910.6263946706619
 30
0.0
 10
2008.579751462987
 20
910.5915160321895
 30
0.0
 10
2007.937459076028
 20
910.5256928444001
 30
0.0
 10
2007.305554905679
 20
910.4292360497259
 30
0.0
 10
2006.688070506081
 20
910.3019211333144
 30
0.0
 10
2006.089252292687
 20
910.1446501509762
 30
0.0
 10
2005.533629278436
 20
909.9697783882891
 30
0.0
 10
2005.192941504189
 20
909.8349836210186
 30
0.0
 10
2005.034089188225
 20
909.7721329331474
 30
0.0
  0
SPLINE
  5
356
330
312
100
AcDbEntity
  8
0
  6
Continuous
 62
     7
370
    15
100
AcDbSpline
210
0.0
220
0.0
230
1.0
 70
     8
 71
     3
 72
     9
 73
     5
 74
     0
 42
0.0000000001
 43
0.0000000001
 40
0.0
 40
0.0
 40
0.0
 40
0.0
 40
0.0137099615073447
 40
1.0
 40
1.0
 40
1.0
 40
1.0
 10
2016.956748078055
 20
909.6184159472478
 30
0.0
 10
2016.956724820203
 20
909.6174699120339
 30
0.0
 10
2016.955028400283
 20
909.5484664204265
 30
0.0
 10
2016.936545744059
 20
909.4797906756081
 30
0.0
 10
2016.91831648434
 20
909.4120564726077
 30
0.0
  0
SPLINE
  5
357
330
312
100
AcDbEntity
  8
0
  6
Continuous
 62
     7
370
    15
100
AcDbSpline
210
0.0
220
0.0
230
1.0
 70
     8
 71
     3
 72
    12
 73
     8
 74
     0
 42
0.0000000001
 43
0.0000000001
 40
0.0
 40
0.0
 40
0.0
 40
0.0
 40
0.11960665235824
 40
0.3383592364716017
 40
0.5571074933270069
 40
0.7785539177799997
 40
1.0
 40
1.0
 40
1.0
 40
1.0
 10
2016.422793263132
 20
908.1984847954261
 30
0.0
 10
2016.388066544545
 20
908.2393786489143
 30
0.0
 10
2016.289826975473
 20
908.3550646310049
 30
0.0
 10
2016.104705550939
 20
908.5380802415452
 30
0.0
 10
2015.868764487822
 20
908.7479808913037
 30
0.0
 10
2015.611623471272
 20
908.9506110001996
 30
0.0
 10
2015.423090446503
 20
909.0784322812643
 30
0.0
 10
2015.328824006961
 20
909.1423428724114
 30
0.0
  0
ARC
  5
358
330
312
100
AcDbEntity
  8
0
  6
Continuous
 62
     7
370
    15
100
AcDbCircle
 10
2002.095243999446
 20
911.2221712717465
 30
0.0
 40
0.0959553938784945
100
AcDbArc
 50
299.5932835276921
 51
350.2261694823411
  0
LINE
  5
359
330
312
100
AcDbEntity
  8
0
  6
Continuous
 62
     7
370
    15
100
AcDbLine
 10
2016.796503966425
 20
910.8336756296946
 30
0.0
 11
2016.899428073395
 21
910.4991229859654
 31
0.0
  0
LINE
  5
35A
330
312
100
AcDbEntity
  8
0
  6
Continuous
 62
     7
370
    15
100
AcDbLine
 10
2016.840195272902
 20
909.6100101636361
 30
0.0
 11
2016.915057670503
 21
909.3666715156679
 31
0.0
  0
SPLINE
  5
35B
330
312
100
AcDbEntity
  8
0
  6
Continuous
 62
     7
370
    15
100
AcDbSpline
210
0.0
220
0.0
230
1.0
 70
     8
 71
     3
 72
     8
 73
     4
 74
     0
 42
0.0000000001
 43
0.0000000001
 40
0.0
 40
0.0
 40
0.0
 40
0.0
 40
1.0
 40
1.0
 40
1.0
 40
1.0
 10
2014.238574283993
 20
909.7269476311508
 30
0.0
 10
2013.499143375103
 20
910.0506241457479
 30
0.0
 10
2012.65491150348
 20
910.2924189364404
 30
0.0
 10
2011.759439760305
 20
910.447108977307
 30
0.0
  0
ARC
  5
35C
330
312
100
AcDbEntity
  8
0
  6
Continuous
 62
     7
370
    15
100
AcDbCircle
 10
2002.091144532432
 20
911.2220409572188
 30
0.0
 40
0.0999766358015752
100
AcDbArc
 50
350.6986007688549
 51
3.52893962417713
  0
SPLINE
  5
35D
330
312
100
AcDbEntity
  8
0
  6
Continuous
 62
     7
370
    15
100
AcDbSpline
210
0.0
220
0.0
230
1.0
 70
     8
 71
     3
 72
     8
 73
     4
 74
     0
 42
0.0000000001
 43
0.0000000001
 40
0.0
 40
0.0
 40
0.0
 40
0.0
 40
1.0
 40
1.0
 40
1.0
 40
1.0
 10
2015.328824837345
 20
909.1423420356258
 30
0.0
 10
2015.00017904222
 20
909.3576184010688
 30
0.0
 10
2014.634625772938
 20
909.5535812701612
 30
0.0
 10
2014.238575759996
 20
909.7269472280585
 30
0.0
  0
LINE
  5
35E
330
312
100
AcDbEntity
  8
0
  6
Continuous
 62
     7
370
    15
100
AcDbLine
 10
2001.717450134466
 20
911.2899919755443
 30
0.0
 11
2001.731497366906
 21
910.8950344833711
 31
0.0
  0
LINE
  5
35F
330
312
100
AcDbEntity
  8
0
  6
Continuous
 62
     7
370
    15
100
AcDbLine
 10
2020.737232546622
 20
904.592784362109
 30
0.0
 11
2013.967429950788
 21
900.5036132057293
 31
0.0
  0
LINE
  5
360
330
312
100
AcDbEntity
  8
0
  6
Continuous
 62
     7
370
    15
100
AcDbLine
 10
2000.197034613461
 20
902.3008783212199
 30
0.0
 11
1997.702369371778
 21
907.5992162771045
 31
0.0
  0
SPLINE
  5
361
330
312
100
AcDbEntity
  8
0
  6
Continuous
 62
     8
370
    15
100
AcDbSpline
210
0.0
220
0.0
230
1.0
 70
     8
 71
     3
 72
    36
 73
    32
 74
     0
 42
0.0000000001
 43
0.0000000001
 40
0.0
 40
0.0
 40
0.0
 40
0.0
 40
0.0381727750835652
 40
0.0759759248843716
 40
0.1132044923189255
 40
0.1474675704554829
 40
0.182231382545509
 40
0.2173372351974105
 40
0.2526166467593755
 40
0.2878960583213406
 40
0.323001910973242
 40
0.3577657230632682
 40
0.3920288011998255
 40
0.4262918793363831
 40
0.4610556914264091
 40
0.4961615440783107
 40
0.5314409556402758
 40
0.5667203672022408
 40
0.6018262198541424
 40
0.6365900319441684
 40
0.6708531100807257
 40
0.7051161882172833
 40
0.7398800003073094
 40
0.7749858529592108
 40
0.8102652645211758
 40
0.8455446760831408
 40
0.8806505287350423
 40
0.9154143408250686
 40
0.9496774189616258
 40
0.9839404970981831
 40
1.0
 40
1.0
 40
1.0
 40
1.0
 10
2003.795159619647
 20
913.0552348038863
 30
0.0
 10
2003.981780670923
 20
913.1664768690736
 30
0.0
 10
2004.353215730139
 20
913.3878838474801
 30
0.0
 10
2004.98178149019
 20
913.674136083204
 30
0.0
 10
2005.632524967547
 20
913.9162836411454
 30
0.0
 10
2006.304349061526
 20
914.1139752192641
 30
0.0
 10
2006.992375918822
 20
914.2699552157232
 30
0.0
 10
2007.711056889784
 20
914.3874152225336
 30
0.0
 10
2008.450332320898
 20
914.4637434407165
 30
0.0
 10
2009.199455486833
 20
914.4975087833037
 30
0.0
 10
2009.947359052645
 20
914.4885442164287
 30
0.0
 10
2010.683233798707
 20
914.4378414241391
 30
0.0
 10
2011.401505719458
 20
914.3472820795263
 30
0.0
 10
2012.101544928585
 20
914.2166865811146
 30
0.0
 10
2012.782180264379
 20
914.0446872134814
 30
0.0
 10
2013.437171308793
 20
913.8317009763676
 30
0.0
 10
2014.056247647529
 20
913.5799076437752
 30
0.0
 10
2014.629996514331
 20
913.2927548117754
 30
0.0
 10
2015.150333565838
 20
912.9747263782959
 30
0.0
 10
2015.610878961055
 20
912.6310370760482
 30
0.0
 10
2016.009682815044
 20
912.2654510419764
 30
0.0
 10
2016.347203169296
 20
911.8778709802242
 30
0.0
 10
2016.622077064493
 20
911.467547332289
 30
0.0
 10
2016.830119753503
 20
911.0374382999465
 30
0.0
 10
2016.966743602987
 20
910.5934161599904
 30
0.0
 10
2017.029495938285
 20
910.1419323423431
 30
0.0
 10
2017.017651619514
 20
909.6897513378674
 30
0.0
 10
2016.934271677126
 20
909.2431036501121
 30
0.0
 10
2016.777471825823
 20
908.8066660974948
 30
0.0
 10
2016.604274152236
 20
908.4541482492086
 30
0.0
 10
2016.45914924958
 20
908.252685353127
 30
0.0
 10
2016.41283537324
 20
908.1883922684427
 30
0.0
  0
SPLINE
  5
362
330
312
100
AcDbEntity
  8
0
  6
Continuous
 62
     8
370
    15
100
AcDbSpline
210
0.0
220
0.0
230
1.0
 70
     8
 71
     3
 72
    40
 73
    36
 74
     0
 42
0.0000000001
 43
0.0000000001
 40
0.0
 40
0.0
 40
0.0
 40
0.0
 40
0.0044649652755226
 40
0.0363485169289587
 40
0.0680752157827326
 40
0.0994927975781632
 40
0.1304578441366617
 40
0.1614228906951594
 40
0.1928404724905899
 40
0.2245671713443639
 40
0.2564507229978001
 40
0.2883342746512362
 40
0.3200609735050102
 40
0.3514785553004407
 40
0.3824436018589392
 40
0.4134086484174368
 40
0.4448262302128675
 40
0.4765529290666415
 40
0.5084364807200777
 40
0.5403200323735139
 40
0.5720467312272878
 40
0.6034643130227183
 40
0.6344293595812168
 40
0.6653944061397145
 40
0.696811987935145
 40
0.7285386867889189
 40
0.760422238442355
 40
0.7923057900957912
 40
0.8240324889495651
 40
0.8554500707449957
 40
0.8864151173034944
 40
0.9173801638619922
 40
0.9487977456574228
 40
0.9805244445111968
 40
1.0
 40
1.0
 40
1.0
 40
1.0
 10
2002.006953349697
 20
908.4148074363032
 30
0.0
 10
2002.000451763608
 20
908.4336629418261
 30
0.0
 10
2001.947523465757
 20
908.5871623801017
 30
0.0
 10
2001.918807348974
 20
908.8825632545363
 30
0.0
 10
2001.926234959789
 20
909.2950816725794
 30
0.0
 10
2002.013232636183
 20
909.7037376863063
 30
0.0
 10
2002.168032440484
 20
910.1045437378511
 30
0.0
 10
2002.391760835852
 20
910.4964775527649
 30
0.0
 10
2002.684591603156
 20
910.877889973109
 30
0.0
 10
2003.046361017486
 20
911.245570295258
 30
0.0
 10
2003.473194863206
 20
911.5936947175159
 30
0.0
 10
2003.959278012279
 20
911.9169899205832
 30
0.0
 10
2004.497043194266
 20
912.2109083649
 30
0.0
 10
2005.077577649382
 20
912.4717630742049
 30
0.0
 10
2005.694940833204
 20
912.6986732512284
 30
0.0
 10
2006.347802909063
 20
912.8909577267194
 30
0.0
 10
2007.035887501585
 20
913.0469076954694
 30
0.0
 10
2007.754552763964
 20
913.1643758722139
 30
0.0
 10
2008.493832438246
 20
913.2407018835371
 30
0.0
 10
2009.242954466506
 20
913.2744678178813
 30
0.0
 10
2009.990858334814
 20
913.2655030934603
 30
0.0
 10
2010.726733002119
 20
913.2148003429405
 30
0.0
 10
2011.445004939349
 20
913.1242409867851
 30
0.0
 10
2012.145044159991
 20
912.9936454934961
 30
0.0
 10
2012.82567943219
 20
912.8216461167378
 30
0.0
 10
2013.480670722712
 20
912.6086599113616
 30
0.0
 10
2014.099746135355
 20
912.3568664602865
 30
0.0
 10
2014.673498456321
 20
912.0697140699528
 30
0.0
 10
2015.193822720171
 20
911.7516840014502
 30
0.0
 10
2015.654415115071
 20
911.4080007085391
 30
0.0
 10
2016.053046354066
 20
911.0423926040761
 30
0.0
 10
2016.391212139358
 20
910.6548950665303
 30
0.0
 10
2016.663634766494
 20
910.2442580017644
 30
0.0
 10
2016.852579876621
 20
909.8713407072878
 30
0.0
 10
2016.91934160695
 20
909.6326986989193
 30
0.0
 10
2016.944735445566
 20
909.541927584725
 30
0.0
  0
SPLINE
  5
363
330
312
100
AcDbEntity
  8
0
  6
Continuous
 62
     8
370
    15
100
AcDbSpline
210
0.0
220
0.0
230
1.0
 70
     8
 71
     3
 72
    36
 73
    32
 74
     0
 42
0.0000000001
 43
0.0000000001
 40
0.0
 40
0.0
 40
0.0
 40
0.0
 40
0.0088595836190713
 40
0.0445259874285574
 40
0.0801923912380423
 40
0.1163800377483245
 40
0.1529237339033717
 40
0.1896480974855071
 40
0.2263724610676427
 40
0.2629161572226897
 40
0.299103803732972
 40
0.3347702075424576
 40
0.370436611351943
 40
0.4066242578622252
 40
0.4431679540172723
 40
0.4798923175994076
 40
0.5166166811815431
 40
0.5531603773365901
 40
0.5893480238468723
 40
0.6250144276563577
 40
0.6606808314658426
 40
0.6968684779761249
 40
0.7334121741311721
 40
0.7701365377133075
 40
0.8068609012954429
 40
0.8434045974504901
 40
0.8795922439607723
 40
0.9152586477702577
 40
0.9509250515797432
 40
0.9871126980900253
 40
1.0
 40
1.0
 40
1.0
 40
1.0
 10
2002.047826520959
 20
908.3818842316874
 30
0.0
 10
2002.054293277268
 20
908.4152458191478
 30
0.0
 10
2002.086793530384
 20
908.5829125727713
 30
0.0
 10
2002.215175077052
 20
908.8813673878089
 30
0.0
 10
2002.434268240396
 20
909.2734732834093
 30
0.0
 10
2002.728361090684
 20
909.6548388495495
 30
0.0
 10
2003.089787117714
 20
910.0225319197816
 30
0.0
 10
2003.516713718966
 20
910.3706528985364
 30
0.0
 10
2004.002771996626
 20
910.6939490249427
 30
0.0
 10
2004.540543798542
 20
910.9878672234978
 30
0.0
 10
2005.121076504759
 20
911.2487219977294
 30
0.0
 10
2005.738440149075
 20
911.4756321576576
 30
0.0
 10
2006.391302101776
 20
911.6679166377201
 30
0.0
 10
2007.079386727843
 20
911.8238666052274
 30
0.0
 10
2007.798051981054
 20
911.9413347823025
 30
0.0
 10
2008.537331657965
 20
912.017660793565
 30
0.0
 10
2009.286453684951
 20
912.0514267278185
 30
0.0
 10
2010.034357555705
 20
912.0424620038178
 30
0.0
 10
2010.770232214619
 20
911.9917592517305
 30
0.0
 10
2011.48850418251
 20
911.9011999013382
 30
0.0
 10
2012.188543288547
 20
911.7706043864986
 30
0.0
 10
2012.869178995991
 20
911.598605091587
 30
0.0
 10
2013.524168639028
 20
911.3856185764047
 30
0.0
 10
2014.143250241355
 20
911.1338262892866
 30
0.0
 10
2014.716979478493
 20
910.8466695580887
 30
0.0
 10
2015.237389200247
 20
910.5286555597611
 30
0.0
 10
2015.69766750384
 20
910.1849132026554
 30
0.0
 10
2016.097452300959
 20
909.8195220223159
 30
0.0
 10
2016.431304774873
 20
909.4312133758453
 30
0.0
 10
2016.657081112468
 20
909.1126007092807
 30
0.0
 10
2016.746594883284
 20
908.9192995736857
 30
0.0
 10
2016.770101601615
 20
908.8685378271298
 30
0.0
  0
SPLINE
  5
364
330
312
100
AcDbEntity
  8
0
  6
Continuous
 62
     8
370
    15
100
AcDbSpline
210
0.0
220
0.0
230
1.0
 70
     8
 71
     3
 72
    32
 73
    28
 74
     0
 42
0.0000000001
 43
0.0000000001
 40
0.0
 40
0.0
 40
0.0
 40
0.0
 40
0.013863316961331
 40
0.0549226851132635
 40
0.0963860356971734
 40
0.1380543758594958
 40
0.1797227160218183
 40
0.2211860666057281
 40
0.2622454347576606
 40
0.3027133884902366
 40
0.3431813422228197
 40
0.3842407103747522
 40
0.4257040609586622
 40
0.4673724011209847
 40
0.5090407412833072
 40
0.550504091867217
 40
0.5915634600191494
 40
0.6320314137517255
 40
0.6724993674843086
 40
0.7135587356362412
 40
0.755022086220151
 40
0.7966904263824734
 40
0.8383587665447958
 40
0.8798221171287059
 40
0.9208814852806382
 40
0.9613494390132142
 40
1.0
 40
1.0
 40
1.0
 40
1.0
 10
2002.412542583343
 20
907.912902252608
 30
0.0
 10
2002.437071790069
 20
907.9575114256025
 30
0.0
 10
2002.534249824793
 20
908.1342408164379
 30
0.0
 10
2002.774542703154
 20
908.431303772614
 30
0.0
 10
2003.132560637996
 20
908.7996244737864
 30
0.0
 10
2003.560407830673
 20
909.1475759173206
 30
0.0
 10
2004.046219261489
 20
909.4709175028011
 30
0.0
 10
2004.584056765691
 20
909.7648236016874
 30
0.0
 10
2005.164572114227
 20
910.0256815724925
 30
0.0
 10
2005.78194032891
 20
910.2525908907479
 30
0.0
 10
2006.434801059295
 20
910.4448755959053
 30
0.0
 10
2007.122886018211
 20
910.6008255021359
 30
0.0
 10
2007.841551180721
 20
910.7182936958363
 30
0.0
 10
2008.580830882656
 20
910.7946197027839
 30
0.0
 10
2009.329952900981
 20
910.8283856375383
 30
0.0
 10
2010.077856781263
 20
910.8194209158332
 30
0.0
 10
2010.813731411113
 20
910.7687181542125
 30
0.0
 10
2011.532003484171
 20
910.6781588391227
 30
0.0
 10
2012.232042197402
 20
910.5475631922054
 30
0.0
 10
2012.912679396559
 20
910.3755643989291
 30
0.0
 10
2013.567663393195
 20
910.1625759849511
 30
0.0
 10
2014.186766209331
 20
909.9107908317073
 30
0.0
 10
2014.760416331621
 20
909.6236074954145
 30
0.0
 10
2015.281118941937
 20
909.305691990961
 30
0.0
 10
2015.74032076521
 20
908.9615876302456
 30
0.0
 10
2016.138044547537
 20
908.6029494881797
 30
0.0
 10
2016.346206120163
 20
908.3483181968366
 30
0.0
 10
2016.447896117585
 20
908.2239270566578
 30
0.0
  0
SPLINE
  5
365
330
312
100
AcDbEntity
  8
0
  6
Continuous
 62
     8
370
    15
100
AcDbSpline
210
0.0
220
0.0
230
1.0
 70
     8
 71
     3
 72
    20
 73
    16
 74
     0
 42
0.0000000001
 43
0.0000000001
 40
0.0
 40
0.0
 40
0.0
 40
0.0
 40
0.0016831954519164
 40
0.0870318243252706
 40
0.1723804531986247
 40
0.2589764001384044
 40
0.3464243631424598
 40
0.434304657852038
 40
0.5221849525616161
 40
0.6096329155656715
 40
0.6962288625054512
 40
0.7815774913788049
 40
0.8669261202521592
 40
0.9535220671919388
 40
1.0
 40
1.0
 40
1.0
 40
1.0
 10
2005.039290557351
 20
913.4982114206293
 30
0.0
 10
2005.043049166342
 20
913.4999034742861
 30
0.0
 10
2005.237392964602
 20
913.5873933236881
 30
0.0
 10
2005.661350139676
 20
913.7320092902159
 30
0.0
 10
2006.310085308518
 20
913.9272510622136
 30
0.0
 10
2006.999293642016
 20
914.0823959375024
 30
0.0
 10
2007.717652608418
 20
914.2000826307411
 30
0.0
 10
2008.457016766629
 20
914.2763515597703
 30
0.0
 10
2009.206109303601
 20
914.3101255113158
 30
0.0
 10
2009.954046012943
 20
914.3011856136224
 30
0.0
 10
2010.689819829217
 20
914.2503772069998
 30
0.0
 10
2011.408456603958
 20
914.1602097102904
 30
0.0
 10
2012.107132825405
 20
914.0281480088194
 30
0.0
 10
2012.684622802663
 20
913.8880044848891
 30
0.0
 10
2013.014275143377
 20
913.7769794160563
 30
0.0
 10
2013.12941088129
 20
913.7382023420055
 30
0.0
  0
SPLINE
  5
366
330
312
100
AcDbEntity
  8
0
  6
Continuous
 62
     8
370
    15
100
AcDbSpline
210
0.0
220
0.0
230
1.0
 70
     8
 71
     3
 72
    19
 73
    15
 74
     0
 42
0.0000000001
 43
0.0000000001
 40
0.0
 40
0.0
 40
0.0
 40
0.0
 40
0.0854925294325813
 40
0.1709850588651604
 40
0.2577270093829207
 40
0.3453224124917025
 40
0.4333508762312989
 40
0.5213793399708953
 40
0.6089747430796773
 40
0.6957166935974377
 40
0.781209223030019
 40
0.8667017524625977
 40
0.953443702980358
 40
1.0
 40
1.0
 40
1.0
 40
1.0
 10
2005.094072973625
 20
912.2802410771505
 30
0.0
 10
2005.295973430555
 20
912.3577262214958
 30
0.0
 10
2005.699774344414
 20
912.5126965101863
 30
0.0
 10
2006.354966052738
 20
912.7031950482113
 30
0.0
 10
2007.042416396867
 20
912.8596314133023
 30
0.0
 10
2007.761253676687
 20
912.9769667182385
 30
0.0
 10
2008.500488633218
 20
913.0533305640254
 30
0.0
 10
2009.249615814257
 20
913.0870790646445
 30
0.0
 10
2009.997543302504
 20
913.0781459411375
 30
0.0
 10
2010.733319554925
 20
913.0273357448263
 30
0.0
 10
2011.451955688015
 20
912.9371687194888
 30
0.0
 10
2012.150632081823
 20
912.8051068914375
 30
0.0
 10
2012.728122019536
 20
912.6649633975967
 30
0.0
 10
2013.057774365825
 20
912.5539383255027
 30
0.0
 10
2013.172910107146
 20
912.5151612498207
 30
0.0
  0
SPLINE
  5
367
330
312
100
AcDbEntity
  8
0
  6
Continuous
 62
     8
370
    15
100
AcDbSpline
210
0.0
220
0.0
230
1.0
 70
     8
 71
     3
 72
    20
 73
    16
 74
     0
 42
0.0000000001
 43
0.0000000001
 40
0.0
 40
0.0
 40
0.0
 40
0.0
 40
0.0016831954041753
 40
0.0870318242606996
 40
0.1723804531172237
 40
0.2589764000399257
 40
0.3464243630267354
 40
0.4343046577189828
 40
0.5221849524112302
 40
0.6096329153980397
 40
0.6962288623207419
 40
0.781577491177266
 40
0.8669261200337887
 40
0.953522066956491
 40
0.9999999999999998
 40
0.9999999999999998
 40
0.9999999999999998
 40
0.9999999999999998
 10
2005.126288995804
 20
911.0521292408179
 30
0.0
 10
2005.130047604689
 20
911.053821294427
 30
0.0
 10
2005.324391402847
 20
911.1413111437787
 30
0.0
 10
2005.748348577814
 20
911.2859271102593
 30
0.0
 10
2006.397083746652
 20
911.4811688822602
 30
0.0
 10
2007.086292080151
 20
911.6363137575479
 30
0.0
 10
2007.804651046553
 20
911.7540004507869
 30
0.0
 10
2008.544015204765
 20
911.830269379816
 30
0.0
 10
2009.293107741737
 20
911.8640433313617
 30
0.0
 10
2010.041044451078
 20
911.8551034336681
 30
0.0
 10
2010.776818267352
 20
911.804295027046
 30
0.0
 10
2011.495455042092
 20
911.7141275303348
 30
0.0
 10
2012.194131263545
 20
911.582065828871
 30
0.0
 10
2012.77162124143
 20
911.4419223047603
 30
0.0
 10
2013.101273582742
 20
911.3308972357138
 30
0.0
 10
2013.216409321258
 20
911.2921201614554
 30
0.0
  0
SPLINE
  5
368
330
312
100
AcDbEntity
  8
0
  6
Continuous
 62
     8
370
    15
100
AcDbSpline
210
0.0
220
0.0
230
1.0
 70
     8
 71
     3
 72
    18
 73
    14
 74
     0
 42
0.0000000001
 43
0.0000000001
 40
0.0
 40
0.0
 40
0.0
 40
0.0
 40
0.0020811846179756
 40
0.1076103739967739
 40
0.2131395633755912
 40
0.3202109973831116
 40
0.4283359054275043
 40
0.5369953693871923
 40
0.6456548333468801
 40
0.7537797413912727
 40
0.8608511753987928
 40
0.966380364777591
 40
1.0
 40
1.0
 40
1.0
 40
1.0
 10
2005.169788214429
 20
909.8290881506418
 30
0.0
 10
2005.17354682346
 20
909.8307802043164
 30
0.0
 10
2005.367890621736
 20
909.91827005369
 30
0.0
 10
2005.791847804479
 20
910.0628860349907
 30
0.0
 10
2006.440582938874
 20
910.2581277403487
 30
0.0
 10
2007.129791400996
 20
910.4132728644573
 30
0.0
 10
2007.848149881128
 20
910.5309586170207
 30
0.0
 10
2008.587515866121
 20
910.6072310799026
 30
0.0
 10
2009.336601590331
 20
910.6409918523702
 30
0.0
 10
2010.084563520974
 20
910.6321007444995
 30
0.0
 10
2010.820244639074
 20
910.5811130161519
 30
0.0
 10
2011.376705402504
 20
910.5118365611557
 30
0.0
 10
2011.684962106748
 20
910.459704550365
 30
0.0
 10
2011.759439760305
 20
910.447108977307
 30
0.0
  0
SPLINE
  5
369
330
312
100
AcDbEntity
  8
0
  6
Continuous
 62
     8
370
    15
100
AcDbSpline
210
0.0
220
0.0
230
1.0
 70
     8
 71
     3
 72
    36
 73
    32
 74
     0
 42
0.0000000001
 43
0.0000000001
 40
0.0
 40
0.0
 40
0.0
 40
0.0
 40
0.0344700026217452
 40
0.0692855732216978
 40
0.104278196494596
 40
0.1392741303355491
 40
0.1740995341529386
 40
0.2085856044280934
 40
0.2425733433912823
 40
0.2763988580056629
 40
0.3107187252484284
 40
0.3453762745583666
 40
0.3802051713241847
 40
0.415034068090003
 40
0.4496916173999412
 40
0.4840114846427068
 40
0.5178369992570872
 40
0.5516625138714677
 40
0.5859823811142333
 40
0.6206399304241713
 40
0.6554688271899896
 40
0.6902977239558079
 40
0.724955273265746
 40
0.7592751405085114
 40
0.7931006551228917
 40
0.8269261697372723
 40
0.8612460369800379
 40
0.895903586289976
 40
0.9307324830557941
 40
0.9655613798216123
 40
1.0
 40
1.0
 40
1.0
 40
1.0
 10
2002.400580935682
 20
911.6196661334559
 30
0.0
 10
2002.492624345968
 20
911.7477669980198
 30
0.0
 10
2002.67763391829
 20
912.0052529613628
 30
0.0
 10
2003.040796089983
 20
912.3716762042775
 30
0.0
 10
2003.464349090824
 20
912.7196243796657
 30
0.0
 10
2003.948774531535
 20
913.0425024556032
 30
0.0
 10
2004.484779309111
 20
913.336059865227
 30
0.0
 10
2005.063851678001
 20
913.5964804211418
 30
0.0
 10
2005.67889902226
 20
913.8225296622401
 30
0.0
 10
2006.32834766501
 20
914.013683463081
 30
0.0
 10
2007.01174643436
 20
914.1684409589082
 30
0.0
 10
2007.725517769512
 20
914.2849753802492
 30
0.0
 10
2008.459763007117
 20
914.3606460298904
 30
0.0
 10
2009.203783523384
 20
914.3940467068198
 30
0.0
 10
2009.946594116252
 20
914.3850100690851
 30
0.0
 10
2010.677457360983
 20
914.3345234262046
 30
0.0
 10
2011.390837868614
 20
914.2444579315192
 30
0.0
 10
2012.086109909047
 20
914.1146291744391
 30
0.0
 10
2012.76211034933
 20
913.9436727054635
 30
0.0
 10
2013.412641453478
 20
913.7320052385103
 30
0.0
 10
2014.027502689954
 20
913.4817931345228
 30
0.0
 10
2014.597345569926
 20
913.1964625568652
 30
0.0
 10
2015.114140123815
 20
912.880468914582
 30
0.0
 10
2015.571552380786
 20
912.5389928125782
 30
0.0
 10
2015.967636780897
 20
912.1757753370744
 30
0.0
 10
2016.302881722564
 20
911.7907133305639
 30
0.0
 10
2016.575807607723
 20
911.383058332642
 30
0.0
 10
2016.782735750636
 20
910.955743418536
 30
0.0
 10
2016.917310400792
 20
910.5146302807064
 30
0.0
 10
2016.983687264771
 20
910.0669652387029
 30
0.0
 10
2016.965694013609
 20
909.7673697035856
 30
0.0
 10
2016.956748078055
 20
909.6184159472478
 30
0.0
  0
SPLINE
  5
36A
330
312
100
AcDbEntity
  8
0
  6
Continuous
 62
     8
370
    15
100
AcDbSpline
210
0.0
220
0.0
230
1.0
 70
     8
 71
     3
 72
    39
 73
    35
 74
     0
 42
0.0000000001
 43
0.0000000001
 40
0.0
 40
0.0
 40
0.0
 40
0.0
 40
0.0318532391980458
 40
0.0635497702598901
 40
0.0949374696142342
 40
0.1258730520776535
 40
0.1568086345410719
 40
0.188196333895416
 40
0.2198928649572603
 40
0.251746104155306
 40
0.2835993433533518
 40
0.3152958744151962
 40
0.3466835737695402
 40
0.3776191562329596
 40
0.4085547386963781
 40
0.4399424380507221
 40
0.4716389691125664
 40
0.5034922083106121
 40
0.535345447508658
 40
0.5670419785705024
 40
0.5984296779248464
 40
0.6293652603882657
 40
0.6603008428516841
 40
0.6916885422060282
 40
0.7233850732678726
 40
0.7552383124659183
 40
0.787091551663964
 40
0.8187880827258082
 40
0.8501757820801522
 40
0.8811113645435717
 40
0.9120469470069901
 40
0.9434346463613342
 40
0.9751311774231785
 40
0.9999999999999998
 40
0.9999999999999998
 40
0.9999999999999998
 40
0.9999999999999998
 10
2002.041717356243
 20
908.4029338803455
 30
0.0
 10
2002.016212005079
 20
908.5389324192798
 30
0.0
 10
2001.965326781231
 20
908.8102604261813
 30
0.0
 10
2001.982393709565
 20
909.2209233424553
 30
0.0
 10
2002.066244256657
 20
909.6263764666309
 30
0.0
 10
2002.220667025402
 20
910.0244029504422
 30
0.0
 10
2002.442694681637
 20
910.4135216205651
 30
0.0
 10
2002.733583071824
 20
910.7922101774205
 30
0.0
 10
2003.092877912438
 20
911.1572497187411
 30
0.0
 10
2003.516810698692
 20
911.5028664925285
 30
0.0
 10
2003.999584343312
 20
911.8238227810675
 30
0.0
 10
2004.533688890975
 20
912.1156047689678
 30
0.0
 10
2005.110270709224
 20
912.3745518704097
 30
0.0
 10
2005.72343027391
 20
912.5997919996127
 30
0.0
 10
2006.371846755274
 20
912.7906424259279
 30
0.0
 10
2007.055245688526
 20
912.9453998545365
 30
0.0
 10
2007.769016979088
 20
913.0619342941669
 30
0.0
 10
2008.503262228721
 20
913.1376049388659
 30
0.0
 10
2009.247282741822
 20
913.1710056171277
 30
0.0
 10
2009.990093335315
 20
913.161968979011
 30
0.0
 10
2010.72095658068
 20
913.111482336332
 30
0.0
 10
2011.434337085208
 20
913.0214168412237
 30
0.0
 10
2012.129609137453
 20
912.8915880856402
 30
0.0
 10
2012.805609532821
 20
912.7206316110036
 30
0.0
 10
2013.456140806996
 20
912.5089641654724
 30
0.0
 10
2014.071001404665
 20
912.2587519810025
 30
0.0
 10
2014.640846667006
 20
911.9734217034961
 30
0.0
 10
2015.157632401205
 20
911.6574269500333
 30
0.0
 10
2015.615077073977
 20
911.3159549320478
 30
0.0
 10
2016.011042421145
 20
910.9527224572429
 30
0.0
 10
2016.346732518052
 20
910.5677165351702
 30
0.0
 10
2016.617967757313
 20
910.15984853532
 30
0.0
 10
2016.815601123939
 20
909.7647175207985
 30
0.0
 10
2016.887903100399
 20
909.5023941124015
 30
0.0
 10
2016.9196904916
 20
909.3870642526637
 30
0.0
  0
SPLINE
  5
36B
330
312
100
AcDbEntity
  8
0
  6
Continuous
 62
     8
370
    15
100
AcDbSpline
210
0.0
220
0.0
230
1.0
 70
     8
 71
     3
 72
    36
 73
    32
 74
     0
 42
0.0000000001
 43
0.0000000001
 40
0.0
 40
0.0
 40
0.0
 40
0.0
 40
0.0103703397091811
 40
0.0459429366302715
 40
0.0815155335513606
 40
0.1176080163333715
 40
0.1540556224061868
 40
0.1906834260030004
 40
0.2273112295998139
 40
0.2637588356726292
 40
0.2998513184546401
 40
0.3354239153757299
 40
0.3709965122968196
 40
0.4070889950788306
 40
0.4435366011516458
 40
0.4801644047484592
 40
0.5167922083452727
 40
0.5532398144180878
 40
0.5893322972000988
 40
0.6249048941211884
 40
0.6604774910422775
 40
0.6965699738242886
 40
0.7330175798971039
 40
0.7696453834939174
 40
0.806273187090731
 40
0.8427207931635463
 40
0.8788132759455571
 40
0.9143858728666469
 40
0.9499584697877367
 40
0.9860509525697475
 40
0.9999999999999998
 40
0.9999999999999998
 40
0.9999999999999998
 40
0.9999999999999998
 10
2002.09781979212
 20
908.2880500529123
 30
0.0
 10
2002.105280453226
 20
908.326928094104
 30
0.0
 10
2002.138332859416
 20
908.4991665581144
 30
0.0
 10
2002.267396621543
 20
908.8012241969256
 30
0.0
 10
2002.485314524059
 20
909.1905180055016
 30
0.0
 10
2002.777321920255
 20
909.5691588755622
 30
0.0
 10
2003.136312301796
 20
909.9342113915026
 30
0.0
 10
2003.560327328336
 20
910.279824660594
 30
0.0
 10
2004.043078921094
 20
910.6007818888802
 30
0.0
 10
2004.577189338216
 20
910.8925636266517
 30
0.0
 10
2005.153769605831
 20
911.1515107941743
 30
0.0
 10
2005.766929578807
 20
911.376750905978
 30
0.0
 10
2006.415345950975
 20
911.567601336946
 30
0.0
 10
2007.098744913969
 20
911.7223587642897
 30
0.0
 10
2007.812516196401
 20
911.8388932042572
 30
0.0
 10
2008.54676144837
 20
911.9145638488914
 30
0.0
 10
2009.290781960325
 20
911.9479645270727
 30
0.0
 10
2010.033592556043
 20
911.9389278893393
 30
0.0
 10
2010.764455793766
 20
911.8884412452286
 30
0.0
 10
2011.47783632622
 20
911.7983757553856
 30
0.0
 10
2012.173108274083
 20
911.6685469801131
 30
0.0
 10
2012.849109065868
 20
911.4975905802531
 30
0.0
 10
2013.499638839532
 20
911.2859228516777
 30
0.0
 10
2014.114505074698
 20
911.0357117306193
 30
0.0
 10
2014.68432931254
 20
910.7503774872222
 30
0.0
 10
2015.201192880848
 20
910.4343974157538
 30
0.0
 10
2015.658351482869
 20
910.0928714357046
 30
0.0
 10
2016.055367477061
 20
909.729837146423
 30
0.0
 10
2016.387129061046
 20
909.344090181572
 30
0.0
 10
2016.61373459223
 20
909.023329385476
 30
0.0
 10
2016.704414467743
 20
908.8269413838483
 30
0.0
 10
2016.72969143028
 20
908.7721983426622
 30
0.0
  0
SPLINE
  5
36C
330
312
100
AcDbEntity
  8
0
  6
Continuous
 62
     8
370
    15
100
AcDbSpline
210
0.0
220
0.0
230
1.0
 70
     8
 71
     3
 72
    29
 73
    25
 74
     0
 42
0.0000000001
 43
0.0000000001
 40
0.0
 40
0.0
 40
0.0
 40
0.0
 40
0.0131276790597567
 40
0.0595003702872695
 40
0.1063293344404115
 40
0.1533898217112841
 40
0.2004503089821567
 40
0.2472792731352986
 40
0.2936519643628114
 40
0.339356690833011
 40
0.3850614173032187
 40
0.4314341085307316
 40
0.4782630726838736
 40
0.5253235599547463
 40
0.5723840472256189
 40
0.6192130113787609
 40
0.6655857026062736
 40
0.7112904290764731
 40
0.7584546247979427
 40
0.8063227734118207
 40
0.8546616492960787
 40
0.903223671203905
 40
0.951754304913144
 40
1.0
 40
1.0
 40
1.0
 40
1.0
 10
2002.476179295229
 20
907.8523208844096
 30
0.0
 10
2002.496691349677
 20
907.889440103303
 30
0.0
 10
2002.589660931691
 20
908.0576806017859
 30
0.0
 10
2002.823787039702
 20
908.3455728939425
 30
0.0
 10
2003.179009121453
 20
908.7113177173781
 30
0.0
 10
2003.604042038668
 20
909.0567439808216
 30
0.0
 10
2004.086520694818
 20
909.3777513526925
 30
0.0
 10
2004.620703758406
 20
909.6695197439423
 30
0.0
 10
2005.197264833856
 20
909.9284704374285
 30
0.0
 10
2005.810429859965
 20
910.153709620868
 30
0.0
 10
2006.458844881679
 20
910.3445602999725
 30
0.0
 10
2007.142244208717
 20
910.4993176603104
 30
0.0
 10
2007.856015405945
 20
910.6158521164012
 30
0.0
 10
2008.590260628916
 20
910.6915227645988
 30
0.0
 10
2009.334281342625
 20
910.7249234122926
 30
0.0
 10
2010.077091166521
 20
910.7158868920043
 30
0.0
 10
2010.807957247573
 20
910.6653998150267
 30
0.0
 10
2011.528883769855
 20
910.5743819056558
 30
0.0
 10
2012.238812146865
 20
910.44111409093
 30
0.0
 10
2012.935143315075
 20
910.2626753466095
 30
0.0
 10
2013.603969832525
 20
910.0411772769996
 30
0.0
 10
2014.232683452525
 20
909.7783687917086
 30
0.0
 10
2014.816631179802
 20
909.4809090548734
 30
0.0
 10
2015.158429070098
 20
909.2549759703883
 30
0.0
 10
2015.328824837344
 20
909.1423420356266
 30
0.0
  0
SPLINE
  5
36D
330
312
100
AcDbEntity
  8
0
  6
Continuous
 62
     8
370
    15
100
AcDbSpline
210
0.0
220
0.0
230
1.0
 70
     8
 71
     3
 72
    35
 73
    31
 74
     0
 42
0.0000000001
 43
0.0000000001
 40
0.0
 40
0.0
 40
0.0
 40
0.0
 40
0.0361782067844588
 40
0.0728851502879658
 40
0.1099532629206085
 40
0.1472046408712419
 40
0.1844560188218754
 40
0.221524131454518
 40
0.258231074958025
 40
0.2944092817424838
 40
0.3305874885269427
 40
0.3672944320304497
 40
0.4043625446630924
 40
0.441613922613726
 40
0.4788653005643594
 40
0.5159334131970022
 40
0.5526403567005092
 40
0.5888185634849679
 40
0.6249967702694268
 40
0.6617037137729338
 40
0.6987718264055766
 40
0.7360232043562101
 40
0.7732745823068435
 40
0.810342694939486
 40
0.847049638442993
 40
0.8832278452274517
 40
0.9194060520119107
 40
0.9561129955154175
 40
0.9931811081480603
 40
1.0
 40
1.0
 40
1.0
 40
1.0
 10
2002.189806652387
 20
911.2058819414009
 30
0.0
 10
2002.258725048081
 20
911.335582851046
 30
0.0
 10
2002.397569067014
 20
911.5968802212632
 30
0.0
 10
2002.692341589497
 20
911.9750569743674
 30
0.0
 10
2003.050579616258
 20
912.3402357453423
 30
0.0
 10
2003.474797845293
 20
912.6858148896744
 30
0.0
 10
2003.957494925016
 20
913.0067812486775
 30
0.0
 10
2004.49161982229
 20
913.298560538317
 30
0.0
 10
2005.068196232622
 20
913.5575083366155
 30
0.0
 10
2005.68135718732
 20
913.7827482682828
 30
0.0
 10
2006.329773260913
 20
913.9735987352636
 30
0.0
 10
2007.013172267058
 20
914.1283561425611
 30
0.0
 10
2007.726943497897
 20
914.2448905798536
 30
0.0
 10
2008.461188722522
 20
914.3205612193096
 30
0.0
 10
2009.205209200717
 20
914.3539618954955
 30
0.0
 10
2009.948019761353
 20
914.3449252567739
 30
0.0
 10
2010.678882975843
 20
914.294438615763
 30
0.0
 10
2011.392263442603
 20
914.2043731229204
 30
0.0
 10
2012.087535487075
 20
914.07454437575
 30
0.0
 10
2012.763535764852
 20
913.9035878947446
 30
0.0
 10
2013.414067341829
 20
913.6919205073809
 30
0.0
 10
2014.02892666622
 20
913.4417081466448
 30
0.0
 10
2014.598776550195
 20
913.1563785764313
 30
0.0
 10
2015.115545058359
 20
912.8403812613141
 30
0.0
 10
2015.573052939068
 20
912.4989187210934
 30
0.0
 10
2015.968786051544
 20
912.135651505358
 30
0.0
 10
2016.305344425244
 20
911.750775557941
 30
0.0
 10
2016.5732819855
 20
911.3424140091396
 30
0.0
 10
2016.737197106773
 20
911.034168084895
 30
0.0
 10
2016.788528423318
 20
910.8606377084255
 30
0.0
 10
2016.796503966425
 20
910.8336756296946
 30
0.0
  0
SPLINE
  5
36E
330
312
100
AcDbEntity
  8
0
  6
Continuous
 62
     8
370
    15
100
AcDbSpline
210
0.0
220
0.0
230
1.0
 70
     8
 71
     3
 72
    37
 73
    33
 74
     0
 42
0.0000000001
 43
0.0000000001
 40
0.0
 40
0.0
 40
0.0
 40
0.0
 40
0.0293551217184943
 40
0.0632435051105858
 40
0.0971318885026765
 40
0.1315155433369183
 40
0.1662375078610365
 40
0.2011311383108748
 40
0.2360247687607131
 40
0.2707467332848314
 40
0.3051303881190732
 40
0.3390187715111647
 40
0.3729071549032554
 40
0.4072908097374972
 40
0.4420127742616156
 40
0.4769064047114538
 40
0.5118000351612922
 40
0.5465219996854103
 40
0.5809056545196521
 40
0.6147940379117438
 40
0.6486824213038344
 40
0.6830660761380761
 40
0.7177880406621943
 40
0.7526816711120325
 40
0.7875753015618708
 40
0.8222972660859889
 40
0.8566809209202308
 40
0.8905693043123225
 40
0.9244576877044131
 40
0.958841342538655
 40
0.9935633070627734
 40
1.0
 40
1.0
 40
1.0
 40
1.0
 10
2002.007637116651
 20
909.2412788620418
 30
0.0
 10
2002.027831398105
 20
909.3568988764584
 30
0.0
 10
2002.071338529658
 20
909.6059939080769
 30
0.0
 10
2002.22320935553
 20
909.9842869362309
 30
0.0
 10
2002.443816770271
 20
910.3734454765582
 30
0.0
 10
2002.735091849038
 20
910.7521231549577
 30
0.0
 10
2003.094281460029
 20
911.117165634215
 30
0.0
 10
2003.518242647754
 20
911.4627815935767
 30
0.0
 10
2004.001008650384
 20
911.7837380810193
 30
0.0
 10
2004.535115202713
 20
912.075519998134
 30
0.0
 10
2005.111696459536
 20
912.3344671022884
 30
0.0
 10
2005.72485613813
 20
912.5597072167272
 30
0.0
 10
2006.373272553007
 20
912.7505576348275
 30
0.0
 10
2007.056671466227
 20
912.9053150554343
 30
0.0
 10
2007.770442722348
 20
913.0218494891053
 30
0.0
 10
2008.504687940144
 20
913.0975201295395
 30
0.0
 10
2009.24870842017
 20
913.1309208054631
 30
0.0
 10
2009.99151898032
 20
913.1218841668115
 30
0.0
 10
2010.722382194932
 20
913.0713975257814
 30
0.0
 10
2011.435762661681
 20
912.9813320329471
 30
0.0
 10
2012.131034706076
 20
912.8515032857626
 30
0.0
 10
2012.807034984177
 20
912.6805468048061
 30
0.0
 10
2013.457566559921
 20
912.4688794172577
 30
0.0
 10
2014.072425888946
 20
912.2186670572153
 30
0.0
 10
2014.64227575564
 20
911.9333374844154
 30
0.0
 10
2015.159044327777
 20
911.617340178873
 30
0.0
 10
2015.616551973361
 20
911.2758776034608
 30
0.0
 10
2016.012285949377
 20
910.9126105169728
 30
0.0
 10
2016.348841094183
 20
910.527734086283
 30
0.0
 10
2016.616790917388
 20
910.1193743728934
 30
0.0
 10
2016.780779557516
 20
909.810921743627
 30
0.0
 10
2016.832160019198
 20
909.637181014089
 30
0.0
 10
2016.840195272902
 20
909.6100101636361
 30
0.0
  0
SPLINE
  5
36F
330
312
100
AcDbEntity
  8
0
  6
Continuous
 62
     8
370
    15
100
AcDbSpline
210
0.0
220
0.0
230
1.0
 70
     8
 71
     3
 72
    36
 73
    32
 74
     0
 42
0.0000000001
 43
0.0000000001
 40
0.0
 40
0.0
 40
0.0
 40
0.0
 40
0.0076716170947645
 40
0.0434064044547906
 40
0.0791411918148155
 40
0.1153982354142716
 40
0.1520120214611234
 40
0.1888068266283502
 40
0.2256016317955769
 40
0.2622154178424286
 40
0.2984724614418849
 40
0.3342072488019103
 40
0.3699420361619357
 40
0.406199079761392
 40
0.4428128658082436
 40
0.4796076709754703
 40
0.516402476142697
 40
0.5530162621895486
 40
0.5892733057890048
 40
0.6250080931490301
 40
0.660742880509055
 40
0.6969999241085113
 40
0.733613710155363
 40
0.7704085153225897
 40
0.8072033204898163
 40
0.8438171065366681
 40
0.8800741501361242
 40
0.9158089374961498
 40
0.9515437248561751
 40
0.9878007684556312
 40
1.0
 40
1.0
 40
1.0
 40
1.0
 10
2002.105678540008
 20
908.2786824695485
 30
0.0
 10
2002.111277480517
 20
908.3073072832018
 30
0.0
 10
2002.142956574149
 20
908.4692679524493
 30
0.0
 10
2002.2692756884
 20
908.7611167517234
 30
0.0
 10
2002.486617166918
 20
909.15043952883
 30
0.0
 10
2002.778781496601
 20
909.5290724887487
 30
0.0
 10
2003.137729160268
 20
909.8941271350071
 30
0.0
 10
2003.561755702646
 20
910.2397398078263
 30
0.0
 10
2004.044504181118
 20
910.5606971765205
 30
0.0
 10
2004.578615397784
 20
910.8524788590758
 30
0.0
 10
2005.155195422351
 20
911.1114260251977
 30
0.0
 10
2005.768355425404
 20
911.3366661233204
 30
0.0
 10
2006.416771753504
 20
911.5275165457836
 30
0.0
 10
2007.100170690364
 20
911.6822739652047
 30
0.0
 10
2007.813941940006
 20
911.7988083991898
 30
0.0
 10
2008.548187159732
 20
911.8744790395721
 30
0.0
 10
2009.292207638568
 20
911.9078797153862
 30
0.0
 10
2010.035018201525
 20
911.8988430772205
 30
0.0
 10
2010.765881406245
 20
911.8483564343831
 30
0.0
 10
2011.47926190921
 20
911.7582909481914
 30
0.0
 10
2012.174533818219
 20
911.628462176168
 30
0.0
 10
2012.850534610494
 20
911.4575057895468
 30
0.0
 10
2013.501064239989
 20
911.245838044921
 30
0.0
 10
2014.115930881172
 20
910.9956270264376
 30
0.0
 10
2014.685753477877
 20
910.710292450422
 30
0.0
 10
2015.202623005352
 20
910.3943136671217
 30
0.0
 10
2015.659759600637
 20
910.052783015235
 30
0.0
 10
2016.056856326566
 20
909.6897659520195
 30
0.0
 10
2016.388315963062
 20
909.3039546501174
 30
0.0
 10
2016.611032402759
 20
908.9901466136486
 30
0.0
 10
2016.698789702033
 20
908.8009173662952
 30
0.0
 10
2016.720883261853
 20
908.7532774807161
 30
0.0
  0
SPLINE
  5
370
330
312
100
AcDbEntity
  8
0
  6
Continuous
 62
     8
370
    15
100
AcDbSpline
210
0.0
220
0.0
230
1.0
 70
     8
 71
     3
 72
    27
 73
    23
 74
     0
 42
0.0000000001
 43
0.0000000001
 40
0.0
 40
0.0
 40
0.0
 40
0.0
 40
0.011224406236912
 40
0.0626837856283555
 40
0.1146494871884887
 40
0.1668721079750044
 40
0.21909472876152
 40
0.2710604303216532
 40
0.3225198097130966
 40
0.373237954318229
 40
0.4239560989233706
 40
0.4754154783148141
 40
0.5273811798749474
 40
0.579603800661463
 40
0.6318264214479786
 40
0.6837921230081118
 40
0.7352515023995552
 40
0.7859696470046877
 40
0.8385627277682385
 40
0.8919433208203507
 40
0.9458487058690263
 40
1.0
 40
1.0
 40
1.0
 40
1.0
 10
2002.492152782249
 20
907.8377129184836
 30
0.0
 10
2002.508044548243
 20
907.866296943418
 30
0.0
 10
2002.596793657266
 20
908.0259272039029
 30
0.0
 10
2002.825587852862
 20
908.3054178461701
 30
0.0
 10
2003.180333661175
 20
908.6712520365288
 30
0.0
 10
2003.605495205967
 20
909.0166541394008
 30
0.0
 10
2004.087939345581
 20
909.3376679702139
 30
0.0
 10
2004.622131566846
 20
909.6294346244052
 30
0.0
 10
2005.198690191446
 20
909.888385761041
 30
0.0
 10
2005.811855827833
 20
910.1136248129025
 30
0.0
 10
2006.460270654512
 20
910.3044755181922
 30
0.0
 10
2007.143669980564
 20
910.4592328491648
 30
0.0
 10
2007.857441198547
 20
910.5757673505102
 30
0.0
 10
2008.591686147937
 20
910.6514378100369
 30
0.0
 10
2009.335707739344
 20
910.6848391409704
 30
0.0
 10
2010.078514155702
 20
910.6758000826632
 30
0.0
 10
2010.809392608135
 20
910.6253223334292
 30
0.0
 10
2011.53146449822
 20
910.5341193244166
 30
0.0
 10
2012.243875471959
 20
910.4004419837899
 30
0.0
 10
2012.942743838799
 20
910.2202944332582
 30
0.0
 10
2013.616930163847
 20
909.9991903062059
 30
0.0
 10
2014.03104543749
 20
909.817832763805
 30
0.0
 10
2014.238574283993
 20
909.7269476311508
 30
0.0
  0
ENDBLK
  5
314
330
312
100
AcDbEntity
  8
0
100
AcDbBlockEnd
  0
ENDSEC
  0
SECTION
  2
ENTITIES
  0
INSERT
  5
2FA
330
1F
100
AcDbEntity
  8
0
100
AcDbBlockReference
  2
1
 10
0.0
 20
0.0
 30
0.0
  0
INSERT
  5
311
330
1F
100
AcDbEntity
  8
0
100
AcDbBlockReference
  2
2
 10
0.0
 20
0.0
 30
0.0
  0
INSERT
  5
371
330
1F
100
AcDbEntity
  8
0
100
AcDbBlockReference
  2
3
 10
0.0
 20
0.0
 30
0.0
  0
ENDSEC
  0
SECTION
  2
OBJECTS
  0
DICTIONARY
  5
C
330
0
100
AcDbDictionary
281
     1
  3
ACAD_COLOR
350
6B
  3
ACAD_GROUP
350
D
  3
ACAD_LAYOUT
350
1A
  3
ACAD_MATERIAL
350
6A
  3
ACAD_MLEADERSTYLE
350
12D
  3
ACAD_MLINESTYLE
350
17
  3
ACAD_PLOTSETTINGS
350
19
  3
ACAD_PLOTSTYLENAME
350
E
  3
ACAD_SCALELIST
350
10C
  3
ACAD_TABLESTYLE
350
7E
  3
ACAD_VISUALSTYLE
350
EF
  3
ACDB_RECOMPOSE_DATA
350
15D
  3
AcDbVariableDictionary
350
5E
  3
DWGPROPS
350
37F
  0
DICTIONARY
  5
13C
330
10
100
AcDbDictionary
280
     1
281
     1
  3
ADSK_XREC_LAYER_RECONCILED
360
372
  0
DICTIONARY
  5
6B
102
{ACAD_REACTORS
330
C
102
}
330
C
100
AcDbDictionary
281
     1
  0
DICTIONARY
  5
D
102
{ACAD_REACTORS
330
C
102
}
330
C
100
AcDbDictionary
281
     1
  0
DICTIONARY
  5
1A
102
{ACAD_REACTORS
330
C
102
}
330
C
100
AcDbDictionary
281
     1
  3
Layout1
350
D3
  3
Layout2
350
D7
  3
Model
350
22
  0
DICTIONARY
  5
6A
102
{ACAD_REACTORS
330
C
102
}
330
C
100
AcDbDictionary
281
     1
  3
ByBlock
350
ED
  3
ByLayer
350
EC
  3
Global
350
EE
  0
DICTIONARY
  5
12D
102
{ACAD_REACTORS
330
C
102
}
330
C
100
AcDbDictionary
281
     1
  3
Annotative
350
13B
  3
Standard
350
12E
  0
DICTIONARY
  5
17
102
{ACAD_REACTORS
330
C
102
}
330
C
100
AcDbDictionary
281
     1
  3
Standard
350
18
  0
DICTIONARY
  5
19
102
{ACAD_REACTORS
330
C
102
}
330
C
100
AcDbDictionary
281
     1
  0
ACDBDICTIONARYWDFLT
  5
E
102
{ACAD_REACTORS
330
C
102
}
330
C
100
AcDbDictionary
281
     1
  3
Normal
350
F
100
AcDbDictionaryWithDefault
340
F
  0
DICTIONARY
  5
10C
102
{ACAD_REACTORS
330
C
102
}
330
C
100
AcDbDictionary
281
     1
  3
A0
350
10D
  3
A1
350
188
  3
A2
350
189
  3
A3
350
18A
  3
A4
350
18B
  3
A5
350
18C
  3
A6
350
18D
  3
A7
350
18E
  3
A8
350
18F
  3
A9
350
190
  3
B0
350
191
  3
B1
350
192
  3
B2
350
193
  3
B3
350
194
  3
B4
350
195
  3
B5
350
196
  3
B6
350
197
  3
B7
350
198
  3
B8
350
199
  3
B9
350
19A
  3
C0
350
19B
  3
C1
350
19C
  3
C2
350
19D
  3
C3
350
19E
  3
C4
350
19F
  3
C5
350
1A0
  3
C6
350
1A1
  3
C7
350
1A2
  3
C8
350
1A3
  3
C9
350
1A4
  3
D0
350
1A5
  3
D1
350
1A6
  3
D2
350
1A7
  0
DICTIONARY
  5
7E
102
{ACAD_REACTORS
330
C
102
}
330
C
100
AcDbDictionary
281
     1
  3
Standard
350
7F
  0
DICTIONARY
  5
EF
102
{ACAD_REACTORS
330
C
102
}
330
C
100
AcDbDictionary
281
     1
  3
2dWireframe
350
F5
  3
3D Hidden
350
F7
  3
3dWireframe
350
F6
  3
Basic
350
F4
  3
Brighten
350
FB
  3
ColorChange
350
FF
  3
Conceptual
350
F8
  3
Dim
350
FA
  3
Facepattern
350
FE
  3
Flat
350
F0
  3
FlatWithEdges
350
F1
  3
Gouraud
350
F2
  3
GouraudWithEdges
350
F3
  3
Linepattern
350
FD
  3
Realistic
350
F9
  3
Thicken
350
FC
  0
XRECORD
  5
15D
102
{ACAD_REACTORS
330
C
102
}
330
C
100
AcDbXrecord
280
     1
 90
        1
330
7F
  0
DICTIONARY
  5
5E
102
{ACAD_REACTORS
330
C
102
}
330
C
100
AcDbDictionary
281
     1
  3
CANNOSCALE
350
146
  3
CMLEADERSTYLE
350
145
  3
CTABLESTYLE
350
84
  3
DIMASSOC
350
5F
  3
HIDETEXT
350
63
  3
INDEXCTL
350
37B
  3
LIGHTINGUNITS
350
379
  3
MSLTSCALE
350
378
  3
PSOLHEIGHT
350
37D
  3
PSOLWIDTH
350
37C
  3
SORTENTS
350
37A
  0
XRECORD
  5
37F
102
{ACAD_REACTORS
330
C
102
}
330
C
100
AcDbXrecord
280
     1
  1
DWGPROPS COOKIE
  2

  3

  4

  6

  7

  8
orhan kara
  9

300
=
301
=
302
=
303
=
304
=
305
=
306
=
307
=
308
=
309
=
 40
0.0003348032407407
 41
2459004.691661354
 42
2459067.625083136
  1

 90
        0
  0
XRECORD
  5
372
102
{ACAD_REACTORS
330
13C
102
}
330
13C
100
AcDbXrecord
280
     1
290
     1
  0
LAYOUT
  5
D3
102
{ACAD_XDICTIONARY
360
383
102
}
102
{ACAD_REACTORS
330
1A
102
}
330
1A
100
AcDbPlotSettings
  1

  2
C:\Documents and Settings\basas\Application Data\Autodesk\AutoCAD 2005\R16.1\enu\plotters\Default Windows System Printer.pc3
  4

  6

 40
0.0
 41
0.0
 42
0.0
 43
0.0
 44
0.0
 45
0.0
 46
0.0
 47
0.0
 48
0.0
 49
0.0
140
0.0
141
0.0
142
1.0
143
1.0
 70
   688
 72
     0
 73
     0
 74
     5
  7

 75
    16
147
1.0
148
0.0
149
0.0
100
AcDbLayout
  1
Layout1
 70
     1
 71
     1
 10
0.0
 20
0.0
 11
12.0
 21
9.0
 12
0.0
 22
0.0
 32
0.0
 14
0.0
 24
0.0
 34
0.0
 15
0.0
 25
0.0
 35
0.0
146
0.0
 13
0.0
 23
0.0
 33
0.0
 16
1.0
 26
0.0
 36
0.0
 17
0.0
 27
1.0
 37
0.0
 76
     0
330
D2
  0
LAYOUT
  5
D7
102
{ACAD_XDICTIONARY
360
385
102
}
102
{ACAD_REACTORS
330
1A
102
}
330
1A
100
AcDbPlotSettings
  1

  2
C:\Documents and Settings\basas\Application Data\Autodesk\AutoCAD 2005\R16.1\enu\plotters\Default Windows System Printer.pc3
  4

  6

 40
0.0
 41
0.0
 42
0.0
 43
0.0
 44
0.0
 45
0.0
 46
0.0
 47
0.0
 48
0.0
 49
0.0
140
0.0
141
0.0
142
1.0
143
1.0
 70
   688
 72
     0
 73
     0
 74
     5
  7

 75
    16
147
1.0
148
0.0
149
0.0
100
AcDbLayout
  1
Layout2
 70
     1
 71
     2
 10
0.0
 20
0.0
 11
12.0
 21
9.0
 12
0.0
 22
0.0
 32
0.0
 14
0.0
 24
0.0
 34
0.0
 15
0.0
 25
0.0
 35
0.0
146
0.0
 13
0.0
 23
0.0
 33
0.0
 16
1.0
 26
0.0
 36
0.0
 17
0.0
 27
1.0
 37
0.0
 76
     0
330
D6
  0
LAYOUT
  5
22
102
{ACAD_XDICTIONARY
360
380
102
}
102
{ACAD_REACTORS
330
1A
102
}
330
1A
100
AcDbPlotSettings
  1

  2
none_device
  4
ISO_A4_(210.00_x_297.00_MM)
  6

 40
7.5
 41
20.0
 42
7.5
 43
20.0
 44
210.0
 45
297.0
 46
11.54999923706054
 47
-13.65000009536743
 48
0.0
 49
0.0
140
0.0
141
0.0
142
1.0
143
8.704084754739808
 70
 11952
 72
     1
 73
     0
 74
     0
  7

 75
     0
147
0.1148885871608098
148
0.0
149
0.0
100
AcDbLayout
  1
Model
 70
     1
 71
     0
 10
0.0
 20
0.0
 11
12.0
 21
9.0
 12
0.0
 22
0.0
 32
0.0
 14
0.0
 24
0.0
 34
0.0
 15
0.0
 25
0.0
 35
0.0
146
0.0
 13
0.0
 23
0.0
 33
0.0
 16
1.0
 26
0.0
 36
0.0
 17
0.0
 27
1.0
 37
0.0
 76
     0
330
1F
331
EA
1001
ACAD_PSEXT
1000
None
1000
None
1000
Not applicable
1000
The layout will not be plotted unless a new plotter configuration name is selected.
1070
     0
  0
MATERIAL
  5
ED
102
{ACAD_XDICTIONARY
360
389
102
}
102
{ACAD_REACTORS
330
6A
102
}
330
6A
100
AcDbMaterial
  1
ByBlock
  0
MATERIAL
  5
EC
102
{ACAD_XDICTIONARY
360
387
102
}
102
{ACAD_REACTORS
330
6A
102
}
330
6A
100
AcDbMaterial
  1
ByLayer
  0
MATERIAL
  5
EE
102
{ACAD_XDICTIONARY
360
173
102
}
102
{ACAD_REACTORS
330
6A
102
}
330
6A
100
AcDbMaterial
  1
Global
 43
0.0007999999797903
 43
0.0
 43
0.0
 43
0.0
 43
0.0
 43
0.0007999999797903
 43
0.0
 43
0.0
 43
0.0
 43
0.0
 43
1.0
 43
0.0
 43
0.0
 43
0.0
 43
0.0
 43
1.0
 49
0.0007999999797903
 49
0.0
 49
0.0
 49
0.0
 49
0.0
 49
0.0007999999797903
 49
0.0
 49
0.0
 49
0.0
 49
0.0
 49
1.0
 49
0.0
 49
0.0
 49
0.0
 49
0.0
 49
1.0
142
0.0007999999797903
142
0.0
142
0.0
142
0.0
142
0.0
142
0.0007999999797903
142
0.0
142
0.0
142
0.0
142
0.0
142
1.0
142
0.0
142
0.0
142
0.0
142
0.0
142
1.0
144
0.0007999999797903
144
0.0
144
0.0
144
0.0
144
0.0
144
0.0007999999797903
144
0.0
144
0.0
144
0.0
144
0.0
144
1.0
144
0.0
144
0.0
144
0.0
144
0.0
144
1.0
1001
ACAD
1070
    -1
1070
     3
1070
     0
1000

1071
        0
1070
     0
  0
MLEADERSTYLE
  5
13B
102
{ACAD_REACTORS
330
12D
102
}
330
12D
100
AcDbMLeaderStyle
170
     2
171
     1
172
     0
 90
        2
 40
0.0
 41
0.0
173
     1
 91
-1056964608
340
14
 92
       -2
290
     1
 42
2.0
291
     1
 43
8.0
  3
Standard
 44
4.0
300

342
11
174
     1
178
     1
175
     1
176
     0
 93
-1056964608
 45
4.0
292
     0
297
     0
 46
4.0
 94
-1056964608
 47
1.0
 49
1.0
140
1.0
293
     1
141
0.0
294
     1
177
     0
142
1.0
295
     0
296
     1
143
3.75
1001
ACAD_MLEADERVER
1070
     2
  0
MLEADERSTYLE
  5
12E
102
{ACAD_REACTORS
330
12D
102
}
330
12D
100
AcDbMLeaderStyle
170
     2
171
     1
172
     0
 90
        2
 40
0.0
 41
0.0
173
     1
 91
-1056964608
340
14
 92
       -2
290
     1
 42
2.0
291
     1
 43
8.0
  3
Standard
 44
4.0
300

342
11
174
     1
178
     1
175
     1
176
     0
 93
-1056964608
 45
4.0
292
     0
297
     0
 46
4.0
 94
-1056964608
 47
1.0
 49
1.0
140
1.0
293
     1
141
0.0
294
     1
177
     0
142
1.0
295
     0
296
     0
143
3.75
1001
ACAD_MLEADERVER
1070
     2
  0
MLINESTYLE
  5
18
102
{ACAD_REACTORS
330
17
102
}
330
17
100
AcDbMlineStyle
  2
STANDARD
 70
     0
  3

 62
   256
 51
90.0
 52
90.0
 71
     2
 49
0.5
 62
   256
  6
BYLAYER
 49
-0.5
 62
   256
  6
BYLAYER
  0
ACDBPLACEHOLDER
  5
F
102
{ACAD_REACTORS
330
E
102
}
330
E
  0
SCALE
  5
10D
102
{ACAD_REACTORS
330
10C
102
}
330
10C
100
AcDbScale
 70
     0
300
1:1
140
1.0
141
1.0
290
     1
  0
SCALE
  5
188
102
{ACAD_REACTORS
330
10C
102
}
330
10C
100
AcDbScale
 70
     0
300
1:2
140
1.0
141
2.0
290
     0
  0
SCALE
  5
189
102
{ACAD_REACTORS
330
10C
102
}
330
10C
100
AcDbScale
 70
     0
300
1:4
140
1.0
141
4.0
290
     0
  0
SCALE
  5
18A
102
{ACAD_REACTORS
330
10C
102
}
330
10C
100
AcDbScale
 70
     0
300
1:5
140
1.0
141
5.0
290
     0
  0
SCALE
  5
18B
102
{ACAD_REACTORS
330
10C
102
}
330
10C
100
AcDbScale
 70
     0
300
1:8
140
1.0
141
8.0
290
     0
  0
SCALE
  5
18C
102
{ACAD_REACTORS
330
10C
102
}
330
10C
100
AcDbScale
 70
     0
300
1:10
140
1.0
141
10.0
290
     0
  0
SCALE
  5
18D
102
{ACAD_REACTORS
330
10C
102
}
330
10C
100
AcDbScale
 70
     0
300
1:16
140
1.0
141
16.0
290
     0
  0
SCALE
  5
18E
102
{ACAD_REACTORS
330
10C
102
}
330
10C
100
AcDbScale
 70
     0
300
1:20
140
1.0
141
20.0
290
     0
  0
SCALE
  5
18F
102
{ACAD_REACTORS
330
10C
102
}
330
10C
100
AcDbScale
 70
     0
300
1:30
140
1.0
141
30.0
290
     0
  0
SCALE
  5
190
102
{ACAD_REACTORS
330
10C
102
}
330
10C
100
AcDbScale
 70
     0
300
1:40
140
1.0
141
40.0
290
     0
  0
SCALE
  5
191
102
{ACAD_REACTORS
330
10C
102
}
330
10C
100
AcDbScale
 70
     0
300
1:50
140
1.0
141
50.0
290
     0
  0
SCALE
  5
192
102
{ACAD_REACTORS
330
10C
102
}
330
10C
100
AcDbScale
 70
     0
300
1:100
140
1.0
141
100.0
290
     0
  0
SCALE
  5
193
102
{ACAD_REACTORS
330
10C
102
}
330
10C
100
AcDbScale
 70
     0
300
2:1
140
2.0
141
1.0
290
     0
  0
SCALE
  5
194
102
{ACAD_REACTORS
330
10C
102
}
330
10C
100
AcDbScale
 70
     0
300
4:1
140
4.0
141
1.0
290
     0
  0
SCALE
  5
195
102
{ACAD_REACTORS
330
10C
102
}
330
10C
100
AcDbScale
 70
     0
300
8:1
140
8.0
141
1.0
290
     0
  0
SCALE
  5
196
102
{ACAD_REACTORS
330
10C
102
}
330
10C
100
AcDbScale
 70
     0
300
10:1
140
10.0
141
1.0
290
     0
  0
SCALE
  5
197
102
{ACAD_REACTORS
330
10C
102
}
330
10C
100
AcDbScale
 70
     0
300
100:1
140
100.0
141
1.0
290
     0
  0
SCALE
  5
198
102
{ACAD_REACTORS
330
10C
102
}
330
10C
100
AcDbScale
 70
     0
300
1/128" = 1'-0"
140
0.0078125
141
12.0
290
     0
  0
SCALE
  5
199
102
{ACAD_REACTORS
330
10C
102
}
330
10C
100
AcDbScale
 70
     0
300
1/64" = 1'-0"
140
0.015625
141
12.0
290
     0
  0
SCALE
  5
19A
102
{ACAD_REACTORS
330
10C
102
}
330
10C
100
AcDbScale
 70
     0
300
1/32" = 1'-0"
140
0.03125
141
12.0
290
     0
  0
SCALE
  5
19B
102
{ACAD_REACTORS
330
10C
102
}
330
10C
100
AcDbScale
 70
     0
300
1/16" = 1'-0"
140
0.0625
141
12.0
290
     0
  0
SCALE
  5
19C
102
{ACAD_REACTORS
330
10C
102
}
330
10C
100
AcDbScale
 70
     0
300
3/32" = 1'-0"
140
0.09375
141
12.0
290
     0
  0
SCALE
  5
19D
102
{ACAD_REACTORS
330
10C
102
}
330
10C
100
AcDbScale
 70
     0
300
1/8" = 1'-0"
140
0.125
141
12.0
290
     0
  0
SCALE
  5
19E
102
{ACAD_REACTORS
330
10C
102
}
330
10C
100
AcDbScale
 70
     0
300
3/16" = 1'-0"
140
0.1875
141
12.0
290
     0
  0
SCALE
  5
19F
102
{ACAD_REACTORS
330
10C
102
}
330
10C
100
AcDbScale
 70
     0
300
1/4" = 1'-0"
140
0.25
141
12.0
290
     0
  0
SCALE
  5
1A0
102
{ACAD_REACTORS
330
10C
102
}
330
10C
100
AcDbScale
 70
     0
300
3/8" = 1'-0"
140
0.375
141
12.0
290
     0
  0
SCALE
  5
1A1
102
{ACAD_REACTORS
330
10C
102
}
330
10C
100
AcDbScale
 70
     0
300
1/2" = 1'-0"
140
0.5
141
12.0
290
     0
  0
SCALE
  5
1A2
102
{ACAD_REACTORS
330
10C
102
}
330
10C
100
AcDbScale
 70
     0
300
3/4" = 1'-0"
140
0.75
141
12.0
290
     0
  0
SCALE
  5
1A3
102
{ACAD_REACTORS
330
10C
102
}
330
10C
100
AcDbScale
 70
     0
300
1" = 1'-0"
140
1.0
141
12.0
290
     0
  0
SCALE
  5
1A4
102
{ACAD_REACTORS
330
10C
102
}
330
10C
100
AcDbScale
 70
     0
300
1-1/2" = 1'-0"
140
1.5
141
12.0
290
     0
  0
SCALE
  5
1A5
102
{ACAD_REACTORS
330
10C
102
}
330
10C
100
AcDbScale
 70
     0
300
3" = 1'-0"
140
3.0
141
12.0
290
     0
  0
SCALE
  5
1A6
102
{ACAD_REACTORS
330
10C
102
}
330
10C
100
AcDbScale
 70
     0
300
6" = 1'-0"
140
6.0
141
12.0
290
     0
  0
SCALE
  5
1A7
102
{ACAD_REACTORS
330
10C
102
}
330
10C
100
AcDbScale
 70
     0
300
1'-0" = 1'-0"
140
12.0
141
12.0
290
     0
  0
TABLESTYLE
  5
7F
102
{ACAD_XDICTIONARY
360
162
102
}
102
{ACAD_REACTORS
330
7E
102
}
330
7E
100
AcDbTableStyle
  3
Standard
 70
     0
 71
     0
 40
1.5
 41
1.5
280
     0
281
     0
  7
Standard
140
4.5
170
     2
 62
     0
 63
     7
283
     0
274
    -2
284
     1
 64
     0
275
    -2
285
     1
 65
     0
276
    -2
286
     1
 66
     0
277
    -2
287
     1
 67
     0
278
    -2
288
     1
 68
     0
279
    -2
289
     1
 69
     0
  7
Standard
140
6.0
170
     5
 62
     0
 63
     7
283
     0
274
    -2
284
     1
 64
     0
275
    -2
285
     1
 65
     0
276
    -2
286
     1
 66
     0
277
    -2
287
     1
 67
     0
278
    -2
288
     1
 68
     0
279
    -2
289
     1
 69
     0
  7
Standard
140
4.5
170
     5
 62
     0
 63
     7
283
     0
274
    -2
284
     1
 64
     0
275
    -2
285
     1
 65
     0
276
    -2
286
     1
 66
     0
277
    -2
287
     1
 67
     0
278
    -2
288
     1
 68
     0
279
    -2
289
     1
 69
     0
  0
VISUALSTYLE
  5
F5
102
{ACAD_REACTORS
330
EF
102
}
330
EF
100
AcDbVisualStyle
  2
2dWireframe
 70
     4
 71
     0
 72
     2
 73
     1
 90
        0
 40
-0.6
 41
-30.0
 62
     5
 63
     7
 74
     1
 91
        4
 64
     7
 65
   257
 75
     1
175
     1
 42
1.0
 92
        0
 66
   257
 43
1.0
 76
     1
 77
     6
 78
     2
 67
     7
 79
     5
170
     0
171
     0
290
     0
174
     0
 93
        1
 44
0.0
173
     0
291
     0
 45
0.0
1001
ACAD
1000
AcDbSavedByObjectVersion
1070
     0
  0
VISUALSTYLE
  5
F7
102
{ACAD_REACTORS
330
EF
102
}
330
EF
100
AcDbVisualStyle
  2
3D Hidden
 70
     6
 71
     1
 72
     2
 73
     2
 90
        0
 40
-0.6
 41
-30.0
 62
     5
 63
     7
 74
     2
 91
        2
 64
     7
 65
   257
 75
     2
175
     1
 42
40.0
 92
        0
 66
   257
 43
1.0
 76
     1
 77
     6
 78
     2
 67
     7
 79
     3
170
     0
171
     0
290
     0
174
     0
 93
        1
 44
0.0
173
     0
291
     0
 45
0.0
1001
ACAD
1000
AcDbSavedByObjectVersion
1070
     0
  0
VISUALSTYLE
  5
F6
102
{ACAD_REACTORS
330
EF
102
}
330
EF
100
AcDbVisualStyle
  2
3dWireframe
 70
     5
 71
     0
 72
     2
 73
     1
 90
        0
 40
-0.6
 41
-30.0
 62
     5
 63
     7
 74
     1
 91
        4
 64
     7
 65
   257
 75
     1
175
     1
 42
1.0
 92
        0
 66
   257
 43
1.0
 76
     1
 77
     6
 78
     2
 67
     7
 79
     5
170
     0
171
     0
290
     0
174
     0
 93
        1
 44
0.0
173
     0
291
     0
 45
0.0
1001
ACAD
1000
AcDbSavedByObjectVersion
1070
     0
  0
VISUALSTYLE
  5
F4
102
{ACAD_REACTORS
330
EF
102
}
330
EF
100
AcDbVisualStyle
  2
Basic
 70
     7
 71
     1
 72
     0
 73
     1
 90
        0
 40
-0.6
 41
-30.0
 62
     5
 63
     7
 74
     0
 91
        4
 64
     7
 65
   257
 75
     1
175
     1
 42
1.0
 92
        8
 66
     7
 43
1.0
 76
     1
 77
     6
 78
     2
 67
     7
 79
     5
170
     0
171
     0
290
     0
174
     0
 93
        1
 44
0.0
173
     0
291
     1
 45
0.0
1001
ACAD
1000
AcDbSavedByObjectVersion
1070
     0
  0
VISUALSTYLE
  5
FB
102
{ACAD_REACTORS
330
EF
102
}
330
EF
100
AcDbVisualStyle
  2
Brighten
 70
    12
 71
     2
 72
     2
 73
     1
 90
        0
 40
-0.6
 41
-30.0
 62
     5
 63
     7
 74
     1
 91
        4
 64
     7
 65
   257
 75
     1
175
     1
 42
1.0
 92
        8
 66
     7
 43
1.0
 76
     1
 77
     6
 78
     2
 67
     7
 79
     5
170
     0
171
     0
290
     0
174
     0
 93
        1
 44
50.0
173
     0
291
     1
 45
0.0
1001
ACAD
1000
AcDbSavedByObjectVersion
1070
     0
  0
VISUALSTYLE
  5
FF
102
{ACAD_REACTORS
330
EF
102
}
330
EF
100
AcDbVisualStyle
  2
ColorChange
 70
    16
 71
     2
 72
     2
 73
     3
 90
        0
 40
-0.6
 41
-30.0
 62
     5
 63
     8
 74
     1
 91
        4
 64
     7
 65
   257
 75
     1
175
     1
 42
1.0
 92
        8
 66
     8
 43
1.0
 76
     1
 77
     6
 78
     2
 67
     7
 79
     5
170
     0
171
     0
290
     0
174
     0
 93
        1
 44
0.0
173
     0
291
     1
 45
0.0
1001
ACAD
1000
AcDbSavedByObjectVersion
1070
     0
  0
VISUALSTYLE
  5
F8
102
{ACAD_REACTORS
330
EF
102
}
330
EF
100
AcDbVisualStyle
  2
Conceptual
 70
     9
 71
     3
 72
     2
 73
     1
 90
        0
 40
-0.6
 41
-30.0
 62
     5
 63
     7
 74
     2
 91
        2
 64
     7
 65
   257
 75
     1
175
     1
 42
40.0
 92
        8
 66
     7
 43
1.0
 76
     1
 77
     6
 78
     2
 67
     7
 79
     3
170
     0
171
     0
290
     0
174
     0
 93
        1
 44
0.0
173
     0
291
     0
 45
0.0
1001
ACAD
1000
AcDbSavedByObjectVersion
1070
     0
  0
VISUALSTYLE
  5
FA
102
{ACAD_REACTORS
330
EF
102
}
330
EF
100
AcDbVisualStyle
  2
Dim
 70
    11
 71
     2
 72
     2
 73
     1
 90
        0
 40
-0.6
 41
-30.0
 62
     5
 63
     7
 74
     1
 91
        4
 64
     7
 65
   257
 75
     1
175
     1
 42
1.0
 92
        8
 66
     7
 43
1.0
 76
     1
 77
     6
 78
     2
 67
     7
 79
     5
170
     0
171
     0
290
     0
174
     0
 93
        1
 44
-50.0
173
     0
291
     1
 45
0.0
1001
ACAD
1000
AcDbSavedByObjectVersion
1070
     0
  0
VISUALSTYLE
  5
FE
102
{ACAD_REACTORS
330
EF
102
}
330
EF
100
AcDbVisualStyle
  2
Facepattern
 70
    15
 71
     2
 72
     2
 73
     1
 90
        0
 40
-0.6
 41
-30.0
 62
     5
 63
     7
 74
     1
 91
        4
 64
     7
 65
   257
 75
     1
175
     1
 42
1.0
 92
        8
 66
     7
 43
1.0
 76
     1
 77
     6
 78
     2
 67
     7
 79
     5
170
     0
171
     0
290
     0
174
     0
 93
        1
 44
0.0
173
     0
291
     1
 45
0.0
1001
ACAD
1000
AcDbSavedByObjectVersion
1070
     0
  0
VISUALSTYLE
  5
F0
102
{ACAD_REACTORS
330
EF
102
}
330
EF
100
AcDbVisualStyle
  2
Flat
 70
     0
 71
     2
 72
     1
 73
     1
 90
        2
 40
-0.6
 41
30.0
 62
     5
 63
     7
 74
     0
 91
        4
 64
     7
 65
   257
 75
     1
175
     1
 42
1.0
 92
        8
 66
     7
 43
1.0
 76
     1
 77
     6
 78
     2
 67
     7
 79
     5
170
     0
171
     0
290
     0
174
     0
 93
        1
 44
0.0
173
     0
291
     1
 45
0.0
1001
ACAD
1000
AcDbSavedByObjectVersion
1070
     0
  0
VISUALSTYLE
  5
F1
102
{ACAD_REACTORS
330
EF
102
}
330
EF
100
AcDbVisualStyle
  2
FlatWithEdges
 70
     1
 71
     2
 72
     1
 73
     1
 90
        2
 40
-0.6
 41
30.0
 62
     5
 63
     7
 74
     1
 91
        4
 64
     7
 65
   257
 75
     1
175
     1
 42
1.0
 92
        0
 66
   257
 43
1.0
 76
     1
 77
     6
 78
     2
 67
     7
 79
     5
170
     0
171
     0
290
     0
174
     0
 93
        1
 44
0.0
173
     0
291
     1
 45
0.0
1001
ACAD
1000
AcDbSavedByObjectVersion
1070
     0
  0
VISUALSTYLE
  5
F2
102
{ACAD_REACTORS
330
EF
102
}
330
EF
100
AcDbVisualStyle
  2
Gouraud
 70
     2
 71
     2
 72
     2
 73
     1
 90
        2
 40
-0.6
 41
30.0
 62
     5
 63
     7
 74
     0
 91
        4
 64
     7
 65
   257
 75
     1
175
     1
 42
1.0
 92
        0
 66
     7
 43
1.0
 76
     1
 77
     6
 78
     2
 67
     7
 79
     5
170
     0
171
     0
290
     0
174
     0
 93
        1
 44
0.0
173
     0
291
     1
 45
0.0
1001
ACAD
1000
AcDbSavedByObjectVersion
1070
     0
  0
VISUALSTYLE
  5
F3
102
{ACAD_REACTORS
330
EF
102
}
330
EF
100
AcDbVisualStyle
  2
GouraudWithEdges
 70
     3
 71
     2
 72
     2
 73
     1
 90
        2
 40
-0.6
 41
30.0
 62
     5
 63
     7
 74
     1
 91
        4
 64
     7
 65
   257
 75
     1
175
     1
 42
1.0
 92
        0
 66
   257
 43
1.0
 76
     1
 77
     6
 78
     2
 67
     7
 79
     5
170
     0
171
     0
290
     0
174
     0
 93
        1
 44
0.0
173
     0
291
     1
 45
0.0
1001
ACAD
1000
AcDbSavedByObjectVersion
1070
     0
  0
VISUALSTYLE
  5
FD
102
{ACAD_REACTORS
330
EF
102
}
330
EF
100
AcDbVisualStyle
  2
Linepattern
 70
    14
 71
     2
 72
     2
 73
     1
 90
        0
 40
-0.6
 41
-30.0
 62
     5
 63
     7
 74
     1
 91
        4
 64
     7
 65
   257
 75
     7
175
     7
 42
1.0
 92
        8
 66
     7
 43
1.0
 76
     1
 77
     6
 78
     2
 67
     7
 79
     5
170
     0
171
     0
290
     0
174
     0
 93
        1
 44
0.0
173
     0
291
     1
 45
0.0
1001
ACAD
1000
AcDbSavedByObjectVersion
1070
     0
  0
VISUALSTYLE
  5
F9
102
{ACAD_REACTORS
330
EF
102
}
330
EF
100
AcDbVisualStyle
  2
Realistic
 70
     8
 71
     2
 72
     2
 73
     1
 90
        0
 40
-0.6
 41
-30.0
 62
     5
 63
     7
 74
     1
 91
        0
 64
     7
 65
   257
 75
     1
175
     1
 42
1.0
 92
        8
 66
     8
 43
1.0
 76
     1
 77
     6
 78
     2
 67
     7
 79
     5
170
     0
171
     0
290
     0
174
     0
 93
       13
 44
0.0
173
     0
291
     0
 45
0.0
1001
ACAD
1000
AcDbSavedByObjectVersion
1070
     0
  0
VISUALSTYLE
  5
FC
102
{ACAD_REACTORS
330
EF
102
}
330
EF
100
AcDbVisualStyle
  2
Thicken
 70
    13
 71
     2
 72
     2
 73
     1
 90
        0
 40
-0.6
 41
-30.0
 62
     5
 63
     7
 74
     1
 91
        4
 64
     7
 65
   257
 75
     1
175
     1
 42
1.0
 92
       12
 66
     7
 43
1.0
 76
     1
 77
     6
 78
     2
 67
     7
 79
     5
170
     0
171
     0
290
     0
174
     0
 93
        1
 44
0.0
173
     0
291
     1
 45
0.0
1001
ACAD
1000
AcDbSavedByObjectVersion
1070
     0
  0
DICTIONARYVAR
  5
146
102
{ACAD_REACTORS
330
5E
102
}
330
5E
100
DictionaryVariables
280
     0
  1
1:1
  0
DICTIONARYVAR
  5
145
102
{ACAD_REACTORS
330
5E
102
}
330
5E
100
DictionaryVariables
280
     0
  1
STANDARD
  0
DICTIONARYVAR
  5
84
102
{ACAD_REACTORS
330
5E
102
}
330
5E
100
DictionaryVariables
280
     0
  1
STANDARD
  0
DICTIONARYVAR
  5
5F
102
{ACAD_REACTORS
330
5E
102
}
330
5E
100
DictionaryVariables
280
     0
  1
2
  0
DICTIONARYVAR
  5
63
102
{ACAD_REACTORS
330
5E
102
}
330
5E
100
DictionaryVariables
280
     0
  1
1
  0
DICTIONARYVAR
  5
37B
102
{ACAD_REACTORS
330
5E
102
}
330
5E
100
DictionaryVariables
280
     0
  1
0
  0
DICTIONARYVAR
  5
379
102
{ACAD_REACTORS
330
5E
102
}
330
5E
100
DictionaryVariables
280
     0
  1
2
  0
DICTIONARYVAR
  5
378
102
{ACAD_REACTORS
330
5E
102
}
330
5E
100
DictionaryVariables
280
     0
  1
1
  0
DICTIONARYVAR
  5
37D
102
{ACAD_REACTORS
330
5E
102
}
330
5E
100
DictionaryVariables
280
     0
  1
80.000000
  0
DICTIONARYVAR
  5
37C
102
{ACAD_REACTORS
330
5E
102
}
330
5E
100
DictionaryVariables
280
     0
  1
5.000000
  0
DICTIONARYVAR
  5
37A
102
{ACAD_REACTORS
330
5E
102
}
330
5E
100
DictionaryVariables
280
     0
  1
127
  0
DICTIONARY
  5
383
330
D3
100
AcDbDictionary
280
     1
281
     1
  3
ACAD_XREC_ROUNDTRIP
360
384
  0
DICTIONARY
  5
385
330
D7
100
AcDbDictionary
280
     1
281
     1
  3
ACAD_XREC_ROUNDTRIP
360
386
  0
DICTIONARY
  5
380
330
22
100
AcDbDictionary
280
     1
281
     1
  3
ACAD_XREC_ROUNDTRIP
360
381
  0
DICTIONARY
  5
389
330
ED
100
AcDbDictionary
280
     1
281
     1
  3
ACAD_XREC_ROUNDTRIP
360
38A
  0
DICTIONARY
  5
387
330
EC
100
AcDbDictionary
280
     1
281
     1
  3
ACAD_XREC_ROUNDTRIP
360
388
  0
DICTIONARY
  5
173
330
EE
100
AcDbDictionary
280
     1
281
     1
  3
ACAD_XREC_ROUNDTRIP
360
38B
  3
BUMPTILE
360
175
  3
DIFFUSETILE
360
174
  3
OPACITYTILE
360
176
  3
REFLECTIONTILE
360
177
  0
DICTIONARY
  5
162
330
7F
100
AcDbDictionary
280
     1
281
     1
  3
ACAD_ROUNDTRIP_2008_TABLESTYLE_CELLSTYLEMAP
360
37E
  3
ACAD_XREC_ROUNDTRIP
360
382
  0
XRECORD
  5
384
102
{ACAD_REACTORS
330
383
102
}
330
383
100
AcDbXrecord
280
     1
102
SHADEPLOT
 70
     0
102
SHADEPLOTRESLEVEL
 70
     2
102
SHADEPLOTCUSTOMDPI
 70
   300
  0
XRECORD
  5
386
102
{ACAD_REACTORS
330
385
102
}
330
385
100
AcDbXrecord
280
     1
102
SHADEPLOT
 70
     0
102
SHADEPLOTRESLEVEL
 70
     2
102
SHADEPLOTCUSTOMDPI
 70
   300
  0
XRECORD
  5
381
102
{ACAD_REACTORS
330
380
102
}
330
380
100
AcDbXrecord
280
     1
102
SHADEPLOT
 70
     0
102
SHADEPLOTRESLEVEL
 70
     2
102
SHADEPLOTCUSTOMDPI
 70
   300
  0
XRECORD
  5
38A
102
{ACAD_REACTORS
330
389
102
}
330
389
100
AcDbXrecord
280
     1
102
MATERIAL
148
0.0
149
0.0
149
0.0
 93
        0
 94
       63
282
     0
 72
     1
 77
     1
171
     1
175
     1
179
     1
273
     0
  0
XRECORD
  5
388
102
{ACAD_REACTORS
330
387
102
}
330
387
100
AcDbXrecord
280
     1
102
MATERIAL
148
0.0
149
0.0
149
0.0
 93
        0
 94
       63
282
     0
 72
     1
 77
     1
171
     1
175
     1
179
     1
273
     0
  0
XRECORD
  5
38B
102
{ACAD_REACTORS
330
173
102
}
330
173
100
AcDbXrecord
280
     1
102
MATERIAL
148
0.0
149
0.0
149
0.0
 93
        0
 94
       63
282
     0
 72
     1
 77
     1
171
     1
175
     1
179
     1
273
     0
  0
XRECORD
  5
175
102
{ACAD_REACTORS
330
173
102
}
330
173
100
AcDbXrecord
280
     1
270
     1
271
     1
  0
XRECORD
  5
174
102
{ACAD_REACTORS
330
173
102
}
330
173
100
AcDbXrecord
280
     1
270
     1
271
     1
  0
XRECORD
  5
176
102
{ACAD_REACTORS
330
173
102
}
330
173
100
AcDbXrecord
280
     1
270
     1
271
     1
  0
XRECORD
  5
177
102
{ACAD_REACTORS
330
173
102
}
330
173
100
AcDbXrecord
280
     1
270
     1
271
     1
  0
CELLSTYLEMAP
  5
37E
102
{ACAD_REACTORS
330
162
102
}
330
162
100
AcDbCellStyleMap
 90
        3
300
CELLSTYLE
  1
TABLEFORMAT_BEGIN
 90
        5
170
     1
 91
        0
 92
    32768
 62
   257
 93
        1
300
CONTENTFORMAT
  1
CONTENTFORMAT_BEGIN
 90
        0
 91
        0
 92
      512
 93
        0
300

 40
0.0
140
1.0
 94
        5
 62
     0
340
11
144
6.0
309
CONTENTFORMAT_END
171
     1
301
MARGIN
  1
CELLMARGIN_BEGIN
 40
1.5
 40
1.5
 40
1.5
 40
1.5
 40
4.5
 40
4.5
309
CELLMARGIN_END
 94
        6
 95
        1
302
GRIDFORMAT
  1
GRIDFORMAT_BEGIN
 90
        0
 91
        1
 62
     0
 92
       -2
340
14
 93
        0
 40
1.125
309
GRIDFORMAT_END
 95
        2
302
GRIDFORMAT
  1
GRIDFORMAT_BEGIN
 90
        0
 91
        1
 62
     0
 92
       -2
340
14
 93
        0
 40
1.125
309
GRIDFORMAT_END
 95
        4
302
GRIDFORMAT
  1
GRIDFORMAT_BEGIN
 90
        0
 91
        1
 62
     0
 92
       -2
340
14
 93
        0
 40
1.125
309
GRIDFORMAT_END
 95
        8
302
GRIDFORMAT
  1
GRIDFORMAT_BEGIN
 90
        0
 91
        1
 62
     0
 92
       -2
340
14
 93
        0
 40
1.125
309
GRIDFORMAT_END
 95
       16
302
GRIDFORMAT
  1
GRIDFORMAT_BEGIN
 90
        0
 91
        1
 62
     0
 92
       -2
340
14
 93
        0
 40
1.125
309
GRIDFORMAT_END
 95
       32
302
GRIDFORMAT
  1
GRIDFORMAT_BEGIN
 90
        0
 91
        1
 62
     0
 92
       -2
340
14
 93
        0
 40
1.125
309
GRIDFORMAT_END
309
TABLEFORMAT_END
  1
CELLSTYLE_BEGIN
 90
        1
 91
        1
300
_TITLE
309
CELLSTYLE_END
300
CELLSTYLE
  1
TABLEFORMAT_BEGIN
 90
        5
170
     1
 91
        0
 92
        0
 62
   257
 93
        1
300
CONTENTFORMAT
  1
CONTENTFORMAT_BEGIN
 90
        0
 91
        0
 92
      512
 93
        0
300

 40
0.0
140
1.0
 94
        5
 62
     0
340
11
144
4.5
309
CONTENTFORMAT_END
171
     1
301
MARGIN
  1
CELLMARGIN_BEGIN
 40
1.5
 40
1.5
 40
1.5
 40
1.5
 40
4.5
 40
4.5
309
CELLMARGIN_END
 94
        6
 95
        1
302
GRIDFORMAT
  1
GRIDFORMAT_BEGIN
 90
        0
 91
        1
 62
     0
 92
       -2
340
14
 93
        0
 40
1.125
309
GRIDFORMAT_END
 95
        2
302
GRIDFORMAT
  1
GRIDFORMAT_BEGIN
 90
        0
 91
        1
 62
     0
 92
       -2
340
14
 93
        0
 40
1.125
309
GRIDFORMAT_END
 95
        4
302
GRIDFORMAT
  1
GRIDFORMAT_BEGIN
 90
        0
 91
        1
 62
     0
 92
       -2
340
14
 93
        0
 40
1.125
309
GRIDFORMAT_END
 95
        8
302
GRIDFORMAT
  1
GRIDFORMAT_BEGIN
 90
        0
 91
        1
 62
     0
 92
       -2
340
14
 93
        0
 40
1.125
309
GRIDFORMAT_END
 95
       16
302
GRIDFORMAT
  1
GRIDFORMAT_BEGIN
 90
        0
 91
        1
 62
     0
 92
       -2
340
14
 93
        0
 40
1.125
309
GRIDFORMAT_END
 95
       32
302
GRIDFORMAT
  1
GRIDFORMAT_BEGIN
 90
        0
 91
        1
 62
     0
 92
       -2
340
14
 93
        0
 40
1.125
309
GRIDFORMAT_END
309
TABLEFORMAT_END
  1
CELLSTYLE_BEGIN
 90
        2
 91
        1
300
_HEADER
309
CELLSTYLE_END
300
CELLSTYLE
  1
TABLEFORMAT_BEGIN
 90
        5
170
     1
 91
        0
 92
        0
 62
   257
 93
        1
300
CONTENTFORMAT
  1
CONTENTFORMAT_BEGIN
 90
        0
 91
        0
 92
      512
 93
        0
300

 40
0.0
140
1.0
 94
        2
 62
     0
340
11
144
4.5
309
CONTENTFORMAT_END
171
     1
301
MARGIN
  1
CELLMARGIN_BEGIN
 40
1.5
 40
1.5
 40
1.5
 40
1.5
 40
4.5
 40
4.5
309
CELLMARGIN_END
 94
        6
 95
        1
302
GRIDFORMAT
  1
GRIDFORMAT_BEGIN
 90
        0
 91
        1
 62
     0
 92
       -2
340
14
 93
        0
 40
1.125
309
GRIDFORMAT_END
 95
        2
302
GRIDFORMAT
  1
GRIDFORMAT_BEGIN
 90
        0
 91
        1
 62
     0
 92
       -2
340
14
 93
        0
 40
1.125
309
GRIDFORMAT_END
 95
        4
302
GRIDFORMAT
  1
GRIDFORMAT_BEGIN
 90
        0
 91
        1
 62
     0
 92
       -2
340
14
 93
        0
 40
1.125
309
GRIDFORMAT_END
 95
        8
302
GRIDFORMAT
  1
GRIDFORMAT_BEGIN
 90
        0
 91
        1
 62
     0
 92
       -2
340
14
 93
        0
 40
1.125
309
GRIDFORMAT_END
 95
       16
302
GRIDFORMAT
  1
GRIDFORMAT_BEGIN
 90
        0
 91
        1
 62
     0
 92
       -2
340
14
 93
        0
 40
1.125
309
GRIDFORMAT_END
 95
       32
302
GRIDFORMAT
  1
GRIDFORMAT_BEGIN
 90
        0
 91
        1
 62
     0
 92
       -2
340
14
 93
        0
 40
1.125
309
GRIDFORMAT_END
309
TABLEFORMAT_END
  1
CELLSTYLE_BEGIN
 90
        3
 91
        2
300
_DATA
309
CELLSTYLE_END
  0
XRECORD
  5
382
102
{ACAD_REACTORS
330
162
102
}
330
162
100
AcDbXrecord
280
     1
102
ACAD_ROUNDTRIP_PRE2007_TABLESTYLE
 90
      512
 91
        0
  1

 92
      512
 93
        0
  2

 94
      512
 95
        0
  3

  0
ENDSEC
  0
EOF
