  0
SECTION
  2
HEADER
  9
$ACADVER
  1
AC1015
  9
$ACADMAINTVER
 70
    20
  9
$DWGCODEPAGE
  3
ANSI_1254
  9
$INSBASE
 10
0.0
 20
0.0
 30
0.0
  9
$EXTMIN
 10
2225.791535010707
 20
754.3448198521718
 30
0.0
  9
$EXTMAX
 10
2289.686930759913
 20
797.4191106379538
 30
0.0
  9
$LIMMIN
 10
0.0
 20
0.0
  9
$LIMMAX
 10
420.0
 20
297.0
  9
$ORTHOMODE
 70
     0
  9
$REGENMODE
 70
     1
  9
$FILLMODE
 70
     1
  9
$QTEXTMODE
 70
     0
  9
$MIRRTEXT
 70
     0
  9
$LTSCALE
 40
1.0
  9
$ATTMODE
 70
     1
  9
$TEXTSIZE
 40
2.5
  9
$TRACEWID
 40
1.0
  9
$TEXTSTYLE
  7
Standard
  9
$CLAYER
  8
0
  9
$CELTYPE
  6
ByLayer
  9
$CECOLOR
 62
   256
  9
$CELTSCALE
 40
1.0
  9
$DISPSILH
 70
     0
  9
$DIMSCALE
 40
1.0
  9
$DIMASZ
 40
2.5
  9
$DIMEXO
 40
0.625
  9
$DIMDLI
 40
3.75
  9
$DIMRND
 40
0.0
  9
$DIMDLE
 40
0.0
  9
$DIMEXE
 40
1.25
  9
$DIMTP
 40
0.0
  9
$DIMTM
 40
0.0
  9
$DIMTXT
 40
2.5
  9
$DIMCEN
 40
2.5
  9
$DIMTSZ
 40
0.0
  9
$DIMTOL
 70
     0
  9
$DIMLIM
 70
     0
  9
$DIMTIH
 70
     0
  9
$DIMTOH
 70
     0
  9
$DIMSE1
 70
     0
  9
$DIMSE2
 70
     0
  9
$DIMTAD
 70
     1
  9
$DIMZIN
 70
     8
  9
$DIMBLK
  1

  9
$DIMASO
 70
     1
  9
$DIMSHO
 70
     1
  9
$DIMPOST
  1

  9
$DIMAPOST
  1

  9
$DIMALT
 70
     0
  9
$DIMALTD
 70
     3
  9
$DIMALTF
 40
0.03937007874016
  9
$DIMLFAC
 40
1.0
  9
$DIMTOFL
 70
     1
  9
$DIMTVP
 40
0.0
  9
$DIMTIX
 70
     0
  9
$DIMSOXD
 70
     0
  9
$DIMSAH
 70
     0
  9
$DIMBLK1
  1

  9
$DIMBLK2
  1

  9
$DIMSTYLE
  2
ISO-25
  9
$DIMCLRD
 70
     0
  9
$DIMCLRE
 70
     0
  9
$DIMCLRT
 70
     0
  9
$DIMTFAC
 40
1.0
  9
$DIMGAP
 40
0.625
  9
$DIMJUST
 70
     0
  9
$DIMSD1
 70
     0
  9
$DIMSD2
 70
     0
  9
$DIMTOLJ
 70
     0
  9
$DIMTZIN
 70
     8
  9
$DIMALTZ
 70
     0
  9
$DIMALTTZ
 70
     0
  9
$DIMUPT
 70
     0
  9
$DIMDEC
 70
     2
  9
$DIMTDEC
 70
     2
  9
$DIMALTU
 70
     2
  9
$DIMALTTD
 70
     3
  9
$DIMTXSTY
  7
Standard
  9
$DIMAUNIT
 70
     0
  9
$DIMADEC
 70
     0
  9
$DIMALTRND
 40
0.0
  9
$DIMAZIN
 70
     0
  9
$DIMDSEP
 70
    44
  9
$DIMATFIT
 70
     3
  9
$DIMFRAC
 70
     0
  9
$DIMLDRBLK
  1

  9
$DIMLUNIT
 70
     2
  9
$DIMLWD
 70
    -2
  9
$DIMLWE
 70
    -2
  9
$DIMTMOVE
 70
     0
  9
$LUNITS
 70
     2
  9
$LUPREC
 70
     4
  9
$SKETCHINC
 40
1.0
  9
$FILLETRAD
 40
0.0
  9
$AUNITS
 70
     0
  9
$AUPREC
 70
     0
  9
$MENU
  1
.
  9
$ELEVATION
 40
0.0
  9
$PELEVATION
 40
0.0
  9
$THICKNESS
 40
0.0
  9
$LIMCHECK
 70
     0
  9
$CHAMFERA
 40
0.0
  9
$CHAMFERB
 40
0.0
  9
$CHAMFERC
 40
0.0
  9
$CHAMFERD
 40
0.0
  9
$SKPOLY
 70
     0
  9
$TDCREATE
 40
2459004.682924665
  9
$TDUCREATE
 40
2459004.557924664
  9
$TDUPDATE
 40
2459067.624166551
  9
$TDUUPDATE
 40
2459067.499166551
  9
$TDINDWG
 40
0.0010165972
  9
$TDUSRTIMER
 40
0.0010165972
  9
$USRTIMER
 70
     1
  9
$ANGBASE
 50
0.0
  9
$ANGDIR
 70
     0
  9
$PDMODE
 70
     0
  9
$PDSIZE
 40
0.0
  9
$PLINEWID
 40
0.0
  9
$SPLFRAME
 70
     0
  9
$SPLINETYPE
 70
     6
  9
$SPLINESEGS
 70
     8
  9
$HANDSEED
  5
383
  9
$SURFTAB1
 70
     6
  9
$SURFTAB2
 70
     6
  9
$SURFTYPE
 70
     6
  9
$SURFU
 70
     6
  9
$SURFV
 70
     6
  9
$UCSBASE
  2

  9
$UCSNAME
  2

  9
$UCSORG
 10
0.0
 20
0.0
 30
0.0
  9
$UCSXDIR
 10
1.0
 20
0.0
 30
0.0
  9
$UCSYDIR
 10
0.0
 20
1.0
 30
0.0
  9
$UCSORTHOREF
  2

  9
$UCSORTHOVIEW
 70
     0
  9
$UCSORGTOP
 10
0.0
 20
0.0
 30
0.0
  9
$UCSORGBOTTOM
 10
0.0
 20
0.0
 30
0.0
  9
$UCSORGLEFT
 10
0.0
 20
0.0
 30
0.0
  9
$UCSORGRIGHT
 10
0.0
 20
0.0
 30
0.0
  9
$UCSORGFRONT
 10
0.0
 20
0.0
 30
0.0
  9
$UCSORGBACK
 10
0.0
 20
0.0
 30
0.0
  9
$PUCSBASE
  2

  9
$PUCSNAME
  2

  9
$PUCSORG
 10
0.0
 20
0.0
 30
0.0
  9
$PUCSXDIR
 10
1.0
 20
0.0
 30
0.0
  9
$PUCSYDIR
 10
0.0
 20
1.0
 30
0.0
  9
$PUCSORTHOREF
  2

  9
$PUCSORTHOVIEW
 70
     0
  9
$PUCSORGTOP
 10
0.0
 20
0.0
 30
0.0
  9
$PUCSORGBOTTOM
 10
0.0
 20
0.0
 30
0.0
  9
$PUCSORGLEFT
 10
0.0
 20
0.0
 30
0.0
  9
$PUCSORGRIGHT
 10
0.0
 20
0.0
 30
0.0
  9
$PUCSORGFRONT
 10
0.0
 20
0.0
 30
0.0
  9
$PUCSORGBACK
 10
0.0
 20
0.0
 30
0.0
  9
$USERI1
 70
     0
  9
$USERI2
 70
     0
  9
$USERI3
 70
     0
  9
$USERI4
 70
     0
  9
$USERI5
 70
     0
  9
$USERR1
 40
0.0
  9
$USERR2
 40
0.0
  9
$USERR3
 40
0.0
  9
$USERR4
 40
0.0
  9
$USERR5
 40
0.0
  9
$WORLDVIEW
 70
     1
  9
$SHADEDGE
 70
     3
  9
$SHADEDIF
 70
    70
  9
$TILEMODE
 70
     1
  9
$MAXACTVP
 70
    64
  9
$PINSBASE
 10
0.0
 20
0.0
 30
0.0
  9
$PLIMCHECK
 70
     0
  9
$PEXTMIN
 10
0.0
 20
0.0
 30
0.0
  9
$PEXTMAX
 10
0.0
 20
0.0
 30
0.0
  9
$PLIMMIN
 10
0.0
 20
0.0
  9
$PLIMMAX
 10
12.0
 20
9.0
  9
$UNITMODE
 70
     0
  9
$VISRETAIN
 70
     1
  9
$PLINEGEN
 70
     0
  9
$PSLTSCALE
 70
     1
  9
$TREEDEPTH
 70
  3020
  9
$CMLSTYLE
  2
Standard
  9
$CMLJUST
 70
     0
  9
$CMLSCALE
 40
20.0
  9
$PROXYGRAPHICS
 70
     1
  9
$MEASUREMENT
 70
     1
  9
$CELWEIGHT
370
    -1
  9
$ENDCAPS
280
     0
  9
$JOINSTYLE
280
     0
  9
$LWDISPLAY
290
     0
  9
$INSUNITS
 70
     4
  9
$HYPERLINKBASE
  1

  9
$STYLESHEET
  1

  9
$XEDIT
290
     1
  9
$CEPSNTYPE
380
     0
  9
$PSTYLEMODE
290
     1
  9
$FINGERPRINTGUID
  2
{CA53EC02-F907-4E63-A93B-34D852F409D2}
  9
$VERSIONGUID
  2
{6A210DB6-17F3-42F3-A66C-3A0237CE750D}
  9
$EXTNAMES
290
     1
  9
$PSVPSCALE
 40
0.0
  9
$OLESTARTUP
290
     0
  0
ENDSEC
  0
SECTION
  2
CLASSES
  0
CLASS
  1
ACDBDICTIONARYWDFLT
  2
AcDbDictionaryWithDefault
  3
ObjectDBX Classes
 90
        0
280
     0
281
     0
  0
CLASS
  1
ACDBPLACEHOLDER
  2
AcDbPlaceHolder
  3
ObjectDBX Classes
 90
        0
280
     0
281
     0
  0
CLASS
  1
LAYOUT
  2
AcDbLayout
  3
ObjectDBX Classes
 90
        0
280
     0
281
     0
  0
CLASS
  1
DICTIONARYVAR
  2
AcDbDictionaryVar
  3
ObjectDBX Classes
 90
        0
280
     0
281
     0
  0
CLASS
  1
TABLESTYLE
  2
AcDbTableStyle
  3
ObjectDBX Classes
 90
     4095
280
     0
281
     0
  0
CLASS
  1
MATERIAL
  2
AcDbMaterial
  3
ObjectDBX Classes
 90
     1153
280
     0
281
     0
  0
CLASS
  1
VISUALSTYLE
  2
AcDbVisualStyle
  3
ObjectDBX Classes
 90
     4095
280
     0
281
     0
  0
CLASS
  1
SCALE
  2
AcDbScale
  3
ObjectDBX Classes
 90
     1153
280
     0
281
     0
  0
CLASS
  1
MLEADERSTYLE
  2
AcDbMLeaderStyle
  3
ACDB_MLEADERSTYLE_CLASS
 90
     4095
280
     0
281
     0
  0
CLASS
  1
CELLSTYLEMAP
  2
AcDbCellStyleMap
  3
ObjectDBX Classes
 90
     1152
280
     0
281
     0
  0
ENDSEC
  0
SECTION
  2
TABLES
  0
TABLE
  2
VPORT
  5
8
330
0
100
AcDbSymbolTable
 70
     1
  0
VPORT
  5
EA
330
8
100
AcDbSymbolTableRecord
100
AcDbViewportTableRecord
  2
*Active
 70
     0
 10
0.0
 20
0.0
 11
1.0
 21
1.0
 12
2262.470742449578
 22
785.034365694064
 13
0.0
 23
0.0
 14
10.0
 24
10.0
 15
10.0
 25
10.0
 16
0.0
 26
0.0
 36
1.0
 17
0.0
 27
0.0
 37
0.0
 40
97.35802223257827
 41
1.903110047846889
 42
50.0
 43
0.0
 44
0.0
 50
0.0
 51
0.0
 71
     0
 72
  1000
 73
     1
 74
     3
 75
     0
 76
     0
 77
     0
 78
     0
281
     0
 65
     1
110
0.0
120
0.0
130
0.0
111
1.0
121
0.0
131
0.0
112
0.0
122
1.0
132
0.0
 79
     0
146
0.0
  0
ENDTAB
  0
TABLE
  2
LTYPE
  5
5
330
0
100
AcDbSymbolTable
 70
     1
  0
LTYPE
  5
14
330
5
100
AcDbSymbolTableRecord
100
AcDbLinetypeTableRecord
  2
ByBlock
 70
     0
  3

 72
    65
 73
     0
 40
0.0
  0
LTYPE
  5
15
330
5
100
AcDbSymbolTableRecord
100
AcDbLinetypeTableRecord
  2
ByLayer
 70
     0
  3

 72
    65
 73
     0
 40
0.0
  0
LTYPE
  5
16
330
5
100
AcDbSymbolTableRecord
100
AcDbLinetypeTableRecord
  2
Continuous
 70
     0
  3
Solid line
 72
    65
 73
     0
 40
0.0
  0
ENDTAB
  0
TABLE
  2
LAYER
  5
2
330
0
100
AcDbSymbolTable
 70
     1
  0
LAYER
  5
10
102
{ACAD_XDICTIONARY
360
13C
102
}
330
2
100
AcDbSymbolTableRecord
100
AcDbLayerTableRecord
  2
0
 70
     0
 62
     7
  6
Continuous
370
    -3
390
F
  0
ENDTAB
  0
TABLE
  2
STYLE
  5
3
330
0
100
AcDbSymbolTable
 70
     2
  0
STYLE
  5
11
330
3
100
AcDbSymbolTableRecord
100
AcDbTextStyleTableRecord
  2
Standard
 70
     0
 40
0.0
 41
1.0
 50
0.0
 71
     0
 42
2.5
  3
txt
  4

  0
STYLE
  5
132
330
3
100
AcDbSymbolTableRecord
100
AcDbTextStyleTableRecord
  2
Annotative
 70
     0
 40
0.0
 41
1.0
 50
0.0
 71
     0
 42
2.5
  3
txt.shx
  4

1001
AcadAnnotative
1000
AnnotativeData
1002
{
1070
     1
1070
     1
1002
}
  0
ENDTAB
  0
TABLE
  2
VIEW
  5
6
330
0
100
AcDbSymbolTable
 70
     0
  0
ENDTAB
  0
TABLE
  2
UCS
  5
7
330
0
100
AcDbSymbolTable
 70
     0
  0
ENDTAB
  0
TABLE
  2
APPID
  5
9
330
0
100
AcDbSymbolTable
 70
     7
  0
APPID
  5
12
330
9
100
AcDbSymbolTableRecord
100
AcDbRegAppTableRecord
  2
ACAD
 70
     0
  0
APPID
  5
9E
330
9
100
AcDbSymbolTableRecord
100
AcDbRegAppTableRecord
  2
ACAD_PSEXT
 70
     0
  0
APPID
  5
133
330
9
100
AcDbSymbolTableRecord
100
AcDbRegAppTableRecord
  2
AcadAnnoPO
 70
     0
  0
APPID
  5
134
330
9
100
AcDbSymbolTableRecord
100
AcDbRegAppTableRecord
  2
AcadAnnotative
 70
     0
  0
APPID
  5
135
330
9
100
AcDbSymbolTableRecord
100
AcDbRegAppTableRecord
  2
ACAD_DSTYLE_DIMJAG
 70
     0
  0
APPID
  5
136
330
9
100
AcDbSymbolTableRecord
100
AcDbRegAppTableRecord
  2
ACAD_DSTYLE_DIMTALN
 70
     0
  0
APPID
  5
165
330
9
100
AcDbSymbolTableRecord
100
AcDbRegAppTableRecord
  2
ACAD_MLEADERVER
 70
     0
  0
ENDTAB
  0
TABLE
  2
DIMSTYLE
  5
A
330
0
100
AcDbSymbolTable
 70
     2
100
AcDbDimStyleTable
 71
     2
340
27
340
137
  0
DIMSTYLE
105
27
330
A
100
AcDbSymbolTableRecord
100
AcDbDimStyleTableRecord
  2
ISO-25
 70
     0
 41
2.5
 42
0.625
 43
3.75
 44
1.25
 73
     0
 74
     0
 77
     1
 78
     8
140
2.5
141
2.5
143
0.03937007874016
147
0.625
171
     3
172
     1
271
     2
272
     2
274
     3
278
    44
283
     0
284
     8
340
11
  0
DIMSTYLE
105
137
330
A
100
AcDbSymbolTableRecord
100
AcDbDimStyleTableRecord
  2
Annotative
 70
     0
 40
0.0
 41
2.5
 42
0.625
 43
3.75
 44
1.25
 73
     0
 74
     0
 77
     1
 78
     8
140
2.5
141
2.5
143
0.03937007874016
147
0.625
171
     3
172
     1
271
     2
272
     2
274
     3
278
    44
283
     0
284
     8
340
11
1001
AcadAnnotative
1000
AnnotativeData
1002
{
1070
     1
1070
     1
1002
}
1001
ACAD_DSTYLE_DIMJAG
1070
   388
1040
1.5
1001
ACAD_DSTYLE_DIMTALN
1070
   392
1070
     0
  0
ENDTAB
  0
TABLE
  2
BLOCK_RECORD
  5
1
330
0
100
AcDbSymbolTable
 70
     5
  0
BLOCK_RECORD
  5
1F
330
1
100
AcDbSymbolTableRecord
100
AcDbBlockTableRecord
  2
*Model_Space
340
22
  0
BLOCK_RECORD
  5
D2
330
1
100
AcDbSymbolTableRecord
100
AcDbBlockTableRecord
  2
*Paper_Space
340
D3
  0
BLOCK_RECORD
  5
D6
330
1
100
AcDbSymbolTableRecord
100
AcDbBlockTableRecord
  2
*Paper_Space0
340
D7
  0
BLOCK_RECORD
  5
1AD
330
1
100
AcDbSymbolTableRecord
100
AcDbBlockTableRecord
  2
SW_CENTERMARKSYMBOL_0
340
0
102
{BLKREFS
331
2F0
102
}
  0
BLOCK_RECORD
  5
2D2
330
1
100
AcDbSymbolTableRecord
100
AcDbBlockTableRecord
  2
1
340
0
310
2800000020000000200000000100080000000000000400000000000000000000000000000000000000000000000080000080000000808000800000008000800080800000C0C0C000C0DCC000F0CAA6000020400000206000002080000020A0000020C0000020E00000400000004020000040400000406000004080000040A0
310
000040C0000040E00000600000006020000060400000606000006080000060A0000060C0000060E00000800000008020000080400000806000008080000080A0000080C0000080E00000A0000000A0200000A0400000A0600000A0800000A0A00000A0C00000A0E00000C0000000C0200000C0400000C0600000C0800000C0
310
A00000C0C00000C0E00000E0000000E0200000E0400000E0600000E0800000E0A00000E0C00000E0E00040000000400020004000400040006000400080004000A0004000C0004000E00040200000402020004020400040206000402080004020A0004020C0004020E000404000004040200040404000404060004040800040
310
40A0004040C0004040E00040600000406020004060400040606000406080004060A0004060C0004060E00040800000408020004080400040806000408080004080A0004080C0004080E00040A0000040A0200040A0400040A0600040A0800040A0A00040A0C00040A0E00040C0000040C0200040C0400040C0600040C08000
310
40C0A00040C0C00040C0E00040E0000040E0200040E0400040E0600040E0800040E0A00040E0C00040E0E00080000000800020008000400080006000800080008000A0008000C0008000E00080200000802020008020400080206000802080008020A0008020C0008020E00080400000804020008040400080406000804080
310
008040A0008040C0008040E00080600000806020008060400080606000806080008060A0008060C0008060E00080800000808020008080400080806000808080008080A0008080C0008080E00080A0000080A0200080A0400080A0600080A0800080A0A00080A0C00080A0E00080C0000080C0200080C0400080C0600080C0
310
800080C0A00080C0C00080C0E00080E0000080E0200080E0400080E0600080E0800080E0A00080E0C00080E0E000C0000000C0002000C0004000C0006000C0008000C000A000C000C000C000E000C0200000C0202000C0204000C0206000C0208000C020A000C020C000C020E000C0400000C0402000C0404000C0406000C0
310
408000C040A000C040C000C040E000C0600000C0602000C0604000C0606000C0608000C060A000C060C000C060E000C0800000C0802000C0804000C0806000C0808000C080A000C080C000C080E000C0A00000C0A02000C0A04000C0A06000C0A08000C0A0A000C0A0C000C0A0E000C0C00000C0C02000C0C04000C0C06000
310
C0C08000C0C0A000F0FBFF00A4A0A000808080000000FF0000FF000000FFFF00FF000000FF00FF00FFFF0000FFFFFF00000000000000000000000000000000000000000000000000000000000000000000000000000000000000000000000000FF000000000000000000000000000000000000000000000000000000000000
310
00FF00000000000000000000000000000000000000000000000000000000000000FF000000000000000000000000000000000000000000000000000000000000FFFFFF00000000000000000000000000000000000000000000000000FFFFFFFFFFFFFFFFFFFF0000000000000000000000000000000000000000FFFFFF0000
310
0000FF000000FFFFFF00000000000000000000000000000000FFFF00000000000000FF000000000000FFFF0000000000000000000000000000FFFF00000000000000FF000000000000FFFF00000000000000000000000000FFFF000000000000FFFFFF00000000000000FFFF000000000000000000000000FFFF00000000FF
310
FFFFFFFFFFFFFF00000000FFFF000000000000000000000000FF00000000FFFF0000000000FFFFFF00000000FFFF00000000000000000000FFFF000000FFFF0000000000000000FFFF000000FFFF00000000000000000000FF00000000FF0000000000FF00000000FFFF000000FF000000000000000000FFFF000000FFFF00
310
00000000FF00000000FFFF000000FFFF0000000000000000FF00000000FFFF0000000000FF00000000FFFF00000000FF0000000000FFFFFFFFFFFFFFFFFFFF0000FFFFFFFFFFFF0000FFFFFFFFFFFFFFFFFFFF000000000000FF00000000FF0000000000FF00000000FFFF000000FF00000000000000000000FF00000000FF
310
FF00000000FF00000000FF00000000FF00000000000000000000FFFF000000A4FF0000000000000000FFFF000000FFFF0000000000000000000000FF00000000FFFF000000000000FFFF00000000FF000000000000000000000000FFFF00000000FFFFFFFFFFFFFFFF00000000FFFF000000000000000000000000FFFF0000
310
000000000000FF00000000000000FFFF00000000000000000000000000FFFF00000000000000FF000000000000FFFF0000000000000000000000000000FFFF00000000000000FF000000000000FFFF00000000000000000000000000000000FFFFFF00000000FF00000000FFFF000000000000000000000000000000000000
310
00FFFFFFFFFFFFFFFFFFFFFFFF00000000000000000000000000000000000000000000000000FFFFFF000000000000000000000000000000000000000000000000000000000000FF00000000000000000000000000000000000000000000000000000000000000FF0000000000000000000000000000000000000000000000
310
0000000000000000FF0000000000000000000000000000000000000000000000000000000000000000000000000000000000000000000000
102
{BLKREFS
331
2F1
102
}
1001
ACAD
1000
DesignCenter Data
1002
{
1070
     1
1070
     4
1002
}
  0
BLOCK_RECORD
  5
2F2
330
1
100
AcDbSymbolTableRecord
100
AcDbBlockTableRecord
  2
2
340
0
310
2800000020000000200000000100080000000000000400000000000000000000000000000000000000000000000080000080000000808000800000008000800080800000C0C0C000C0DCC000F0CAA6000020400000206000002080000020A0000020C0000020E00000400000004020000040400000406000004080000040A0
310
000040C0000040E00000600000006020000060400000606000006080000060A0000060C0000060E00000800000008020000080400000806000008080000080A0000080C0000080E00000A0000000A0200000A0400000A0600000A0800000A0A00000A0C00000A0E00000C0000000C0200000C0400000C0600000C0800000C0
310
A00000C0C00000C0E00000E0000000E0200000E0400000E0600000E0800000E0A00000E0C00000E0E00040000000400020004000400040006000400080004000A0004000C0004000E00040200000402020004020400040206000402080004020A0004020C0004020E000404000004040200040404000404060004040800040
310
40A0004040C0004040E00040600000406020004060400040606000406080004060A0004060C0004060E00040800000408020004080400040806000408080004080A0004080C0004080E00040A0000040A0200040A0400040A0600040A0800040A0A00040A0C00040A0E00040C0000040C0200040C0400040C0600040C08000
310
40C0A00040C0C00040C0E00040E0000040E0200040E0400040E0600040E0800040E0A00040E0C00040E0E00080000000800020008000400080006000800080008000A0008000C0008000E00080200000802020008020400080206000802080008020A0008020C0008020E00080400000804020008040400080406000804080
310
008040A0008040C0008040E00080600000806020008060400080606000806080008060A0008060C0008060E00080800000808020008080400080806000808080008080A0008080C0008080E00080A0000080A0200080A0400080A0600080A0800080A0A00080A0C00080A0E00080C0000080C0200080C0400080C0600080C0
310
800080C0A00080C0C00080C0E00080E0000080E0200080E0400080E0600080E0800080E0A00080E0C00080E0E000C0000000C0002000C0004000C0006000C0008000C000A000C000C000C000E000C0200000C0202000C0204000C0206000C0208000C020A000C020C000C020E000C0400000C0402000C0404000C0406000C0
310
408000C040A000C040C000C040E000C0600000C0602000C0604000C0606000C0608000C060A000C060C000C060E000C0800000C0802000C0804000C0806000C0808000C080A000C080C000C080E000C0A00000C0A02000C0A04000C0A06000C0A08000C0A0A000C0A0C000C0A0E000C0C00000C0C02000C0C04000C0C06000
310
C0C08000C0C0A000F0FBFF00A4A0A000808080000000FF0000FF000000FFFF00FF000000FF00FF00FFFF0000FFFFFF0000000000000000000000000000000000000000000000000000000000000000000000000000000000000000000000000000000000000000000000000000000000000000000000000000000000000000
310
00000000000000000000000000000000000000000000000000000000000000000000000000000000000000000000000000000000000000000000000000000000000000000000000000000000000000000000000000000000000000000000000000000000000000000000000000000000000000000000000000000000000000
310
00000000000000000000000000000000000000000000000000000000000000000000000000000000000000000000000000000000000000000000000000000000000000000000000000000000000000000000000000000000000000000000000000000000000000000000000000000000000000000000000000000000000000
310
0000000000000000000000000000000000000000000000000000000000000000000000000000000000000000000000000000000000FFFFFFFFFFFFFFFFFFFFFFFFFFFFFFFFFFFFFFFFFFFFFFFFFFFFFFFF00000000FF0000000000FF00FF00000000000000000000FF00FF0000000000FF00000000FF0000000000FF00FF00
310
000000000000000000FF00FF0000000000FF00000000FF0000000000FF00FF00000000000000000000FF00FF0000000000FF00000000FF0000000000FF00FF00000000000000000000FF00FF0000000000FF000000FFFFFFFFFFFFFFFFFFFFFFFFFFFFFFFFFFFFFFFFFFFFFFFFFFFFFFFFFFFF0000FF000000000000000000
310
00000000000000000000000000000000000000FF0000FFFFFFFFFFFFFFFFFFFFFFFFFFFFFFFFFFFFFFFFFFFFFFFFFFFFFFFFFFFF000000000000000000000000000000000000000000000000000000000000000000000000000000000000000000000000000000000000000000000000000000000000000000000000000000
310
00000000000000000000000000000000000000000000000000000000000000000000000000000000000000000000000000000000000000000000000000000000000000000000000000000000000000000000000000000000000000000000000000000000000000000000000000000000000000000000000000000000000000
310
00000000000000000000000000000000000000000000000000000000000000000000000000000000000000000000000000000000000000000000000000000000000000000000000000000000000000000000000000000000000000000000000000000000000000000000000000000000000000000000000000000000000000
310
0000000000000000000000000000000000000000000000000000000000000000000000000000000000000000000000000000000000000000
102
{BLKREFS
331
308
102
}
1001
ACAD
1000
DesignCenter Data
1002
{
1070
     1
1070
     4
1002
}
  0
BLOCK_RECORD
  5
309
330
1
100
AcDbSymbolTableRecord
100
AcDbBlockTableRecord
  2
3
340
0
310
2800000020000000200000000100080000000000000400000000000000000000000000000000000000000000000080000080000000808000800000008000800080800000C0C0C000C0DCC000F0CAA6000020400000206000002080000020A0000020C0000020E00000400000004020000040400000406000004080000040A0
310
000040C0000040E00000600000006020000060400000606000006080000060A0000060C0000060E00000800000008020000080400000806000008080000080A0000080C0000080E00000A0000000A0200000A0400000A0600000A0800000A0A00000A0C00000A0E00000C0000000C0200000C0400000C0600000C0800000C0
310
A00000C0C00000C0E00000E0000000E0200000E0400000E0600000E0800000E0A00000E0C00000E0E00040000000400020004000400040006000400080004000A0004000C0004000E00040200000402020004020400040206000402080004020A0004020C0004020E000404000004040200040404000404060004040800040
310
40A0004040C0004040E00040600000406020004060400040606000406080004060A0004060C0004060E00040800000408020004080400040806000408080004080A0004080C0004080E00040A0000040A0200040A0400040A0600040A0800040A0A00040A0C00040A0E00040C0000040C0200040C0400040C0600040C08000
310
40C0A00040C0C00040C0E00040E0000040E0200040E0400040E0600040E0800040E0A00040E0C00040E0E00080000000800020008000400080006000800080008000A0008000C0008000E00080200000802020008020400080206000802080008020A0008020C0008020E00080400000804020008040400080406000804080
310
008040A0008040C0008040E00080600000806020008060400080606000806080008060A0008060C0008060E00080800000808020008080400080806000808080008080A0008080C0008080E00080A0000080A0200080A0400080A0600080A0800080A0A00080A0C00080A0E00080C0000080C0200080C0400080C0600080C0
310
800080C0A00080C0C00080C0E00080E0000080E0200080E0400080E0600080E0800080E0A00080E0C00080E0E000C0000000C0002000C0004000C0006000C0008000C000A000C000C000C000E000C0200000C0202000C0204000C0206000C0208000C020A000C020C000C020E000C0400000C0402000C0404000C0406000C0
310
408000C040A000C040C000C040E000C0600000C0602000C0604000C0606000C0608000C060A000C060C000C060E000C0800000C0802000C0804000C0806000C0808000C080A000C080C000C080E000C0A00000C0A02000C0A04000C0A06000C0A08000C0A0A000C0A0C000C0A0E000C0C00000C0C02000C0C04000C0C06000
310
C0C08000C0C0A000F0FBFF00A4A0A000808080000000FF0000FF000000FFFF00FF000000FF00FF00FFFF0000FFFFFF0000000000000000000000000000000000000000000000000000000000000000000000000000000000000000000000000000000000000000000000000000000000000000000000000000000000000000
310
0000000000000000000000000000000000000000000000000000000000000000000000000000000000000000000000000000000000000000000000000000FFFFFFFFFF00000000000000000000000000000000000000000000FFFFFFFFFF00FFFFFFFFFFFFFFFFFF000000000000000000000000000000FFFFFFFFFFFFFFFF
310
FFFFFFFFFFFFFFFFFFFFFF000000000000000000000000FFFFFFFFFFFFFFFFFF0000000000FF00FFFFFFFFFFFF00000000000000000000FFFFFF0000000000000000000000FF00FF00FFFFFFFFFF00000000000000FFFFFFFFFF0000000000000000000000FF00FF000000FFFFFFFF000000000000FF00FFFFFF0000000000
310
00FFFFFFFFFFFF00FF00000000FFFFFFFF00000000FF00FFFF00FFFFFFFFFFFFFF000000000000FFFF0000000000FFFFFF00000000FF00FFFFFF000000000000000000000000000000FFFF0000000000FF000000FFFFFFFF000000000000000000FFFFFF00000000000000FF00000000FFFF0000FF00FFFF0000000000FFFF
310
FFFF000000FFFFFFFF00000000FFFF0000FFFF0000FFFFFF0000000000FFFF000000000000000000FFFFFF00000000FFFFFFFF000000FFFF00000000FFFFFF00000000000000000000FFFFFF0000000000FF00000000FF00000000FFFFFFFFFFFF0000000000FFFFFFFFFFFF0000000000FF000000FFFF00000000FFFFFFFF
310
FFFFFFFFFFFFFFFFFFFFFFFFFF0000000000FF000000FF0000000000FFFFFFFFFFFFFFFFFFFFFFFFFFFFFFFFFF00000000FF0000000000FF0000000000FFFFFFFFFFFFFFFFFFFFFFFFFFFFFFFF00000000FF000000000000FFFF00000000FFFFFFFFFFFFFFFFFFFFFFFFFFFFFF000000FF000000000000000000FF00000000
310
A4FFFFFFFFFFFFFFFFFFFFFF0000000000FF00000000000000000000FF000000000000FFFFFFFFFFFFFF000000000000FF000000000000000000000000FFFF0000000000000000000000000000000000FF0000000000000000000000000000FF000000000000000000000000000000FF000000000000000000000000000000
310
00FF0000000000000000FFFFFFFFFFFF000000000000000000000000000000000000FFFFFFFFFFFFFFFF00000000000000000000000000000000000000000000000000000000000000000000000000000000000000000000000000000000000000000000000000000000000000000000000000000000000000000000000000
310
0000000000000000000000000000000000000000000000000000000000000000000000000000000000000000000000000000000000000000
102
{BLKREFS
331
368
102
}
1001
ACAD
1000
DesignCenter Data
1002
{
1070
     1
1070
     4
1002
}
  0
ENDTAB
  0
ENDSEC
  0
SECTION
  2
BLOCKS
  0
BLOCK
  5
20
330
1F
100
AcDbEntity
  8
0
100
AcDbBlockBegin
  2
*Model_Space
 70
     0
 10
0.0
 20
0.0
 30
0.0
  3
*Model_Space
  1

  0
ENDBLK
  5
21
330
1F
100
AcDbEntity
  8
0
100
AcDbBlockEnd
  0
BLOCK
  5
D4
330
D2
100
AcDbEntity
 67
     1
  8
0
100
AcDbBlockBegin
  2
*Paper_Space
 70
     0
 10
0.0
 20
0.0
 30
0.0
  3
*Paper_Space
  1

  0
ENDBLK
  5
D5
330
D2
100
AcDbEntity
 67
     1
  8
0
100
AcDbBlockEnd
  0
BLOCK
  5
D8
330
D6
100
AcDbEntity
 67
     1
  8
0
100
AcDbBlockBegin
  2
*Paper_Space0
 70
     0
 10
0.0
 20
0.0
 30
0.0
  3
*Paper_Space0
  1

  0
ENDBLK
  5
D9
330
D6
100
AcDbEntity
 67
     1
  8
0
100
AcDbBlockEnd
  0
BLOCK
  5
1AE
330
1AD
100
AcDbEntity
  8
0
100
AcDbBlockBegin
  2
SW_CENTERMARKSYMBOL_0
 70
     0
 10
0.0
 20
0.0
 30
0.0
  3
SW_CENTERMARKSYMBOL_0
  1

  0
LINE
  5
1AF
330
1AD
100
AcDbEntity
  8
0
  6
Continuous
 62
     0
370
     0
100
AcDbLine
 10
0.0
 20
0.0
 30
0.0
 11
0.0
 21
2.500000000000002
 31
0.0
  0
LINE
  5
1B0
330
1AD
100
AcDbEntity
  8
0
  6
Continuous
 62
     0
370
     0
100
AcDbLine
 10
0.0
 20
0.0
 30
0.0
 11
-2.500000000000002
 21
0.0
 31
0.0
  0
LINE
  5
1B1
330
1AD
100
AcDbEntity
  8
0
  6
Continuous
 62
     0
370
     0
100
AcDbLine
 10
0.0
 20
0.0
 30
0.0
 11
0.0
 21
-2.500000000000002
 31
0.0
  0
LINE
  5
1B2
330
1AD
100
AcDbEntity
  8
0
  6
Continuous
 62
     0
370
     0
100
AcDbLine
 10
0.0
 20
0.0
 30
0.0
 11
2.500000000000002
 21
0.0
 31
0.0
  0
LINE
  5
1B3
330
1AD
100
AcDbEntity
  8
0
  6
Continuous
 62
     0
370
     0
100
AcDbLine
 10
0.0
 20
5.000000000000004
 30
0.0
 11
0.0
 21
13.1
 31
0.0
  0
LINE
  5
1B4
330
1AD
100
AcDbEntity
  8
0
  6
Continuous
 62
     0
370
     0
100
AcDbLine
 10
-5.000000000000004
 20
0.0
 30
0.0
 11
-13.1
 21
0.0
 31
0.0
  0
LINE
  5
1B5
330
1AD
100
AcDbEntity
  8
0
  6
Continuous
 62
     0
370
     0
100
AcDbLine
 10
0.0
 20
-5.000000000000004
 30
0.0
 11
0.0
 21
-13.1
 31
0.0
  0
LINE
  5
1B6
330
1AD
100
AcDbEntity
  8
0
  6
Continuous
 62
     0
370
     0
100
AcDbLine
 10
5.000000000000004
 20
0.0
 30
0.0
 11
13.1
 21
0.0
 31
0.0
  0
ENDBLK
  5
1B7
330
1AD
100
AcDbEntity
  8
0
100
AcDbBlockEnd
  0
BLOCK
  5
2D3
330
2D2
100
AcDbEntity
  8
0
100
AcDbBlockBegin
  2
1
 70
     0
 10
0.0
 20
0.0
 30
0.0
  3
1
  1

  0
SPLINE
  5
2D5
330
2D2
100
AcDbEntity
  8
0
  6
Continuous
 62
     7
370
    15
100
AcDbSpline
210
0.0
220
0.0
230
1.0
 70
     8
 71
     3
 72
    28
 73
    24
 74
     0
 42
0.0000000001
 43
0.0000000001
 40
0.0
 40
0.0
 40
0.0
 40
0.0
 40
0.1250000000000001
 40
0.1250000000000001
 40
0.1875000000000002
 40
0.1875000000000002
 40
0.2500000000000003
 40
0.2500000000000003
 40
0.3750000000000002
 40
0.3750000000000002
 40
0.4375000000000002
 40
0.4375000000000002
 40
0.5000000000000001
 40
0.5000000000000001
 40
0.6250000000000002
 40
0.6250000000000002
 40
0.7500000000000002
 40
0.7500000000000002
 40
0.8125000000000001
 40
0.8125000000000001
 40
0.8750000000000001
 40
0.8750000000000001
 40
1.0
 40
1.0
 40
1.0
 40
1.0
 10
2241.68245857207
 20
789.120466397967
 30
0.0
 10
2242.022210631187
 20
788.945979450146
 30
0.0
 10
2242.338371419762
 20
788.7400129198655
 30
0.0
 10
2242.778652379192
 20
788.3857474788977
 30
0.0
 10
2242.919707914397
 20
788.2600466812534
 30
0.0
 10
2243.190109938254
 20
787.9930208364835
 30
0.0
 10
2243.319287175677
 20
787.8516582275477
 30
0.0
 10
2243.680396573185
 20
787.4137135962435
 30
0.0
 10
2243.889005911047
 20
787.1001574013145
 30
0.0
 10
2244.156327875421
 20
786.5991830252863
 30
0.0
 10
2244.238095519603
 20
786.4260450362937
 30
0.0
 10
2244.383149521977
 20
786.075120653723
 30
0.0
 10
2244.446632331492
 20
785.8972256408856
 30
0.0
 10
2244.610579042296
 20
785.3564118337194
 30
0.0
 10
2244.68479757793
 20
784.9864332275769
 30
0.0
 10
2244.760297769526
 20
784.226856526979
 30
0.0
 10
2244.760340463319
 20
783.8494439067852
 30
0.0
 10
2244.70614805201
 20
783.2873885439312
 30
0.0
 10
2244.678978266484
 20
783.1006817377322
 30
0.0
 10
2244.606031523923
 20
782.7285861292068
 30
0.0
 10
2244.560069577538
 20
782.5425914531182
 30
0.0
 10
2244.398046864757
 20
781.9976298447048
 30
0.0
 10
2244.257226812361
 20
781.6482357271172
 30
0.0
 10
2244.083931900071
 20
781.312615245753
 30
0.0
  0
SPLINE
  5
2D6
330
2D2
100
AcDbEntity
  8
0
  6
Continuous
 62
     7
370
    15
100
AcDbSpline
210
0.0
220
0.0
230
1.0
 70
     8
 71
     3
 72
    61
 73
    57
 74
     0
 42
0.0000000001
 43
0.0000000001
 40
0.0
 40
0.0
 40
0.0
 40
0.0
 40
0.0185935823499066
 40
0.0368945424733848
 40
0.0551516859325818
 40
0.0737003251254366
 40
0.0924283832071168
 40
0.1112170231965483
 40
0.1299450812782284
 40
0.1484937204710833
 40
0.1667508639302803
 40
0.1850080073894773
 40
0.2035566465823321
 40
0.2222847046640123
 40
0.2410733446534438
 40
0.2598014027351239
 40
0.2783500419279788
 40
0.2966071853871757
 40
0.3148643288463728
 40
0.3334129680392277
 40
0.3521410261209078
 40
0.3709296661103394
 40
0.3896577241920195
 40
0.4082063633848743
 40
0.4264635068440713
 40
0.4447206503032684
 40
0.4632692894961232
 40
0.4819973475778033
 40
0.5007859875672348
 40
0.5195140456489149
 40
0.5380626848417699
 40
0.5563198283009668
 40
0.5745769717601639
 40
0.5931256109530187
 40
0.6118536690346989
 40
0.6306423090241307
 40
0.6493703671058109
 40
0.6679190062986658
 40
0.6861761497578624
 40
0.7044332932170595
 40
0.7229819324099143
 40
0.7417099904915943
 40
0.7604986304810258
 40
0.7792266885627058
 40
0.7977753277555605
 40
0.8160324712147575
 40
0.8342896146739548
 40
0.8528382538668095
 40
0.8715663119484895
 40
0.8903549519379209
 40
0.9090830100196011
 40
0.9276316492124559
 40
0.9458887926716531
 40
0.96414593613085
 40
0.9826945753237048
 40
1.0
 40
1.0
 40
1.0
 40
1.0
 10
2239.103915643477
 20
789.8150086052403
 30
0.0
 10
2239.309674506811
 20
789.800360106885
 30
0.0
 10
2239.717954040025
 20
789.7712936454267
 30
0.0
 10
2240.317316350083
 20
789.6418869072301
 30
0.0
 10
2240.898872931596
 20
789.4521486340391
 30
0.0
 10
2241.459900847721
 20
789.1957183256304
 30
0.0
 10
2241.993631490666
 20
788.8751188513404
 30
0.0
 10
2242.489205257022
 20
788.4948492489882
 30
0.0
 10
2242.937114012659
 20
788.0623316295416
 30
0.0
 10
2243.329765506664
 20
787.5867235824703
 30
0.0
 10
2243.664300021594
 20
787.0748190709816
 30
0.0
 10
2243.940381337134
 20
786.52916426405
 30
0.0
 10
2244.155970414014
 20
785.9513250213414
 30
0.0
 10
2244.306620851176
 20
785.3471704342353
 30
0.0
 10
2244.38816831445
 20
784.7278696538496
 30
0.0
 10
2244.399047459097
 20
784.1053104557301
 30
0.0
 10
2244.3403893836
 20
783.4913592343761
 30
0.0
 10
2244.214969575995
 20
782.8928361991219
 30
0.0
 10
2244.024352407145
 20
782.3117810840499
 30
0.0
 10
2243.768202837971
 20
781.7507425199427
 30
0.0
 10
2243.447526983808
 20
781.2170147739618
 30
0.0
 10
2243.067277965174
 20
780.7214402268995
 30
0.0
 10
2242.634754851847
 20
780.2735316796363
 30
0.0
 10
2242.159148256849
 20
779.8808801305563
 30
0.0
 10
2241.6472433635
 20
779.5463456301097
 30
0.0
 10
2241.101588658677
 20
779.2702643106971
 30
0.0
 10
2240.523749388131
 20
779.0546752348725
 30
0.0
 10
2239.919594808599
 20
778.9040247974229
 30
0.0
 10
2239.300294026172
 20
778.8224773342273
 30
0.0
 10
2238.677734828597
 20
778.8115981895597
 30
0.0
 10
2238.063783607099
 20
778.8702562650617
 30
0.0
 10
2237.465260571883
 20
778.9956760726647
 30
0.0
 10
2236.884205456801
 20
779.1862932415159
 30
0.0
 10
2236.323166892696
 20
779.4424428106895
 30
0.0
 10
2235.789439146715
 20
779.7631186648526
 30
0.0
 10
2235.293864599652
 20
780.1433676834863
 30
0.0
 10
2234.845956052389
 20
780.5758907968139
 30
0.0
 10
2234.453304503309
 20
781.0514973918107
 30
0.0
 10
2234.118770002862
 20
781.5634022851631
 30
0.0
 10
2233.842688683452
 20
782.1090569899739
 30
0.0
 10
2233.627099607618
 20
782.6868962605657
 30
0.0
 10
2233.476449170204
 20
783.2910508399257
 30
0.0
 10
2233.394901706875
 20
783.9103516229982
 30
0.0
 10
2233.3840225627
 20
784.5329108181767
 30
0.0
 10
2233.442680636393
 20
785.1468620484824
 30
0.0
 10
2233.568100450631
 20
785.7453850513906
 30
0.0
 10
2233.758717594669
 20
786.3264402872975
 30
0.0
 10
2234.014867258199
 20
786.8874783919505
 30
0.0
 10
2234.335542755369
 20
787.4212078762544
 30
0.0
 10
2234.715793111532
 20
787.916775910409
 30
0.0
 10
2235.1483112617
 20
788.3647086250768
 30
0.0
 10
2235.623936099116
 20
788.7572713452758
 30
0.0
 10
2236.135774078658
 20
789.0921316730636
 30
0.0
 10
2236.681679024181
 20
789.3669944806998
 30
0.0
 10
2237.243788351191
 20
789.5815755697273
 30
0.0
 10
2237.631832009411
 20
789.6688834729273
 30
0.0
 10
2237.819126267685
 20
789.7110237543745
 30
0.0
  0
LINE
  5
2D7
330
2D2
100
AcDbEntity
  8
0
  6
Continuous
 62
     7
370
    15
100
AcDbLine
 10
2238.61527454774
 20
789.8063034261954
 30
0.0
 11
2239.106868988688
 21
789.8148936829736
 31
0.0
  0
LINE
  5
2D8
330
2D2
100
AcDbEntity
  8
0
  6
Continuous
 62
     7
370
    15
100
AcDbLine
 10
2243.664505723256
 20
781.6009739584997
 30
0.0
 11
2243.527972727726
 21
781.3604884423705
 31
0.0
  0
SPLINE
  5
2D9
330
2D2
100
AcDbEntity
  8
0
  6
Continuous
 62
     7
370
    15
100
AcDbSpline
210
0.0
220
0.0
230
1.0
 70
     8
 71
     3
 72
    10
 73
     6
 74
     0
 42
0.0000000001
 43
0.0000000001
 40
0.0
 40
0.0
 40
0.0
 40
0.0
 40
0.5
 40
0.5
 40
1.0
 40
1.0
 40
1.0
 40
1.0
 10
2239.103915643477
 20
789.8150086052403
 30
0.0
 10
2239.552632533206
 20
789.7976686223034
 30
0.0
 10
2239.998641289128
 20
789.7289426682726
 30
0.0
 10
2240.864675633656
 20
789.4928924097789
 30
0.0
 10
2241.283088542653
 20
789.3255714315174
 30
0.0
 10
2241.68245857207
 20
789.1204663979668
 30
0.0
  0
SPLINE
  5
2DA
330
2D2
100
AcDbEntity
  8
0
  6
Continuous
 62
     7
370
    15
100
AcDbSpline
210
0.0
220
0.0
230
1.0
 70
     8
 71
     3
 72
    10
 73
     6
 74
     0
 42
0.0000000001
 43
0.0000000001
 40
0.0
 40
0.0
 40
0.0
 40
0.0
 40
0.5
 40
0.5
 40
1.0
 40
1.0
 40
1.0
 40
1.0
 10
2236.115001670889
 20
789.1288023195965
 30
0.0
 10
2236.507168756803
 20
789.3304892042436
 30
0.0
 10
2236.918910403123
 20
789.4935893521605
 30
0.0
 10
2237.769416125896
 20
789.725217890963
 30
0.0
 10
2238.206914866046
 20
789.7941265161311
 30
0.0
 10
2238.647506184038
 20
789.8136943284399
 30
0.0
  0
LINE
  5
2DB
330
2D2
100
AcDbEntity
  8
0
  6
Continuous
 62
     7
370
    15
100
AcDbLine
 10
2244.438011421229
 20
784.2646275603753
 30
0.0
 11
2244.445092838605
 21
784.3354480726702
 31
0.0
  0
LINE
  5
2DC
330
2D2
100
AcDbEntity
  8
0
  6
Continuous
 62
     7
370
    15
100
AcDbLine
 10
2232.900361652254
 20
792.9420939841612
 30
0.0
 11
2228.428225697255
 21
785.1961272917463
 31
0.0
  0
ARC
  5
2DD
330
2D2
100
AcDbEntity
  8
0
  6
Continuous
 62
     7
370
    15
100
AcDbCircle
 10
2238.891535010707
 20
784.3191106379538
 30
0.0
 40
10.49999999999998
100
AcDbArc
 50
115.2087652967492
 51
124.7912347032388
  0
LINE
  5
2DE
330
2D2
100
AcDbEntity
  8
0
  6
Continuous
 62
     7
370
    15
100
AcDbLine
 10
2243.363670965706
 20
793.8191106379538
 30
0.0
 11
2234.419399055707
 21
793.8191106379538
 31
0.0
  0
ARC
  5
2DF
330
2D2
100
AcDbEntity
  8
0
  6
Continuous
 62
     7
370
    15
100
AcDbCircle
 10
2238.891535010707
 20
784.3191106379538
 30
0.0
 40
10.49999999999998
100
AcDbArc
 50
55.20876529676122
 51
64.79123470325077
  0
LINE
  5
2E0
330
2D2
100
AcDbEntity
  8
0
  6
Continuous
 62
     7
370
    15
100
AcDbLine
 10
2249.354844324159
 20
785.1961272917463
 30
0.0
 11
2244.882708369159
 21
792.9420939841612
 31
0.0
  0
ARC
  5
2E1
330
2D2
100
AcDbEntity
  8
0
  6
Continuous
 62
     7
370
    15
100
AcDbCircle
 10
2238.891535010707
 20
784.3191106379538
 30
0.0
 40
10.5
100
AcDbArc
 50
355.2087652967581
 51
4.791234703241896
  0
LINE
  5
2E2
330
2D2
100
AcDbEntity
  8
0
  6
Continuous
 62
     7
370
    15
100
AcDbLine
 10
2244.882708369159
 20
775.6961272917465
 30
0.0
 11
2249.354844324159
 21
783.4420939841613
 31
0.0
  0
ARC
  5
2E3
330
2D2
100
AcDbEntity
  8
0
  6
Continuous
 62
     7
370
    15
100
AcDbCircle
 10
2238.891535010707
 20
784.3191106379538
 30
0.0
 40
10.50000000000001
100
AcDbArc
 50
295.2087652967492
 51
304.7912347032388
  0
LINE
  5
2E4
330
2D2
100
AcDbEntity
  8
0
  6
Continuous
 62
     7
370
    15
100
AcDbLine
 10
2234.419399055707
 20
774.8191106379538
 30
0.0
 11
2243.363670965706
 21
774.8191106379538
 31
0.0
  0
ARC
  5
2E5
330
2D2
100
AcDbEntity
  8
0
  6
Continuous
 62
     7
370
    15
100
AcDbCircle
 10
2238.891535010707
 20
784.3191106379538
 30
0.0
 40
10.50000000000002
100
AcDbArc
 50
235.2087652967612
 51
244.7912347032508
  0
LINE
  5
2E6
330
2D2
100
AcDbEntity
  8
0
  6
Continuous
 62
     7
370
    15
100
AcDbLine
 10
2228.428225697255
 20
783.4420939841613
 30
0.0
 11
2232.900361652254
 21
775.6961272917464
 31
0.0
  0
ARC
  5
2E7
330
2D2
100
AcDbEntity
  8
0
  6
Continuous
 62
     7
370
    15
100
AcDbCircle
 10
2238.891535010707
 20
784.3191106379538
 30
0.0
 40
10.5
100
AcDbArc
 50
175.2087652967581
 51
184.7912347032418
  0
ARC
  5
2E8
330
2D2
100
AcDbEntity
  8
0
  6
Continuous
 62
     7
370
    15
100
AcDbCircle
 10
2238.891535010707
 20
784.3191106379538
 30
0.0
 40
6.000000000000015
100
AcDbArc
 50
120.0013612348637
 51
329.9283521693461
  0
LINE
  5
2E9
330
2D2
100
AcDbEntity
  8
0
  6
Continuous
 62
     7
370
    15
100
AcDbLine
 10
2235.891411561206
 20
789.5151917851027
 30
0.0
 11
2236.114619389139
 21
789.1286056975167
 31
0.0
  0
LINE
  5
2EA
330
2D2
100
AcDbEntity
  8
0
  6
Continuous
 62
     7
370
    15
100
AcDbLine
 10
2236.114619389139
 20
789.1286056975167
 30
0.0
 11
2236.115001670889
 21
789.1288023195965
 31
0.0
  0
SPLINE
  5
2EB
330
2D2
100
AcDbEntity
  8
0
  6
Continuous
 62
     7
370
    15
100
AcDbSpline
210
0.0
220
0.0
230
1.0
 70
     8
 71
     3
 72
    17
 73
    13
 74
     0
 42
0.0000000001
 43
0.0000000001
 40
0.0
 40
0.0
 40
0.0
 40
0.0
 40
0.0000403262954744
 40
0.0000403262954744
 40
0.0000403262954744
 40
0.0002016640098915
 40
0.0002016640098915
 40
0.0002016640098915
 40
0.0002823198530426
 40
0.0002823198530426
 40
0.0002823198530426
 40
0.0004565671098668
 40
0.0004565671098668
 40
0.0004565671098668
 40
0.0004565671098668
 10
2238.647506184038
 20
789.8136943284399
 30
0.0
 10
2238.660935044971
 20
789.8142907392621
 30
0.0
 10
2238.674366182632
 20
789.8148379228658
 30
0.0
 10
2238.687799055492
 20
789.8153358571886
 30
0.0
 10
2238.741535965023
 20
789.8173277953201
 30
0.0
 10
2238.795307871697
 20
789.8185316948453
 30
0.0
 10
2238.849080085418
 20
789.8189467790873
 30
0.0
 10
2238.875964023465
 20
789.8191543044666
 30
0.0
 10
2238.902850205839
 20
789.8191647063745
 30
0.0
 10
2238.929734296416
 20
789.8189779831333
 30
0.0
 10
2238.987808418956
 20
789.8185746297685
 30
0.0
 10
2239.045883434336
 20
789.8172511718549
 30
0.0
 10
2239.103915643477
 20
789.8150086052403
 30
0.0
  0
CIRCLE
  5
2EC
330
2D2
100
AcDbEntity
  8
0
  6
Continuous
 62
     7
370
    15
100
AcDbCircle
 10
2238.891535010707
 20
784.3191106379538
 30
0.0
 40
10.59999999999999
  0
SPLINE
  5
2ED
330
2D2
100
AcDbEntity
  8
0
  6
Continuous
 62
     8
370
    15
100
AcDbSpline
210
0.0
220
0.0
230
1.0
 70
     8
 71
     3
 72
    55
 73
    51
 74
     0
 42
0.0000000001
 43
0.0000000001
 40
0.0
 40
0.0
 40
0.0
 40
0.0
 40
0.0200679270712511
 40
0.040160086151825
 40
0.060165554335749
 40
0.0799762581617134
 40
0.0994903920519476
 40
0.1205899085526341
 40
0.1420262783074696
 40
0.1636699842502249
 40
0.1853836984179496
 40
0.2070274043607049
 40
0.2284637741155404
 40
0.2495632906162268
 40
0.2706628071169134
 40
0.2920991768717489
 40
0.3137428828145042
 40
0.3354565969822288
 40
0.3571003029249841
 40
0.3785366726798196
 40
0.3996361891805061
 40
0.4207357056811927
 40
0.4421720754360282
 40
0.4638157813787834
 40
0.4855294955465081
 40
0.5071732014892634
 40
0.5286095712440988
 40
0.5497090877447853
 40
0.5708086042454719
 40
0.5922449740003075
 40
0.6138886799430628
 40
0.6356023941107876
 40
0.657246100053543
 40
0.6786824698083786
 40
0.6997819863090645
 40
0.7208815028097512
 40
0.7423178725645867
 40
0.7639615785073419
 40
0.7856752926750666
 40
0.8073189986178219
 40
0.8287553683726571
 40
0.849854884873344
 40
0.8709544013740305
 40
0.8923907711288659
 40
0.9140344770716211
 40
0.9357481912393456
 40
0.9573918971821008
 40
0.9788282669369364
 40
0.9999277834376233
 40
1.0
 40
1.0
 40
1.0
 40
1.0
 10
2241.68245857207
 20
789.1204663979668
 30
0.0
 10
2241.847562647645
 20
789.0176718263333
 30
0.0
 10
2242.177970161862
 20
788.8119585586854
 30
0.0
 10
2242.628522794504
 20
788.4401050681709
 30
0.0
 10
2243.03841594893
 20
788.0284884160809
 30
0.0
 10
2243.399100223701
 20
787.5798850459269
 30
0.0
 10
2243.717741974101
 20
787.0879617868114
 30
0.0
 10
2243.989567889971
 20
786.5506888907295
 30
0.0
 10
2244.207257291158
 20
785.9672282631026
 30
0.0
 10
2244.359375455431
 20
785.3571855605492
 30
0.0
 10
2244.441717382059
 20
784.7318518941804
 30
0.0
 10
2244.452702503047
 20
784.1032273350273
 30
0.0
 10
2244.393472912724
 20
783.4832947730237
 30
0.0
 10
2244.26683129285
 20
782.878941212231
 30
0.0
 10
2244.074357256271
 20
782.2922257320928
 30
0.0
 10
2243.815712201372
 20
781.7257212618444
 30
0.0
 10
2243.491912216832
 20
781.1867937367248
 30
0.0
 10
2243.107958654655
 20
780.6863910969611
 30
0.0
 10
2242.671221731934
 20
780.2341188693433
 30
0.0
 10
2242.190981538808
 20
779.8376419655673
 30
0.0
 10
2241.674089897352
 20
779.4998486206499
 30
0.0
 10
2241.123119704163
 20
779.2210778203561
 30
0.0
 10
2240.539650880008
 20
779.0033883406908
 30
0.0
 10
2239.929610407457
 20
778.8512701977688
 30
0.0
 10
2239.304276140122
 20
778.7689282653872
 30
0.0
 10
2238.675651741369
 20
778.7579431459355
 30
0.0
 10
2238.05571913697
 20
778.8171727358522
 30
0.0
 10
2237.451365587327
 20
778.9438143558329
 30
0.0
 10
2236.864650104207
 20
779.1362883923839
 30
0.0
 10
2236.298145634771
 20
779.3949334472904
 30
0.0
 10
2235.75921810943
 20
779.7187334318291
 30
0.0
 10
2235.258815469729
 20
780.1026869940027
 30
0.0
 10
2234.806543242086
 20
780.5394239167394
 30
0.0
 10
2234.410066338345
 20
781.0196641098068
 30
0.0
 10
2234.072272993313
 20
781.5365557514776
 30
0.0
 10
2233.793502193444
 20
782.0875259438636
 30
0.0
 10
2233.575812712165
 20
782.6709947710701
 30
0.0
 10
2233.42369457535
 20
783.2810352320771
 30
0.0
 10
2233.341352620088
 20
783.9063695426646
 30
0.0
 10
2233.330367585539
 20
784.5349937809205
 30
0.0
 10
2233.38959686339
 20
785.1549269752358
 30
0.0
 10
2233.51623962804
 20
785.7592783610425
 30
0.0
 10
2233.708709383817
 20
786.3460019363637
 30
0.0
 10
2233.967370716893
 20
786.9124756342054
 30
0.0
 10
2234.291109113482
 20
787.4515195829149
 30
0.0
 10
2234.675293424869
 20
787.9514860236424
 30
0.0
 10
2235.111174107608
 20
788.4053768527297
 30
0.0
 10
2235.594561470463
 20
788.7959044740486
 30
0.0
 10
2235.932925115834
 20
789.0366908176842
 30
0.0
 10
2236.115877743541
 20
789.1292191790804
 30
0.0
 10
2236.116501793061
 20
789.1295347923635
 30
0.0
  0
SPLINE
  5
2EE
330
2D2
100
AcDbEntity
  8
0
  6
Continuous
 62
     8
370
    15
100
AcDbSpline
210
0.0
220
0.0
230
1.0
 70
     8
 71
     3
 72
   108
 73
   104
 74
     0
 42
0.0000000001
 43
0.0000000001
 40
0.0
 40
0.0
 40
0.0
 40
0.0
 40
0.0312500000000001
 40
0.0312500000000001
 40
0.0468750000000001
 40
0.0468750000000001
 40
0.0625000000000001
 40
0.0625000000000001
 40
0.0937500000000001
 40
0.0937500000000001
 40
0.1093750000000001
 40
0.1093750000000001
 40
0.1250000000000001
 40
0.1250000000000001
 40
0.1562500000000001
 40
0.1562500000000001
 40
0.1718750000000001
 40
0.1718750000000001
 40
0.1796875000000001
 40
0.1796875000000001
 40
0.1875000000000001
 40
0.1875000000000001
 40
0.21875
 40
0.21875
 40
0.234375
 40
0.234375
 40
0.2421875
 40
0.2421875
 40
0.25
 40
0.25
 40
0.2812499999999999
 40
0.2812499999999999
 40
0.3124999999999998
 40
0.3124999999999998
 40
0.3281249999999998
 40
0.3281249999999998
 40
0.3437499999999998
 40
0.3437499999999998
 40
0.3749999999999997
 40
0.3749999999999997
 40
0.3906249999999997
 40
0.3906249999999997
 40
0.4062499999999997
 40
0.4062499999999997
 40
0.4374999999999997
 40
0.4374999999999997
 40
0.4531249999999997
 40
0.4531249999999997
 40
0.4687499999999997
 40
0.4687499999999997
 40
0.4999999999999997
 40
0.4999999999999997
 40
0.5156249999999997
 40
0.5156249999999997
 40
0.5234374999999997
 40
0.5234374999999997
 40
0.5312499999999999
 40
0.5312499999999999
 40
0.5624999999999997
 40
0.5624999999999997
 40
0.5781249999999999
 40
0.5781249999999999
 40
0.5937499999999999
 40
0.5937499999999999
 40
0.6249999999999997
 40
0.6249999999999997
 40
0.6562499999999997
 40
0.6562499999999997
 40
0.6718749999999997
 40
0.6718749999999997
 40
0.6874999999999999
 40
0.6874999999999999
 40
0.7187499999999997
 40
0.7187499999999997
 40
0.7343749999999999
 40
0.7343749999999999
 40
0.7499999999999999
 40
0.7499999999999999
 40
0.7812499999999999
 40
0.7812499999999999
 40
0.7890624999999999
 40
0.7890624999999999
 40
0.7968749999999999
 40
0.7968749999999999
 40
0.8124999999999996
 40
0.8124999999999996
 40
0.8437499999999996
 40
0.8437499999999996
 40
0.8593749999999996
 40
0.8593749999999996
 40
0.8671874999999996
 40
0.8671874999999996
 40
0.8749999999999996
 40
0.8749999999999996
 40
0.9062499999999998
 40
0.9062499999999998
 40
0.9218749999999998
 40
0.9218749999999998
 40
0.9374999999999998
 40
0.9374999999999998
 40
0.9687499999999998
 40
0.9687499999999998
 40
1.0
 40
1.0
 40
1.0
 40
1.0
 10
2242.0165794211
 20
788.9100113004224
 30
0.0
 10
2242.570567006829
 20
788.5329097389875
 30
0.0
 10
2243.056165958254
 20
788.0510911306234
 30
0.0
 10
2243.621926710156
 20
787.2470886597632
 30
0.0
 10
2243.783217226997
 20
786.9688260160934
 30
0.0
 10
2244.060763377271
 20
786.3754726159712
 30
0.0
 10
2244.175007727699
 20
786.0623065670563
 30
0.0
 10
2244.431254561802
 20
785.0936794923844
 30
0.0
 10
2244.483659636404
 20
784.4093110141352
 30
0.0
 10
2244.382170952801
 20
783.4221050469044
 30
0.0
 10
2244.319637283842
 20
783.1014354069275
 30
0.0
 10
2244.141438411051
 20
782.4791265230974
 30
0.0
 10
2244.023425297416
 20
782.1705670135793
 30
0.0
 10
2243.584550823698
 20
781.2762602172291
 30
0.0
 10
2243.176415554696
 20
780.7238417237108
 30
0.0
 10
2242.447430631332
 20
780.0402264504115
 30
0.0
 10
2242.185641147409
 20
779.8361199662726
 30
0.0
 10
2241.775709149911
 20
779.5703920444808
 30
0.0
 10
2241.637001059119
 20
779.4888869993715
 30
0.0
 10
2241.350061991926
 20
779.3367126907483
 30
0.0
 10
2241.202108943774
 20
779.2663255582612
 30
0.0
 10
2240.443496389723
 20
778.9462559617077
 30
0.0
 10
2239.774824155707
 20
778.7955254819
 30
0.0
 10
2238.771669614467
 20
778.7567474662494
 30
0.0
 10
2238.437579271709
 20
778.774332652473
 30
0.0
 10
2237.948684610372
 20
778.8436749112206
 30
0.0
 10
2237.787746772644
 20
778.8739051407531
 30
0.0
 10
2237.471644775986
 20
778.9476561698815
 30
0.0
 10
2237.316645879244
 20
778.9910205156518
 30
0.0
 10
2236.542481129668
 20
779.2447637819959
 30
0.0
 10
2235.940938265889
 20
779.5666395356495
 30
0.0
 10
2234.894481828594
 20
780.4055996071619
 30
0.0
 10
2234.451609058154
 20
780.9209046104629
 30
0.0
 10
2233.954961948844
 20
781.7545177527314
 30
0.0
 10
2233.812319908249
 20
782.0490081548042
 30
0.0
 10
2233.578671071975
 20
782.6682720299871
 30
0.0
 10
2233.488528842384
 20
782.9916637509864
 30
0.0
 10
2233.307894113854
 20
783.9807269402938
 30
0.0
 10
2233.310169685514
 20
784.6644661027454
 30
0.0
 10
2233.485160489766
 20
785.6308062797049
 30
0.0
 10
2233.569974638155
 20
785.9410753172505
 30
0.0
 10
2233.797795153453
 20
786.5559808814468
 30
0.0
 10
2233.940694840237
 20
786.8574360271964
 30
0.0
 10
2234.450764612808
 20
787.7203457952556
 30
0.0
 10
2234.901304747546
 20
788.2379532340624
 30
0.0
 10
2235.674851259767
 20
788.8583248268475
 30
0.0
 10
2235.946257184989
 20
789.0385000835857
 30
0.0
 10
2236.515177186254
 20
789.3490432120915
 30
0.0
 10
2236.818051793873
 20
789.4817995361608
 30
0.0
 10
2237.763645839443
 20
789.7974141052002
 30
0.0
 10
2238.443620068848
 20
789.8945038580342
 30
0.0
 10
2239.441640174447
 20
789.8553997599133
 30
0.0
 10
2239.770482460849
 20
789.8123371673855
 30
0.0
 10
2240.24695958344
 20
789.7072039373742
 30
0.0
 10
2240.402335498155
 20
789.6657161969891
 30
0.0
 10
2240.712553099721
 20
789.5681679091465
 30
0.0
 10
2240.866725560544
 20
789.5121888894226
 30
0.0
 10
2241.627993400417
 20
789.1964823207697
 30
0.0
 10
2242.20491266747
 20
788.8259295634555
 30
0.0
 10
2242.936569838411
 20
788.1390411240031
 30
0.0
 10
2243.158457345186
 20
787.8889570550214
 30
0.0
 10
2243.549958842008
 20
787.3604125068737
 30
0.0
 10
2243.718131295457
 20
787.0854588167377
 30
0.0
 10
2244.1541963043
 20
786.2091999213106
 30
0.0
 10
2244.34734504371
 20
785.5544487269096
 30
0.0
 10
2244.484581859093
 20
784.2203672229669
 30
0.0
 10
2244.428541444252
 20
783.5437407414503
 30
0.0
 10
2244.184159355843
 20
782.6060021135652
 30
0.0
 10
2244.074339021499
 20
782.2966100376945
 30
0.0
 10
2243.797224151698
 20
781.6949574137121
 30
0.0
 10
2243.630133965208
 20
781.4035819256786
 30
0.0
 10
2243.052535897076
 20
780.5804252888374
 30
0.0
 10
2242.564226532092
 20
780.1023217948453
 30
0.0
 10
2241.754212658363
 20
779.5489667124571
 30
0.0
 10
2241.473671376223
 20
779.3913759511531
 30
0.0
 10
2240.875266283929
 20
779.1215335496112
 30
0.0
 10
2240.560041203306
 20
779.0115599838472
 30
0.0
 10
2239.587052419215
 20
778.7688432031073
 30
0.0
 10
2238.90230813083
 20
778.7264011127462
 30
0.0
 10
2238.082289447748
 20
778.8223244536883
 30
0.0
 10
2237.920058708138
 20
778.8487295258826
 30
0.0
 10
2237.600919645044
 20
778.915116957751
 30
0.0
 10
2237.444892714163
 20
778.9548007168799
 30
0.0
 10
2236.978848302382
 20
779.0952045676872
 30
0.0
 10
2236.671357414425
 20
779.2177728505699
 30
0.0
 10
2235.782117908005
 20
779.6698038054503
 30
0.0
 10
2235.235646155746
 20
780.0859592948537
 30
0.0
 10
2234.563190299899
 20
780.8236265423715
 30
0.0
 10
2234.36315282546
 20
781.0877668645903
 30
0.0
 10
2234.103729002113
 20
781.500321151653
 30
0.0
 10
2234.024125347295
 20
781.6401003502461
 30
0.0
 10
2233.875557452335
 20
781.9298132334808
 30
0.0
 10
2233.80708632867
 20
782.0790503049242
 30
0.0
 10
2233.497074423303
 20
782.8434608789846
 30
0.0
 10
2233.355974710339
 20
783.5146642953589
 30
0.0
 10
2233.331435042971
 20
784.5175605881976
 30
0.0
 10
2233.353719485419
 20
784.8509142234807
 30
0.0
 10
2233.455051075457
 20
785.5001518173671
 30
0.0
 10
2233.532594163178
 20
785.8126669204263
 30
0.0
 10
2233.850630926593
 20
786.739503403793
 30
0.0
 10
2234.181541642145
 20
787.3370211236588
 30
0.0
 10
2235.035109299297
 20
788.371246119894
 30
0.0
 10
2235.555904427307
 20
788.8059896837023
 30
0.0
 10
2236.114629816949
 20
789.1285876370111
 30
0.0
  0
LINE
  5
2EF
330
2D2
100
AcDbEntity
  8
0
  6
Continuous
 62
     8
370
    15
100
AcDbLine
 10
2244.432951996278
 20
784.5541631638044
 30
0.0
 11
2244.445092838605
 21
784.3354480726702
 31
0.0
  0
INSERT
  5
2F0
330
2D2
100
AcDbEntity
  8
0
  6
Continuous
 62
     7
370
     0
100
AcDbBlockReference
  2
SW_CENTERMARKSYMBOL_0
 10
2238.891535010707
 20
784.3191106379538
 30
0.0
  0
ENDBLK
  5
2D4
330
2D2
100
AcDbEntity
  8
0
100
AcDbBlockEnd
  0
BLOCK
  5
2F3
330
2F2
100
AcDbEntity
  8
0
100
AcDbBlockBegin
  2
2
 70
     0
 10
0.0
 20
0.0
 30
0.0
  3
2
  1

  0
LINE
  5
2F5
330
2F2
100
AcDbEntity
  8
0
  6
Continuous
 62
     7
370
    15
100
AcDbLine
 10
2228.291535010707
 20
759.3448198521719
 30
0.0
 11
2228.291535010707
 21
758.3448198521718
 31
0.0
  0
LINE
  5
2F6
330
2F2
100
AcDbEntity
  8
0
  6
Continuous
 62
     7
370
    15
100
AcDbLine
 10
2249.491535010707
 20
758.3448198521718
 30
0.0
 11
2249.491535010707
 21
759.3448198521719
 31
0.0
  0
LINE
  5
2F7
330
2F2
100
AcDbEntity
  8
0
  6
Continuous
 62
     7
370
    15
100
AcDbLine
 10
2249.391535010707
 20
754.3448198521718
 30
0.0
 11
2249.391535010707
 21
758.3448198521718
 31
0.0
  0
LINE
  5
2F8
330
2F2
100
AcDbEntity
  8
0
  6
Continuous
 62
     7
370
    15
100
AcDbLine
 10
2228.391535010707
 20
758.3448198521718
 30
0.0
 11
2228.391535010707
 21
754.3448198521718
 31
0.0
  0
LINE
  5
2F9
330
2F2
100
AcDbEntity
  8
0
  6
Continuous
 62
     7
370
    15
100
AcDbLine
 10
2228.291535010707
 20
759.3448198521719
 30
0.0
 11
2249.491535010707
 21
759.3448198521719
 31
0.0
  0
LINE
  5
2FA
330
2F2
100
AcDbEntity
  8
0
  6
Continuous
 62
     7
370
    15
100
AcDbLine
 10
2228.291535010707
 20
758.3448198521718
 30
0.0
 11
2249.491535010707
 21
758.3448198521718
 31
0.0
  0
LINE
  5
2FB
330
2F2
100
AcDbEntity
  8
0
  6
Continuous
 62
     7
370
    15
100
AcDbLine
 10
2234.419399055707
 20
754.3448198521718
 30
0.0
 11
2234.419399055707
 21
758.3448198521718
 31
0.0
  0
LINE
  5
2FC
330
2F2
100
AcDbEntity
  8
0
  6
Continuous
 62
     7
370
    15
100
AcDbLine
 10
2243.363670965706
 20
758.3448198521718
 30
0.0
 11
2243.363670965706
 21
754.3448198521718
 31
0.0
  0
LINE
  5
2FD
330
2F2
100
AcDbEntity
  8
0
  6
Continuous
 62
     7
370
    15
100
AcDbLine
 10
2243.363670965706
 20
754.3448198521718
 30
0.0
 11
2234.419399055707
 21
754.3448198521718
 31
0.0
  0
LINE
  5
2FE
330
2F2
100
AcDbEntity
  8
0
  6
Continuous
 62
     7
370
    15
100
AcDbLine
 10
2243.363670965706
 20
754.3448198521718
 30
0.0
 11
2244.882708369159
 21
754.3448198521718
 31
0.0
  0
LINE
  5
2FF
330
2F2
100
AcDbEntity
  8
0
  6
Continuous
 62
     7
370
    15
100
AcDbLine
 10
2244.882708369159
 20
754.3448198521718
 30
0.0
 11
2244.882708369159
 21
758.3448198521718
 31
0.0
  0
LINE
  5
300
330
2F2
100
AcDbEntity
  8
0
  6
Continuous
 62
     7
370
    15
100
AcDbLine
 10
2232.900361652254
 20
754.3448198521718
 30
0.0
 11
2234.419399055707
 21
754.3448198521718
 31
0.0
  0
LINE
  5
301
330
2F2
100
AcDbEntity
  8
0
  6
Continuous
 62
     7
370
    15
100
AcDbLine
 10
2232.900361652254
 20
758.3448198521718
 30
0.0
 11
2232.900361652254
 21
754.3448198521718
 31
0.0
  0
LINE
  5
302
330
2F2
100
AcDbEntity
  8
0
  6
Continuous
 62
     7
370
    15
100
AcDbLine
 10
2249.354844324159
 20
758.3448198521718
 30
0.0
 11
2249.354844324159
 21
754.3448198521718
 31
0.0
  0
LINE
  5
303
330
2F2
100
AcDbEntity
  8
0
  6
Continuous
 62
     7
370
    15
100
AcDbLine
 10
2249.354844324159
 20
754.3448198521718
 30
0.0
 11
2244.882708369159
 21
754.3448198521718
 31
0.0
  0
LINE
  5
304
330
2F2
100
AcDbEntity
  8
0
  6
Continuous
 62
     7
370
    15
100
AcDbLine
 10
2228.428225697255
 20
754.3448198521718
 30
0.0
 11
2228.428225697255
 21
758.3448198521718
 31
0.0
  0
LINE
  5
305
330
2F2
100
AcDbEntity
  8
0
  6
Continuous
 62
     7
370
    15
100
AcDbLine
 10
2232.900361652254
 20
754.3448198521718
 30
0.0
 11
2228.428225697255
 21
754.3448198521718
 31
0.0
  0
LINE
  5
306
330
2F2
100
AcDbEntity
  8
0
  6
Continuous
 62
     7
370
    15
100
AcDbLine
 10
2249.354844324159
 20
754.3448198521718
 30
0.0
 11
2249.391535010707
 21
754.3448198521718
 31
0.0
  0
LINE
  5
307
330
2F2
100
AcDbEntity
  8
0
  6
Continuous
 62
     7
370
    15
100
AcDbLine
 10
2228.391535010707
 20
754.3448198521718
 30
0.0
 11
2228.428225697255
 21
754.3448198521718
 31
0.0
  0
ENDBLK
  5
2F4
330
2F2
100
AcDbEntity
  8
0
100
AcDbBlockEnd
  0
BLOCK
  5
30A
330
309
100
AcDbEntity
  8
0
100
AcDbBlockBegin
  2
3
 70
     0
 10
0.0
 20
0.0
 30
0.0
  3
3
  1

  0
LINE
  5
30C
330
309
100
AcDbEntity
  8
0
  6
Continuous
 62
     7
370
    15
100
AcDbLine
 10
2289.684547423201
 20
784.02811054242
 30
0.0
 11
2289.654622710459
 21
784.8125388059663
 31
0.0
  0
LINE
  5
30D
330
309
100
AcDbEntity
  8
0
  6
Continuous
 62
     7
370
    15
100
AcDbLine
 10
2268.470032108456
 20
784.0043797711774
 30
0.0
 11
2268.499956821198
 21
783.2199515076311
 31
0.0
  0
SPLINE
  5
30E
330
309
100
AcDbEntity
  8
0
  6
Continuous
 62
     7
370
    15
100
AcDbSpline
210
0.0
220
0.0
230
1.0
 70
     8
 71
     3
 72
    16
 73
    12
 74
     0
 42
0.0000000001
 43
0.0000000001
 40
0.0
 40
0.0
 40
0.0
 40
0.0
 40
0.1661904456814139
 40
0.3158667806237782
 40
0.4543000723805044
 40
0.5854701461444955
 40
0.6809334786148583
 40
0.7654687367591397
 40
0.8525644815914274
 40
0.9526347901924943
 40
1.0
 40
1.0
 40
1.0
 40
1.0
 10
2284.455542070512
 20
787.3125354367269
 30
0.0
 10
2284.455847922452
 20
787.2040200235377
 30
0.0
 10
2284.456429234256
 20
786.9977722210746
 30
0.0
 10
2284.398488540056
 20
786.6801448721812
 30
0.0
 10
2284.307414115193
 20
786.3892425971165
 30
0.0
 10
2284.196855345188
 20
786.1393050608386
 30
0.0
 10
2284.08084903893
 20
785.9298434318708
 30
0.0
 10
2283.966920921126
 20
785.7528916579615
 30
0.0
 10
2283.836280220559
 20
785.5764332071153
 30
0.0
 10
2283.713778571399
 20
785.4265986806832
 30
0.0
 10
2283.625496671797
 20
785.3363305341068
 30
0.0
 10
2283.597135183724
 20
785.3073309433185
 30
0.0
  0
SPLINE
  5
30F
330
309
100
AcDbEntity
  8
0
  6
Continuous
 62
     7
370
    15
100
AcDbSpline
210
0.0
220
0.0
230
1.0
 70
     8
 71
     3
 72
    10
 73
     6
 74
     0
 42
0.0000000001
 43
0.0000000001
 40
0.0
 40
0.0
 40
0.0
 40
0.0
 40
0.2553495974239946
 40
0.6221925292448546
 40
1.0
 40
1.0
 40
1.0
 40
1.0
 10
2273.597585302254
 20
785.7481176463363
 30
0.0
 10
2273.580148927166
 20
785.7969630262655
 30
0.0
 10
2273.537662929827
 20
785.9159811519512
 30
0.0
 10
2273.500095058838
 20
786.1032124779378
 30
0.0
 10
2273.490731586603
 20
786.2370074206373
 30
0.0
 10
2273.485980914677
 20
786.3048899178822
 30
0.0
  0
SPLINE
  5
310
330
309
100
AcDbEntity
  8
0
  6
Continuous
 62
     7
370
    15
100
AcDbSpline
210
0.0
220
0.0
230
1.0
 70
     8
 71
     3
 72
    13
 73
     9
 74
     0
 42
0.0000000001
 43
0.0000000001
 40
0.0
 40
0.0
 40
0.0
 40
0.0
 40
0.1840560772027872
 40
0.3659578722999771
 40
0.5379259539494948
 40
0.7000817905134688
 40
0.8583003085136942
 40
1.0
 40
1.0
 40
1.0
 40
1.0
 10
2280.628463795986
 20
787.0479309187637
 30
0.0
 10
2280.783182005146
 20
787.0170269109033
 30
0.0
 10
2281.090807526077
 20
786.9555806107647
 30
0.0
 10
2281.530770354176
 20
786.8290688611216
 30
0.0
 10
2281.936372020703
 20
786.6860626765849
 30
0.0
 10
2282.303897225677
 20
786.5297543554138
 30
0.0
 10
2282.632028983435
 20
786.3679822374453
 30
0.0
 10
2282.82767723811
 20
786.2505840621032
 30
0.0
 10
2282.920113430547
 20
786.1951179893512
 30
0.0
  0
LINE
  5
311
330
309
100
AcDbEntity
  8
0
  6
Continuous
 62
     7
370
    15
100
AcDbLine
 10
2280.604088763782
 20
787.0531503903316
 30
0.0
 11
2280.628463795986
 21
787.0479309187637
 31
0.0
  0
SPLINE
  5
312
330
309
100
AcDbEntity
  8
0
  6
Continuous
 62
     7
370
    15
100
AcDbSpline
210
0.0
220
0.0
230
1.0
 70
     8
 71
     3
 72
    21
 73
    17
 74
     0
 42
0.0000000001
 43
0.0000000001
 40
0.0
 40
0.0
 40
0.0
 40
0.0
 40
0.0790200480539092
 40
0.1556357571257692
 40
0.2197014916809778
 40
0.2765172278432252
 40
0.3323893504341148
 40
0.3872529122837736
 40
0.4949062855575582
 40
0.6021587453372435
 40
0.7118177788142819
 40
0.7800658600792456
 40
0.8473440156036209
 40
0.9067482997040309
 40
0.9601766483656495
 40
1.0
 40
1.0
 40
1.0
 40
1.0
 10
2280.605669768941
 20
788.2199291273089
 30
0.0
 10
2280.731395869982
 20
788.1946232645287
 30
0.0
 10
2280.979022610385
 20
788.1447815191676
 30
0.0
 10
2281.317280696717
 20
788.0543626119
 30
0.0
 10
2281.614599791113
 20
787.9609155940345
 30
0.0
 10
2281.873994296343
 20
787.8665679652999
 30
0.0
 10
2282.112162147825
 20
787.7696449969217
 30
0.0
 10
2282.41225308949
 20
787.6334850536879
 30
0.0
 10
2282.762848861981
 20
787.4482549128974
 30
0.0
 10
2283.148186090461
 20
787.2006442180916
 30
0.0
 10
2283.45120226894
 20
786.9632611145283
 30
0.0
 10
2283.684279282808
 20
786.7471845416583
 30
0.0
 10
2283.852631555034
 20
786.5681665662679
 30
0.0
 10
2283.992188771762
 20
786.3969613478871
 30
0.0
 10
2284.100275388183
 20
786.2485665255135
 30
0.0
 10
2284.156538845707
 20
786.1552753039194
 30
0.0
 10
2284.18056628377
 20
786.1154350746244
 30
0.0
  0
LINE
  5
313
330
309
100
AcDbEntity
  8
0
  6
Continuous
 62
     7
370
    15
100
AcDbLine
 10
2280.558990824334
 20
788.2298321067492
 30
0.0
 11
2280.605669768941
 21
788.2199291273089
 31
0.0
  0
SPLINE
  5
314
330
309
100
AcDbEntity
  8
0
  6
Continuous
 62
     7
370
    15
100
AcDbSpline
210
0.0
220
0.0
230
1.0
 70
     8
 71
     3
 72
    22
 73
    18
 74
     0
 42
0.0000000001
 43
0.0000000001
 40
0.0
 40
0.0
 40
0.0
 40
0.0
 40
0.0721629543515382
 40
0.1414677519968416
 40
0.2030687269174133
 40
0.262027809230629
 40
0.3183109273188647
 40
0.409704829860111
 40
0.5010672525891505
 40
0.5957545833661149
 40
0.6542984005499561
 40
0.708286750090161
 40
0.7553962766426374
 40
0.8019645444930173
 40
0.8545503142256988
 40
0.9269584119020514
 40
1.0
 40
1.0
 40
1.0
 40
1.0
 10
2280.555266416126
 20
789.3976940162851
 30
0.0
 10
2280.691113243705
 20
789.3704751439545
 30
0.0
 10
2280.95742641625
 20
789.3171154566318
 30
0.0
 10
2281.328337931538
 20
789.2159883966034
 30
0.0
 10
2281.666958497236
 20
789.1043596712726
 30
0.0
 10
2281.970408465124
 20
788.9879378017578
 30
0.0
 10
2282.311174259955
 20
788.8381376147415
 30
0.0
 10
2282.682772114052
 20
788.6453792037626
 30
0.0
 10
2283.077104126822
 20
788.3960597173145
 30
0.0
 10
2283.388108549575
 20
788.1554998667162
 30
0.0
 10
2283.623606580666
 20
787.9393100496774
 30
0.0
 10
2283.788650682133
 20
787.7657823801033
 30
0.0
 10
2283.927109091003
 20
787.6000331371827
 30
0.0
 10
2284.050962252718
 20
787.4315894624254
 30
0.0
 10
2284.178800927469
 20
787.2290778315377
 30
0.0
 10
2284.303807044533
 20
786.9894042277138
 30
0.0
 10
2284.366478045837
 20
786.808086805558
 30
0.0
 10
2284.397950024882
 20
786.7170332402402
 30
0.0
  0
LINE
  5
315
330
309
100
AcDbEntity
  8
0
  6
Continuous
 62
     7
370
    15
100
AcDbLine
 10
2280.512579912003
 20
789.406758483492
 30
0.0
 11
2280.555266416126
 21
789.3976940162851
 31
0.0
  0
LINE
  5
316
330
309
100
AcDbEntity
  8
0
  6
Continuous
 62
     7
370
    15
100
AcDbLine
 10
2284.45478369786
 20
787.3105885195585
 30
0.0
 11
2284.456147902593
 21
787.2966544993794
 31
0.0
  0
SPLINE
  5
317
330
309
100
AcDbEntity
  8
0
  6
Continuous
 62
     7
370
    15
100
AcDbSpline
210
0.0
220
0.0
230
1.0
 70
     8
 71
     3
 72
    22
 73
    18
 74
     0
 42
0.0000000001
 43
0.0000000001
 40
0.0
 40
0.0
 40
0.0
 40
0.0
 40
0.0808190350664314
 40
0.1704528334631657
 40
0.2541060755777593
 40
0.3346966732762794
 40
0.4152141861741442
 40
0.4964348956454289
 40
0.5576087389408868
 40
0.619082553750625
 40
0.6802577129190447
 40
0.7341886075023184
 40
0.775175841532507
 40
0.8238740724083658
 40
0.8802554258908108
 40
0.9419326784613581
 40
0.9999999999999998
 40
0.9999999999999998
 40
0.9999999999999998
 40
0.9999999999999998
 10
2280.505645222673
 20
790.5750983310952
 30
0.0
 10
2280.680453266876
 20
790.5399038500777
 30
0.0
 10
2281.049135303502
 20
790.4656762995167
 30
0.0
 10
2281.580787381914
 20
790.2998660963035
 30
0.0
 10
2282.0803736028
 20
790.1035049726597
 30
0.0
 10
2282.529124921127
 20
789.8829619212603
 30
0.0
 10
2282.936601961489
 20
789.6379810599547
 30
0.0
 10
2283.273627811436
 20
789.3900248106624
 30
0.0
 10
2283.548470411929
 20
789.1475779430849
 30
0.0
 10
2283.76898916742
 20
788.9174151057045
 30
0.0
 10
2283.953370101153
 20
788.686190211738
 30
0.0
 10
2284.092730115359
 20
788.4746254610326
 30
0.0
 10
2284.202412829201
 20
788.2754397143632
 30
0.0
 10
2284.296098421262
 20
788.0690516517471
 30
0.0
 10
2284.378149639131
 20
787.8285540323099
 30
0.0
 10
2284.43483522359
 20
787.5783397441864
 30
0.0
 10
2284.446901499562
 20
787.4119967371557
 30
0.0
 10
2284.452752756972
 20
787.3313325989531
 30
0.0
  0
LINE
  5
318
330
309
100
AcDbEntity
  8
0
  6
Continuous
 62
     7
370
    15
100
AcDbLine
 10
2280.467170052215
 20
790.5834982364353
 30
0.0
 11
2280.505645222673
 21
790.5750983310952
 31
0.0
  0
LINE
  5
319
330
309
100
AcDbEntity
  8
0
  6
Continuous
 62
     7
370
    15
100
AcDbLine
 10
2276.54935715997
 20
790.4171971882601
 30
0.0
 11
2276.660188898744
 21
790.4495590161542
 31
0.0
  0
SPLINE
  5
31A
330
309
100
AcDbEntity
  8
0
  6
Continuous
 62
     7
370
    15
100
AcDbSpline
210
0.0
220
0.0
230
1.0
 70
     8
 71
     3
 72
    18
 73
    14
 74
     0
 42
0.0000000001
 43
0.0000000001
 40
0.0
 40
0.0
 40
0.0
 40
0.0
 40
0.0458301646468251
 40
0.0998838448301045
 40
0.2392521278304534
 40
0.3805675924415399
 40
0.5193058126192728
 40
0.6567365420347702
 40
0.7114821749353471
 40
0.7731418184757756
 40
0.8462816122176349
 40
0.9320388975980222
 40
1.0
 40
1.0
 40
1.0
 40
1.0
 10
2273.835569853447
 20
788.7144118139254
 30
0.0
 10
2273.859042245241
 20
788.747992416119
 30
0.0
 10
2273.910198787178
 20
788.8211791411645
 30
0.0
 10
2274.048248673205
 20
788.9929509230547
 30
0.0
 10
2274.268992260809
 20
789.2260560351115
 30
0.0
 10
2274.596844818166
 20
789.5003222021367
 30
0.0
 10
2274.969557208561
 20
789.7529326727428
 30
0.0
 10
2275.298174861789
 20
789.9347319796632
 30
0.0
 10
2275.566365815301
 20
790.0636390910474
 30
0.0
 10
2275.772323056337
 20
790.1538109904024
 30
0.0
 10
2276.019587636194
 20
790.2502526772019
 30
0.0
 10
2276.281521125732
 20
790.341482423619
 30
0.0
 10
2276.467245674894
 20
790.3939850324182
 30
0.0
 10
2276.54935715997
 20
790.4171971882601
 30
0.0
  0
LINE
  5
31B
330
309
100
AcDbEntity
  8
0
  6
Continuous
 62
     7
370
    15
100
AcDbLine
 10
2276.633793908196
 20
789.2515147325866
 30
0.0
 11
2276.704480736789
 21
789.2727578298798
 31
0.0
  0
SPLINE
  5
31C
330
309
100
AcDbEntity
  8
0
  6
Continuous
 62
     7
370
    15
100
AcDbSpline
210
0.0
220
0.0
230
1.0
 70
     8
 71
     3
 72
    22
 73
    18
 74
     0
 42
0.0000000001
 43
0.0000000001
 40
0.0
 40
0.0
 40
0.0
 40
0.0
 40
0.0678660586103044
 40
0.1371857826887462
 40
0.2039304369631979
 40
0.2681100072444014
 40
0.314106666291139
 40
0.3545833812729164
 40
0.3976024204151945
 40
0.446581884548592
 40
0.4993280482889259
 40
0.5841139559117578
 40
0.6655067403799757
 40
0.7477495269634251
 40
0.8316677579701339
 40
0.9190468423359797
 40
0.9999999999999998
 40
0.9999999999999998
 40
0.9999999999999998
 40
0.9999999999999998
 10
2273.486584022958
 20
786.2890804040853
 30
0.0
 10
2273.485488453177
 20
786.3618506441292
 30
0.0
 10
2273.483273846922
 20
786.5089498354079
 30
0.0
 10
2273.523918655991
 20
786.7608148339499
 30
0.0
 10
2273.595411734013
 20
787.0028211937246
 30
0.0
 10
2273.68661911956
 20
787.2147043929052
 30
0.0
 10
2273.78376584382
 20
787.3919309608675
 30
0.0
 10
2273.880305041734
 20
787.5419690269906
 30
0.0
 10
2273.991786295777
 20
787.6928631488985
 30
0.0
 10
2274.128536372341
 20
787.8540382882645
 30
0.0
 10
2274.325378011821
 20
788.0556196562229
 30
0.0
 10
2274.588268121982
 20
788.2815436392759
 30
0.0
 10
2274.927280457438
 20
788.5204567665887
 30
0.0
 10
2275.302163926563
 20
788.7396088868308
 30
0.0
 10
2275.72049931293
 20
788.94042705285
 30
0.0
 10
2276.170204210751
 20
789.1207103987881
 30
0.0
 10
2276.483247386359
 20
789.2090372193823
 30
0.0
 10
2276.633793908196
 20
789.2515147325866
 30
0.0
  0
LINE
  5
31D
330
309
100
AcDbEntity
  8
0
  6
Continuous
 62
     7
370
    15
100
AcDbLine
 10
2276.634456694534
 20
788.0624221921559
 30
0.0
 11
2276.749909662738
 21
788.096259988873
 31
0.0
  0
SPLINE
  5
31E
330
309
100
AcDbEntity
  8
0
  6
Continuous
 62
     7
370
    15
100
AcDbSpline
210
0.0
220
0.0
230
1.0
 70
     8
 71
     3
 72
    23
 73
    19
 74
     0
 42
0.0000000001
 43
0.0000000001
 40
0.0
 40
0.0
 40
0.0
 40
0.0
 40
0.0465032843080853
 40
0.0953449704801995
 40
0.1551996007394164
 40
0.2237101007670134
 40
0.2957601815849574
 40
0.3678395195313882
 40
0.4634528468488616
 40
0.5576672752179041
 40
0.6506753538103317
 40
0.6904191166915038
 40
0.7300518583444863
 40
0.7705528202314023
 40
0.819128661562706
 40
0.8772065761121965
 40
0.9457154858988779
 40
1.0
 40
1.0
 40
1.0
 40
1.0
 10
2273.611296860089
 20
785.7185205724936
 30
0.0
 10
2273.62563914164
 20
785.7646028230865
 30
0.0
 10
2273.6550449015
 20
785.8590845545988
 30
0.0
 10
2273.720301003467
 20
786.0111080098338
 30
0.0
 10
2273.808452537192
 20
786.1828661029654
 30
0.0
 10
2273.928902615278
 20
786.3736128198008
 30
0.0
 10
2274.079431890129
 20
786.5710578945825
 30
0.0
 10
2274.274938156391
 20
786.7868778021281
 30
0.0
 10
2274.520160798039
 20
787.0127206045834
 30
0.0
 10
2274.821419680642
 20
787.2422333827411
 30
0.0
 10
2275.090178256714
 20
787.4135606547414
 30
0.0
 10
2275.30756532005
 20
787.5359138362153
 30
0.0
 10
2275.464062672659
 20
787.6176654145631
 30
0.0
 10
2275.637723971562
 20
787.7017577449008
 30
0.0
 10
2275.841544742397
 20
787.7917050867215
 30
0.0
 10
2276.092582627027
 20
787.8906168770502
 30
0.0
 10
2276.359928919745
 20
787.9846069644724
 30
0.0
 10
2276.550298232837
 20
788.0385673750486
 30
0.0
 10
2276.634456694534
 20
788.0624221921559
 30
0.0
  0
LINE
  5
31F
330
309
100
AcDbEntity
  8
0
  6
Continuous
 62
     7
370
    15
100
AcDbLine
 10
2276.694355429832
 20
786.890076064098
 30
0.0
 11
2276.796540401841
 21
786.9200824724126
 31
0.0
  0
SPLINE
  5
320
330
309
100
AcDbEntity
  8
0
  6
Continuous
 62
     7
370
    15
100
AcDbSpline
210
0.0
220
0.0
230
1.0
 70
     8
 71
     3
 72
    18
 73
    14
 74
     0
 42
0.0000000001
 43
0.0000000001
 40
0.0
 40
0.0
 40
0.0
 40
0.0
 40
0.0524380012167595
 40
0.1788559516466483
 40
0.3047754126078712
 40
0.4289499167436838
 40
0.5521884882738034
 40
0.6149625948681372
 40
0.6785168091172923
 40
0.7439934582294421
 40
0.8223082044702078
 40
0.9173445955184103
 40
1.0
 40
1.0
 40
1.0
 40
1.0
 10
2274.049622358098
 20
785.2876210060154
 30
0.0
 10
2274.076053419966
 20
785.3241756872975
 30
0.0
 10
2274.166204696017
 20
785.4488566849735
 30
0.0
 10
2274.361233061349
 20
785.6509020008014
 30
0.0
 10
2274.630826533067
 20
785.890075188377
 30
0.0
 10
2274.935159934601
 20
786.1123549004499
 30
0.0
 10
2275.214134210091
 20
786.2839558869174
 30
0.0
 10
2275.453377561554
 20
786.4131003607302
 30
0.0
 10
2275.64455340364
 20
786.5074865282113
 30
0.0
 10
2275.859024306604
 20
786.6042144276099
 30
0.0
 10
2276.113365891585
 20
786.7057493603989
 30
0.0
 10
2276.39441346484
 20
786.8051466507109
 30
0.0
 10
2276.599129422269
 20
786.8631125514673
 30
0.0
 10
2276.694355429832
 20
786.890076064098
 30
0.0
  0
LINE
  5
321
330
309
100
AcDbEntity
  8
0
  6
Continuous
 62
     7
370
    15
100
AcDbLine
 10
2284.456145484737
 20
787.2967179023304
 30
0.0
 11
2284.455542112388
 21
787.312534339012
 31
0.0
  0
LINE
  5
322
330
309
100
AcDbEntity
  8
0
  6
Continuous
 62
     7
370
    15
100
AcDbLine
 10
2273.48598107113
 20
786.3048858166175
 30
0.0
 11
2273.486584443479
 21
786.289069379936
 31
0.0
  0
LINE
  5
323
330
309
100
AcDbEntity
  8
0
  6
Continuous
 62
     7
370
    15
100
AcDbLine
 10
2268.505171269937
 20
787.9832173140949
 30
0.0
 11
2271.443959370546
 21
782.816880199985
 31
0.0
  0
ARC
  5
324
330
309
100
AcDbEntity
  8
0
  6
Continuous
 62
     7
370
    15
100
AcDbCircle
 10
2272.919032682535
 20
787.2218833195225
 30
0.0
 40
4.479040301326588
100
AcDbArc
 50
155.7885778943529
 51
170.2135161152382
  0
LINE
  5
325
330
309
100
AcDbEntity
  8
0
  6
Continuous
 62
     7
370
    15
100
AcDbLine
 10
2274.67682609838
 20
793.3918019468526
 30
0.0
 11
2268.833976028797
 21
789.058759514769
 31
0.0
  0
ARC
  5
326
330
309
100
AcDbEntity
  8
0
  6
Continuous
 62
     7
370
    15
100
AcDbCircle
 10
2279.102502418312
 20
778.5558439368803
 30
0.0
 40
15.48199796416683
100
AcDbArc
 50
100.3061750672347
 51
106.6102323492958
  0
LINE
  5
327
330
309
100
AcDbEntity
  8
0
  6
Continuous
 62
     7
370
    15
100
AcDbLine
 10
2285.114283386931
 20
792.9547569755151
 30
0.0
 11
2276.33264521674
 21
793.7880516575412
 31
0.0
  0
ARC
  5
328
330
309
100
AcDbEntity
  8
0
  6
Continuous
 62
     7
370
    15
100
AcDbCircle
 10
2281.052268486702
 20
783.383688701407
 30
0.0
 40
10.39737048283462
100
AcDbArc
 50
58.7812473725907
 51
67.00336079067721
  0
LINE
  5
329
330
309
100
AcDbEntity
  8
0
  6
Continuous
 62
     7
370
    15
100
AcDbLine
 10
2289.38008584704
 20
787.1091273714198
 30
0.0
 11
2286.441297746431
 21
792.2754644855297
 31
0.0
  0
ARC
  5
32A
330
309
100
AcDbEntity
  8
0
  6
Continuous
 62
     7
370
    15
100
AcDbCircle
 10
2284.966224434439
 20
787.8704613659929
 30
0.0
 40
4.479040301329137
100
AcDbArc
 50
335.7885778943636
 51
350.2135161152382
  0
LINE
  5
32B
330
309
100
AcDbEntity
  8
0
  6
Continuous
 62
     7
370
    15
100
AcDbLine
 10
2283.208431018596
 20
781.7005427386621
 30
0.0
 11
2289.05128108818
 21
786.0335851707457
 31
0.0
  0
ARC
  5
32C
330
309
100
AcDbEntity
  8
0
  6
Continuous
 62
     7
370
    15
100
AcDbCircle
 10
2278.782754698667
 20
796.5365007486228
 30
0.0
 40
15.481997964155
100
AcDbArc
 50
280.3061750672347
 51
286.6102323492959
  0
LINE
  5
32D
330
309
100
AcDbEntity
  8
0
  6
Continuous
 62
     7
370
    15
100
AcDbLine
 10
2272.770973730045
 20
782.1375877099995
 30
0.0
 11
2281.552611900237
 21
781.3042930279735
 31
0.0
  0
ARC
  5
32E
330
309
100
AcDbEntity
  8
0
  6
Continuous
 62
     7
370
    15
100
AcDbCircle
 10
2276.832988630273
 20
791.7086559841043
 30
0.0
 40
10.39737048283093
100
AcDbArc
 50
238.7812473725907
 51
247.0033607906772
  0
SPLINE
  5
32F
330
309
100
AcDbEntity
  8
0
  6
Continuous
 62
     7
370
    15
100
AcDbSpline
210
0.0
220
0.0
230
1.0
 70
     8
 71
     3
 72
    28
 73
    24
 74
     0
 42
0.0000000001
 43
0.0000000001
 40
0.0
 40
0.0
 40
0.0
 40
0.0
 40
0.1250000000000001
 40
0.1250000000000001
 40
0.1875000000000002
 40
0.1875000000000002
 40
0.2500000000000003
 40
0.2500000000000003
 40
0.3750000000000002
 40
0.3750000000000002
 40
0.4375000000000002
 40
0.4375000000000002
 40
0.5000000000000001
 40
0.5000000000000001
 40
0.6250000000000002
 40
0.6250000000000002
 40
0.7500000000000002
 40
0.7500000000000002
 40
0.8125000000000001
 40
0.8125000000000001
 40
0.8750000000000001
 40
0.8750000000000001
 40
1.0
 40
1.0
 40
1.0
 40
1.0
 10
2277.133333800574
 20
790.7576750859149
 30
0.0
 10
2277.487285148211
 20
790.8546932303088
 30
0.0
 10
2277.849641373022
 20
790.9280913686431
 30
0.0
 10
2278.405274740945
 20
791.004186987216
 30
0.0
 10
2278.592518310878
 20
791.0238404600477
 30
0.0
 10
2278.971177040311
 20
791.0514240968682
 30
0.0
 10
2279.16251005376
 20
791.0592577205565
 30
0.0
 10
2279.729732072944
 20
791.064591943093
 30
0.0
 10
2280.103227248179
 20
791.0442201617062
 30
0.0
 10
2280.656867749988
 20
790.9797093510047
 30
0.0
 10
2280.841270095222
 20
790.9522696541971
 30
0.0
 10
2281.201518628143
 20
790.8866368135686
 30
0.0
 10
2281.377575323685
 20
790.8484967748932
 30
0.0
 10
2281.893826421823
 20
790.7184771408219
 30
0.0
 10
2282.222217128746
 20
790.6111489220911
 30
0.0
 10
2282.84619561874
 20
790.353560166747
 30
0.0
 10
2283.131755125405
 20
790.2074185405791
 30
0.0
 10
2283.521577038164
 20
789.963495340712
 30
0.0
 10
2283.645081445532
 20
789.8780261712213
 30
0.0
 10
2283.878937980057
 20
789.698584038382
 30
0.0
 10
2283.989627636784
 20
789.6042868176528
 30
0.0
 10
2284.296077067114
 20
789.3147453262894
 30
0.0
 10
2284.468420509333
 20
789.1112137551811
 30
0.0
 10
2284.609129285087
 20
788.8972839538548
 30
0.0
  0
SPLINE
  5
330
330
309
100
AcDbEntity
  8
0
  6
Continuous
 62
     7
370
    15
100
AcDbSpline
210
0.0
220
0.0
230
1.0
 70
     8
 71
     3
 72
    10
 73
     6
 74
     0
 42
0.0000000001
 43
0.0000000001
 40
0.0
 40
0.0
 40
0.0
 40
0.0
 40
0.5
 40
0.5
 40
1.0
 40
1.0
 40
1.0
 40
1.0
 10
2274.923443261887
 20
789.7774814070605
 30
0.0
 10
2275.229686361714
 20
789.9881464634713
 30
0.0
 10
2275.573036441711
 20
790.1775990878014
 30
0.0
 10
2276.317357692658
 20
790.5057321868943
 30
0.0
 10
2276.717272863415
 20
790.6436326889939
 30
0.0
 10
2277.133333800574
 20
790.7576750859149
 30
0.0
  0
SPLINE
  5
331
330
309
100
AcDbEntity
  8
0
  6
Continuous
 62
     7
370
    15
100
AcDbSpline
210
0.0
220
0.0
230
1.0
 70
     8
 71
     3
 72
    17
 73
    13
 74
     0
 42
0.0000000001
 43
0.0000000001
 40
0.0
 40
0.0
 40
0.0
 40
0.0
 40
0.0000403262954744
 40
0.0000403262954744
 40
0.0000403262954744
 40
0.0002016640098915
 40
0.0002016640098915
 40
0.0002016640098915
 40
0.0002823198530426
 40
0.0002823198530426
 40
0.0002823198530426
 40
0.0004565671098668
 40
0.0004565671098668
 40
0.0004565671098668
 40
0.0004565671098668
 10
2274.626287872179
 20
789.5558653735707
 30
0.0
 10
2274.634609067493
 20
789.5626019448371
 30
0.0
 10
2274.642968992945
 20
789.5693205546115
 30
0.0
 10
2274.651367311472
 20
789.5760209320071
 30
0.0
 10
2274.684963973009
 20
789.6028251441582
 30
0.0
 10
2274.71917968726
 20
789.6293411233257
 30
0.0
 10
2274.753992380501
 20
789.6555517631447
 30
0.0
 10
2274.771397323008
 20
789.6686560258911
 30
0.0
 10
2274.788952865437
 20
789.681685034992
 30
0.0
 10
2274.806656176482
 20
789.6946366891675
 30
0.0
 10
2274.844898282982
 20
789.7226144237885
 30
0.0
 10
2274.883837078069
 20
789.7502362578538
 30
0.0
 10
2274.923443261887
 20
789.7774814070605
 30
0.0
  0
SPLINE
  5
332
330
309
100
AcDbEntity
  8
0
  6
Continuous
 62
     7
370
    15
100
AcDbSpline
210
0.0
220
0.0
230
1.0
 70
     8
 71
     3
 72
    10
 73
     6
 74
     0
 42
0.0000000001
 43
0.0000000001
 40
0.0
 40
0.0
 40
0.0
 40
0.0
 40
0.5
 40
0.5
 40
1.0
 40
1.0
 40
1.0
 40
1.0
 10
2273.49008326973
 20
788.0637551641415
 30
0.0
 10
2273.593680347923
 20
788.3318482672582
 30
0.0
 10
2273.739257323234
 20
788.5944805823051
 30
0.0
 10
2274.119611977388
 20
789.0962109619095
 30
0.0
 10
2274.353275408314
 20
789.3348432907893
 30
0.0
 10
2274.626287872179
 20
789.5558653735707
 30
0.0
  0
LINE
  5
333
330
309
100
AcDbEntity
  8
0
  6
Continuous
 62
     7
370
    15
100
AcDbLine
 10
2273.489982298473
 20
788.0634938214482
 30
0.0
 11
2273.49008326973
 21
788.0637551641415
 31
0.0
  0
LINE
  5
334
330
309
100
AcDbEntity
  8
0
  6
Continuous
 62
     7
370
    15
100
AcDbLine
 10
2273.051699867876
 20
788.105076000865
 30
0.0
 11
2273.489982298473
 21
788.0634938214482
 31
0.0
  0
LWPOLYLINE
  5
335
330
309
100
AcDbEntity
  8
0
  6
Continuous
 62
     7
370
    15
100
AcDbPolyline
 90
       63
 70
   128
 43
0.0
 10
2273.051699867876
 20
788.105076000865
 10
2272.995563273153
 20
787.8868084382397
 10
2272.960189397631
 20
787.6673516282694
 10
2272.945701740516
 20
787.4474717505579
 10
2272.952150881907
 20
787.2279364617456
 10
2272.979514306212
 20
787.0095122154257
 10
2273.027696480746
 20
786.792961586259
 10
2273.096529189272
 20
786.5790406076317
 10
2273.185772119276
 20
786.3684961321507
 10
2273.295113700966
 20
786.1620632241902
 10
2273.424172195039
 20
785.9604625935956
 10
2273.57249702543
 20
785.7643980795012
 10
2273.739570352388
 20
785.5745541930497
 10
2273.924808880389
 20
785.3915937275878
 10
2274.127565894564
 20
785.2161554446877
 10
2274.347133518548
 20
785.0488518440661
 10
2274.582745185858
 20
784.8902670251932
 10
2274.83357831617
 20
784.7409546480519
 10
2275.098757187157
 20
784.6014360001697
 10
2275.377355991859
 20
784.4721981766716
 10
2275.668402070909
 20
784.3536923797073
 10
2275.970879308337
 20
784.2463323431888
 10
2276.283731679088
 20
784.1504928883405
 10
2276.605866935875
 20
784.0665086151026
 10
2276.936160422491
 20
783.9946727339578
 10
2277.273459000273
 20
783.9352360422584
 10
2277.616585073999
 20
783.8884060486296
 10
2277.964340703178
 20
783.8543462485033
 10
2278.31551178436
 20
783.8331755533142
 10
2278.668872289881
 20
783.8249678753502
 10
2279.023188548242
 20
783.8297518697046
 10
2279.377223551166
 20
783.8475108342351
 10
2279.72974127231
 20
783.8781827678748
 10
2280.079510982549
 20
783.9216605870931
 10
2280.425311546764
 20
783.9777924997527
 10
2280.765935687135
 20
784.0463825350534
 10
2281.100194198055
 20
784.1271912277175
 10
2281.426920097949
 20
784.2199364540224
 10
2281.74497270351
 20
784.3242944167676
 10
2282.053241612105
 20
784.4399007757329
 10
2282.35065057848
 20
784.5663519196823
 10
2282.636161272206
 20
784.7032063754743
 10
2282.908776902752
 20
784.849986349357
 10
2283.167545699535
 20
785.0061793950669
 10
2283.411564234796
 20
785.1712402029106
 10
2283.639980577696
 20
785.3445925035787
 10
2283.851997268619
 20
785.5256310800492
 10
2284.046874103313
 20
785.7137238805542
 10
2284.223930717125
 20
785.9082142252334
 10
2284.382548960335
 20
786.108423098771
 10
2284.522175056265
 20
786.3136515210104
 10
2284.642321534664
 20
786.523182987273
 10
2284.74256893358
 20
786.7362859698571
 10
2284.82256726382
 20
786.952216471989
 10
2284.882037230843
 20
787.1702206253034
 10
2284.920771209852
 20
787.3895373217913
 10
2284.938633970661
 20
787.6094008710209
 10
2284.935563149826
 20
787.8290436733587
 10
2284.911569468363
 20
788.0476988998545
 10
2284.866736694325
 20
788.2646031694366
 10
2284.801221350341
 20
788.4789992140703
 10
2284.715252167159
 20
788.6901385225724
 10
2284.609129285087
 20
788.8972839538548
  0
LINE
  5
336
330
309
100
AcDbEntity
  8
0
  6
Continuous
 62
     7
370
    15
100
AcDbLine
 10
2281.552611900237
 20
781.3042930279735
 30
0.0
 11
2281.672310751206
 21
778.1665799737879
 31
0.0
  0
LINE
  5
337
330
309
100
AcDbEntity
  8
0
  6
Continuous
 62
     7
370
    15
100
AcDbLine
 10
2272.890672581015
 20
778.9998746558142
 30
0.0
 11
2281.672310751206
 21
778.1665799737879
 31
0.0
  0
LINE
  5
338
330
309
100
AcDbEntity
  8
0
  6
Continuous
 62
     7
370
    15
100
AcDbLine
 10
2272.890672581015
 20
778.9998746558142
 30
0.0
 11
2272.770973730045
 21
782.1375877099995
 31
0.0
  0
ARC
  5
339
330
309
100
AcDbEntity
  8
0
  6
Continuous
 62
     7
370
    15
100
AcDbCircle
 10
2274.31606566793
 20
783.9416642463157
 30
0.0
 40
5.860715945531399
100
AcDbArc
 50
187.0735939601471
 51
248.4967507766679
  0
LWPOLYLINE
  5
33A
330
309
100
AcDbEntity
  8
0
  6
Continuous
 62
     7
370
    15
100
AcDbPolyline
 90
       53
 70
   128
 43
0.0
 10
2289.684547423201
 20
784.02811054242
 10
2289.686930759913
 20
783.8045554924624
 10
2289.67149958398
 20
783.5116211337869
 10
2289.635064291474
 20
783.2189099545451
 10
2289.577697221294
 20
782.9270031056889
 10
2289.499512270448
 20
782.6364801412467
 10
2289.400664667921
 20
782.3479178676722
 10
2289.281350666476
 20
782.0618891986489
 10
2289.141807153018
 20
781.7789620176232
 10
2288.982311178279
 20
781.499698050324
 10
2288.803179406751
 20
781.2246517495084
 10
2288.604767487985
 20
780.9543691941473
 10
2288.387469350482
 20
780.6893870052357
 10
2288.151716419577
 20
780.4302312803819
 10
2287.897976760894
 20
780.1774165492888
 10
2287.626754151038
 20
779.9314447522037
 10
2287.338587077394
 20
779.692804243361
 10
2287.034047669014
 20
779.4619688214018
 10
2286.713740560703
 20
779.2393967886889
 10
2286.378301692576
 20
779.0255300413914
 10
2286.028397047457
 20
778.8207931921395
 10
2285.664721328627
 20
778.6255927269958
 10
2285.287996580565
 20
778.4403161984154
 10
2284.898970755387
 20
778.2653314557958
 10
2284.498416227858
 20
778.100985915146
 10
2284.087128261915
 20
777.9476058693246
 10
2283.665923431745
 20
777.8054958402149
 10
2283.235638000549
 20
777.6749379741255
 10
2282.797126260221
 20
777.5561914816144
 10
2282.351258835232
 20
777.4494921228507
 10
2281.898920954081
 20
777.3550517395349
 10
2281.441010691763
 20
777.2730578343059
 10
2280.978437186718
 20
777.2036731984733
 10
2280.512118835819
 20
777.1470355888086
 10
2280.042981470989
 20
777.1032574540435
 10
2279.571956521042
 20
777.0724257116119
 10
2279.099979162413
 20
777.0546015750847
 10
2278.627986462463
 20
777.0498204326351
 10
2278.156915519004
 20
777.0580917767787
 10
2277.687701599793
 20
777.0793991855275
 10
2277.221276285632
 20
777.1137003549938
 10
2276.758565620809
 20
777.1609271833805
 10
2276.300488274519
 20
777.2209859061915
 10
2275.84795371693
 20
777.2937572823918
 10
2275.401860413518
 20
777.3790968311502
 10
2274.963094041245
 20
777.4768351186919
 10
2274.532525730129
 20
777.5867780946941
 10
2274.111010333696
 20
777.708707477555
 10
2273.699384731747
 20
777.8423811877708
 10
2273.298466168816
 20
777.9875338285635
 10
2272.909050631596
 20
778.1438772128008
 10
2272.531911268591
 20
778.311100935165
 10
2272.167796855098
 20
778.4888729884346
  0
LWPOLYLINE
  5
33B
330
309
100
AcDbEntity
  8
0
  6
Continuous
 62
     7
370
    15
100
AcDbPolyline
 90
       24
 70
   128
 43
0.0
 10
2272.137872142356
 20
779.273301251981
 10
2271.787505593837
 20
779.4612686861994
 10
2271.451582530644
 20
779.6590583094251
 10
2271.130769896923
 20
779.8662774286693
 10
2270.825704636465
 20
780.0825146295522
 10
2270.536992428103
 20
780.3073405931269
 10
2270.265206483204
 20
780.5403089482539
 10
2270.010886407604
 20
780.7809571578286
 10
2269.774537130272
 20
781.0288074371063
 10
2269.556627900821
 20
781.2833677022998
 10
2269.357591357855
 20
781.5441325475654
 10
2269.177822670006
 20
781.8105842484405
 10
2269.017678751364
 20
782.0821937897372
 10
2268.877477552856
 20
782.3584219158525
 10
2268.757497430984
 20
782.6387202014108
 10
2268.657976595173
 20
782.9225321401118
 10
2268.579112634832
 20
783.2092942496221
 10
2268.521062127053
 20
783.4984371903173
 10
2268.483940325747
 20
783.7893868956529
 10
2268.467820932813
 20
784.0815657119206
 10
2268.472735951814
 20
784.3743935451259
 10
2268.498675624435
 20
784.6672890127117
 10
2268.545588449858
 20
784.9596705978385
 10
2268.609899300984
 20
785.2379402500894
  0
LWPOLYLINE
  5
33C
330
309
100
AcDbEntity
  8
0
  6
Continuous
 62
     7
370
    15
100
AcDbPolyline
 90
       57
 70
   128
 43
0.0
 10
2289.421181984018
 20
786.0318581709885
 10
2289.508703064683
 20
785.7513386939865
 10
2289.577177294508
 20
785.4633146793842
 10
2289.624775263186
 20
785.1731963470454
 10
2289.651402469359
 20
784.8815597000646
 10
2289.657006047171
 20
784.5889837560088
 10
2289.641574871238
 20
784.2960493973331
 10
2289.605139578731
 20
784.0033382180914
 10
2289.547772508552
 20
783.7114313692353
 10
2289.469587557706
 20
783.4209084047931
 10
2289.370739955178
 20
783.1323461312186
 10
2289.251425953733
 20
782.8463174621953
 10
2289.111882440276
 20
782.5633902811696
 10
2288.952386465537
 20
782.2841263138704
 10
2288.773254694008
 20
782.0090800130548
 10
2288.574842775243
 20
781.7387974576936
 10
2288.357544637739
 20
781.4738152687821
 10
2288.121791706835
 20
781.2146595439283
 10
2287.868052048152
 20
780.9618448128352
 10
2287.596829438296
 20
780.71587301575
 10
2287.308662364652
 20
780.4772325069074
 10
2287.004122956272
 20
780.2463970849482
 10
2286.683815847961
 20
780.0238250522355
 10
2286.348376979834
 20
779.8099583049378
 10
2285.998472334714
 20
779.6052214556858
 10
2285.634796615885
 20
779.4100209905421
 10
2285.258071867823
 20
779.2247444619618
 10
2284.869046042645
 20
779.0497597193421
 10
2284.468491515116
 20
778.8854141786924
 10
2284.057203549173
 20
778.7320341328709
 10
2283.635998719002
 20
778.5899241037612
 10
2283.205713287806
 20
778.4593662376718
 10
2282.767201547478
 20
778.3406197451606
 10
2282.321334122489
 20
778.2339203863971
 10
2281.868996241339
 20
778.1394800030811
 10
2281.411085979021
 20
778.0574860978523
 10
2280.948512473974
 20
777.9881014620197
 10
2280.482194123076
 20
777.9314638523551
 10
2280.013056758247
 20
777.8876857175898
 10
2279.542031808299
 20
777.8568539751582
 10
2279.070054449671
 20
777.8390298386311
 10
2278.59806174972
 20
777.8342486961815
 10
2278.126990806262
 20
777.842520040325
 10
2277.657776887051
 20
777.8638274490739
 10
2277.19135157289
 20
777.8981286185401
 10
2276.728640908067
 20
777.9453554469268
 10
2276.270563561777
 20
778.0054141697378
 10
2275.818029004188
 20
778.0781855459382
 10
2275.371935700776
 20
778.1635250946966
 10
2274.933169328503
 20
778.2612633822383
 10
2274.502601017386
 20
778.3712063582405
 10
2274.081085620953
 20
778.4931357411012
 10
2273.669460019005
 20
778.626809451317
 10
2273.268541456074
 20
778.7719620921097
 10
2272.879125918854
 20
778.9283054763472
 10
2272.50198655585
 20
779.0955291987114
 10
2272.137872142356
 20
779.273301251981
  0
LINE
  5
33D
330
309
100
AcDbEntity
  8
0
  6
Continuous
 62
     7
370
    15
100
AcDbLine
 10
2283.328129869566
 20
778.5628296844767
 30
0.0
 11
2289.170979939149
 21
782.8958721165603
 31
0.0
  0
ARC
  5
33E
330
309
100
AcDbEntity
  8
0
  6
Continuous
 62
     7
370
    15
100
AcDbCircle
 10
2285.085923285411
 20
784.7327483118069
 30
0.0
 40
4.479040301326696
100
AcDbArc
 50
335.788577894347
 51
350.2135161152382
  0
LINE
  5
33F
330
309
100
AcDbEntity
  8
0
  6
Continuous
 62
     7
370
    15
100
AcDbLine
 10
2268.624870120906
 20
784.8455042599093
 30
0.0
 11
2271.563658221515
 21
779.6791671457996
 31
0.0
  0
ARC
  5
340
330
309
100
AcDbEntity
  8
0
  6
Continuous
 62
     7
370
    15
100
AcDbCircle
 10
2276.952687481243
 20
788.5709429299221
 30
0.0
 40
10.39737048283449
100
AcDbArc
 50
238.7812473725907
 51
247.0033607906772
  0
ARC
  5
341
330
309
100
AcDbEntity
  8
0
  6
Continuous
 62
     7
370
    15
100
AcDbCircle
 10
2278.902453549636
 20
793.39878769444
 30
0.0
 40
15.48199796415758
100
AcDbArc
 50
280.3061750672347
 51
286.6102323492959
  0
LINE
  5
342
330
309
100
AcDbEntity
  8
0
  6
Continuous
 62
     7
370
    15
100
AcDbLine
 10
2283.328129869566
 20
778.5628296844767
 30
0.0
 11
2283.208431018596
 21
781.7005427386621
 31
0.0
  0
LINE
  5
343
330
309
100
AcDbEntity
  8
0
  6
Continuous
 62
     7
370
    15
100
AcDbLine
 10
2289.05128108818
 20
786.0335851707457
 30
0.0
 11
2289.170979939149
 21
782.8958721165603
 31
0.0
  0
SPLINE
  5
344
330
309
100
AcDbEntity
  8
0
  6
Continuous
 62
     7
370
    15
100
AcDbSpline
210
0.0
220
0.0
230
1.0
 70
     8
 71
     3
 72
    10
 73
     6
 74
     0
 42
0.0000000001
 43
0.0000000001
 40
0.0
 40
0.0
 40
0.0
 40
0.0
 40
0.3397522921625866
 40
0.6799403023183545
 40
0.9999999999999998
 40
0.9999999999999998
 40
0.9999999999999998
 40
0.9999999999999998
 10
2284.609129285087
 20
788.8972839538548
 30
0.0
 10
2284.672021439509
 20
788.7673530874634
 30
0.0
 10
2284.79788640489
 20
788.5073247238215
 30
0.0
 10
2284.907773540929
 20
788.1103420168046
 30
0.0
 10
2284.928677546475
 20
787.8443856279893
 30
0.0
 10
2284.938810909478
 20
787.715461406988
 30
0.0
  0
SPLINE
  5
345
330
309
100
AcDbEntity
  8
0
  6
Continuous
 62
     7
370
    15
100
AcDbSpline
210
0.0
220
0.0
230
1.0
 70
     8
 71
     3
 72
    11
 73
     7
 74
     0
 42
0.0000000001
 43
0.0000000001
 40
0.0
 40
0.0
 40
0.0
 40
0.0
 40
0.0119985394580435
 40
0.4085774191259234
 40
0.8051562987937943
 40
1.0
 40
1.0
 40
1.0
 40
1.0
 10
2272.988613018637
 20
787.0177339361256
 30
0.0
 10
2272.988758284563
 20
787.0216670542149
 30
0.0
 10
2272.993704918058
 20
787.1555986251082
 30
0.0
 10
2273.073949549431
 20
787.4190232225171
 30
0.0
 10
2273.192083150576
 20
787.739036178036
 30
0.0
 10
2273.312331204998
 20
787.9217657743598
 30
0.0
 10
2273.35194683136
 20
787.9819658952532
 30
0.0
  0
SPLINE
  5
346
330
309
100
AcDbEntity
  8
0
  6
Continuous
 62
     7
370
    15
100
AcDbSpline
210
0.0
220
0.0
230
1.0
 70
     8
 71
     3
 72
    27
 73
    23
 74
     0
 42
0.0000000001
 43
0.0000000001
 40
0.0
 40
0.0
 40
0.0
 40
0.0
 40
0.0264397078850872
 40
0.0799709510661797
 40
0.1333296965866638
 40
0.1861775663431724
 40
0.2381954082934051
 40
0.2902132502436365
 40
0.343061120000145
 40
0.3964198655206293
 40
0.4499511087017219
 40
0.503309854222206
 40
0.5561577239787147
 40
0.6081755659289473
 40
0.6601934078791788
 40
0.7130412776356872
 40
0.7664000231561712
 40
0.8199312663372637
 40
0.8732900118577479
 40
0.9261378816142563
 40
0.9781557235644894
 40
1.0
 40
1.0
 40
1.0
 40
1.0
 10
2273.628007934201
 20
788.3581229638569
 30
0.0
 10
2273.677120283115
 20
788.4183107161245
 30
0.0
 10
2273.825668113857
 20
788.6003578027374
 30
0.0
 10
2274.146492102595
 20
788.8805493306654
 30
0.0
 10
2274.579132659119
 20
789.1934031190865
 30
0.0
 10
2275.066630639944
 20
789.471813721507
 30
0.0
 10
2275.597232828411
 20
789.7152256624804
 30
0.0
 10
2276.169447661599
 20
789.9217876916399
 30
0.0
 10
2276.781461661542
 20
790.0890247976048
 30
0.0
 10
2277.427307428929
 20
790.2140134565882
 30
0.0
 10
2278.095135399337
 20
790.2934391346589
 30
0.0
 10
2278.77213022819
 20
790.3258205872353
 30
0.0
 10
2279.445284388181
 20
790.3113454023635
 30
0.0
 10
2280.106932475696
 20
790.2519020023719
 30
0.0
 10
2280.754784707584
 20
790.1473107792889
 30
0.0
 10
2281.386117192084
 20
789.9960621112809
 30
0.0
 10
2281.992986146888
 20
789.7988586067439
 30
0.0
 10
2282.562837702999
 20
789.5583889763884
 30
0.0
 10
2283.086055510088
 20
789.2798530687574
 30
0.0
 10
2283.548736772533
 20
788.967184235584
 30
0.0
 10
2283.885113614593
 20
788.6969408570482
 30
0.0
 10
2284.043228272544
 20
788.5231978586067
 30
0.0
 10
2284.089989729868
 20
788.4718144137552
 30
0.0
  0
SPLINE
  5
347
330
309
100
AcDbEntity
  8
0
  6
Continuous
 62
     7
370
    15
100
AcDbSpline
210
0.0
220
0.0
230
1.0
 70
     8
 71
     3
 72
    27
 73
    23
 74
     0
 42
0.0000000001
 43
0.0000000001
 40
0.0
 40
0.0
 40
0.0
 40
0.0
 40
0.0248725947739106
 40
0.0785113239912658
 40
0.1319772091878554
 40
0.1849311928267901
 40
0.2370534820364901
 40
0.28917577124619
 40
0.3421297548851246
 40
0.3955956400817141
 40
0.4492343692990693
 40
0.5027002544956587
 40
0.5556542381345934
 40
0.6077765273442932
 40
0.6598988165539925
 40
0.7128528001929272
 40
0.7663186853895168
 40
0.8199574146068719
 40
0.8734232998034615
 40
0.9263772834423964
 40
0.9784995726520964
 40
1.0
 40
1.0
 40
1.0
 40
1.0
 10
2273.682198936621
 20
787.1924296398189
 30
0.0
 10
2273.728367537477
 20
787.2489174738777
 30
0.0
 10
2273.874100542538
 20
787.4272235445421
 30
0.0
 10
2274.191498485738
 20
787.7038689005448
 30
0.0
 10
2274.623988125233
 20
788.0167707981379
 30
0.0
 10
2275.111525994884
 20
788.2951686848401
 30
0.0
 10
2275.642117693431
 20
788.5385839697804
 30
0.0
 10
2276.214335331599
 20
788.7451451047673
 30
0.0
 10
2276.826348566859
 20
788.9123824545118
 30
0.0
 10
2277.472194542221
 20
789.0373710471423
 30
0.0
 10
2278.140022456838
 20
789.1167967432039
 30
0.0
 10
2278.817017299631
 20
789.1491781905722
 30
0.0
 10
2279.490171459432
 20
789.1347030085695
 30
0.0
 10
2280.151819534173
 20
789.0752596023477
 30
0.0
 10
2280.799671817444
 20
788.9706684014127
 30
0.0
 10
2281.431004105575
 20
788.819419649498
 30
0.0
 10
2282.037873803595
 20
788.6222164623319
 30
0.0
 10
2282.607722575062
 20
788.3817456429207
 30
0.0
 10
2283.130950715172
 20
788.1032141475201
 30
0.0
 10
2283.593593997561
 20
787.7905290967569
 30
0.0
 10
2283.929055823281
 20
787.5211588581578
 30
0.0
 10
2284.086386872544
 20
787.3483451110858
 30
0.0
 10
2284.132333082525
 20
787.2978774078092
 30
0.0
  0
SPLINE
  5
348
330
309
100
AcDbEntity
  8
0
  6
Continuous
 62
     7
370
    15
100
AcDbSpline
210
0.0
220
0.0
230
1.0
 70
     8
 71
     3
 72
    27
 73
    23
 74
     0
 42
0.0000000001
 43
0.0000000001
 40
0.0
 40
0.0
 40
0.0
 40
0.0
 40
0.0255805555600831
 40
0.0791865680755452
 40
0.1326198419956755
 40
0.1855415265902063
 40
0.2376320240437817
 40
0.2897225214973589
 40
0.3426442060918897
 40
0.3960774800120201
 40
0.4496834925274822
 40
0.5031167664476126
 40
0.5560384510421434
 40
0.6081289484957189
 40
0.660219445949296
 40
0.7131411305438268
 40
0.7665744044639571
 40
0.8201804169794192
 40
0.8736136908995495
 40
0.9265353754940802
 40
0.9786258729476557
 40
1.0
 40
1.0
 40
1.0
 40
1.0
 10
2273.722930921008
 20
786.010897450328
 30
0.0
 10
2273.770414803791
 20
786.0690374494345
 30
0.0
 10
2273.917404798111
 20
786.2490142676216
 30
0.0
 10
2274.236331606629
 20
786.5272437027828
 30
0.0
 10
2274.668889483744
 20
786.8401238476592
 30
0.0
 10
2275.156409317534
 20
787.1185274838142
 30
0.0
 10
2275.687005759133
 20
787.3619412567696
 30
0.0
 10
2276.259222129016
 20
787.5685027960578
 30
0.0
 10
2276.871235710045
 20
787.7357400355828
 30
0.0
 10
2277.517081591316
 20
787.8607286581914
 30
0.0
 10
2278.184909531364
 20
787.9401543462066
 30
0.0
 10
2278.86190436709
 20
787.9725357956031
 30
0.0
 10
2279.535058529788
 20
787.9580606135034
 30
0.0
 10
2280.196706599992
 20
787.8986172056955
 30
0.0
 10
2280.844558898594
 20
787.7940260112127
 30
0.0
 10
2281.475891128875
 20
787.6427772346215
 30
0.0
 10
2282.082761045648
 20
787.4455741408561
 30
0.0
 10
2282.652608997557
 20
787.2051029714943
 30
0.0
 10
2283.175840178791
 20
786.926572774661
 30
0.0
 10
2283.638472283232
 20
786.6138829508831
 30
0.0
 10
2283.973666937393
 20
786.3447678176533
 30
0.0
 10
2284.130769093586
 20
786.1722255209715
 30
0.0
 10
2284.176477098891
 20
786.1220252920044
 30
0.0
  0
SPLINE
  5
349
330
309
100
AcDbEntity
  8
0
  6
Continuous
 62
     7
370
    15
100
AcDbSpline
210
0.0
220
0.0
230
1.0
 70
     8
 71
     3
 72
    14
 73
    10
 74
     0
 42
0.0000000001
 43
0.0000000001
 40
0.0
 40
0.0
 40
0.0
 40
0.0
 40
0.1297559463222917
 40
0.2873948075248745
 40
0.4475490487056038
 40
0.6092514870169669
 40
0.7714766754801805
 40
0.9331791137915439
 40
1.0
 40
1.0
 40
1.0
 40
1.0
 10
2280.708793432942
 20
788.1983915193786
 30
0.0
 10
2280.53315184107
 20
788.2292948608071
 30
0.0
 10
2280.144125496461
 20
788.2977422816265
 30
0.0
 10
2279.519693321353
 20
788.3501524570333
 30
0.0
 10
2278.847098149762
 20
788.3655198877079
 30
0.0
 10
2278.169576551325
 20
788.3334063207732
 30
0.0
 10
2277.503294340319
 20
788.2519953205131
 30
0.0
 10
2276.977433022752
 20
788.1572631422248
 30
0.0
 10
2276.688134847409
 20
788.0750941892444
 30
0.0
 10
2276.603543217668
 20
788.0510677478802
 30
0.0
  0
SPLINE
  5
34A
330
309
100
AcDbEntity
  8
0
  6
Continuous
 62
     7
370
    15
100
AcDbSpline
210
0.0
220
0.0
230
1.0
 70
     8
 71
     3
 72
    14
 73
    10
 74
     0
 42
0.0000000001
 43
0.0000000001
 40
0.0
 40
0.0
 40
0.0
 40
0.0
 40
0.1297555257940979
 40
0.2873955227324685
 40
0.4475509177714654
 40
0.6092545210953438
 40
0.7714808783373143
 40
0.9331844816611928
 40
1.0
 40
1.0
 40
1.0
 40
1.0
 10
2280.663900834376
 20
789.3750348090207
 30
0.0
 10
2280.488261072898
 20
789.4059378148637
 30
0.0
 10
2280.09923655349
 20
789.4743848845658
 30
0.0
 10
2279.474806245959
 20
789.526794839732
 30
0.0
 10
2278.802211086929
 20
789.5421622797655
 30
0.0
 10
2278.124689463266
 20
789.5100487422774
 30
0.0
 10
2277.458407340766
 20
789.4286376142178
 30
0.0
 10
2276.9325536312
 20
789.3339072405595
 30
0.0
 10
2276.643262755317
 20
789.2517405453945
 30
0.0
 10
2276.5586784996
 20
789.2277162524265
 30
0.0
  0
SPLINE
  5
34B
330
309
100
AcDbEntity
  8
0
  6
Continuous
 62
     7
370
    15
100
AcDbSpline
210
0.0
220
0.0
230
1.0
 70
     8
 71
     3
 72
    14
 73
    10
 74
     0
 42
0.0000000001
 43
0.0000000001
 40
0.0
 40
0.0
 40
0.0
 40
0.0
 40
0.1293525015208039
 40
0.2871558758567287
 40
0.4474772552407769
 40
0.6093484474659448
 40
0.7717429353890601
 40
0.9336141276142274
 40
1.0
 40
1.0
 40
1.0
 40
1.0
 10
2280.616823218523
 20
790.5520314989815
 30
0.0
 10
2280.441908564126
 20
790.5828016063436
 30
0.0
 10
2280.053607060922
 20
790.6511096562527
 30
0.0
 10
2279.429917086368
 20
790.7034316342726
 30
0.0
 10
2278.757324978005
 20
790.7188056296154
 30
0.0
 10
2278.079800661431
 20
790.6866930404934
 30
0.0
 10
2277.413526244268
 20
790.605271421837
 30
0.0
 10
2276.888320698619
 20
790.5106947463946
 30
0.0
 10
2276.599651757993
 20
790.4287204329563
 30
0.0
 10
2276.515695804706
 20
790.4048791717009
 30
0.0
  0
LINE
  5
34C
330
309
100
AcDbEntity
  8
0
  6
Continuous
 62
     7
370
    15
100
AcDbLine
 10
2273.062908821351
 20
787.8112512952991
 30
0.0
 11
2273.489982298473
 21
788.0634938214482
 31
0.0
  0
LINE
  5
34D
330
309
100
AcDbEntity
  8
0
  6
Continuous
 62
     7
370
    15
100
AcDbLine
 10
2280.466835294609
 20
790.5798723175355
 30
0.0
 11
2280.505507623546
 21
790.573521398454
 31
0.0
  0
LINE
  5
34E
330
309
100
AcDbEntity
  8
0
  6
Continuous
 62
     7
370
    15
100
AcDbLine
 10
2280.513230952269
 20
789.4029821759836
 30
0.0
 11
2280.555126259525
 21
789.3961019669663
 31
0.0
  0
LINE
  5
34F
330
309
100
AcDbEntity
  8
0
  6
Continuous
 62
     7
370
    15
100
AcDbLine
 10
2280.557543567235
 20
788.2264341197407
 30
0.0
 11
2280.605559075278
 21
788.2185488277344
 31
0.0
  0
LINE
  5
350
330
309
100
AcDbEntity
  8
0
  6
Continuous
 62
     7
370
    15
100
AcDbLine
 10
2280.600602511565
 20
787.0514148519442
 30
0.0
 11
2280.628377128401
 21
787.0469315806531
 31
0.0
  0
SPLINE
  5
351
330
309
100
AcDbEntity
  8
0
  6
Continuous
 62
     7
370
    15
100
AcDbSpline
210
0.0
220
0.0
230
1.0
 70
     8
 71
     3
 72
    15
 73
    11
 74
     0
 42
0.0000000001
 43
0.0000000001
 40
0.0
 40
0.0
 40
0.0
 40
0.0
 40
0.0193680441725544
 40
0.1750488854913829
 40
0.3302733496222923
 40
0.4881123580056594
 40
0.6464319405320951
 40
0.8042708888451565
 40
0.9657440622767699
 40
1.0
 40
1.0
 40
1.0
 40
1.0
 10
2280.641934207375
 20
787.0432390165858
 30
0.0
 10
2280.617662034551
 20
787.0485495883281
 30
0.0
 10
2280.398289507138
 20
787.0965466734501
 30
0.0
 10
2279.962566067256
 20
787.1475837742045
 30
0.0
 10
2279.339504876544
 20
787.1938764104205
 30
0.0
 10
2278.704122371166
 20
787.192275050322
 30
0.0
 10
2278.066577742163
 20
787.1496843377951
 30
0.0
 10
2277.435021580115
 20
787.0602817690673
 30
0.0
 10
2276.97379433505
 20
786.9712577673285
 30
0.0
 10
2276.732714366051
 20
786.8998294091287
 30
0.0
 10
2276.690521253561
 20
786.8873282263677
 30
0.0
  0
SPLINE
  5
352
330
309
100
AcDbEntity
  8
0
  6
Continuous
 62
     7
370
    15
100
AcDbSpline
210
0.0
220
0.0
230
1.0
 70
     8
 71
     3
 72
    10
 73
     6
 74
     0
 42
0.0000000001
 43
0.0000000001
 40
0.0
 40
0.0
 40
0.0
 40
0.0
 40
0.2625543375452544
 40
0.5921578787807757
 40
1.0
 40
1.0
 40
1.0
 40
1.0
 10
2283.78179869869
 20
785.5148800971922
 30
0.0
 10
2283.703103667544
 20
785.5928283927537
 30
0.0
 10
2283.525617044586
 20
785.768630848679
 30
0.0
 10
2283.170787483516
 20
786.0416879828862
 30
0.0
 10
2282.872643874721
 20
786.2213895209118
 30
0.0
 10
2282.707756442292
 20
786.3207729198334
 30
0.0
  0
LINE
  5
353
330
309
100
AcDbEntity
  8
0
  6
Continuous
 62
     7
370
    15
100
AcDbLine
 10
2273.051699867876
 20
788.105076000865
 30
0.0
 11
2273.062908821351
 21
787.8112512952991
 31
0.0
  0
LINE
  5
354
330
309
100
AcDbEntity
  8
0
  6
Continuous
 62
     7
370
    15
100
AcDbLine
 10
2271.443959370546
 20
782.816880199985
 30
0.0
 11
2271.563658221515
 21
779.6791671457996
 31
0.0
  0
LINE
  5
355
330
309
100
AcDbEntity
  8
0
  6
Continuous
 62
     7
370
    15
100
AcDbLine
 10
2268.624870120906
 20
784.8455042599093
 30
0.0
 11
2268.505171269937
 21
787.9832173140949
 31
0.0
  0
LINE
  5
356
330
309
100
AcDbEntity
  8
0
  6
Continuous
 62
     7
370
    15
100
AcDbLine
 10
2289.499784698008
 20
783.9714143172344
 30
0.0
 11
2289.38008584704
 21
787.1091273714198
 31
0.0
  0
SPLINE
  5
357
330
309
100
AcDbEntity
  8
0
  6
Continuous
 62
     8
370
    15
100
AcDbSpline
210
0.0
220
0.0
230
1.0
 70
     8
 71
     3
 72
    30
 73
    26
 74
     0
 42
0.0000000001
 43
0.0000000001
 40
0.0
 40
0.0
 40
0.0
 40
0.0
 40
0.0426229757993296
 40
0.0852974188151422
 40
0.1277877359879209
 40
0.1698643862938424
 40
0.2113111412872806
 40
0.2561251461415575
 40
0.3016546054644766
 40
0.3476244334058712
 40
0.3937429542774339
 40
0.4397127822188285
 40
0.4852422415417477
 40
0.5300562463960244
 40
0.5748702512503014
 40
0.6203997105732205
 40
0.6663695385146152
 40
0.7124880593861778
 40
0.7584578873275723
 40
0.8039873466504914
 40
0.8488013515047681
 40
0.8936153563590449
 40
0.9391448156819642
 40
0.9851146436233586
 40
0.9999999999999998
 40
0.9999999999999998
 40
0.9999999999999998
 40
0.9999999999999998
 10
2277.133333800574
 20
790.7576750859149
 30
0.0
 10
2277.319212884307
 20
790.7911522147476
 30
0.0
 10
2277.691195500651
 20
790.858146896025
 30
0.0
 10
2278.267615878514
 20
790.9122021682987
 30
0.0
 10
2278.847547028444
 20
790.9314552200961
 30
0.0
 10
2279.423295186281
 20
790.9130582834233
 30
0.0
 10
2280.004335111514
 20
790.8579787159827
 30
0.0
 10
2280.589122651667
 20
790.7621112098503
 30
0.0
 10
2281.173548686424
 20
790.6205608803527
 30
0.0
 10
2281.735271968362
 20
790.4363992199678
 30
0.0
 10
2282.262991100448
 20
790.2122812757249
 30
0.0
 10
2282.74657724065
 20
789.9525521454978
 30
0.0
 10
2283.177698735247
 20
789.6627218871237
 30
0.0
 10
2283.552955758136
 20
789.3473489005267
 30
0.0
 10
2283.87186351785
 20
789.0069142989849
 30
0.0
 10
2284.132296059716
 20
788.6411686474371
 30
0.0
 10
2284.32932210175
 20
788.2539911419842
 30
0.0
 10
2284.457921539109
 20
787.8523575706101
 30
0.0
 10
2284.515596336023
 20
787.4440333186168
 30
0.0
 10
2284.502700564354
 20
787.0367597354571
 30
0.0
 10
2284.42112724056
 20
786.6356502107174
 30
0.0
 10
2284.273743406811
 20
786.240473906917
 30
0.0
 10
2284.054773356342
 20
785.8537013667772
 30
0.0
 10
2283.84600631255
 20
785.5593564232134
 30
0.0
 10
2283.691211247099
 20
785.4035027080835
 30
0.0
 10
2283.653347920575
 20
785.3653804327453
 30
0.0
  0
SPLINE
  5
358
330
309
100
AcDbEntity
  8
0
  6
Continuous
 62
     8
370
    15
100
AcDbSpline
210
0.0
220
0.0
230
1.0
 70
     8
 71
     3
 72
    36
 73
    32
 74
     0
 42
0.0000000001
 43
0.0000000001
 40
0.0
 40
0.0
 40
0.0
 40
0.0
 40
0.0196319231594889
 40
0.055636257860292
 40
0.091295688526398
 40
0.1263947633394217
 40
0.1614938381524446
 40
0.1971532688185506
 40
0.2331576035193536
 40
0.269278396998994
 40
0.3052827316997972
 40
0.3409421623659031
 40
0.3760412371789268
 40
0.4111403119919498
 40
0.4467997426580557
 40
0.4828040773588588
 40
0.5189248708384993
 40
0.5549292055393023
 40
0.5905886362054084
 40
0.625687711018432
 40
0.6607867858314549
 40
0.6964462164975608
 40
0.7324505511983639
 40
0.7685713446780042
 40
0.8045756793788074
 40
0.8402351100449132
 40
0.8753341848579372
 40
0.91043325967096
 40
0.946092690337066
 40
0.9820970250378692
 40
1.0
 40
1.0
 40
1.0
 40
1.0
 10
2273.555609134652
 20
785.7996914361628
 30
0.0
 10
2273.530665878091
 20
785.864288178202
 30
0.0
 10
2273.45997746705
 20
786.0473533301914
 30
0.0
 10
2273.420980759071
 20
786.3579252200604
 30
0.0
 10
2273.43290214217
 20
786.7226644576541
 30
0.0
 10
2273.516461430888
 20
787.0840266310954
 30
0.0
 10
2273.666054780346
 20
787.4389050206663
 30
0.0
 10
2273.883366855676
 20
787.784826758524
 30
0.0
 10
2274.167601310978
 20
788.1176690376421
 30
0.0
 10
2274.514642022606
 20
788.4306682900004
 30
0.0
 10
2274.917803462245
 20
788.7178582637326
 30
0.0
 10
2275.368388286159
 20
788.9741933913755
 30
0.0
 10
2275.859755080305
 20
789.1979558758431
 30
0.0
 10
2276.389405418171
 20
789.3876784116616
 30
0.0
 10
2276.955955841535
 20
789.5409017607431
 30
0.0
 10
2277.553805505855
 20
789.6549845815183
 30
0.0
 10
2278.172006831111
 20
789.7268758918828
 30
0.0
 10
2278.798691349498
 20
789.7552410476484
 30
0.0
 10
2279.421819040684
 20
789.7402765731424
 30
0.0
 10
2280.034299093886
 20
789.6837703727485
 30
0.0
 10
2280.634004682699
 20
789.5854729964081
 30
0.0
 10
2281.218437338806
 20
789.4439173768489
 30
0.0
 10
2281.780157817905
 20
789.2597570035809
 30
0.0
 10
2282.307881457125
 20
789.0356392824487
 30
0.0
 10
2282.791452472591
 20
788.7759079776595
 30
0.0
 10
2283.222629136232
 20
788.4860860680764
 30
0.0
 10
2283.597683908545
 20
788.1706823638612
 30
0.0
 10
2283.917348004175
 20
787.8303626636092
 30
0.0
 10
2284.174904493679
 20
787.464180078904
 30
0.0
 10
2284.347671323883
 20
787.1438172880269
 30
0.0
 10
2284.406663158563
 20
786.9431505455504
 30
0.0
 10
2284.426254737995
 20
786.8765077898879
 30
0.0
  0
SPLINE
  5
359
330
309
100
AcDbEntity
  8
0
  6
Continuous
 62
     8
370
    15
100
AcDbSpline
210
0.0
220
0.0
230
1.0
 70
     8
 71
     3
 72
    32
 73
    28
 74
     0
 42
0.0000000001
 43
0.0000000001
 40
0.0
 40
0.0
 40
0.0
 40
0.0
 40
0.0058196262556908
 40
0.0481591635610813
 40
0.0911746505224754
 40
0.1346061905371659
 40
0.1781782131952705
 40
0.2216097532099611
 40
0.2646252401713551
 40
0.3069647774767463
 40
0.3493043147821373
 40
0.3923198017435314
 40
0.4357513417582218
 40
0.4793233644163264
 40
0.5227549044310168
 40
0.5657703913924108
 40
0.608109928697802
 40
0.6504494660031926
 40
0.6934649529645867
 40
0.7368964929792771
 40
0.7804685156373817
 40
0.8239000556520723
 40
0.8669155426134663
 40
0.9092550799188575
 40
0.9515946172242484
 40
0.9946101041856426
 40
1.0
 40
1.0
 40
1.0
 40
1.0
 10
2273.560988433359
 20
785.8570438544703
 30
0.0
 10
2273.564592466375
 20
785.8734784068513
 30
0.0
 10
2273.594416927243
 20
786.0094792875591
 30
0.0
 10
2273.715105784769
 20
786.2620046424503
 30
0.0
 10
2273.92711875961
 20
786.6082546940763
 30
0.0
 10
2274.212794923525
 20
786.9410076499615
 30
0.0
 10
2274.559447107255
 20
787.2540309741521
 30
0.0
 10
2274.962712246649
 20
787.5412145230098
 30
0.0
 10
2275.413269661914
 20
787.7975513487956
 30
0.0
 10
2275.904643663901
 20
788.021313386695
 30
0.0
 10
2276.434292074353
 20
788.2110360419126
 30
0.0
 10
2277.000843023384
 20
788.36425935849
 30
0.0
 10
2277.598692543913
 20
788.4783421879299
 30
0.0
 10
2278.21689391082
 20
788.5502334966282
 30
0.0
 10
2278.843578407325
 20
788.5785986503571
 30
0.0
 10
2279.466706143863
 20
788.5636341855104
 30
0.0
 10
2280.079186039968
 20
788.5071279491119
 30
0.0
 10
2280.678892213802
 20
788.4088307075737
 30
0.0
 10
2281.263322645965
 20
788.2672745753707
 30
0.0
 10
2281.825051539108
 20
788.0831161416856
 30
0.0
 10
2282.352743653802
 20
787.8589911535891
 30
0.0
 10
2282.836431647159
 20
787.5992868142909
 30
0.0
 10
2283.267178350412
 20
787.3093657911655
 30
0.0
 10
2283.643810233925
 20
786.9943256392269
 30
0.0
 10
2283.957576333763
 20
786.6526463456898
 30
0.0
 10
2284.15485744894
 20
786.3982715479153
 30
0.0
 10
2284.226818468189
 20
786.2541150250004
 30
0.0
 10
2284.234831262927
 20
786.2380633258935
 30
0.0
  0
SPLINE
  5
35A
330
309
100
AcDbEntity
  8
0
  6
Continuous
 62
     8
370
    15
100
AcDbSpline
210
0.0
220
0.0
230
1.0
 70
     8
 71
     3
 72
    28
 73
    24
 74
     0
 42
0.0000000001
 43
0.0000000001
 40
0.0
 40
0.0
 40
0.0
 40
0.0
 40
0.0072563028549788
 40
0.0584138654286205
 40
0.1097369010575243
 40
0.160894463631166
 40
0.2115619616088766
 40
0.2614332654656341
 40
0.3113045693223931
 40
0.3619720673001037
 40
0.4131296298737456
 40
0.4644526655026494
 40
0.5156102280762911
 40
0.5662777260540018
 40
0.6161490299107593
 40
0.6660203337675183
 40
0.7166878317452289
 40
0.7678453943188707
 40
0.8191684299477744
 40
0.8703259925214162
 40
0.9209934904991269
 40
0.9708647943558844
 40
1.0
 40
1.0
 40
1.0
 40
1.0
 10
2273.952001503966
 20
785.3781827528893
 30
0.0
 10
2273.962200229376
 20
785.394738014545
 30
0.0
 10
2274.044300850802
 20
785.5280093023916
 30
0.0
 10
2274.261345508197
 20
785.7634896300675
 30
0.0
 10
2274.603354376024
 20
786.077622762977
 30
0.0
 10
2275.007858836256
 20
786.3645100991525
 30
0.0
 10
2275.458088689455
 20
786.6209252162267
 30
0.0
 10
2275.94954883258
 20
786.8446666653936
 30
0.0
 10
2276.47917420886
 20
787.0343948258983
 30
0.0
 10
2277.04573143842
 20
787.1876166419566
 30
0.0
 10
2277.643579247081
 20
787.3016998782711
 30
0.0
 10
2278.261781087107
 20
787.3735910824405
 30
0.0
 10
2278.888465413603
 20
787.401956245069
 30
0.0
 10
2279.511593355818
 20
787.3869918477055
 30
0.0
 10
2280.124072608087
 20
787.330485337342
 30
0.0
 10
2280.723781160046
 20
787.2321891274525
 30
0.0
 10
2281.308202557164
 20
787.0906290703509
 30
0.0
 10
2281.86996563193
 20
786.9064854869206
 30
0.0
 10
2282.397529680231
 20
786.6823048598026
 30
0.0
 10
2282.881692888786
 20
786.4228069799925
 30
0.0
 10
2283.310692905502
 20
786.1321271006191
 30
0.0
 10
2283.640924544953
 20
785.8629193273888
 30
0.0
 10
2283.803333276626
 20
785.6823259685447
 30
0.0
 10
2283.863224693493
 20
785.6157286124392
 30
0.0
  0
SPLINE
  5
35B
330
309
100
AcDbEntity
  8
0
  6
Continuous
 62
     8
370
    15
100
AcDbSpline
210
0.0
220
0.0
230
1.0
 70
     8
 71
     3
 72
    14
 73
    10
 74
     0
 42
0.0000000001
 43
0.0000000001
 40
0.0
 40
0.0
 40
0.0
 40
0.0
 40
0.1015221703964456
 40
0.2580098334003256
 40
0.4150036677385181
 40
0.5714913307423979
 40
0.7264799179600181
 40
0.8790329990468286
 40
1.0
 40
1.0
 40
1.0
 40
1.0
 10
2276.549901265141
 20
790.4138829177627
 30
0.0
 10
2276.672592130617
 20
790.4488182213683
 30
0.0
 10
2276.984400375431
 20
790.5376032801187
 30
0.0
 10
2277.517157528807
 20
790.6345659926484
 30
0.0
 10
2278.134373740777
 20
790.7076349374646
 30
0.0
 10
2278.76143213383
 20
790.7359439879046
 30
0.0
 10
2279.384053217295
 20
790.7200452528955
 30
0.0
 10
2279.956003252296
 20
790.6708901492347
 30
0.0
 10
2280.310191838299
 20
790.6077823673408
 30
0.0
 10
2280.466835294609
 20
790.5798723175355
 30
0.0
  0
SPLINE
  5
35C
330
309
100
AcDbEntity
  8
0
  6
Continuous
 62
     8
370
    15
100
AcDbSpline
210
0.0
220
0.0
230
1.0
 70
     8
 71
     3
 72
    14
 73
    10
 74
     0
 42
0.0000000001
 43
0.0000000001
 40
0.0
 40
0.0
 40
0.0
 40
0.0
 40
0.0916386969419303
 40
0.2497797200802727
 40
0.4084322624729441
 40
0.5665732856112862
 40
0.7231993945765212
 40
0.8773642652307476
 40
1.0
 40
1.0
 40
1.0
 40
1.0
 10
2276.634415728738
 20
789.2479614782467
 30
0.0
 10
2276.744061686581
 20
789.2790819716135
 30
0.0
 10
2277.042923822031
 20
789.3639071424345
 30
0.0
 10
2277.562136596283
 20
789.4577883746268
 30
0.0
 10
2278.179236300967
 20
789.5310289881071
 30
0.0
 10
2278.806325339641
 20
789.5592908988898
 30
0.0
 10
2279.428939979734
 20
789.5434094771584
 30
0.0
 10
2280.001401915506
 20
789.4941891829935
 30
0.0
 10
2280.356088189621
 20
789.4309847315732
 30
0.0
 10
2280.513230952269
 20
789.4029821759836
 30
0.0
  0
SPLINE
  5
35D
330
309
100
AcDbEntity
  8
0
  6
Continuous
 62
     8
370
    15
100
AcDbSpline
210
0.0
220
0.0
230
1.0
 70
     8
 71
     3
 72
    14
 73
    10
 74
     0
 42
0.0000000001
 43
0.0000000001
 40
0.0
 40
0.0
 40
0.0
 40
0.0
 40
0.1026608463426328
 40
0.2589085585059943
 40
0.4156616658642922
 40
0.5719093780276539
 40
0.7266603130172343
 40
0.8789794763668419
 40
1.0
 40
1.0
 40
1.0
 40
1.0
 10
2276.634937124901
 20
788.0593162140761
 30
0.0
 10
2276.759187259975
 20
788.0947084252199
 30
0.0
 10
2277.072543563884
 20
788.1839668591412
 30
0.0
 10
2277.606921206333
 20
788.2812964875728
 30
0.0
 10
2278.224150736362
 20
788.3543462323772
 30
0.0
 10
2278.851205294287
 20
788.3826595910534
 30
0.0
 10
2279.473828422355
 20
788.3667627178799
 30
0.0
 10
2280.046093936081
 20
788.3175694401768
 30
0.0
 10
2280.400590861288
 20
788.254401556373
 30
0.0
 10
2280.557543567235
 20
788.2264341197407
 30
0.0
  0
SPLINE
  5
35E
330
309
100
AcDbEntity
  8
0
  6
Continuous
 62
     8
370
    15
100
AcDbSpline
210
0.0
220
0.0
230
1.0
 70
     8
 71
     3
 72
    14
 73
    10
 74
     0
 42
0.0000000001
 43
0.0000000001
 40
0.0
 40
0.0
 40
0.0
 40
0.0
 40
0.0990081732202191
 40
0.2559952785381617
 40
0.4134901706748432
 40
0.5704772759927856
 40
0.7259605211097405
 40
0.8790004869922778
 40
1.0
 40
1.0
 40
1.0
 40
1.0
 10
2276.694902804676
 20
786.8867532471568
 30
0.0
 10
2276.814190548162
 20
786.9206920970796
 30
0.0
 10
2277.122620631526
 20
787.0084443003237
 30
0.0
 10
2277.651840957171
 20
787.1046022490888
 30
0.0
 10
2278.2690323391
 20
787.1777261152002
 30
0.0
 10
2278.896081686189
 20
787.2059801413358
 30
0.0
 10
2279.518762769721
 20
787.1902443192096
 30
0.0
 10
2280.090031016233
 20
787.1405832122249
 30
0.0
 10
2280.444215664803
 20
787.0787269107307
 30
0.0
 10
2280.600602511565
 20
787.0514148519442
 30
0.0
  0
SPLINE
  5
35F
330
309
100
AcDbEntity
  8
0
  6
Continuous
 62
     8
370
    15
100
AcDbSpline
210
0.0
220
0.0
230
1.0
 70
     8
 71
     3
 72
    12
 73
     8
 74
     0
 42
0.0000000001
 43
0.0000000001
 40
0.0
 40
0.0
 40
0.0
 40
0.0
 40
0.0226114107849776
 40
0.2647179858267957
 40
0.5092047526701005
 40
0.7547507010010683
 40
1.0
 40
1.0
 40
1.0
 40
1.0
 10
2280.628377128401
 20
787.0469315806531
 30
0.0
 10
2280.645816310037
 20
787.0441628785202
 30
0.0
 10
2280.849981591052
 20
787.0117489235078
 30
0.0
 10
2281.227987818628
 20
786.9151832183123
 30
0.0
 10
2281.753278462694
 20
786.7545129137809
 30
0.0
 10
2282.252840926783
 20
786.5572537020251
 30
0.0
 10
2282.556179052257
 20
786.399568077475
 30
0.0
 10
2282.707756442292
 20
786.3207729198334
 30
0.0
  0
SPLINE
  5
360
330
309
100
AcDbEntity
  8
0
  6
Continuous
 62
     8
370
    15
100
AcDbSpline
210
0.0
220
0.0
230
1.0
 70
     8
 71
     3
 72
    29
 73
    25
 74
     0
 42
0.0000000001
 43
0.0000000001
 40
0.0
 40
0.0
 40
0.0
 40
0.0
 40
0.046934025203858
 40
0.0931294117370208
 40
0.1392141959996247
 40
0.1860347754335332
 40
0.2333082450363022
 40
0.280734635831545
 40
0.3280081054343141
 40
0.3748286848682225
 40
0.4209134691308264
 40
0.4669982533934304
 40
0.5138188328273389
 40
0.5610923024301079
 40
0.6085186932253507
 40
0.6557921628281198
 40
0.7026127422620281
 40
0.7486975265246319
 40
0.7947823107872361
 40
0.8416028902211445
 40
0.8888763598239135
 40
0.9363027506191563
 40
0.9835762202219253
 40
1.0
 40
1.0
 40
1.0
 40
1.0
 10
2274.923443261887
 20
789.7774814070605
 30
0.0
 10
2275.069207513856
 20
789.8644144604012
 30
0.0
 10
2275.358442008003
 20
790.0369124313924
 30
0.0
 10
2275.84864083006
 20
790.2571719688762
 30
0.0
 10
2276.372852142987
 20
790.4454340338022
 30
0.0
 10
2276.934149392774
 20
790.5968633100952
 30
0.0
 10
2277.526182856238
 20
790.7096676295741
 30
0.0
 10
2278.138442613645
 20
790.7806464037959
 30
0.0
 10
2278.759084576143
 20
790.8085316878793
 30
0.0
 10
2279.3762088697
 20
790.7935079234971
 30
0.0
 10
2279.982787058456
 20
790.7373543574729
 30
0.0
 10
2280.576714451699
 20
790.6398125761332
 30
0.0
 10
2281.155515698247
 20
790.4994195747925
 30
0.0
 10
2281.711825408892
 20
790.3168277948211
 30
0.0
 10
2282.234461754883
 20
790.0946612034982
 30
0.0
 10
2282.713388529501
 20
789.8372297332119
 30
0.0
 10
2283.140363269506
 20
789.5499927876297
 30
0.0
 10
2283.511988694828
 20
789.2374696091267
 30
0.0
 10
2283.82789689452
 20
788.9001270476242
 30
0.0
 10
2284.085558993908
 20
788.5377056954098
 30
0.0
 10
2284.281696065011
 20
788.1540608970685
 30
0.0
 10
2284.405300838877
 20
787.7560712628377
 30
0.0
 10
2284.461118167151
 20
787.4384395862894
 30
0.0
 10
2284.45174506895
 20
787.2554021939013
 30
0.0
 10
2284.449328297391
 20
787.2082075998969
 30
0.0
  0
SPLINE
  5
361
330
309
100
AcDbEntity
  8
0
  6
Continuous
 62
     8
370
    15
100
AcDbSpline
210
0.0
220
0.0
230
1.0
 70
     8
 71
     3
 72
    34
 73
    30
 74
     0
 42
0.0000000001
 43
0.0000000001
 40
0.0
 40
0.0
 40
0.0
 40
0.0
 40
0.0354018615713676
 40
0.0724256322777822
 40
0.1094494029841959
 40
0.1470642996369531
 40
0.1850430409303087
 40
0.2231446366376947
 40
0.2611233779310503
 40
0.2987382745838074
 40
0.335762045290222
 40
0.3727858159966357
 40
0.4104007126493929
 40
0.4483794539427485
 40
0.4864810496501344
 40
0.5244597909434901
 40
0.5620746875962471
 40
0.5990984583026618
 40
0.6361222290090755
 40
0.6737371256618326
 40
0.7117158669551881
 40
0.7498174626625742
 40
0.7877962039559297
 40
0.8254111006086867
 40
0.8624348713151016
 40
0.8994586420215155
 40
0.9370735386742726
 40
0.975052279967628
 40
1.0
 40
1.0
 40
1.0
 40
1.0
 10
2273.488394375792
 20
786.2928762363439
 30
0.0
 10
2273.488464261454
 20
786.4062620442086
 30
0.0
 10
2273.488607234535
 20
786.6382283437599
 30
0.0
 10
2273.573400841901
 20
786.9889071521263
 30
0.0
 10
2273.720556255886
 20
787.3401461064324
 30
0.0
 10
2273.93605259577
 20
787.6825333943544
 30
0.0
 10
2274.217478285274
 20
788.0119541696903
 30
0.0
 10
2274.561198670745
 20
788.3217232901333
 30
0.0
 10
2274.960472852976
 20
788.6059338257126
 30
0.0
 10
2275.4067193665
 20
788.8595926498405
 30
0.0
 10
2275.893352641274
 20
789.081003703697
 30
0.0
 10
2276.417900626841
 20
789.2687031876083
 30
0.0
 10
2276.978992457198
 20
789.4202450281352
 30
0.0
 10
2277.571081808568
 20
789.5330187226148
 30
0.0
 10
2278.183326504423
 20
789.6040057499703
 30
0.0
 10
2278.803972487817
 20
789.6318888314063
 30
0.0
 10
2279.421095715295
 20
789.6168656486543
 30
0.0
 10
2280.027674196606
 20
789.5607119316786
 30
0.0
 10
2280.62160146598
 20
789.4631701832095
 30
0.0
 10
2281.200402919818
 20
789.3227772013959
 30
0.0
 10
2281.756711917706
 20
789.1401853083516
 30
0.0
 10
2282.279350914889
 20
788.9180191512338
 30
0.0
 10
2282.758267856891
 20
788.6605860669269
 30
0.0
 10
2283.185278735961
 20
788.3733550545281
 30
0.0
 10
2283.556771602328
 20
788.0608101127119
 30
0.0
 10
2283.873175538859
 20
787.7235489405437
 30
0.0
 10
2284.128952535331
 20
787.3608180949282
 30
0.0
 10
2284.308704768186
 20
787.0225942496675
 30
0.0
 10
2284.372364852103
 20
786.8023844315132
 30
0.0
 10
2284.397603422926
 20
786.71508041384
 30
0.0
  0
SPLINE
  5
362
330
309
100
AcDbEntity
  8
0
  6
Continuous
 62
     8
370
    15
100
AcDbSpline
210
0.0
220
0.0
230
1.0
 70
     8
 71
     3
 72
    32
 73
    28
 74
     0
 42
0.0000000001
 43
0.0000000001
 40
0.0
 40
0.0
 40
0.0
 40
0.0
 40
0.0093527527381311
 40
0.0515362475664412
 40
0.0943932491128591
 40
0.1376648015875631
 40
0.1810763297708459
 40
0.2243478822455498
 40
0.2672048837919678
 40
0.3093883786202785
 40
0.3515718734485891
 40
0.394428874995007
 40
0.437700427469711
 40
0.4811119556529937
 40
0.5243835081276976
 40
0.5672405096741154
 40
0.6094240045024261
 40
0.6516074993307362
 40
0.6944645008771541
 40
0.7377360533518581
 40
0.7811475815351408
 40
0.8244191340098447
 40
0.8672761355562627
 40
0.9094596303845735
 40
0.9516431252128841
 40
0.9945001267593019
 40
1.0
 40
1.0
 40
1.0
 40
1.0
 10
2273.610277088147
 20
785.7325239526874
 30
0.0
 10
2273.615906244403
 20
785.7587735868414
 30
0.0
 10
2273.646924448192
 20
785.9034163120557
 30
0.0
 10
2273.769233847863
 20
786.1632955802658
 30
0.0
 10
2273.979906297492
 20
786.5059477393945
 30
0.0
 10
2274.2626444082
 20
786.8352964520238
 30
0.0
 10
2274.606011107451
 20
787.145084992746
 30
0.0
 10
2275.005379690018
 20
787.4292903449717
 30
0.0
 10
2275.451601252827
 20
787.6829505390977
 30
0.0
 10
2275.938241089054
 20
787.9043612326808
 30
0.0
 10
2276.462787320052
 20
788.0920608129164
 30
0.0
 10
2277.023879628945
 20
788.2436026272282
 30
0.0
 10
2277.615968849381
 20
788.3563763286684
 30
0.0
 10
2278.228213583291
 20
788.4273633547913
 30
0.0
 10
2278.848859546251
 20
788.4552464341691
 30
0.0
 10
2279.465982816907
 20
788.4402232607356
 30
0.0
 10
2280.072561148262
 20
788.384069509117
 30
0.0
 10
2280.666488976178
 20
788.2865278903276
 30
0.0
 10
2281.245288306701
 20
788.1461344153565
 30
0.0
 10
2281.801605337929
 20
787.9635443881693
 30
0.0
 10
2282.324214236938
 20
787.7413712403117
 30
0.0
 10
2282.803242864027
 20
787.4839640964991
 30
0.0
 10
2283.229843237238
 20
787.1966377381114
 30
0.0
 10
2283.602841852982
 20
786.8844425286082
 30
0.0
 10
2283.913614668009
 20
786.5458734461207
 30
0.0
 10
2284.109207292225
 20
786.2934304145889
 30
0.0
 10
2284.18064297539
 20
786.1501961796486
 30
0.0
 10
2284.188767718852
 20
786.1339054218326
 30
0.0
  0
SPLINE
  5
363
330
309
100
AcDbEntity
  8
0
  6
Continuous
 62
     8
370
    15
100
AcDbSpline
210
0.0
220
0.0
230
1.0
 70
     8
 71
     3
 72
    28
 73
    24
 74
     0
 42
0.0000000001
 43
0.0000000001
 40
0.0
 40
0.0
 40
0.0
 40
0.0
 40
0.0023464454617866
 40
0.0539561638327897
 40
0.1057328303830325
 40
0.1573425487540356
 40
0.2084578347454334
 40
0.2587698333562167
 40
0.3090818319670016
 40
0.3601971179583995
 40
0.4118068363294026
 40
0.4635835028796456
 40
0.5151932212506486
 40
0.5663085072420464
 40
0.6166205058528299
 40
0.6669325044636148
 40
0.7180477904550126
 40
0.7696575088260157
 40
0.8214341753762584
 40
0.8730438937472616
 40
0.9241591797386593
 40
0.9744711783494427
 40
1.0
 40
1.0
 40
1.0
 40
1.0
 10
2274.025767894059
 20
785.3097505187442
 30
0.0
 10
2274.029040751235
 20
785.3149943895844
 30
0.0
 10
2274.104299614432
 20
785.4355764183474
 30
0.0
 10
2274.311922044097
 20
785.6576122443797
 30
0.0
 10
2274.649723927905
 20
785.9687212281325
 30
0.0
 10
2275.050577783037
 20
786.2525741485819
 30
0.0
 10
2275.496406777235
 20
786.506327493043
 30
0.0
 10
2275.983149849645
 20
786.7277136903481
 30
0.0
 10
2276.507668475303
 20
786.9154198207405
 30
0.0
 10
2277.068768310932
 20
787.0669598496679
 30
0.0
 10
2277.660855480513
 20
787.1797340355048
 30
0.0
 10
2278.273100778654
 20
787.2507209361348
 30
0.0
 10
2278.893746548184
 20
787.2786040302764
 30
0.0
 10
2279.510870027406
 20
787.2635809217883
 30
0.0
 10
2280.117447726283
 20
787.207426900496
 30
0.0
 10
2280.711377883958
 20
787.1098862986525
 30
0.0
 10
2281.290168364936
 20
786.9694889543219
 30
0.0
 10
2281.846518875553
 20
786.7869135673726
 30
0.0
 10
2282.369002339287
 20
786.5646855673128
 30
0.0
 10
2282.848496418066
 20
786.3074819632623
 30
0.0
 10
2283.273385993095
 20
786.0194074811112
 30
0.0
 10
2283.590714071632
 20
785.7604982414509
 30
0.0
 10
2283.745633397731
 20
785.5909965122713
 30
0.0
 10
2283.797780880215
 20
785.5339404387904
 30
0.0
  0
SPLINE
  5
364
330
309
100
AcDbEntity
  8
0
  6
Continuous
 62
     8
370
    15
100
AcDbSpline
210
0.0
220
0.0
230
1.0
 70
     8
 71
     3
 72
    30
 73
    26
 74
     0
 42
0.0000000001
 43
0.0000000001
 40
0.0
 40
0.0
 40
0.0
 40
0.0
 40
0.0421358176042325
 40
0.0838608716968662
 40
0.124966825571042
 40
0.1700353848723495
 40
0.2158235141758208
 40
0.2620545468748241
 40
0.308435128669949
 40
0.3546661613689523
 40
0.4004542906724236
 40
0.4455228499737311
 40
0.4905914092750387
 40
0.5363795385785099
 40
0.5826105712775133
 40
0.6289911530726381
 40
0.6752221857716415
 40
0.7210103150751129
 40
0.7660788743764203
 40
0.8111474336777281
 40
0.856935562981199
 40
0.9031665956802024
 40
0.9495471774753273
 40
0.9957782101743307
 40
1.0
 40
1.0
 40
1.0
 40
1.0
 10
2274.626287872179
 20
789.5558653735707
 30
0.0
 10
2274.748115715057
 20
789.6420788370282
 30
0.0
 10
2274.990583754877
 20
789.8136653068925
 30
0.0
 10
2275.405462640113
 20
790.0401096913773
 30
0.0
 10
2275.864192906095
 20
790.2473749245218
 30
0.0
 10
2276.373664523363
 20
790.429508395129
 30
0.0
 10
2276.934695785627
 20
790.581076643918
 30
0.0
 10
2277.526801615515
 20
790.6938431535711
 30
0.0
 10
2278.139041870776
 20
790.7648321172151
 30
0.0
 10
2278.759689038548
 20
790.7927146817006
 30
0.0
 10
2279.376811956054
 20
790.7776916361224
 30
0.0
 10
2279.983390507627
 20
790.7215378810923
 30
0.0
 10
2280.577317800306
 20
790.6239961502092
 30
0.0
 10
2281.156119087759
 20
790.4836031354283
 30
0.0
 10
2281.712428736249
 20
790.30101135792
 30
0.0
 10
2282.235065290164
 20
790.0788447704046
 30
0.0
 10
2282.713991299897
 20
789.8214132825104
 30
0.0
 10
2283.140968849529
 20
789.5341764025673
 30
0.0
 10
2283.512583969508
 20
789.2216529830557
 30
0.0
 10
2283.828530708448
 20
788.8843113229288
 30
0.0
 10
2284.086046257432
 20
788.5218865431002
 30
0.0
 10
2284.282737797981
 20
788.1382547130491
 30
0.0
 10
2284.404265161812
 20
787.7402164910066
 30
0.0
 10
2284.459394712347
 20
787.4573165729948
 30
0.0
 10
2284.453723457195
 20
787.3091136064381
 30
0.0
 10
2284.453248898071
 20
787.296712282884
 30
0.0
  0
SPLINE
  5
365
330
309
100
AcDbEntity
  8
0
  6
Continuous
 62
     8
370
    15
100
AcDbSpline
210
0.0
220
0.0
230
1.0
 70
     8
 71
     3
 72
    34
 73
    30
 74
     0
 42
0.0000000001
 43
0.0000000001
 40
0.0
 40
0.0
 40
0.0
 40
0.0
 40
0.034212126353088
 40
0.0713068018022371
 40
0.1084014772513853
 40
0.1460884107204704
 40
0.1841398856341301
 40
0.2223144502420321
 40
0.2603659251556917
 40
0.2980528586247769
 40
0.335147534073926
 40
0.3722422095230741
 40
0.4099291429921593
 40
0.4479806179058189
 40
0.4861551825137209
 40
0.5242066574273806
 40
0.5618935908964657
 40
0.5989882663456148
 40
0.6360829417947631
 40
0.6737698752638482
 40
0.7118213501775078
 40
0.7499959147854096
 40
0.7880473896990692
 40
0.8257343231681543
 40
0.8628289986173037
 40
0.8999236740664519
 40
0.9376106075355369
 40
0.9756620824491966
 40
1.0
 40
1.0
 40
1.0
 40
1.0
 10
2273.489479275034
 20
786.2891204089336
 30
0.0
 10
2273.489620502489
 20
786.3984863756039
 30
0.0
 10
2273.489914856544
 20
786.6264329588938
 30
0.0
 10
2273.574078459583
 20
786.9730908313344
 30
0.0
 10
2273.721139386916
 20
787.3243296381562
 30
0.0
 10
2273.936661486281
 20
787.666716966286
 30
0.0
 10
2274.21808016748
 20
787.9961377306829
 30
0.0
 10
2274.561802441629
 20
788.3059068540737
 30
0.0
 10
2274.961076119765
 20
788.5901173888663
 30
0.0
 10
2275.407322766525
 20
788.8437762132022
 30
0.0
 10
2275.893956006262
 20
789.065187267004
 30
0.0
 10
2276.418504001198
 20
789.2528867509299
 30
0.0
 10
2276.979595829
 20
789.4044285914528
 30
0.0
 10
2277.571685181067
 20
789.5172022859338
 30
0.0
 10
2278.183929876726
 20
789.5881893132874
 30
0.0
 10
2278.804575860204
 20
789.6160723947295
 30
0.0
 10
2279.42169908754
 20
789.6010492119549
 30
0.0
 10
2280.028277569331
 20
789.5448954950625
 30
0.0
 10
2280.62220483692
 20
789.4473537462823
 30
0.0
 10
2281.201006297541
 20
789.3069607656521
 30
0.0
 10
2281.75731526977
 20
789.12436886813
 30
0.0
 10
2282.279954363086
 20
788.9022027277885
 30
0.0
 10
2282.758870948365
 20
788.6447695812302
 30
0.0
 10
2283.185883138594
 20
788.3575387976409
 30
0.0
 10
2283.557371195589
 20
788.0449930165432
 30
0.0
 10
2283.873793117953
 20
787.7077349830756
 30
0.0
 10
2284.129501720988
 20
787.3449922021482
 30
0.0
 10
2284.308307883788
 20
787.0090159179836
 30
0.0
 10
2284.371400615221
 20
786.7911197507797
 30
0.0
 10
2284.396012903224
 20
786.7061191001472
 30
0.0
  0
SPLINE
  5
366
330
309
100
AcDbEntity
  8
0
  6
Continuous
 62
     8
370
    15
100
AcDbSpline
210
0.0
220
0.0
230
1.0
 70
     8
 71
     3
 72
    32
 73
    28
 74
     0
 42
0.0000000001
 43
0.0000000001
 40
0.0
 40
0.0
 40
0.0
 40
0.0
 40
0.0079730844737711
 40
0.0502537937686225
 40
0.0932095619193688
 40
0.136580836356593
 40
0.1800924090850529
 40
0.2234636835222771
 40
0.2664194516730234
 40
0.3087001609678754
 40
0.3509808702627272
 40
0.3939366384134734
 40
0.4373079128506977
 40
0.4808194855791573
 40
0.5241907600163814
 40
0.5671465281671276
 40
0.6094272374619797
 40
0.6517079467568311
 40
0.6946637149075774
 40
0.7380349893448016
 40
0.7815465620732615
 40
0.8249178365104857
 40
0.8678736046612321
 40
0.910154313956084
 40
0.9524350232509359
 40
0.9953907914016822
 40
1.0
 40
1.0
 40
1.0
 40
1.0
 10
2273.61358075153
 20
785.7284649246554
 30
0.0
 10
2273.618409484393
 20
785.7507877422856
 30
0.0
 10
2273.648844649892
 20
785.8914869004608
 30
0.0
 10
2273.770042277003
 20
786.147463343022
 30
0.0
 10
2273.980453767527
 20
786.4901356102416
 30
0.0
 10
2274.263262876588
 20
786.8194788521236
 30
0.0
 10
2274.606610442394
 20
787.129268867165
 30
0.0
 10
2275.005984131757
 20
787.4134738258888
 30
0.0
 10
2275.452204344801
 20
787.6671341240203
 30
0.0
 10
2275.938844535986
 20
787.8885447902526
 30
0.0
 10
2276.463390672066
 20
788.0762443778012
 30
0.0
 10
2277.024483006842
 20
788.227786190121
 30
0.0
 10
2277.616572220214
 20
788.3405598920969
 30
0.0
 10
2278.22881695612
 20
788.4115469180989
 30
0.0
 10
2278.849462918204
 20
788.439429997422
 30
0.0
 10
2279.466586190347
 20
788.4244068243222
 30
0.0
 10
2280.073164516708
 20
788.3682530714444
 30
0.0
 10
2280.667092363175
 20
788.2707114573737
 30
0.0
 10
2281.245891623186
 20
788.1303179644567
 30
0.0
 10
2281.802208921187
 20
787.9477280051681
 30
0.0
 10
2282.324816820691
 20
787.725554602917
 30
0.0
 10
2282.803849156635
 20
787.468148403081
 30
0.0
 10
2283.230435897706
 20
787.1808185750451
 30
0.0
 10
2283.603484516607
 20
786.8686360923291
 30
0.0
 10
2283.914070332483
 20
786.5300194148791
 30
0.0
 10
2284.108212744744
 20
786.2802157042669
 30
0.0
 10
2284.178496176485
 20
786.1396966270633
 30
0.0
 10
2284.185306880916
 20
786.1260798488552
 30
0.0
  0
SPLINE
  5
367
330
309
100
AcDbEntity
  8
0
  6
Continuous
 62
     8
370
    15
100
AcDbSpline
210
0.0
220
0.0
230
1.0
 70
     8
 71
     3
 72
    28
 73
    24
 74
     0
 42
0.0000000001
 43
0.0000000001
 40
0.0
 40
0.0
 40
0.0
 40
0.0
 40
0.0009099054908986
 40
0.0526510196091915
 40
0.104559506948392
 40
0.1563006210666849
 40
0.2075460440054013
 40
0.2579861344342331
 40
0.3084262248630664
 40
0.3596716478017829
 40
0.4114127619200758
 40
0.4633212492592762
 40
0.5150623633775692
 40
0.5663077863162857
 40
0.6167478767451174
 40
0.6671879671739508
 40
0.7184333901126672
 40
0.77017450423096
 40
0.8220829915701603
 40
0.8738241056884533
 40
0.9250695286271698
 40
0.9755096190560015
 40
1.0
 40
1.0
 40
1.0
 40
1.0
 10
2274.032427651246
 20
785.3035723383757
 30
0.0
 10
2274.03369807587
 20
785.3055995783629
 30
0.0
 10
2274.107210273016
 20
785.4229043461518
 30
0.0
 10
2274.312763656182
 20
785.6417393323425
 30
0.0
 10
2274.650263583494
 20
785.9529198956764
 30
0.0
 10
2275.051198032081
 20
786.236753711236
 30
0.0
 10
2275.497005724826
 20
786.4905121052601
 30
0.0
 10
2275.983754399021
 20
786.7118969746571
 30
0.0
 10
2276.508271526721
 20
786.8996034601074
 30
0.0
 10
2277.069371770932
 20
787.0511433923195
 30
0.0
 10
2277.661458828598
 20
787.1639176041569
 30
0.0
 10
2278.27370415972
 20
787.2349044989513
 30
0.0
 10
2278.894349909977
 20
787.2627875903043
 30
0.0
 10
2279.511473432775
 20
787.2477644985277
 30
0.0
 10
2280.118050979006
 20
787.1916104142326
 30
0.0
 10
2280.711981705612
 20
787.0940700484611
 30
0.0
 10
2281.290770023684
 20
786.9536718063118
 30
0.0
 10
2281.847128717457
 20
786.7710998162687
 30
0.0
 10
2282.369581521701
 20
786.5488590891376
 30
0.0
 10
2282.849189368445
 20
786.291702711352
 30
0.0
 10
2283.273660781851
 20
786.0034546459642
 30
0.0
 10
2283.589510004245
 20
785.7473180936498
 30
0.0
 10
2283.740772315672
 20
785.579697935172
 30
0.0
 10
2283.790211102876
 20
785.5249127261668
 30
0.0
  0
ENDBLK
  5
30B
330
309
100
AcDbEntity
  8
0
100
AcDbBlockEnd
  0
ENDSEC
  0
SECTION
  2
ENTITIES
  0
INSERT
  5
2F1
330
1F
100
AcDbEntity
  8
0
100
AcDbBlockReference
  2
1
 10
0.0
 20
0.0
 30
0.0
  0
INSERT
  5
308
330
1F
100
AcDbEntity
  8
0
100
AcDbBlockReference
  2
2
 10
0.0
 20
0.0
 30
0.0
  0
INSERT
  5
368
330
1F
100
AcDbEntity
  8
0
100
AcDbBlockReference
  2
3
 10
0.0
 20
0.0
 30
0.0
  0
ENDSEC
  0
SECTION
  2
OBJECTS
  0
DICTIONARY
  5
C
330
0
100
AcDbDictionary
281
     1
  3
ACAD_COLOR
350
6B
  3
ACAD_GROUP
350
D
  3
ACAD_LAYOUT
350
1A
  3
ACAD_MATERIAL
350
6A
  3
ACAD_MLEADERSTYLE
350
12D
  3
ACAD_MLINESTYLE
350
17
  3
ACAD_PLOTSETTINGS
350
19
  3
ACAD_PLOTSTYLENAME
350
E
  3
ACAD_SCALELIST
350
10C
  3
ACAD_TABLESTYLE
350
7E
  3
ACAD_VISUALSTYLE
350
EF
  3
ACDB_RECOMPOSE_DATA
350
15D
  3
AcDbVariableDictionary
350
5E
  3
DWGPROPS
350
376
  0
DICTIONARY
  5
13C
330
10
100
AcDbDictionary
280
     1
281
     1
  3
ADSK_XREC_LAYER_RECONCILED
360
369
  0
DICTIONARY
  5
6B
102
{ACAD_REACTORS
330
C
102
}
330
C
100
AcDbDictionary
281
     1
  0
DICTIONARY
  5
D
102
{ACAD_REACTORS
330
C
102
}
330
C
100
AcDbDictionary
281
     1
  0
DICTIONARY
  5
1A
102
{ACAD_REACTORS
330
C
102
}
330
C
100
AcDbDictionary
281
     1
  3
Layout1
350
D3
  3
Layout2
350
D7
  3
Model
350
22
  0
DICTIONARY
  5
6A
102
{ACAD_REACTORS
330
C
102
}
330
C
100
AcDbDictionary
281
     1
  3
ByBlock
350
ED
  3
ByLayer
350
EC
  3
Global
350
EE
  0
DICTIONARY
  5
12D
102
{ACAD_REACTORS
330
C
102
}
330
C
100
AcDbDictionary
281
     1
  3
Annotative
350
13B
  3
Standard
350
12E
  0
DICTIONARY
  5
17
102
{ACAD_REACTORS
330
C
102
}
330
C
100
AcDbDictionary
281
     1
  3
Standard
350
18
  0
DICTIONARY
  5
19
102
{ACAD_REACTORS
330
C
102
}
330
C
100
AcDbDictionary
281
     1
  0
ACDBDICTIONARYWDFLT
  5
E
102
{ACAD_REACTORS
330
C
102
}
330
C
100
AcDbDictionary
281
     1
  3
Normal
350
F
100
AcDbDictionaryWithDefault
340
F
  0
DICTIONARY
  5
10C
102
{ACAD_REACTORS
330
C
102
}
330
C
100
AcDbDictionary
281
     1
  3
A0
350
10D
  3
A1
350
188
  3
A2
350
189
  3
A3
350
18A
  3
A4
350
18B
  3
A5
350
18C
  3
A6
350
18D
  3
A7
350
18E
  3
A8
350
18F
  3
A9
350
190
  3
B0
350
191
  3
B1
350
192
  3
B2
350
193
  3
B3
350
194
  3
B4
350
195
  3
B5
350
196
  3
B6
350
197
  3
B7
350
198
  3
B8
350
199
  3
B9
350
19A
  3
C0
350
19B
  3
C1
350
19C
  3
C2
350
19D
  3
C3
350
19E
  3
C4
350
19F
  3
C5
350
1A0
  3
C6
350
1A1
  3
C7
350
1A2
  3
C8
350
1A3
  3
C9
350
1A4
  3
D0
350
1A5
  3
D1
350
1A6
  3
D2
350
1A7
  0
DICTIONARY
  5
7E
102
{ACAD_REACTORS
330
C
102
}
330
C
100
AcDbDictionary
281
     1
  3
Standard
350
7F
  0
DICTIONARY
  5
EF
102
{ACAD_REACTORS
330
C
102
}
330
C
100
AcDbDictionary
281
     1
  3
2dWireframe
350
F5
  3
3D Hidden
350
F7
  3
3dWireframe
350
F6
  3
Basic
350
F4
  3
Brighten
350
FB
  3
ColorChange
350
FF
  3
Conceptual
350
F8
  3
Dim
350
FA
  3
Facepattern
350
FE
  3
Flat
350
F0
  3
FlatWithEdges
350
F1
  3
Gouraud
350
F2
  3
GouraudWithEdges
350
F3
  3
Linepattern
350
FD
  3
Realistic
350
F9
  3
Thicken
350
FC
  0
XRECORD
  5
15D
102
{ACAD_REACTORS
330
C
102
}
330
C
100
AcDbXrecord
280
     1
 90
        1
330
7F
  0
DICTIONARY
  5
5E
102
{ACAD_REACTORS
330
C
102
}
330
C
100
AcDbDictionary
281
     1
  3
CANNOSCALE
350
146
  3
CMLEADERSTYLE
350
145
  3
CTABLESTYLE
350
84
  3
DIMASSOC
350
5F
  3
HIDETEXT
350
63
  3
INDEXCTL
350
372
  3
LIGHTINGUNITS
350
370
  3
MSLTSCALE
350
36F
  3
PSOLHEIGHT
350
374
  3
PSOLWIDTH
350
373
  3
SORTENTS
350
371
  0
XRECORD
  5
376
102
{ACAD_REACTORS
330
C
102
}
330
C
100
AcDbXrecord
280
     1
  1
DWGPROPS COOKIE
  2

  3

  4

  6

  7

  8
orhan kara
  9

300
=
301
=
302
=
303
=
304
=
305
=
306
=
307
=
308
=
309
=
 40
0.0010165625
 41
2459004.682924665
 42
2459067.624166551
  1

 90
        0
  0
XRECORD
  5
369
102
{ACAD_REACTORS
330
13C
102
}
330
13C
100
AcDbXrecord
280
     1
290
     1
  0
LAYOUT
  5
D3
102
{ACAD_XDICTIONARY
360
37A
102
}
102
{ACAD_REACTORS
330
1A
102
}
330
1A
100
AcDbPlotSettings
  1

  2
C:\Documents and Settings\basas\Application Data\Autodesk\AutoCAD 2005\R16.1\enu\plotters\Default Windows System Printer.pc3
  4

  6

 40
0.0
 41
0.0
 42
0.0
 43
0.0
 44
0.0
 45
0.0
 46
0.0
 47
0.0
 48
0.0
 49
0.0
140
0.0
141
0.0
142
1.0
143
1.0
 70
   688
 72
     0
 73
     0
 74
     5
  7

 75
    16
147
1.0
148
0.0
149
0.0
100
AcDbLayout
  1
Layout1
 70
     1
 71
     1
 10
0.0
 20
0.0
 11
12.0
 21
9.0
 12
0.0
 22
0.0
 32
0.0
 14
0.0
 24
0.0
 34
0.0
 15
0.0
 25
0.0
 35
0.0
146
0.0
 13
0.0
 23
0.0
 33
0.0
 16
1.0
 26
0.0
 36
0.0
 17
0.0
 27
1.0
 37
0.0
 76
     0
330
D2
  0
LAYOUT
  5
D7
102
{ACAD_XDICTIONARY
360
37C
102
}
102
{ACAD_REACTORS
330
1A
102
}
330
1A
100
AcDbPlotSettings
  1

  2
C:\Documents and Settings\basas\Application Data\Autodesk\AutoCAD 2005\R16.1\enu\plotters\Default Windows System Printer.pc3
  4

  6

 40
0.0
 41
0.0
 42
0.0
 43
0.0
 44
0.0
 45
0.0
 46
0.0
 47
0.0
 48
0.0
 49
0.0
140
0.0
141
0.0
142
1.0
143
1.0
 70
   688
 72
     0
 73
     0
 74
     5
  7

 75
    16
147
1.0
148
0.0
149
0.0
100
AcDbLayout
  1
Layout2
 70
     1
 71
     2
 10
0.0
 20
0.0
 11
12.0
 21
9.0
 12
0.0
 22
0.0
 32
0.0
 14
0.0
 24
0.0
 34
0.0
 15
0.0
 25
0.0
 35
0.0
146
0.0
 13
0.0
 23
0.0
 33
0.0
 16
1.0
 26
0.0
 36
0.0
 17
0.0
 27
1.0
 37
0.0
 76
     0
330
D6
  0
LAYOUT
  5
22
102
{ACAD_XDICTIONARY
360
377
102
}
102
{ACAD_REACTORS
330
1A
102
}
330
1A
100
AcDbPlotSettings
  1

  2
none_device
  4
ISO_A4_(210.00_x_297.00_MM)
  6

 40
7.5
 41
20.0
 42
7.5
 43
20.0
 44
210.0
 45
297.0
 46
11.54999923706054
 47
-13.65000009536743
 48
0.0
 49
0.0
140
0.0
141
0.0
142
1.0
143
8.704084754739808
 70
 11952
 72
     1
 73
     0
 74
     0
  7

 75
     0
147
0.1148885871608098
148
0.0
149
0.0
100
AcDbLayout
  1
Model
 70
     1
 71
     0
 10
0.0
 20
0.0
 11
12.0
 21
9.0
 12
0.0
 22
0.0
 32
0.0
 14
0.0
 24
0.0
 34
0.0
 15
0.0
 25
0.0
 35
0.0
146
0.0
 13
0.0
 23
0.0
 33
0.0
 16
1.0
 26
0.0
 36
0.0
 17
0.0
 27
1.0
 37
0.0
 76
     0
330
1F
331
EA
1001
ACAD_PSEXT
1000
None
1000
None
1000
Not applicable
1000
The layout will not be plotted unless a new plotter configuration name is selected.
1070
     0
  0
MATERIAL
  5
ED
102
{ACAD_XDICTIONARY
360
380
102
}
102
{ACAD_REACTORS
330
6A
102
}
330
6A
100
AcDbMaterial
  1
ByBlock
  0
MATERIAL
  5
EC
102
{ACAD_XDICTIONARY
360
37E
102
}
102
{ACAD_REACTORS
330
6A
102
}
330
6A
100
AcDbMaterial
  1
ByLayer
  0
MATERIAL
  5
EE
102
{ACAD_XDICTIONARY
360
173
102
}
102
{ACAD_REACTORS
330
6A
102
}
330
6A
100
AcDbMaterial
  1
Global
 43
0.0007999999797903
 43
0.0
 43
0.0
 43
0.0
 43
0.0
 43
0.0007999999797903
 43
0.0
 43
0.0
 43
0.0
 43
0.0
 43
1.0
 43
0.0
 43
0.0
 43
0.0
 43
0.0
 43
1.0
 49
0.0007999999797903
 49
0.0
 49
0.0
 49
0.0
 49
0.0
 49
0.0007999999797903
 49
0.0
 49
0.0
 49
0.0
 49
0.0
 49
1.0
 49
0.0
 49
0.0
 49
0.0
 49
0.0
 49
1.0
142
0.0007999999797903
142
0.0
142
0.0
142
0.0
142
0.0
142
0.0007999999797903
142
0.0
142
0.0
142
0.0
142
0.0
142
1.0
142
0.0
142
0.0
142
0.0
142
0.0
142
1.0
144
0.0007999999797903
144
0.0
144
0.0
144
0.0
144
0.0
144
0.0007999999797903
144
0.0
144
0.0
144
0.0
144
0.0
144
1.0
144
0.0
144
0.0
144
0.0
144
0.0
144
1.0
1001
ACAD
1070
    -1
1070
     3
1070
     0
1000

1071
        0
1070
     0
  0
MLEADERSTYLE
  5
13B
102
{ACAD_REACTORS
330
12D
102
}
330
12D
100
AcDbMLeaderStyle
170
     2
171
     1
172
     0
 90
        2
 40
0.0
 41
0.0
173
     1
 91
-1056964608
340
14
 92
       -2
290
     1
 42
2.0
291
     1
 43
8.0
  3
Standard
 44
4.0
300

342
11
174
     1
178
     1
175
     1
176
     0
 93
-1056964608
 45
4.0
292
     0
297
     0
 46
4.0
 94
-1056964608
 47
1.0
 49
1.0
140
1.0
293
     1
141
0.0
294
     1
177
     0
142
1.0
295
     0
296
     1
143
3.75
1001
ACAD_MLEADERVER
1070
     2
  0
MLEADERSTYLE
  5
12E
102
{ACAD_REACTORS
330
12D
102
}
330
12D
100
AcDbMLeaderStyle
170
     2
171
     1
172
     0
 90
        2
 40
0.0
 41
0.0
173
     1
 91
-1056964608
340
14
 92
       -2
290
     1
 42
2.0
291
     1
 43
8.0
  3
Standard
 44
4.0
300

342
11
174
     1
178
     1
175
     1
176
     0
 93
-1056964608
 45
4.0
292
     0
297
     0
 46
4.0
 94
-1056964608
 47
1.0
 49
1.0
140
1.0
293
     1
141
0.0
294
     1
177
     0
142
1.0
295
     0
296
     0
143
3.75
1001
ACAD_MLEADERVER
1070
     2
  0
MLINESTYLE
  5
18
102
{ACAD_REACTORS
330
17
102
}
330
17
100
AcDbMlineStyle
  2
STANDARD
 70
     0
  3

 62
   256
 51
90.0
 52
90.0
 71
     2
 49
0.5
 62
   256
  6
BYLAYER
 49
-0.5
 62
   256
  6
BYLAYER
  0
ACDBPLACEHOLDER
  5
F
102
{ACAD_REACTORS
330
E
102
}
330
E
  0
SCALE
  5
10D
102
{ACAD_REACTORS
330
10C
102
}
330
10C
100
AcDbScale
 70
     0
300
1:1
140
1.0
141
1.0
290
     1
  0
SCALE
  5
188
102
{ACAD_REACTORS
330
10C
102
}
330
10C
100
AcDbScale
 70
     0
300
1:2
140
1.0
141
2.0
290
     0
  0
SCALE
  5
189
102
{ACAD_REACTORS
330
10C
102
}
330
10C
100
AcDbScale
 70
     0
300
1:4
140
1.0
141
4.0
290
     0
  0
SCALE
  5
18A
102
{ACAD_REACTORS
330
10C
102
}
330
10C
100
AcDbScale
 70
     0
300
1:5
140
1.0
141
5.0
290
     0
  0
SCALE
  5
18B
102
{ACAD_REACTORS
330
10C
102
}
330
10C
100
AcDbScale
 70
     0
300
1:8
140
1.0
141
8.0
290
     0
  0
SCALE
  5
18C
102
{ACAD_REACTORS
330
10C
102
}
330
10C
100
AcDbScale
 70
     0
300
1:10
140
1.0
141
10.0
290
     0
  0
SCALE
  5
18D
102
{ACAD_REACTORS
330
10C
102
}
330
10C
100
AcDbScale
 70
     0
300
1:16
140
1.0
141
16.0
290
     0
  0
SCALE
  5
18E
102
{ACAD_REACTORS
330
10C
102
}
330
10C
100
AcDbScale
 70
     0
300
1:20
140
1.0
141
20.0
290
     0
  0
SCALE
  5
18F
102
{ACAD_REACTORS
330
10C
102
}
330
10C
100
AcDbScale
 70
     0
300
1:30
140
1.0
141
30.0
290
     0
  0
SCALE
  5
190
102
{ACAD_REACTORS
330
10C
102
}
330
10C
100
AcDbScale
 70
     0
300
1:40
140
1.0
141
40.0
290
     0
  0
SCALE
  5
191
102
{ACAD_REACTORS
330
10C
102
}
330
10C
100
AcDbScale
 70
     0
300
1:50
140
1.0
141
50.0
290
     0
  0
SCALE
  5
192
102
{ACAD_REACTORS
330
10C
102
}
330
10C
100
AcDbScale
 70
     0
300
1:100
140
1.0
141
100.0
290
     0
  0
SCALE
  5
193
102
{ACAD_REACTORS
330
10C
102
}
330
10C
100
AcDbScale
 70
     0
300
2:1
140
2.0
141
1.0
290
     0
  0
SCALE
  5
194
102
{ACAD_REACTORS
330
10C
102
}
330
10C
100
AcDbScale
 70
     0
300
4:1
140
4.0
141
1.0
290
     0
  0
SCALE
  5
195
102
{ACAD_REACTORS
330
10C
102
}
330
10C
100
AcDbScale
 70
     0
300
8:1
140
8.0
141
1.0
290
     0
  0
SCALE
  5
196
102
{ACAD_REACTORS
330
10C
102
}
330
10C
100
AcDbScale
 70
     0
300
10:1
140
10.0
141
1.0
290
     0
  0
SCALE
  5
197
102
{ACAD_REACTORS
330
10C
102
}
330
10C
100
AcDbScale
 70
     0
300
100:1
140
100.0
141
1.0
290
     0
  0
SCALE
  5
198
102
{ACAD_REACTORS
330
10C
102
}
330
10C
100
AcDbScale
 70
     0
300
1/128" = 1'-0"
140
0.0078125
141
12.0
290
     0
  0
SCALE
  5
199
102
{ACAD_REACTORS
330
10C
102
}
330
10C
100
AcDbScale
 70
     0
300
1/64" = 1'-0"
140
0.015625
141
12.0
290
     0
  0
SCALE
  5
19A
102
{ACAD_REACTORS
330
10C
102
}
330
10C
100
AcDbScale
 70
     0
300
1/32" = 1'-0"
140
0.03125
141
12.0
290
     0
  0
SCALE
  5
19B
102
{ACAD_REACTORS
330
10C
102
}
330
10C
100
AcDbScale
 70
     0
300
1/16" = 1'-0"
140
0.0625
141
12.0
290
     0
  0
SCALE
  5
19C
102
{ACAD_REACTORS
330
10C
102
}
330
10C
100
AcDbScale
 70
     0
300
3/32" = 1'-0"
140
0.09375
141
12.0
290
     0
  0
SCALE
  5
19D
102
{ACAD_REACTORS
330
10C
102
}
330
10C
100
AcDbScale
 70
     0
300
1/8" = 1'-0"
140
0.125
141
12.0
290
     0
  0
SCALE
  5
19E
102
{ACAD_REACTORS
330
10C
102
}
330
10C
100
AcDbScale
 70
     0
300
3/16" = 1'-0"
140
0.1875
141
12.0
290
     0
  0
SCALE
  5
19F
102
{ACAD_REACTORS
330
10C
102
}
330
10C
100
AcDbScale
 70
     0
300
1/4" = 1'-0"
140
0.25
141
12.0
290
     0
  0
SCALE
  5
1A0
102
{ACAD_REACTORS
330
10C
102
}
330
10C
100
AcDbScale
 70
     0
300
3/8" = 1'-0"
140
0.375
141
12.0
290
     0
  0
SCALE
  5
1A1
102
{ACAD_REACTORS
330
10C
102
}
330
10C
100
AcDbScale
 70
     0
300
1/2" = 1'-0"
140
0.5
141
12.0
290
     0
  0
SCALE
  5
1A2
102
{ACAD_REACTORS
330
10C
102
}
330
10C
100
AcDbScale
 70
     0
300
3/4" = 1'-0"
140
0.75
141
12.0
290
     0
  0
SCALE
  5
1A3
102
{ACAD_REACTORS
330
10C
102
}
330
10C
100
AcDbScale
 70
     0
300
1" = 1'-0"
140
1.0
141
12.0
290
     0
  0
SCALE
  5
1A4
102
{ACAD_REACTORS
330
10C
102
}
330
10C
100
AcDbScale
 70
     0
300
1-1/2" = 1'-0"
140
1.5
141
12.0
290
     0
  0
SCALE
  5
1A5
102
{ACAD_REACTORS
330
10C
102
}
330
10C
100
AcDbScale
 70
     0
300
3" = 1'-0"
140
3.0
141
12.0
290
     0
  0
SCALE
  5
1A6
102
{ACAD_REACTORS
330
10C
102
}
330
10C
100
AcDbScale
 70
     0
300
6" = 1'-0"
140
6.0
141
12.0
290
     0
  0
SCALE
  5
1A7
102
{ACAD_REACTORS
330
10C
102
}
330
10C
100
AcDbScale
 70
     0
300
1'-0" = 1'-0"
140
12.0
141
12.0
290
     0
  0
TABLESTYLE
  5
7F
102
{ACAD_XDICTIONARY
360
162
102
}
102
{ACAD_REACTORS
330
7E
102
}
330
7E
100
AcDbTableStyle
  3
Standard
 70
     0
 71
     0
 40
1.5
 41
1.5
280
     0
281
     0
  7
Standard
140
4.5
170
     2
 62
     0
 63
     7
283
     0
274
    -2
284
     1
 64
     0
275
    -2
285
     1
 65
     0
276
    -2
286
     1
 66
     0
277
    -2
287
     1
 67
     0
278
    -2
288
     1
 68
     0
279
    -2
289
     1
 69
     0
  7
Standard
140
6.0
170
     5
 62
     0
 63
     7
283
     0
274
    -2
284
     1
 64
     0
275
    -2
285
     1
 65
     0
276
    -2
286
     1
 66
     0
277
    -2
287
     1
 67
     0
278
    -2
288
     1
 68
     0
279
    -2
289
     1
 69
     0
  7
Standard
140
4.5
170
     5
 62
     0
 63
     7
283
     0
274
    -2
284
     1
 64
     0
275
    -2
285
     1
 65
     0
276
    -2
286
     1
 66
     0
277
    -2
287
     1
 67
     0
278
    -2
288
     1
 68
     0
279
    -2
289
     1
 69
     0
  0
VISUALSTYLE
  5
F5
102
{ACAD_REACTORS
330
EF
102
}
330
EF
100
AcDbVisualStyle
  2
2dWireframe
 70
     4
 71
     0
 72
     2
 73
     1
 90
        0
 40
-0.6
 41
-30.0
 62
     5
 63
     7
 74
     1
 91
        4
 64
     7
 65
   257
 75
     1
175
     1
 42
1.0
 92
        0
 66
   257
 43
1.0
 76
     1
 77
     6
 78
     2
 67
     7
 79
     5
170
     0
171
     0
290
     0
174
     0
 93
        1
 44
0.0
173
     0
291
     0
 45
0.0
1001
ACAD
1000
AcDbSavedByObjectVersion
1070
     0
  0
VISUALSTYLE
  5
F7
102
{ACAD_REACTORS
330
EF
102
}
330
EF
100
AcDbVisualStyle
  2
3D Hidden
 70
     6
 71
     1
 72
     2
 73
     2
 90
        0
 40
-0.6
 41
-30.0
 62
     5
 63
     7
 74
     2
 91
        2
 64
     7
 65
   257
 75
     2
175
     1
 42
40.0
 92
        0
 66
   257
 43
1.0
 76
     1
 77
     6
 78
     2
 67
     7
 79
     3
170
     0
171
     0
290
     0
174
     0
 93
        1
 44
0.0
173
     0
291
     0
 45
0.0
1001
ACAD
1000
AcDbSavedByObjectVersion
1070
     0
  0
VISUALSTYLE
  5
F6
102
{ACAD_REACTORS
330
EF
102
}
330
EF
100
AcDbVisualStyle
  2
3dWireframe
 70
     5
 71
     0
 72
     2
 73
     1
 90
        0
 40
-0.6
 41
-30.0
 62
     5
 63
     7
 74
     1
 91
        4
 64
     7
 65
   257
 75
     1
175
     1
 42
1.0
 92
        0
 66
   257
 43
1.0
 76
     1
 77
     6
 78
     2
 67
     7
 79
     5
170
     0
171
     0
290
     0
174
     0
 93
        1
 44
0.0
173
     0
291
     0
 45
0.0
1001
ACAD
1000
AcDbSavedByObjectVersion
1070
     0
  0
VISUALSTYLE
  5
F4
102
{ACAD_REACTORS
330
EF
102
}
330
EF
100
AcDbVisualStyle
  2
Basic
 70
     7
 71
     1
 72
     0
 73
     1
 90
        0
 40
-0.6
 41
-30.0
 62
     5
 63
     7
 74
     0
 91
        4
 64
     7
 65
   257
 75
     1
175
     1
 42
1.0
 92
        8
 66
     7
 43
1.0
 76
     1
 77
     6
 78
     2
 67
     7
 79
     5
170
     0
171
     0
290
     0
174
     0
 93
        1
 44
0.0
173
     0
291
     1
 45
0.0
1001
ACAD
1000
AcDbSavedByObjectVersion
1070
     0
  0
VISUALSTYLE
  5
FB
102
{ACAD_REACTORS
330
EF
102
}
330
EF
100
AcDbVisualStyle
  2
Brighten
 70
    12
 71
     2
 72
     2
 73
     1
 90
        0
 40
-0.6
 41
-30.0
 62
     5
 63
     7
 74
     1
 91
        4
 64
     7
 65
   257
 75
     1
175
     1
 42
1.0
 92
        8
 66
     7
 43
1.0
 76
     1
 77
     6
 78
     2
 67
     7
 79
     5
170
     0
171
     0
290
     0
174
     0
 93
        1
 44
50.0
173
     0
291
     1
 45
0.0
1001
ACAD
1000
AcDbSavedByObjectVersion
1070
     0
  0
VISUALSTYLE
  5
FF
102
{ACAD_REACTORS
330
EF
102
}
330
EF
100
AcDbVisualStyle
  2
ColorChange
 70
    16
 71
     2
 72
     2
 73
     3
 90
        0
 40
-0.6
 41
-30.0
 62
     5
 63
     8
 74
     1
 91
        4
 64
     7
 65
   257
 75
     1
175
     1
 42
1.0
 92
        8
 66
     8
 43
1.0
 76
     1
 77
     6
 78
     2
 67
     7
 79
     5
170
     0
171
     0
290
     0
174
     0
 93
        1
 44
0.0
173
     0
291
     1
 45
0.0
1001
ACAD
1000
AcDbSavedByObjectVersion
1070
     0
  0
VISUALSTYLE
  5
F8
102
{ACAD_REACTORS
330
EF
102
}
330
EF
100
AcDbVisualStyle
  2
Conceptual
 70
     9
 71
     3
 72
     2
 73
     1
 90
        0
 40
-0.6
 41
-30.0
 62
     5
 63
     7
 74
     2
 91
        2
 64
     7
 65
   257
 75
     1
175
     1
 42
40.0
 92
        8
 66
     7
 43
1.0
 76
     1
 77
     6
 78
     2
 67
     7
 79
     3
170
     0
171
     0
290
     0
174
     0
 93
        1
 44
0.0
173
     0
291
     0
 45
0.0
1001
ACAD
1000
AcDbSavedByObjectVersion
1070
     0
  0
VISUALSTYLE
  5
FA
102
{ACAD_REACTORS
330
EF
102
}
330
EF
100
AcDbVisualStyle
  2
Dim
 70
    11
 71
     2
 72
     2
 73
     1
 90
        0
 40
-0.6
 41
-30.0
 62
     5
 63
     7
 74
     1
 91
        4
 64
     7
 65
   257
 75
     1
175
     1
 42
1.0
 92
        8
 66
     7
 43
1.0
 76
     1
 77
     6
 78
     2
 67
     7
 79
     5
170
     0
171
     0
290
     0
174
     0
 93
        1
 44
-50.0
173
     0
291
     1
 45
0.0
1001
ACAD
1000
AcDbSavedByObjectVersion
1070
     0
  0
VISUALSTYLE
  5
FE
102
{ACAD_REACTORS
330
EF
102
}
330
EF
100
AcDbVisualStyle
  2
Facepattern
 70
    15
 71
     2
 72
     2
 73
     1
 90
        0
 40
-0.6
 41
-30.0
 62
     5
 63
     7
 74
     1
 91
        4
 64
     7
 65
   257
 75
     1
175
     1
 42
1.0
 92
        8
 66
     7
 43
1.0
 76
     1
 77
     6
 78
     2
 67
     7
 79
     5
170
     0
171
     0
290
     0
174
     0
 93
        1
 44
0.0
173
     0
291
     1
 45
0.0
1001
ACAD
1000
AcDbSavedByObjectVersion
1070
     0
  0
VISUALSTYLE
  5
F0
102
{ACAD_REACTORS
330
EF
102
}
330
EF
100
AcDbVisualStyle
  2
Flat
 70
     0
 71
     2
 72
     1
 73
     1
 90
        2
 40
-0.6
 41
30.0
 62
     5
 63
     7
 74
     0
 91
        4
 64
     7
 65
   257
 75
     1
175
     1
 42
1.0
 92
        8
 66
     7
 43
1.0
 76
     1
 77
     6
 78
     2
 67
     7
 79
     5
170
     0
171
     0
290
     0
174
     0
 93
        1
 44
0.0
173
     0
291
     1
 45
0.0
1001
ACAD
1000
AcDbSavedByObjectVersion
1070
     0
  0
VISUALSTYLE
  5
F1
102
{ACAD_REACTORS
330
EF
102
}
330
EF
100
AcDbVisualStyle
  2
FlatWithEdges
 70
     1
 71
     2
 72
     1
 73
     1
 90
        2
 40
-0.6
 41
30.0
 62
     5
 63
     7
 74
     1
 91
        4
 64
     7
 65
   257
 75
     1
175
     1
 42
1.0
 92
        0
 66
   257
 43
1.0
 76
     1
 77
     6
 78
     2
 67
     7
 79
     5
170
     0
171
     0
290
     0
174
     0
 93
        1
 44
0.0
173
     0
291
     1
 45
0.0
1001
ACAD
1000
AcDbSavedByObjectVersion
1070
     0
  0
VISUALSTYLE
  5
F2
102
{ACAD_REACTORS
330
EF
102
}
330
EF
100
AcDbVisualStyle
  2
Gouraud
 70
     2
 71
     2
 72
     2
 73
     1
 90
        2
 40
-0.6
 41
30.0
 62
     5
 63
     7
 74
     0
 91
        4
 64
     7
 65
   257
 75
     1
175
     1
 42
1.0
 92
        0
 66
     7
 43
1.0
 76
     1
 77
     6
 78
     2
 67
     7
 79
     5
170
     0
171
     0
290
     0
174
     0
 93
        1
 44
0.0
173
     0
291
     1
 45
0.0
1001
ACAD
1000
AcDbSavedByObjectVersion
1070
     0
  0
VISUALSTYLE
  5
F3
102
{ACAD_REACTORS
330
EF
102
}
330
EF
100
AcDbVisualStyle
  2
GouraudWithEdges
 70
     3
 71
     2
 72
     2
 73
     1
 90
        2
 40
-0.6
 41
30.0
 62
     5
 63
     7
 74
     1
 91
        4
 64
     7
 65
   257
 75
     1
175
     1
 42
1.0
 92
        0
 66
   257
 43
1.0
 76
     1
 77
     6
 78
     2
 67
     7
 79
     5
170
     0
171
     0
290
     0
174
     0
 93
        1
 44
0.0
173
     0
291
     1
 45
0.0
1001
ACAD
1000
AcDbSavedByObjectVersion
1070
     0
  0
VISUALSTYLE
  5
FD
102
{ACAD_REACTORS
330
EF
102
}
330
EF
100
AcDbVisualStyle
  2
Linepattern
 70
    14
 71
     2
 72
     2
 73
     1
 90
        0
 40
-0.6
 41
-30.0
 62
     5
 63
     7
 74
     1
 91
        4
 64
     7
 65
   257
 75
     7
175
     7
 42
1.0
 92
        8
 66
     7
 43
1.0
 76
     1
 77
     6
 78
     2
 67
     7
 79
     5
170
     0
171
     0
290
     0
174
     0
 93
        1
 44
0.0
173
     0
291
     1
 45
0.0
1001
ACAD
1000
AcDbSavedByObjectVersion
1070
     0
  0
VISUALSTYLE
  5
F9
102
{ACAD_REACTORS
330
EF
102
}
330
EF
100
AcDbVisualStyle
  2
Realistic
 70
     8
 71
     2
 72
     2
 73
     1
 90
        0
 40
-0.6
 41
-30.0
 62
     5
 63
     7
 74
     1
 91
        0
 64
     7
 65
   257
 75
     1
175
     1
 42
1.0
 92
        8
 66
     8
 43
1.0
 76
     1
 77
     6
 78
     2
 67
     7
 79
     5
170
     0
171
     0
290
     0
174
     0
 93
       13
 44
0.0
173
     0
291
     0
 45
0.0
1001
ACAD
1000
AcDbSavedByObjectVersion
1070
     0
  0
VISUALSTYLE
  5
FC
102
{ACAD_REACTORS
330
EF
102
}
330
EF
100
AcDbVisualStyle
  2
Thicken
 70
    13
 71
     2
 72
     2
 73
     1
 90
        0
 40
-0.6
 41
-30.0
 62
     5
 63
     7
 74
     1
 91
        4
 64
     7
 65
   257
 75
     1
175
     1
 42
1.0
 92
       12
 66
     7
 43
1.0
 76
     1
 77
     6
 78
     2
 67
     7
 79
     5
170
     0
171
     0
290
     0
174
     0
 93
        1
 44
0.0
173
     0
291
     1
 45
0.0
1001
ACAD
1000
AcDbSavedByObjectVersion
1070
     0
  0
DICTIONARYVAR
  5
146
102
{ACAD_REACTORS
330
5E
102
}
330
5E
100
DictionaryVariables
280
     0
  1
1:1
  0
DICTIONARYVAR
  5
145
102
{ACAD_REACTORS
330
5E
102
}
330
5E
100
DictionaryVariables
280
     0
  1
STANDARD
  0
DICTIONARYVAR
  5
84
102
{ACAD_REACTORS
330
5E
102
}
330
5E
100
DictionaryVariables
280
     0
  1
STANDARD
  0
DICTIONARYVAR
  5
5F
102
{ACAD_REACTORS
330
5E
102
}
330
5E
100
DictionaryVariables
280
     0
  1
2
  0
DICTIONARYVAR
  5
63
102
{ACAD_REACTORS
330
5E
102
}
330
5E
100
DictionaryVariables
280
     0
  1
1
  0
DICTIONARYVAR
  5
372
102
{ACAD_REACTORS
330
5E
102
}
330
5E
100
DictionaryVariables
280
     0
  1
0
  0
DICTIONARYVAR
  5
370
102
{ACAD_REACTORS
330
5E
102
}
330
5E
100
DictionaryVariables
280
     0
  1
2
  0
DICTIONARYVAR
  5
36F
102
{ACAD_REACTORS
330
5E
102
}
330
5E
100
DictionaryVariables
280
     0
  1
1
  0
DICTIONARYVAR
  5
374
102
{ACAD_REACTORS
330
5E
102
}
330
5E
100
DictionaryVariables
280
     0
  1
80.000000
  0
DICTIONARYVAR
  5
373
102
{ACAD_REACTORS
330
5E
102
}
330
5E
100
DictionaryVariables
280
     0
  1
5.000000
  0
DICTIONARYVAR
  5
371
102
{ACAD_REACTORS
330
5E
102
}
330
5E
100
DictionaryVariables
280
     0
  1
127
  0
DICTIONARY
  5
37A
330
D3
100
AcDbDictionary
280
     1
281
     1
  3
ACAD_XREC_ROUNDTRIP
360
37B
  0
DICTIONARY
  5
37C
330
D7
100
AcDbDictionary
280
     1
281
     1
  3
ACAD_XREC_ROUNDTRIP
360
37D
  0
DICTIONARY
  5
377
330
22
100
AcDbDictionary
280
     1
281
     1
  3
ACAD_XREC_ROUNDTRIP
360
378
  0
DICTIONARY
  5
380
330
ED
100
AcDbDictionary
280
     1
281
     1
  3
ACAD_XREC_ROUNDTRIP
360
381
  0
DICTIONARY
  5
37E
330
EC
100
AcDbDictionary
280
     1
281
     1
  3
ACAD_XREC_ROUNDTRIP
360
37F
  0
DICTIONARY
  5
173
330
EE
100
AcDbDictionary
280
     1
281
     1
  3
ACAD_XREC_ROUNDTRIP
360
382
  3
BUMPTILE
360
175
  3
DIFFUSETILE
360
174
  3
OPACITYTILE
360
176
  3
REFLECTIONTILE
360
177
  0
DICTIONARY
  5
162
330
7F
100
AcDbDictionary
280
     1
281
     1
  3
ACAD_ROUNDTRIP_2008_TABLESTYLE_CELLSTYLEMAP
360
375
  3
ACAD_XREC_ROUNDTRIP
360
379
  0
XRECORD
  5
37B
102
{ACAD_REACTORS
330
37A
102
}
330
37A
100
AcDbXrecord
280
     1
102
SHADEPLOT
 70
     0
102
SHADEPLOTRESLEVEL
 70
     2
102
SHADEPLOTCUSTOMDPI
 70
   300
  0
XRECORD
  5
37D
102
{ACAD_REACTORS
330
37C
102
}
330
37C
100
AcDbXrecord
280
     1
102
SHADEPLOT
 70
     0
102
SHADEPLOTRESLEVEL
 70
     2
102
SHADEPLOTCUSTOMDPI
 70
   300
  0
XRECORD
  5
378
102
{ACAD_REACTORS
330
377
102
}
330
377
100
AcDbXrecord
280
     1
102
SHADEPLOT
 70
     0
102
SHADEPLOTRESLEVEL
 70
     2
102
SHADEPLOTCUSTOMDPI
 70
   300
  0
XRECORD
  5
381
102
{ACAD_REACTORS
330
380
102
}
330
380
100
AcDbXrecord
280
     1
102
MATERIAL
148
0.0
149
0.0
149
0.0
 93
        0
 94
       63
282
     0
 72
     1
 77
     1
171
     1
175
     1
179
     1
273
     0
  0
XRECORD
  5
37F
102
{ACAD_REACTORS
330
37E
102
}
330
37E
100
AcDbXrecord
280
     1
102
MATERIAL
148
0.0
149
0.0
149
0.0
 93
        0
 94
       63
282
     0
 72
     1
 77
     1
171
     1
175
     1
179
     1
273
     0
  0
XRECORD
  5
382
102
{ACAD_REACTORS
330
173
102
}
330
173
100
AcDbXrecord
280
     1
102
MATERIAL
148
0.0
149
0.0
149
0.0
 93
        0
 94
       63
282
     0
 72
     1
 77
     1
171
     1
175
     1
179
     1
273
     0
  0
XRECORD
  5
175
102
{ACAD_REACTORS
330
173
102
}
330
173
100
AcDbXrecord
280
     1
270
     1
271
     1
  0
XRECORD
  5
174
102
{ACAD_REACTORS
330
173
102
}
330
173
100
AcDbXrecord
280
     1
270
     1
271
     1
  0
XRECORD
  5
176
102
{ACAD_REACTORS
330
173
102
}
330
173
100
AcDbXrecord
280
     1
270
     1
271
     1
  0
XRECORD
  5
177
102
{ACAD_REACTORS
330
173
102
}
330
173
100
AcDbXrecord
280
     1
270
     1
271
     1
  0
CELLSTYLEMAP
  5
375
102
{ACAD_REACTORS
330
162
102
}
330
162
100
AcDbCellStyleMap
 90
        3
300
CELLSTYLE
  1
TABLEFORMAT_BEGIN
 90
        5
170
     1
 91
        0
 92
    32768
 62
   257
 93
        1
300
CONTENTFORMAT
  1
CONTENTFORMAT_BEGIN
 90
        0
 91
        0
 92
      512
 93
        0
300

 40
0.0
140
1.0
 94
        5
 62
     0
340
11
144
6.0
309
CONTENTFORMAT_END
171
     1
301
MARGIN
  1
CELLMARGIN_BEGIN
 40
1.5
 40
1.5
 40
1.5
 40
1.5
 40
4.5
 40
4.5
309
CELLMARGIN_END
 94
        6
 95
        1
302
GRIDFORMAT
  1
GRIDFORMAT_BEGIN
 90
        0
 91
        1
 62
     0
 92
       -2
340
14
 93
        0
 40
1.125
309
GRIDFORMAT_END
 95
        2
302
GRIDFORMAT
  1
GRIDFORMAT_BEGIN
 90
        0
 91
        1
 62
     0
 92
       -2
340
14
 93
        0
 40
1.125
309
GRIDFORMAT_END
 95
        4
302
GRIDFORMAT
  1
GRIDFORMAT_BEGIN
 90
        0
 91
        1
 62
     0
 92
       -2
340
14
 93
        0
 40
1.125
309
GRIDFORMAT_END
 95
        8
302
GRIDFORMAT
  1
GRIDFORMAT_BEGIN
 90
        0
 91
        1
 62
     0
 92
       -2
340
14
 93
        0
 40
1.125
309
GRIDFORMAT_END
 95
       16
302
GRIDFORMAT
  1
GRIDFORMAT_BEGIN
 90
        0
 91
        1
 62
     0
 92
       -2
340
14
 93
        0
 40
1.125
309
GRIDFORMAT_END
 95
       32
302
GRIDFORMAT
  1
GRIDFORMAT_BEGIN
 90
        0
 91
        1
 62
     0
 92
       -2
340
14
 93
        0
 40
1.125
309
GRIDFORMAT_END
309
TABLEFORMAT_END
  1
CELLSTYLE_BEGIN
 90
        1
 91
        1
300
_TITLE
309
CELLSTYLE_END
300
CELLSTYLE
  1
TABLEFORMAT_BEGIN
 90
        5
170
     1
 91
        0
 92
        0
 62
   257
 93
        1
300
CONTENTFORMAT
  1
CONTENTFORMAT_BEGIN
 90
        0
 91
        0
 92
      512
 93
        0
300

 40
0.0
140
1.0
 94
        5
 62
     0
340
11
144
4.5
309
CONTENTFORMAT_END
171
     1
301
MARGIN
  1
CELLMARGIN_BEGIN
 40
1.5
 40
1.5
 40
1.5
 40
1.5
 40
4.5
 40
4.5
309
CELLMARGIN_END
 94
        6
 95
        1
302
GRIDFORMAT
  1
GRIDFORMAT_BEGIN
 90
        0
 91
        1
 62
     0
 92
       -2
340
14
 93
        0
 40
1.125
309
GRIDFORMAT_END
 95
        2
302
GRIDFORMAT
  1
GRIDFORMAT_BEGIN
 90
        0
 91
        1
 62
     0
 92
       -2
340
14
 93
        0
 40
1.125
309
GRIDFORMAT_END
 95
        4
302
GRIDFORMAT
  1
GRIDFORMAT_BEGIN
 90
        0
 91
        1
 62
     0
 92
       -2
340
14
 93
        0
 40
1.125
309
GRIDFORMAT_END
 95
        8
302
GRIDFORMAT
  1
GRIDFORMAT_BEGIN
 90
        0
 91
        1
 62
     0
 92
       -2
340
14
 93
        0
 40
1.125
309
GRIDFORMAT_END
 95
       16
302
GRIDFORMAT
  1
GRIDFORMAT_BEGIN
 90
        0
 91
        1
 62
     0
 92
       -2
340
14
 93
        0
 40
1.125
309
GRIDFORMAT_END
 95
       32
302
GRIDFORMAT
  1
GRIDFORMAT_BEGIN
 90
        0
 91
        1
 62
     0
 92
       -2
340
14
 93
        0
 40
1.125
309
GRIDFORMAT_END
309
TABLEFORMAT_END
  1
CELLSTYLE_BEGIN
 90
        2
 91
        1
300
_HEADER
309
CELLSTYLE_END
300
CELLSTYLE
  1
TABLEFORMAT_BEGIN
 90
        5
170
     1
 91
        0
 92
        0
 62
   257
 93
        1
300
CONTENTFORMAT
  1
CONTENTFORMAT_BEGIN
 90
        0
 91
        0
 92
      512
 93
        0
300

 40
0.0
140
1.0
 94
        2
 62
     0
340
11
144
4.5
309
CONTENTFORMAT_END
171
     1
301
MARGIN
  1
CELLMARGIN_BEGIN
 40
1.5
 40
1.5
 40
1.5
 40
1.5
 40
4.5
 40
4.5
309
CELLMARGIN_END
 94
        6
 95
        1
302
GRIDFORMAT
  1
GRIDFORMAT_BEGIN
 90
        0
 91
        1
 62
     0
 92
       -2
340
14
 93
        0
 40
1.125
309
GRIDFORMAT_END
 95
        2
302
GRIDFORMAT
  1
GRIDFORMAT_BEGIN
 90
        0
 91
        1
 62
     0
 92
       -2
340
14
 93
        0
 40
1.125
309
GRIDFORMAT_END
 95
        4
302
GRIDFORMAT
  1
GRIDFORMAT_BEGIN
 90
        0
 91
        1
 62
     0
 92
       -2
340
14
 93
        0
 40
1.125
309
GRIDFORMAT_END
 95
        8
302
GRIDFORMAT
  1
GRIDFORMAT_BEGIN
 90
        0
 91
        1
 62
     0
 92
       -2
340
14
 93
        0
 40
1.125
309
GRIDFORMAT_END
 95
       16
302
GRIDFORMAT
  1
GRIDFORMAT_BEGIN
 90
        0
 91
        1
 62
     0
 92
       -2
340
14
 93
        0
 40
1.125
309
GRIDFORMAT_END
 95
       32
302
GRIDFORMAT
  1
GRIDFORMAT_BEGIN
 90
        0
 91
        1
 62
     0
 92
       -2
340
14
 93
        0
 40
1.125
309
GRIDFORMAT_END
309
TABLEFORMAT_END
  1
CELLSTYLE_BEGIN
 90
        3
 91
        2
300
_DATA
309
CELLSTYLE_END
  0
XRECORD
  5
379
102
{ACAD_REACTORS
330
162
102
}
330
162
100
AcDbXrecord
280
     1
102
ACAD_ROUNDTRIP_PRE2007_TABLESTYLE
 90
      512
 91
        0
  1

 92
      512
 93
        0
  2

 94
      512
 95
        0
  3

  0
ENDSEC
  0
EOF
