  0
SECTION
  2
HEADER
  9
$ACADVER
  1
AC1015
  9
$ACADMAINTVER
 70
    20
  9
$DWGCODEPAGE
  3
ANSI_1254
  9
$INSBASE
 10
0.0
 20
0.0
 30
0.0
  9
$EXTMIN
 10
2067.270478594787
 20
751.7481095098543
 30
0.0
  9
$EXTMAX
 10
2180.91179060902
 20
823.0210118752035
 30
0.0
  9
$LIMMIN
 10
0.0
 20
0.0
  9
$LIMMAX
 10
420.0
 20
297.0
  9
$ORTHOMODE
 70
     0
  9
$REGENMODE
 70
     1
  9
$FILLMODE
 70
     1
  9
$QTEXTMODE
 70
     0
  9
$MIRRTEXT
 70
     0
  9
$LTSCALE
 40
1.0
  9
$ATTMODE
 70
     1
  9
$TEXTSIZE
 40
2.5
  9
$TRACEWID
 40
1.0
  9
$TEXTSTYLE
  7
Standard
  9
$CLAYER
  8
0
  9
$CELTYPE
  6
ByLayer
  9
$CECOLOR
 62
   256
  9
$CELTSCALE
 40
1.0
  9
$DISPSILH
 70
     0
  9
$DIMSCALE
 40
1.0
  9
$DIMASZ
 40
2.5
  9
$DIMEXO
 40
0.625
  9
$DIMDLI
 40
3.75
  9
$DIMRND
 40
0.0
  9
$DIMDLE
 40
0.0
  9
$DIMEXE
 40
1.25
  9
$DIMTP
 40
0.0
  9
$DIMTM
 40
0.0
  9
$DIMTXT
 40
2.5
  9
$DIMCEN
 40
2.5
  9
$DIMTSZ
 40
0.0
  9
$DIMTOL
 70
     0
  9
$DIMLIM
 70
     0
  9
$DIMTIH
 70
     0
  9
$DIMTOH
 70
     0
  9
$DIMSE1
 70
     0
  9
$DIMSE2
 70
     0
  9
$DIMTAD
 70
     1
  9
$DIMZIN
 70
     8
  9
$DIMBLK
  1

  9
$DIMASO
 70
     1
  9
$DIMSHO
 70
     1
  9
$DIMPOST
  1

  9
$DIMAPOST
  1

  9
$DIMALT
 70
     0
  9
$DIMALTD
 70
     3
  9
$DIMALTF
 40
0.03937007874016
  9
$DIMLFAC
 40
1.0
  9
$DIMTOFL
 70
     1
  9
$DIMTVP
 40
0.0
  9
$DIMTIX
 70
     0
  9
$DIMSOXD
 70
     0
  9
$DIMSAH
 70
     0
  9
$DIMBLK1
  1

  9
$DIMBLK2
  1

  9
$DIMSTYLE
  2
ISO-25
  9
$DIMCLRD
 70
     0
  9
$DIMCLRE
 70
     0
  9
$DIMCLRT
 70
     0
  9
$DIMTFAC
 40
1.0
  9
$DIMGAP
 40
0.625
  9
$DIMJUST
 70
     0
  9
$DIMSD1
 70
     0
  9
$DIMSD2
 70
     0
  9
$DIMTOLJ
 70
     0
  9
$DIMTZIN
 70
     8
  9
$DIMALTZ
 70
     0
  9
$DIMALTTZ
 70
     0
  9
$DIMUPT
 70
     0
  9
$DIMDEC
 70
     2
  9
$DIMTDEC
 70
     2
  9
$DIMALTU
 70
     2
  9
$DIMALTTD
 70
     3
  9
$DIMTXSTY
  7
Standard
  9
$DIMAUNIT
 70
     0
  9
$DIMADEC
 70
     0
  9
$DIMALTRND
 40
0.0
  9
$DIMAZIN
 70
     0
  9
$DIMDSEP
 70
    44
  9
$DIMATFIT
 70
     3
  9
$DIMFRAC
 70
     0
  9
$DIMLDRBLK
  1

  9
$DIMLUNIT
 70
     2
  9
$DIMLWD
 70
    -2
  9
$DIMLWE
 70
    -2
  9
$DIMTMOVE
 70
     0
  9
$LUNITS
 70
     2
  9
$LUPREC
 70
     4
  9
$SKETCHINC
 40
1.0
  9
$FILLETRAD
 40
0.0
  9
$AUNITS
 70
     0
  9
$AUPREC
 70
     0
  9
$MENU
  1
.
  9
$ELEVATION
 40
0.0
  9
$PELEVATION
 40
0.0
  9
$THICKNESS
 40
0.0
  9
$LIMCHECK
 70
     0
  9
$CHAMFERA
 40
0.0
  9
$CHAMFERB
 40
0.0
  9
$CHAMFERC
 40
0.0
  9
$CHAMFERD
 40
0.0
  9
$SKPOLY
 70
     0
  9
$TDCREATE
 40
2459081.733524977
  9
$TDUCREATE
 40
2459081.608524977
  9
$TDUPDATE
 40
2459083.633368785
  9
$TDUUPDATE
 40
2459083.508368784
  9
$TDINDWG
 40
0.0003744907
  9
$TDUSRTIMER
 40
0.0003744907
  9
$USRTIMER
 70
     1
  9
$ANGBASE
 50
0.0
  9
$ANGDIR
 70
     0
  9
$PDMODE
 70
     0
  9
$PDSIZE
 40
0.0
  9
$PLINEWID
 40
0.0
  9
$SPLFRAME
 70
     0
  9
$SPLINETYPE
 70
     6
  9
$SPLINESEGS
 70
     8
  9
$HANDSEED
  5
A6C
  9
$SURFTAB1
 70
     6
  9
$SURFTAB2
 70
     6
  9
$SURFTYPE
 70
     6
  9
$SURFU
 70
     6
  9
$SURFV
 70
     6
  9
$UCSBASE
  2

  9
$UCSNAME
  2

  9
$UCSORG
 10
0.0
 20
0.0
 30
0.0
  9
$UCSXDIR
 10
1.0
 20
0.0
 30
0.0
  9
$UCSYDIR
 10
0.0
 20
1.0
 30
0.0
  9
$UCSORTHOREF
  2

  9
$UCSORTHOVIEW
 70
     0
  9
$UCSORGTOP
 10
0.0
 20
0.0
 30
0.0
  9
$UCSORGBOTTOM
 10
0.0
 20
0.0
 30
0.0
  9
$UCSORGLEFT
 10
0.0
 20
0.0
 30
0.0
  9
$UCSORGRIGHT
 10
0.0
 20
0.0
 30
0.0
  9
$UCSORGFRONT
 10
0.0
 20
0.0
 30
0.0
  9
$UCSORGBACK
 10
0.0
 20
0.0
 30
0.0
  9
$PUCSBASE
  2

  9
$PUCSNAME
  2

  9
$PUCSORG
 10
0.0
 20
0.0
 30
0.0
  9
$PUCSXDIR
 10
1.0
 20
0.0
 30
0.0
  9
$PUCSYDIR
 10
0.0
 20
1.0
 30
0.0
  9
$PUCSORTHOREF
  2

  9
$PUCSORTHOVIEW
 70
     0
  9
$PUCSORGTOP
 10
0.0
 20
0.0
 30
0.0
  9
$PUCSORGBOTTOM
 10
0.0
 20
0.0
 30
0.0
  9
$PUCSORGLEFT
 10
0.0
 20
0.0
 30
0.0
  9
$PUCSORGRIGHT
 10
0.0
 20
0.0
 30
0.0
  9
$PUCSORGFRONT
 10
0.0
 20
0.0
 30
0.0
  9
$PUCSORGBACK
 10
0.0
 20
0.0
 30
0.0
  9
$USERI1
 70
     0
  9
$USERI2
 70
     0
  9
$USERI3
 70
     0
  9
$USERI4
 70
     0
  9
$USERI5
 70
     0
  9
$USERR1
 40
0.0
  9
$USERR2
 40
0.0
  9
$USERR3
 40
0.0
  9
$USERR4
 40
0.0
  9
$USERR5
 40
0.0
  9
$WORLDVIEW
 70
     1
  9
$SHADEDGE
 70
     3
  9
$SHADEDIF
 70
    70
  9
$TILEMODE
 70
     1
  9
$MAXACTVP
 70
    64
  9
$PINSBASE
 10
0.0
 20
0.0
 30
0.0
  9
$PLIMCHECK
 70
     0
  9
$PEXTMIN
 10
0.0
 20
0.0
 30
0.0
  9
$PEXTMAX
 10
0.0
 20
0.0
 30
0.0
  9
$PLIMMIN
 10
0.0
 20
0.0
  9
$PLIMMAX
 10
12.0
 20
9.0
  9
$UNITMODE
 70
     0
  9
$VISRETAIN
 70
     1
  9
$PLINEGEN
 70
     0
  9
$PSLTSCALE
 70
     1
  9
$TREEDEPTH
 70
  3020
  9
$CMLSTYLE
  2
Standard
  9
$CMLJUST
 70
     0
  9
$CMLSCALE
 40
20.0
  9
$PROXYGRAPHICS
 70
     1
  9
$MEASUREMENT
 70
     1
  9
$CELWEIGHT
370
    -1
  9
$ENDCAPS
280
     0
  9
$JOINSTYLE
280
     0
  9
$LWDISPLAY
290
     0
  9
$INSUNITS
 70
     4
  9
$HYPERLINKBASE
  1

  9
$STYLESHEET
  1

  9
$XEDIT
290
     1
  9
$CEPSNTYPE
380
     0
  9
$PSTYLEMODE
290
     1
  9
$FINGERPRINTGUID
  2
{C61C326C-2BF9-490C-9630-4C08A52B20F6}
  9
$VERSIONGUID
  2
{0A1BE91B-2B77-41B6-B799-F1BDC1B4617E}
  9
$EXTNAMES
290
     1
  9
$PSVPSCALE
 40
0.0
  9
$OLESTARTUP
290
     0
  0
ENDSEC
  0
SECTION
  2
CLASSES
  0
CLASS
  1
ACDBDICTIONARYWDFLT
  2
AcDbDictionaryWithDefault
  3
ObjectDBX Classes
 90
        0
280
     0
281
     0
  0
CLASS
  1
ACDBPLACEHOLDER
  2
AcDbPlaceHolder
  3
ObjectDBX Classes
 90
        0
280
     0
281
     0
  0
CLASS
  1
LAYOUT
  2
AcDbLayout
  3
ObjectDBX Classes
 90
        0
280
     0
281
     0
  0
CLASS
  1
DICTIONARYVAR
  2
AcDbDictionaryVar
  3
ObjectDBX Classes
 90
        0
280
     0
281
     0
  0
CLASS
  1
TABLESTYLE
  2
AcDbTableStyle
  3
ObjectDBX Classes
 90
     4095
280
     0
281
     0
  0
CLASS
  1
MATERIAL
  2
AcDbMaterial
  3
ObjectDBX Classes
 90
     1153
280
     0
281
     0
  0
CLASS
  1
VISUALSTYLE
  2
AcDbVisualStyle
  3
ObjectDBX Classes
 90
     4095
280
     0
281
     0
  0
CLASS
  1
SCALE
  2
AcDbScale
  3
ObjectDBX Classes
 90
     1153
280
     0
281
     0
  0
CLASS
  1
MLEADERSTYLE
  2
AcDbMLeaderStyle
  3
ACDB_MLEADERSTYLE_CLASS
 90
     4095
280
     0
281
     0
  0
CLASS
  1
CELLSTYLEMAP
  2
AcDbCellStyleMap
  3
ObjectDBX Classes
 90
     1152
280
     0
281
     0
  0
ENDSEC
  0
SECTION
  2
TABLES
  0
TABLE
  2
VPORT
  5
8
330
0
100
AcDbSymbolTable
 70
     1
  0
VPORT
  5
EA
330
8
100
AcDbSymbolTableRecord
100
AcDbViewportTableRecord
  2
*Active
 70
     0
 10
0.0
 20
0.0
 11
1.0
 21
1.0
 12
2223.822654133714
 22
800.1892494323959
 13
0.0
 23
0.0
 14
10.0
 24
10.0
 15
10.0
 25
10.0
 16
0.0
 26
0.0
 36
1.0
 17
0.0
 27
0.0
 37
0.0
 40
327.6725603177625
 41
1.90311004784689
 42
50.0
 43
0.0
 44
0.0
 50
0.0
 51
0.0
 71
     0
 72
  1000
 73
     1
 74
     3
 75
     0
 76
     0
 77
     0
 78
     0
281
     0
 65
     1
110
0.0
120
0.0
130
0.0
111
1.0
121
0.0
131
0.0
112
0.0
122
1.0
132
0.0
 79
     0
146
0.0
  0
ENDTAB
  0
TABLE
  2
LTYPE
  5
5
330
0
100
AcDbSymbolTable
 70
     1
  0
LTYPE
  5
14
330
5
100
AcDbSymbolTableRecord
100
AcDbLinetypeTableRecord
  2
ByBlock
 70
     0
  3

 72
    65
 73
     0
 40
0.0
  0
LTYPE
  5
15
330
5
100
AcDbSymbolTableRecord
100
AcDbLinetypeTableRecord
  2
ByLayer
 70
     0
  3

 72
    65
 73
     0
 40
0.0
  0
LTYPE
  5
16
330
5
100
AcDbSymbolTableRecord
100
AcDbLinetypeTableRecord
  2
Continuous
 70
     0
  3
Solid line
 72
    65
 73
     0
 40
0.0
  0
ENDTAB
  0
TABLE
  2
LAYER
  5
2
330
0
100
AcDbSymbolTable
 70
     1
  0
LAYER
  5
10
102
{ACAD_XDICTIONARY
360
13C
102
}
330
2
100
AcDbSymbolTableRecord
100
AcDbLayerTableRecord
  2
0
 70
     0
 62
     7
  6
Continuous
370
    -3
390
F
  0
ENDTAB
  0
TABLE
  2
STYLE
  5
3
330
0
100
AcDbSymbolTable
 70
     2
  0
STYLE
  5
11
330
3
100
AcDbSymbolTableRecord
100
AcDbTextStyleTableRecord
  2
Standard
 70
     0
 40
0.0
 41
1.0
 50
0.0
 71
     0
 42
2.5
  3
txt
  4

  0
STYLE
  5
132
330
3
100
AcDbSymbolTableRecord
100
AcDbTextStyleTableRecord
  2
Annotative
 70
     0
 40
0.0
 41
1.0
 50
0.0
 71
     0
 42
2.5
  3
txt.shx
  4

1001
AcadAnnotative
1000
AnnotativeData
1002
{
1070
     1
1070
     1
1002
}
  0
ENDTAB
  0
TABLE
  2
VIEW
  5
6
330
0
100
AcDbSymbolTable
 70
     0
  0
ENDTAB
  0
TABLE
  2
UCS
  5
7
330
0
100
AcDbSymbolTable
 70
     0
  0
ENDTAB
  0
TABLE
  2
APPID
  5
9
330
0
100
AcDbSymbolTable
 70
     7
  0
APPID
  5
12
330
9
100
AcDbSymbolTableRecord
100
AcDbRegAppTableRecord
  2
ACAD
 70
     0
  0
APPID
  5
9E
330
9
100
AcDbSymbolTableRecord
100
AcDbRegAppTableRecord
  2
ACAD_PSEXT
 70
     0
  0
APPID
  5
133
330
9
100
AcDbSymbolTableRecord
100
AcDbRegAppTableRecord
  2
AcadAnnoPO
 70
     0
  0
APPID
  5
134
330
9
100
AcDbSymbolTableRecord
100
AcDbRegAppTableRecord
  2
AcadAnnotative
 70
     0
  0
APPID
  5
135
330
9
100
AcDbSymbolTableRecord
100
AcDbRegAppTableRecord
  2
ACAD_DSTYLE_DIMJAG
 70
     0
  0
APPID
  5
136
330
9
100
AcDbSymbolTableRecord
100
AcDbRegAppTableRecord
  2
ACAD_DSTYLE_DIMTALN
 70
     0
  0
APPID
  5
165
330
9
100
AcDbSymbolTableRecord
100
AcDbRegAppTableRecord
  2
ACAD_MLEADERVER
 70
     0
  0
ENDTAB
  0
TABLE
  2
DIMSTYLE
  5
A
330
0
100
AcDbSymbolTable
 70
     2
100
AcDbDimStyleTable
 71
     2
340
27
340
137
  0
DIMSTYLE
105
27
330
A
100
AcDbSymbolTableRecord
100
AcDbDimStyleTableRecord
  2
ISO-25
 70
     0
 41
2.5
 42
0.625
 43
3.75
 44
1.25
 73
     0
 74
     0
 77
     1
 78
     8
140
2.5
141
2.5
143
0.03937007874016
147
0.625
171
     3
172
     1
271
     2
272
     2
274
     3
278
    44
283
     0
284
     8
340
11
  0
DIMSTYLE
105
137
330
A
100
AcDbSymbolTableRecord
100
AcDbDimStyleTableRecord
  2
Annotative
 70
     0
 40
0.0
 41
2.5
 42
0.625
 43
3.75
 44
1.25
 73
     0
 74
     0
 77
     1
 78
     8
140
2.5
141
2.5
143
0.03937007874016
147
0.625
171
     3
172
     1
271
     2
272
     2
274
     3
278
    44
283
     0
284
     8
340
11
1001
AcadAnnotative
1000
AnnotativeData
1002
{
1070
     1
1070
     1
1002
}
1001
ACAD_DSTYLE_DIMJAG
1070
   388
1040
1.5
1001
ACAD_DSTYLE_DIMTALN
1070
   392
1070
     0
  0
ENDTAB
  0
TABLE
  2
BLOCK_RECORD
  5
1
330
0
100
AcDbSymbolTable
 70
     5
  0
BLOCK_RECORD
  5
1F
330
1
100
AcDbSymbolTableRecord
100
AcDbBlockTableRecord
  2
*Model_Space
340
22
  0
BLOCK_RECORD
  5
D2
330
1
100
AcDbSymbolTableRecord
100
AcDbBlockTableRecord
  2
*Paper_Space
340
D3
  0
BLOCK_RECORD
  5
D6
330
1
100
AcDbSymbolTableRecord
100
AcDbBlockTableRecord
  2
*Paper_Space0
340
D7
  0
BLOCK_RECORD
  5
767
330
1
100
AcDbSymbolTableRecord
100
AcDbBlockTableRecord
  2
1
340
0
310
2800000020000000200000000100080000000000000400000000000000000000000000000000000000000000000080000080000000808000800000008000800080800000C0C0C000C0DCC000F0CAA6000020400000206000002080000020A0000020C0000020E00000400000004020000040400000406000004080000040A0
310
000040C0000040E00000600000006020000060400000606000006080000060A0000060C0000060E00000800000008020000080400000806000008080000080A0000080C0000080E00000A0000000A0200000A0400000A0600000A0800000A0A00000A0C00000A0E00000C0000000C0200000C0400000C0600000C0800000C0
310
A00000C0C00000C0E00000E0000000E0200000E0400000E0600000E0800000E0A00000E0C00000E0E00040000000400020004000400040006000400080004000A0004000C0004000E00040200000402020004020400040206000402080004020A0004020C0004020E000404000004040200040404000404060004040800040
310
40A0004040C0004040E00040600000406020004060400040606000406080004060A0004060C0004060E00040800000408020004080400040806000408080004080A0004080C0004080E00040A0000040A0200040A0400040A0600040A0800040A0A00040A0C00040A0E00040C0000040C0200040C0400040C0600040C08000
310
40C0A00040C0C00040C0E00040E0000040E0200040E0400040E0600040E0800040E0A00040E0C00040E0E00080000000800020008000400080006000800080008000A0008000C0008000E00080200000802020008020400080206000802080008020A0008020C0008020E00080400000804020008040400080406000804080
310
008040A0008040C0008040E00080600000806020008060400080606000806080008060A0008060C0008060E00080800000808020008080400080806000808080008080A0008080C0008080E00080A0000080A0200080A0400080A0600080A0800080A0A00080A0C00080A0E00080C0000080C0200080C0400080C0600080C0
310
800080C0A00080C0C00080C0E00080E0000080E0200080E0400080E0600080E0800080E0A00080E0C00080E0E000C0000000C0002000C0004000C0006000C0008000C000A000C000C000C000E000C0200000C0202000C0204000C0206000C0208000C020A000C020C000C020E000C0400000C0402000C0404000C0406000C0
310
408000C040A000C040C000C040E000C0600000C0602000C0604000C0606000C0608000C060A000C060C000C060E000C0800000C0802000C0804000C0806000C0808000C080A000C080C000C080E000C0A00000C0A02000C0A04000C0A06000C0A08000C0A0A000C0A0C000C0A0E000C0C00000C0C02000C0C04000C0C06000
310
C0C08000C0C0A000F0FBFF00A4A0A000808080000000FF0000FF000000FFFF00FF000000FF00FF00FFFF0000FFFFFF000000000000000000000000000000000000000000000000000000000000000000000000000000FFFFFFFFFFFFFFFFFFFFFFFFFFFFFFFFFFFFFFFF0000000000000000000000FF000000000000000000
310
0000000000000000000000FF000000000000000000FF00000000FFFFFFFF00000000FFFFFFFF000000000000FF0000000000000000FF00000000FFFFFFFF00000000FFFFFFFF000000000000FF0000000000000000FF00000000FFFFFFFF00000000FFFF00FF000000000000FF0000000000000000FF00000000FFFFFFFF00
310
000000FFFF00FF000000000000FF00000000000000FF0000000000FFFFFFFF00000000FFFF00FF00000000000000FF000000000000FF0000000000FFFFFFFF00000000FFFF00FF00000000000000FF000000000000FF0000000000FFFFFFFF00000000FFFFFFFF00000000000000FF00000000000000FF00000000FFFFFFFF
310
00000000FFFFFFFF00000000000000FF00000000000000FF00000000FF0000FF00000000FFFF00FF000000000000FF0000000000000000FF00000000FFFFFFFF00000000FFFFFFFF000000000000FF0000000000000000FF00000000FFFFFFFF00000000FFFFFFFF000000000000FF0000000000000000FF00000000FFFFFF
310
FF00000000FFFF00FF000000000000FF0000000000000000FF00000000FFFFFFFF00000000FFFF00FF000000000000FF0000000000000000FF00000000FFFFFFFF00000000FFFFFFFF000000000000FF0000000000000000FF000000000000000000000000FFFFFFFF000000000000FF0000000000000000FF000000000000
310
00000000000000000000000000000000FF0000000000000000FF00000000000000000000000000000000000000000000FF0000000000000000FF00000000000000000000000000000000000000000000FF0000000000000000FF00000000000000000000000000000000000000000000FF0000000000000000FF0000000000
310
0000000000000000000000000000000000FF0000000000000000FF00000000000000000000000000000000000000000000FF0000000000000000FF00000000000000000000000000000000000000000000FF0000000000000000FF00000000000000000000000000000000000000000000FF0000000000000000FF00000000
310
0000000000000000000000000000000000FF00000000000000000000FF0000000000000000000000000000000000000000FF00000000000000000000FF0000000000000000000000000000000000000000FF0000000000000000000000FF00000000000000000000000000000000000000FF0000000000000000000000FFFF
310
FFFFFFFFFFFFFFFFFFFFFFFFFFFFFFFFFFFF0000000000000000000000000000000000000000000000000000000000000000000000000000
102
{BLKREFS
331
893
102
}
1001
ACAD
1000
DesignCenter Data
1002
{
1070
     1
1070
     4
1002
}
  0
BLOCK_RECORD
  5
894
330
1
100
AcDbSymbolTableRecord
100
AcDbBlockTableRecord
  2
2
340
0
310
2800000020000000200000000100080000000000000400000000000000000000000000000000000000000000000080000080000000808000800000008000800080800000C0C0C000C0DCC000F0CAA6000020400000206000002080000020A0000020C0000020E00000400000004020000040400000406000004080000040A0
310
000040C0000040E00000600000006020000060400000606000006080000060A0000060C0000060E00000800000008020000080400000806000008080000080A0000080C0000080E00000A0000000A0200000A0400000A0600000A0800000A0A00000A0C00000A0E00000C0000000C0200000C0400000C0600000C0800000C0
310
A00000C0C00000C0E00000E0000000E0200000E0400000E0600000E0800000E0A00000E0C00000E0E00040000000400020004000400040006000400080004000A0004000C0004000E00040200000402020004020400040206000402080004020A0004020C0004020E000404000004040200040404000404060004040800040
310
40A0004040C0004040E00040600000406020004060400040606000406080004060A0004060C0004060E00040800000408020004080400040806000408080004080A0004080C0004080E00040A0000040A0200040A0400040A0600040A0800040A0A00040A0C00040A0E00040C0000040C0200040C0400040C0600040C08000
310
40C0A00040C0C00040C0E00040E0000040E0200040E0400040E0600040E0800040E0A00040E0C00040E0E00080000000800020008000400080006000800080008000A0008000C0008000E00080200000802020008020400080206000802080008020A0008020C0008020E00080400000804020008040400080406000804080
310
008040A0008040C0008040E00080600000806020008060400080606000806080008060A0008060C0008060E00080800000808020008080400080806000808080008080A0008080C0008080E00080A0000080A0200080A0400080A0600080A0800080A0A00080A0C00080A0E00080C0000080C0200080C0400080C0600080C0
310
800080C0A00080C0C00080C0E00080E0000080E0200080E0400080E0600080E0800080E0A00080E0C00080E0E000C0000000C0002000C0004000C0006000C0008000C000A000C000C000C000E000C0200000C0202000C0204000C0206000C0208000C020A000C020C000C020E000C0400000C0402000C0404000C0406000C0
310
408000C040A000C040C000C040E000C0600000C0602000C0604000C0606000C0608000C060A000C060C000C060E000C0800000C0802000C0804000C0806000C0808000C080A000C080C000C080E000C0A00000C0A02000C0A04000C0A06000C0A08000C0A0A000C0A0C000C0A0E000C0C00000C0C02000C0C04000C0C06000
310
C0C08000C0C0A000F0FBFF00A4A0A000808080000000FF0000FF000000FFFF00FF000000FF00FF00FFFF0000FFFFFF00000000000000000000000000000000000000000000000000000000000000000000000000000000000000000000000000000000000000000000FFFFFF00000000000000000000000000000000000000
310
00000000000000000000FF00FF0000000000000000FFFFFFFFFFFFFFFFFFFFFFFFFFFFFFFFFFFFFFFFFFFFFFFF0000000000000000FFFFFFFFFFFFFFFFFFFFFF0000000000FF00000000FF00FF0000000000000000FF000000FF0000000000000000000000FF00000000FF00FF0000000000000000FF000000FF0000000000
310
000000000000FF00000000FF00FF0000000000000000FF000000FF0000000000000000000000FF00000000FF00FF0000000000000000FF000000FF0000000000000000000000FF00000000FF00FF0000000000000000FFFFFFFFFFFFFFFFFFFF000000000000FF00000000FF00FF0000000000000000000000000000000000
310
00FF0000000000FF00000000FF00FF000000000000000000000000000000000000FF0000000000FF00000000FF00FF0000000000000000FFFFFFFFFFFFFFFFFFFFFF0000000000FF00000000FF00FF0000000000000000FFFFFFFFFFFFFFFFFFFF000000000000FF00000000FF00FF0000000000000000FF000000FF000000
310
0000000000000000FF00000000FF00FF0000000000000000FF000000FF0000000000000000000000FF00000000FF00FF0000000000000000FFFF0000FF0000000000000000000000FF00000000FF00FF0000000000000000FFFFFFFFFFFFFFFFFFFFFFFFFFFFFFFFFFFFFFFFFFFF00FF000000000000000000000000000000
310
0000000000000000000000000000FF00FF0000000000000000000000000000000000000000000000000000000000FF00FF0000000000000000000000000000000000000000000000000000000000FF00FF0000000000000000000000000000000000000000000000000000000000FF00FF0000000000000000000000000000
310
000000000000000000000000000000FF00FF0000000000000000000000000000000000000000000000000000000000FF00FF0000000000000000000000000000000000000000000000000000000000FF00FF0000000000000000000000000000000000000000000000000000000000FF00FF00000000000000000000000000
310
00000000000000000000000000000000FF00FF0000000000000000000000000000000000000000000000000000000000FF00FF0000000000000000000000000000000000000000000000000000000000FFFFFF0000000000000000000000000000000000000000000000000000000000FF00FF000000000000000000000000
310
0000000000000000000000000000000000FFFFFF000000000000000000000000000000000000000000000000000000000000000000000000
102
{BLKREFS
331
8E5
102
}
1001
ACAD
1000
DesignCenter Data
1002
{
1070
     1
1070
     4
1002
}
  0
BLOCK_RECORD
  5
8E6
330
1
100
AcDbSymbolTableRecord
100
AcDbBlockTableRecord
  2
3
340
0
310
2800000020000000200000000100080000000000000400000000000000000000000000000000000000000000000080000080000000808000800000008000800080800000C0C0C000C0DCC000F0CAA6000020400000206000002080000020A0000020C0000020E00000400000004020000040400000406000004080000040A0
310
000040C0000040E00000600000006020000060400000606000006080000060A0000060C0000060E00000800000008020000080400000806000008080000080A0000080C0000080E00000A0000000A0200000A0400000A0600000A0800000A0A00000A0C00000A0E00000C0000000C0200000C0400000C0600000C0800000C0
310
A00000C0C00000C0E00000E0000000E0200000E0400000E0600000E0800000E0A00000E0C00000E0E00040000000400020004000400040006000400080004000A0004000C0004000E00040200000402020004020400040206000402080004020A0004020C0004020E000404000004040200040404000404060004040800040
310
40A0004040C0004040E00040600000406020004060400040606000406080004060A0004060C0004060E00040800000408020004080400040806000408080004080A0004080C0004080E00040A0000040A0200040A0400040A0600040A0800040A0A00040A0C00040A0E00040C0000040C0200040C0400040C0600040C08000
310
40C0A00040C0C00040C0E00040E0000040E0200040E0400040E0600040E0800040E0A00040E0C00040E0E00080000000800020008000400080006000800080008000A0008000C0008000E00080200000802020008020400080206000802080008020A0008020C0008020E00080400000804020008040400080406000804080
310
008040A0008040C0008040E00080600000806020008060400080606000806080008060A0008060C0008060E00080800000808020008080400080806000808080008080A0008080C0008080E00080A0000080A0200080A0400080A0600080A0800080A0A00080A0C00080A0E00080C0000080C0200080C0400080C0600080C0
310
800080C0A00080C0C00080C0E00080E0000080E0200080E0400080E0600080E0800080E0A00080E0C00080E0E000C0000000C0002000C0004000C0006000C0008000C000A000C000C000C000E000C0200000C0202000C0204000C0206000C0208000C020A000C020C000C020E000C0400000C0402000C0404000C0406000C0
310
408000C040A000C040C000C040E000C0600000C0602000C0604000C0606000C0608000C060A000C060C000C060E000C0800000C0802000C0804000C0806000C0808000C080A000C080C000C080E000C0A00000C0A02000C0A04000C0A06000C0A08000C0A0A000C0A0C000C0A0E000C0C00000C0C02000C0C04000C0C06000
310
C0C08000C0C0A000F0FBFF00A4A0A000808080000000FF0000FF000000FFFF00FF000000FF00FF00FFFF0000FFFFFF00000000000000000000000000000000000000000000000000000000000000000000000000000000000000000000000000000000000000000000000000000000000000000000000000FFFFFFFF000000
310
000000FFFFFFFF000000000000000000000000000000000000FFFF00FF000000000000FF00FFFF000000000000000000000000000000000000FFFF00FF000000000000FF00FFFF000000000000000000000000000000000000FFFF00FF000000000000FF0000FF000000000000000000000000000000000000FFFF00FF0000
310
00000000FF0000FF000000000000000000000000000000000000FFFFFFFF000000000000FFFFFFFF000000000000000000000000000000000000FFFF00FF000000000000FF0000FF000000000000000000000000000000000000FFFF00FF000000000000FF0000FF000000000000000000000000000000000000FFFF00FF00
310
0000000000FF0000FF000000000000000000000000000000000000FFFF00FF000000000000FF0000FF000000000000000000000000000000000000FFFF00FF000000000000FF0000FF000000000000000000000000000000000000FFFF00FF000000000000FF0000FF000000000000000000000000000000000000FF0000FF
310
000000000000FF0000FF000000000000000000000000000000000000FF0000FFFF00000000FFFF0000FF000000000000000000000000000000000000FF0000FFFF00000000FFFF0000FF000000000000000000000000000000000000FF0000FFFF00000000FFFF0000FF000000000000000000000000000000000000FF0000
310
FFFF00000000FFFF0000FF000000000000000000000000000000000000FF0000FFFF00000000FFFF0000FF000000000000000000000000000000000000FF0000FFFF00000000FFFF0000FF000000000000000000000000000000000000FFFFFFFFFF00000000FFFFFFFFFF000000000000000000000000000000000000FF00
310
00FFFF00000000FFFF0000FF000000000000000000000000000000000000FF0000FFFF00000000FFFF0000FF000000000000000000000000000000000000FF0000FFFF00000000FFFF0000FF000000000000000000000000000000000000FF0000FFFF00000000FFFF0000FF000000000000000000000000000000000000FF
310
0000FFFF00000000FFFF0000FF0000000000000000000000FFFFFFFFFFFFFFFFFFFFFFFFFFFFFFFFFFFFFFFFFFFFFFFFFFFFFFFFFF00000000FFFF00FF0000000000000000000000000000000000000000FF00FFFF000000FFFFFFFFFFFFFFFFFFFFFFFFFFFFFFFFFFFFFFFFFFFFFFFFFFFFFFFFFFFF000000000000000000
310
0000000000000000000000000000000000000000000000000000000000000000000000000000000000000000000000000000000000000000
102
{BLKREFS
331
945
102
}
1001
ACAD
1000
DesignCenter Data
1002
{
1070
     1
1070
     4
1002
}
  0
BLOCK_RECORD
  5
946
330
1
100
AcDbSymbolTableRecord
100
AcDbBlockTableRecord
  2
4
340
0
310
2800000020000000200000000100080000000000000400000000000000000000000000000000000000000000000080000080000000808000800000008000800080800000C0C0C000C0DCC000F0CAA6000020400000206000002080000020A0000020C0000020E00000400000004020000040400000406000004080000040A0
310
000040C0000040E00000600000006020000060400000606000006080000060A0000060C0000060E00000800000008020000080400000806000008080000080A0000080C0000080E00000A0000000A0200000A0400000A0600000A0800000A0A00000A0C00000A0E00000C0000000C0200000C0400000C0600000C0800000C0
310
A00000C0C00000C0E00000E0000000E0200000E0400000E0600000E0800000E0A00000E0C00000E0E00040000000400020004000400040006000400080004000A0004000C0004000E00040200000402020004020400040206000402080004020A0004020C0004020E000404000004040200040404000404060004040800040
310
40A0004040C0004040E00040600000406020004060400040606000406080004060A0004060C0004060E00040800000408020004080400040806000408080004080A0004080C0004080E00040A0000040A0200040A0400040A0600040A0800040A0A00040A0C00040A0E00040C0000040C0200040C0400040C0600040C08000
310
40C0A00040C0C00040C0E00040E0000040E0200040E0400040E0600040E0800040E0A00040E0C00040E0E00080000000800020008000400080006000800080008000A0008000C0008000E00080200000802020008020400080206000802080008020A0008020C0008020E00080400000804020008040400080406000804080
310
008040A0008040C0008040E00080600000806020008060400080606000806080008060A0008060C0008060E00080800000808020008080400080806000808080008080A0008080C0008080E00080A0000080A0200080A0400080A0600080A0800080A0A00080A0C00080A0E00080C0000080C0200080C0400080C0600080C0
310
800080C0A00080C0C00080C0E00080E0000080E0200080E0400080E0600080E0800080E0A00080E0C00080E0E000C0000000C0002000C0004000C0006000C0008000C000A000C000C000C000E000C0200000C0202000C0204000C0206000C0208000C020A000C020C000C020E000C0400000C0402000C0404000C0406000C0
310
408000C040A000C040C000C040E000C0600000C0602000C0604000C0606000C0608000C060A000C060C000C060E000C0800000C0802000C0804000C0806000C0808000C080A000C080C000C080E000C0A00000C0A02000C0A04000C0A06000C0A08000C0A0A000C0A0C000C0A0E000C0C00000C0C02000C0C04000C0C06000
310
C0C08000C0C0A000F0FBFF00A4A0A000808080000000FF0000FF000000FFFF00FF000000FF00FF00FFFF0000FFFFFF00000000000000000000000000000000000000000000000000000000000000000000000000000000000000FF000000000000000000000000000000000000000000000000000000000000FFFFFFFF0000
310
0000000000000000000000000000000000000000000000000000FFFFFFFFFFFF00000000000000000000000000000000000000000000FFFF0000FFFF00FF00FFFFFF00000000000000000000000000000000000000FFFFFFFFFFFFFF00FF000000FFFFFF000000000000FF00000000000000000000FFFFFF00FFFFA4FFFF00
310
00000000FFFF000000FFFF00FF000000000000000000FFFFFF00FF00FFFF00FFFF00000000FFFFFFFF000000FFFF0000000000000000FFFFFFFFFFFFFFFFFFFF00FFFF0000FF0000FF000000FFFF000000000000000000FFFFFFFFFFFF00FFFFFFFFFF0000FF0000FF000000FFFF0000000000000000FFFFFFFFFFFFFF00FF
310
0000FFFF0000FF0000FF000000FFFF0000000000000000FFFFFFFFFFFFFFFFFF000000000000FF0000FF000000FFFF0000000000000000FFFFFF00FFFFFFFFA4FFFF00000000FF0000FF000000FFFF0000000000000000FFFF00FFFF0000FFFFFF00FFFF0000FF0000FF000000FFFF000000000000000000FFFFFF00FFFF00
310
0000FFA400FFFFFF0000FF000000FFFF0000000000000000000000FFFFFF00FFFF0000FFFF0000FFFF00FF000000FFFF00000000000000000000000000FFFF00FFFFFFA400FFFF00FFFFFF0000FFFFFF000000000000000000000000000000FFFF00FFFF00FFFFFF0000FF0000FFFF00000000000000000000000000000000
310
0000FF00FFFFFF0000FFFF000000FFFF000000000000000000000000000000000000FFFFFF00FF00000000000000FFFF000000000000000000000000000000000000FF0000FF0000000000000000FFFF000000000000000000000000000000000000FF0000000000000000000000FFFF000000000000000000000000000000
310
000000FF0000000000000000000000FFFF000000000000000000000000000000000000FF00000000000000000000FF00FF000000000000000000000000000000000000FF0000000000000000FFFF00FF00000000000000000000000000000000000000FF000000000000FFFF00FFFF00000000000000000000000000000000
310
00000000FF0000000000FF00FFFF00000000000000000000000000000000000000000000FF000000FFFFFFFF000000000000000000000000000000000000000000000000FF00FFFFFFFF0000000000000000000000000000000000000000000000000000FFFFFFFF0000000000000000000000000000000000000000000000
310
000000000000FFFF000000000000000000000000000000000000000000000000000000000000000000000000000000000000000000000000
102
{BLKREFS
331
A51
102
}
1001
ACAD
1000
DesignCenter Data
1002
{
1070
     1
1070
     4
1002
}
  0
ENDTAB
  0
ENDSEC
  0
SECTION
  2
BLOCKS
  0
BLOCK
  5
20
330
1F
100
AcDbEntity
  8
0
100
AcDbBlockBegin
  2
*Model_Space
 70
     0
 10
0.0
 20
0.0
 30
0.0
  3
*Model_Space
  1

  0
ENDBLK
  5
21
330
1F
100
AcDbEntity
  8
0
100
AcDbBlockEnd
  0
BLOCK
  5
D4
330
D2
100
AcDbEntity
 67
     1
  8
0
100
AcDbBlockBegin
  2
*Paper_Space
 70
     0
 10
0.0
 20
0.0
 30
0.0
  3
*Paper_Space
  1

  0
ENDBLK
  5
D5
330
D2
100
AcDbEntity
 67
     1
  8
0
100
AcDbBlockEnd
  0
BLOCK
  5
D8
330
D6
100
AcDbEntity
 67
     1
  8
0
100
AcDbBlockBegin
  2
*Paper_Space0
 70
     0
 10
0.0
 20
0.0
 30
0.0
  3
*Paper_Space0
  1

  0
ENDBLK
  5
D9
330
D6
100
AcDbEntity
 67
     1
  8
0
100
AcDbBlockEnd
  0
BLOCK
  5
768
330
767
100
AcDbEntity
  8
0
100
AcDbBlockBegin
  2
1
 70
     0
 10
0.0
 20
0.0
 30
0.0
  3
1
  1

  0
LINE
  5
76A
330
767
100
AcDbEntity
  8
0
  6
Continuous
 62
     7
370
    15
100
AcDbLine
 10
2120.652327258039
 20
804.7609933816977
 30
0.0
 11
2120.956537441511
 21
804.7609933816977
 31
0.0
  0
ARC
  5
76B
330
767
100
AcDbEntity
  8
0
  6
Continuous
 62
     7
370
    15
100
AcDbCircle
 10
2120.651648375037
 20
804.7616722646992
 30
0.0
 40
0.304889822291765
100
AcDbArc
 50
270.1275777677262
 51
359.872422232326
  0
LINE
  5
76C
330
767
100
AcDbEntity
  8
0
  6
Continuous
 62
     7
370
    15
100
AcDbLine
 10
2120.652327258039
 20
804.4567831982259
 30
0.0
 11
2120.652327258039
 21
804.7609933816977
 31
0.0
  0
LINE
  5
76D
330
767
100
AcDbEntity
  8
0
  6
Continuous
 62
     7
370
    15
100
AcDbLine
 10
2124.597683686963
 20
804.7609933816977
 30
0.0
 11
2125.575077258039
 21
804.7609933816977
 31
0.0
  0
LINE
  5
76E
330
767
100
AcDbEntity
  8
0
  6
Continuous
 62
     7
370
    15
100
AcDbLine
 10
2125.575077258039
 20
804.7609933816977
 30
0.0
 11
2125.575077258039
 21
804.4567831982259
 31
0.0
  0
LINE
  5
76F
330
767
100
AcDbEntity
  8
0
  6
Continuous
 62
     7
370
    15
100
AcDbLine
 10
2125.575077258039
 20
804.4567831982259
 30
0.0
 11
2124.597683686963
 21
804.4567831982259
 31
0.0
  0
LINE
  5
770
330
767
100
AcDbEntity
  8
0
  6
Continuous
 62
     7
370
    15
100
AcDbLine
 10
2124.597683686963
 20
804.4567831982259
 30
0.0
 11
2124.597683686963
 21
804.7609933816977
 31
0.0
  0
LINE
  5
771
330
767
100
AcDbEntity
  8
0
  6
Continuous
 62
     7
370
    15
100
AcDbLine
 10
2120.652327258039
 20
804.7609933816977
 30
0.0
 11
2120.652327258039
 21
807.6161369527737
 31
0.0
  0
LINE
  5
772
330
767
100
AcDbEntity
  8
0
  6
Continuous
 62
     7
370
    15
100
AcDbLine
 10
2120.652327258039
 20
807.6161369527737
 30
0.0
 11
2120.956537441511
 21
807.6161369527737
 31
0.0
  0
LINE
  5
773
330
767
100
AcDbEntity
  8
0
  6
Continuous
 62
     7
370
    15
100
AcDbLine
 10
2120.956537441511
 20
807.6161369527737
 30
0.0
 11
2120.956537441511
 21
804.7609933816977
 31
0.0
  0
LINE
  5
774
330
767
100
AcDbEntity
  8
0
  6
Continuous
 62
     7
370
    15
100
AcDbLine
 10
2120.652327258039
 20
804.4567831982259
 30
0.0
 11
2119.674933686963
 21
804.4567831982259
 31
0.0
  0
LINE
  5
775
330
767
100
AcDbEntity
  8
0
  6
Continuous
 62
     7
370
    15
100
AcDbLine
 10
2119.674933686963
 20
804.4567831982259
 30
0.0
 11
2119.674933686963
 21
804.7609933816977
 31
0.0
  0
LINE
  5
776
330
767
100
AcDbEntity
  8
0
  6
Continuous
 62
     7
370
    15
100
AcDbLine
 10
2119.674933686963
 20
804.7609933816977
 30
0.0
 11
2120.652327258039
 21
804.7609933816977
 31
0.0
  0
LINE
  5
777
330
767
100
AcDbEntity
  8
0
  6
Continuous
 62
     7
370
    15
100
AcDbLine
 10
2125.575077258039
 20
804.7609933816977
 30
0.0
 11
2125.575077258039
 21
807.6161369527737
 31
0.0
  0
LINE
  5
778
330
767
100
AcDbEntity
  8
0
  6
Continuous
 62
     7
370
    15
100
AcDbLine
 10
2125.575077258039
 20
807.6161369527737
 30
0.0
 11
2125.87928744151
 21
807.6161369527737
 31
0.0
  0
LINE
  5
779
330
767
100
AcDbEntity
  8
0
  6
Continuous
 62
     7
370
    15
100
AcDbLine
 10
2125.87928744151
 20
807.6161369527737
 30
0.0
 11
2125.87928744151
 21
804.7609933816977
 31
0.0
  0
LINE
  5
77A
330
767
100
AcDbEntity
  8
0
  6
Continuous
 62
     7
370
    15
100
AcDbLine
 10
2125.575077258039
 20
804.7609933816977
 30
0.0
 11
2125.87928744151
 21
804.7609933816977
 31
0.0
  0
LINE
  5
77B
330
767
100
AcDbEntity
  8
0
  6
Continuous
 62
     7
370
    15
100
AcDbLine
 10
2124.293473503491
 20
804.7609933816977
 30
0.0
 11
2124.293473503491
 21
807.6161369527737
 31
0.0
  0
LINE
  5
77C
330
767
100
AcDbEntity
  8
0
  6
Continuous
 62
     7
370
    15
100
AcDbLine
 10
2124.293473503491
 20
807.6161369527737
 30
0.0
 11
2124.597683686963
 21
807.6161369527737
 31
0.0
  0
LINE
  5
77D
330
767
100
AcDbEntity
  8
0
  6
Continuous
 62
     7
370
    15
100
AcDbLine
 10
2124.597683686963
 20
807.6161369527737
 30
0.0
 11
2124.597683686963
 21
804.7609933816977
 31
0.0
  0
LINE
  5
77E
330
767
100
AcDbEntity
  8
0
  6
Continuous
 62
     7
370
    15
100
AcDbLine
 10
2124.293473503491
 20
804.7609933816977
 30
0.0
 11
2124.597683686963
 21
804.7609933816977
 31
0.0
  0
LINE
  5
77F
330
767
100
AcDbEntity
  8
0
  6
Continuous
 62
     7
370
    15
100
AcDbLine
 10
2119.370723503491
 20
804.7609933816977
 30
0.0
 11
2119.370723503491
 21
807.616136952774
 31
0.0
  0
LINE
  5
780
330
767
100
AcDbEntity
  8
0
  6
Continuous
 62
     7
370
    15
100
AcDbLine
 10
2119.370723503491
 20
807.616136952774
 30
0.0
 11
2119.674933686963
 21
807.616136952774
 31
0.0
  0
LINE
  5
781
330
767
100
AcDbEntity
  8
0
  6
Continuous
 62
     7
370
    15
100
AcDbLine
 10
2119.674933686963
 20
807.616136952774
 30
0.0
 11
2119.674933686963
 21
804.7609933816977
 31
0.0
  0
LINE
  5
782
330
767
100
AcDbEntity
  8
0
  6
Continuous
 62
     7
370
    15
100
AcDbLine
 10
2119.370723503491
 20
804.7609933816977
 30
0.0
 11
2119.674933686963
 21
804.7609933816977
 31
0.0
  0
ARC
  5
783
330
767
100
AcDbEntity
  8
0
  6
Continuous
 62
     7
370
    15
100
AcDbCircle
 10
2119.675612569964
 20
804.7616722646996
 30
0.0
 40
0.3048898222920208
100
AcDbArc
 50
180.1275777677262
 51
269.872422232326
  0
ARC
  5
784
330
767
100
AcDbEntity
  8
0
  6
Continuous
 62
     7
370
    15
100
AcDbCircle
 10
2124.598362569965
 20
804.7616722646996
 30
0.0
 40
0.3048898222920208
100
AcDbArc
 50
180.1275777677262
 51
269.872422232326
  0
ARC
  5
785
330
767
100
AcDbEntity
  8
0
  6
Continuous
 62
     7
370
    15
100
AcDbCircle
 10
2125.574398375037
 20
804.7616722646992
 30
0.0
 40
0.3048898222917935
100
AcDbArc
 50
270.1275777677262
 51
359.8724222323194
  0
LINE
  5
786
330
767
100
AcDbEntity
  8
0
  6
Continuous
 62
     7
370
    15
100
AcDbLine
 10
2125.575077258039
 20
807.6161369527737
 30
0.0
 11
2124.597683686963
 21
807.6161369527737
 31
0.0
  0
LINE
  5
787
330
767
100
AcDbEntity
  8
0
  6
Continuous
 62
     7
370
    15
100
AcDbLine
 10
2120.652327258039
 20
807.6161369527737
 30
0.0
 11
2119.674933686963
 21
807.616136952774
 31
0.0
  0
ARC
  5
788
330
767
100
AcDbEntity
  8
0
  6
Continuous
 62
     7
370
    15
100
AcDbCircle
 10
2120.651648375037
 20
807.6154580697721
 30
0.0
 40
0.3048898222918219
100
AcDbArc
 50
0.1275777676936054
 51
89.87242223227381
  0
LINE
  5
789
330
767
100
AcDbEntity
  8
0
  6
Continuous
 62
     7
370
    15
100
AcDbLine
 10
2120.652327258039
 20
807.6161369527737
 30
0.0
 11
2120.652327258039
 21
807.9203471362454
 31
0.0
  0
ARC
  5
78A
330
767
100
AcDbEntity
  8
0
  6
Continuous
 62
     7
370
    15
100
AcDbCircle
 10
2124.598362569965
 20
807.6154580697718
 30
0.0
 40
0.3048898222920209
100
AcDbArc
 50
90.12757776767406
 51
179.8724222322673
  0
LINE
  5
78B
330
767
100
AcDbEntity
  8
0
  6
Continuous
 62
     7
370
    15
100
AcDbLine
 10
2124.597683686963
 20
807.6161369527737
 30
0.0
 11
2124.597683686963
 21
807.9203471362454
 31
0.0
  0
LINE
  5
78C
330
767
100
AcDbEntity
  8
0
  6
Continuous
 62
     7
370
    15
100
AcDbLine
 10
2124.597683686963
 20
807.9203471362454
 30
0.0
 11
2125.575077258039
 21
807.9203471362454
 31
0.0
  0
LINE
  5
78D
330
767
100
AcDbEntity
  8
0
  6
Continuous
 62
     7
370
    15
100
AcDbLine
 10
2125.575077258039
 20
807.9203471362454
 30
0.0
 11
2125.575077258039
 21
807.6161369527737
 31
0.0
  0
ARC
  5
78E
330
767
100
AcDbEntity
  8
0
  6
Continuous
 62
     7
370
    15
100
AcDbCircle
 10
2125.574398375037
 20
807.6154580697721
 30
0.0
 40
0.3048898222918219
100
AcDbArc
 50
0.1275777676936054
 51
89.87242223227381
  0
ARC
  5
78F
330
767
100
AcDbEntity
  8
0
  6
Continuous
 62
     7
370
    15
100
AcDbCircle
 10
2119.675612569964
 20
807.6154580697723
 30
0.0
 40
0.3048898222915359
100
AcDbArc
 50
90.1275777675959
 51
179.8724222323194
  0
LINE
  5
790
330
767
100
AcDbEntity
  8
0
  6
Continuous
 62
     7
370
    15
100
AcDbLine
 10
2119.674933686963
 20
807.616136952774
 30
0.0
 11
2119.674933686963
 21
807.9203471362454
 31
0.0
  0
LINE
  5
791
330
767
100
AcDbEntity
  8
0
  6
Continuous
 62
     7
370
    15
100
AcDbLine
 10
2119.674933686963
 20
807.9203471362454
 30
0.0
 11
2120.652327258039
 21
807.9203471362454
 31
0.0
  0
LINE
  5
792
330
767
100
AcDbEntity
  8
0
  6
Continuous
 62
     7
370
    15
100
AcDbLine
 10
2124.597683686963
 20
812.3358869527738
 30
0.0
 11
2124.597683686963
 21
810.1912433816977
 31
0.0
  0
LINE
  5
793
330
767
100
AcDbEntity
  8
0
  6
Continuous
 62
     7
370
    15
100
AcDbLine
 10
2124.597683686963
 20
810.1912433816977
 30
0.0
 11
2124.293473503491
 21
810.1912433816977
 31
0.0
  0
LINE
  5
794
330
767
100
AcDbEntity
  8
0
  6
Continuous
 62
     7
370
    15
100
AcDbLine
 10
2124.293473503491
 20
810.1912433816977
 30
0.0
 11
2124.293473503491
 21
812.3358869527738
 31
0.0
  0
LINE
  5
795
330
767
100
AcDbEntity
  8
0
  6
Continuous
 62
     7
370
    15
100
AcDbLine
 10
2124.597683686963
 20
812.3358869527738
 30
0.0
 11
2124.293473503491
 21
812.3358869527738
 31
0.0
  0
LINE
  5
796
330
767
100
AcDbEntity
  8
0
  6
Continuous
 62
     7
370
    15
100
AcDbLine
 10
2120.956537441511
 20
811.7268869527737
 30
0.0
 11
2120.956537441511
 21
810.1912433816977
 31
0.0
  0
LINE
  5
797
330
767
100
AcDbEntity
  8
0
  6
Continuous
 62
     7
370
    15
100
AcDbLine
 10
2120.956537441511
 20
810.1912433816977
 30
0.0
 11
2120.652327258039
 21
810.1912433816977
 31
0.0
  0
LINE
  5
798
330
767
100
AcDbEntity
  8
0
  6
Continuous
 62
     7
370
    15
100
AcDbLine
 10
2120.652327258039
 20
810.1912433816977
 30
0.0
 11
2120.652327258039
 21
811.7268869527737
 31
0.0
  0
LINE
  5
799
330
767
100
AcDbEntity
  8
0
  6
Continuous
 62
     7
370
    15
100
AcDbLine
 10
2120.956537441511
 20
811.7268869527737
 30
0.0
 11
2120.652327258039
 21
811.7268869527737
 31
0.0
  0
LINE
  5
79A
330
767
100
AcDbEntity
  8
0
  6
Continuous
 62
     7
370
    15
100
AcDbLine
 10
2119.674933686963
 20
811.7268869527737
 30
0.0
 11
2119.674933686963
 21
810.1912433816979
 31
0.0
  0
LINE
  5
79B
330
767
100
AcDbEntity
  8
0
  6
Continuous
 62
     7
370
    15
100
AcDbLine
 10
2119.674933686963
 20
810.1912433816979
 30
0.0
 11
2119.370723503491
 21
810.1912433816977
 31
0.0
  0
LINE
  5
79C
330
767
100
AcDbEntity
  8
0
  6
Continuous
 62
     7
370
    15
100
AcDbLine
 10
2119.370723503491
 20
810.1912433816977
 30
0.0
 11
2119.370723503491
 21
811.7268869527737
 31
0.0
  0
LINE
  5
79D
330
767
100
AcDbEntity
  8
0
  6
Continuous
 62
     7
370
    15
100
AcDbLine
 10
2119.674933686963
 20
811.7268869527737
 30
0.0
 11
2119.370723503491
 21
811.7268869527737
 31
0.0
  0
ARC
  5
79E
330
767
100
AcDbEntity
  8
0
  6
Continuous
 62
     7
370
    15
100
AcDbCircle
 10
2125.574398375036
 20
810.1919222647
 30
0.0
 40
0.3048898222924766
100
AcDbArc
 50
270.1275777678564
 51
359.8724222321891
  0
LINE
  5
79F
330
767
100
AcDbEntity
  8
0
  6
Continuous
 62
     7
370
    15
100
AcDbLine
 10
2125.575077258039
 20
810.1912433816977
 30
0.0
 11
2125.575077258039
 21
809.887033198226
 31
0.0
  0
LINE
  5
7A0
330
767
100
AcDbEntity
  8
0
  6
Continuous
 62
     7
370
    15
100
AcDbLine
 10
2125.87928744151
 20
810.1912433816975
 30
0.0
 11
2125.575077258039
 21
810.1912433816977
 31
0.0
  0
LINE
  5
7A1
330
767
100
AcDbEntity
  8
0
  6
Continuous
 62
     7
370
    15
100
AcDbLine
 10
2125.87928744151
 20
812.3358869527738
 30
0.0
 11
2125.87928744151
 21
810.1912433816975
 31
0.0
  0
LINE
  5
7A2
330
767
100
AcDbEntity
  8
0
  6
Continuous
 62
     7
370
    15
100
AcDbLine
 10
2125.575077258039
 20
810.1912433816977
 30
0.0
 11
2125.575077258039
 21
812.3358869527738
 31
0.0
  0
LINE
  5
7A3
330
767
100
AcDbEntity
  8
0
  6
Continuous
 62
     7
370
    15
100
AcDbLine
 10
2125.87928744151
 20
812.3358869527738
 30
0.0
 11
2125.575077258039
 21
812.3358869527738
 31
0.0
  0
ARC
  5
7A4
330
767
100
AcDbEntity
  8
0
  6
Continuous
 62
     7
370
    15
100
AcDbCircle
 10
2124.598362569965
 20
810.1919222647001
 30
0.0
 40
0.3048898222927044
100
AcDbArc
 50
180.1275777678564
 51
269.8724222321957
  0
LINE
  5
7A5
330
767
100
AcDbEntity
  8
0
  6
Continuous
 62
     7
370
    15
100
AcDbLine
 10
2124.597683686963
 20
809.887033198226
 30
0.0
 11
2124.597683686963
 21
810.1912433816977
 31
0.0
  0
LINE
  5
7A6
330
767
100
AcDbEntity
  8
0
  6
Continuous
 62
     7
370
    15
100
AcDbLine
 10
2120.652327258039
 20
809.887033198226
 30
0.0
 11
2120.652327258039
 21
810.1912433816977
 31
0.0
  0
ARC
  5
7A7
330
767
100
AcDbEntity
  8
0
  6
Continuous
 62
     7
370
    15
100
AcDbCircle
 10
2120.651648375037
 20
810.1919222646992
 30
0.0
 40
0.3048898222917082
100
AcDbArc
 50
270.1275777677262
 51
359.872422232326
  0
LINE
  5
7A8
330
767
100
AcDbEntity
  8
0
  6
Continuous
 62
     7
370
    15
100
AcDbLine
 10
2125.575077258039
 20
809.887033198226
 30
0.0
 11
2124.597683686963
 21
809.887033198226
 31
0.0
  0
LINE
  5
7A9
330
767
100
AcDbEntity
  8
0
  6
Continuous
 62
     7
370
    15
100
AcDbLine
 10
2124.597683686963
 20
810.1912433816977
 30
0.0
 11
2125.575077258039
 21
810.1912433816977
 31
0.0
  0
LINE
  5
7AA
330
767
100
AcDbEntity
  8
0
  6
Continuous
 62
     7
370
    15
100
AcDbLine
 10
2120.652327258039
 20
809.887033198226
 30
0.0
 11
2119.674933686963
 21
809.887033198226
 31
0.0
  0
LINE
  5
7AB
330
767
100
AcDbEntity
  8
0
  6
Continuous
 62
     7
370
    15
100
AcDbLine
 10
2119.674933686963
 20
809.887033198226
 30
0.0
 11
2119.674933686963
 21
810.1912433816979
 31
0.0
  0
LINE
  5
7AC
330
767
100
AcDbEntity
  8
0
  6
Continuous
 62
     7
370
    15
100
AcDbLine
 10
2119.674933686963
 20
810.1912433816979
 30
0.0
 11
2120.652327258039
 21
810.1912433816977
 31
0.0
  0
ARC
  5
7AD
330
767
100
AcDbEntity
  8
0
  6
Continuous
 62
     7
370
    15
100
AcDbCircle
 10
2119.675612569965
 20
810.1919222647003
 30
0.0
 40
0.3048898222927614
100
AcDbArc
 50
180.1275777678695
 51
269.8724222321696
  0
LINE
  5
7AE
330
767
100
AcDbEntity
  8
0
  6
Continuous
 62
     7
370
    15
100
AcDbLine
 10
2125.575077258039
 20
812.3358869527738
 30
0.0
 11
2124.597683686963
 21
812.3358869527738
 31
0.0
  0
LINE
  5
7AF
330
767
100
AcDbEntity
  8
0
  6
Continuous
 62
     7
370
    15
100
AcDbLine
 10
2120.652327258039
 20
811.7268869527737
 30
0.0
 11
2119.674933686963
 21
811.7268869527737
 31
0.0
  0
LINE
  5
7B0
330
767
100
AcDbEntity
  8
0
  6
Continuous
 62
     7
370
    15
100
AcDbLine
 10
2120.652327258039
 20
811.7268869527737
 30
0.0
 11
2120.652327258039
 21
812.0310971362455
 31
0.0
  0
ARC
  5
7B1
330
767
100
AcDbEntity
  8
0
  6
Continuous
 62
     7
370
    15
100
AcDbCircle
 10
2120.651648375037
 20
811.7262080697715
 30
0.0
 40
0.3048898222924486
100
AcDbArc
 50
0.1275777678173669
 51
89.87242223214355
  0
ARC
  5
7B2
330
767
100
AcDbEntity
  8
0
  6
Continuous
 62
     7
370
    15
100
AcDbCircle
 10
2119.675612569965
 20
811.7262080697711
 30
0.0
 40
0.3048898222927613
100
AcDbArc
 50
90.12757776783038
 51
179.8724222321435
  0
LINE
  5
7B3
330
767
100
AcDbEntity
  8
0
  6
Continuous
 62
     7
370
    15
100
AcDbLine
 10
2119.674933686963
 20
811.7268869527737
 30
0.0
 11
2119.674933686963
 21
812.0310971362455
 31
0.0
  0
LINE
  5
7B4
330
767
100
AcDbEntity
  8
0
  6
Continuous
 62
     7
370
    15
100
AcDbLine
 10
2119.674933686963
 20
812.0310971362455
 30
0.0
 11
2120.652327258039
 21
812.0310971362455
 31
0.0
  0
LINE
  5
7B5
330
767
100
AcDbEntity
  8
0
  6
Continuous
 62
     7
370
    15
100
AcDbLine
 10
2125.575077258039
 20
812.6400971362453
 30
0.0
 11
2125.575077258039
 21
812.3358869527738
 31
0.0
  0
ARC
  5
7B6
330
767
100
AcDbEntity
  8
0
  6
Continuous
 62
     7
370
    15
100
AcDbCircle
 10
2125.574398375036
 20
812.3352080697713
 30
0.0
 40
0.3048898222925334
100
AcDbArc
 50
0.1275777678173669
 51
89.87242223211749
  0
ARC
  5
7B7
330
767
100
AcDbEntity
  8
0
  6
Continuous
 62
     7
370
    15
100
AcDbCircle
 10
2124.598362569965
 20
812.335208069771
 30
0.0
 40
0.3048898222928184
100
AcDbArc
 50
90.12757776783038
 51
179.872422232124
  0
LINE
  5
7B8
330
767
100
AcDbEntity
  8
0
  6
Continuous
 62
     7
370
    15
100
AcDbLine
 10
2124.597683686963
 20
812.3358869527738
 30
0.0
 11
2124.597683686963
 21
812.6400971362453
 31
0.0
  0
LINE
  5
7B9
330
767
100
AcDbEntity
  8
0
  6
Continuous
 62
     7
370
    15
100
AcDbLine
 10
2124.597683686963
 20
812.6400971362453
 30
0.0
 11
2125.575077258039
 21
812.6400971362453
 31
0.0
  0
LINE
  5
7BA
330
767
100
AcDbEntity
  8
0
  6
Continuous
 62
     7
370
    15
100
AcDbLine
 10
2119.272648708816
 20
804.6629185870221
 30
0.0
 11
2119.370723503491
 21
804.7609933816977
 31
0.0
  0
LINE
  5
7BB
330
767
100
AcDbEntity
  8
0
  6
Continuous
 62
     7
370
    15
100
AcDbLine
 10
2119.674933686963
 20
804.4567831982259
 30
0.0
 11
2119.576858892287
 21
804.3587084035504
 31
0.0
  0
ELLIPSE
  5
7BC
330
767
100
AcDbEntity
  8
0
  6
Continuous
 62
     7
370
    15
100
AcDbEllipse
 10
2119.577032764546
 20
804.6630924592808
 30
0.0
 11
0.2153140148717796
 21
-0.2153140148708133
 31
0.0
210
0.0
220
0.0
230
0.9999999999999998
 40
0.9992390260207963
 41
3.927942674870415
 42
5.496835285894596
  0
LINE
  5
7BD
330
767
100
AcDbEntity
  8
0
  6
Continuous
 62
     7
370
    15
100
AcDbLine
 10
2124.195398708816
 20
804.6629187489966
 30
0.0
 11
2124.293473503491
 21
804.7609933816977
 31
0.0
  0
LINE
  5
7BE
330
767
100
AcDbEntity
  8
0
  6
Continuous
 62
     7
370
    15
100
AcDbLine
 10
2124.597683686963
 20
804.4567831982259
 30
0.0
 11
2124.499609054262
 21
804.3587084035504
 31
0.0
  0
ELLIPSE
  5
7BF
330
767
100
AcDbEntity
  8
0
  6
Continuous
 62
     7
370
    15
100
AcDbEllipse
 10
2124.499782764546
 20
804.6630924592808
 30
0.0
 11
0.2153140148717511
 21
-0.2153140148708132
 31
0.0
210
0.0
220
0.0
230
0.9999999999999998
 40
0.9992390260208622
 41
3.927942142732756
 42
5.496835818032387
  0
LINE
  5
7C0
330
767
100
AcDbEntity
  8
0
  6
Continuous
 62
     7
370
    15
100
AcDbLine
 10
2120.75040189074
 20
804.3587084035504
 30
0.0
 11
2120.652327258039
 21
804.4567831982259
 31
0.0
  0
LINE
  5
7C1
330
767
100
AcDbEntity
  8
0
  6
Continuous
 62
     7
370
    15
100
AcDbLine
 10
2120.956537441511
 20
804.7609933816977
 30
0.0
 11
2121.054612236186
 21
804.6629187489966
 31
0.0
  0
ELLIPSE
  5
7C2
330
767
100
AcDbEntity
  8
0
  6
Continuous
 62
     7
370
    15
100
AcDbEllipse
 10
2120.750228180456
 20
804.6630924592808
 30
0.0
 11
0.2153140148717797
 21
0.2153140148708417
 31
0.0
210
0.0
220
0.0
230
1.0
 40
0.9992390260207965
 41
3.927942142736958
 42
5.496835818036617
  0
LINE
  5
7C3
330
767
100
AcDbEntity
  8
0
  6
Continuous
 62
     7
370
    15
100
AcDbLine
 10
2125.673152052715
 20
804.3587084035504
 30
0.0
 11
2125.575077258039
 21
804.4567831982259
 31
0.0
  0
LINE
  5
7C4
330
767
100
AcDbEntity
  8
0
  6
Continuous
 62
     7
370
    15
100
AcDbLine
 10
2125.87928744151
 20
804.7609933816977
 30
0.0
 11
2125.977362236186
 21
804.6629185870221
 31
0.0
  0
ELLIPSE
  5
7C5
330
767
100
AcDbEntity
  8
0
  6
Continuous
 62
     7
370
    15
100
AcDbEllipse
 10
2125.672978180456
 20
804.6630924592808
 30
0.0
 11
0.2153140148717797
 21
0.2153140148708417
 31
0.0
210
0.0
220
0.0
230
1.0
 40
0.9992390260207965
 41
3.92794267487465
 42
5.496835285898924
  0
LINE
  5
7C6
330
767
100
AcDbEntity
  8
0
  6
Continuous
 62
     7
370
    15
100
AcDbLine
 10
2120.652327258039
 20
807.9203471362454
 30
0.0
 11
2120.750402052714
 21
808.0184219309206
 31
0.0
  0
ELLIPSE
  5
7C7
330
767
100
AcDbEntity
  8
0
  6
Continuous
 62
     7
370
    15
100
AcDbEllipse
 10
2120.750228180456
 20
807.7140378751904
 30
0.0
 11
-0.2153140148708133
 21
0.2153140148717796
 31
0.0
210
0.0
220
0.0
230
0.9999999999999998
 40
0.9992390260207304
 41
3.927942674874282
 42
5.496835285900639
  0
LINE
  5
7C8
330
767
100
AcDbEntity
  8
0
  6
Continuous
 62
     7
370
    15
100
AcDbLine
 10
2121.054612236186
 20
807.7142117474487
 30
0.0
 11
2120.956537441511
 21
807.6161369527737
 31
0.0
  0
LINE
  5
7C9
330
767
100
AcDbEntity
  8
0
  6
Continuous
 62
     7
370
    15
100
AcDbLine
 10
2125.575077258039
 20
807.9203471362454
 30
0.0
 11
2125.67315189074
 21
808.0184219309204
 31
0.0
  0
ELLIPSE
  5
7CA
330
767
100
AcDbEntity
  8
0
  6
Continuous
 62
     7
370
    15
100
AcDbEllipse
 10
2125.672978180456
 20
807.7140378751902
 30
0.0
 11
-0.2153140148708417
 21
0.2153140148717797
 31
0.0
210
0.0
220
0.0
230
1.0
 40
0.9992390260207304
 41
3.927942142737179
 42
5.496835818036864
  0
LINE
  5
7CB
330
767
100
AcDbEntity
  8
0
  6
Continuous
 62
     7
370
    15
100
AcDbLine
 10
2125.977362236186
 20
807.7142115854742
 30
0.0
 11
2125.87928744151
 21
807.6161369527737
 31
0.0
  0
LINE
  5
7CC
330
767
100
AcDbEntity
  8
0
  6
Continuous
 62
     7
370
    15
100
AcDbLine
 10
2124.293473503491
 20
807.6161369527737
 30
0.0
 11
2124.195398708816
 21
807.7142117474487
 31
0.0
  0
ELLIPSE
  5
7CD
330
767
100
AcDbEntity
  8
0
  6
Continuous
 62
     7
370
    15
100
AcDbEllipse
 10
2124.499782764546
 20
807.7140378751902
 30
0.0
 11
0.2153140148708133
 21
0.2153140148717796
 31
0.0
210
0.0
220
0.0
230
0.9999999999999998
 40
0.9992390260207963
 41
0.7863500212807021
 42
2.355242632304509
  0
LINE
  5
7CE
330
767
100
AcDbEntity
  8
0
  6
Continuous
 62
     7
370
    15
100
AcDbLine
 10
2124.499608892287
 20
808.0184219309204
 30
0.0
 11
2124.597683686963
 21
807.9203471362454
 31
0.0
  0
LINE
  5
7CF
330
767
100
AcDbEntity
  8
0
  6
Continuous
 62
     7
370
    15
100
AcDbLine
 10
2119.370723503491
 20
807.616136952774
 30
0.0
 11
2119.272648708816
 21
807.7142115854744
 31
0.0
  0
ELLIPSE
  5
7D0
330
767
100
AcDbEntity
  8
0
  6
Continuous
 62
     7
370
    15
100
AcDbEllipse
 10
2119.577032764546
 20
807.7140378751904
 30
0.0
 11
0.2153140148708417
 21
0.2153140148717227
 31
0.0
210
0.0
220
0.0
230
1.0
 40
0.9992390260209283
 41
0.7863494891411814
 42
2.355243164442652
  0
LINE
  5
7D1
330
767
100
AcDbEntity
  8
0
  6
Continuous
 62
     7
370
    15
100
AcDbLine
 10
2119.576859054262
 20
808.0184219309206
 30
0.0
 11
2119.674933686963
 21
807.9203471362454
 31
0.0
  0
LINE
  5
7D2
330
767
100
AcDbEntity
  8
0
  6
Continuous
 62
     7
370
    15
100
AcDbLine
 10
2124.597683686963
 20
809.887033198226
 30
0.0
 11
2124.499608892287
 21
809.7889584035504
 31
0.0
  0
ELLIPSE
  5
7D3
330
767
100
AcDbEntity
  8
0
  6
Continuous
 62
     7
370
    15
100
AcDbEllipse
 10
2124.499782764546
 20
810.0933424592806
 30
0.0
 11
0.2153140148717511
 21
-0.21531401487087
 31
0.0
210
0.0
220
0.0
230
1.0
 40
0.9992390260207965
 41
3.927942674870613
 42
5.496835285894608
  0
LINE
  5
7D4
330
767
100
AcDbEntity
  8
0
  6
Continuous
 62
     7
370
    15
100
AcDbLine
 10
2124.195398708816
 20
810.0931685870222
 30
0.0
 11
2124.293473503491
 21
810.1912433816977
 31
0.0
  0
LINE
  5
7D5
330
767
100
AcDbEntity
  8
0
  6
Continuous
 62
     7
370
    15
100
AcDbLine
 10
2125.87928744151
 20
810.1912433816975
 30
0.0
 11
2125.977362236186
 21
810.0931687489966
 31
0.0
  0
ELLIPSE
  5
7D6
330
767
100
AcDbEntity
  8
0
  6
Continuous
 62
     7
370
    15
100
AcDbEllipse
 10
2125.672978180456
 20
810.0933424592806
 30
0.0
 11
0.2153140148717796
 21
0.2153140148707848
 31
0.0
210
0.0
220
0.0
230
1.0
 40
0.9992390260208622
 41
3.927942142736964
 42
5.496835818036782
  0
LINE
  5
7D7
330
767
100
AcDbEntity
  8
0
  6
Continuous
 62
     7
370
    15
100
AcDbLine
 10
2125.67315189074
 20
809.7889584035504
 30
0.0
 11
2125.575077258039
 21
809.887033198226
 31
0.0
  0
LINE
  5
7D8
330
767
100
AcDbEntity
  8
0
  6
Continuous
 62
     7
370
    15
100
AcDbLine
 10
2120.750402052714
 20
809.7889584035504
 30
0.0
 11
2120.652327258039
 21
809.887033198226
 31
0.0
  0
LINE
  5
7D9
330
767
100
AcDbEntity
  8
0
  6
Continuous
 62
     7
370
    15
100
AcDbLine
 10
2120.956537441511
 20
810.1912433816977
 30
0.0
 11
2121.054612236186
 21
810.0931685870222
 31
0.0
  0
ELLIPSE
  5
7DA
330
767
100
AcDbEntity
  8
0
  6
Continuous
 62
     7
370
    15
100
AcDbEllipse
 10
2120.750228180456
 20
810.0933424592806
 30
0.0
 11
0.2153140148717796
 21
0.2153140148708133
 31
0.0
210
0.0
220
0.0
230
0.9999999999999998
 40
0.9992390260207963
 41
3.927942674873222
 42
5.49683528589899
  0
LINE
  5
7DB
330
767
100
AcDbEntity
  8
0
  6
Continuous
 62
     7
370
    15
100
AcDbLine
 10
2119.674933686963
 20
809.887033198226
 30
0.0
 11
2119.576858892288
 21
809.7889584035504
 31
0.0
  0
ELLIPSE
  5
7DC
330
767
100
AcDbEntity
  8
0
  6
Continuous
 62
     7
370
    15
100
AcDbEllipse
 10
2119.577032764546
 20
810.0933424592806
 30
0.0
 11
0.2153140148717796
 21
-0.2153140148708133
 31
0.0
210
0.0
220
0.0
230
0.9999999999999998
 40
0.9992390260208624
 41
3.927942674870382
 42
5.496835285896217
  0
LINE
  5
7DD
330
767
100
AcDbEntity
  8
0
  6
Continuous
 62
     7
370
    15
100
AcDbLine
 10
2119.272648708816
 20
810.0931685870222
 30
0.0
 11
2119.370723503491
 21
810.1912433816977
 31
0.0
  0
LINE
  5
7DE
330
767
100
AcDbEntity
  8
0
  6
Continuous
 62
     7
370
    15
100
AcDbLine
 10
2121.054612236186
 20
811.8249617474488
 30
0.0
 11
2120.956537441511
 21
811.7268869527737
 31
0.0
  0
LINE
  5
7DF
330
767
100
AcDbEntity
  8
0
  6
Continuous
 62
     7
370
    15
100
AcDbLine
 10
2120.652327258039
 20
812.0310971362455
 30
0.0
 11
2120.750402052714
 21
812.1291719309205
 31
0.0
  0
ELLIPSE
  5
7E0
330
767
100
AcDbEntity
  8
0
  6
Continuous
 62
     7
370
    15
100
AcDbEllipse
 10
2120.750228180456
 20
811.8247878751903
 30
0.0
 11
-0.2153140148708133
 21
0.2153140148717796
 31
0.0
210
0.0
220
0.0
230
0.9999999999999998
 40
0.9992390260208624
 41
3.92794267487431
 42
5.496835285900705
  0
LINE
  5
7E1
330
767
100
AcDbEntity
  8
0
  6
Continuous
 62
     7
370
    15
100
AcDbLine
 10
2119.576859054262
 20
812.1291719309205
 30
0.0
 11
2119.674933686963
 21
812.0310971362455
 31
0.0
  0
LINE
  5
7E2
330
767
100
AcDbEntity
  8
0
  6
Continuous
 62
     7
370
    15
100
AcDbLine
 10
2119.370723503491
 20
811.7268869527737
 30
0.0
 11
2119.272648708816
 21
811.8249615854745
 31
0.0
  0
ELLIPSE
  5
7E3
330
767
100
AcDbEntity
  8
0
  6
Continuous
 62
     7
370
    15
100
AcDbEllipse
 10
2119.577032764546
 20
811.8247878751903
 30
0.0
 11
0.2153140148708133
 21
0.2153140148717796
 31
0.0
210
0.0
220
0.0
230
0.9999999999999998
 40
0.9992390260207963
 41
0.7863494891410495
 42
2.355243164442388
  0
LINE
  5
7E4
330
767
100
AcDbEntity
  8
0
  6
Continuous
 62
     7
370
    15
100
AcDbLine
 10
2124.499609054263
 20
812.7381719309205
 30
0.0
 11
2124.597683686963
 21
812.6400971362453
 31
0.0
  0
LINE
  5
7E5
330
767
100
AcDbEntity
  8
0
  6
Continuous
 62
     7
370
    15
100
AcDbLine
 10
2124.293473503491
 20
812.3358869527738
 30
0.0
 11
2124.195398708816
 21
812.4339615854742
 31
0.0
  0
ELLIPSE
  5
7E6
330
767
100
AcDbEntity
  8
0
  6
Continuous
 62
     7
370
    15
100
AcDbEllipse
 10
2124.499782764546
 20
812.4337878751902
 30
0.0
 11
0.2153140148708133
 21
0.2153140148717796
 31
0.0
210
0.0
220
0.0
230
0.9999999999999998
 40
0.9992390260207963
 41
0.7863494891411424
 42
2.355243164442574
  0
LINE
  5
7E7
330
767
100
AcDbEntity
  8
0
  6
Continuous
 62
     7
370
    15
100
AcDbLine
 10
2125.977362236186
 20
812.4339615854742
 30
0.0
 11
2125.87928744151
 21
812.3358869527738
 31
0.0
  0
LINE
  5
7E8
330
767
100
AcDbEntity
  8
0
  6
Continuous
 62
     7
370
    15
100
AcDbLine
 10
2125.575077258039
 20
812.6400971362453
 30
0.0
 11
2125.67315189074
 21
812.7381719309205
 31
0.0
  0
ELLIPSE
  5
7E9
330
767
100
AcDbEntity
  8
0
  6
Continuous
 62
     7
370
    15
100
AcDbEllipse
 10
2125.672978180456
 20
812.4337878751903
 30
0.0
 11
-0.2153140148708417
 21
0.2153140148717797
 31
0.0
210
0.0
220
0.0
230
1.0
 40
0.9992390260207965
 41
3.927942142736305
 42
5.496835818036897
  0
LINE
  5
7EA
330
767
100
AcDbEntity
  8
0
  6
Continuous
 62
     7
370
    15
100
AcDbLine
 10
2119.57710233199
 20
804.3587084035504
 30
0.0
 11
2120.750158613011
 21
804.3587084035504
 31
0.0
  0
LINE
  5
7EB
330
767
100
AcDbEntity
  8
0
  6
Continuous
 62
     7
370
    15
100
AcDbLine
 10
2119.576858892287
 20
804.3587084035504
 30
0.0
 11
2119.57710233199
 21
804.3587084035504
 31
0.0
  0
LINE
  5
7EC
330
767
100
AcDbEntity
  8
0
  6
Continuous
 62
     7
370
    15
100
AcDbLine
 10
2120.750158613011
 20
804.3587084035504
 30
0.0
 11
2120.75040189074
 21
804.3587084035504
 31
0.0
  0
LINE
  5
7ED
330
767
100
AcDbEntity
  8
0
  6
Continuous
 62
     7
370
    15
100
AcDbLine
 10
2124.49985233199
 20
804.3587084035504
 30
0.0
 11
2125.672908613011
 21
804.3587084035504
 31
0.0
  0
LINE
  5
7EE
330
767
100
AcDbEntity
  8
0
  6
Continuous
 62
     7
370
    15
100
AcDbLine
 10
2124.499609054262
 20
804.3587084035504
 30
0.0
 11
2124.49985233199
 21
804.3587084035504
 31
0.0
  0
LINE
  5
7EF
330
767
100
AcDbEntity
  8
0
  6
Continuous
 62
     7
370
    15
100
AcDbLine
 10
2125.672908613011
 20
804.3587084035504
 30
0.0
 11
2125.673152052715
 21
804.3587084035504
 31
0.0
  0
LINE
  5
7F0
330
767
100
AcDbEntity
  8
0
  6
Continuous
 62
     7
370
    15
100
AcDbLine
 10
2124.195398708816
 20
804.6631620267257
 30
0.0
 11
2124.195398708816
 21
804.6629187489966
 31
0.0
  0
LINE
  5
7F1
330
767
100
AcDbEntity
  8
0
  6
Continuous
 62
     7
370
    15
100
AcDbLine
 10
2124.195398708816
 20
807.7139683077453
 30
0.0
 11
2124.195398708816
 21
804.6631620267257
 31
0.0
  0
LINE
  5
7F2
330
767
100
AcDbEntity
  8
0
  6
Continuous
 62
     7
370
    15
100
AcDbLine
 10
2124.195398708816
 20
807.7142117474487
 30
0.0
 11
2124.195398708816
 21
807.7139683077453
 31
0.0
  0
LINE
  5
7F3
330
767
100
AcDbEntity
  8
0
  6
Continuous
 62
     7
370
    15
100
AcDbLine
 10
2119.272648708816
 20
807.7139683077454
 30
0.0
 11
2119.272648708816
 21
804.6631620267257
 31
0.0
  0
LINE
  5
7F4
330
767
100
AcDbEntity
  8
0
  6
Continuous
 62
     7
370
    15
100
AcDbLine
 10
2119.272648708816
 20
807.7142115854744
 30
0.0
 11
2119.272648708816
 21
807.7139683077454
 31
0.0
  0
LINE
  5
7F5
330
767
100
AcDbEntity
  8
0
  6
Continuous
 62
     7
370
    15
100
AcDbLine
 10
2119.272648708816
 20
804.6631620267257
 30
0.0
 11
2119.272648708816
 21
804.6629185870221
 31
0.0
  0
LINE
  5
7F6
330
767
100
AcDbEntity
  8
0
  6
Continuous
 62
     7
370
    15
100
AcDbLine
 10
2121.054612236186
 20
807.7139683077454
 30
0.0
 11
2121.054612236186
 21
807.7142117474487
 31
0.0
  0
LINE
  5
7F7
330
767
100
AcDbEntity
  8
0
  6
Continuous
 62
     7
370
    15
100
AcDbLine
 10
2121.054612236186
 20
804.6631620267257
 30
0.0
 11
2121.054612236186
 21
807.7139683077454
 31
0.0
  0
LINE
  5
7F8
330
767
100
AcDbEntity
  8
0
  6
Continuous
 62
     7
370
    15
100
AcDbLine
 10
2121.054612236186
 20
804.6629187489966
 30
0.0
 11
2121.054612236186
 21
804.6631620267257
 31
0.0
  0
LINE
  5
7F9
330
767
100
AcDbEntity
  8
0
  6
Continuous
 62
     7
370
    15
100
AcDbLine
 10
2125.977362236186
 20
804.6631620267257
 30
0.0
 11
2125.977362236186
 21
807.7139683077453
 31
0.0
  0
LINE
  5
7FA
330
767
100
AcDbEntity
  8
0
  6
Continuous
 62
     7
370
    15
100
AcDbLine
 10
2125.977362236186
 20
804.6629185870221
 30
0.0
 11
2125.977362236186
 21
804.6631620267257
 31
0.0
  0
LINE
  5
7FB
330
767
100
AcDbEntity
  8
0
  6
Continuous
 62
     7
370
    15
100
AcDbLine
 10
2125.977362236186
 20
807.7139683077453
 30
0.0
 11
2125.977362236186
 21
807.7142115854742
 31
0.0
  0
LINE
  5
7FC
330
767
100
AcDbEntity
  8
0
  6
Continuous
 62
     7
370
    15
100
AcDbLine
 10
2125.672908613011
 20
808.0184219309204
 30
0.0
 11
2124.49985233199
 21
808.0184219309204
 31
0.0
  0
LINE
  5
7FD
330
767
100
AcDbEntity
  8
0
  6
Continuous
 62
     7
370
    15
100
AcDbLine
 10
2125.67315189074
 20
808.0184219309204
 30
0.0
 11
2125.672908613011
 21
808.0184219309204
 31
0.0
  0
LINE
  5
7FE
330
767
100
AcDbEntity
  8
0
  6
Continuous
 62
     7
370
    15
100
AcDbLine
 10
2124.49985233199
 20
808.0184219309204
 30
0.0
 11
2124.499608892287
 21
808.0184219309204
 31
0.0
  0
LINE
  5
7FF
330
767
100
AcDbEntity
  8
0
  6
Continuous
 62
     7
370
    15
100
AcDbLine
 10
2120.750158613011
 20
808.0184219309206
 30
0.0
 11
2119.577102331991
 21
808.0184219309206
 31
0.0
  0
LINE
  5
800
330
767
100
AcDbEntity
  8
0
  6
Continuous
 62
     7
370
    15
100
AcDbLine
 10
2120.750402052714
 20
808.0184219309206
 30
0.0
 11
2120.750158613011
 21
808.0184219309206
 31
0.0
  0
LINE
  5
801
330
767
100
AcDbEntity
  8
0
  6
Continuous
 62
     7
370
    15
100
AcDbLine
 10
2119.577102331991
 20
808.0184219309206
 30
0.0
 11
2119.576859054262
 21
808.0184219309206
 31
0.0
  0
LINE
  5
802
330
767
100
AcDbEntity
  8
0
  6
Continuous
 62
     7
370
    15
100
AcDbLine
 10
2125.672908613011
 20
809.7889584035504
 30
0.0
 11
2125.67315189074
 21
809.7889584035504
 31
0.0
  0
LINE
  5
803
330
767
100
AcDbEntity
  8
0
  6
Continuous
 62
     7
370
    15
100
AcDbLine
 10
2124.499852331991
 20
809.7889584035504
 30
0.0
 11
2125.672908613011
 21
809.7889584035504
 31
0.0
  0
LINE
  5
804
330
767
100
AcDbEntity
  8
0
  6
Continuous
 62
     7
370
    15
100
AcDbLine
 10
2124.499608892287
 20
809.7889584035504
 30
0.0
 11
2124.499852331991
 21
809.7889584035504
 31
0.0
  0
LINE
  5
805
330
767
100
AcDbEntity
  8
0
  6
Continuous
 62
     7
370
    15
100
AcDbLine
 10
2120.750158613011
 20
809.7889584035504
 30
0.0
 11
2120.750402052714
 21
809.7889584035504
 31
0.0
  0
LINE
  5
806
330
767
100
AcDbEntity
  8
0
  6
Continuous
 62
     7
370
    15
100
AcDbLine
 10
2119.577102331991
 20
809.7889584035504
 30
0.0
 11
2120.750158613011
 21
809.7889584035504
 31
0.0
  0
LINE
  5
807
330
767
100
AcDbEntity
  8
0
  6
Continuous
 62
     7
370
    15
100
AcDbLine
 10
2119.576858892288
 20
809.7889584035504
 30
0.0
 11
2119.577102331991
 21
809.7889584035504
 31
0.0
  0
LINE
  5
808
330
767
100
AcDbEntity
  8
0
  6
Continuous
 62
     7
370
    15
100
AcDbLine
 10
2119.272648708816
 20
810.0934120267256
 30
0.0
 11
2119.272648708816
 21
810.0931685870222
 31
0.0
  0
LINE
  5
809
330
767
100
AcDbEntity
  8
0
  6
Continuous
 62
     7
370
    15
100
AcDbLine
 10
2119.272648708816
 20
811.8247183077455
 30
0.0
 11
2119.272648708816
 21
810.0934120267256
 31
0.0
  0
LINE
  5
80A
330
767
100
AcDbEntity
  8
0
  6
Continuous
 62
     7
370
    15
100
AcDbLine
 10
2119.272648708816
 20
811.8249615854745
 30
0.0
 11
2119.272648708816
 21
811.8247183077455
 31
0.0
  0
LINE
  5
80B
330
767
100
AcDbEntity
  8
0
  6
Continuous
 62
     7
370
    15
100
AcDbLine
 10
2124.195398708816
 20
812.4337183077452
 30
0.0
 11
2124.195398708816
 21
810.0934120267256
 31
0.0
  0
LINE
  5
80C
330
767
100
AcDbEntity
  8
0
  6
Continuous
 62
     7
370
    15
100
AcDbLine
 10
2124.195398708816
 20
812.4339615854742
 30
0.0
 11
2124.195398708816
 21
812.4337183077452
 31
0.0
  0
LINE
  5
80D
330
767
100
AcDbEntity
  8
0
  6
Continuous
 62
     7
370
    15
100
AcDbLine
 10
2124.195398708816
 20
810.0934120267256
 30
0.0
 11
2124.195398708816
 21
810.0931685870222
 31
0.0
  0
LINE
  5
80E
330
767
100
AcDbEntity
  8
0
  6
Continuous
 62
     7
370
    15
100
AcDbLine
 10
2121.054612236186
 20
810.0934120267256
 30
0.0
 11
2121.054612236186
 21
811.8247183077453
 31
0.0
  0
LINE
  5
80F
330
767
100
AcDbEntity
  8
0
  6
Continuous
 62
     7
370
    15
100
AcDbLine
 10
2121.054612236186
 20
810.0931685870222
 30
0.0
 11
2121.054612236186
 21
810.0934120267256
 31
0.0
  0
LINE
  5
810
330
767
100
AcDbEntity
  8
0
  6
Continuous
 62
     7
370
    15
100
AcDbLine
 10
2121.054612236186
 20
811.8247183077453
 30
0.0
 11
2121.054612236186
 21
811.8249617474488
 31
0.0
  0
LINE
  5
811
330
767
100
AcDbEntity
  8
0
  6
Continuous
 62
     7
370
    15
100
AcDbLine
 10
2125.977362236186
 20
812.4337183077452
 30
0.0
 11
2125.977362236186
 21
812.4339615854742
 31
0.0
  0
LINE
  5
812
330
767
100
AcDbEntity
  8
0
  6
Continuous
 62
     7
370
    15
100
AcDbLine
 10
2125.977362236186
 20
810.0934120267256
 30
0.0
 11
2125.977362236186
 21
812.4337183077452
 31
0.0
  0
LINE
  5
813
330
767
100
AcDbEntity
  8
0
  6
Continuous
 62
     7
370
    15
100
AcDbLine
 10
2125.977362236186
 20
810.0931687489966
 30
0.0
 11
2125.977362236186
 21
810.0934120267256
 31
0.0
  0
LINE
  5
814
330
767
100
AcDbEntity
  8
0
  6
Continuous
 62
     7
370
    15
100
AcDbLine
 10
2119.577102331991
 20
812.1291719309205
 30
0.0
 11
2119.576859054262
 21
812.1291719309205
 31
0.0
  0
LINE
  5
815
330
767
100
AcDbEntity
  8
0
  6
Continuous
 62
     7
370
    15
100
AcDbLine
 10
2120.750158613011
 20
812.1291719309205
 30
0.0
 11
2119.577102331991
 21
812.1291719309205
 31
0.0
  0
LINE
  5
816
330
767
100
AcDbEntity
  8
0
  6
Continuous
 62
     7
370
    15
100
AcDbLine
 10
2120.750402052714
 20
812.1291719309205
 30
0.0
 11
2120.750158613011
 21
812.1291719309205
 31
0.0
  0
LINE
  5
817
330
767
100
AcDbEntity
  8
0
  6
Continuous
 62
     7
370
    15
100
AcDbLine
 10
2124.499852331991
 20
812.7381719309205
 30
0.0
 11
2124.499609054263
 21
812.7381719309205
 31
0.0
  0
LINE
  5
818
330
767
100
AcDbEntity
  8
0
  6
Continuous
 62
     7
370
    15
100
AcDbLine
 10
2125.672908613011
 20
812.7381719309205
 30
0.0
 11
2124.499852331991
 21
812.7381719309205
 31
0.0
  0
LINE
  5
819
330
767
100
AcDbEntity
  8
0
  6
Continuous
 62
     7
370
    15
100
AcDbLine
 10
2125.67315189074
 20
812.7381719309205
 30
0.0
 11
2125.672908613011
 21
812.7381719309205
 31
0.0
  0
ARC
  5
81A
330
767
100
AcDbEntity
  8
0
  6
Continuous
 62
     7
370
    15
100
AcDbCircle
 10
2124.3758804725
 20
804.5391901672346
 30
0.0
 40
0.3045000035317545
100
AcDbArc
 50
180.0087264246539
 51
269.9912735753851
  0
LINE
  5
81B
330
767
100
AcDbEntity
  8
0
  6
Continuous
 62
     7
370
    15
100
AcDbLine
 10
2124.0713804725
 20
804.5391437904097
 30
0.0
 11
2124.195398708816
 21
804.6631620267257
 31
0.0
  0
LINE
  5
81C
330
767
100
AcDbEntity
  8
0
  6
Continuous
 62
     7
370
    15
100
AcDbLine
 10
2124.49985233199
 20
804.3587084035504
 30
0.0
 11
2124.375834095676
 21
804.2346901672344
 31
0.0
  0
LINE
  5
81D
330
767
100
AcDbEntity
  8
0
  6
Continuous
 62
     7
370
    15
100
AcDbLine
 10
2124.195398708816
 20
807.7139683077453
 30
0.0
 11
2124.138611897214
 21
807.770755119346
 31
0.0
  0
ARC
  5
81E
330
767
100
AcDbEntity
  8
0
  6
Continuous
 62
     7
370
    15
100
AcDbCircle
 10
2124.443174155688
 20
807.7706464840476
 30
0.0
 40
0.3045622778481905
100
AcDbArc
 50
90.02043701621081
 51
179.9795629836914
  0
LINE
  5
81F
330
767
100
AcDbEntity
  8
0
  6
Continuous
 62
     7
370
    15
100
AcDbLine
 10
2124.44306552039
 20
808.075208742521
 30
0.0
 11
2124.49985233199
 21
808.0184219309204
 31
0.0
  0
LINE
  5
820
330
767
100
AcDbEntity
  8
0
  6
Continuous
 62
     7
370
    15
100
AcDbLine
 10
2124.499852331991
 20
809.7889584035504
 30
0.0
 11
2124.44306552039
 21
809.7321715919489
 31
0.0
  0
ARC
  5
821
330
767
100
AcDbEntity
  8
0
  6
Continuous
 62
     7
370
    15
100
AcDbCircle
 10
2124.443174155689
 20
810.0367338504227
 30
0.0
 40
0.3045622778485319
100
AcDbArc
 50
180.0204370163346
 51
269.9795629836328
  0
LINE
  5
822
330
767
100
AcDbEntity
  8
0
  6
Continuous
 62
     7
370
    15
100
AcDbLine
 10
2124.138611897215
 20
810.0366252151241
 30
0.0
 11
2124.195398708816
 21
810.0934120267256
 31
0.0
  0
ARC
  5
823
330
767
100
AcDbEntity
  8
0
  6
Continuous
 62
     7
370
    15
100
AcDbCircle
 10
2119.453130472501
 20
811.9486901672349
 30
0.0
 40
0.3045000035317262
100
AcDbArc
 50
90.00872642469301
 51
179.991273575307
  0
LINE
  5
824
330
767
100
AcDbEntity
  8
0
  6
Continuous
 62
     7
370
    15
100
AcDbLine
 10
2119.453084095676
 20
812.2531901672347
 30
0.0
 11
2119.577102331991
 21
812.1291719309205
 31
0.0
  0
LINE
  5
825
330
767
100
AcDbEntity
  8
0
  6
Continuous
 62
     7
370
    15
100
AcDbLine
 10
2119.272648708816
 20
811.8247183077455
 30
0.0
 11
2119.148630472501
 21
811.9487365440598
 31
0.0
  0
ARC
  5
826
330
767
100
AcDbEntity
  8
0
  6
Continuous
 62
     7
370
    15
100
AcDbCircle
 10
2124.375880472501
 20
812.5576901672348
 30
0.0
 40
0.30450000353116
100
AcDbArc
 50
90.00872576028784
 51
179.9912742397577
  0
LINE
  5
827
330
767
100
AcDbEntity
  8
0
  6
Continuous
 62
     7
370
    15
100
AcDbLine
 10
2124.375834099208
 20
812.8621901672348
 30
0.0
 11
2124.499852331991
 21
812.7381719309205
 31
0.0
  0
LINE
  5
828
330
767
100
AcDbEntity
  8
0
  6
Continuous
 62
     7
370
    15
100
AcDbLine
 10
2124.195398708816
 20
812.4337183077452
 30
0.0
 11
2124.071380472501
 21
812.5577365405286
 31
0.0
  0
ARC
  5
829
330
767
100
AcDbEntity
  8
0
  6
Continuous
 62
     7
370
    15
100
AcDbCircle
 10
2125.796880472501
 20
804.5391901672346
 30
0.0
 40
0.3045000035317546
100
AcDbArc
 50
270.008726424693
 51
359.991273575333
  0
LINE
  5
82A
330
767
100
AcDbEntity
  8
0
  6
Continuous
 62
     7
370
    15
100
AcDbLine
 10
2125.796926849326
 20
804.2346901672344
 30
0.0
 11
2125.672908613011
 21
804.3587084035504
 31
0.0
  0
LINE
  5
82B
330
767
100
AcDbEntity
  8
0
  6
Continuous
 62
     7
370
    15
100
AcDbLine
 10
2125.977362236186
 20
804.6631620267257
 30
0.0
 11
2126.101380472501
 21
804.5391437904097
 31
0.0
  0
LINE
  5
82C
330
767
100
AcDbEntity
  8
0
  6
Continuous
 62
     7
370
    15
100
AcDbLine
 10
2125.977362236186
 20
810.0934120267256
 30
0.0
 11
2126.034149047787
 21
810.0366252151241
 31
0.0
  0
ARC
  5
82D
330
767
100
AcDbEntity
  8
0
  6
Continuous
 62
     7
370
    15
100
AcDbCircle
 10
2125.729586789313
 20
810.0367338504232
 30
0.0
 40
0.3045622778491289
100
AcDbArc
 50
270.0204370164974
 51
359.9795629835612
  0
LINE
  5
82E
330
767
100
AcDbEntity
  8
0
  6
Continuous
 62
     7
370
    15
100
AcDbLine
 10
2125.729695424612
 20
809.7321715919488
 30
0.0
 11
2125.672908613011
 21
809.7889584035504
 31
0.0
  0
ARC
  5
82F
330
767
100
AcDbEntity
  8
0
  6
Continuous
 62
     7
370
    15
100
AcDbCircle
 10
2120.874130472501
 20
804.5391901672349
 30
0.0
 40
0.3045000035312167
100
AcDbArc
 50
270.0087257601836
 51
359.9912742397382
  0
LINE
  5
830
330
767
100
AcDbEntity
  8
0
  6
Continuous
 62
     7
370
    15
100
AcDbLine
 10
2120.874176845795
 20
804.2346901672347
 30
0.0
 11
2120.750158613011
 21
804.3587084035504
 31
0.0
  0
LINE
  5
831
330
767
100
AcDbEntity
  8
0
  6
Continuous
 62
     7
370
    15
100
AcDbLine
 10
2121.054612236186
 20
804.6631620267257
 30
0.0
 11
2121.178630472501
 21
804.5391437939409
 31
0.0
  0
ARC
  5
832
330
767
100
AcDbEntity
  8
0
  6
Continuous
 62
     7
370
    15
100
AcDbCircle
 10
2119.453130472501
 20
804.5391901672349
 30
0.0
 40
0.3045000035317546
100
AcDbArc
 50
180.008726424706
 51
269.991273575307
  0
LINE
  5
833
330
767
100
AcDbEntity
  8
0
  6
Continuous
 62
     7
370
    15
100
AcDbLine
 10
2119.148630472501
 20
804.5391437904097
 30
0.0
 11
2119.272648708816
 21
804.6631620267257
 31
0.0
  0
LINE
  5
834
330
767
100
AcDbEntity
  8
0
  6
Continuous
 62
     7
370
    15
100
AcDbLine
 10
2119.57710233199
 20
804.3587084035504
 30
0.0
 11
2119.453084095676
 21
804.2346901672347
 31
0.0
  0
LINE
  5
835
330
767
100
AcDbEntity
  8
0
  6
Continuous
 62
     7
370
    15
100
AcDbLine
 10
2119.272648708816
 20
807.7139683077454
 30
0.0
 11
2119.215861897215
 21
807.7707551193462
 31
0.0
  0
ARC
  5
836
330
767
100
AcDbEntity
  8
0
  6
Continuous
 62
     7
370
    15
100
AcDbCircle
 10
2119.520424155689
 20
807.7706464840471
 30
0.0
 40
0.3045622778490722
100
AcDbArc
 50
90.0204370165756
 51
179.9795629835286
  0
LINE
  5
837
330
767
100
AcDbEntity
  8
0
  6
Continuous
 62
     7
370
    15
100
AcDbLine
 10
2119.520315520389
 20
808.0752087425214
 30
0.0
 11
2119.577102331991
 21
808.0184219309206
 31
0.0
  0
LINE
  5
838
330
767
100
AcDbEntity
  8
0
  6
Continuous
 62
     7
370
    15
100
AcDbLine
 10
2125.672908613011
 20
808.0184219309204
 30
0.0
 11
2125.729695424612
 21
808.075208742521
 31
0.0
  0
ARC
  5
839
330
767
100
AcDbEntity
  8
0
  6
Continuous
 62
     7
370
    15
100
AcDbCircle
 10
2125.729586789313
 20
807.7706464840472
 30
0.0
 40
0.3045622778486456
100
AcDbArc
 50
0.0204370163932095
 51
89.97956298360678
  0
LINE
  5
83A
330
767
100
AcDbEntity
  8
0
  6
Continuous
 62
     7
370
    15
100
AcDbLine
 10
2126.034149047787
 20
807.770755119346
 30
0.0
 11
2125.977362236186
 21
807.7139683077453
 31
0.0
  0
LINE
  5
83B
330
767
100
AcDbEntity
  8
0
  6
Continuous
 62
     7
370
    15
100
AcDbLine
 10
2121.054612236186
 20
810.0934120267256
 30
0.0
 11
2121.111399047787
 21
810.0366252151241
 31
0.0
  0
ARC
  5
83C
330
767
100
AcDbEntity
  8
0
  6
Continuous
 62
     7
370
    15
100
AcDbCircle
 10
2120.806836789313
 20
810.0367338504232
 30
0.0
 40
0.3045622778491005
100
AcDbArc
 50
270.0204370164714
 51
359.9795629835677
  0
LINE
  5
83D
330
767
100
AcDbEntity
  8
0
  6
Continuous
 62
     7
370
    15
100
AcDbLine
 10
2120.806945424612
 20
809.7321715919489
 30
0.0
 11
2120.750158613011
 21
809.7889584035504
 31
0.0
  0
LINE
  5
83E
330
767
100
AcDbEntity
  8
0
  6
Continuous
 62
     7
370
    15
100
AcDbLine
 10
2119.577102331991
 20
809.7889584035504
 30
0.0
 11
2119.52031552039
 21
809.7321715919489
 31
0.0
  0
ARC
  5
83F
330
767
100
AcDbEntity
  8
0
  6
Continuous
 62
     7
370
    15
100
AcDbCircle
 10
2119.520424155689
 20
810.0367338504232
 30
0.0
 40
0.3045622778491005
100
AcDbArc
 50
180.0204370164388
 51
269.9795629835286
  0
LINE
  5
840
330
767
100
AcDbEntity
  8
0
  6
Continuous
 62
     7
370
    15
100
AcDbLine
 10
2119.215861897215
 20
810.0366252151241
 30
0.0
 11
2119.272648708816
 21
810.0934120267256
 31
0.0
  0
ARC
  5
841
330
767
100
AcDbEntity
  8
0
  6
Continuous
 62
     7
370
    15
100
AcDbCircle
 10
2120.874130472501
 20
811.9486901672347
 30
0.0
 40
0.3045000035317262
100
AcDbArc
 50
0.0087264246930014
 51
89.99127357530699
  0
LINE
  5
842
330
767
100
AcDbEntity
  8
0
  6
Continuous
 62
     7
370
    15
100
AcDbLine
 10
2121.178630472501
 20
811.9487365440598
 30
0.0
 11
2121.054612236186
 21
811.8247183077453
 31
0.0
  0
LINE
  5
843
330
767
100
AcDbEntity
  8
0
  6
Continuous
 62
     7
370
    15
100
AcDbLine
 10
2120.750158613011
 20
812.1291719309205
 30
0.0
 11
2120.874176849326
 21
812.2531901672347
 31
0.0
  0
ARC
  5
844
330
767
100
AcDbEntity
  8
0
  6
Continuous
 62
     7
370
    15
100
AcDbCircle
 10
2125.796880472501
 20
812.5576901672348
 30
0.0
 40
0.3045000035311599
100
AcDbArc
 50
0.008725760216191
 51
89.99127423971215
  0
LINE
  5
845
330
767
100
AcDbEntity
  8
0
  6
Continuous
 62
     7
370
    15
100
AcDbLine
 10
2126.101380472501
 20
812.5577365405284
 30
0.0
 11
2125.977362236186
 21
812.4337183077452
 31
0.0
  0
LINE
  5
846
330
767
100
AcDbEntity
  8
0
  6
Continuous
 62
     7
370
    15
100
AcDbLine
 10
2125.672908613011
 20
812.7381719309205
 30
0.0
 11
2125.796926845795
 21
812.8621901672344
 31
0.0
  0
LINE
  5
847
330
767
100
AcDbEntity
  8
0
  6
Continuous
 62
     7
370
    15
100
AcDbLine
 10
2120.750158613011
 20
808.0184219309206
 30
0.0
 11
2120.806945424612
 21
808.0752087425212
 31
0.0
  0
ARC
  5
848
330
767
100
AcDbEntity
  8
0
  6
Continuous
 62
     7
370
    15
100
AcDbCircle
 10
2120.806836789313
 20
807.7706464840472
 30
0.0
 40
0.3045622778487309
100
AcDbArc
 50
0.0204370164127509
 51
89.97956298358074
  0
LINE
  5
849
330
767
100
AcDbEntity
  8
0
  6
Continuous
 62
     7
370
    15
100
AcDbLine
 10
2121.111399047787
 20
807.7707551193462
 30
0.0
 11
2121.054612236186
 21
807.7139683077454
 31
0.0
  0
LINE
  5
84A
330
767
100
AcDbEntity
  8
0
  6
Continuous
 62
     7
370
    15
100
AcDbLine
 10
2120.874130472501
 20
804.2346901672347
 30
0.0
 11
2119.453130472501
 21
804.2346901672347
 31
0.0
  0
LINE
  5
84B
330
767
100
AcDbEntity
  8
0
  6
Continuous
 62
     7
370
    15
100
AcDbLine
 10
2119.453130472501
 20
804.2346901672347
 30
0.0
 11
2119.453084095676
 21
804.2346901672347
 31
0.0
  0
LINE
  5
84C
330
767
100
AcDbEntity
  8
0
  6
Continuous
 62
     7
370
    15
100
AcDbLine
 10
2120.874176845795
 20
804.2346901672347
 30
0.0
 11
2120.874130472501
 21
804.2346901672347
 31
0.0
  0
LINE
  5
84D
330
767
100
AcDbEntity
  8
0
  6
Continuous
 62
     7
370
    15
100
AcDbLine
 10
2125.796880472501
 20
804.2346901672344
 30
0.0
 11
2124.3758804725
 21
804.2346901672344
 31
0.0
  0
LINE
  5
84E
330
767
100
AcDbEntity
  8
0
  6
Continuous
 62
     7
370
    15
100
AcDbLine
 10
2124.3758804725
 20
804.2346901672344
 30
0.0
 11
2124.375834095676
 21
804.2346901672344
 31
0.0
  0
LINE
  5
84F
330
767
100
AcDbEntity
  8
0
  6
Continuous
 62
     7
370
    15
100
AcDbLine
 10
2125.796926849326
 20
804.2346901672344
 30
0.0
 11
2125.796880472501
 21
804.2346901672344
 31
0.0
  0
LINE
  5
850
330
767
100
AcDbEntity
  8
0
  6
Continuous
 62
     7
370
    15
100
AcDbLine
 10
2121.178630472501
 20
811.9486901672347
 30
0.0
 11
2121.178630472501
 21
804.5391901672349
 31
0.0
  0
LINE
  5
851
330
767
100
AcDbEntity
  8
0
  6
Continuous
 62
     7
370
    15
100
AcDbLine
 10
2121.178630472501
 20
804.5391901672349
 30
0.0
 11
2121.178630472501
 21
804.5391437939409
 31
0.0
  0
ELLIPSE
  5
852
330
767
100
AcDbEntity
  8
0
  6
Continuous
 62
     7
370
    15
100
AcDbEllipse
 10
2121.111213526358
 20
808.3796623656962
 30
0.0
 11
0.0
 21
0.6090000000000089
 31
0.0
210
0.0
220
0.0
230
1.0
 40
0.017455064928222
 41
3.159045946108656
 42
4.712388980384596
  0
LINE
  5
853
330
767
100
AcDbEntity
  8
0
  6
Continuous
 62
     7
370
    15
100
AcDbLine
 10
2121.121843660899
 20
809.4277179687738
 30
0.0
 11
2121.121843660899
 21
808.3796623656962
 31
0.0
  0
ELLIPSE
  5
854
330
767
100
AcDbEntity
  8
0
  6
Continuous
 62
     7
370
    15
100
AcDbEllipse
 10
2121.111213526359
 20
809.427717968774
 30
0.0
 11
0.0
 21
0.6090000000000089
 31
0.0
210
0.0
220
0.0
230
1.0
 40
0.017455064928222
 41
4.712388980384596
 42
6.265732014707805
  0
LINE
  5
855
330
767
100
AcDbEntity
  8
0
  6
Continuous
 62
     7
370
    15
100
AcDbLine
 10
2121.178630472501
 20
811.9487365440598
 30
0.0
 11
2121.178630472501
 21
811.9486901672347
 31
0.0
  0
LINE
  5
856
330
767
100
AcDbEntity
  8
0
  6
Continuous
 62
     7
370
    15
100
AcDbLine
 10
2124.128167284102
 20
808.3796623656962
 30
0.0
 11
2124.128167284102
 21
809.4277179687738
 31
0.0
  0
ELLIPSE
  5
857
330
767
100
AcDbEntity
  8
0
  6
Continuous
 62
     7
370
    15
100
AcDbEllipse
 10
2124.138797418644
 20
808.3796623656962
 30
0.0
 11
0.0000000000000284
 21
0.6090000000000089
 31
0.0
210
0.0
220
0.0
230
1.0
 40
0.017455064928222
 41
1.57079632679499
 42
3.124139361023633
  0
LINE
  5
858
330
767
100
AcDbEntity
  8
0
  6
Continuous
 62
     7
370
    15
100
AcDbLine
 10
2124.0713804725
 20
804.5391901672346
 30
0.0
 11
2124.0713804725
 21
804.5391437904097
 31
0.0
  0
LINE
  5
859
330
767
100
AcDbEntity
  8
0
  6
Continuous
 62
     7
370
    15
100
AcDbLine
 10
2124.071380472501
 20
812.5576901672348
 30
0.0
 11
2124.0713804725
 21
804.5391901672346
 31
0.0
  0
LINE
  5
85A
330
767
100
AcDbEntity
  8
0
  6
Continuous
 62
     7
370
    15
100
AcDbLine
 10
2124.071380472501
 20
812.5577365405286
 30
0.0
 11
2124.071380472501
 21
812.5576901672348
 31
0.0
  0
ELLIPSE
  5
85B
330
767
100
AcDbEntity
  8
0
  6
Continuous
 62
     7
370
    15
100
AcDbEllipse
 10
2124.138797418644
 20
809.4277179687738
 30
0.0
 11
0.0000000000000284
 21
0.6090000000000089
 31
0.0
210
0.0
220
0.0
230
1.0
 40
0.017455064928222
 41
0.017453292526067
 42
1.57079632679499
  0
ELLIPSE
  5
85C
330
767
100
AcDbEntity
  8
0
  6
Continuous
 62
     7
370
    15
100
AcDbEllipse
 10
2119.216047418643
 20
809.427717968774
 30
0.0
 11
0.0
 21
0.6090000000000089
 31
0.0
210
0.0
220
0.0
230
1.0
 40
0.0174550649281754
 41
0.017453292518095
 42
1.570796326795036
  0
LINE
  5
85D
330
767
100
AcDbEntity
  8
0
  6
Continuous
 62
     7
370
    15
100
AcDbLine
 10
2119.205417284102
 20
808.3796623656963
 30
0.0
 11
2119.205417284102
 21
809.4277179687738
 31
0.0
  0
ELLIPSE
  5
85E
330
767
100
AcDbEntity
  8
0
  6
Continuous
 62
     7
370
    15
100
AcDbEllipse
 10
2119.216047418643
 20
808.3796623656965
 30
0.0
 11
0.0
 21
0.6090000000000089
 31
0.0
210
0.0
220
0.0
230
1.0
 40
0.0174550649281754
 41
1.570796326795083
 42
3.124139361071708
  0
LINE
  5
85F
330
767
100
AcDbEntity
  8
0
  6
Continuous
 62
     7
370
    15
100
AcDbLine
 10
2119.148630472501
 20
804.5391901672349
 30
0.0
 11
2119.148630472501
 21
804.5391437904097
 31
0.0
  0
LINE
  5
860
330
767
100
AcDbEntity
  8
0
  6
Continuous
 62
     7
370
    15
100
AcDbLine
 10
2119.148630472501
 20
811.9486901672349
 30
0.0
 11
2119.148630472501
 21
804.5391901672349
 31
0.0
  0
LINE
  5
861
330
767
100
AcDbEntity
  8
0
  6
Continuous
 62
     7
370
    15
100
AcDbLine
 10
2119.148630472501
 20
811.9487365440598
 30
0.0
 11
2119.148630472501
 21
811.9486901672349
 31
0.0
  0
LINE
  5
862
330
767
100
AcDbEntity
  8
0
  6
Continuous
 62
     7
370
    15
100
AcDbLine
 10
2126.101380472501
 20
812.5576901672348
 30
0.0
 11
2126.101380472501
 21
812.5577365405284
 31
0.0
  0
LINE
  5
863
330
767
100
AcDbEntity
  8
0
  6
Continuous
 62
     7
370
    15
100
AcDbLine
 10
2126.101380472501
 20
804.5391901672346
 30
0.0
 11
2126.101380472501
 21
812.5576901672348
 31
0.0
  0
LINE
  5
864
330
767
100
AcDbEntity
  8
0
  6
Continuous
 62
     7
370
    15
100
AcDbLine
 10
2126.101380472501
 20
804.5391437904097
 30
0.0
 11
2126.101380472501
 21
804.5391901672346
 31
0.0
  0
ELLIPSE
  5
865
330
767
100
AcDbEntity
  8
0
  6
Continuous
 62
     7
370
    15
100
AcDbEllipse
 10
2126.033963526359
 20
808.3796623656962
 30
0.0
 11
0.0
 21
0.6090000000000089
 31
0.0
210
0.0
220
0.0
230
1.0
 40
0.0174550649281754
 41
3.159045946108677
 42
4.712388980384549
  0
LINE
  5
866
330
767
100
AcDbEntity
  8
0
  6
Continuous
 62
     7
370
    15
100
AcDbLine
 10
2126.0445936609
 20
809.4277179687738
 30
0.0
 11
2126.0445936609
 21
808.3796623656962
 31
0.0
  0
ELLIPSE
  5
867
330
767
100
AcDbEntity
  8
0
  6
Continuous
 62
     7
370
    15
100
AcDbEllipse
 10
2126.033963526359
 20
809.4277179687738
 30
0.0
 11
0.0
 21
0.6090000000000089
 31
0.0
210
0.0
220
0.0
230
1.0
 40
0.017455064928222
 41
4.712388980384596
 42
6.26573201471045
  0
LINE
  5
868
330
767
100
AcDbEntity
  8
0
  6
Continuous
 62
     7
370
    15
100
AcDbLine
 10
2120.806945424612
 20
808.0752087425212
 30
0.0
 11
2119.520315520389
 21
808.0752087425214
 31
0.0
  0
LINE
  5
869
330
767
100
AcDbEntity
  8
0
  6
Continuous
 62
     7
370
    15
100
AcDbLine
 10
2125.729695424612
 20
808.075208742521
 30
0.0
 11
2124.44306552039
 21
808.075208742521
 31
0.0
  0
LINE
  5
86A
330
767
100
AcDbEntity
  8
0
  6
Continuous
 62
     7
370
    15
100
AcDbLine
 10
2124.44306552039
 20
809.7321715919489
 30
0.0
 11
2125.729695424612
 21
809.7321715919488
 31
0.0
  0
LINE
  5
86B
330
767
100
AcDbEntity
  8
0
  6
Continuous
 62
     7
370
    15
100
AcDbLine
 10
2119.52031552039
 20
809.7321715919489
 30
0.0
 11
2120.806945424612
 21
809.7321715919489
 31
0.0
  0
LINE
  5
86C
330
767
100
AcDbEntity
  8
0
  6
Continuous
 62
     7
370
    15
100
AcDbLine
 10
2119.453130472501
 20
812.2531901672347
 30
0.0
 11
2119.453084095676
 21
812.2531901672347
 31
0.0
  0
LINE
  5
86D
330
767
100
AcDbEntity
  8
0
  6
Continuous
 62
     7
370
    15
100
AcDbLine
 10
2120.874130472501
 20
812.2531901672347
 30
0.0
 11
2119.453130472501
 21
812.2531901672347
 31
0.0
  0
LINE
  5
86E
330
767
100
AcDbEntity
  8
0
  6
Continuous
 62
     7
370
    15
100
AcDbLine
 10
2120.874176849326
 20
812.2531901672347
 30
0.0
 11
2120.874130472501
 21
812.2531901672347
 31
0.0
  0
LINE
  5
86F
330
767
100
AcDbEntity
  8
0
  6
Continuous
 62
     7
370
    15
100
AcDbLine
 10
2124.375880472501
 20
812.8621901672348
 30
0.0
 11
2124.375834099208
 21
812.8621901672348
 31
0.0
  0
LINE
  5
870
330
767
100
AcDbEntity
  8
0
  6
Continuous
 62
     7
370
    15
100
AcDbLine
 10
2125.796880472501
 20
812.8621901672344
 30
0.0
 11
2124.375880472501
 21
812.8621901672348
 31
0.0
  0
LINE
  5
871
330
767
100
AcDbEntity
  8
0
  6
Continuous
 62
     7
370
    15
100
AcDbLine
 10
2125.796926845795
 20
812.8621901672348
 30
0.0
 11
2125.796880472501
 21
812.8621901672348
 31
0.0
  0
ELLIPSE
  5
872
330
767
100
AcDbEntity
  8
0
  6
Continuous
 62
     7
370
    15
100
AcDbEllipse
 10
2120.806759903183
 20
808.3796623656962
 30
0.0
 11
0.0
 21
0.3045000000000186
 31
0.0
210
0.0
220
0.0
230
1.0
 40
0.0349101298563491
 41
3.159045946110961
 42
4.712388980384689
  0
LINE
  5
873
330
767
100
AcDbEntity
  8
0
  6
Continuous
 62
     7
370
    15
100
AcDbLine
 10
2120.817390037725
 20
808.3796623656962
 30
0.0
 11
2121.121843660899
 21
808.3796623656962
 31
0.0
  0
ELLIPSE
  5
874
330
767
100
AcDbEntity
  8
0
  6
Continuous
 62
     7
370
    15
100
AcDbEllipse
 10
2125.729509903184
 20
808.3796623656962
 30
0.0
 11
0.0
 21
0.3045000000000186
 31
0.0
210
0.0
220
0.0
230
1.0
 40
0.0349101298563491
 41
3.159045946113632
 42
4.712388980384503
  0
LINE
  5
875
330
767
100
AcDbEntity
  8
0
  6
Continuous
 62
     7
370
    15
100
AcDbLine
 10
2125.740140037725
 20
808.3796623656962
 30
0.0
 11
2126.0445936609
 21
808.3796623656962
 31
0.0
  0
LINE
  5
876
330
767
100
AcDbEntity
  8
0
  6
Continuous
 62
     7
370
    15
100
AcDbLine
 10
2119.205417284102
 20
808.3796623656963
 30
0.0
 11
2119.509870907277
 21
808.3796623656965
 31
0.0
  0
ELLIPSE
  5
877
330
767
100
AcDbEntity
  8
0
  6
Continuous
 62
     7
370
    15
100
AcDbEllipse
 10
2119.520501041818
 20
808.3796623656965
 30
0.0
 11
0.0
 21
0.3045000000000186
 31
0.0
210
0.0
220
0.0
230
1.0
 40
0.0349101298562557
 41
1.570796326794896
 42
3.124139361068977
  0
LINE
  5
878
330
767
100
AcDbEntity
  8
0
  6
Continuous
 62
     7
370
    15
100
AcDbLine
 10
2124.128167284102
 20
808.3796623656962
 30
0.0
 11
2124.432620907277
 21
808.3796623656962
 31
0.0
  0
ELLIPSE
  5
879
330
767
100
AcDbEntity
  8
0
  6
Continuous
 62
     7
370
    15
100
AcDbEllipse
 10
2124.443251041818
 20
808.3796623656962
 30
0.0
 11
0.0
 21
0.3045000000000186
 31
0.0
210
0.0
220
0.0
230
1.0
 40
0.0349101298562557
 41
1.570796326795083
 42
3.124139361114428
  0
LINE
  5
87A
330
767
100
AcDbEntity
  8
0
  6
Continuous
 62
     7
370
    15
100
AcDbLine
 10
2125.740140037725
 20
809.4277179687738
 30
0.0
 11
2126.0445936609
 21
809.4277179687738
 31
0.0
  0
ELLIPSE
  5
87B
330
767
100
AcDbEntity
  8
0
  6
Continuous
 62
     7
370
    15
100
AcDbEllipse
 10
2125.729509903184
 20
809.4277179687738
 30
0.0
 11
0.0
 21
0.3044999999999902
 31
0.0
210
0.0
220
0.0
230
1.0
 40
0.034910129856259
 41
4.712388980384689
 42
6.265732014656492
  0
ELLIPSE
  5
87C
330
767
100
AcDbEntity
  8
0
  6
Continuous
 62
     7
370
    15
100
AcDbEllipse
 10
2124.443251041818
 20
809.4277179687738
 30
0.0
 11
0.0
 21
0.3045000000000186
 31
0.0
210
0.0
220
0.0
230
1.0
 40
0.0349101298563491
 41
0.017453292475329
 42
1.570796326794989
  0
LINE
  5
87D
330
767
100
AcDbEntity
  8
0
  6
Continuous
 62
     7
370
    15
100
AcDbLine
 10
2124.128167284102
 20
809.4277179687738
 30
0.0
 11
2124.432620907277
 21
809.4277179687738
 31
0.0
  0
ELLIPSE
  5
87E
330
767
100
AcDbEntity
  8
0
  6
Continuous
 62
     7
370
    15
100
AcDbEllipse
 10
2119.520501041818
 20
809.427717968774
 30
0.0
 11
0.0
 21
0.3044999999999902
 31
0.0
210
0.0
220
0.0
230
1.0
 40
0.034910129856259
 41
0.0174532924727007
 42
1.570796326794989
  0
LINE
  5
87F
330
767
100
AcDbEntity
  8
0
  6
Continuous
 62
     7
370
    15
100
AcDbLine
 10
2119.205417284102
 20
809.4277179687738
 30
0.0
 11
2119.509870907277
 21
809.4277179687738
 31
0.0
  0
LINE
  5
880
330
767
100
AcDbEntity
  8
0
  6
Continuous
 62
     7
370
    15
100
AcDbLine
 10
2120.817390037725
 20
809.4277179687738
 30
0.0
 11
2121.121843660899
 21
809.4277179687738
 31
0.0
  0
ELLIPSE
  5
881
330
767
100
AcDbEntity
  8
0
  6
Continuous
 62
     7
370
    15
100
AcDbEllipse
 10
2120.806759903183
 20
809.427717968774
 30
0.0
 11
0.0
 21
0.3044999999999902
 31
0.0
210
0.0
220
0.0
230
1.0
 40
0.0349101298563523
 41
4.712388980384503
 42
6.265732014659209
  0
LINE
  5
882
330
767
100
AcDbEntity
  8
0
  6
Continuous
 62
     7
370
    15
100
AcDbLine
 10
2124.432620907277
 20
808.3796623656962
 30
0.0
 11
2125.740140037725
 21
808.3796623656962
 31
0.0
  0
LINE
  5
883
330
767
100
AcDbEntity
  8
0
  6
Continuous
 62
     7
370
    15
100
AcDbLine
 10
2119.509870907277
 20
808.3796623656965
 30
0.0
 11
2120.817390037725
 21
808.3796623656962
 31
0.0
  0
LINE
  5
884
330
767
100
AcDbEntity
  8
0
  6
Continuous
 62
     7
370
    15
100
AcDbLine
 10
2120.817390037725
 20
809.4277179687738
 30
0.0
 11
2119.509870907277
 21
809.4277179687738
 31
0.0
  0
LINE
  5
885
330
767
100
AcDbEntity
  8
0
  6
Continuous
 62
     7
370
    15
100
AcDbLine
 10
2125.740140037725
 20
809.4277179687738
 30
0.0
 11
2124.432620907277
 21
809.4277179687738
 31
0.0
  0
LINE
  5
886
330
767
100
AcDbEntity
  8
0
  6
Continuous
 62
     7
370
    15
100
AcDbLine
 10
2124.432620907277
 20
809.4277179687738
 30
0.0
 11
2124.432620907277
 21
808.3796623656962
 31
0.0
  0
LINE
  5
887
330
767
100
AcDbEntity
  8
0
  6
Continuous
 62
     7
370
    15
100
AcDbLine
 10
2125.740140037725
 20
808.3796623656962
 30
0.0
 11
2125.740140037725
 21
809.4277179687738
 31
0.0
  0
LINE
  5
888
330
767
100
AcDbEntity
  8
0
  6
Continuous
 62
     7
370
    15
100
AcDbLine
 10
2120.817390037725
 20
808.3796623656962
 30
0.0
 11
2120.817390037725
 21
809.4277179687738
 31
0.0
  0
LINE
  5
889
330
767
100
AcDbEntity
  8
0
  6
Continuous
 62
     7
370
    15
100
AcDbLine
 10
2119.509870907277
 20
809.4277179687738
 30
0.0
 11
2119.509870907277
 21
808.3796623656965
 31
0.0
  0
SPLINE
  5
88A
330
767
100
AcDbEntity
  8
0
  6
Continuous
 62
     7
370
    15
100
AcDbSpline
210
0.0
220
0.0
230
1.0
 70
     8
 71
     3
 72
    18
 73
    14
 74
     0
 42
0.0000000001
 43
0.0000000001
 40
0.0
 40
0.0
 40
0.0
 40
0.0
 40
0.2500595396555421
 40
0.3820286036103209
 40
0.5001132018840071
 40
0.5637560380299889
 40
0.6251036484275035
 40
0.6989362405384122
 40
0.7499322303719548
 40
0.8122098995432581
 40
0.8745314306532046
 40
0.9325102210715673
 40
0.9999999999999998
 40
0.9999999999999998
 40
0.9999999999999998
 40
0.9999999999999998
 10
2116.470336564385
 20
817.2048662895228
 30
0.0
 10
2116.385396968139
 20
816.119548217703
 30
0.0
 10
2116.255630451772
 20
814.4614529175933
 30
0.0
 10
2116.10790668127
 20
812.2892089736719
 30
0.0
 10
2116.02849578489
 20
810.9258207242978
 30
0.0
 10
2115.977139329391
 20
809.868835164144
 30
0.0
 10
2115.941835561575
 20
809.0039796262214
 30
0.0
 10
2115.914478225227
 20
808.1939079631354
 30
0.0
 10
2115.895372464786
 20
807.379574300312
 30
0.0
 10
2115.905810844882
 20
806.6146709155283
 30
0.0
 10
2115.976727430515
 20
805.8223184234392
 30
0.0
 10
2116.094423046165
 20
805.0129939970643
 30
0.0
 10
2116.197474627958
 20
804.4765200103672
 30
0.0
 10
2116.25290626721
 20
804.1879496460795
 30
0.0
  0
LINE
  5
88B
330
767
100
AcDbEntity
  8
0
  6
Continuous
 62
     7
370
    15
100
AcDbLine
 10
2116.615661071486
 20
819.2769521534088
 30
0.0
 11
2116.470336564385
 21
817.2048662895228
 31
0.0
  0
ARC
  5
88C
330
767
100
AcDbEntity
  8
0
  6
Continuous
 62
     7
370
    15
100
AcDbCircle
 10
2117.628173934525
 20
819.2059401672169
 30
0.0
 40
1.015000000000207
100
AcDbArc
 50
90.0
 51
175.988163898942
  0
LINE
  5
88D
330
767
100
AcDbEntity
  8
0
  6
Continuous
 62
     7
370
    15
100
AcDbLine
 10
2128.583533993732
 20
820.2209401672169
 30
0.0
 11
2117.628173934525
 21
820.220940167217
 31
0.0
  0
ARC
  5
88E
330
767
100
AcDbEntity
  8
0
  6
Continuous
 62
     7
370
    15
100
AcDbCircle
 10
2128.583476840383
 20
819.2059932526049
 30
0.0
 40
1.014946916221235
100
AcDbArc
 50
4.317143190918668
 51
89.99677357938395
  0
SPLINE
  5
88F
330
767
100
AcDbEntity
  8
0
  6
Continuous
 62
     7
370
    15
100
AcDbSpline
210
0.0
220
0.0
230
1.0
 70
     8
 71
     3
 72
    18
 73
    14
 74
     0
 42
0.0000000001
 43
0.0000000001
 40
0.0
 40
0.0
 40
0.0
 40
0.0
 40
0.0350659042084946
 40
0.0675468352493317
 40
0.0974585115577145
 40
0.1248210796545306
 40
0.1870220246460284
 40
0.2494325782732688
 40
0.3693519818882136
 40
0.4996103398952889
 40
0.7498023194319111
 40
0.8749011245192107
 40
1.0
 40
1.0
 40
1.0
 40
1.0
 10
2129.973661345863
 20
804.1881727674537
 30
0.0
 10
2130.007490852365
 20
804.3619266131013
 30
0.0
 10
2130.072656036432
 20
804.6966255935156
 30
0.0
 10
2130.154765801191
 20
805.1817424693407
 30
0.0
 10
2130.220329072413
 20
805.6301029811098
 30
0.0
 10
2130.290802832418
 20
806.2291454174333
 30
0.0
 10
2130.335869780831
 20
806.9959930140946
 30
0.0
 10
2130.314449000028
 20
808.2305895040656
 30
0.0
 10
2130.256026050247
 20
809.8073845359794
 30
0.0
 10
2130.123613222342
 20
812.3299056117041
 30
0.0
 10
2129.939069996682
 20
814.8753564067138
 30
0.0
 10
2129.741028283229
 20
817.3935077216645
 30
0.0
 10
2129.644109288648
 20
818.6527714494022
 30
0.0
 10
2129.595649777723
 20
819.2824034904189
 30
0.0
  0
ARC
  5
890
330
767
100
AcDbEntity
  8
0
  6
Continuous
 62
     7
370
    15
100
AcDbCircle
 10
2128.978279840332
 20
804.3869122996582
 30
0.0
 40
1.014972132995954
100
AcDbArc
 50
270.0019231762586
 51
348.7087082343816
  0
LINE
  5
891
330
767
100
AcDbEntity
  8
0
  6
Continuous
 62
     7
370
    15
100
AcDbLine
 10
2117.248209121869
 20
803.3719401672344
 30
0.0
 11
2128.978313908641
 21
803.3719401672342
 31
0.0
  0
ARC
  5
892
330
767
100
AcDbEntity
  8
0
  6
Continuous
 62
     7
370
    15
100
AcDbCircle
 10
2117.24850678632
 20
804.3866952443789
 30
0.0
 40
1.014755120802315
100
AcDbArc
 50
191.2891994167211
 51
269.9831930712406
  0
ENDBLK
  5
769
330
767
100
AcDbEntity
  8
0
100
AcDbBlockEnd
  0
BLOCK
  5
895
330
894
100
AcDbEntity
  8
0
100
AcDbBlockBegin
  2
2
 70
     0
 10
0.0
 20
0.0
 30
0.0
  3
2
  1

  0
SPLINE
  5
897
330
894
100
AcDbEntity
  8
0
  6
Continuous
 62
     7
370
    15
100
AcDbSpline
210
0.0
220
0.0
230
1.0
 70
    24
 71
     3
 72
    16
 73
    12
 74
     0
 42
0.0000000001
 43
0.0000000001
 40
0.0
 40
0.0
 40
0.0
 40
0.0
 40
0.5000000000000011
 40
0.5000000000000011
 40
0.7500000000000019
 40
0.7500000000000019
 40
0.8125000000000015
 40
0.8125000000000015
 40
0.8750000000000012
 40
0.8750000000000012
 40
1.0
 40
1.0
 40
1.0
 40
1.0
 10
2081.277478594783
 20
819.2577846345002
 30
0.0
 10
2081.277478594783
 20
816.7534765449806
 30
0.0
 10
2081.277478594783
 20
814.2507987235171
 30
0.0
 10
2081.277478594784
 20
810.4902429266267
 30
0.0
 10
2081.277478594784
 20
809.2354384911356
 30
0.0
 10
2081.277478594784
 20
807.6667924521318
 30
0.0
 10
2081.277478594784
 20
807.3533174245376
 30
0.0
 10
2081.277478594784
 20
806.7281272664427
 30
0.0
 10
2081.277478594784
 20
806.416565365887
 30
0.0
 10
2081.277478594784
 20
805.4850950499556
 30
0.0
 10
2081.277478594785
 20
804.8679750223504
 30
0.0
 10
2081.277478594785
 20
804.2521591396212
 30
0.0
  0
SPLINE
  5
898
330
894
100
AcDbEntity
  8
0
  6
Continuous
 62
     7
370
    15
100
AcDbSpline
210
0.0
220
0.0
230
1.0
 70
     8
 71
     3
 72
    10
 73
     6
 74
     0
 42
0.0000000001
 43
0.0000000001
 40
0.0
 40
0.0
 40
0.0
 40
0.0
 40
0.5
 40
0.5
 40
1.0
 40
1.0
 40
1.0
 40
1.0
 10
2081.277478594785
 20
804.25217007061
 30
0.0
 10
2081.277478594785
 20
804.2370485000676
 30
0.0
 10
2081.246260106796
 20
804.2220140762458
 30
0.0
 10
2081.138478248828
 20
804.2003508555117
 30
0.0
 10
2081.062536033604
 20
804.1938469053297
 30
0.0
 10
2080.985331679277
 20
804.1934510687593
 30
0.0
  0
SPLINE
  5
899
330
894
100
AcDbEntity
  8
0
  6
Continuous
 62
     7
370
    15
100
AcDbSpline
210
0.0
220
0.0
230
1.0
 70
     8
 71
     3
 72
    18
 73
    14
 74
     0
 42
0.0000000001
 43
0.0000000001
 40
0.0
 40
0.0
 40
0.0
 40
0.0
 40
0.0625000000000002
 40
0.0625000000000002
 40
0.1250000000000003
 40
0.1250000000000003
 40
0.1875000000000006
 40
0.1875000000000006
 40
0.2500000000000007
 40
0.2500000000000007
 40
0.5000000000000005
 40
0.5000000000000005
 40
1.0
 40
1.0
 40
1.0
 40
1.0
 10
2080.985331679277
 20
804.1934410231986
 30
0.0
 10
2080.985331679278
 20
804.5010107391105
 30
0.0
 10
2080.985332245318
 20
804.8129268809226
 30
0.0
 10
2080.985332250653
 20
805.4340202911321
 30
0.0
 10
2080.985331679689
 20
805.7452053373236
 30
0.0
 10
2080.985331678865
 20
806.3694748034208
 30
0.0
 10
2080.985331676715
 20
806.6826456817938
 30
0.0
 10
2080.985331681852
 20
807.3110812619981
 30
0.0
 10
2080.985331678026
 20
807.6261972926502
 30
0.0
 10
2080.985331684315
 20
809.2032175296481
 30
0.0
 10
2080.985331678486
 20
810.4649657376134
 30
0.0
 10
2080.98533168086
 20
814.2459654768718
 30
0.0
 10
2080.985331679275
 20
816.7623553786222
 30
0.0
 10
2080.985331679275
 20
819.280376861543
 30
0.0
  0
SPLINE
  5
89A
330
894
100
AcDbEntity
  8
0
  6
Continuous
 62
     7
370
    15
100
AcDbSpline
210
0.0
220
0.0
230
1.0
 70
     8
 71
     3
 72
    10
 73
     6
 74
     0
 42
0.0000000001
 43
0.0000000001
 40
0.0
 40
0.0
 40
0.0
 40
0.0
 40
0.5
 40
0.5
 40
1.0
 40
1.0
 40
1.0
 40
1.0
 10
2081.277478594783
 20
819.2577846345002
 30
0.0
 10
2081.277478594783
 20
819.2636026822219
 30
0.0
 10
2081.246260106794
 20
819.2693872001077
 30
0.0
 10
2081.138478248827
 20
819.2777221578875
 30
0.0
 10
2081.062536033603
 20
819.2802245628085
 30
0.0
 10
2080.985331679275
 20
819.280376861543
 30
0.0
  0
SPLINE
  5
89B
330
894
100
AcDbEntity
  8
0
  6
Continuous
 62
     7
370
    15
100
AcDbSpline
210
0.0
220
0.0
230
1.0
 70
    24
 71
     3
 72
    18
 73
    14
 74
     0
 42
0.0000000001
 43
0.0000000001
 40
0.0
 40
0.0
 40
0.0
 40
0.0
 40
0.0350659042084946
 40
0.0675468352493317
 40
0.0974585115577145
 40
0.1248210796545306
 40
0.1870220246460284
 40
0.2494325782732688
 40
0.3693519818882136
 40
0.4996103398952889
 40
0.7498023194319111
 40
0.8749011245192107
 40
1.0
 40
1.0
 40
1.0
 40
1.0
 10
2079.95797859479
 20
804.1881727674537
 30
0.0
 10
2079.95797859479
 20
804.3619266131013
 30
0.0
 10
2079.95797859479
 20
804.6966255935156
 30
0.0
 10
2079.95797859479
 20
805.1817424693407
 30
0.0
 10
2079.95797859479
 20
805.6301029811098
 30
0.0
 10
2079.95797859479
 20
806.2291454174333
 30
0.0
 10
2079.95797859479
 20
806.9959930140946
 30
0.0
 10
2079.95797859479
 20
808.2305895040656
 30
0.0
 10
2079.95797859479
 20
809.8073845359794
 30
0.0
 10
2079.95797859479
 20
812.3299056117041
 30
0.0
 10
2079.95797859479
 20
814.8753564067138
 30
0.0
 10
2079.95797859479
 20
817.3935077216645
 30
0.0
 10
2079.95797859479
 20
818.6527714494022
 30
0.0
 10
2079.95797859479
 20
819.2824034904189
 30
0.0
  0
LINE
  5
89C
330
894
100
AcDbEntity
  8
0
  6
Continuous
 62
     7
370
    15
100
AcDbLine
 10
2080.985331679273
 20
819.2803703810008
 30
0.0
 11
2079.95797859479
 21
819.2823954992773
 31
0.0
  0
LINE
  5
89D
330
894
100
AcDbEntity
  8
0
  6
Continuous
 62
     7
370
    15
100
AcDbLine
 10
2080.985330218608
 20
804.1934510612701
 30
0.0
 11
2079.95797859479
 21
804.188183698478
 31
0.0
  0
LINE
  5
89E
330
894
100
AcDbEntity
  8
0
  6
Continuous
 62
     7
370
    15
100
AcDbLine
 10
2080.985331679277
 20
803.3988423545443
 30
0.0
 11
2080.985331679277
 21
804.1934510687593
 31
0.0
  0
LINE
  5
89F
330
894
100
AcDbEntity
  8
0
  6
Continuous
 62
     7
370
    15
100
AcDbLine
 10
2080.985331679277
 20
803.3988423545286
 30
0.0
 11
2079.95797859479
 21
803.3719401672342
 31
0.0
  0
LINE
  5
8A0
330
894
100
AcDbEntity
  8
0
  6
Continuous
 62
     7
370
    15
100
AcDbLine
 10
2079.95797859479
 20
803.3719401672342
 30
0.0
 11
2079.95797859479
 21
804.188183698478
 31
0.0
  0
ARC
  5
8A1
330
894
100
AcDbEntity
  8
0
  6
Continuous
 62
     7
370
    15
100
AcDbCircle
 10
2080.977478594784
 20
803.6987395522929
 30
0.0
 40
0.3000000002714898
100
AcDbArc
 50
271.4999999987386
 51
0.0000000000130276
  0
LINE
  5
8A2
330
894
100
AcDbEntity
  8
0
  6
Continuous
 62
     7
370
    15
100
AcDbLine
 10
2081.277478594785
 20
804.2521700706098
 30
0.0
 11
2081.277478594785
 21
803.6987395522929
 31
0.0
  0
LINE
  5
8A3
330
894
100
AcDbEntity
  8
0
  6
Continuous
 62
     7
370
    15
100
AcDbLine
 10
2080.985331679276
 20
820.1940379799653
 30
0.0
 11
2079.95797859479
 21
820.2209401672169
 31
0.0
  0
LINE
  5
8A4
330
894
100
AcDbEntity
  8
0
  6
Continuous
 62
     7
370
    15
100
AcDbLine
 10
2080.985331679275
 20
819.2803703810008
 30
0.0
 11
2080.985331679275
 21
820.1940379799653
 31
0.0
  0
LINE
  5
8A5
330
894
100
AcDbEntity
  8
0
  6
Continuous
 62
     7
370
    15
100
AcDbLine
 10
2079.95797859479
 20
819.2823954992773
 30
0.0
 11
2079.95797859479
 21
820.2209401672169
 31
0.0
  0
ARC
  5
8A6
330
894
100
AcDbEntity
  8
0
  6
Continuous
 62
     7
370
    15
100
AcDbCircle
 10
2080.977478594783
 20
819.8941407824301
 30
0.0
 40
0.3000000005179455
100
AcDbArc
 50
0.0000000000065138
 51
88.5000000023821
  0
LINE
  5
8A7
330
894
100
AcDbEntity
  8
0
  6
Continuous
 62
     7
370
    15
100
AcDbLine
 10
2081.277478594783
 20
819.8941407829483
 30
0.0
 11
2081.277478594783
 21
819.2577766520848
 31
0.0
  0
LINE
  5
8A8
330
894
100
AcDbEntity
  8
0
  6
Continuous
 62
     7
370
    15
100
AcDbLine
 10
2079.957978594782
 20
812.5576901672344
 30
0.0
 11
2076.912978594789
 21
812.5576901672348
 31
0.0
  0
LINE
  5
8A9
330
894
100
AcDbEntity
  8
0
  6
Continuous
 62
     7
370
    15
100
AcDbLine
 10
2076.912978594789
 20
812.5576901672348
 30
0.0
 11
2076.912978594789
 21
812.5577365405284
 31
0.0
  0
ELLIPSE
  5
8AA
330
894
100
AcDbEntity
  8
0
  6
Continuous
 62
     7
370
    15
100
AcDbEllipse
 10
2076.915635926031
 20
812.5576901672348
 30
0.0
 11
-0.002657331234559
 21
0.304499999117212
 31
0.0
210
0.0
220
0.0
230
1.0
 40
0.0087255388490432
 41
0.0
 42
1.570567875328048
  0
LINE
  5
8AB
330
894
100
AcDbEntity
  8
0
  6
Continuous
 62
     7
370
    15
100
AcDbLine
 10
2076.912978594789
 20
812.8621901672344
 30
0.0
 11
2079.957978594789
 21
812.8621901672342
 31
0.0
  0
LINE
  5
8AC
330
894
100
AcDbEntity
  8
0
  6
Continuous
 62
     7
370
    15
100
AcDbLine
 10
2079.957978594782
 20
804.2346901672342
 30
0.0
 11
2076.912978594787
 21
804.2346901672344
 31
0.0
  0
ELLIPSE
  5
8AD
330
894
100
AcDbEntity
  8
0
  6
Continuous
 62
     7
370
    15
100
AcDbEllipse
 10
2076.91563592603
 20
804.5391901672346
 30
0.0
 11
0.0026573312346159
 21
0.3044999991172119
 31
0.0
210
0.0
220
0.0
230
1.0
 40
0.0087255388486691
 41
1.571024789861189
 42
3.141592653624285
  0
LINE
  5
8AE
330
894
100
AcDbEntity
  8
0
  6
Continuous
 62
     7
370
    15
100
AcDbLine
 10
2076.912978594787
 20
804.5391437904097
 30
0.0
 11
2076.912978594787
 21
804.5391901672346
 31
0.0
  0
LINE
  5
8AF
330
894
100
AcDbEntity
  8
0
  6
Continuous
 62
     7
370
    15
100
AcDbLine
 10
2076.912978594787
 20
804.5391901672346
 30
0.0
 11
2079.95797859479
 21
804.5391901672342
 31
0.0
  0
LINE
  5
8B0
330
894
100
AcDbEntity
  8
0
  6
Continuous
 62
     7
370
    15
100
AcDbLine
 10
2076.912978594787
 20
804.5391901672346
 30
0.0
 11
2076.912978594789
 21
812.5576901672348
 31
0.0
  0
LINE
  5
8B1
330
894
100
AcDbEntity
  8
0
  6
Continuous
 62
     7
370
    15
100
AcDbLine
 10
2076.912978594787
 20
804.2346901672344
 30
0.0
 11
2069.807978594788
 21
804.3587084035504
 31
0.0
  0
ELLIPSE
  5
8B2
330
894
100
AcDbEntity
  8
0
  6
Continuous
 62
     7
370
    15
100
AcDbEllipse
 10
2069.817278368794
 20
804.6630924592808
 30
0.0
 11
0.009299773264388
 21
0.3043840314383885
 31
0.0
210
0.0
220
0.0
230
1.0
 40
0.0305190632718535
 41
1.572300222939141
 42
3.141592653563276
  0
LINE
  5
8B3
330
894
100
AcDbEntity
  8
0
  6
Continuous
 62
     7
370
    15
100
AcDbLine
 10
2069.807978594788
 20
804.6629185870221
 30
0.0
 11
2069.807978594788
 21
804.6631620267257
 31
0.0
  0
LINE
  5
8B4
330
894
100
AcDbEntity
  8
0
  6
Continuous
 62
     7
370
    15
100
AcDbLine
 10
2069.807978594788
 20
804.6631620267257
 30
0.0
 11
2076.912978594787
 21
804.5391437904097
 31
0.0
  0
LINE
  5
8B5
330
894
100
AcDbEntity
  8
0
  6
Continuous
 62
     7
370
    15
100
AcDbLine
 10
2076.912978594789
 20
812.5577365405284
 30
0.0
 11
2069.807978594789
 21
812.4337183077452
 31
0.0
  0
LINE
  5
8B6
330
894
100
AcDbEntity
  8
0
  6
Continuous
 62
     7
370
    15
100
AcDbLine
 10
2069.807978594789
 20
812.4337183077452
 30
0.0
 11
2069.807978594789
 21
812.4339615854742
 31
0.0
  0
ELLIPSE
  5
8B7
330
894
100
AcDbEntity
  8
0
  6
Continuous
 62
     7
370
    15
100
AcDbEllipse
 10
2069.817278368796
 20
812.4337878751903
 30
0.0
 11
-0.009299773264388
 21
0.3043840314383601
 31
0.0
210
0.0
220
0.0
230
1.0
 40
0.0305190632718563
 41
0.0
 42
1.569292963306147
  0
LINE
  5
8B8
330
894
100
AcDbEntity
  8
0
  6
Continuous
 62
     7
370
    15
100
AcDbLine
 10
2069.807978594789
 20
812.7381719309205
 30
0.0
 11
2076.912978594789
 21
812.8621901672344
 31
0.0
  0
LINE
  5
8B9
330
894
100
AcDbEntity
  8
0
  6
Continuous
 62
     7
370
    15
100
AcDbLine
 10
2069.807978594788
 20
804.6631620267257
 30
0.0
 11
2069.807978594788
 21
807.7139683077453
 31
0.0
  0
LINE
  5
8BA
330
894
100
AcDbEntity
  8
0
  6
Continuous
 62
     7
370
    15
100
AcDbLine
 10
2073.061292852548
 20
807.770755119346
 30
0.0
 11
2069.807978594788
 21
807.7139683077453
 31
0.0
  0
ARC
  5
8BB
330
894
100
AcDbEntity
  8
0
  6
Continuous
 62
     7
370
    15
100
AcDbCircle
 10
2073.050664337028
 20
808.3796623656962
 30
0.0
 40
0.609000000000151
100
AcDbArc
 50
270.9999999999496
 51
359.9999999999935
  0
LINE
  5
8BC
330
894
100
AcDbEntity
  8
0
  6
Continuous
 62
     7
370
    15
100
AcDbLine
 10
2073.659664337028
 20
809.4277179687738
 30
0.0
 11
2073.659664337028
 21
808.3796623656962
 31
0.0
  0
ARC
  5
8BD
330
894
100
AcDbEntity
  8
0
  6
Continuous
 62
     7
370
    15
100
AcDbCircle
 10
2073.050664337028
 20
809.4277179687738
 30
0.0
 40
0.6090000000000373
100
AcDbArc
 50
359.9999999999935
 51
89.0000000000243
  0
LINE
  5
8BE
330
894
100
AcDbEntity
  8
0
  6
Continuous
 62
     7
370
    15
100
AcDbLine
 10
2069.807978594788
 20
810.0934120267256
 30
0.0
 11
2073.061292852548
 21
810.0366252151241
 31
0.0
  0
LINE
  5
8BF
330
894
100
AcDbEntity
  8
0
  6
Continuous
 62
     7
370
    15
100
AcDbLine
 10
2069.807978594788
 20
810.0934120267256
 30
0.0
 11
2069.807978594789
 21
812.4337183077452
 31
0.0
  0
LINE
  5
8C0
330
894
100
AcDbEntity
  8
0
  6
Continuous
 62
     7
370
    15
100
AcDbLine
 10
2073.360478594788
 20
809.4277179687738
 30
0.0
 11
2073.659664337028
 21
809.4277179687738
 31
0.0
  0
ARC
  5
8C1
330
894
100
AcDbEntity
  8
0
  6
Continuous
 62
     7
370
    15
100
AcDbCircle
 10
2073.055978594788
 20
809.4277179687738
 30
0.0
 40
0.3045000000000186
100
AcDbArc
 50
0.0
 51
89.0000000000243
  0
ARC
  5
8C2
330
894
100
AcDbEntity
  8
0
  6
Continuous
 62
     7
370
    15
100
AcDbCircle
 10
2077.424029351717
 20
809.8843984035365
 30
0.0
 40
4.365391478818874
100
AcDbArc
 50
178.0016173802945
 51
181.9983826197055
  0
LINE
  5
8C3
330
894
100
AcDbEntity
  8
0
  6
Continuous
 62
     7
370
    15
100
AcDbLine
 10
2073.360478594788
 20
808.3796623656962
 30
0.0
 11
2073.360478594788
 21
809.4277179687738
 31
0.0
  0
LINE
  5
8C4
330
894
100
AcDbEntity
  8
0
  6
Continuous
 62
     7
370
    15
100
AcDbLine
 10
2073.360478594788
 20
808.3796623656962
 30
0.0
 11
2073.659664337028
 21
808.3796623656962
 31
0.0
  0
ARC
  5
8C5
330
894
100
AcDbEntity
  8
0
  6
Continuous
 62
     7
370
    15
100
AcDbCircle
 10
2073.055978594788
 20
808.3796623656962
 30
0.0
 40
0.3045000000000378
100
AcDbArc
 50
270.9999999999496
 51
359.999999999987
  0
ARC
  5
8C6
330
894
100
AcDbEntity
  8
0
  6
Continuous
 62
     7
370
    15
100
AcDbCircle
 10
2077.424029351653
 20
807.9229819309327
 30
0.0
 40
4.365391478755899
100
AcDbArc
 50
178.0016173802554
 51
181.998382619725
  0
ELLIPSE
  5
8C7
330
894
100
AcDbEntity
  8
0
  6
Continuous
 62
     7
370
    15
100
AcDbEllipse
 10
2069.817278368796
 20
807.7140378751902
 30
0.0
 11
-0.0092997732643312
 21
0.3043840314383885
 31
0.0
210
0.0
220
0.0
230
0.9999999999999998
 40
0.0305190632718565
 41
0.0
 42
1.569292963305305
  0
LINE
  5
8C8
330
894
100
AcDbEntity
  8
0
  6
Continuous
 62
     7
370
    15
100
AcDbLine
 10
2069.807978594788
 20
808.0184219309204
 30
0.0
 11
2073.061292852548
 21
808.075208742521
 31
0.0
  0
LINE
  5
8C9
330
894
100
AcDbEntity
  8
0
  6
Continuous
 62
     7
370
    15
100
AcDbLine
 10
2069.807978594788
 20
807.7139683077453
 30
0.0
 11
2069.807978594788
 21
807.7142115854742
 31
0.0
  0
ELLIPSE
  5
8CA
330
894
100
AcDbEntity
  8
0
  6
Continuous
 62
     7
370
    15
100
AcDbEllipse
 10
2069.817278368795
 20
810.0933424592806
 30
0.0
 11
0.0092997732644449
 21
0.30438403143836
 31
0.0
210
0.0
220
0.0
230
0.9999999999999998
 40
0.0305190632720427
 41
1.572299690284567
 42
3.141592653569475
  0
LINE
  5
8CB
330
894
100
AcDbEntity
  8
0
  6
Continuous
 62
     7
370
    15
100
AcDbLine
 10
2069.807978594788
 20
810.0931687489966
 30
0.0
 11
2069.807978594788
 21
810.0934120267256
 31
0.0
  0
LINE
  5
8CC
330
894
100
AcDbEntity
  8
0
  6
Continuous
 62
     7
370
    15
100
AcDbLine
 10
2073.061292852548
 20
809.7321715919488
 30
0.0
 11
2069.807978594788
 21
809.7889584035504
 31
0.0
  0
LINE
  5
8CD
330
894
100
AcDbEntity
  8
0
  6
Continuous
 62
     7
370
    15
100
AcDbLine
 10
2069.807978594788
 20
804.3587084035504
 30
0.0
 11
2067.561696491334
 21
804.4567831982259
 31
0.0
  0
ARC
  5
8CE
330
894
100
AcDbEntity
  8
0
  6
Continuous
 62
     7
370
    15
100
AcDbCircle
 10
2069.309093786188
 20
804.6088882899613
 30
0.0
 40
1.754004921598517
100
AcDbArc
 50
175.0251337388204
 51
184.9748662611601
  0
LINE
  5
8CF
330
894
100
AcDbEntity
  8
0
  6
Continuous
 62
     7
370
    15
100
AcDbLine
 10
2067.561696491334
 20
804.7609933816977
 30
0.0
 11
2069.807978594788
 21
804.6629185870221
 31
0.0
  0
LINE
  5
8D0
330
894
100
AcDbEntity
  8
0
  6
Continuous
 62
     7
370
    15
100
AcDbLine
 10
2069.807978594789
 20
812.4339615854742
 30
0.0
 11
2067.561696491335
 21
812.3358869527738
 31
0.0
  0
LINE
  5
8D1
330
894
100
AcDbEntity
  8
0
  6
Continuous
 62
     7
370
    15
100
AcDbLine
 10
2067.561696491335
 20
810.1912433816975
 30
0.0
 11
2069.807978594788
 21
810.0931687489966
 31
0.0
  0
LINE
  5
8D2
330
894
100
AcDbEntity
  8
0
  6
Continuous
 62
     7
370
    15
100
AcDbLine
 10
2067.561696491335
 20
812.3358869527738
 30
0.0
 11
2067.561696491335
 21
810.1912433816975
 31
0.0
  0
ARC
  5
8D3
330
894
100
AcDbEntity
  8
0
  6
Continuous
 62
     7
370
    15
100
AcDbCircle
 10
2069.309093786177
 20
812.4879920445096
 30
0.0
 40
1.754004921587898
100
AcDbArc
 50
175.0251337388009
 51
184.9748662611991
  0
LINE
  5
8D4
330
894
100
AcDbEntity
  8
0
  6
Continuous
 62
     7
370
    15
100
AcDbLine
 10
2067.561696491335
 20
812.6400971362453
 30
0.0
 11
2069.807978594789
 21
812.7381719309205
 31
0.0
  0
LINE
  5
8D5
330
894
100
AcDbEntity
  8
0
  6
Continuous
 62
     7
370
    15
100
AcDbLine
 10
2067.561696491335
 20
807.6161369527737
 30
0.0
 11
2067.561696491334
 21
804.7609933816977
 31
0.0
  0
LINE
  5
8D6
330
894
100
AcDbEntity
  8
0
  6
Continuous
 62
     7
370
    15
100
AcDbLine
 10
2069.807978594788
 20
807.7142115854742
 30
0.0
 11
2067.561696491335
 21
807.6161369527737
 31
0.0
  0
LINE
  5
8D7
330
894
100
AcDbEntity
  8
0
  6
Continuous
 62
     7
370
    15
100
AcDbLine
 10
2069.807978594788
 20
809.7889584035504
 30
0.0
 11
2067.561696491335
 21
809.887033198226
 31
0.0
  0
ARC
  5
8D8
330
894
100
AcDbEntity
  8
0
  6
Continuous
 62
     7
370
    15
100
AcDbCircle
 10
2069.309093786189
 20
810.0391382899617
 30
0.0
 40
1.754004921599617
100
AcDbArc
 50
175.0251337388333
 51
184.9748662611666
  0
LINE
  5
8D9
330
894
100
AcDbEntity
  8
0
  6
Continuous
 62
     7
370
    15
100
AcDbLine
 10
2067.561696491335
 20
807.9203471362454
 30
0.0
 11
2069.807978594788
 21
808.0184219309204
 31
0.0
  0
ARC
  5
8DA
330
894
100
AcDbEntity
  8
0
  6
Continuous
 62
     7
370
    15
100
AcDbCircle
 10
2069.309093786207
 20
807.7682420445093
 30
0.0
 40
1.754004921617882
100
AcDbArc
 50
175.0251337388788
 51
184.9748662611017
  0
LINE
  5
8DB
330
894
100
AcDbEntity
  8
0
  6
Continuous
 62
     7
370
    15
100
AcDbLine
 10
2067.270478594787
 20
804.7609933816977
 30
0.0
 11
2067.561696491334
 21
804.7609933816977
 31
0.0
  0
ARC
  5
8DC
330
894
100
AcDbEntity
  8
0
  6
Continuous
 62
     7
370
    15
100
AcDbCircle
 10
2067.574978594787
 20
804.7609933816977
 30
0.0
 40
0.3045000000000922
100
AcDbArc
 50
179.999999999987
 51
267.4999999999297
  0
LINE
  5
8DD
330
894
100
AcDbEntity
  8
0
  6
Continuous
 62
     7
370
    15
100
AcDbLine
 10
2067.561696491335
 20
812.3358869527738
 30
0.0
 11
2067.270478594789
 21
812.3358869527738
 31
0.0
  0
ARC
  5
8DE
330
894
100
AcDbEntity
  8
0
  6
Continuous
 62
     7
370
    15
100
AcDbCircle
 10
2067.574978594788
 20
812.3358869527738
 30
0.0
 40
0.3045000000000613
100
AcDbArc
 50
92.50000000004424
 51
179.9999999999935
  0
LINE
  5
8DF
330
894
100
AcDbEntity
  8
0
  6
Continuous
 62
     7
370
    15
100
AcDbLine
 10
2067.270478594788
 20
807.6161369527737
 30
0.0
 11
2067.561696491335
 21
807.6161369527737
 31
0.0
  0
ARC
  5
8E0
330
894
100
AcDbEntity
  8
0
  6
Continuous
 62
     7
370
    15
100
AcDbCircle
 10
2067.574978594788
 20
807.6161369527737
 30
0.0
 40
0.3045000000000613
100
AcDbArc
 50
92.50000000004424
 51
179.9999999999935
  0
LINE
  5
8E1
330
894
100
AcDbEntity
  8
0
  6
Continuous
 62
     7
370
    15
100
AcDbLine
 10
2067.270478594787
 20
804.7609933816977
 30
0.0
 11
2067.270478594788
 21
807.6161369527737
 31
0.0
  0
LINE
  5
8E2
330
894
100
AcDbEntity
  8
0
  6
Continuous
 62
     7
370
    15
100
AcDbLine
 10
2067.561696491335
 20
810.1912433816975
 30
0.0
 11
2067.270478594788
 21
810.1912433816977
 31
0.0
  0
LINE
  5
8E3
330
894
100
AcDbEntity
  8
0
  6
Continuous
 62
     7
370
    15
100
AcDbLine
 10
2067.270478594788
 20
810.1912433816977
 30
0.0
 11
2067.270478594789
 21
812.3358869527738
 31
0.0
  0
ARC
  5
8E4
330
894
100
AcDbEntity
  8
0
  6
Continuous
 62
     7
370
    15
100
AcDbCircle
 10
2067.574978594788
 20
810.1912433816975
 30
0.0
 40
0.3045000000000379
100
AcDbArc
 50
179.999999999987
 51
267.4999999999297
  0
ENDBLK
  5
896
330
894
100
AcDbEntity
  8
0
100
AcDbBlockEnd
  0
BLOCK
  5
8E7
330
8E6
100
AcDbEntity
  8
0
100
AcDbBlockBegin
  2
3
 70
     0
 10
0.0
 20
0.0
 30
0.0
  3
3
  1

  0
LINE
  5
8E9
330
8E6
100
AcDbEntity
  8
0
  6
Continuous
 62
     7
370
    15
100
AcDbLine
 10
2130.221151296947
 20
764.4356095098564
 30
0.0
 11
2130.194121229459
 21
765.4691295053286
 31
0.0
  0
ARC
  5
8EA
330
8E6
100
AcDbEntity
  8
0
  6
Continuous
 62
     7
370
    15
100
AcDbCircle
 10
2129.999789640759
 20
765.4551107907751
 30
0.0
 40
0.2999987179370275
100
AcDbArc
 50
1.574920706395304
 51
90.05653402664531
  0
SPLINE
  5
8EB
330
8E6
100
AcDbEntity
  8
0
  6
Continuous
 62
     7
370
    15
100
AcDbSpline
210
0.0
220
0.0
230
1.0
 70
     8
 71
     3
 72
    19
 73
    15
 74
     0
 42
0.0000000001
 43
0.0000000001
 40
0.0
 40
0.0
 40
0.0
 40
0.0
 40
0.037106897839006
 40
0.0696751283703172
 40
0.0988170196978716
 40
0.1260677820575069
 40
0.1532845170163607
 40
0.1991764671153249
 40
0.2649200947825677
 40
0.3601258066618471
 40
0.4812202241820496
 40
0.628226275334005
 40
0.8011700691982998
 40
1.0
 40
1.0
 40
1.0
 40
1.0
 10
2115.998765337633
 20
765.4691331465683
 30
0.0
 10
2115.997824279875
 20
765.4350109637184
 30
0.0
 10
2115.996057268242
 20
765.370940194972
 30
0.0
 10
2115.992848332439
 20
765.2818276859502
 30
0.0
 10
2115.989420933758
 20
765.2066899724546
 30
0.0
 10
2115.985750835503
 20
765.1463373797814
 30
0.0
 10
2115.981107794971
 20
765.0920610943659
 30
0.0
 10
2115.975079483247
 20
765.0591375681085
 30
0.0
 10
2115.96641621815
 20
765.0048315500832
 30
0.0
 10
2115.955078974018
 20
764.9320833723041
 30
0.0
 10
2115.941408577599
 20
764.8371057820098
 30
0.0
 10
2115.926206410819
 20
764.7217126551975
 30
0.0
 10
2115.908255293722
 20
764.5856207368376
 30
0.0
 10
2115.90276725843
 20
764.4878817334812
 30
0.0
 10
2115.899832178286
 20
764.4356095098552
 30
0.0
  0
ARC
  5
8EC
330
8E6
100
AcDbEntity
  8
0
  6
Continuous
 62
     7
370
    15
100
AcDbCircle
 10
2116.226861067556
 20
765.4551115210802
 30
0.0
 40
0.299997985916045
100
AcDbArc
 50
89.90899748797547
 51
178.4474045276624
  0
LINE
  5
8ED
330
8E6
100
AcDbEntity
  8
0
  6
Continuous
 62
     7
370
    15
100
AcDbLine
 10
2129.595544001915
 20
764.4356095098561
 30
0.0
 11
2128.583533993732
 21
764.4356095098561
 31
0.0
  0
LINE
  5
8EE
330
8E6
100
AcDbEntity
  8
0
  6
Continuous
 62
     7
370
    15
100
AcDbLine
 10
2128.583532478825
 20
765.4629625943425
 30
0.0
 11
2128.583533993732
 21
764.4356095098561
 31
0.0
  0
LINE
  5
8EF
330
8E6
100
AcDbEntity
  8
0
  6
Continuous
 62
     7
370
    15
100
AcDbLine
 10
2129.568718145411
 20
765.4629625943415
 30
0.0
 11
2128.583532478825
 21
765.4629625943414
 31
0.0
  0
LINE
  5
8F0
330
8E6
100
AcDbEntity
  8
0
  6
Continuous
 62
     7
370
    15
100
AcDbLine
 10
2129.568718145411
 20
765.4629625943393
 30
0.0
 11
2129.595544001915
 21
764.435609509856
 31
0.0
  0
LINE
  5
8F1
330
8E6
100
AcDbEntity
  8
0
  6
Continuous
 62
     7
370
    15
100
AcDbLine
 10
2116.642497338165
 20
765.4629625943415
 30
0.0
 11
2116.615661071486
 21
764.4356095098561
 31
0.0
  0
LINE
  5
8F2
330
8E6
100
AcDbEntity
  8
0
  6
Continuous
 62
     7
370
    15
100
AcDbLine
 10
2117.628173934525
 20
765.4629625943414
 30
0.0
 11
2116.642497338165
 21
765.4629625943415
 31
0.0
  0
LINE
  5
8F3
330
8E6
100
AcDbEntity
  8
0
  6
Continuous
 62
     7
370
    15
100
AcDbLine
 10
2117.628173934525
 20
765.4629625943414
 30
0.0
 11
2117.628173934525
 21
764.4356095098561
 31
0.0
  0
LINE
  5
8F4
330
8E6
100
AcDbEntity
  8
0
  6
Continuous
 62
     7
370
    15
100
AcDbLine
 10
2117.628173934525
 20
764.4356095098561
 30
0.0
 11
2116.615661071486
 21
764.4356095098561
 31
0.0
  0
LINE
  5
8F5
330
8E6
100
AcDbEntity
  8
0
  6
Continuous
 62
     7
370
    15
100
AcDbLine
 10
2128.583532478825
 20
765.4629625943425
 30
0.0
 11
2117.628173934525
 21
765.4629625943414
 31
0.0
  0
LINE
  5
8F6
330
8E6
100
AcDbEntity
  8
0
  6
Continuous
 62
     7
370
    15
100
AcDbLine
 10
2128.583533993732
 20
764.4356095098561
 30
0.0
 11
2117.628173934525
 21
764.4356095098561
 31
0.0
  0
LINE
  5
8F7
330
8E6
100
AcDbEntity
  8
0
  6
Continuous
 62
     7
370
    15
100
AcDbLine
 10
2128.583515591115
 20
765.755109509849
 30
0.0
 11
2129.269673244161
 21
765.7551095098491
 31
0.0
  0
SPLINE
  5
8F8
330
8E6
100
AcDbEntity
  8
0
  6
Continuous
 62
     7
370
    15
100
AcDbSpline
210
0.0
220
0.0
230
1.0
 70
     8
 71
     3
 72
    10
 73
     6
 74
     0
 42
0.0000000001
 43
0.0000000001
 40
0.0
 40
0.0
 40
0.0
 40
0.0
 40
0.5
 40
0.5
 40
1.0
 40
1.0
 40
1.0
 40
1.0
 10
2129.269779021395
 20
765.7551095098491
 30
0.0
 10
2129.346790382804
 20
765.7551095098491
 30
0.0
 10
2129.423357922087
 20
765.7238910218601
 30
0.0
 10
2129.533684697772
 20
765.616109163893
 30
0.0
 10
2129.566808112873
 20
765.5401669486693
 30
0.0
 10
2129.568824035299
 20
765.4629625943415
 30
0.0
  0
LWPOLYLINE
  5
8F9
330
8E6
100
AcDbEntity
  8
0
  6
Continuous
 62
     7
370
    15
100
AcDbPolyline
 90
        9
 70
   128
 43
0.0
 10
2128.583515591115
 20
765.755109509849
 10
2128.583518832634
 20
765.7495350475902
 10
2128.583521953688
 20
765.7330188250105
 10
2128.58352483829
 20
765.706174635839
 10
2128.583527379237
 20
765.670000092872
 10
2128.583529482102
 20
765.6258395536063
 10
2128.583531068735
 20
765.5753341597715
 10
2128.583532080172
 20
765.5203608474461
 10
2128.583532478825
 20
765.4629625943425
  0
LINE
  5
8FA
330
8E6
100
AcDbEntity
  8
0
  6
Continuous
 62
     7
370
    15
100
AcDbLine
 10
2117.628173934525
 20
765.4629625943414
 30
0.0
 11
2117.628173934525
 21
765.755109509849
 31
0.0
  0
LINE
  5
8FB
330
8E6
100
AcDbEntity
  8
0
  6
Continuous
 62
     7
370
    15
100
AcDbLine
 10
2117.628173934525
 20
765.755109509849
 30
0.0
 11
2128.583515591115
 21
765.755109509849
 31
0.0
  0
ARC
  5
8FC
330
8E6
100
AcDbEntity
  8
0
  6
Continuous
 62
     7
370
    15
100
AcDbCircle
 10
2116.942014771571
 20
765.4554993175672
 30
0.0
 40
0.2996104027134156
100
AcDbArc
 50
90.06790699888165
 51
178.5726180006214
  0
LINE
  5
8FD
330
8E6
100
AcDbEntity
  8
0
  6
Continuous
 62
     7
370
    15
100
AcDbLine
 10
2116.94165967319
 20
765.7551095098491
 30
0.0
 11
2117.628173934525
 21
765.755109509849
 31
0.0
  0
SPLINE
  5
8FE
330
8E6
100
AcDbEntity
  8
0
  6
Continuous
 62
     7
370
    15
100
AcDbSpline
210
0.0
220
0.0
230
1.0
 70
    24
 71
     3
 72
    29
 73
    25
 74
     0
 42
0.0000000001
 43
0.0000000001
 40
0.0
 40
0.0
 40
0.0
 40
0.0
 40
0.0299192055801599
 40
0.1039883563613449
 40
0.1718398433025419
 40
0.2336584357096068
 40
0.3076992953462984
 40
0.3868169394355727
 40
0.4710120623208731
 40
0.490216450633202
 40
0.5096666224512994
 40
0.5293625830527866
 40
0.5493043375201414
 40
0.5694918907501937
 40
0.5814784709025222
 40
0.6109289585798696
 40
0.6468439610441138
 40
0.6955033757027965
 40
0.7525105729259649
 40
0.8133595910645261
 40
0.867210374024013
 40
0.9176193599165864
 40
0.9618825619033962
 40
1.0
 40
1.0
 40
1.0
 40
1.0
 10
2130.220680722715
 20
764.4356095098561
 30
0.0
 10
2130.216377403645
 20
764.4356095098561
 30
0.0
 10
2130.201420620257
 20
764.435609509856
 30
0.0
 10
2130.173269634016
 20
764.4356095098561
 30
0.0
 10
2130.137863877292
 20
764.4356095098561
 30
0.0
 10
2130.099846571828
 20
764.435609509856
 30
0.0
 10
2130.057622904342
 20
764.4356095098561
 30
0.0
 10
2130.0087896075
 20
764.4356095098561
 30
0.0
 10
2129.96975791751
 20
764.4356095098561
 30
0.0
 10
2129.942956925542
 20
764.4356095098561
 30
0.0
 10
2129.930136403298
 20
764.4356095098561
 30
0.0
 10
2129.917064539401
 20
764.4356095098561
 30
0.0
 10
2129.903740633699
 20
764.435609509856
 30
0.0
 10
2129.892060382429
 20
764.4356095098561
 30
0.0
 10
2129.87817415032
 20
764.4356095098561
 30
0.0
 10
2129.860620574212
 20
764.4356095098561
 30
0.0
 10
2129.834611108172
 20
764.4356095098561
 30
0.0
 10
2129.802180481016
 20
764.4356095098561
 30
0.0
 10
2129.763931005084
 20
764.435609509856
 30
0.0
 10
2129.72437101605
 20
764.4356095098561
 30
0.0
 10
2129.686511627363
 20
764.435609509856
 30
0.0
 10
2129.652654825798
 20
764.4356095098561
 30
0.0
 10
2129.622574468896
 20
764.435609509856
 30
0.0
 10
2129.604166928076
 20
764.4356095098561
 30
0.0
 10
2129.595649777723
 20
764.4356095098561
 30
0.0
  0
SPLINE
  5
8FF
330
8E6
100
AcDbEntity
  8
0
  6
Continuous
 62
     7
370
    15
100
AcDbSpline
210
0.0
220
0.0
230
1.0
 70
    24
 71
     3
 72
    14
 73
    10
 74
     0
 42
0.0000000001
 43
0.0000000001
 40
0.0
 40
0.0
 40
0.0
 40
0.0
 40
0.2991856058856538
 40
0.5235771666143702
 40
0.5983774045717151
 40
0.7639583852324994
 40
0.9295720757924302
 40
0.981303931049068
 40
1.0
 40
1.0
 40
1.0
 40
1.0
 10
2129.269779021395
 20
765.7551095098491
 30
0.0
 10
2129.362296121755
 20
765.7551095098492
 30
0.0
 10
2129.524201776028
 20
765.7551095098495
 30
0.0
 10
2129.701815344445
 20
765.7551095098498
 30
0.0
 10
2129.82169518497
 20
765.7551095098499
 30
0.0
 10
2129.913721910705
 20
765.7551095098502
 30
0.0
 10
2129.968966880494
 20
765.7551095098503
 30
0.0
 10
2129.998292142373
 20
765.7551095098504
 30
0.0
 10
2129.998277926935
 20
765.7551095098504
 30
0.0
 10
2129.998274153249
 20
765.7551095098504
 30
0.0
  0
LINE
  5
900
330
8E6
100
AcDbEntity
  8
0
  6
Continuous
 62
     7
370
    15
100
AcDbLine
 10
2116.497165260236
 20
765.4629625943417
 30
0.0
 11
2116.470336564385
 21
764.4356095098561
 31
0.0
  0
LINE
  5
901
330
8E6
100
AcDbEntity
  8
0
  6
Continuous
 62
     7
370
    15
100
AcDbLine
 10
2116.642497338165
 20
765.4629625943415
 30
0.0
 11
2116.497165260236
 21
765.4629625943417
 31
0.0
  0
LINE
  5
902
330
8E6
100
AcDbEntity
  8
0
  6
Continuous
 62
     7
370
    15
100
AcDbLine
 10
2116.615661071486
 20
764.4356095098561
 30
0.0
 11
2116.470336564385
 21
764.4356095098561
 31
0.0
  0
ARC
  5
903
330
8E6
100
AcDbEntity
  8
0
  6
Continuous
 62
     7
370
    15
100
AcDbCircle
 10
2116.796682666515
 20
765.4554993337471
 30
0.0
 40
0.2996103751918617
100
AcDbArc
 50
90.06605162403145
 51
178.5726209645538
  0
LINE
  5
904
330
8E6
100
AcDbEntity
  8
0
  6
Continuous
 62
     7
370
    15
100
AcDbLine
 10
2116.796337270264
 20
765.7551095098494
 30
0.0
 11
2116.94165967319
 21
765.7551095098491
 31
0.0
  0
SPLINE
  5
905
330
8E6
100
AcDbEntity
  8
0
  6
Continuous
 62
     7
370
    15
100
AcDbSpline
210
0.0
220
0.0
230
1.0
 70
    24
 71
     3
 72
    30
 73
    26
 74
     0
 42
0.0000000001
 43
0.0000000001
 40
0.0
 40
0.0
 40
0.0
 40
0.0
 40
0.0738057502657117
 40
0.1408383327197224
 40
0.2010977869255179
 40
0.2545841674766879
 40
0.2669666246976418
 40
0.2789209195122897
 40
0.2904470536671329
 40
0.3015450291108137
 40
0.3122148480265605
 40
0.3224565128714125
 40
0.3339707230948844
 40
0.4205765711925603
 40
0.5040316829988504
 40
0.5830404031983666
 40
0.6576047616336494
 40
0.7401069657287369
 40
0.7804106038881339
 40
0.8199797184863733
 40
0.8706935081339858
 40
0.9159297259927249
 40
0.9538523923852482
 40
0.9844637078714651
 40
1.0
 40
1.0
 40
1.0
 40
1.0
 10
2116.470336564385
 20
764.4356095098561
 30
0.0
 10
2116.451372253516
 20
764.4356095098561
 30
0.0
 10
2116.41518399021
 20
764.4356095098561
 30
0.0
 10
2116.364062049443
 20
764.435609509856
 30
0.0
 10
2116.318581219936
 20
764.4356095098561
 30
0.0
 10
2116.287285747371
 20
764.435609509856
 30
0.0
 10
2116.268202093489
 20
764.4356095098561
 30
0.0
 10
2116.259451499409
 20
764.4356095098561
 30
0.0
 10
2116.251059309419
 20
764.4356095098561
 30
0.0
 10
2116.243025475222
 20
764.4356095098561
 30
0.0
 10
2116.235350331657
 20
764.435609509856
 30
0.0
 10
2116.227627561038
 20
764.4356095098561
 30
0.0
 10
2116.202042484815
 20
764.435609509856
 30
0.0
 10
2116.16044146079
 20
764.4356095098561
 30
0.0
 10
2116.10686682757
 20
764.4356095098561
 30
0.0
 10
2116.059602414834
 20
764.4356095098561
 30
0.0
 10
2116.016700293876
 20
764.435609509856
 30
0.0
 10
2115.985007123322
 20
764.4356095098561
 30
0.0
 10
2115.96181098603
 20
764.435609509856
 30
0.0
 10
2115.944831869978
 20
764.4356095098561
 30
0.0
 10
2115.928945402217
 20
764.4356095098561
 30
0.0
 10
2115.914817786548
 20
764.435609509856
 30
0.0
 10
2115.905659391163
 20
764.435609509856
 30
0.0
 10
2115.899873542729
 20
764.4356095098561
 30
0.0
 10
2115.900657865193
 20
764.4356095098561
 30
0.0
 10
2115.900921919249
 20
764.4356095098561
 30
0.0
  0
SPLINE
  5
906
330
8E6
100
AcDbEntity
  8
0
  6
Continuous
 62
     7
370
    15
100
AcDbSpline
210
0.0
220
0.0
230
1.0
 70
    24
 71
     3
 72
    13
 73
     9
 74
     0
 42
0.0000000001
 43
0.0000000001
 40
0.0
 40
0.0
 40
0.0
 40
0.0
 40
0.0662909220267166
 40
0.2249272656267489
 40
0.3042942798826465
 40
0.4781630318155275
 40
0.6520340199570219
 40
1.0
 40
1.0
 40
1.0
 40
1.0
 10
2116.23206931861
 20
765.7551095098504
 30
0.0
 10
2116.233524745043
 20
765.7551095098504
 30
0.0
 10
2116.238463054513
 20
765.7551095098503
 30
0.0
 10
2116.281884423328
 20
765.7551095098503
 30
0.0
 10
2116.342265937738
 20
765.75510950985
 30
0.0
 10
2116.421916916313
 20
765.7551095098499
 30
0.0
 10
2116.574587097158
 20
765.7551095098497
 30
0.0
 10
2116.707625779383
 20
765.7551095098495
 30
0.0
 10
2116.796337270264
 20
765.7551095098494
 30
0.0
  0
LINE
  5
907
330
8E6
100
AcDbEntity
  8
0
  6
Continuous
 62
     7
370
    15
100
AcDbLine
 10
2124.375880472501
 20
764.4356095098487
 30
0.0
 11
2124.375880472501
 21
761.3906095098548
 31
0.0
  0
LINE
  5
908
330
8E6
100
AcDbEntity
  8
0
  6
Continuous
 62
     7
370
    15
100
AcDbLine
 10
2124.375880472501
 20
761.3906095098548
 30
0.0
 11
2124.375834099208
 21
761.3906095098548
 31
0.0
  0
ELLIPSE
  5
909
330
8E6
100
AcDbEntity
  8
0
  6
Continuous
 62
     7
370
    15
100
AcDbEllipse
 10
2124.375880472501
 20
761.3932668410968
 30
0.0
 11
0.3044999991172119
 21
0.0026573312345732
 31
0.0
210
0.0
220
0.0
230
1.0
 40
0.0087255388488091
 41
3.141592653541072
 42
4.71216052891663
  0
LINE
  5
90A
330
8E6
100
AcDbEntity
  8
0
  6
Continuous
 62
     7
370
    15
100
AcDbLine
 10
2124.071380472501
 20
761.3906095098546
 30
0.0
 11
2124.071380472501
 21
764.4356095098487
 31
0.0
  0
LINE
  5
90B
330
8E6
100
AcDbEntity
  8
0
  6
Continuous
 62
     7
370
    15
100
AcDbLine
 10
2125.796880472501
 20
761.3906095098548
 30
0.0
 11
2125.796880472501
 21
764.4356095098548
 31
0.0
  0
LINE
  5
90C
330
8E6
100
AcDbEntity
  8
0
  6
Continuous
 62
     7
370
    15
100
AcDbLine
 10
2125.796880472501
 20
761.3906095098548
 30
0.0
 11
2124.375880472501
 21
761.3906095098548
 31
0.0
  0
LINE
  5
90D
330
8E6
100
AcDbEntity
  8
0
  6
Continuous
 62
     7
370
    15
100
AcDbLine
 10
2124.375834099208
 20
761.3906095098548
 30
0.0
 11
2124.499852331991
 21
754.2856095098548
 31
0.0
  0
LINE
  5
90E
330
8E6
100
AcDbEntity
  8
0
  6
Continuous
 62
     7
370
    15
100
AcDbLine
 10
2125.796926845795
 20
761.3906095098548
 30
0.0
 11
2125.796880472501
 21
761.3906095098548
 31
0.0
  0
LINE
  5
90F
330
8E6
100
AcDbEntity
  8
0
  6
Continuous
 62
     7
370
    15
100
AcDbLine
 10
2125.672908613011
 20
754.2856095098548
 30
0.0
 11
2125.796926845795
 21
761.3906095098548
 31
0.0
  0
LINE
  5
910
330
8E6
100
AcDbEntity
  8
0
  6
Continuous
 62
     7
370
    15
100
AcDbLine
 10
2125.672908613011
 20
754.2856095098548
 30
0.0
 11
2124.499852331991
 21
754.2856095098548
 31
0.0
  0
LINE
  5
911
330
8E6
100
AcDbEntity
  8
0
  6
Continuous
 62
     7
370
    15
100
AcDbLine
 10
2124.499852331991
 20
754.2856095098548
 30
0.0
 11
2124.499609054263
 21
754.2856095098548
 31
0.0
  0
ELLIPSE
  5
912
330
8E6
100
AcDbEntity
  8
0
  6
Continuous
 62
     7
370
    15
100
AcDbEllipse
 10
2124.499782764546
 20
754.2949092838606
 30
0.0
 11
0.3043840314383885
 21
0.009299773264388
 31
0.0
210
0.0
220
0.0
230
1.0
 40
0.030519063271903
 41
3.141592653508738
 42
4.710885616896745
  0
LINE
  5
913
330
8E6
100
AcDbEntity
  8
0
  6
Continuous
 62
     7
370
    15
100
AcDbLine
 10
2124.195398708816
 20
754.2856095098548
 30
0.0
 11
2124.071380472501
 21
761.3906095098546
 31
0.0
  0
LINE
  5
914
330
8E6
100
AcDbEntity
  8
0
  6
Continuous
 62
     7
370
    15
100
AcDbLine
 10
2126.101380472501
 20
764.4356095098487
 30
0.0
 11
2126.101380472501
 21
761.3906095098546
 31
0.0
  0
ELLIPSE
  5
915
330
8E6
100
AcDbEntity
  8
0
  6
Continuous
 62
     7
370
    15
100
AcDbEllipse
 10
2125.796880472501
 20
761.3932668410968
 30
0.0
 11
0.3044999991172403
 21
-0.0026573312345732
 31
0.0
210
0.0
220
0.0
230
0.9999999999999998
 40
0.0087255388488083
 41
4.712617431852749
 42
6.283185307179586
  0
LINE
  5
916
330
8E6
100
AcDbEntity
  8
0
  6
Continuous
 62
     7
370
    15
100
AcDbLine
 10
2126.101380472501
 20
761.3906095098546
 30
0.0
 11
2125.977362236186
 21
754.2856095098548
 31
0.0
  0
ELLIPSE
  5
917
330
8E6
100
AcDbEntity
  8
0
  6
Continuous
 62
     7
370
    15
100
AcDbEllipse
 10
2125.672978180456
 20
754.2949092838625
 30
0.0
 11
0.3043840314383886
 21
-0.0092997732644164
 31
0.0
210
0.0
220
0.0
230
0.9999999999999998
 40
0.0305190632718562
 41
4.713892343874007
 42
6.283185307179586
  0
LINE
  5
918
330
8E6
100
AcDbEntity
  8
0
  6
Continuous
 62
     7
370
    15
100
AcDbLine
 10
2125.67315189074
 20
754.2856095098548
 30
0.0
 11
2125.672908613011
 21
754.2856095098548
 31
0.0
  0
LINE
  5
919
330
8E6
100
AcDbEntity
  8
0
  6
Continuous
 62
     7
370
    15
100
AcDbLine
 10
2124.499609054263
 20
754.2856095098548
 30
0.0
 11
2124.597683686963
 21
752.0393274064018
 31
0.0
  0
LINE
  5
91A
330
8E6
100
AcDbEntity
  8
0
  6
Continuous
 62
     7
370
    15
100
AcDbLine
 10
2125.575077258039
 20
752.0393274064018
 30
0.0
 11
2125.67315189074
 21
754.2856095098548
 31
0.0
  0
LINE
  5
91B
330
8E6
100
AcDbEntity
  8
0
  6
Continuous
 62
     7
370
    15
100
AcDbLine
 10
2124.597683686963
 20
752.0393274064018
 30
0.0
 11
2125.575077258039
 21
752.0393274064018
 31
0.0
  0
LINE
  5
91C
330
8E6
100
AcDbEntity
  8
0
  6
Continuous
 62
     7
370
    15
100
AcDbLine
 10
2125.977362236186
 20
754.2856095098548
 30
0.0
 11
2125.87928744151
 21
752.0393274064018
 31
0.0
  0
ARC
  5
91D
330
8E6
100
AcDbEntity
  8
0
  6
Continuous
 62
     7
370
    15
100
AcDbCircle
 10
2125.727182349775
 20
753.786724701266
 30
0.0
 40
1.754004921609758
100
AcDbArc
 50
265.0251337388788
 51
274.9748662611472
  0
ARC
  5
91E
330
8E6
100
AcDbEntity
  8
0
  6
Continuous
 62
     7
370
    15
100
AcDbCircle
 10
2124.445578595227
 20
753.7867247012418
 30
0.0
 40
1.754004921585614
100
AcDbArc
 50
265.0251337388003
 51
274.9748662611997
  0
LINE
  5
91F
330
8E6
100
AcDbEntity
  8
0
  6
Continuous
 62
     7
370
    15
100
AcDbLine
 10
2124.293473503491
 20
752.0393274064018
 30
0.0
 11
2124.195398708816
 21
754.2856095098548
 31
0.0
  0
ARC
  5
920
330
8E6
100
AcDbEntity
  8
0
  6
Continuous
 62
     7
370
    15
100
AcDbCircle
 10
2125.575077258039
 20
752.0526095098547
 30
0.0
 40
0.304499999999905
100
AcDbArc
 50
270.0
 51
357.4999999999424
  0
LINE
  5
921
330
8E6
100
AcDbEntity
  8
0
  6
Continuous
 62
     7
370
    15
100
AcDbLine
 10
2125.575077258039
 20
752.0393274064018
 30
0.0
 11
2125.575077258039
 21
751.7481095098548
 31
0.0
  0
ARC
  5
922
330
8E6
100
AcDbEntity
  8
0
  6
Continuous
 62
     7
370
    15
100
AcDbCircle
 10
2124.597683686963
 20
752.0526095098547
 30
0.0
 40
0.3045000000003169
100
AcDbArc
 50
182.5000000000511
 51
270.0
  0
LINE
  5
923
330
8E6
100
AcDbEntity
  8
0
  6
Continuous
 62
     7
370
    15
100
AcDbLine
 10
2124.597683686963
 20
751.7481095098548
 30
0.0
 11
2124.597683686963
 21
752.0393274064018
 31
0.0
  0
LINE
  5
924
330
8E6
100
AcDbEntity
  8
0
  6
Continuous
 62
     7
370
    15
100
AcDbLine
 10
2125.575077258039
 20
751.7481095098548
 30
0.0
 11
2124.597683686963
 21
751.7481095098548
 31
0.0
  0
LINE
  5
925
330
8E6
100
AcDbEntity
  8
0
  6
Continuous
 62
     7
370
    15
100
AcDbLine
 10
2119.453130472501
 20
764.4356095098561
 30
0.0
 11
2119.453130472501
 21
761.3906095098546
 31
0.0
  0
LINE
  5
926
330
8E6
100
AcDbEntity
  8
0
  6
Continuous
 62
     7
370
    15
100
AcDbLine
 10
2120.874130472501
 20
761.3906095098546
 30
0.0
 11
2120.874130472501
 21
764.4356095098561
 31
0.0
  0
LINE
  5
927
330
8E6
100
AcDbEntity
  8
0
  6
Continuous
 62
     7
370
    15
100
AcDbLine
 10
2120.874130472501
 20
761.3906095098546
 30
0.0
 11
2119.453130472501
 21
761.3906095098546
 31
0.0
  0
LINE
  5
928
330
8E6
100
AcDbEntity
  8
0
  6
Continuous
 62
     7
370
    15
100
AcDbLine
 10
2119.453130472501
 20
761.3906095098546
 30
0.0
 11
2119.453084095676
 21
761.3906095098546
 31
0.0
  0
ELLIPSE
  5
929
330
8E6
100
AcDbEntity
  8
0
  6
Continuous
 62
     7
370
    15
100
AcDbEllipse
 10
2119.453130472501
 20
761.3932668410957
 30
0.0
 11
0.3044999991172119
 21
0.0026573312345732
 31
0.0
210
0.0
220
0.0
230
1.0
 40
0.0087255388488091
 41
3.141592653123883
 42
4.712160517317768
  0
LINE
  5
92A
330
8E6
100
AcDbEntity
  8
0
  6
Continuous
 62
     7
370
    15
100
AcDbLine
 10
2119.148630472501
 20
761.3906095098546
 30
0.0
 11
2119.148630472501
 21
764.4356095098547
 31
0.0
  0
LINE
  5
92B
330
8E6
100
AcDbEntity
  8
0
  6
Continuous
 62
     7
370
    15
100
AcDbLine
 10
2119.453084095676
 20
761.3906095098546
 30
0.0
 11
2119.577102331991
 21
754.2856095098548
 31
0.0
  0
LINE
  5
92C
330
8E6
100
AcDbEntity
  8
0
  6
Continuous
 62
     7
370
    15
100
AcDbLine
 10
2120.874176849326
 20
761.3906095098546
 30
0.0
 11
2120.874130472501
 21
761.3906095098546
 31
0.0
  0
LINE
  5
92D
330
8E6
100
AcDbEntity
  8
0
  6
Continuous
 62
     7
370
    15
100
AcDbLine
 10
2120.750158613011
 20
754.2856095098548
 30
0.0
 11
2120.874176849326
 21
761.3906095098546
 31
0.0
  0
LINE
  5
92E
330
8E6
100
AcDbEntity
  8
0
  6
Continuous
 62
     7
370
    15
100
AcDbLine
 10
2120.750158613011
 20
754.2856095098548
 30
0.0
 11
2119.577102331991
 21
754.2856095098548
 31
0.0
  0
LINE
  5
92F
330
8E6
100
AcDbEntity
  8
0
  6
Continuous
 62
     7
370
    15
100
AcDbLine
 10
2119.577102331991
 20
754.2856095098548
 30
0.0
 11
2119.576859054262
 21
754.2856095098548
 31
0.0
  0
ELLIPSE
  5
930
330
8E6
100
AcDbEntity
  8
0
  6
Continuous
 62
     7
370
    15
100
AcDbEllipse
 10
2119.577032764546
 20
754.2949092838605
 30
0.0
 11
0.3043840314383886
 21
0.0092997732644164
 31
0.0
210
0.0
220
0.0
230
0.9999999999999998
 40
0.0305190632718562
 41
3.141592653498131
 42
4.710885616896835
  0
LINE
  5
931
330
8E6
100
AcDbEntity
  8
0
  6
Continuous
 62
     7
370
    15
100
AcDbLine
 10
2119.272648708816
 20
754.2856095098548
 30
0.0
 11
2119.148630472501
 21
761.3906095098546
 31
0.0
  0
LINE
  5
932
330
8E6
100
AcDbEntity
  8
0
  6
Continuous
 62
     7
370
    15
100
AcDbLine
 10
2121.178630472501
 20
764.4356095098561
 30
0.0
 11
2121.178630472501
 21
761.3906095098546
 31
0.0
  0
ELLIPSE
  5
933
330
8E6
100
AcDbEntity
  8
0
  6
Continuous
 62
     7
370
    15
100
AcDbEllipse
 10
2120.874130472501
 20
761.3932668410968
 30
0.0
 11
0.3044999991172119
 21
-0.0026573312345732
 31
0.0
210
0.0
220
0.0
230
1.0
 40
0.0087255388488099
 41
4.71261744345136
 42
6.283185307179586
  0
LINE
  5
934
330
8E6
100
AcDbEntity
  8
0
  6
Continuous
 62
     7
370
    15
100
AcDbLine
 10
2121.178630472501
 20
761.3906095098546
 30
0.0
 11
2121.054612236186
 21
754.2856095098548
 31
0.0
  0
ELLIPSE
  5
935
330
8E6
100
AcDbEntity
  8
0
  6
Continuous
 62
     7
370
    15
100
AcDbEllipse
 10
2120.750228180456
 20
754.2949092838624
 30
0.0
 11
0.3043840314383885
 21
-0.0092997732644022
 31
0.0
210
0.0
220
0.0
230
1.0
 40
0.0305190632718097
 41
4.713892876527195
 42
6.283185307179586
  0
LINE
  5
936
330
8E6
100
AcDbEntity
  8
0
  6
Continuous
 62
     7
370
    15
100
AcDbLine
 10
2120.750402052714
 20
754.2856095098548
 30
0.0
 11
2120.750158613011
 21
754.2856095098548
 31
0.0
  0
LINE
  5
937
330
8E6
100
AcDbEntity
  8
0
  6
Continuous
 62
     7
370
    15
100
AcDbLine
 10
2119.576859054262
 20
754.2856095098548
 30
0.0
 11
2119.674933686963
 21
752.0393274064016
 31
0.0
  0
LINE
  5
938
330
8E6
100
AcDbEntity
  8
0
  6
Continuous
 62
     7
370
    15
100
AcDbLine
 10
2120.652327258039
 20
752.0393274064016
 30
0.0
 11
2120.750402052714
 21
754.2856095098548
 31
0.0
  0
LINE
  5
939
330
8E6
100
AcDbEntity
  8
0
  6
Continuous
 62
     7
370
    15
100
AcDbLine
 10
2119.674933686963
 20
752.0393274064016
 30
0.0
 11
2120.652327258039
 21
752.0393274064016
 31
0.0
  0
ARC
  5
93A
330
8E6
100
AcDbEntity
  8
0
  6
Continuous
 62
     7
370
    15
100
AcDbCircle
 10
2119.522828595227
 20
753.786724701252
 30
0.0
 40
1.754004921595759
100
AcDbArc
 50
265.0251337388263
 51
274.9748662611997
  0
LINE
  5
93B
330
8E6
100
AcDbEntity
  8
0
  6
Continuous
 62
     7
370
    15
100
AcDbLine
 10
2119.370723503491
 20
752.0393274064016
 30
0.0
 11
2119.272648708816
 21
754.2856095098548
 31
0.0
  0
LINE
  5
93C
330
8E6
100
AcDbEntity
  8
0
  6
Continuous
 62
     7
370
    15
100
AcDbLine
 10
2121.054612236186
 20
754.2856095098548
 30
0.0
 11
2120.956537441511
 21
752.0393274064016
 31
0.0
  0
ARC
  5
93D
330
8E6
100
AcDbEntity
  8
0
  6
Continuous
 62
     7
370
    15
100
AcDbCircle
 10
2120.804432349775
 20
753.7867247012674
 30
0.0
 40
1.754004921611185
100
AcDbArc
 50
265.0251337388529
 51
274.9748662611212
  0
ARC
  5
93E
330
8E6
100
AcDbEntity
  8
0
  6
Continuous
 62
     7
370
    15
100
AcDbCircle
 10
2119.674933686963
 20
752.0526095098546
 30
0.0
 40
0.3045000000003188
100
AcDbArc
 50
182.500000000064
 51
270.0
  0
LINE
  5
93F
330
8E6
100
AcDbEntity
  8
0
  6
Continuous
 62
     7
370
    15
100
AcDbLine
 10
2119.674933686963
 20
751.7481095098547
 30
0.0
 11
2119.674933686963
 21
752.0393274064016
 31
0.0
  0
LINE
  5
940
330
8E6
100
AcDbEntity
  8
0
  6
Continuous
 62
     7
370
    15
100
AcDbLine
 10
2120.652327258039
 20
751.7481095098547
 30
0.0
 11
2119.674933686963
 21
751.7481095098547
 31
0.0
  0
LINE
  5
941
330
8E6
100
AcDbEntity
  8
0
  6
Continuous
 62
     7
370
    15
100
AcDbLine
 10
2120.652327258039
 20
751.7481095098547
 30
0.0
 11
2120.652327258039
 21
752.0393274064016
 31
0.0
  0
ARC
  5
942
330
8E6
100
AcDbEntity
  8
0
  6
Continuous
 62
     7
370
    15
100
AcDbCircle
 10
2120.652327258039
 20
752.0526095098546
 30
0.0
 40
0.3044999999999334
100
AcDbArc
 50
270.0
 51
357.4999999999359
  0
SPLINE
  5
943
330
8E6
100
AcDbEntity
  8
0
  6
Continuous
 62
     8
370
    15
100
AcDbSpline
210
0.0
220
0.0
230
1.0
 70
     8
 71
     3
 72
    13
 73
     9
 74
     0
 42
0.0000000001
 43
0.0000000001
 40
0.0
 40
0.0
 40
0.0
 40
0.0
 40
0.0709522279953885
 40
0.2366356820675665
 40
0.4023666612006564
 40
0.5517652625597785
 40
0.7011729092888341
 40
1.0
 40
1.0
 40
1.0
 40
1.0
 10
2130.296612454037
 20
765.4629626462103
 30
0.0
 10
2130.292801998671
 20
765.4629626289461
 30
0.0
 10
2130.280093592887
 20
765.4629625713672
 30
0.0
 10
2130.210241187437
 20
765.4629626165906
 30
0.0
 10
2130.104966132595
 20
765.4629625439614
 30
0.0
 10
2129.979141547227
 20
765.4629628358421
 30
0.0
 10
2129.800184897728
 20
765.4629629656393
 30
0.0
 10
2129.66136911098
 20
765.4629627428618
 30
0.0
 10
2129.568824035299
 20
765.4629625943415
 30
0.0
  0
SPLINE
  5
944
330
8E6
100
AcDbEntity
  8
0
  6
Continuous
 62
     8
370
    15
100
AcDbSpline
210
0.0
220
0.0
230
1.0
 70
     8
 71
     3
 72
    13
 73
     9
 74
     0
 42
0.0000000001
 43
0.0000000001
 40
0.0
 40
0.0
 40
0.0
 40
0.0
 40
0.3472468825921203
 40
0.5210901907846889
 40
0.6949513398573889
 40
0.8522582679532478
 40
0.9309305019455473
 40
1.0
 40
1.0
 40
1.0
 40
1.0
 10
2116.497165260236
 20
765.4629625943417
 30
0.0
 10
2116.408470864595
 20
765.4629626908066
 30
0.0
 10
2116.275373112351
 20
765.4629628355652
 30
0.0
 10
2116.122534178604
 20
765.4629626643153
 30
0.0
 10
2116.028286513728
 20
765.4629625857839
 30
0.0
 10
2115.972795002816
 20
765.4629625729736
 30
0.0
 10
2115.937741171529
 20
765.462962632759
 30
0.0
 10
2115.931311984498
 20
765.4629626103168
 30
0.0
 10
2115.928306329189
 20
765.462962599825
 30
0.0
  0
ENDBLK
  5
8E8
330
8E6
100
AcDbEntity
  8
0
100
AcDbBlockEnd
  0
BLOCK
  5
947
330
946
100
AcDbEntity
  8
0
100
AcDbBlockBegin
  2
4
 70
     0
 10
0.0
 20
0.0
 30
0.0
  3
4
  1

  0
ARC
  5
949
330
946
100
AcDbEntity
  8
0
  6
Continuous
 62
     7
370
    15
100
AcDbCircle
 10
2155.73340567612
 20
845.280725742579
 30
0.0
 40
0.3045000000000035
100
AcDbArc
 50
124.3220893620773
 51
179.9999999999935
  0
LINE
  5
94A
330
946
100
AcDbEntity
  8
0
  6
Continuous
 62
     7
370
    15
100
AcDbLine
 10
2157.081831700401
 20
846.5700187778576
 30
0.0
 11
2155.561715027558
 21
845.5322064996881
 31
0.0
  0
LINE
  5
94B
330
946
100
AcDbEntity
  8
0
  6
Continuous
 62
     7
370
    15
100
AcDbLine
 10
2155.42890567612
 20
845.280725742579
 30
0.0
 11
2155.42890567612
 21
843.529536739847
 31
0.0
  0
SPLINE
  5
94C
330
946
100
AcDbEntity
  8
0
  6
Continuous
 62
     7
370
    15
100
AcDbSpline
210
0.0
220
0.0
230
1.0
 70
     8
 71
     3
 72
    23
 73
    19
 74
     0
 42
0.0000000001
 43
0.0000000001
 40
0.0
 40
0.0
 40
0.0
 40
0.0
 40
0.0301830042906157
 40
0.0651608864845628
 40
0.0965161367825244
 40
0.1231720051600064
 40
0.1511791627355147
 40
0.179876438222276
 40
0.2113621888532204
 40
0.2469039591340671
 40
0.2895093621338463
 40
0.3502389441798144
 40
0.4402689544218811
 40
0.5315756420482111
 40
0.6329715108801079
 40
0.7497165844651969
 40
0.896297123446873
 40
0.9999999999999998
 40
0.9999999999999998
 40
0.9999999999999998
 40
0.9999999999999998
 10
2169.079959999257
 20
842.031510085297
 30
0.0
 10
2169.10078586882
 20
842.1418141745551
 30
0.0
 10
2169.145746009615
 20
842.3799452820396
 30
0.0
 10
2169.204481184275
 20
842.7407504268401
 30
0.0
 10
2169.253150770496
 20
843.0949573705046
 30
0.0
 10
2169.289591902202
 20
843.4294724815712
 30
0.0
 10
2169.313444152206
 20
843.762397225265
 30
0.0
 10
2169.326927515326
 20
844.1203742443795
 30
0.0
 10
2169.330944578837
 20
844.5144750933918
 30
0.0
 10
2169.325469747751
 20
844.9705089821629
 30
0.0
 10
2169.309213955382
 20
845.551828420934
 30
0.0
 10
2169.284035249273
 20
846.3615792619753
 30
0.0
 10
2169.242769011853
 20
847.3811341539569
 30
0.0
 10
2169.183915072444
 20
848.5769329584114
 30
0.0
 10
2169.109566760795
 20
849.890604274201
 30
0.0
 10
2169.013088108468
 20
851.443020166751
 30
0.0
 10
2168.909612459863
 20
853.0080173557822
 30
0.0
 10
2168.842304721582
 20
854.073534923134
 30
0.0
 10
2168.814416313319
 20
854.5150233714045
 30
0.0
  0
ARC
  5
94D
330
946
100
AcDbEntity
  8
0
  6
Continuous
 62
     7
370
    15
100
AcDbCircle
 10
2156.424527298116
 20
843.1305607199121
 30
0.0
 40
0.3045000000000276
100
AcDbArc
 50
240.0026882663589
 51
295.6725646803466
  0
SPLINE
  5
94E
330
946
100
AcDbEntity
  8
0
  6
Continuous
 62
     7
370
    15
100
AcDbSpline
210
0.0
220
0.0
230
1.0
 70
     8
 71
     3
 72
    18
 73
    14
 74
     0
 42
0.0000000001
 43
0.0000000001
 40
0.0
 40
0.0
 40
0.0
 40
0.0
 40
0.0559027205312216
 40
0.1550408034104971
 40
0.2537472828192688
 40
0.3520456433542037
 40
0.4500077178080374
 40
0.5479146760268305
 40
0.6461083378052805
 40
0.7448957573017533
 40
0.8446877186627897
 40
0.9458211952239196
 40
1.0
 40
1.0
 40
1.0
 40
1.0
 10
2168.813844663119
 20
854.5080351442852
 30
0.0
 10
2168.812149172272
 20
854.5304736796332
 30
0.0
 10
2168.807446891941
 20
854.5927047931582
 30
0.0
 10
2168.788733384604
 20
854.6962678763243
 30
0.0
 10
2168.754764803335
 20
854.8173872146337
 30
0.0
 10
2168.70873972455
 20
854.9367821549353
 30
0.0
 10
2168.651863245701
 20
855.0526976758899
 30
0.0
 10
2168.585005253182
 20
855.1635187783434
 30
0.0
 10
2168.509058355476
 20
855.26765243489
 30
0.0
 10
2168.424833256488
 20
855.3636357935262
 30
0.0
 10
2168.332953125021
 20
855.4496612817485
 30
0.0
 10
2168.250003594443
 20
855.5130257246842
 30
0.0
 10
2168.197224801695
 20
855.5449437121003
 30
0.0
 10
2168.178813560265
 20
855.5560779147157
 30
0.0
  0
LINE
  5
94F
330
946
100
AcDbEntity
  8
0
  6
Continuous
 62
     7
370
    15
100
AcDbLine
 10
2156.556445092018
 20
842.8561195683833
 30
0.0
 11
2158.215361310464
 21
843.6535239174961
 31
0.0
  0
LINE
  5
950
330
946
100
AcDbEntity
  8
0
  6
Continuous
 62
     7
370
    15
100
AcDbLine
 10
2155.581168049076
 20
843.265824861252
 30
0.0
 11
2156.272289671072
 21
842.8668488413171
 31
0.0
  0
LINE
  5
951
330
946
100
AcDbEntity
  8
0
  6
Continuous
 62
     7
370
    15
100
AcDbLine
 10
2168.178809336396
 20
855.5560803530923
 30
0.0
 11
2160.432204513369
 21
860.0281001278082
 31
0.0
  0
LINE
  5
952
330
946
100
AcDbEntity
  8
0
  6
Continuous
 62
     7
370
    15
100
AcDbLine
 10
2162.023881320746
 20
849.6258766194397
 30
0.0
 11
2157.085676032659
 21
846.5725177567774
 31
0.0
  0
ARC
  5
953
330
946
100
AcDbEntity
  8
0
  6
Continuous
 62
     7
370
    15
100
AcDbCircle
 10
2155.73340567612
 20
843.529536739847
 30
0.0
 40
0.3044999999999877
100
AcDbArc
 50
179.9999999999935
 51
240.0026882663331
  0
LINE
  5
954
330
946
100
AcDbEntity
  8
0
  6
Continuous
 62
     7
370
    15
100
AcDbLine
 10
2158.219447728749
 20
843.655603273371
 30
0.0
 11
2160.561225330954
 21
844.9147058887389
 31
0.0
  0
ARC
  5
955
330
946
100
AcDbEntity
  8
0
  6
Continuous
 62
     7
370
    15
100
AcDbCircle
 10
2155.733405676119
 20
841.426857245681
 30
0.0
 40
0.3045000000000355
100
AcDbArc
 50
124.322089362081
 51
179.999999999987
  0
LINE
  5
956
330
946
100
AcDbEntity
  8
0
  6
Continuous
 62
     7
370
    15
100
AcDbLine
 10
2157.0818317004
 20
842.7161502809596
 30
0.0
 11
2155.561715027558
 21
841.6783380027901
 31
0.0
  0
LINE
  5
957
330
946
100
AcDbEntity
  8
0
  6
Continuous
 62
     7
370
    15
100
AcDbLine
 10
2155.42890567612
 20
841.426857245681
 30
0.0
 11
2155.428905676119
 21
839.0955159961041
 31
0.0
  0
ARC
  5
958
330
946
100
AcDbEntity
  8
0
  6
Continuous
 62
     7
370
    15
100
AcDbCircle
 10
2152.252495769034
 20
846.7929389043781
 30
0.0
 40
0.3045000000000269
100
AcDbArc
 50
124.3220893620737
 51
179.999999999987
  0
LINE
  5
959
330
946
100
AcDbEntity
  8
0
  6
Continuous
 62
     7
370
    15
100
AcDbLine
 10
2153.600921793315
 20
848.0822319396569
 30
0.0
 11
2152.080805120472
 21
847.0444196614874
 31
0.0
  0
LINE
  5
95A
330
946
100
AcDbEntity
  8
0
  6
Continuous
 62
     7
370
    15
100
AcDbLine
 10
2151.947995769035
 20
846.7929389043783
 30
0.0
 11
2151.947995769035
 21
845.5390232560846
 31
0.0
  0
ARC
  5
95B
330
946
100
AcDbEntity
  8
0
  6
Continuous
 62
     7
370
    15
100
AcDbCircle
 10
2152.94361739103
 20
845.1400472361497
 30
0.0
 40
0.3045000000000276
100
AcDbArc
 50
240.0026882663589
 51
295.6725646803466
  0
LINE
  5
95C
330
946
100
AcDbEntity
  8
0
  6
Continuous
 62
     7
370
    15
100
AcDbLine
 10
2153.075535184931
 20
844.8656060846211
 30
0.0
 11
2154.734451403379
 21
845.6630104337344
 31
0.0
  0
LINE
  5
95D
330
946
100
AcDbEntity
  8
0
  6
Continuous
 62
     7
370
    15
100
AcDbLine
 10
2152.10025814199
 20
845.2753113774898
 30
0.0
 11
2152.791379763986
 21
844.8763353575548
 31
0.0
  0
ARC
  5
95E
330
946
100
AcDbEntity
  8
0
  6
Continuous
 62
     7
370
    15
100
AcDbCircle
 10
2156.424527298116
 20
838.696539976169
 30
0.0
 40
0.3044999999999982
100
AcDbArc
 50
240.0026882663364
 51
295.6725646803466
  0
LINE
  5
95F
330
946
100
AcDbEntity
  8
0
  6
Continuous
 62
     7
370
    15
100
AcDbLine
 10
2156.556445092017
 20
838.4220988246404
 30
0.0
 11
2158.215361310464
 21
839.2195031737532
 31
0.0
  0
LINE
  5
960
330
946
100
AcDbEntity
  8
0
  6
Continuous
 62
     7
370
    15
100
AcDbLine
 10
2155.581168049076
 20
838.8318041175091
 30
0.0
 11
2156.272289671072
 21
838.4328280975742
 31
0.0
  0
SPLINE
  5
961
330
946
100
AcDbEntity
  8
0
  6
Continuous
 62
     7
370
    15
100
AcDbSpline
210
0.0
220
0.0
230
1.0
 70
     8
 71
     3
 72
    10
 73
     6
 74
     0
 42
0.0000000001
 43
0.0000000001
 40
0.0
 40
0.0
 40
0.0
 40
0.0
 40
0.2220944221610181
 40
0.6357415924114289
 40
1.0
 40
1.0
 40
1.0
 40
1.0
 10
2160.561225330954
 20
844.914705888739
 30
0.0
 10
2160.566797977541
 20
844.9175391445733
 30
0.0
 10
2160.582749585785
 20
844.9256492923128
 30
0.0
 10
2160.600410321622
 20
844.9307213515613
 30
0.0
 10
2160.601891195353
 20
844.9307866936356
 30
0.0
 10
2160.602584622322
 20
844.9308172904082
 30
0.0
  0
LINE
  5
962
330
946
100
AcDbEntity
  8
0
  6
Continuous
 62
     7
370
    15
100
AcDbLine
 10
2159.347104387288
 20
844.1169208800452
 30
0.0
 11
2157.085676032658
 21
842.7186492598794
 31
0.0
  0
ARC
  5
963
330
946
100
AcDbEntity
  8
0
  6
Continuous
 62
     7
370
    15
100
AcDbCircle
 10
2152.252495769034
 20
845.5390232560846
 30
0.0
 40
0.3045000000000227
100
AcDbArc
 50
179.9999999999935
 51
240.0026882663589
  0
ARC
  5
964
330
946
100
AcDbEntity
  8
0
  6
Continuous
 62
     7
370
    15
100
AcDbCircle
 10
2155.733405676119
 20
839.0955159961039
 30
0.0
 40
0.3045000000000019
100
AcDbArc
 50
179.999999999987
 51
240.0026882663331
  0
LINE
  5
965
330
946
100
AcDbEntity
  8
0
  6
Continuous
 62
     7
370
    15
100
AcDbLine
 10
2158.542971413659
 20
851.1380897812385
 30
0.0
 11
2153.604766125572
 21
848.0847309185767
 31
0.0
  0
LINE
  5
966
330
946
100
AcDbEntity
  8
0
  6
Continuous
 62
     7
370
    15
100
AcDbLine
 10
2154.738537821664
 20
845.6650897896091
 30
0.0
 11
2157.080315423868
 21
846.9241924049764
 31
0.0
  0
LINE
  5
967
330
946
100
AcDbEntity
  8
0
  6
Continuous
 62
     7
370
    15
100
AcDbLine
 10
2158.219447728749
 20
839.2215825296283
 30
0.0
 11
2163.333108981143
 21
841.971042705067
 31
0.0
  0
LINE
  5
968
330
946
100
AcDbEntity
  8
0
  6
Continuous
 62
     7
370
    15
100
AcDbLine
 10
2164.180432763474
 20
850.8708807940964
 30
0.0
 11
2162.026514502801
 21
849.6274502493729
 31
0.0
  0
ARC
  5
969
330
946
100
AcDbEntity
  8
0
  6
Continuous
 62
     7
370
    15
100
AcDbCircle
 10
2152.252495769034
 20
843.4363437619188
 30
0.0
 40
0.304500000000059
100
AcDbArc
 50
124.3220893620773
 51
179.999999999987
  0
LINE
  5
96A
330
946
100
AcDbEntity
  8
0
  6
Continuous
 62
     7
370
    15
100
AcDbLine
 10
2153.600921793316
 20
844.7256367971984
 30
0.0
 11
2152.080805120471
 21
843.6878245190278
 31
0.0
  0
LINE
  5
96B
330
946
100
AcDbEntity
  8
0
  6
Continuous
 62
     7
370
    15
100
AcDbLine
 10
2151.947995769034
 20
843.436343761919
 30
0.0
 11
2151.947995769034
 21
841.1050025123417
 31
0.0
  0
SPLINE
  5
96C
330
946
100
AcDbEntity
  8
0
  6
Continuous
 62
     7
370
    15
100
AcDbSpline
210
0.0
220
0.0
230
1.0
 70
     8
 71
     3
 72
    13
 73
     9
 74
     0
 42
0.0000000001
 43
0.0000000001
 40
0.0
 40
0.0
 40
0.0
 40
0.0
 40
0.1010031011890114
 40
0.297539866289633
 40
0.4936098729718089
 40
0.6864794672103915
 40
0.8744238285228501
 40
1.0
 40
1.0
 40
1.0
 40
1.0
 10
2159.557453218832
 20
844.3750081435659
 30
0.0
 10
2159.552106589183
 20
844.3633897982468
 30
0.0
 10
2159.536356226553
 20
844.3291639094177
 30
0.0
 10
2159.50259190985
 20
844.275036030922
 30
0.0
 10
2159.459167720006
 20
844.2167695133289
 30
0.0
 10
2159.414139558648
 20
844.1685926638173
 30
0.0
 10
2159.375426001357
 20
844.1355053070287
 30
0.0
 10
2159.355204015071
 20
844.1222357939745
 30
0.0
 10
2159.347104387288
 20
844.1169208800456
 30
0.0
  0
ARC
  5
96D
330
946
100
AcDbEntity
  8
0
  6
Continuous
 62
     7
370
    15
100
AcDbCircle
 10
2152.943617391029
 20
840.7060264924067
 30
0.0
 40
0.304499999999984
100
AcDbArc
 50
240.0026882663589
 51
295.6725646803466
  0
LINE
  5
96E
330
946
100
AcDbEntity
  8
0
  6
Continuous
 62
     7
370
    15
100
AcDbLine
 10
2153.075535184931
 20
840.4315853408782
 30
0.0
 11
2154.734451403379
 21
841.2289896899915
 31
0.0
  0
LINE
  5
96F
330
946
100
AcDbEntity
  8
0
  6
Continuous
 62
     7
370
    15
100
AcDbLine
 10
2152.10025814199
 20
840.8412906337469
 30
0.0
 11
2152.791379763986
 21
840.4423146138119
 31
0.0
  0
SPLINE
  5
970
330
946
100
AcDbEntity
  8
0
  6
Continuous
 62
     7
370
    15
100
AcDbSpline
210
0.0
220
0.0
230
1.0
 70
     8
 71
     3
 72
    10
 73
     6
 74
     0
 42
0.0000000001
 43
0.0000000001
 40
0.0
 40
0.0
 40
0.0
 40
0.0
 40
0.2220944221610364
 40
0.6357415924114815
 40
1.0
 40
1.0
 40
1.0
 40
1.0
 10
2157.080315423868
 20
846.9241924049766
 30
0.0
 10
2157.085888070455
 20
846.927025660811
 30
0.0
 10
2157.101839678698
 20
846.9351358085503
 30
0.0
 10
2157.119500414537
 20
846.9402078677989
 30
0.0
 10
2157.120981288267
 20
846.9402732098734
 30
0.0
 10
2157.121674715236
 20
846.9403038066459
 30
0.0
  0
LINE
  5
971
330
946
100
AcDbEntity
  8
0
  6
Continuous
 62
     7
370
    15
100
AcDbLine
 10
2159.802995039513
 20
860.0704233407888
 30
0.0
 11
2159.063348116731
 21
859.6744920633708
 31
0.0
  0
LINE
  5
972
330
946
100
AcDbEntity
  8
0
  6
Continuous
 62
     7
370
    15
100
AcDbLine
 10
2155.866194480202
 20
846.1264073962833
 30
0.0
 11
2153.604766125573
 21
844.728135776118
 31
0.0
  0
ARC
  5
973
330
946
100
AcDbEntity
  8
0
  6
Continuous
 62
     7
370
    15
100
AcDbCircle
 10
2152.252495769033
 20
841.1050025123417
 30
0.0
 40
0.3045000000000186
100
AcDbArc
 50
179.999999999987
 51
240.0026882663331
  0
SPLINE
  5
974
330
946
100
AcDbEntity
  8
0
  6
Continuous
 62
     7
370
    15
100
AcDbSpline
210
0.0
220
0.0
230
1.0
 70
     8
 71
     3
 72
    14
 73
    10
 74
     0
 42
0.0000000001
 43
0.0000000001
 40
0.0
 40
0.0
 40
0.0
 40
0.0
 40
0.0986879889110416
 40
0.2750757349003907
 40
0.4288009345044538
 40
0.5764831926312521
 40
0.719139884046045
 40
0.8583852052395174
 40
1.0
 40
1.0
 40
1.0
 40
1.0
 10
2160.432204513369
 20
860.0281001278084
 30
0.0
 10
2160.412464679459
 20
860.0389346312779
 30
0.0
 10
2160.357443299658
 20
860.0691339395931
 30
0.0
 10
2160.268243147345
 20
860.1041978733777
 30
0.0
 10
2160.166176367095
 20
860.1287208366963
 30
0.0
 10
2160.069653612948
 20
860.137096317757
 30
0.0
 10
2159.976550333318
 20
860.1302682848592
 30
0.0
 10
2159.886355989391
 20
860.1098557751964
 30
0.0
 10
2159.831240360188
 20
860.0834707650019
 30
0.0
 10
2159.803450054358
 20
860.070166961467
 30
0.0
  0
LINE
  5
975
330
946
100
AcDbEntity
  8
0
  6
Continuous
 62
     7
370
    15
100
AcDbLine
 10
2154.738537821664
 20
841.2310690458662
 30
0.0
 11
2155.5398013444
 21
841.6618840797646
 31
0.0
  0
SPLINE
  5
976
330
946
100
AcDbEntity
  8
0
  6
Continuous
 62
     7
370
    15
100
AcDbSpline
210
0.0
220
0.0
230
1.0
 70
     8
 71
     3
 72
    13
 73
     9
 74
     0
 42
0.0000000001
 43
0.0000000001
 40
0.0
 40
0.0
 40
0.0
 40
0.0
 40
0.1010031011864818
 40
0.2975398662872116
 40
0.4936098729694415
 40
0.6864794672082316
 40
0.8744238285207382
 40
1.0
 40
1.0
 40
1.0
 40
1.0
 10
2156.076543311745
 20
846.3844946598035
 30
0.0
 10
2156.071196682098
 20
846.3728763144848
 30
0.0
 10
2156.055446319467
 20
846.3386504256558
 30
0.0
 10
2156.021682002764
 20
846.2845225471605
 30
0.0
 10
2155.978257812921
 20
846.2262560295673
 30
0.0
 10
2155.933229651562
 20
846.1780791800554
 30
0.0
 10
2155.894516094271
 20
846.1449918232668
 30
0.0
 10
2155.874294107984
 20
846.1317223102124
 30
0.0
 10
2155.866194480202
 20
846.1264073962833
 30
0.0
  0
LINE
  5
977
330
946
100
AcDbEntity
  8
0
  6
Continuous
 62
     7
370
    15
100
AcDbLine
 10
2160.699522856388
 20
852.3830939558957
 30
0.0
 11
2158.545604595714
 21
851.1396634111717
 31
0.0
  0
LINE
  5
978
330
946
100
AcDbEntity
  8
0
  6
Continuous
 62
     7
370
    15
100
AcDbLine
 10
2168.103814269456
 20
841.1832379963637
 30
0.0
 11
2168.81656580371
 21
841.6257585012456
 31
0.0
  0
LINE
  5
979
330
946
100
AcDbEntity
  8
0
  6
Continuous
 62
     7
370
    15
100
AcDbLine
 10
2163.335788492954
 20
841.9725360286266
 30
0.0
 11
2165.489706753628
 21
843.2159665733502
 31
0.0
  0
SPLINE
  5
97A
330
946
100
AcDbEntity
  8
0
  6
Continuous
 62
     7
370
    15
100
AcDbSpline
210
0.0
220
0.0
230
1.0
 70
     8
 71
     3
 72
    13
 73
     9
 74
     0
 42
0.0000000001
 43
0.0000000001
 40
0.0
 40
0.0
 40
0.0
 40
0.0
 40
0.1311140891924618
 40
0.3198746810205227
 40
0.5086109212849422
 40
0.7005884314500724
 40
0.8987033555597818
 40
1.0
 40
1.0
 40
1.0
 40
1.0
 10
2168.816199569903
 20
841.6276843710559
 30
0.0
 10
2168.834563005177
 20
841.6391709671142
 30
0.0
 10
2168.879363667233
 20
841.6671944333401
 30
0.0
 10
2168.939094126995
 20
841.7269949547481
 30
0.0
 10
2168.995296672683
 20
841.8023169895699
 30
0.0
 10
2169.039038673895
 20
841.8875854201619
 30
0.0
 10
2169.065741826854
 20
841.9649201986521
 30
0.0
 10
2169.076217180133
 20
842.014110950134
 30
0.0
 10
2169.079761191949
 20
842.0307531195957
 30
0.0
  0
ARC
  5
97B
330
946
100
AcDbEntity
  8
0
  6
Continuous
 62
     7
370
    15
100
AcDbCircle
 10
2156.425033807706
 20
845.1759425044578
 30
0.0
 40
0.470864254594668
100
AcDbArc
 50
242.7193274309252
 51
295.8373006085281
  0
ARC
  5
97C
330
946
100
AcDbEntity
  8
0
  6
Continuous
 62
     7
370
    15
100
AcDbCircle
 10
2156.679483553021
 20
844.7351492049442
 30
0.0
 40
0.470798813621992
100
AcDbArc
 50
124.15880016094
 51
177.2848045368809
  0
ARC
  5
97D
330
946
100
AcDbEntity
  8
0
  6
Continuous
 62
     7
370
    15
100
AcDbCircle
 10
2156.124019152912
 20
844.7082653070236
 30
0.0
 40
0.5081238201811996
100
AcDbArc
 50
4.954370925002905
 51
55.04562922060355
  0
LINE
  5
97E
330
946
100
AcDbEntity
  8
0
  6
Continuous
 62
     7
370
    15
100
AcDbLine
 10
2158.287955176523
 20
845.7091369599929
 30
0.0
 11
2156.630244516335
 21
844.7521480834009
 31
0.0
  0
LINE
  5
97F
330
946
100
AcDbEntity
  8
0
  6
Continuous
 62
     7
370
    15
100
AcDbLine
 10
2156.415135432696
 20
845.1247279443393
 30
0.0
 11
2158.072845978351
 21
846.081717019309
 31
0.0
  0
ELLIPSE
  5
980
330
946
100
AcDbEntity
  8
0
  6
Continuous
 62
     7
370
    15
100
AcDbEllipse
 10
2158.079299079895
 20
845.8370421300296
 30
0.0
 11
-0.1522387218759036
 21
0.2637112465591542
 31
0.0
210
0.0
220
0.0
230
0.9999999999999998
 40
0.5416967155013398
 41
3.928034084623025
 42
5.496901780631763
  0
LINE
  5
981
330
946
100
AcDbEntity
  8
0
  6
Continuous
 62
     7
370
    15
100
AcDbLine
 10
2156.630244516335
 20
844.7521480834009
 30
0.0
 11
2156.630244516335
 21
843.0009590806688
 31
0.0
  0
ARC
  5
982
330
946
100
AcDbEntity
  8
0
  6
Continuous
 62
     7
370
    15
100
AcDbCircle
 10
2156.425033807706
 20
843.4247535017261
 30
0.0
 40
0.4708642545950477
100
AcDbArc
 50
242.7193274309513
 51
295.8373006085225
  0
LINE
  5
983
330
946
100
AcDbEntity
  8
0
  6
Continuous
 62
     7
370
    15
100
AcDbLine
 10
2156.209213283245
 20
843.006262584887
 30
0.0
 11
2156.209213283245
 21
844.7574515876191
 31
0.0
  0
LINE
  5
984
330
946
100
AcDbEntity
  8
0
  6
Continuous
 62
     7
370
    15
100
AcDbLine
 10
2156.209213283245
 20
844.7574515876191
 30
0.0
 11
2155.518091661249
 21
845.156427607554
 31
0.0
  0
ARC
  5
985
330
946
100
AcDbEntity
  8
0
  6
Continuous
 62
     7
370
    15
100
AcDbCircle
 10
2155.988361931025
 20
845.134125224879
 30
0.0
 40
0.47079881362228
100
AcDbArc
 50
124.1588001609437
 51
177.2848045368614
  0
LINE
  5
986
330
946
100
AcDbEntity
  8
0
  6
Continuous
 62
     7
370
    15
100
AcDbLine
 10
2155.7240138107
 20
845.5237039642742
 30
0.0
 11
2156.415135432696
 21
845.1247279443393
 31
0.0
  0
LINE
  5
987
330
946
100
AcDbEntity
  8
0
  6
Continuous
 62
     7
370
    15
100
AcDbLine
 10
2158.287955176523
 20
845.7089383137986
 30
0.0
 11
2158.287955176523
 21
845.7091369599929
 31
0.0
  0
LINE
  5
988
330
946
100
AcDbEntity
  8
0
  6
Continuous
 62
     7
370
    15
100
AcDbLine
 10
2158.287955176523
 20
843.7979827230336
 30
0.0
 11
2158.287955176523
 21
845.7089383137986
 31
0.0
  0
LINE
  5
989
330
946
100
AcDbEntity
  8
0
  6
Continuous
 62
     7
370
    15
100
AcDbLine
 10
2158.287955176523
 20
843.7977840768391
 30
0.0
 11
2158.287955176523
 21
843.7979827230336
 31
0.0
  0
LINE
  5
98A
330
946
100
AcDbEntity
  8
0
  6
Continuous
 62
     7
370
    15
100
AcDbLine
 10
2156.630244516335
 20
843.0009590806688
 30
0.0
 11
2158.287955176523
 21
843.7977840768391
 31
0.0
  0
LINE
  5
98B
330
946
100
AcDbEntity
  8
0
  6
Continuous
 62
     7
370
    15
100
AcDbLine
 10
2157.243025880665
 20
846.5607619649448
 30
0.0
 11
2155.7240138107
 21
845.5237039642742
 31
0.0
  0
LINE
  5
98C
330
946
100
AcDbEntity
  8
0
  6
Continuous
 62
     7
370
    15
100
AcDbLine
 10
2157.243197903996
 20
846.5606626579894
 30
0.0
 11
2157.243025880665
 21
846.5607619649448
 31
0.0
  0
LINE
  5
98D
330
946
100
AcDbEntity
  8
0
  6
Continuous
 62
     7
370
    15
100
AcDbLine
 10
2158.072673955019
 20
846.0818163262647
 30
0.0
 11
2157.243197903996
 21
846.5606626579894
 31
0.0
  0
LINE
  5
98E
330
946
100
AcDbEntity
  8
0
  6
Continuous
 62
     7
370
    15
100
AcDbLine
 10
2158.072845978351
 20
846.081717019309
 30
0.0
 11
2158.072673955019
 21
846.0818163262647
 31
0.0
  0
LINE
  5
98F
330
946
100
AcDbEntity
  8
0
  6
Continuous
 62
     7
370
    15
100
AcDbLine
 10
2155.518091661249
 20
843.405238604822
 30
0.0
 11
2156.209213283245
 21
843.006262584887
 31
0.0
  0
LINE
  5
990
330
946
100
AcDbEntity
  8
0
  6
Continuous
 62
     7
370
    15
100
AcDbLine
 10
2155.518091661249
 20
845.156427607554
 30
0.0
 11
2155.518091661249
 21
843.405238604822
 31
0.0
  0
ARC
  5
991
330
946
100
AcDbEntity
  8
0
  6
Continuous
 62
     7
370
    15
100
AcDbCircle
 10
2165.407936889487
 20
843.3369385703016
 30
0.0
 40
0.1460155290646152
100
AcDbArc
 50
304.0563508745976
 51
7.255829518008626
  0
LINE
  5
992
330
946
100
AcDbEntity
  8
0
  6
Continuous
 62
     7
370
    15
100
AcDbLine
 10
2165.552783141457
 20
843.3553803169209
 30
0.0
 11
2165.552783141451
 21
849.9028128170239
 31
0.0
  0
ARC
  5
993
330
946
100
AcDbEntity
  8
0
  6
Continuous
 62
     7
370
    15
100
AcDbCircle
 10
2165.085309838608
 20
849.8815401875294
 30
0.0
 40
0.4679570638818769
100
AcDbArc
 50
2.605478483491291
 51
57.39452166080816
  0
LINE
  5
994
330
946
100
AcDbEntity
  8
0
  6
Continuous
 62
     7
370
    15
100
AcDbLine
 10
2165.337469126585
 20
850.2757476292705
 30
0.0
 11
2164.332670390514
 21
850.8558055927181
 31
0.0
  0
ARC
  5
995
330
946
100
AcDbEntity
  8
0
  6
Continuous
 62
     7
370
    15
100
AcDbCircle
 10
2164.243476233813
 20
850.7313012280167
 30
0.0
 40
0.1531565683192422
100
AcDbArc
 50
54.38242252181274
 51
114.307119046926
  0
LINE
  5
996
330
946
100
AcDbEntity
  8
0
  6
Continuous
 62
     7
370
    15
100
AcDbLine
 10
2162.071873234371
 20
851.4150259788262
 30
0.0
 11
2162.071873234371
 21
849.6536352877441
 31
0.0
  0
ARC
  5
997
330
946
100
AcDbEntity
  8
0
  6
Continuous
 62
     7
370
    15
100
AcDbCircle
 10
2161.604399931501
 20
851.3937533493111
 30
0.0
 40
0.4679570639090184
100
AcDbArc
 50
2.605478485858085
 51
57.39452165975653
  0
LINE
  5
998
330
946
100
AcDbEntity
  8
0
  6
Continuous
 62
     7
370
    15
100
AcDbLine
 10
2161.856559219499
 20
851.7879607910703
 30
0.0
 11
2160.851760483433
 21
852.3680187545204
 31
0.0
  0
ARC
  5
999
330
946
100
AcDbEntity
  8
0
  6
Continuous
 62
     7
370
    15
100
AcDbCircle
 10
2160.762566326731
 20
852.2435143897988
 30
0.0
 40
0.1531565683363746
100
AcDbArc
 50
54.38242252577826
 51
114.3071190456112
  0
SPLINE
  5
99A
330
946
100
AcDbEntity
  8
0
  6
Continuous
 62
     7
370
    15
100
AcDbSpline
210
0.0
220
0.0
230
1.0
 70
     8
 71
     3
 72
    26
 73
    22
 74
     0
 42
0.0000000001
 43
0.0000000001
 40
0.0
 40
0.0
 40
0.0
 40
0.0
 40
0.087366363029978
 40
0.1667150982224276
 40
0.2380462524099855
 40
0.3013598902169301
 40
0.3160174236594375
 40
0.3301681267792338
 40
0.3438120016437116
 40
0.3569490505595443
 40
0.3695792761110936
 40
0.3817026812068399
 40
0.3953324413104327
 40
0.4978507131006439
 40
0.5966393517707535
 40
0.6901646462990811
 40
0.7784289994789005
 40
0.8760896490596604
 40
0.9237984287981763
 40
0.970637728152479
 40
1.0
 40
1.0
 40
1.0
 40
1.0
 10
2158.742606684122
 20
857.6288529668497
 30
0.0
 10
2158.729196891306
 20
857.4382355954375
 30
0.0
 10
2158.703607924923
 20
857.0744938452289
 30
0.0
 10
2158.66745925394
 20
856.5548612049967
 30
0.0
 10
2158.635299450982
 20
856.0875094214075
 30
0.0
 10
2158.61317021011
 20
855.7612349759443
 30
0.0
 10
2158.599676029041
 20
855.5598124400974
 30
0.0
 10
2158.593488424625
 20
855.4669713309564
 30
0.0
 10
2158.587554250182
 20
855.3774343821761
 30
0.0
 10
2158.581873471515
 20
855.291201615643
 30
0.0
 10
2158.57644632555
 20
855.2082728755848
 30
0.0
 10
2158.570985501721
 20
855.1242413783951
 30
0.0
 10
2158.552894125624
 20
854.843316695895
 30
0.0
 10
2158.523477607137
 20
854.3719949996615
 30
0.0
 10
2158.485595261229
 20
853.7238576713351
 30
0.0
 10
2158.452172096303
 20
853.1053464950041
 30
0.0
 10
2158.421843572024
 20
852.4874151248484
 30
0.0
 10
2158.39940674968
 20
851.968931942223
 30
0.0
 10
2158.383058591785
 20
851.5410533694378
 30
0.0
 10
2158.373294214578
 20
851.2647293091095
 30
0.0
 10
2158.368039198519
 20
851.0943326831995
 30
0.0
 10
2158.366014316255
 20
851.0286748237492
 30
0.0
  0
LINE
  5
99B
330
946
100
AcDbEntity
  8
0
  6
Continuous
 62
     7
370
    15
100
AcDbLine
 10
2158.845366628566
 20
859.2614735872222
 30
0.0
 11
2158.742606684122
 21
857.6288529668497
 31
0.0
  0
ARC
  5
99C
330
946
100
AcDbEntity
  8
0
  6
Continuous
 62
     7
370
    15
100
AcDbCircle
 10
2159.281732870952
 20
859.2832297898315
 30
0.0
 40
0.4369082625056801
100
AcDbArc
 50
50.21378149943035
 51
182.8542703997391
  0
LINE
  5
99D
330
946
100
AcDbEntity
  8
0
  6
Continuous
 62
     7
370
    15
100
AcDbLine
 10
2167.307930728265
 20
855.146944058935
 30
0.0
 11
2159.561321340059
 21
859.6189664690728
 31
0.0
  0
ARC
  5
99E
330
946
100
AcDbEntity
  8
0
  6
Continuous
 62
     7
370
    15
100
AcDbCircle
 10
2166.462944265759
 20
853.8274633905595
 30
0.0
 40
1.566853967680522
100
AcDbArc
 50
5.126788804608422
 51
57.36477698587304
  0
SPLINE
  5
99F
330
946
100
AcDbEntity
  8
0
  6
Continuous
 62
     7
370
    15
100
AcDbSpline
210
0.0
220
0.0
230
1.0
 70
     8
 71
     3
 72
    18
 73
    14
 74
     0
 42
0.0000000001
 43
0.0000000001
 40
0.0
 40
0.0
 40
0.0
 40
0.0
 40
0.0350659042084946
 40
0.0675468352493317
 40
0.0974585115577145
 40
0.1248210796545306
 40
0.1870220246460284
 40
0.2494325782732688
 40
0.3693519818882136
 40
0.4996103398952889
 40
0.7498023194319111
 40
0.8749011245192107
 40
1.0
 40
1.0
 40
1.0
 40
1.0
 10
2168.29089920567
 20
841.4880795261838
 30
0.0
 10
2168.314820279121
 20
841.6161472906136
 30
0.0
 10
2168.360899022673
 20
841.862841975378
 30
0.0
 10
2168.418959394135
 20
842.2254421640193
 30
0.0
 10
2168.465319627813
 20
842.5647836270851
 30
0.0
 10
2168.515152101409
 20
843.0251585497252
 30
0.0
 10
2168.547019246239
 20
843.6329243977661
 30
0.0
 10
2168.531872466875
 20
844.6497668676425
 30
0.0
 10
2168.490561202908
 20
845.9611328482377
 30
0.0
 10
2168.39693119438
 20
848.0749257088147
 30
0.0
 10
2168.266439428093
 20
850.2287214607926
 30
0.0
 10
2168.126402789554
 20
852.3657362106243
 30
0.0
 10
2168.057870711259
 20
853.4335391639325
 30
0.0
 10
2168.023604662471
 20
853.9674407908007
 30
0.0
  0
ARC
  5
9A0
330
946
100
AcDbEntity
  8
0
  6
Continuous
 62
     7
370
    15
100
AcDbCircle
 10
2167.865452327977
 20
841.5568448814665
 30
0.0
 40
0.4309251527321711
100
AcDbArc
 50
229.7606309444373
 51
350.8219191804837
  0
LINE
  5
9A1
330
946
100
AcDbEntity
  8
0
  6
Continuous
 62
     7
370
    15
100
AcDbLine
 10
2164.816489327365
 20
842.8273264256072
 30
0.0
 11
2167.587082283174
 21
841.227897157028
 31
0.0
  0
LINE
  5
9A2
330
946
100
AcDbEntity
  8
0
  6
Continuous
 62
     7
370
    15
100
AcDbLine
 10
2168.731009455346
 20
854.3961439714671
 30
0.0
 11
2168.02352986768
 21
853.9674774438214
 31
0.0
  0
SPLINE
  5
9A3
330
946
100
AcDbEntity
  8
0
  6
Continuous
 62
     7
370
    15
100
AcDbSpline
210
0.0
220
0.0
230
1.0
 70
     8
 71
     3
 72
    18
 73
    14
 74
     0
 42
0.0000000001
 43
0.0000000001
 40
0.0
 40
0.0
 40
0.0
 40
0.0
 40
0.0625000000000002
 40
0.0625000000000002
 40
0.1250000000000003
 40
0.1250000000000003
 40
0.1875000000000006
 40
0.1875000000000006
 40
0.2500000000000007
 40
0.2500000000000007
 40
0.5000000000000005
 40
0.5000000000000005
 40
1.0
 40
1.0
 40
1.0
 40
1.0
 10
2168.99869313994
 20
841.9225199229456
 30
0.0
 10
2169.042123898188
 20
842.1485911054256
 30
0.0
 10
2169.083319268151
 20
842.3795022463464
 30
0.0
 10
2169.154307137199
 20
842.8456699436226
 30
0.0
 10
2169.18438390752
 20
843.0824018178205
 30
0.0
 10
2169.228420776347
 20
843.5667213705785
 30
0.0
 10
2169.241646811242
 20
843.8148029446844
 30
0.0
 10
2169.250331370582
 20
844.322932758364
 30
0.0
 10
2169.24705146331
 20
844.5821313049123
 30
0.0
 10
2169.218431854281
 20
845.8863544433423
 30
0.0
 10
2169.176695253316
 20
846.940717371592
 30
0.0
 10
2169.017368718469
 20
850.1200352211409
 30
0.0
 10
2168.865598152428
 20
852.262385556075
 30
0.0
 10
2168.731084330806
 20
854.3961060384132
 30
0.0
  0
LINE
  5
9A4
330
946
100
AcDbEntity
  8
0
  6
Continuous
 62
     7
370
    15
100
AcDbLine
 10
2168.998653302861
 20
841.9225499243944
 30
0.0
 11
2168.290860499941
 21
841.488110796153
 31
0.0
  0
LINE
  5
9A5
330
946
100
AcDbEntity
  8
0
  6
Continuous
 62
     7
370
    15
100
AcDbLine
 10
2168.034377989778
 20
855.5443476394467
 30
0.0
 11
2167.307930728265
 21
855.146944058935
 31
0.0
  0
ARC
  5
9A6
330
946
100
AcDbEntity
  8
0
  6
Continuous
 62
     7
370
    15
100
AcDbCircle
 10
2167.213855741055
 20
854.2610952089386
 30
0.0
 40
1.523152507482904
100
AcDbArc
 50
5.086751466556647
 51
57.40481432391821
  0
ELLIPSE
  5
9A7
330
946
100
AcDbEntity
  8
0
  6
Continuous
 62
     7
370
    15
100
AcDbEllipse
 10
2157.249724645648
 20
846.3159452571797
 30
0.0
 11
-0.1659849179323772
 21
0.255344760741906
 31
0.0
210
0.0
220
0.0
230
1.0
 40
0.5767479168239103
 41
5.468317519613285
 42
6.296237703910054
  0
ELLIPSE
  5
9A8
330
946
100
AcDbEntity
  8
0
  6
Continuous
 62
     7
370
    15
100
AcDbEllipse
 10
2163.186207994812
 20
848.7852143351926
 30
0.0
 11
-0.1522379454461031
 21
0.2637116947851155
 31
0.0
210
0.0
220
0.0
230
1.0
 40
0.5673056664932395
 41
3.927224365397041
 42
5.497714753470338
  0
LINE
  5
9A9
330
946
100
AcDbEntity
  8
0
  6
Continuous
 62
     7
370
    15
100
AcDbLine
 10
2163.399642992743
 20
848.6598693324634
 30
0.0
 11
2158.287955176523
 21
845.7089383137986
 31
0.0
  0
LINE
  5
9AA
330
946
100
AcDbEntity
  8
0
  6
Continuous
 62
     7
370
    15
100
AcDbLine
 10
2158.072673955019
 20
846.0818163262647
 30
0.0
 11
2163.184361768742
 21
849.032747349254
 31
0.0
  0
LINE
  5
9AB
330
946
100
AcDbEntity
  8
0
  6
Continuous
 62
     7
370
    15
100
AcDbLine
 10
2163.399642992743
 20
848.6598314667766
 30
0.0
 11
2163.399642992743
 21
848.6598693324634
 31
0.0
  0
LINE
  5
9AC
330
946
100
AcDbEntity
  8
0
  6
Continuous
 62
     7
370
    15
100
AcDbLine
 10
2163.399642992742
 20
842.1123989666703
 30
0.0
 11
2163.399642992743
 21
848.6598314667766
 31
0.0
  0
LINE
  5
9AD
330
946
100
AcDbEntity
  8
0
  6
Continuous
 62
     7
370
    15
100
AcDbLine
 10
2163.399642992742
 20
842.1123610981
 30
0.0
 11
2163.399642992742
 21
842.1123989666702
 31
0.0
  0
LINE
  5
9AE
330
946
100
AcDbEntity
  8
0
  6
Continuous
 62
     7
370
    15
100
AcDbLine
 10
2158.287955176522
 20
839.3639619792907
 30
0.0
 11
2163.399642992742
 21
842.1123610981
 31
0.0
  0
LINE
  5
9AF
330
946
100
AcDbEntity
  8
0
  6
Continuous
 62
     7
370
    15
100
AcDbLine
 10
2158.287955176522
 20
839.3639619792907
 30
0.0
 11
2158.287955176523
 21
841.8550698169008
 31
0.0
  0
LINE
  5
9B0
330
946
100
AcDbEntity
  8
0
  6
Continuous
 62
     7
370
    15
100
AcDbLine
 10
2160.62855008908
 20
843.2062740345036
 30
0.0
 11
2158.287955176523
 21
841.8550698169008
 31
0.0
  0
ELLIPSE
  5
9B1
330
946
100
AcDbEntity
  8
0
  6
Continuous
 62
     7
370
    15
100
AcDbEllipse
 10
2160.620903410222
 20
843.6992087792575
 30
0.0
 11
0.3125771255051006
 21
0.5227179347035929
 31
0.0
210
0.0
220
0.0
230
1.0
 40
0.5873687162540864
 41
3.953399512249211
 42
5.506742546524536
  0
LINE
  5
9B2
330
946
100
AcDbEntity
  8
0
  6
Continuous
 62
     7
370
    15
100
AcDbLine
 10
2161.059048080185
 20
844.7992459583113
 30
0.0
 11
2161.059048080185
 21
843.9434657852729
 31
0.0
  0
ELLIPSE
  5
9B3
330
946
100
AcDbEntity
  8
0
  6
Continuous
 62
     7
370
    15
100
AcDbEllipse
 10
2160.620903410223
 20
844.5549889522958
 30
0.0
 11
0.3125771255051006
 21
0.5227179347035929
 31
0.0
210
0.0
220
0.0
230
1.0
 40
0.5873687162540864
 41
5.506742546525407
 42
7.060085580801288
  0
LINE
  5
9B4
330
946
100
AcDbEntity
  8
0
  6
Continuous
 62
     7
370
    15
100
AcDbLine
 10
2158.287955176523
 20
843.7979827230336
 30
0.0
 11
2160.628550089081
 21
845.056449442138
 31
0.0
  0
LINE
  5
9B5
330
946
100
AcDbEntity
  8
0
  6
Continuous
 62
     7
370
    15
100
AcDbLine
 10
2162.179497450935
 20
849.6128431722375
 30
0.0
 11
2157.243197903996
 21
846.5606626579894
 31
0.0
  0
LINE
  5
9B6
330
946
100
AcDbEntity
  8
0
  6
Continuous
 62
     7
370
    15
100
AcDbLine
 10
2162.179530241805
 20
849.6128242424708
 30
0.0
 11
2162.179497450935
 21
849.6128431722375
 31
0.0
  0
LINE
  5
9B7
330
946
100
AcDbEntity
  8
0
  6
Continuous
 62
     7
370
    15
100
AcDbLine
 10
2163.184328977871
 20
849.0327662790207
 30
0.0
 11
2162.179530241805
 21
849.6128242424708
 31
0.0
  0
LINE
  5
9B8
330
946
100
AcDbEntity
  8
0
  6
Continuous
 62
     7
370
    15
100
AcDbLine
 10
2163.184361768742
 20
849.0327473492541
 30
0.0
 11
2163.184328977871
 21
849.0327662790209
 31
0.0
  0
LINE
  5
9B9
330
946
100
AcDbEntity
  8
0
  6
Continuous
 62
     7
370
    15
100
AcDbLine
 10
2160.287769672772
 20
860.016369431158
 30
0.0
 11
2159.561321340059
 21
859.6189664690728
 31
0.0
  0
LINE
  5
9BA
330
946
100
AcDbEntity
  8
0
  6
Continuous
 62
     7
370
    15
100
AcDbLine
 10
2168.034377989778
 20
855.5443476394467
 30
0.0
 11
2160.287769672772
 21
860.016369431158
 31
0.0
  0
ELLIPSE
  5
9BB
330
946
100
AcDbEntity
  8
0
  6
Continuous
 62
     7
370
    15
100
AcDbEllipse
 10
2158.079299079895
 20
843.9259729299479
 30
0.0
 11
-0.1381172042516994
 21
0.2714324545725901
 31
0.0
210
0.0
220
0.0
230
1.0
 40
0.5767421923540035
 41
3.128540515610464
 42
3.956622611563462
  0
ELLIPSE
  5
9BC
330
946
100
AcDbEntity
  8
0
  6
Continuous
 62
     7
370
    15
100
AcDbEllipse
 10
2162.181409258747
 20
849.3652722986425
 30
0.0
 11
-0.1562172926269057
 21
0.2614010847285613
 31
0.0
210
0.0
220
0.0
230
1.0
 40
0.5772944525288601
 41
5.489295972622978
 42
6.291910029851692
  0
ARC
  5
9BD
330
946
100
AcDbEntity
  8
0
  6
Continuous
 62
     7
370
    15
100
AcDbCircle
 10
2156.124019152913
 20
840.8543968101268
 30
0.0
 40
0.5081238201795446
100
AcDbArc
 50
4.954370924903313
 51
55.04562922069001
  0
ARC
  5
9BE
330
946
100
AcDbEntity
  8
0
  6
Continuous
 62
     7
370
    15
100
AcDbCircle
 10
2156.425033807706
 20
841.3220740075589
 30
0.0
 40
0.4708642545938642
100
AcDbArc
 50
242.7193274308901
 51
295.8373006085836
  0
ARC
  5
9BF
330
946
100
AcDbEntity
  8
0
  6
Continuous
 62
     7
370
    15
100
AcDbCircle
 10
2156.67948355302
 20
840.8812807080462
 30
0.0
 40
0.4707988136220489
100
AcDbArc
 50
124.1588001609364
 51
177.2848045368679
  0
LINE
  5
9C0
330
946
100
AcDbEntity
  8
0
  6
Continuous
 62
     7
370
    15
100
AcDbLine
 10
2156.415135432696
 20
841.2708594474414
 30
0.0
 11
2158.072845978351
 21
842.227848522411
 31
0.0
  0
ELLIPSE
  5
9C1
330
946
100
AcDbEntity
  8
0
  6
Continuous
 62
     7
370
    15
100
AcDbEllipse
 10
2158.079299079895
 20
841.9831736331314
 30
0.0
 11
-0.152238721875932
 21
0.2637112465591542
 31
0.0
210
0.0
220
0.0
230
0.9999999999999998
 40
0.5416967155012679
 41
3.92803408462394
 42
5.496901780631716
  0
LINE
  5
9C2
330
946
100
AcDbEntity
  8
0
  6
Continuous
 62
     7
370
    15
100
AcDbLine
 10
2158.287955176523
 20
841.8552684630951
 30
0.0
 11
2156.630244516335
 21
840.898279586503
 31
0.0
  0
LINE
  5
9C3
330
946
100
AcDbEntity
  8
0
  6
Continuous
 62
     7
370
    15
100
AcDbLine
 10
2156.209213283244
 20
838.5722418411441
 30
0.0
 11
2156.209213283244
 21
840.9035830907212
 31
0.0
  0
LINE
  5
9C4
330
946
100
AcDbEntity
  8
0
  6
Continuous
 62
     7
370
    15
100
AcDbLine
 10
2156.630244516335
 20
840.898279586503
 30
0.0
 11
2156.630244516334
 21
838.5669383369259
 31
0.0
  0
ARC
  5
9C5
330
946
100
AcDbEntity
  8
0
  6
Continuous
 62
     7
370
    15
100
AcDbCircle
 10
2156.425033807705
 20
838.9907327579827
 30
0.0
 40
0.4708642545945548
100
AcDbArc
 50
242.7193274309222
 51
295.8373006085516
  0
LINE
  5
9C6
330
946
100
AcDbEntity
  8
0
  6
Continuous
 62
     7
370
    15
100
AcDbLine
 10
2155.7240138107
 20
841.6698354673764
 30
0.0
 11
2156.415135432696
 21
841.2708594474414
 31
0.0
  0
LINE
  5
9C7
330
946
100
AcDbEntity
  8
0
  6
Continuous
 62
     7
370
    15
100
AcDbLine
 10
2156.209213283244
 20
840.9035830907212
 30
0.0
 11
2155.518091661249
 21
841.3025591106562
 31
0.0
  0
ARC
  5
9C8
330
946
100
AcDbEntity
  8
0
  6
Continuous
 62
     7
370
    15
100
AcDbCircle
 10
2155.988361931025
 20
841.2802567279809
 30
0.0
 40
0.4707988136224901
100
AcDbArc
 50
124.1588001609689
 51
177.2848045368484
  0
LINE
  5
9C9
330
946
100
AcDbEntity
  8
0
  6
Continuous
 62
     7
370
    15
100
AcDbLine
 10
2158.287955176522
 20
839.3637632008374
 30
0.0
 11
2158.287955176522
 21
839.3639619792907
 31
0.0
  0
LINE
  5
9CA
330
946
100
AcDbEntity
  8
0
  6
Continuous
 62
     7
370
    15
100
AcDbLine
 10
2156.630244516334
 20
838.5669383369259
 30
0.0
 11
2158.287955176522
 21
839.3637632008374
 31
0.0
  0
LINE
  5
9CB
330
946
100
AcDbEntity
  8
0
  6
Continuous
 62
     7
370
    15
100
AcDbLine
 10
2158.287955176523
 20
841.8550698169008
 30
0.0
 11
2158.287955176523
 21
841.8552684630951
 31
0.0
  0
LINE
  5
9CC
330
946
100
AcDbEntity
  8
0
  6
Continuous
 62
     7
370
    15
100
AcDbLine
 10
2158.072673955019
 20
842.2279478293667
 30
0.0
 11
2157.243197903996
 21
842.7067941610916
 31
0.0
  0
LINE
  5
9CD
330
946
100
AcDbEntity
  8
0
  6
Continuous
 62
     7
370
    15
100
AcDbLine
 10
2158.072845978351
 20
842.227848522411
 30
0.0
 11
2158.072673955019
 21
842.2279478293667
 31
0.0
  0
LINE
  5
9CE
330
946
100
AcDbEntity
  8
0
  6
Continuous
 62
     7
370
    15
100
AcDbLine
 10
2157.243025766131
 20
842.7068935341656
 30
0.0
 11
2155.7240138107
 21
841.6698354673764
 31
0.0
  0
LINE
  5
9CF
330
946
100
AcDbEntity
  8
0
  6
Continuous
 62
     7
370
    15
100
AcDbLine
 10
2157.243197903996
 20
842.7067941610916
 30
0.0
 11
2157.243025766131
 21
842.7068935341656
 31
0.0
  0
LINE
  5
9D0
330
946
100
AcDbEntity
  8
0
  6
Continuous
 62
     7
370
    15
100
AcDbLine
 10
2155.518091661249
 20
838.9712178610791
 30
0.0
 11
2156.209213283244
 21
838.5722418411441
 31
0.0
  0
LINE
  5
9D1
330
946
100
AcDbEntity
  8
0
  6
Continuous
 62
     7
370
    15
100
AcDbLine
 10
2155.518091661249
 20
841.3025591106562
 30
0.0
 11
2155.518091661249
 21
838.9712178610791
 31
0.0
  0
ARC
  5
9D2
330
946
100
AcDbEntity
  8
0
  6
Continuous
 62
     7
370
    15
100
AcDbCircle
 10
2153.198573645935
 20
846.2473623667429
 30
0.0
 40
0.4707988136227354
100
AcDbArc
 50
124.1588001609726
 51
177.2848045368288
  0
ARC
  5
9D3
330
946
100
AcDbEntity
  8
0
  6
Continuous
 62
     7
370
    15
100
AcDbCircle
 10
2152.643109245826
 20
846.220478468823
 30
0.0
 40
0.5081238201811297
100
AcDbArc
 50
4.954370924989926
 51
55.04562922059982
  0
ARC
  5
9D4
330
946
100
AcDbEntity
  8
0
  6
Continuous
 62
     7
370
    15
100
AcDbCircle
 10
2152.94412390062
 20
846.6881556662572
 30
0.0
 40
0.4708642545948618
100
AcDbArc
 50
242.7193274309513
 51
295.8373006085253
  0
LINE
  5
9D5
330
946
100
AcDbEntity
  8
0
  6
Continuous
 62
     7
370
    15
100
AcDbLine
 10
2154.807045269437
 20
847.221350254051
 30
0.0
 11
2153.149334609249
 21
846.2643612452001
 31
0.0
  0
LINE
  5
9D6
330
946
100
AcDbEntity
  8
0
  6
Continuous
 62
     7
370
    15
100
AcDbLine
 10
2152.93422552561
 20
846.6369411061387
 30
0.0
 11
2154.591936185798
 21
847.5939301149898
 31
0.0
  0
ELLIPSE
  5
9D7
330
946
100
AcDbEntity
  8
0
  6
Continuous
 62
     7
370
    15
100
AcDbEllipse
 10
2154.598389172809
 20
847.3492552918289
 30
0.0
 11
-0.1522387218759036
 21
0.2637112465591258
 31
0.0
210
0.0
220
0.0
230
1.0
 40
0.5416967155013836
 41
3.92803463405419
 42
5.496901231199301
  0
LINE
  5
9D8
330
946
100
AcDbEntity
  8
0
  6
Continuous
 62
     7
370
    15
100
AcDbLine
 10
2153.149334609249
 20
846.2643612452001
 30
0.0
 11
2153.149334609249
 21
845.0104455969064
 31
0.0
  0
ARC
  5
9D9
330
946
100
AcDbEntity
  8
0
  6
Continuous
 62
     7
370
    15
100
AcDbCircle
 10
2152.94412390062
 20
845.4342400179637
 30
0.0
 40
0.4708642545950416
100
AcDbArc
 50
242.7193274309513
 51
295.8373006085225
  0
LINE
  5
9DA
330
946
100
AcDbEntity
  8
0
  6
Continuous
 62
     7
370
    15
100
AcDbLine
 10
2152.728303376159
 20
845.0157491011248
 30
0.0
 11
2152.728303376159
 21
846.2696647494183
 31
0.0
  0
LINE
  5
9DB
330
946
100
AcDbEntity
  8
0
  6
Continuous
 62
     7
370
    15
100
AcDbLine
 10
2152.728303376159
 20
846.2696647494183
 30
0.0
 11
2152.037181754163
 21
846.6686407693533
 31
0.0
  0
ARC
  5
9DC
330
946
100
AcDbEntity
  8
0
  6
Continuous
 62
     7
370
    15
100
AcDbCircle
 10
2152.50745202394
 20
846.6463383866777
 30
0.0
 40
0.4707988136230924
100
AcDbArc
 50
124.1588001610014
 51
177.2848045368223
  0
LINE
  5
9DD
330
946
100
AcDbEntity
  8
0
  6
Continuous
 62
     7
370
    15
100
AcDbLine
 10
2152.243103903614
 20
847.0359171260735
 30
0.0
 11
2152.93422552561
 21
846.6369411061387
 31
0.0
  0
LINE
  5
9DE
330
946
100
AcDbEntity
  8
0
  6
Continuous
 62
     7
370
    15
100
AcDbLine
 10
2154.807045269437
 20
845.8074692392711
 30
0.0
 11
2154.807045269437
 21
847.2211514755979
 31
0.0
  0
LINE
  5
9DF
330
946
100
AcDbEntity
  8
0
  6
Continuous
 62
     7
370
    15
100
AcDbLine
 10
2154.807045269437
 20
845.8072704608181
 30
0.0
 11
2154.807045269437
 21
845.8074692392711
 31
0.0
  0
LINE
  5
9E0
330
946
100
AcDbEntity
  8
0
  6
Continuous
 62
     7
370
    15
100
AcDbLine
 10
2153.149334609249
 20
845.0104455969064
 30
0.0
 11
2154.807045269437
 21
845.8072704608181
 31
0.0
  0
LINE
  5
9E1
330
946
100
AcDbEntity
  8
0
  6
Continuous
 62
     7
370
    15
100
AcDbLine
 10
2154.807045269437
 20
847.2211514755979
 30
0.0
 11
2154.807045269437
 21
847.221350254051
 31
0.0
  0
LINE
  5
9E2
330
946
100
AcDbEntity
  8
0
  6
Continuous
 62
     7
370
    15
100
AcDbLine
 10
2153.762115973579
 20
848.0729751267441
 30
0.0
 11
2152.243103903614
 21
847.0359171260735
 31
0.0
  0
LINE
  5
9E3
330
946
100
AcDbEntity
  8
0
  6
Continuous
 62
     7
370
    15
100
AcDbLine
 10
2153.76228799691
 20
848.0728758197885
 30
0.0
 11
2153.762115973579
 21
848.0729751267441
 31
0.0
  0
LINE
  5
9E4
330
946
100
AcDbEntity
  8
0
  6
Continuous
 62
     7
370
    15
100
AcDbLine
 10
2154.591764047933
 20
847.594029488064
 30
0.0
 11
2153.76228799691
 21
848.0728758197885
 31
0.0
  0
LINE
  5
9E5
330
946
100
AcDbEntity
  8
0
  6
Continuous
 62
     7
370
    15
100
AcDbLine
 10
2154.591936185798
 20
847.5939301149898
 30
0.0
 11
2154.591764047933
 21
847.594029488064
 31
0.0
  0
LINE
  5
9E6
330
946
100
AcDbEntity
  8
0
  6
Continuous
 62
     7
370
    15
100
AcDbLine
 10
2152.037181754163
 20
845.4147251210597
 30
0.0
 11
2152.728303376159
 21
845.0157491011248
 31
0.0
  0
LINE
  5
9E7
330
946
100
AcDbEntity
  8
0
  6
Continuous
 62
     7
370
    15
100
AcDbLine
 10
2152.037181754163
 20
846.6686407693533
 30
0.0
 11
2152.037181754163
 21
845.4147251210597
 31
0.0
  0
ELLIPSE
  5
9E8
330
946
100
AcDbEntity
  8
0
  6
Continuous
 62
     7
370
    15
100
AcDbEllipse
 10
2157.249724645647
 20
842.4620767602815
 30
0.0
 11
-0.1659849179323772
 21
0.255344760741906
 31
0.0
210
0.0
220
0.0
230
1.0
 40
0.5767479168239103
 41
5.468318051257648
 42
6.296237703910411
  0
LINE
  5
9E9
330
946
100
AcDbEntity
  8
0
  6
Continuous
 62
     7
370
    15
100
AcDbLine
 10
2158.072673955019
 20
842.2279478293667
 30
0.0
 11
2160.413268867577
 21
843.5791520469695
 31
0.0
  0
ARC
  5
9EA
330
946
100
AcDbEntity
  8
0
  6
Continuous
 62
     7
370
    15
100
AcDbCircle
 10
2160.14660702419
 20
843.1766094174472
 30
0.0
 40
0.4828551618250263
100
AcDbArc
 50
3.522232959727256
 51
56.47776718587877
  0
ELLIPSE
  5
9EB
330
946
100
AcDbEntity
  8
0
  6
Continuous
 62
     7
370
    15
100
AcDbEllipse
 10
2153.768814738561
 20
847.828158418979
 30
0.0
 11
-0.1659849179323771
 21
0.2553447607419343
 31
0.0
210
0.0
220
0.0
230
0.9999999999999998
 40
0.5767479168238654
 41
5.468317519613307
 42
6.296237703910678
  0
LINE
  5
9EC
330
946
100
AcDbEntity
  8
0
  6
Continuous
 62
     7
370
    15
100
AcDbLine
 10
2159.503484137424
 20
844.1043595923297
 30
0.0
 11
2157.243197903996
 21
842.7067941610916
 31
0.0
  0
LINE
  5
9ED
330
946
100
AcDbEntity
  8
0
  6
Continuous
 62
     7
370
    15
100
AcDbLine
 10
2160.413268867577
 20
843.5791520469695
 30
0.0
 11
2159.503484137424
 21
844.1043595923297
 31
0.0
  0
ELLIPSE
  5
9EE
330
946
100
AcDbEntity
  8
0
  6
Continuous
 62
     7
370
    15
100
AcDbEllipse
 10
2154.598389172809
 20
845.935459446186
 30
0.0
 11
-0.1381172042516994
 21
0.2714324545725901
 31
0.0
210
0.0
220
0.0
230
1.0
 40
0.5767421923539612
 41
3.128540515609377
 42
3.956622079920944
  0
ELLIPSE
  5
9EF
330
946
100
AcDbEntity
  8
0
  6
Continuous
 62
     7
370
    15
100
AcDbEllipse
 10
2159.705298087726
 20
850.2974274969917
 30
0.0
 11
-0.1522379454461031
 21
0.2637116947851155
 31
0.0
210
0.0
220
0.0
230
1.0
 40
0.5673056664932395
 41
3.92722437709734
 42
5.497714741771596
  0
LINE
  5
9F0
330
946
100
AcDbEntity
  8
0
  6
Continuous
 62
     7
370
    15
100
AcDbLine
 10
2159.918733085656
 20
850.1720824971462
 30
0.0
 11
2154.807045269437
 21
847.2211514755979
 31
0.0
  0
LINE
  5
9F1
330
946
100
AcDbEntity
  8
0
  6
Continuous
 62
     7
370
    15
100
AcDbLine
 10
2154.591764047933
 20
847.594029488064
 30
0.0
 11
2159.703451864153
 21
850.5449605096119
 31
0.0
  0
LINE
  5
9F2
330
946
100
AcDbEntity
  8
0
  6
Continuous
 62
     7
370
    15
100
AcDbLine
 10
2154.807045269437
 20
841.3734484955282
 30
0.0
 11
2154.807045269437
 21
843.8645563331386
 31
0.0
  0
LINE
  5
9F3
330
946
100
AcDbEntity
  8
0
  6
Continuous
 62
     7
370
    15
100
AcDbLine
 10
2154.807045269437
 20
845.8074692392711
 30
0.0
 11
2157.147640181995
 21
847.0659359583757
 31
0.0
  0
LINE
  5
9F4
330
946
100
AcDbEntity
  8
0
  6
Continuous
 62
     7
370
    15
100
AcDbLine
 10
2159.918733085657
 20
850.172082497146
 30
0.0
 11
2159.918733085657
 21
850.1720446285757
 31
0.0
  0
LINE
  5
9F5
330
946
100
AcDbEntity
  8
0
  6
Continuous
 62
     7
370
    15
100
AcDbLine
 10
2158.698587541351
 20
851.1250563354781
 30
0.0
 11
2153.76228799691
 21
848.0728758197885
 31
0.0
  0
LINE
  5
9F6
330
946
100
AcDbEntity
  8
0
  6
Continuous
 62
     7
370
    15
100
AcDbLine
 10
2158.698620334719
 20
851.1250374042701
 30
0.0
 11
2158.698587541351
 21
851.1250563354781
 31
0.0
  0
LINE
  5
9F7
330
946
100
AcDbEntity
  8
0
  6
Continuous
 62
     7
370
    15
100
AcDbLine
 10
2159.703419070785
 20
850.54497944082
 30
0.0
 11
2158.698620334719
 21
851.1250374042701
 31
0.0
  0
LINE
  5
9F8
330
946
100
AcDbEntity
  8
0
  6
Continuous
 62
     7
370
    15
100
AcDbLine
 10
2159.703451864153
 20
850.5449605096119
 30
0.0
 11
2159.703419070785
 21
850.54497944082
 31
0.0
  0
ELLIPSE
  5
9F9
330
946
100
AcDbEntity
  8
0
  6
Continuous
 62
     7
370
    15
100
AcDbEllipse
 10
2158.079299079895
 20
839.491952186205
 30
0.0
 11
-0.1381172042516709
 21
0.2714324545725617
 31
0.0
210
0.0
220
0.0
230
1.0
 40
0.5767421923540351
 41
3.128540515610463
 42
3.956622079920857
  0
ARC
  5
9FA
330
946
100
AcDbEntity
  8
0
  6
Continuous
 62
     7
370
    15
100
AcDbCircle
 10
2160.84773451942
 20
845.2181892861064
 30
0.0
 40
0.4692194932725505
100
AcDbArc
 50
242.6564838575502
 51
296.766218659645
  0
LINE
  5
9FB
330
946
100
AcDbEntity
  8
0
  6
Continuous
 62
     7
370
    15
100
AcDbLine
 10
2160.632210591508
 20
843.9456161556366
 30
0.0
 11
2160.632210591508
 21
844.8013963286751
 31
0.0
  0
ARC
  5
9FC
330
946
100
AcDbEntity
  8
0
  6
Continuous
 62
     7
370
    15
100
AcDbCircle
 10
2160.84773451942
 20
844.3624091130683
 30
0.0
 40
0.4692194932727639
100
AcDbArc
 50
242.6564838575562
 51
296.7662186596421
  0
LINE
  5
9FD
330
946
100
AcDbEntity
  8
0
  6
Continuous
 62
     7
370
    15
100
AcDbLine
 10
2165.552783141451
 20
849.9028128170239
 30
0.0
 11
2163.399642992743
 21
848.6598314667766
 31
0.0
  0
LINE
  5
9FE
330
946
100
AcDbEntity
  8
0
  6
Continuous
 62
     7
370
    15
100
AcDbLine
 10
2163.184328977871
 20
849.0327662790207
 30
0.0
 11
2165.337469126585
 21
850.2757476292705
 31
0.0
  0
ELLIPSE
  5
9FF
330
946
100
AcDbEntity
  8
0
  6
Continuous
 62
     7
370
    15
100
AcDbEllipse
 10
2158.70049935166
 20
850.8774854604414
 30
0.0
 11
-0.1562172926268772
 21
0.2614010847285328
 31
0.0
210
0.0
220
0.0
230
1.0
 40
0.577294452528934
 41
5.489295984218143
 42
6.291910029852326
  0
LINE
  5
A00
330
946
100
AcDbEntity
  8
0
  6
Continuous
 62
     7
370
    15
100
AcDbLine
 10
2163.399642992742
 20
842.1123989666703
 30
0.0
 11
2165.552783141457
 21
843.3553803169209
 31
0.0
  0
LINE
  5
A01
330
946
100
AcDbEntity
  8
0
  6
Continuous
 62
     7
370
    15
100
AcDbLine
 10
2164.332670390514
 20
850.8558055927181
 30
0.0
 11
2162.179530241805
 21
849.6128242424708
 31
0.0
  0
ARC
  5
A02
330
946
100
AcDbEntity
  8
0
  6
Continuous
 62
     7
370
    15
100
AcDbCircle
 10
2152.643109245826
 20
842.8638833263644
 30
0.0
 40
0.5081238201796579
100
AcDbArc
 50
4.954370924896823
 51
55.04562922069001
  0
ARC
  5
A03
330
946
100
AcDbEntity
  8
0
  6
Continuous
 62
     7
370
    15
100
AcDbCircle
 10
2152.944123900619
 20
843.331560523797
 30
0.0
 40
0.4708642545943122
100
AcDbArc
 50
242.719327430896
 51
295.8373006085545
  0
ARC
  5
A04
330
946
100
AcDbEntity
  8
0
  6
Continuous
 62
     7
370
    15
100
AcDbCircle
 10
2153.198573645935
 20
842.8907672242836
 30
0.0
 40
0.4707988136224543
100
AcDbArc
 50
124.1588001609473
 51
177.2848045368484
  0
LINE
  5
A05
330
946
100
AcDbEntity
  8
0
  6
Continuous
 62
     7
370
    15
100
AcDbLine
 10
2152.93422552561
 20
843.280345963679
 30
0.0
 11
2154.591936185798
 21
844.2373349725302
 31
0.0
  0
ELLIPSE
  5
A06
330
946
100
AcDbEntity
  8
0
  6
Continuous
 62
     7
370
    15
100
AcDbEllipse
 10
2154.59838917281
 20
843.9926601493697
 30
0.0
 11
-0.152238721875932
 21
0.2637112465591542
 31
0.0
210
0.0
220
0.0
230
0.9999999999999998
 40
0.5416967155012679
 41
3.928034634050268
 42
5.496901231203362
  0
LINE
  5
A07
330
946
100
AcDbEntity
  8
0
  6
Continuous
 62
     7
370
    15
100
AcDbLine
 10
2154.807045269437
 20
843.8647551115915
 30
0.0
 11
2153.149334609249
 21
842.9077661027404
 31
0.0
  0
ELLIPSE
  5
A08
330
946
100
AcDbEntity
  8
0
  6
Continuous
 62
     7
370
    15
100
AcDbEllipse
 10
2160.409379936418
 20
843.8256572846464
 30
0.0
 11
0.1604726794885494
 21
0.2588963500744229
 31
0.0
210
0.0
220
0.0
230
1.0
 40
0.5971609149986294
 41
3.96307208898536
 42
5.516415123259926
  0
LINE
  5
A09
330
946
100
AcDbEntity
  8
0
  6
Continuous
 62
     7
370
    15
100
AcDbLine
 10
2152.728303376159
 20
840.5817283573819
 30
0.0
 11
2152.728303376159
 21
842.9130696069588
 31
0.0
  0
LINE
  5
A0A
330
946
100
AcDbEntity
  8
0
  6
Continuous
 62
     7
370
    15
100
AcDbLine
 10
2153.149334609249
 20
842.9077661027404
 30
0.0
 11
2153.149334609248
 21
840.5764248531635
 31
0.0
  0
ARC
  5
A0B
330
946
100
AcDbEntity
  8
0
  6
Continuous
 62
     7
370
    15
100
AcDbCircle
 10
2152.944123900619
 20
841.0002192742204
 30
0.0
 40
0.4708642545945548
100
AcDbArc
 50
242.7193274309222
 51
295.8373006085516
  0
LINE
  5
A0C
330
946
100
AcDbEntity
  8
0
  6
Continuous
 62
     7
370
    15
100
AcDbLine
 10
2152.728303376159
 20
842.9130696069588
 30
0.0
 11
2152.037181754163
 21
843.3120456268939
 31
0.0
  0
ARC
  5
A0D
330
946
100
AcDbEntity
  8
0
  6
Continuous
 62
     7
370
    15
100
AcDbCircle
 10
2152.507452023938
 20
843.2897432442191
 30
0.0
 40
0.4707988136215879
100
AcDbArc
 50
124.1588001609075
 51
177.2848045368874
  0
LINE
  5
A0E
330
946
100
AcDbEntity
  8
0
  6
Continuous
 62
     7
370
    15
100
AcDbLine
 10
2152.243103903614
 20
843.679321983614
 30
0.0
 11
2152.93422552561
 21
843.280345963679
 31
0.0
  0
LINE
  5
A0F
330
946
100
AcDbEntity
  8
0
  6
Continuous
 62
     7
370
    15
100
AcDbLine
 10
2154.807045269437
 20
843.8645563331386
 30
0.0
 11
2154.807045269437
 21
843.8647551115915
 31
0.0
  0
LINE
  5
A10
330
946
100
AcDbEntity
  8
0
  6
Continuous
 62
     7
370
    15
100
AcDbLine
 10
2154.807045269437
 20
841.373249849334
 30
0.0
 11
2154.807045269437
 21
841.3734484955282
 31
0.0
  0
LINE
  5
A11
330
946
100
AcDbEntity
  8
0
  6
Continuous
 62
     7
370
    15
100
AcDbLine
 10
2153.149334609248
 20
840.5764248531635
 30
0.0
 11
2154.807045269437
 21
841.373249849334
 31
0.0
  0
LINE
  5
A12
330
946
100
AcDbEntity
  8
0
  6
Continuous
 62
     7
370
    15
100
AcDbLine
 10
2154.591764047933
 20
844.2374343456043
 30
0.0
 11
2153.76228799691
 21
844.716280677329
 31
0.0
  0
LINE
  5
A13
330
946
100
AcDbEntity
  8
0
  6
Continuous
 62
     7
370
    15
100
AcDbLine
 10
2154.591936185798
 20
844.2373349725302
 30
0.0
 11
2154.591764047933
 21
844.2374343456043
 31
0.0
  0
LINE
  5
A14
330
946
100
AcDbEntity
  8
0
  6
Continuous
 62
     7
370
    15
100
AcDbLine
 10
2153.762115973579
 20
844.7163799842845
 30
0.0
 11
2152.243103903614
 21
843.679321983614
 31
0.0
  0
LINE
  5
A15
330
946
100
AcDbEntity
  8
0
  6
Continuous
 62
     7
370
    15
100
AcDbLine
 10
2153.76228799691
 20
844.716280677329
 30
0.0
 11
2153.762115973579
 21
844.7163799842845
 31
0.0
  0
LINE
  5
A16
330
946
100
AcDbEntity
  8
0
  6
Continuous
 62
     7
370
    15
100
AcDbLine
 10
2152.037181754162
 20
840.9807043773168
 30
0.0
 11
2152.728303376159
 21
840.5817283573819
 31
0.0
  0
LINE
  5
A17
330
946
100
AcDbEntity
  8
0
  6
Continuous
 62
     7
370
    15
100
AcDbLine
 10
2152.037181754163
 20
843.3120456268939
 30
0.0
 11
2152.037181754162
 21
840.9807043773168
 31
0.0
  0
ELLIPSE
  5
A18
330
946
100
AcDbEntity
  8
0
  6
Continuous
 62
     7
370
    15
100
AcDbEllipse
 10
2163.186207994812
 20
842.2377818350863
 30
0.0
 11
-0.1482463844527047
 21
0.2660025922234581
 31
0.0
210
0.0
220
0.0
230
1.0
 40
0.5772928154137573
 41
3.132867980399698
 42
3.935644455194608
  0
ELLIPSE
  5
A19
330
946
100
AcDbEntity
  8
0
  6
Continuous
 62
     7
370
    15
100
AcDbEllipse
 10
2153.768814738563
 20
844.4715632765204
 30
0.0
 11
-0.1659849179323771
 21
0.2553447607419343
 31
0.0
210
0.0
220
0.0
230
0.9999999999999998
 40
0.5767479168238376
 41
5.468317519613276
 42
6.296237703910367
  0
LINE
  5
A1A
330
946
100
AcDbEntity
  8
0
  6
Continuous
 62
     7
370
    15
100
AcDbLine
 10
2156.022574230338
 20
846.1138461085678
 30
0.0
 11
2153.76228799691
 21
844.716280677329
 31
0.0
  0
ELLIPSE
  5
A1B
330
946
100
AcDbEntity
  8
0
  6
Continuous
 62
     7
370
    15
100
AcDbEllipse
 10
2154.598389172809
 20
841.5014387024431
 30
0.0
 11
-0.1381172042516994
 21
0.2714324545725901
 31
0.0
210
0.0
220
0.0
230
1.0
 40
0.5767421923540035
 41
3.128540515609234
 42
3.956622611563462
  0
LINE
  5
A1C
330
946
100
AcDbEntity
  8
0
  6
Continuous
 62
     7
370
    15
100
AcDbLine
 10
2162.071873234371
 20
851.4150259788262
 30
0.0
 11
2159.918733085656
 21
850.1720446285757
 31
0.0
  0
LINE
  5
A1D
330
946
100
AcDbEntity
  8
0
  6
Continuous
 62
     7
370
    15
100
AcDbLine
 10
2159.703419070785
 20
850.54497944082
 30
0.0
 11
2161.856559219499
 21
851.7879607910703
 31
0.0
  0
LINE
  5
A1E
330
946
100
AcDbEntity
  8
0
  6
Continuous
 62
     7
370
    15
100
AcDbLine
 10
2160.851760483433
 20
852.3680187545204
 30
0.0
 11
2158.698620334719
 21
851.1250374042701
 31
0.0
  0
ARC
  5
A1F
330
946
100
AcDbEntity
  8
0
  6
Continuous
 62
     8
370
    15
100
AcDbCircle
 10
2155.575215774002
 20
845.291560394736
 30
0.0
 40
0.1467107168181101
100
AcDbArc
 50
184.2351746437481
 51
247.0849663139012
  0
ARC
  5
A20
330
946
100
AcDbEntity
  8
0
  6
Continuous
 62
     8
370
    15
100
AcDbCircle
 10
2155.636156572194
 20
845.3999139663947
 30
0.0
 40
0.1517987415395881
100
AcDbArc
 50
54.63560744792395
 51
119.366634041077
  0
ARC
  5
A21
330
946
100
AcDbEntity
  8
0
  6
Continuous
 62
     8
370
    15
100
AcDbCircle
 10
2155.575215774001
 20
843.540371392004
 30
0.0
 40
0.1467107168181555
100
AcDbArc
 50
184.2351746437286
 51
247.0849663139012
  0
SPLINE
  5
A22
330
946
100
AcDbEntity
  8
0
  6
Continuous
 62
     8
370
    15
100
AcDbSpline
210
0.0
220
0.0
230
1.0
 70
     8
 71
     3
 72
     9
 73
     5
 74
     0
 42
0.0000000001
 43
0.0000000001
 40
0.0
 40
0.0
 40
0.0
 40
0.0
 40
0.3997906581813026
 40
1.0
 40
1.0
 40
1.0
 40
1.0
 10
2169.075074392557
 20
842.0326349831729
 30
0.0
 10
2169.072100738021
 20
842.0152205217391
 30
0.0
 10
2169.064662708955
 20
841.9716615713799
 30
0.0
 10
2169.023412856175
 20
841.9409711935497
 30
0.0
 10
2168.998654309188
 20
841.9225505420719
 30
0.0
  0
SPLINE
  5
A23
330
946
100
AcDbEntity
  8
0
  6
Continuous
 62
     8
370
    15
100
AcDbSpline
210
0.0
220
0.0
230
1.0
 70
     8
 71
     3
 72
    10
 73
     6
 74
     0
 42
0.0000000001
 43
0.0000000001
 40
0.0
 40
0.0
 40
0.0
 40
0.0
 40
0.0231932559840793
 40
0.511596627960159
 40
1.0
 40
1.0
 40
1.0
 40
1.0
 10
2168.812445886622
 20
854.5147156697421
 30
0.0
 10
2168.812829189518
 20
854.5137832168016
 30
0.0
 10
2168.821284081295
 20
854.4932151783868
 30
0.0
 10
2168.798477313646
 20
854.4484218180471
 30
0.0
 10
2168.753497521061
 20
854.4135682985654
 30
0.0
 10
2168.731007624768
 20
854.3961415388233
 30
0.0
  0
ARC
  5
A24
330
946
100
AcDbEntity
  8
0
  6
Continuous
 62
     8
370
    15
100
AcDbCircle
 10
2156.47909001645
 20
842.9867550518968
 30
0.0
 40
0.1518204112390353
100
AcDbArc
 50
300.6316605582254
 51
5.368335223600261
  0
ARC
  5
A25
330
946
100
AcDbEntity
  8
0
  6
Continuous
 62
     8
370
    15
100
AcDbCircle
 10
2156.354841707309
 20
842.9881747243989
 30
0.0
 40
0.1467474312973826
100
AcDbArc
 50
172.9198056022136
 51
235.7680140043521
  0
ARC
  5
A26
330
946
100
AcDbEntity
  8
0
  6
Continuous
 62
     8
370
    15
100
AcDbCircle
 10
2168.117053942035
 20
855.4220869570734
 30
0.0
 40
0.1475906078856161
100
AcDbArc
 50
65.47300916378134
 51
124.0676121000135
  0
ARC
  5
A27
330
946
100
AcDbEntity
  8
0
  6
Continuous
 62
     8
370
    15
100
AcDbCircle
 10
2155.668028703372
 20
843.3891001365296
 30
0.0
 40
0.1508030727786424
100
AcDbArc
 50
173.8566221830955
 51
234.8311974234478
  0
ARC
  5
A28
330
946
100
AcDbEntity
  8
0
  6
Continuous
 62
     8
370
    15
100
AcDbCircle
 10
2160.370376607235
 20
859.8943133211911
 30
0.0
 40
0.1473824942173789
100
AcDbArc
 50
65.19656880594218
 51
124.0899355130444
  0
ARC
  5
A29
330
946
100
AcDbEntity
  8
0
  6
Continuous
 62
     8
370
    15
100
AcDbCircle
 10
2160.481121706184
 20
845.0396137644883
 30
0.0
 40
0.1483865496786364
100
AcDbArc
 50
302.6721190952067
 51
6.514707020550079
  0
ARC
  5
A2A
330
946
100
AcDbEntity
  8
0
  6
Continuous
 62
     8
370
    15
100
AcDbCircle
 10
2155.635883638399
 20
841.540835632599
 30
0.0
 40
0.1562302296047969
100
AcDbArc
 50
55.65987216980128
 51
118.3423693192488
  0
ARC
  5
A2B
330
946
100
AcDbEntity
  8
0
  6
Continuous
 62
     8
370
    15
100
AcDbCircle
 10
2155.579058310929
 20
841.4404489821762
 30
0.0
 40
0.1507665382011481
100
AcDbArc
 50
185.1722873163912
 51
246.1478536412497
  0
ARC
  5
A2C
330
946
100
AcDbEntity
  8
0
  6
Continuous
 62
     8
370
    15
100
AcDbCircle
 10
2155.579058310929
 20
839.1091077325993
 30
0.0
 40
0.1507665382010296
100
AcDbArc
 50
185.1722873163718
 51
246.1478536412788
  0
ARC
  5
A2D
330
946
100
AcDbEntity
  8
0
  6
Continuous
 62
     8
370
    15
100
AcDbCircle
 10
2152.094305866915
 20
846.8037735565356
 30
0.0
 40
0.1467107168187876
100
AcDbArc
 50
184.2351746438909
 51
247.0849663137583
  0
ARC
  5
A2E
330
946
100
AcDbEntity
  8
0
  6
Continuous
 62
     8
370
    15
100
AcDbCircle
 10
2152.155246665108
 20
846.912127128194
 30
0.0
 40
0.1517987415395476
100
AcDbArc
 50
54.63560744795273
 51
119.3666340411061
  0
ARC
  5
A2F
330
946
100
AcDbEntity
  8
0
  6
Continuous
 62
     8
370
    15
100
AcDbCircle
 10
2152.094305866915
 20
845.5498579082416
 30
0.0
 40
0.1467107168180946
100
AcDbArc
 50
184.2351746437072
 51
247.0849663138987
  0
ARC
  5
A30
330
946
100
AcDbEntity
  8
0
  6
Continuous
 62
     8
370
    15
100
AcDbCircle
 10
2152.878240418281
 20
844.9996106328319
 30
0.0
 40
0.1508030727777051
100
AcDbArc
 50
173.8566221828753
 51
234.8311974236719
  0
ARC
  5
A31
330
946
100
AcDbEntity
  8
0
  6
Continuous
 62
     8
370
    15
100
AcDbCircle
 10
2152.993530237084
 20
844.9986107966132
 30
0.0
 40
0.1562532075940061
100
AcDbArc
 50
301.6561865997856
 51
4.343809182050522
  0
ARC
  5
A32
330
946
100
AcDbEntity
  8
0
  6
Continuous
 62
     8
370
    15
100
AcDbCircle
 10
2152.187118796286
 20
845.3985866527673
 30
0.0
 40
0.1508030727787524
100
AcDbArc
 50
173.8566221831112
 51
234.8311974234478
  0
ARC
  5
A33
330
946
100
AcDbEntity
  8
0
  6
Continuous
 62
     8
370
    15
100
AcDbCircle
 10
2156.474440144171
 20
838.5551035366328
 30
0.0
 40
0.1562532075938928
100
AcDbArc
 50
301.6561865997242
 51
4.343809182057016
  0
ARC
  5
A34
330
946
100
AcDbEntity
  8
0
  6
Continuous
 62
     8
370
    15
100
AcDbCircle
 10
2156.35484170731
 20
838.5541539806567
 30
0.0
 40
0.1467474312988184
100
AcDbArc
 50
172.9198056025626
 51
235.7680140039979
  0
LINE
  5
A35
330
946
100
AcDbEntity
  8
0
  6
Continuous
 62
     8
370
    15
100
AcDbLine
 10
2159.918733085656
 20
850.1720446285757
 30
0.0
 11
2159.918733085656
 21
848.3242351027666
 31
0.0
  0
LINE
  5
A36
330
946
100
AcDbEntity
  8
0
  6
Continuous
 62
     8
370
    15
100
AcDbLine
 10
2154.807045269437
 20
841.3734484955282
 30
0.0
 11
2156.257158034784
 21
842.1531300398491
 31
0.0
  0
LINE
  5
A37
330
946
100
AcDbEntity
  8
0
  6
Continuous
 62
     8
370
    15
100
AcDbLine
 10
2155.42890567612
 20
844.223550706647
 30
0.0
 11
2154.807045269437
 21
843.8645563331386
 31
0.0
  0
ELLIPSE
  5
A38
330
946
100
AcDbEntity
  8
0
  6
Continuous
 62
     8
370
    15
100
AcDbEllipse
 10
2157.139993503137
 20
846.5644754685335
 30
0.0
 11
0.312577125505129
 21
0.5227179347035927
 31
0.0
210
0.0
220
0.0
230
1.0
 40
0.5873687162540323
 41
5.643980287942809
 42
7.060085580800524
  0
ARC
  5
A39
330
946
100
AcDbEntity
  8
0
  6
Continuous
 62
     8
370
    15
100
AcDbCircle
 10
2155.668028703371
 20
838.9550793927865
 30
0.0
 40
0.1508030727779936
100
AcDbArc
 50
173.85662218294
 51
234.8311974236031
  0
ELLIPSE
  5
A3A
330
946
100
AcDbEntity
  8
0
  6
Continuous
 62
     8
370
    15
100
AcDbEllipse
 10
2160.409379936418
 20
844.6814374576847
 30
0.0
 11
0.1604726794885494
 21
0.2588963500744512
 31
0.0
210
0.0
220
0.0
230
1.0
 40
0.5971609149986123
 41
5.516415123261024
 42
6.189651906237177
  0
ARC
  5
A3B
330
946
100
AcDbEntity
  8
0
  6
Continuous
 62
     8
370
    15
100
AcDbCircle
 10
2159.414814208591
 20
843.9801704765322
 30
0.0
 40
0.1525951924597708
100
AcDbArc
 50
54.4734995042868
 51
116.3415921444182
  0
LINE
  5
A3C
330
946
100
AcDbEntity
  8
0
  6
Continuous
 62
     8
370
    15
100
AcDbLine
 10
2160.632210591508
 20
844.8013963286751
 30
0.0
 11
2160.496352316592
 21
844.8798256413692
 31
0.0
  0
LINE
  5
A3D
330
946
100
AcDbEntity
  8
0
  6
Continuous
 62
     8
370
    15
100
AcDbLine
 10
2159.728807077447
 20
844.4671399033591
 30
0.0
 11
2160.632210591508
 21
843.9456161556366
 31
0.0
  0
ARC
  5
A3E
330
946
100
AcDbEntity
  8
0
  6
Continuous
 62
     8
370
    15
100
AcDbCircle
 10
2157.000211799097
 20
847.0491002807262
 30
0.0
 40
0.1483865496791774
100
AcDbArc
 50
302.6721190953296
 51
6.514707020446532
  0
ELLIPSE
  5
A3F
330
946
100
AcDbEntity
  8
0
  6
Continuous
 62
     8
370
    15
100
AcDbEllipse
 10
2159.499857573185
 20
844.3507133688076
 30
0.0
 11
0.1445125831307621
 21
0.2681249071480636
 31
0.0
210
0.0
220
0.0
230
1.0
 40
0.5568971263989953
 41
3.928091220278481
 42
5.386745363027069
  0
ARC
  5
A40
330
946
100
AcDbEntity
  8
0
  6
Continuous
 62
     8
370
    15
100
AcDbCircle
 10
2152.154973731313
 20
843.5503221488376
 30
0.0
 40
0.1562302296040952
100
AcDbArc
 50
55.65987216954834
 51
118.3423693193101
  0
ARC
  5
A41
330
946
100
AcDbEntity
  8
0
  6
Continuous
 62
     8
370
    15
100
AcDbCircle
 10
2152.098148403844
 20
843.4499354984147
 30
0.0
 40
0.1507665382020678
100
AcDbArc
 50
185.1722873165988
 51
246.1478536410778
  0
ARC
  5
A42
330
946
100
AcDbEntity
  8
0
  6
Continuous
 62
     8
370
    15
100
AcDbCircle
 10
2152.098148403843
 20
841.1185942488371
 30
0.0
 40
0.1507665382010888
100
AcDbArc
 50
185.1722873163847
 51
246.1478536412762
  0
LINE
  5
A43
330
946
100
AcDbEntity
  8
0
  6
Continuous
 62
     8
370
    15
100
AcDbLine
 10
2154.591764047933
 20
844.2374343456043
 30
0.0
 11
2155.42890567612
 21
844.7207086160339
 31
0.0
  0
LINE
  5
A44
330
946
100
AcDbEntity
  8
0
  6
Continuous
 62
     8
370
    15
100
AcDbLine
 10
2156.23447975895
 20
845.9915156507765
 30
0.0
 11
2156.022574230338
 21
846.1138461085678
 31
0.0
  0
ARC
  5
A45
330
946
100
AcDbEntity
  8
0
  6
Continuous
 62
     8
370
    15
100
AcDbCircle
 10
2152.993530237084
 20
840.5645900528705
 30
0.0
 40
0.1562532075940847
100
AcDbArc
 50
301.6561865997822
 51
4.343809182018047
  0
ARC
  5
A46
330
946
100
AcDbEntity
  8
0
  6
Continuous
 62
     8
370
    15
100
AcDbCircle
 10
2152.878240418281
 20
840.5655898890893
 30
0.0
 40
0.1508030727780005
100
AcDbArc
 50
173.8566221829595
 51
234.8311974236068
  0
ARC
  5
A47
330
946
100
AcDbEntity
  8
0
  6
Continuous
 62
     8
370
    15
100
AcDbCircle
 10
2152.187118796284
 20
840.9645659090241
 30
0.0
 40
0.1508030727774804
100
AcDbArc
 50
173.856622182853
 51
234.8311974237295
  0
ARC
  5
A48
330
946
100
AcDbEntity
  8
0
  6
Continuous
 62
     8
370
    15
100
AcDbCircle
 10
2157.362328193055
 20
847.2149588113543
 30
0.0
 40
0.4558618168429624
100
AcDbArc
 50
242.4243153137586
 51
273.3116942832561
  0
ELLIPSE
  5
A49
330
946
100
AcDbEntity
  8
0
  6
Continuous
 62
     8
370
    15
100
AcDbEllipse
 10
2156.928470029332
 20
846.6909239739225
 30
0.0
 11
0.160472679488521
 21
0.2588963500744228
 31
0.0
210
0.0
220
0.0
230
1.0
 40
0.5971609149987382
 41
5.516415123260866
 42
6.189651906237147
  0
ARC
  5
A4A
330
946
100
AcDbEntity
  8
0
  6
Continuous
 62
     8
370
    15
100
AcDbCircle
 10
2159.997978624234
 20
859.6182629051964
 30
0.0
 40
0.4924100504921268
100
AcDbArc
 50
53.94825119829352
 51
113.3269881677334
  0
ARC
  5
A4B
330
946
100
AcDbEntity
  8
0
  6
Continuous
 62
     8
370
    15
100
AcDbCircle
 10
2155.933904301503
 20
845.9896569927444
 30
0.0
 40
0.1525951924818644
100
AcDbArc
 50
54.47349950931544
 51
116.3415921393319
  0
LINE
  5
A4C
330
946
100
AcDbEntity
  8
0
  6
Continuous
 62
     8
370
    15
100
AcDbLine
 10
2157.151300684422
 20
846.8108828449128
 30
0.0
 11
2157.015442409506
 21
846.8893121576069
 31
0.0
  0
LINE
  5
A4D
330
946
100
AcDbEntity
  8
0
  6
Continuous
 62
     8
370
    15
100
AcDbLine
 10
2157.151300684422
 20
846.6130943631316
 30
0.0
 11
2157.151300684422
 21
846.8108828449128
 31
0.0
  0
LINE
  5
A4E
330
946
100
AcDbEntity
  8
0
  6
Continuous
 62
     8
370
    15
100
AcDbLine
 10
2156.247897170361
 20
846.4766264195969
 30
0.0
 11
2156.625633660636
 21
846.2585637853544
 31
0.0
  0
ELLIPSE
  5
A4F
330
946
100
AcDbEntity
  8
0
  6
Continuous
 62
     8
370
    15
100
AcDbEllipse
 10
2156.018947666098
 20
846.3601998850455
 30
0.0
 11
0.1445125831307621
 21
0.268124907148092
 31
0.0
210
0.0
220
0.0
230
0.9999999999999998
 40
0.5568971263989938
 41
3.928091220278428
 42
5.386745363026511
  0
ARC
  5
A50
330
946
100
AcDbEntity
  8
0
  6
Continuous
 62
     8
370
    15
100
AcDbCircle
 10
2168.574473105472
 20
841.9785414363277
 30
0.0
 40
0.4278605775549275
100
AcDbArc
 50
304.4593546752476
 51
352.480565705944
  0
ENDBLK
  5
948
330
946
100
AcDbEntity
  8
0
100
AcDbBlockEnd
  0
ENDSEC
  0
SECTION
  2
ENTITIES
  0
INSERT
  5
893
330
1F
100
AcDbEntity
  8
0
100
AcDbBlockReference
  2
1
 10
0.0
 20
0.0
 30
0.0
  0
INSERT
  5
8E5
330
1F
100
AcDbEntity
  8
0
100
AcDbBlockReference
  2
2
 10
0.0
 20
0.0
 30
0.0
  0
INSERT
  5
945
330
1F
100
AcDbEntity
  8
0
100
AcDbBlockReference
  2
3
 10
0.0
 20
0.0
 30
0.0
  0
INSERT
  5
A51
330
1F
100
AcDbEntity
  8
0
100
AcDbBlockReference
  2
4
 10
11.58483501883347
 20
-37.11289929767452
 30
0.0
  0
ENDSEC
  0
SECTION
  2
OBJECTS
  0
DICTIONARY
  5
C
330
0
100
AcDbDictionary
281
     1
  3
ACAD_COLOR
350
6B
  3
ACAD_GROUP
350
D
  3
ACAD_LAYOUT
350
1A
  3
ACAD_MATERIAL
350
6A
  3
ACAD_MLEADERSTYLE
350
12D
  3
ACAD_MLINESTYLE
350
17
  3
ACAD_PLOTSETTINGS
350
19
  3
ACAD_PLOTSTYLENAME
350
E
  3
ACAD_SCALELIST
350
10C
  3
ACAD_TABLESTYLE
350
7E
  3
ACAD_VISUALSTYLE
350
EF
  3
ACDB_RECOMPOSE_DATA
350
15D
  3
AcDbVariableDictionary
350
5E
  3
DWGPROPS
350
A5F
  0
DICTIONARY
  5
13C
330
10
100
AcDbDictionary
280
     1
281
     1
  3
ADSK_XREC_LAYER_RECONCILED
360
A52
  0
DICTIONARY
  5
6B
102
{ACAD_REACTORS
330
C
102
}
330
C
100
AcDbDictionary
281
     1
  0
DICTIONARY
  5
D
102
{ACAD_REACTORS
330
C
102
}
330
C
100
AcDbDictionary
281
     1
  0
DICTIONARY
  5
1A
102
{ACAD_REACTORS
330
C
102
}
330
C
100
AcDbDictionary
281
     1
  3
Layout1
350
D3
  3
Layout2
350
D7
  3
Model
350
22
  0
DICTIONARY
  5
6A
102
{ACAD_REACTORS
330
C
102
}
330
C
100
AcDbDictionary
281
     1
  3
ByBlock
350
ED
  3
ByLayer
350
EC
  3
Global
350
EE
  0
DICTIONARY
  5
12D
102
{ACAD_REACTORS
330
C
102
}
330
C
100
AcDbDictionary
281
     1
  3
Annotative
350
13B
  3
Standard
350
12E
  0
DICTIONARY
  5
17
102
{ACAD_REACTORS
330
C
102
}
330
C
100
AcDbDictionary
281
     1
  3
Standard
350
18
  0
DICTIONARY
  5
19
102
{ACAD_REACTORS
330
C
102
}
330
C
100
AcDbDictionary
281
     1
  0
ACDBDICTIONARYWDFLT
  5
E
102
{ACAD_REACTORS
330
C
102
}
330
C
100
AcDbDictionary
281
     1
  3
Normal
350
F
100
AcDbDictionaryWithDefault
340
F
  0
DICTIONARY
  5
10C
102
{ACAD_REACTORS
330
C
102
}
330
C
100
AcDbDictionary
281
     1
  3
A0
350
10D
  3
A1
350
188
  3
A2
350
189
  3
A3
350
18A
  3
A4
350
18B
  3
A5
350
18C
  3
A6
350
18D
  3
A7
350
18E
  3
A8
350
18F
  3
A9
350
190
  3
B0
350
191
  3
B1
350
192
  3
B2
350
193
  3
B3
350
194
  3
B4
350
195
  3
B5
350
196
  3
B6
350
197
  3
B7
350
198
  3
B8
350
199
  3
B9
350
19A
  3
C0
350
19B
  3
C1
350
19C
  3
C2
350
19D
  3
C3
350
19E
  3
C4
350
19F
  3
C5
350
1A0
  3
C6
350
1A1
  3
C7
350
1A2
  3
C8
350
1A3
  3
C9
350
1A4
  3
D0
350
1A5
  3
D1
350
1A6
  3
D2
350
1A7
  0
DICTIONARY
  5
7E
102
{ACAD_REACTORS
330
C
102
}
330
C
100
AcDbDictionary
281
     1
  3
Standard
350
7F
  0
DICTIONARY
  5
EF
102
{ACAD_REACTORS
330
C
102
}
330
C
100
AcDbDictionary
281
     1
  3
2dWireframe
350
F5
  3
3D Hidden
350
F7
  3
3dWireframe
350
F6
  3
Basic
350
F4
  3
Brighten
350
FB
  3
ColorChange
350
FF
  3
Conceptual
350
F8
  3
Dim
350
FA
  3
Facepattern
350
FE
  3
Flat
350
F0
  3
FlatWithEdges
350
F1
  3
Gouraud
350
F2
  3
GouraudWithEdges
350
F3
  3
Linepattern
350
FD
  3
Realistic
350
F9
  3
Thicken
350
FC
  0
XRECORD
  5
15D
102
{ACAD_REACTORS
330
C
102
}
330
C
100
AcDbXrecord
280
     1
 90
        1
330
7F
  0
DICTIONARY
  5
5E
102
{ACAD_REACTORS
330
C
102
}
330
C
100
AcDbDictionary
281
     1
  3
CANNOSCALE
350
146
  3
CMLEADERSTYLE
350
145
  3
CTABLESTYLE
350
84
  3
DIMASSOC
350
5F
  3
HIDETEXT
350
63
  3
INDEXCTL
350
A5B
  3
LIGHTINGUNITS
350
A59
  3
MSLTSCALE
350
A58
  3
PSOLHEIGHT
350
A5D
  3
PSOLWIDTH
350
A5C
  3
SORTENTS
350
A5A
  0
XRECORD
  5
A5F
102
{ACAD_REACTORS
330
C
102
}
330
C
100
AcDbXrecord
280
     1
  1
DWGPROPS COOKIE
  2

  3

  4

  6

  7

  8
orhan kara
  9

300
=
301
=
302
=
303
=
304
=
305
=
306
=
307
=
308
=
309
=
 40
0.0003744791666667
 41
2459081.733524977
 42
2459083.633368785
  1

 90
        0
  0
XRECORD
  5
A52
102
{ACAD_REACTORS
330
13C
102
}
330
13C
100
AcDbXrecord
280
     1
290
     1
  0
LAYOUT
  5
D3
102
{ACAD_XDICTIONARY
360
A63
102
}
102
{ACAD_REACTORS
330
1A
102
}
330
1A
100
AcDbPlotSettings
  1

  2
C:\Documents and Settings\basas\Application Data\Autodesk\AutoCAD 2005\R16.1\enu\plotters\Default Windows System Printer.pc3
  4

  6

 40
0.0
 41
0.0
 42
0.0
 43
0.0
 44
0.0
 45
0.0
 46
0.0
 47
0.0
 48
0.0
 49
0.0
140
0.0
141
0.0
142
1.0
143
1.0
 70
   688
 72
     0
 73
     0
 74
     5
  7

 75
    16
147
1.0
148
0.0
149
0.0
100
AcDbLayout
  1
Layout1
 70
     1
 71
     1
 10
0.0
 20
0.0
 11
12.0
 21
9.0
 12
0.0
 22
0.0
 32
0.0
 14
0.0
 24
0.0
 34
0.0
 15
0.0
 25
0.0
 35
0.0
146
0.0
 13
0.0
 23
0.0
 33
0.0
 16
1.0
 26
0.0
 36
0.0
 17
0.0
 27
1.0
 37
0.0
 76
     0
330
D2
  0
LAYOUT
  5
D7
102
{ACAD_XDICTIONARY
360
A65
102
}
102
{ACAD_REACTORS
330
1A
102
}
330
1A
100
AcDbPlotSettings
  1

  2
C:\Documents and Settings\basas\Application Data\Autodesk\AutoCAD 2005\R16.1\enu\plotters\Default Windows System Printer.pc3
  4

  6

 40
0.0
 41
0.0
 42
0.0
 43
0.0
 44
0.0
 45
0.0
 46
0.0
 47
0.0
 48
0.0
 49
0.0
140
0.0
141
0.0
142
1.0
143
1.0
 70
   688
 72
     0
 73
     0
 74
     5
  7

 75
    16
147
1.0
148
0.0
149
0.0
100
AcDbLayout
  1
Layout2
 70
     1
 71
     2
 10
0.0
 20
0.0
 11
12.0
 21
9.0
 12
0.0
 22
0.0
 32
0.0
 14
0.0
 24
0.0
 34
0.0
 15
0.0
 25
0.0
 35
0.0
146
0.0
 13
0.0
 23
0.0
 33
0.0
 16
1.0
 26
0.0
 36
0.0
 17
0.0
 27
1.0
 37
0.0
 76
     0
330
D6
  0
LAYOUT
  5
22
102
{ACAD_XDICTIONARY
360
A60
102
}
102
{ACAD_REACTORS
330
1A
102
}
330
1A
100
AcDbPlotSettings
  1

  2
none_device
  4
ISO_A4_(210.00_x_297.00_MM)
  6

 40
7.5
 41
20.0
 42
7.5
 43
20.0
 44
210.0
 45
297.0
 46
11.54999923706054
 47
-13.65000009536743
 48
0.0
 49
0.0
140
0.0
141
0.0
142
1.0
143
8.704084754739808
 70
 11952
 72
     1
 73
     0
 74
     0
  7

 75
     0
147
0.1148885871608098
148
0.0
149
0.0
100
AcDbLayout
  1
Model
 70
     1
 71
     0
 10
0.0
 20
0.0
 11
12.0
 21
9.0
 12
0.0
 22
0.0
 32
0.0
 14
0.0
 24
0.0
 34
0.0
 15
0.0
 25
0.0
 35
0.0
146
0.0
 13
0.0
 23
0.0
 33
0.0
 16
1.0
 26
0.0
 36
0.0
 17
0.0
 27
1.0
 37
0.0
 76
     0
330
1F
331
EA
1001
ACAD_PSEXT
1000
None
1000
None
1000
Not applicable
1000
The layout will not be plotted unless a new plotter configuration name is selected.
1070
     0
  0
MATERIAL
  5
ED
102
{ACAD_XDICTIONARY
360
A69
102
}
102
{ACAD_REACTORS
330
6A
102
}
330
6A
100
AcDbMaterial
  1
ByBlock
  0
MATERIAL
  5
EC
102
{ACAD_XDICTIONARY
360
A67
102
}
102
{ACAD_REACTORS
330
6A
102
}
330
6A
100
AcDbMaterial
  1
ByLayer
  0
MATERIAL
  5
EE
102
{ACAD_XDICTIONARY
360
173
102
}
102
{ACAD_REACTORS
330
6A
102
}
330
6A
100
AcDbMaterial
  1
Global
 43
0.0007999999797903
 43
0.0
 43
0.0
 43
0.0
 43
0.0
 43
0.0007999999797903
 43
0.0
 43
0.0
 43
0.0
 43
0.0
 43
1.0
 43
0.0
 43
0.0
 43
0.0
 43
0.0
 43
1.0
 49
0.0007999999797903
 49
0.0
 49
0.0
 49
0.0
 49
0.0
 49
0.0007999999797903
 49
0.0
 49
0.0
 49
0.0
 49
0.0
 49
1.0
 49
0.0
 49
0.0
 49
0.0
 49
0.0
 49
1.0
142
0.0007999999797903
142
0.0
142
0.0
142
0.0
142
0.0
142
0.0007999999797903
142
0.0
142
0.0
142
0.0
142
0.0
142
1.0
142
0.0
142
0.0
142
0.0
142
0.0
142
1.0
144
0.0007999999797903
144
0.0
144
0.0
144
0.0
144
0.0
144
0.0007999999797903
144
0.0
144
0.0
144
0.0
144
0.0
144
1.0
144
0.0
144
0.0
144
0.0
144
0.0
144
1.0
1001
ACAD
1070
    -1
1070
     3
1070
     0
1000

1071
        0
1070
     0
  0
MLEADERSTYLE
  5
13B
102
{ACAD_REACTORS
330
12D
102
}
330
12D
100
AcDbMLeaderStyle
170
     2
171
     1
172
     0
 90
        2
 40
0.0
 41
0.0
173
     1
 91
-1056964608
340
14
 92
       -2
290
     1
 42
2.0
291
     1
 43
8.0
  3
Standard
 44
4.0
300

342
11
174
     1
178
     1
175
     1
176
     0
 93
-1056964608
 45
4.0
292
     0
297
     0
 46
4.0
 94
-1056964608
 47
1.0
 49
1.0
140
1.0
293
     1
141
0.0
294
     1
177
     0
142
1.0
295
     0
296
     1
143
3.75
1001
ACAD_MLEADERVER
1070
     2
  0
MLEADERSTYLE
  5
12E
102
{ACAD_REACTORS
330
12D
102
}
330
12D
100
AcDbMLeaderStyle
170
     2
171
     1
172
     0
 90
        2
 40
0.0
 41
0.0
173
     1
 91
-1056964608
340
14
 92
       -2
290
     1
 42
2.0
291
     1
 43
8.0
  3
Standard
 44
4.0
300

342
11
174
     1
178
     1
175
     1
176
     0
 93
-1056964608
 45
4.0
292
     0
297
     0
 46
4.0
 94
-1056964608
 47
1.0
 49
1.0
140
1.0
293
     1
141
0.0
294
     1
177
     0
142
1.0
295
     0
296
     0
143
3.75
1001
ACAD_MLEADERVER
1070
     2
  0
MLINESTYLE
  5
18
102
{ACAD_REACTORS
330
17
102
}
330
17
100
AcDbMlineStyle
  2
STANDARD
 70
     0
  3

 62
   256
 51
90.0
 52
90.0
 71
     2
 49
0.5
 62
   256
  6
BYLAYER
 49
-0.5
 62
   256
  6
BYLAYER
  0
ACDBPLACEHOLDER
  5
F
102
{ACAD_REACTORS
330
E
102
}
330
E
  0
SCALE
  5
10D
102
{ACAD_REACTORS
330
10C
102
}
330
10C
100
AcDbScale
 70
     0
300
1:1
140
1.0
141
1.0
290
     1
  0
SCALE
  5
188
102
{ACAD_REACTORS
330
10C
102
}
330
10C
100
AcDbScale
 70
     0
300
1:2
140
1.0
141
2.0
290
     0
  0
SCALE
  5
189
102
{ACAD_REACTORS
330
10C
102
}
330
10C
100
AcDbScale
 70
     0
300
1:4
140
1.0
141
4.0
290
     0
  0
SCALE
  5
18A
102
{ACAD_REACTORS
330
10C
102
}
330
10C
100
AcDbScale
 70
     0
300
1:5
140
1.0
141
5.0
290
     0
  0
SCALE
  5
18B
102
{ACAD_REACTORS
330
10C
102
}
330
10C
100
AcDbScale
 70
     0
300
1:8
140
1.0
141
8.0
290
     0
  0
SCALE
  5
18C
102
{ACAD_REACTORS
330
10C
102
}
330
10C
100
AcDbScale
 70
     0
300
1:10
140
1.0
141
10.0
290
     0
  0
SCALE
  5
18D
102
{ACAD_REACTORS
330
10C
102
}
330
10C
100
AcDbScale
 70
     0
300
1:16
140
1.0
141
16.0
290
     0
  0
SCALE
  5
18E
102
{ACAD_REACTORS
330
10C
102
}
330
10C
100
AcDbScale
 70
     0
300
1:20
140
1.0
141
20.0
290
     0
  0
SCALE
  5
18F
102
{ACAD_REACTORS
330
10C
102
}
330
10C
100
AcDbScale
 70
     0
300
1:30
140
1.0
141
30.0
290
     0
  0
SCALE
  5
190
102
{ACAD_REACTORS
330
10C
102
}
330
10C
100
AcDbScale
 70
     0
300
1:40
140
1.0
141
40.0
290
     0
  0
SCALE
  5
191
102
{ACAD_REACTORS
330
10C
102
}
330
10C
100
AcDbScale
 70
     0
300
1:50
140
1.0
141
50.0
290
     0
  0
SCALE
  5
192
102
{ACAD_REACTORS
330
10C
102
}
330
10C
100
AcDbScale
 70
     0
300
1:100
140
1.0
141
100.0
290
     0
  0
SCALE
  5
193
102
{ACAD_REACTORS
330
10C
102
}
330
10C
100
AcDbScale
 70
     0
300
2:1
140
2.0
141
1.0
290
     0
  0
SCALE
  5
194
102
{ACAD_REACTORS
330
10C
102
}
330
10C
100
AcDbScale
 70
     0
300
4:1
140
4.0
141
1.0
290
     0
  0
SCALE
  5
195
102
{ACAD_REACTORS
330
10C
102
}
330
10C
100
AcDbScale
 70
     0
300
8:1
140
8.0
141
1.0
290
     0
  0
SCALE
  5
196
102
{ACAD_REACTORS
330
10C
102
}
330
10C
100
AcDbScale
 70
     0
300
10:1
140
10.0
141
1.0
290
     0
  0
SCALE
  5
197
102
{ACAD_REACTORS
330
10C
102
}
330
10C
100
AcDbScale
 70
     0
300
100:1
140
100.0
141
1.0
290
     0
  0
SCALE
  5
198
102
{ACAD_REACTORS
330
10C
102
}
330
10C
100
AcDbScale
 70
     0
300
1/128" = 1'-0"
140
0.0078125
141
12.0
290
     0
  0
SCALE
  5
199
102
{ACAD_REACTORS
330
10C
102
}
330
10C
100
AcDbScale
 70
     0
300
1/64" = 1'-0"
140
0.015625
141
12.0
290
     0
  0
SCALE
  5
19A
102
{ACAD_REACTORS
330
10C
102
}
330
10C
100
AcDbScale
 70
     0
300
1/32" = 1'-0"
140
0.03125
141
12.0
290
     0
  0
SCALE
  5
19B
102
{ACAD_REACTORS
330
10C
102
}
330
10C
100
AcDbScale
 70
     0
300
1/16" = 1'-0"
140
0.0625
141
12.0
290
     0
  0
SCALE
  5
19C
102
{ACAD_REACTORS
330
10C
102
}
330
10C
100
AcDbScale
 70
     0
300
3/32" = 1'-0"
140
0.09375
141
12.0
290
     0
  0
SCALE
  5
19D
102
{ACAD_REACTORS
330
10C
102
}
330
10C
100
AcDbScale
 70
     0
300
1/8" = 1'-0"
140
0.125
141
12.0
290
     0
  0
SCALE
  5
19E
102
{ACAD_REACTORS
330
10C
102
}
330
10C
100
AcDbScale
 70
     0
300
3/16" = 1'-0"
140
0.1875
141
12.0
290
     0
  0
SCALE
  5
19F
102
{ACAD_REACTORS
330
10C
102
}
330
10C
100
AcDbScale
 70
     0
300
1/4" = 1'-0"
140
0.25
141
12.0
290
     0
  0
SCALE
  5
1A0
102
{ACAD_REACTORS
330
10C
102
}
330
10C
100
AcDbScale
 70
     0
300
3/8" = 1'-0"
140
0.375
141
12.0
290
     0
  0
SCALE
  5
1A1
102
{ACAD_REACTORS
330
10C
102
}
330
10C
100
AcDbScale
 70
     0
300
1/2" = 1'-0"
140
0.5
141
12.0
290
     0
  0
SCALE
  5
1A2
102
{ACAD_REACTORS
330
10C
102
}
330
10C
100
AcDbScale
 70
     0
300
3/4" = 1'-0"
140
0.75
141
12.0
290
     0
  0
SCALE
  5
1A3
102
{ACAD_REACTORS
330
10C
102
}
330
10C
100
AcDbScale
 70
     0
300
1" = 1'-0"
140
1.0
141
12.0
290
     0
  0
SCALE
  5
1A4
102
{ACAD_REACTORS
330
10C
102
}
330
10C
100
AcDbScale
 70
     0
300
1-1/2" = 1'-0"
140
1.5
141
12.0
290
     0
  0
SCALE
  5
1A5
102
{ACAD_REACTORS
330
10C
102
}
330
10C
100
AcDbScale
 70
     0
300
3" = 1'-0"
140
3.0
141
12.0
290
     0
  0
SCALE
  5
1A6
102
{ACAD_REACTORS
330
10C
102
}
330
10C
100
AcDbScale
 70
     0
300
6" = 1'-0"
140
6.0
141
12.0
290
     0
  0
SCALE
  5
1A7
102
{ACAD_REACTORS
330
10C
102
}
330
10C
100
AcDbScale
 70
     0
300
1'-0" = 1'-0"
140
12.0
141
12.0
290
     0
  0
TABLESTYLE
  5
7F
102
{ACAD_XDICTIONARY
360
162
102
}
102
{ACAD_REACTORS
330
7E
102
}
330
7E
100
AcDbTableStyle
  3
Standard
 70
     0
 71
     0
 40
1.5
 41
1.5
280
     0
281
     0
  7
Standard
140
4.5
170
     2
 62
     0
 63
     7
283
     0
274
    -2
284
     1
 64
     0
275
    -2
285
     1
 65
     0
276
    -2
286
     1
 66
     0
277
    -2
287
     1
 67
     0
278
    -2
288
     1
 68
     0
279
    -2
289
     1
 69
     0
  7
Standard
140
6.0
170
     5
 62
     0
 63
     7
283
     0
274
    -2
284
     1
 64
     0
275
    -2
285
     1
 65
     0
276
    -2
286
     1
 66
     0
277
    -2
287
     1
 67
     0
278
    -2
288
     1
 68
     0
279
    -2
289
     1
 69
     0
  7
Standard
140
4.5
170
     5
 62
     0
 63
     7
283
     0
274
    -2
284
     1
 64
     0
275
    -2
285
     1
 65
     0
276
    -2
286
     1
 66
     0
277
    -2
287
     1
 67
     0
278
    -2
288
     1
 68
     0
279
    -2
289
     1
 69
     0
  0
VISUALSTYLE
  5
F5
102
{ACAD_REACTORS
330
EF
102
}
330
EF
100
AcDbVisualStyle
  2
2dWireframe
 70
     4
 71
     0
 72
     2
 73
     1
 90
        0
 40
-0.6
 41
-30.0
 62
     5
 63
     7
 74
     1
 91
        4
 64
     7
 65
   257
 75
     1
175
     1
 42
1.0
 92
        0
 66
   257
 43
1.0
 76
     1
 77
     6
 78
     2
 67
     7
 79
     5
170
     0
171
     0
290
     0
174
     0
 93
        1
 44
0.0
173
     0
291
     0
 45
0.0
1001
ACAD
1000
AcDbSavedByObjectVersion
1070
     0
  0
VISUALSTYLE
  5
F7
102
{ACAD_REACTORS
330
EF
102
}
330
EF
100
AcDbVisualStyle
  2
3D Hidden
 70
     6
 71
     1
 72
     2
 73
     2
 90
        0
 40
-0.6
 41
-30.0
 62
     5
 63
     7
 74
     2
 91
        2
 64
     7
 65
   257
 75
     2
175
     1
 42
40.0
 92
        0
 66
   257
 43
1.0
 76
     1
 77
     6
 78
     2
 67
     7
 79
     3
170
     0
171
     0
290
     0
174
     0
 93
        1
 44
0.0
173
     0
291
     0
 45
0.0
1001
ACAD
1000
AcDbSavedByObjectVersion
1070
     0
  0
VISUALSTYLE
  5
F6
102
{ACAD_REACTORS
330
EF
102
}
330
EF
100
AcDbVisualStyle
  2
3dWireframe
 70
     5
 71
     0
 72
     2
 73
     1
 90
        0
 40
-0.6
 41
-30.0
 62
     5
 63
     7
 74
     1
 91
        4
 64
     7
 65
   257
 75
     1
175
     1
 42
1.0
 92
        0
 66
   257
 43
1.0
 76
     1
 77
     6
 78
     2
 67
     7
 79
     5
170
     0
171
     0
290
     0
174
     0
 93
        1
 44
0.0
173
     0
291
     0
 45
0.0
1001
ACAD
1000
AcDbSavedByObjectVersion
1070
     0
  0
VISUALSTYLE
  5
F4
102
{ACAD_REACTORS
330
EF
102
}
330
EF
100
AcDbVisualStyle
  2
Basic
 70
     7
 71
     1
 72
     0
 73
     1
 90
        0
 40
-0.6
 41
-30.0
 62
     5
 63
     7
 74
     0
 91
        4
 64
     7
 65
   257
 75
     1
175
     1
 42
1.0
 92
        8
 66
     7
 43
1.0
 76
     1
 77
     6
 78
     2
 67
     7
 79
     5
170
     0
171
     0
290
     0
174
     0
 93
        1
 44
0.0
173
     0
291
     1
 45
0.0
1001
ACAD
1000
AcDbSavedByObjectVersion
1070
     0
  0
VISUALSTYLE
  5
FB
102
{ACAD_REACTORS
330
EF
102
}
330
EF
100
AcDbVisualStyle
  2
Brighten
 70
    12
 71
     2
 72
     2
 73
     1
 90
        0
 40
-0.6
 41
-30.0
 62
     5
 63
     7
 74
     1
 91
        4
 64
     7
 65
   257
 75
     1
175
     1
 42
1.0
 92
        8
 66
     7
 43
1.0
 76
     1
 77
     6
 78
     2
 67
     7
 79
     5
170
     0
171
     0
290
     0
174
     0
 93
        1
 44
50.0
173
     0
291
     1
 45
0.0
1001
ACAD
1000
AcDbSavedByObjectVersion
1070
     0
  0
VISUALSTYLE
  5
FF
102
{ACAD_REACTORS
330
EF
102
}
330
EF
100
AcDbVisualStyle
  2
ColorChange
 70
    16
 71
     2
 72
     2
 73
     3
 90
        0
 40
-0.6
 41
-30.0
 62
     5
 63
     8
 74
     1
 91
        4
 64
     7
 65
   257
 75
     1
175
     1
 42
1.0
 92
        8
 66
     8
 43
1.0
 76
     1
 77
     6
 78
     2
 67
     7
 79
     5
170
     0
171
     0
290
     0
174
     0
 93
        1
 44
0.0
173
     0
291
     1
 45
0.0
1001
ACAD
1000
AcDbSavedByObjectVersion
1070
     0
  0
VISUALSTYLE
  5
F8
102
{ACAD_REACTORS
330
EF
102
}
330
EF
100
AcDbVisualStyle
  2
Conceptual
 70
     9
 71
     3
 72
     2
 73
     1
 90
        0
 40
-0.6
 41
-30.0
 62
     5
 63
     7
 74
     2
 91
        2
 64
     7
 65
   257
 75
     1
175
     1
 42
40.0
 92
        8
 66
     7
 43
1.0
 76
     1
 77
     6
 78
     2
 67
     7
 79
     3
170
     0
171
     0
290
     0
174
     0
 93
        1
 44
0.0
173
     0
291
     0
 45
0.0
1001
ACAD
1000
AcDbSavedByObjectVersion
1070
     0
  0
VISUALSTYLE
  5
FA
102
{ACAD_REACTORS
330
EF
102
}
330
EF
100
AcDbVisualStyle
  2
Dim
 70
    11
 71
     2
 72
     2
 73
     1
 90
        0
 40
-0.6
 41
-30.0
 62
     5
 63
     7
 74
     1
 91
        4
 64
     7
 65
   257
 75
     1
175
     1
 42
1.0
 92
        8
 66
     7
 43
1.0
 76
     1
 77
     6
 78
     2
 67
     7
 79
     5
170
     0
171
     0
290
     0
174
     0
 93
        1
 44
-50.0
173
     0
291
     1
 45
0.0
1001
ACAD
1000
AcDbSavedByObjectVersion
1070
     0
  0
VISUALSTYLE
  5
FE
102
{ACAD_REACTORS
330
EF
102
}
330
EF
100
AcDbVisualStyle
  2
Facepattern
 70
    15
 71
     2
 72
     2
 73
     1
 90
        0
 40
-0.6
 41
-30.0
 62
     5
 63
     7
 74
     1
 91
        4
 64
     7
 65
   257
 75
     1
175
     1
 42
1.0
 92
        8
 66
     7
 43
1.0
 76
     1
 77
     6
 78
     2
 67
     7
 79
     5
170
     0
171
     0
290
     0
174
     0
 93
        1
 44
0.0
173
     0
291
     1
 45
0.0
1001
ACAD
1000
AcDbSavedByObjectVersion
1070
     0
  0
VISUALSTYLE
  5
F0
102
{ACAD_REACTORS
330
EF
102
}
330
EF
100
AcDbVisualStyle
  2
Flat
 70
     0
 71
     2
 72
     1
 73
     1
 90
        2
 40
-0.6
 41
30.0
 62
     5
 63
     7
 74
     0
 91
        4
 64
     7
 65
   257
 75
     1
175
     1
 42
1.0
 92
        8
 66
     7
 43
1.0
 76
     1
 77
     6
 78
     2
 67
     7
 79
     5
170
     0
171
     0
290
     0
174
     0
 93
        1
 44
0.0
173
     0
291
     1
 45
0.0
1001
ACAD
1000
AcDbSavedByObjectVersion
1070
     0
  0
VISUALSTYLE
  5
F1
102
{ACAD_REACTORS
330
EF
102
}
330
EF
100
AcDbVisualStyle
  2
FlatWithEdges
 70
     1
 71
     2
 72
     1
 73
     1
 90
        2
 40
-0.6
 41
30.0
 62
     5
 63
     7
 74
     1
 91
        4
 64
     7
 65
   257
 75
     1
175
     1
 42
1.0
 92
        0
 66
   257
 43
1.0
 76
     1
 77
     6
 78
     2
 67
     7
 79
     5
170
     0
171
     0
290
     0
174
     0
 93
        1
 44
0.0
173
     0
291
     1
 45
0.0
1001
ACAD
1000
AcDbSavedByObjectVersion
1070
     0
  0
VISUALSTYLE
  5
F2
102
{ACAD_REACTORS
330
EF
102
}
330
EF
100
AcDbVisualStyle
  2
Gouraud
 70
     2
 71
     2
 72
     2
 73
     1
 90
        2
 40
-0.6
 41
30.0
 62
     5
 63
     7
 74
     0
 91
        4
 64
     7
 65
   257
 75
     1
175
     1
 42
1.0
 92
        0
 66
     7
 43
1.0
 76
     1
 77
     6
 78
     2
 67
     7
 79
     5
170
     0
171
     0
290
     0
174
     0
 93
        1
 44
0.0
173
     0
291
     1
 45
0.0
1001
ACAD
1000
AcDbSavedByObjectVersion
1070
     0
  0
VISUALSTYLE
  5
F3
102
{ACAD_REACTORS
330
EF
102
}
330
EF
100
AcDbVisualStyle
  2
GouraudWithEdges
 70
     3
 71
     2
 72
     2
 73
     1
 90
        2
 40
-0.6
 41
30.0
 62
     5
 63
     7
 74
     1
 91
        4
 64
     7
 65
   257
 75
     1
175
     1
 42
1.0
 92
        0
 66
   257
 43
1.0
 76
     1
 77
     6
 78
     2
 67
     7
 79
     5
170
     0
171
     0
290
     0
174
     0
 93
        1
 44
0.0
173
     0
291
     1
 45
0.0
1001
ACAD
1000
AcDbSavedByObjectVersion
1070
     0
  0
VISUALSTYLE
  5
FD
102
{ACAD_REACTORS
330
EF
102
}
330
EF
100
AcDbVisualStyle
  2
Linepattern
 70
    14
 71
     2
 72
     2
 73
     1
 90
        0
 40
-0.6
 41
-30.0
 62
     5
 63
     7
 74
     1
 91
        4
 64
     7
 65
   257
 75
     7
175
     7
 42
1.0
 92
        8
 66
     7
 43
1.0
 76
     1
 77
     6
 78
     2
 67
     7
 79
     5
170
     0
171
     0
290
     0
174
     0
 93
        1
 44
0.0
173
     0
291
     1
 45
0.0
1001
ACAD
1000
AcDbSavedByObjectVersion
1070
     0
  0
VISUALSTYLE
  5
F9
102
{ACAD_REACTORS
330
EF
102
}
330
EF
100
AcDbVisualStyle
  2
Realistic
 70
     8
 71
     2
 72
     2
 73
     1
 90
        0
 40
-0.6
 41
-30.0
 62
     5
 63
     7
 74
     1
 91
        0
 64
     7
 65
   257
 75
     1
175
     1
 42
1.0
 92
        8
 66
     8
 43
1.0
 76
     1
 77
     6
 78
     2
 67
     7
 79
     5
170
     0
171
     0
290
     0
174
     0
 93
       13
 44
0.0
173
     0
291
     0
 45
0.0
1001
ACAD
1000
AcDbSavedByObjectVersion
1070
     0
  0
VISUALSTYLE
  5
FC
102
{ACAD_REACTORS
330
EF
102
}
330
EF
100
AcDbVisualStyle
  2
Thicken
 70
    13
 71
     2
 72
     2
 73
     1
 90
        0
 40
-0.6
 41
-30.0
 62
     5
 63
     7
 74
     1
 91
        4
 64
     7
 65
   257
 75
     1
175
     1
 42
1.0
 92
       12
 66
     7
 43
1.0
 76
     1
 77
     6
 78
     2
 67
     7
 79
     5
170
     0
171
     0
290
     0
174
     0
 93
        1
 44
0.0
173
     0
291
     1
 45
0.0
1001
ACAD
1000
AcDbSavedByObjectVersion
1070
     0
  0
DICTIONARYVAR
  5
146
102
{ACAD_REACTORS
330
5E
102
}
330
5E
100
DictionaryVariables
280
     0
  1
1:1
  0
DICTIONARYVAR
  5
145
102
{ACAD_REACTORS
330
5E
102
}
330
5E
100
DictionaryVariables
280
     0
  1
STANDARD
  0
DICTIONARYVAR
  5
84
102
{ACAD_REACTORS
330
5E
102
}
330
5E
100
DictionaryVariables
280
     0
  1
STANDARD
  0
DICTIONARYVAR
  5
5F
102
{ACAD_REACTORS
330
5E
102
}
330
5E
100
DictionaryVariables
280
     0
  1
2
  0
DICTIONARYVAR
  5
63
102
{ACAD_REACTORS
330
5E
102
}
330
5E
100
DictionaryVariables
280
     0
  1
1
  0
DICTIONARYVAR
  5
A5B
102
{ACAD_REACTORS
330
5E
102
}
330
5E
100
DictionaryVariables
280
     0
  1
0
  0
DICTIONARYVAR
  5
A59
102
{ACAD_REACTORS
330
5E
102
}
330
5E
100
DictionaryVariables
280
     0
  1
2
  0
DICTIONARYVAR
  5
A58
102
{ACAD_REACTORS
330
5E
102
}
330
5E
100
DictionaryVariables
280
     0
  1
1
  0
DICTIONARYVAR
  5
A5D
102
{ACAD_REACTORS
330
5E
102
}
330
5E
100
DictionaryVariables
280
     0
  1
80.000000
  0
DICTIONARYVAR
  5
A5C
102
{ACAD_REACTORS
330
5E
102
}
330
5E
100
DictionaryVariables
280
     0
  1
5.000000
  0
DICTIONARYVAR
  5
A5A
102
{ACAD_REACTORS
330
5E
102
}
330
5E
100
DictionaryVariables
280
     0
  1
127
  0
DICTIONARY
  5
A63
330
D3
100
AcDbDictionary
280
     1
281
     1
  3
ACAD_XREC_ROUNDTRIP
360
A64
  0
DICTIONARY
  5
A65
330
D7
100
AcDbDictionary
280
     1
281
     1
  3
ACAD_XREC_ROUNDTRIP
360
A66
  0
DICTIONARY
  5
A60
330
22
100
AcDbDictionary
280
     1
281
     1
  3
ACAD_XREC_ROUNDTRIP
360
A61
  0
DICTIONARY
  5
A69
330
ED
100
AcDbDictionary
280
     1
281
     1
  3
ACAD_XREC_ROUNDTRIP
360
A6A
  0
DICTIONARY
  5
A67
330
EC
100
AcDbDictionary
280
     1
281
     1
  3
ACAD_XREC_ROUNDTRIP
360
A68
  0
DICTIONARY
  5
173
330
EE
100
AcDbDictionary
280
     1
281
     1
  3
ACAD_XREC_ROUNDTRIP
360
A6B
  3
BUMPTILE
360
175
  3
DIFFUSETILE
360
174
  3
OPACITYTILE
360
176
  3
REFLECTIONTILE
360
177
  0
DICTIONARY
  5
162
330
7F
100
AcDbDictionary
280
     1
281
     1
  3
ACAD_ROUNDTRIP_2008_TABLESTYLE_CELLSTYLEMAP
360
A5E
  3
ACAD_XREC_ROUNDTRIP
360
A62
  0
XRECORD
  5
A64
102
{ACAD_REACTORS
330
A63
102
}
330
A63
100
AcDbXrecord
280
     1
102
SHADEPLOT
 70
     0
102
SHADEPLOTRESLEVEL
 70
     2
102
SHADEPLOTCUSTOMDPI
 70
   300
  0
XRECORD
  5
A66
102
{ACAD_REACTORS
330
A65
102
}
330
A65
100
AcDbXrecord
280
     1
102
SHADEPLOT
 70
     0
102
SHADEPLOTRESLEVEL
 70
     2
102
SHADEPLOTCUSTOMDPI
 70
   300
  0
XRECORD
  5
A61
102
{ACAD_REACTORS
330
A60
102
}
330
A60
100
AcDbXrecord
280
     1
102
SHADEPLOT
 70
     0
102
SHADEPLOTRESLEVEL
 70
     2
102
SHADEPLOTCUSTOMDPI
 70
   300
  0
XRECORD
  5
A6A
102
{ACAD_REACTORS
330
A69
102
}
330
A69
100
AcDbXrecord
280
     1
102
MATERIAL
148
0.0
149
0.0
149
0.0
 93
        0
 94
       63
282
     0
 72
     1
 77
     1
171
     1
175
     1
179
     1
273
     0
  0
XRECORD
  5
A68
102
{ACAD_REACTORS
330
A67
102
}
330
A67
100
AcDbXrecord
280
     1
102
MATERIAL
148
0.0
149
0.0
149
0.0
 93
        0
 94
       63
282
     0
 72
     1
 77
     1
171
     1
175
     1
179
     1
273
     0
  0
XRECORD
  5
A6B
102
{ACAD_REACTORS
330
173
102
}
330
173
100
AcDbXrecord
280
     1
102
MATERIAL
148
0.0
149
0.0
149
0.0
 93
        0
 94
       63
282
     0
 72
     1
 77
     1
171
     1
175
     1
179
     1
273
     0
  0
XRECORD
  5
175
102
{ACAD_REACTORS
330
173
102
}
330
173
100
AcDbXrecord
280
     1
270
     1
271
     1
  0
XRECORD
  5
174
102
{ACAD_REACTORS
330
173
102
}
330
173
100
AcDbXrecord
280
     1
270
     1
271
     1
  0
XRECORD
  5
176
102
{ACAD_REACTORS
330
173
102
}
330
173
100
AcDbXrecord
280
     1
270
     1
271
     1
  0
XRECORD
  5
177
102
{ACAD_REACTORS
330
173
102
}
330
173
100
AcDbXrecord
280
     1
270
     1
271
     1
  0
CELLSTYLEMAP
  5
A5E
102
{ACAD_REACTORS
330
162
102
}
330
162
100
AcDbCellStyleMap
 90
        3
300
CELLSTYLE
  1
TABLEFORMAT_BEGIN
 90
        5
170
     1
 91
        0
 92
    32768
 62
   257
 93
        1
300
CONTENTFORMAT
  1
CONTENTFORMAT_BEGIN
 90
        0
 91
        0
 92
      512
 93
        0
300

 40
0.0
140
1.0
 94
        5
 62
     0
340
11
144
6.0
309
CONTENTFORMAT_END
171
     1
301
MARGIN
  1
CELLMARGIN_BEGIN
 40
1.5
 40
1.5
 40
1.5
 40
1.5
 40
4.5
 40
4.5
309
CELLMARGIN_END
 94
        6
 95
        1
302
GRIDFORMAT
  1
GRIDFORMAT_BEGIN
 90
        0
 91
        1
 62
     0
 92
       -2
340
14
 93
        0
 40
1.125
309
GRIDFORMAT_END
 95
        2
302
GRIDFORMAT
  1
GRIDFORMAT_BEGIN
 90
        0
 91
        1
 62
     0
 92
       -2
340
14
 93
        0
 40
1.125
309
GRIDFORMAT_END
 95
        4
302
GRIDFORMAT
  1
GRIDFORMAT_BEGIN
 90
        0
 91
        1
 62
     0
 92
       -2
340
14
 93
        0
 40
1.125
309
GRIDFORMAT_END
 95
        8
302
GRIDFORMAT
  1
GRIDFORMAT_BEGIN
 90
        0
 91
        1
 62
     0
 92
       -2
340
14
 93
        0
 40
1.125
309
GRIDFORMAT_END
 95
       16
302
GRIDFORMAT
  1
GRIDFORMAT_BEGIN
 90
        0
 91
        1
 62
     0
 92
       -2
340
14
 93
        0
 40
1.125
309
GRIDFORMAT_END
 95
       32
302
GRIDFORMAT
  1
GRIDFORMAT_BEGIN
 90
        0
 91
        1
 62
     0
 92
       -2
340
14
 93
        0
 40
1.125
309
GRIDFORMAT_END
309
TABLEFORMAT_END
  1
CELLSTYLE_BEGIN
 90
        1
 91
        1
300
_TITLE
309
CELLSTYLE_END
300
CELLSTYLE
  1
TABLEFORMAT_BEGIN
 90
        5
170
     1
 91
        0
 92
        0
 62
   257
 93
        1
300
CONTENTFORMAT
  1
CONTENTFORMAT_BEGIN
 90
        0
 91
        0
 92
      512
 93
        0
300

 40
0.0
140
1.0
 94
        5
 62
     0
340
11
144
4.5
309
CONTENTFORMAT_END
171
     1
301
MARGIN
  1
CELLMARGIN_BEGIN
 40
1.5
 40
1.5
 40
1.5
 40
1.5
 40
4.5
 40
4.5
309
CELLMARGIN_END
 94
        6
 95
        1
302
GRIDFORMAT
  1
GRIDFORMAT_BEGIN
 90
        0
 91
        1
 62
     0
 92
       -2
340
14
 93
        0
 40
1.125
309
GRIDFORMAT_END
 95
        2
302
GRIDFORMAT
  1
GRIDFORMAT_BEGIN
 90
        0
 91
        1
 62
     0
 92
       -2
340
14
 93
        0
 40
1.125
309
GRIDFORMAT_END
 95
        4
302
GRIDFORMAT
  1
GRIDFORMAT_BEGIN
 90
        0
 91
        1
 62
     0
 92
       -2
340
14
 93
        0
 40
1.125
309
GRIDFORMAT_END
 95
        8
302
GRIDFORMAT
  1
GRIDFORMAT_BEGIN
 90
        0
 91
        1
 62
     0
 92
       -2
340
14
 93
        0
 40
1.125
309
GRIDFORMAT_END
 95
       16
302
GRIDFORMAT
  1
GRIDFORMAT_BEGIN
 90
        0
 91
        1
 62
     0
 92
       -2
340
14
 93
        0
 40
1.125
309
GRIDFORMAT_END
 95
       32
302
GRIDFORMAT
  1
GRIDFORMAT_BEGIN
 90
        0
 91
        1
 62
     0
 92
       -2
340
14
 93
        0
 40
1.125
309
GRIDFORMAT_END
309
TABLEFORMAT_END
  1
CELLSTYLE_BEGIN
 90
        2
 91
        1
300
_HEADER
309
CELLSTYLE_END
300
CELLSTYLE
  1
TABLEFORMAT_BEGIN
 90
        5
170
     1
 91
        0
 92
        0
 62
   257
 93
        1
300
CONTENTFORMAT
  1
CONTENTFORMAT_BEGIN
 90
        0
 91
        0
 92
      512
 93
        0
300

 40
0.0
140
1.0
 94
        2
 62
     0
340
11
144
4.5
309
CONTENTFORMAT_END
171
     1
301
MARGIN
  1
CELLMARGIN_BEGIN
 40
1.5
 40
1.5
 40
1.5
 40
1.5
 40
4.5
 40
4.5
309
CELLMARGIN_END
 94
        6
 95
        1
302
GRIDFORMAT
  1
GRIDFORMAT_BEGIN
 90
        0
 91
        1
 62
     0
 92
       -2
340
14
 93
        0
 40
1.125
309
GRIDFORMAT_END
 95
        2
302
GRIDFORMAT
  1
GRIDFORMAT_BEGIN
 90
        0
 91
        1
 62
     0
 92
       -2
340
14
 93
        0
 40
1.125
309
GRIDFORMAT_END
 95
        4
302
GRIDFORMAT
  1
GRIDFORMAT_BEGIN
 90
        0
 91
        1
 62
     0
 92
       -2
340
14
 93
        0
 40
1.125
309
GRIDFORMAT_END
 95
        8
302
GRIDFORMAT
  1
GRIDFORMAT_BEGIN
 90
        0
 91
        1
 62
     0
 92
       -2
340
14
 93
        0
 40
1.125
309
GRIDFORMAT_END
 95
       16
302
GRIDFORMAT
  1
GRIDFORMAT_BEGIN
 90
        0
 91
        1
 62
     0
 92
       -2
340
14
 93
        0
 40
1.125
309
GRIDFORMAT_END
 95
       32
302
GRIDFORMAT
  1
GRIDFORMAT_BEGIN
 90
        0
 91
        1
 62
     0
 92
       -2
340
14
 93
        0
 40
1.125
309
GRIDFORMAT_END
309
TABLEFORMAT_END
  1
CELLSTYLE_BEGIN
 90
        3
 91
        2
300
_DATA
309
CELLSTYLE_END
  0
XRECORD
  5
A62
102
{ACAD_REACTORS
330
162
102
}
330
162
100
AcDbXrecord
280
     1
102
ACAD_ROUNDTRIP_PRE2007_TABLESTYLE
 90
      512
 91
        0
  1

 92
      512
 93
        0
  2

 94
      512
 95
        0
  3

  0
ENDSEC
  0
EOF
