  0
SECTION
  2
HEADER
  9
$ACADVER
  1
AC1015
  9
$ACADMAINTVER
 70
    20
  9
$DWGCODEPAGE
  3
ANSI_1254
  9
$INSBASE
 10
0.0
 20
0.0
 30
0.0
  9
$EXTMIN
 10
2293.087623005176
 20
864.011812393832
 30
0.0
  9
$EXTMAX
 10
2475.986013706249
 20
961.6772882861653
 30
0.0
  9
$LIMMIN
 10
0.0
 20
0.0
  9
$LIMMAX
 10
420.0
 20
297.0
  9
$ORTHOMODE
 70
     0
  9
$REGENMODE
 70
     1
  9
$FILLMODE
 70
     1
  9
$QTEXTMODE
 70
     0
  9
$MIRRTEXT
 70
     0
  9
$LTSCALE
 40
1.0
  9
$ATTMODE
 70
     1
  9
$TEXTSIZE
 40
2.5
  9
$TRACEWID
 40
1.0
  9
$TEXTSTYLE
  7
Standard
  9
$CLAYER
  8
0
  9
$CELTYPE
  6
ByLayer
  9
$CECOLOR
 62
   256
  9
$CELTSCALE
 40
1.0
  9
$DISPSILH
 70
     0
  9
$DIMSCALE
 40
1.0
  9
$DIMASZ
 40
2.5
  9
$DIMEXO
 40
0.625
  9
$DIMDLI
 40
3.75
  9
$DIMRND
 40
0.0
  9
$DIMDLE
 40
0.0
  9
$DIMEXE
 40
1.25
  9
$DIMTP
 40
0.0
  9
$DIMTM
 40
0.0
  9
$DIMTXT
 40
2.5
  9
$DIMCEN
 40
2.5
  9
$DIMTSZ
 40
0.0
  9
$DIMTOL
 70
     0
  9
$DIMLIM
 70
     0
  9
$DIMTIH
 70
     0
  9
$DIMTOH
 70
     0
  9
$DIMSE1
 70
     0
  9
$DIMSE2
 70
     0
  9
$DIMTAD
 70
     1
  9
$DIMZIN
 70
     8
  9
$DIMBLK
  1

  9
$DIMASO
 70
     1
  9
$DIMSHO
 70
     1
  9
$DIMPOST
  1

  9
$DIMAPOST
  1

  9
$DIMALT
 70
     0
  9
$DIMALTD
 70
     3
  9
$DIMALTF
 40
0.03937007874016
  9
$DIMLFAC
 40
1.0
  9
$DIMTOFL
 70
     1
  9
$DIMTVP
 40
0.0
  9
$DIMTIX
 70
     0
  9
$DIMSOXD
 70
     0
  9
$DIMSAH
 70
     0
  9
$DIMBLK1
  1

  9
$DIMBLK2
  1

  9
$DIMSTYLE
  2
ISO-25
  9
$DIMCLRD
 70
     0
  9
$DIMCLRE
 70
     0
  9
$DIMCLRT
 70
     0
  9
$DIMTFAC
 40
1.0
  9
$DIMGAP
 40
0.625
  9
$DIMJUST
 70
     0
  9
$DIMSD1
 70
     0
  9
$DIMSD2
 70
     0
  9
$DIMTOLJ
 70
     0
  9
$DIMTZIN
 70
     8
  9
$DIMALTZ
 70
     0
  9
$DIMALTTZ
 70
     0
  9
$DIMUPT
 70
     0
  9
$DIMDEC
 70
     2
  9
$DIMTDEC
 70
     2
  9
$DIMALTU
 70
     2
  9
$DIMALTTD
 70
     3
  9
$DIMTXSTY
  7
Standard
  9
$DIMAUNIT
 70
     0
  9
$DIMADEC
 70
     0
  9
$DIMALTRND
 40
0.0
  9
$DIMAZIN
 70
     0
  9
$DIMDSEP
 70
    44
  9
$DIMATFIT
 70
     3
  9
$DIMFRAC
 70
     0
  9
$DIMLDRBLK
  1

  9
$DIMLUNIT
 70
     2
  9
$DIMLWD
 70
    -2
  9
$DIMLWE
 70
    -2
  9
$DIMTMOVE
 70
     0
  9
$LUNITS
 70
     2
  9
$LUPREC
 70
     4
  9
$SKETCHINC
 40
1.0
  9
$FILLETRAD
 40
0.0
  9
$AUNITS
 70
     0
  9
$AUPREC
 70
     0
  9
$MENU
  1
.
  9
$ELEVATION
 40
0.0
  9
$PELEVATION
 40
0.0
  9
$THICKNESS
 40
0.0
  9
$LIMCHECK
 70
     0
  9
$CHAMFERA
 40
0.0
  9
$CHAMFERB
 40
0.0
  9
$CHAMFERC
 40
0.0
  9
$CHAMFERD
 40
0.0
  9
$SKPOLY
 70
     0
  9
$TDCREATE
 40
2459083.651218125
  9
$TDUCREATE
 40
2459083.526218125
  9
$TDUPDATE
 40
2459083.685301540
  9
$TDUUPDATE
 40
2459083.560301539
  9
$TDINDWG
 40
0.0003283796
  9
$TDUSRTIMER
 40
0.0003283796
  9
$USRTIMER
 70
     1
  9
$ANGBASE
 50
0.0
  9
$ANGDIR
 70
     0
  9
$PDMODE
 70
     0
  9
$PDSIZE
 40
0.0
  9
$PLINEWID
 40
0.0
  9
$SPLFRAME
 70
     0
  9
$SPLINETYPE
 70
     6
  9
$SPLINESEGS
 70
     8
  9
$HANDSEED
  5
4CB
  9
$SURFTAB1
 70
     6
  9
$SURFTAB2
 70
     6
  9
$SURFTYPE
 70
     6
  9
$SURFU
 70
     6
  9
$SURFV
 70
     6
  9
$UCSBASE
  2

  9
$UCSNAME
  2

  9
$UCSORG
 10
0.0
 20
0.0
 30
0.0
  9
$UCSXDIR
 10
1.0
 20
0.0
 30
0.0
  9
$UCSYDIR
 10
0.0
 20
1.0
 30
0.0
  9
$UCSORTHOREF
  2

  9
$UCSORTHOVIEW
 70
     0
  9
$UCSORGTOP
 10
0.0
 20
0.0
 30
0.0
  9
$UCSORGBOTTOM
 10
0.0
 20
0.0
 30
0.0
  9
$UCSORGLEFT
 10
0.0
 20
0.0
 30
0.0
  9
$UCSORGRIGHT
 10
0.0
 20
0.0
 30
0.0
  9
$UCSORGFRONT
 10
0.0
 20
0.0
 30
0.0
  9
$UCSORGBACK
 10
0.0
 20
0.0
 30
0.0
  9
$PUCSBASE
  2

  9
$PUCSNAME
  2

  9
$PUCSORG
 10
0.0
 20
0.0
 30
0.0
  9
$PUCSXDIR
 10
1.0
 20
0.0
 30
0.0
  9
$PUCSYDIR
 10
0.0
 20
1.0
 30
0.0
  9
$PUCSORTHOREF
  2

  9
$PUCSORTHOVIEW
 70
     0
  9
$PUCSORGTOP
 10
0.0
 20
0.0
 30
0.0
  9
$PUCSORGBOTTOM
 10
0.0
 20
0.0
 30
0.0
  9
$PUCSORGLEFT
 10
0.0
 20
0.0
 30
0.0
  9
$PUCSORGRIGHT
 10
0.0
 20
0.0
 30
0.0
  9
$PUCSORGFRONT
 10
0.0
 20
0.0
 30
0.0
  9
$PUCSORGBACK
 10
0.0
 20
0.0
 30
0.0
  9
$USERI1
 70
     0
  9
$USERI2
 70
     0
  9
$USERI3
 70
     0
  9
$USERI4
 70
     0
  9
$USERI5
 70
     0
  9
$USERR1
 40
0.0
  9
$USERR2
 40
0.0
  9
$USERR3
 40
0.0
  9
$USERR4
 40
0.0
  9
$USERR5
 40
0.0
  9
$WORLDVIEW
 70
     1
  9
$SHADEDGE
 70
     3
  9
$SHADEDIF
 70
    70
  9
$TILEMODE
 70
     1
  9
$MAXACTVP
 70
    64
  9
$PINSBASE
 10
0.0
 20
0.0
 30
0.0
  9
$PLIMCHECK
 70
     0
  9
$PEXTMIN
 10
0.0
 20
0.0
 30
0.0
  9
$PEXTMAX
 10
0.0
 20
0.0
 30
0.0
  9
$PLIMMIN
 10
0.0
 20
0.0
  9
$PLIMMAX
 10
12.0
 20
9.0
  9
$UNITMODE
 70
     0
  9
$VISRETAIN
 70
     1
  9
$PLINEGEN
 70
     0
  9
$PSLTSCALE
 70
     1
  9
$TREEDEPTH
 70
  3020
  9
$CMLSTYLE
  2
Standard
  9
$CMLJUST
 70
     0
  9
$CMLSCALE
 40
20.0
  9
$PROXYGRAPHICS
 70
     1
  9
$MEASUREMENT
 70
     1
  9
$CELWEIGHT
370
    -1
  9
$ENDCAPS
280
     0
  9
$JOINSTYLE
280
     0
  9
$LWDISPLAY
290
     0
  9
$INSUNITS
 70
     4
  9
$HYPERLINKBASE
  1

  9
$STYLESHEET
  1

  9
$XEDIT
290
     1
  9
$CEPSNTYPE
380
     0
  9
$PSTYLEMODE
290
     1
  9
$FINGERPRINTGUID
  2
{57295589-BFD1-48C7-BC14-197781F274B1}
  9
$VERSIONGUID
  2
{BF2152FD-BF0E-4F79-9E53-D4CF076BDB45}
  9
$EXTNAMES
290
     1
  9
$PSVPSCALE
 40
0.0
  9
$OLESTARTUP
290
     0
  0
ENDSEC
  0
SECTION
  2
CLASSES
  0
CLASS
  1
ACDBDICTIONARYWDFLT
  2
AcDbDictionaryWithDefault
  3
ObjectDBX Classes
 90
        0
280
     0
281
     0
  0
CLASS
  1
ACDBPLACEHOLDER
  2
AcDbPlaceHolder
  3
ObjectDBX Classes
 90
        0
280
     0
281
     0
  0
CLASS
  1
LAYOUT
  2
AcDbLayout
  3
ObjectDBX Classes
 90
        0
280
     0
281
     0
  0
CLASS
  1
DICTIONARYVAR
  2
AcDbDictionaryVar
  3
ObjectDBX Classes
 90
        0
280
     0
281
     0
  0
CLASS
  1
TABLESTYLE
  2
AcDbTableStyle
  3
ObjectDBX Classes
 90
     4095
280
     0
281
     0
  0
CLASS
  1
MATERIAL
  2
AcDbMaterial
  3
ObjectDBX Classes
 90
     1153
280
     0
281
     0
  0
CLASS
  1
VISUALSTYLE
  2
AcDbVisualStyle
  3
ObjectDBX Classes
 90
     4095
280
     0
281
     0
  0
CLASS
  1
SCALE
  2
AcDbScale
  3
ObjectDBX Classes
 90
     1153
280
     0
281
     0
  0
CLASS
  1
MLEADERSTYLE
  2
AcDbMLeaderStyle
  3
ACDB_MLEADERSTYLE_CLASS
 90
     4095
280
     0
281
     0
  0
CLASS
  1
CELLSTYLEMAP
  2
AcDbCellStyleMap
  3
ObjectDBX Classes
 90
     1152
280
     0
281
     0
  0
ENDSEC
  0
SECTION
  2
TABLES
  0
TABLE
  2
VPORT
  5
8
330
0
100
AcDbSymbolTable
 70
     1
  0
VPORT
  5
EA
330
8
100
AcDbSymbolTableRecord
100
AcDbViewportTableRecord
  2
*Active
 70
     0
 10
0.0
 20
0.0
 11
1.0
 21
1.0
 12
2384.51253882016
 22
919.2991656542091
 13
0.0
 23
0.0
 14
10.0
 24
10.0
 15
10.0
 25
10.0
 16
0.0
 26
0.0
 36
1.0
 17
0.0
 27
0.0
 37
0.0
 40
111.5055852791692
 41
1.903110047846889
 42
50.0
 43
0.0
 44
0.0
 50
0.0
 51
0.0
 71
     0
 72
  1000
 73
     1
 74
     3
 75
     0
 76
     0
 77
     0
 78
     0
281
     0
 65
     1
110
0.0
120
0.0
130
0.0
111
1.0
121
0.0
131
0.0
112
0.0
122
1.0
132
0.0
 79
     0
146
0.0
  0
ENDTAB
  0
TABLE
  2
LTYPE
  5
5
330
0
100
AcDbSymbolTable
 70
     1
  0
LTYPE
  5
14
330
5
100
AcDbSymbolTableRecord
100
AcDbLinetypeTableRecord
  2
ByBlock
 70
     0
  3

 72
    65
 73
     0
 40
0.0
  0
LTYPE
  5
15
330
5
100
AcDbSymbolTableRecord
100
AcDbLinetypeTableRecord
  2
ByLayer
 70
     0
  3

 72
    65
 73
     0
 40
0.0
  0
LTYPE
  5
16
330
5
100
AcDbSymbolTableRecord
100
AcDbLinetypeTableRecord
  2
Continuous
 70
     0
  3
Solid line
 72
    65
 73
     0
 40
0.0
  0
ENDTAB
  0
TABLE
  2
LAYER
  5
2
330
0
100
AcDbSymbolTable
 70
     1
  0
LAYER
  5
10
102
{ACAD_XDICTIONARY
360
13C
102
}
330
2
100
AcDbSymbolTableRecord
100
AcDbLayerTableRecord
  2
0
 70
     0
 62
     7
  6
Continuous
370
    -3
390
F
  0
ENDTAB
  0
TABLE
  2
STYLE
  5
3
330
0
100
AcDbSymbolTable
 70
     2
  0
STYLE
  5
11
330
3
100
AcDbSymbolTableRecord
100
AcDbTextStyleTableRecord
  2
Standard
 70
     0
 40
0.0
 41
1.0
 50
0.0
 71
     0
 42
2.5
  3
txt
  4

  0
STYLE
  5
132
330
3
100
AcDbSymbolTableRecord
100
AcDbTextStyleTableRecord
  2
Annotative
 70
     0
 40
0.0
 41
1.0
 50
0.0
 71
     0
 42
2.5
  3
txt.shx
  4

1001
AcadAnnotative
1000
AnnotativeData
1002
{
1070
     1
1070
     1
1002
}
  0
ENDTAB
  0
TABLE
  2
VIEW
  5
6
330
0
100
AcDbSymbolTable
 70
     0
  0
ENDTAB
  0
TABLE
  2
UCS
  5
7
330
0
100
AcDbSymbolTable
 70
     0
  0
ENDTAB
  0
TABLE
  2
APPID
  5
9
330
0
100
AcDbSymbolTable
 70
     7
  0
APPID
  5
12
330
9
100
AcDbSymbolTableRecord
100
AcDbRegAppTableRecord
  2
ACAD
 70
     0
  0
APPID
  5
9E
330
9
100
AcDbSymbolTableRecord
100
AcDbRegAppTableRecord
  2
ACAD_PSEXT
 70
     0
  0
APPID
  5
133
330
9
100
AcDbSymbolTableRecord
100
AcDbRegAppTableRecord
  2
AcadAnnoPO
 70
     0
  0
APPID
  5
134
330
9
100
AcDbSymbolTableRecord
100
AcDbRegAppTableRecord
  2
AcadAnnotative
 70
     0
  0
APPID
  5
135
330
9
100
AcDbSymbolTableRecord
100
AcDbRegAppTableRecord
  2
ACAD_DSTYLE_DIMJAG
 70
     0
  0
APPID
  5
136
330
9
100
AcDbSymbolTableRecord
100
AcDbRegAppTableRecord
  2
ACAD_DSTYLE_DIMTALN
 70
     0
  0
APPID
  5
165
330
9
100
AcDbSymbolTableRecord
100
AcDbRegAppTableRecord
  2
ACAD_MLEADERVER
 70
     0
  0
ENDTAB
  0
TABLE
  2
DIMSTYLE
  5
A
330
0
100
AcDbSymbolTable
 70
     2
100
AcDbDimStyleTable
 71
     2
340
27
340
137
  0
DIMSTYLE
105
27
330
A
100
AcDbSymbolTableRecord
100
AcDbDimStyleTableRecord
  2
ISO-25
 70
     0
 41
2.5
 42
0.625
 43
3.75
 44
1.25
 73
     0
 74
     0
 77
     1
 78
     8
140
2.5
141
2.5
143
0.03937007874016
147
0.625
171
     3
172
     1
271
     2
272
     2
274
     3
278
    44
283
     0
284
     8
340
11
  0
DIMSTYLE
105
137
330
A
100
AcDbSymbolTableRecord
100
AcDbDimStyleTableRecord
  2
Annotative
 70
     0
 40
0.0
 41
2.5
 42
0.625
 43
3.75
 44
1.25
 73
     0
 74
     0
 77
     1
 78
     8
140
2.5
141
2.5
143
0.03937007874016
147
0.625
171
     3
172
     1
271
     2
272
     2
274
     3
278
    44
283
     0
284
     8
340
11
1001
AcadAnnotative
1000
AnnotativeData
1002
{
1070
     1
1070
     1
1002
}
1001
ACAD_DSTYLE_DIMJAG
1070
   388
1040
1.5
1001
ACAD_DSTYLE_DIMTALN
1070
   392
1070
     0
  0
ENDTAB
  0
TABLE
  2
BLOCK_RECORD
  5
1
330
0
100
AcDbSymbolTable
 70
    12
  0
BLOCK_RECORD
  5
1F
330
1
100
AcDbSymbolTableRecord
100
AcDbBlockTableRecord
  2
*Model_Space
340
22
  0
BLOCK_RECORD
  5
D2
330
1
100
AcDbSymbolTableRecord
100
AcDbBlockTableRecord
  2
*Paper_Space
340
D3
  0
BLOCK_RECORD
  5
D6
330
1
100
AcDbSymbolTableRecord
100
AcDbBlockTableRecord
  2
*Paper_Space0
340
D7
  0
BLOCK_RECORD
  5
1AD
330
1
100
AcDbSymbolTableRecord
100
AcDbBlockTableRecord
  2
SW_CENTERMARKSYMBOL_0
340
0
102
{BLKREFS
331
403
102
}
  0
BLOCK_RECORD
  5
1B8
330
1
100
AcDbSymbolTableRecord
100
AcDbBlockTableRecord
  2
SW_CENTERMARKSYMBOL_1
340
0
102
{BLKREFS
331
404
102
}
  0
BLOCK_RECORD
  5
1C3
330
1
100
AcDbSymbolTableRecord
100
AcDbBlockTableRecord
  2
SW_CENTERMARKSYMBOL_2
340
0
102
{BLKREFS
331
477
102
}
  0
BLOCK_RECORD
  5
1CE
330
1
100
AcDbSymbolTableRecord
100
AcDbBlockTableRecord
  2
SW_CENTERMARKSYMBOL_3
340
0
102
{BLKREFS
331
478
102
}
  0
BLOCK_RECORD
  5
1D9
330
1
100
AcDbSymbolTableRecord
100
AcDbBlockTableRecord
  2
SW_CENTERMARKSYMBOL_4
340
0
102
{BLKREFS
331
479
102
}
  0
BLOCK_RECORD
  5
1E4
330
1
100
AcDbSymbolTableRecord
100
AcDbBlockTableRecord
  2
SW_CENTERMARKSYMBOL_5
340
0
102
{BLKREFS
331
47A
102
}
  0
BLOCK_RECORD
  5
1EF
330
1
100
AcDbSymbolTableRecord
100
AcDbBlockTableRecord
  2
SW_CENTERMARKSYMBOL_6
340
0
102
{BLKREFS
331
47B
102
}
  0
BLOCK_RECORD
  5
3C0
330
1
100
AcDbSymbolTableRecord
100
AcDbBlockTableRecord
  2
1
340
0
310
2800000020000000200000000100080000000000000400000000000000000000000000000000000000000000000080000080000000808000800000008000800080800000C0C0C000C0DCC000F0CAA6000020400000206000002080000020A0000020C0000020E00000400000004020000040400000406000004080000040A0
310
000040C0000040E00000600000006020000060400000606000006080000060A0000060C0000060E00000800000008020000080400000806000008080000080A0000080C0000080E00000A0000000A0200000A0400000A0600000A0800000A0A00000A0C00000A0E00000C0000000C0200000C0400000C0600000C0800000C0
310
A00000C0C00000C0E00000E0000000E0200000E0400000E0600000E0800000E0A00000E0C00000E0E00040000000400020004000400040006000400080004000A0004000C0004000E00040200000402020004020400040206000402080004020A0004020C0004020E000404000004040200040404000404060004040800040
310
40A0004040C0004040E00040600000406020004060400040606000406080004060A0004060C0004060E00040800000408020004080400040806000408080004080A0004080C0004080E00040A0000040A0200040A0400040A0600040A0800040A0A00040A0C00040A0E00040C0000040C0200040C0400040C0600040C08000
310
40C0A00040C0C00040C0E00040E0000040E0200040E0400040E0600040E0800040E0A00040E0C00040E0E00080000000800020008000400080006000800080008000A0008000C0008000E00080200000802020008020400080206000802080008020A0008020C0008020E00080400000804020008040400080406000804080
310
008040A0008040C0008040E00080600000806020008060400080606000806080008060A0008060C0008060E00080800000808020008080400080806000808080008080A0008080C0008080E00080A0000080A0200080A0400080A0600080A0800080A0A00080A0C00080A0E00080C0000080C0200080C0400080C0600080C0
310
800080C0A00080C0C00080C0E00080E0000080E0200080E0400080E0600080E0800080E0A00080E0C00080E0E000C0000000C0002000C0004000C0006000C0008000C000A000C000C000C000E000C0200000C0202000C0204000C0206000C0208000C020A000C020C000C020E000C0400000C0402000C0404000C0406000C0
310
408000C040A000C040C000C040E000C0600000C0602000C0604000C0606000C0608000C060A000C060C000C060E000C0800000C0802000C0804000C0806000C0808000C080A000C080C000C080E000C0A00000C0A02000C0A04000C0A06000C0A08000C0A0A000C0A0C000C0A0E000C0C00000C0C02000C0C04000C0C06000
310
C0C08000C0C0A000F0FBFF00A4A0A000808080000000FF0000FF000000FFFF00FF000000FF00FF00FFFF0000FFFFFF0000000000000000000000000000000000000000000000000000000000000000000000FFFFFFFFFFFFFFFFFFFFFFFFFFFFFFFFFFFFFFFFFFFFFFFFFFFFFFFF000000FFFFFFFFFFFFFFFFFFFFFFFFFFFF
310
FFFFFFFFFFFFFFFFFFFFFFFFFFFFFFFF0000FF00000000000000000000000000000000000000000000000000000000FF0000FF00000000000000000000000000000000000000000000000000000000FF0000FF00000000000000000000000000000000000000000000000000000000FF0000FF000000000000000000000000
310
00000000000000000000000000000000FF0000FF00000000000000000000000000000000000000000000000000000000FF0000FF00000000000000000000000000000000000000000000000000000000FF0000FF00000000000000000000000000000000000000000000000000000000FF0000FF0000000000000000000000
310
0000000000000000000000000000000000FF0000FF00000000000000000000000000000000000000000000000000000000FF0000FF00000000000000000000000000000000000000000000000000000000FF0000FF00000000000000000000000000000000000000000000000000000000FF0000FF00000000000000000000
310
000000000000000000000000000000000000FF0000FF00000000000000000000000000000000000000000000000000000000FF0000FF00000000000000000000000000000000000000000000000000000000FF0000FF00000000000000000000000000000000000000000000000000000000FF0000FF000000000000000000
310
00000000000000000000000000000000000000FF0000FF00000000000000000000000000000000000000000000000000000000FF0000FF00000000000000000000000000000000000000000000000000000000FF0000FF00000000000000000000000000000000000000000000000000000000FF0000FF0000000000000000
310
0000000000000000000000000000000000000000FF0000FF00000000000000000000000000000000000000000000000000000000FF0000FF00000000000000000000000000000000000000000000000000000000FF0000FF00000000000000000000000000000000000000000000000000000000FF0000FF00000000000000
310
000000000000000000000000000000000000000000FF0000FF00000000000000000000000000000000000000000000000000000000FF0000FF00000000000000000000000000000000000000000000000000000000FF0000FFFFFFFFFFFFFFFFFFFFFFFFFFFFFFFFFFFFFFFFFFFFFFFFFFFFFFFFFFFF000000FFFFFFFFFFFF
310
FFFFFFFFFFFFFFFFFFFFFFFFFFFFFFFFFFFFFFFFFFFF00000000000000000000000000000000000000000000000000000000000000000000
102
{BLKREFS
331
3CD
102
}
1001
ACAD
1000
DesignCenter Data
1002
{
1070
     1
1070
     4
1002
}
  0
BLOCK_RECORD
  5
3CE
330
1
100
AcDbSymbolTableRecord
100
AcDbBlockTableRecord
  2
2
340
0
310
2800000020000000200000000100080000000000000400000000000000000000000000000000000000000000000080000080000000808000800000008000800080800000C0C0C000C0DCC000F0CAA6000020400000206000002080000020A0000020C0000020E00000400000004020000040400000406000004080000040A0
310
000040C0000040E00000600000006020000060400000606000006080000060A0000060C0000060E00000800000008020000080400000806000008080000080A0000080C0000080E00000A0000000A0200000A0400000A0600000A0800000A0A00000A0C00000A0E00000C0000000C0200000C0400000C0600000C0800000C0
310
A00000C0C00000C0E00000E0000000E0200000E0400000E0600000E0800000E0A00000E0C00000E0E00040000000400020004000400040006000400080004000A0004000C0004000E00040200000402020004020400040206000402080004020A0004020C0004020E000404000004040200040404000404060004040800040
310
40A0004040C0004040E00040600000406020004060400040606000406080004060A0004060C0004060E00040800000408020004080400040806000408080004080A0004080C0004080E00040A0000040A0200040A0400040A0600040A0800040A0A00040A0C00040A0E00040C0000040C0200040C0400040C0600040C08000
310
40C0A00040C0C00040C0E00040E0000040E0200040E0400040E0600040E0800040E0A00040E0C00040E0E00080000000800020008000400080006000800080008000A0008000C0008000E00080200000802020008020400080206000802080008020A0008020C0008020E00080400000804020008040400080406000804080
310
008040A0008040C0008040E00080600000806020008060400080606000806080008060A0008060C0008060E00080800000808020008080400080806000808080008080A0008080C0008080E00080A0000080A0200080A0400080A0600080A0800080A0A00080A0C00080A0E00080C0000080C0200080C0400080C0600080C0
310
800080C0A00080C0C00080C0E00080E0000080E0200080E0400080E0600080E0800080E0A00080E0C00080E0E000C0000000C0002000C0004000C0006000C0008000C000A000C000C000C000E000C0200000C0202000C0204000C0206000C0208000C020A000C020C000C020E000C0400000C0402000C0404000C0406000C0
310
408000C040A000C040C000C040E000C0600000C0602000C0604000C0606000C0608000C060A000C060C000C060E000C0800000C0802000C0804000C0806000C0808000C080A000C080C000C080E000C0A00000C0A02000C0A04000C0A06000C0A08000C0A0A000C0A0C000C0A0E000C0C00000C0C02000C0C04000C0C06000
310
C0C08000C0C0A000F0FBFF00A4A0A000808080000000FF0000FF000000FFFF00FF000000FF00FF00FFFF0000FFFFFF0000000000000000000000000000000000000000000000000000000000000000000000000000000000000000000000000000000000000000000000000000000000000000000000000000000000000000
310
0000000000000000000000000000000000000000000000000000000000000000000000000000000000000000000000000000000000000000000000000000000000000000000000000000000000000000000000FFFFFFFFFFFFFFFFFFFFFFFFFFFFFFFFFFFFFFFFFFFFFFFFFFFFFFFF000000FFFFFFFFFFFFFFFFFFFFFFFFFF
310
FFFFFFFFFFFFFFFFFFFFFFFFFFFFFFFFFF0000FF000000000000FF0000000000000000000000000000FF000000000000FF0000FF000000000000FF0000000000000000000000000000FF000000000000FF0000FF000000000000FF0000000000000000000000000000FF000000000000FF0000FF0000000000FF00FF000000
310
000000000000000000FF00FF0000000000FF0000FF00000000FF00FF00FF00000000000000000000FFFFFF00FF00000000FF0000FF000000FF0000FF00FFFF0000000000000000FFFF00FF0000FF000000FF0000FFFFFFFFFFFFFFFFFFFFFFFFFF00000000FFFFFFFFFFFFFFFFFFFFFFFFFF0000FF0000FFFF0000FF0000FF
310
FF000000000000FFFF0000FF0000FFFF0000FF0000FF0000FFFF0000000000FFFF000000000000FFFF0000000000FFFF0000FF0000FF0000FFFFFFFFFFFFFFFFFF000000000000FFFFFFFFFFFFFFFFFF0000FF0000FF0000FFFFFFFFFFFFFFFFFF000000000000FFFFFFFFFFFFFFFFFF0000FF0000FF0000FFFFFFFFFFFFFF
310
FFFF000000000000FFFFFFFFFFFFFFFFFF0000FF0000FF00000000000000000000000000000000000000000000000000000000FF0000FF00000000000000000000000000000000000000000000000000000000FF0000FF00000000000000000000000000000000000000000000000000000000FF0000FF0000000000000000
310
0000000000000000000000000000000000000000FF0000FF00000000000000000000000000000000000000000000000000000000FF0000FF00000000000000000000000000000000000000000000000000000000FF0000FFFFFFFFFFFFFFFFFFFFFFFFFFFFFFFFFFFFFFFFFFFFFFFFFFFFFFFFFFFF000000FFFFFFFFFFFFFF
310
FFFFFFFFFFFFFFFFFFFFFFFFFFFFFFFFFFFFFFFFFF00000000000000000000000000000000000000000000000000000000000000000000000000000000000000000000000000000000000000000000000000000000000000000000000000000000000000000000000000000000000000000000000000000000000000000000
310
0000000000000000000000000000000000000000000000000000000000000000000000000000000000000000000000000000000000000000
102
{BLKREFS
331
405
102
}
1001
ACAD
1000
DesignCenter Data
1002
{
1070
     1
1070
     4
1002
}
  0
BLOCK_RECORD
  5
406
330
1
100
AcDbSymbolTableRecord
100
AcDbBlockTableRecord
  2
3
340
0
310
2800000020000000200000000100080000000000000400000000000000000000000000000000000000000000000080000080000000808000800000008000800080800000C0C0C000C0DCC000F0CAA6000020400000206000002080000020A0000020C0000020E00000400000004020000040400000406000004080000040A0
310
000040C0000040E00000600000006020000060400000606000006080000060A0000060C0000060E00000800000008020000080400000806000008080000080A0000080C0000080E00000A0000000A0200000A0400000A0600000A0800000A0A00000A0C00000A0E00000C0000000C0200000C0400000C0600000C0800000C0
310
A00000C0C00000C0E00000E0000000E0200000E0400000E0600000E0800000E0A00000E0C00000E0E00040000000400020004000400040006000400080004000A0004000C0004000E00040200000402020004020400040206000402080004020A0004020C0004020E000404000004040200040404000404060004040800040
310
40A0004040C0004040E00040600000406020004060400040606000406080004060A0004060C0004060E00040800000408020004080400040806000408080004080A0004080C0004080E00040A0000040A0200040A0400040A0600040A0800040A0A00040A0C00040A0E00040C0000040C0200040C0400040C0600040C08000
310
40C0A00040C0C00040C0E00040E0000040E0200040E0400040E0600040E0800040E0A00040E0C00040E0E00080000000800020008000400080006000800080008000A0008000C0008000E00080200000802020008020400080206000802080008020A0008020C0008020E00080400000804020008040400080406000804080
310
008040A0008040C0008040E00080600000806020008060400080606000806080008060A0008060C0008060E00080800000808020008080400080806000808080008080A0008080C0008080E00080A0000080A0200080A0400080A0600080A0800080A0A00080A0C00080A0E00080C0000080C0200080C0400080C0600080C0
310
800080C0A00080C0C00080C0E00080E0000080E0200080E0400080E0600080E0800080E0A00080E0C00080E0E000C0000000C0002000C0004000C0006000C0008000C000A000C000C000C000E000C0200000C0202000C0204000C0206000C0208000C020A000C020C000C020E000C0400000C0402000C0404000C0406000C0
310
408000C040A000C040C000C040E000C0600000C0602000C0604000C0606000C0608000C060A000C060C000C060E000C0800000C0802000C0804000C0806000C0808000C080A000C080C000C080E000C0A00000C0A02000C0A04000C0A06000C0A08000C0A0A000C0A0C000C0A0E000C0C00000C0C02000C0C04000C0C06000
310
C0C08000C0C0A000F0FBFF00A4A0A000808080000000FF0000FF000000FFFF00FF000000FF00FF00FFFF0000FFFFFF0000000000000000000000000000000000000000000000000000000000000000000000000000FFFFFFFFFFFFFFFFFFFFFFFFFFFFFFFFFFFFFFFFFFFF00000000000000000000FFFFFFFFFFFFFFFFFFFF
310
FFFFFFFFFFFFFFFFFFFFFFFF00000000000000000000FFFF0000000000FF000000000000FF0000000000FFFF00000000000000000000FFFF0000000000FF000000000000FF0000000000FFFF00000000000000000000FFFF0000000000FF000000000000FF0000000000FFFF00000000000000000000FFFF000000FFFFFFFF
310
00000000FFFFFF00000000FFFF00000000000000000000FFFF000000FFFFFFFF00000000FFFFFFFF000000FFFF00000000000000000000FFFFFFFFFFFFFFFFFFFFFFFFFFFFFFFFFFFFFFFFFFFF00000000000000000000FFFF000000FFFFFFFF00000000FFFFFFFF000000FFFF00000000000000000000FFFF000000FFFFFF
310
FF00000000FFFFFF00000000FFFF00000000000000000000FFFF0000000000FF000000FF0000FF0000000000FFFF00000000000000000000FFFF0000000000FF000000FF0000FF0000000000FFFF00000000000000000000FFFF000000000000000000FF0000000000000000FFFF00000000000000000000FFFF0000000000
310
000000FFFFFF00000000000000FFFF00000000000000000000FFFF00000000000000FFFFFFFF00000000000000FFFF00000000000000000000FFFF00000000FFFFFFFFFFFFFFFFFFFF00000000FFFF00000000000000000000FFFF00000000000000FFFFFFFF00000000000000FFFF00000000000000000000FFFF00000000
310
0000000000FF0000000000000000FFFF00000000000000000000FFFF0000000000FF000000FF0000FF0000000000FFFF00000000000000000000FFFF0000000000FF000000FF0000FF0000000000FFFF00000000000000000000FFFF000000FFFFFFFF00000000FFFFFF00000000FFFF00000000000000000000FFFF000000
310
FFFFFFFF00000000FFFFFFFF000000FFFF00000000000000000000FFFFFFFFFFFFFFFFFFFFFFFFFFFFFFFFFFFFFFFFFFFF00000000000000000000FFFF000000FFFFFFFF00000000FFFFFFFF000000FFFF00000000000000000000FFFF000000FFFFFFFF00000000FFFFFF00000000FFFF00000000000000000000FFFF0000
310
000000FF000000000000FF0000000000FFFF00000000000000000000FFFF0000000000FF000000000000FF0000000000FFFF00000000000000000000FFFF0000000000FF000000000000FF0000000000FFFF00000000000000000000FFFFFFFFFFFFFFFFFFFFFFFFFFFFFFFFFFFFFFFFFFFF00000000000000000000FFFFFF
310
FFFFFFFFFFFFFFFFFFFFFFFFFFFFFFFFFFFFFF00000000000000000000000000000000000000000000000000000000000000000000000000
102
{BLKREFS
331
47C
102
}
1001
ACAD
1000
DesignCenter Data
1002
{
1070
     1
1070
     4
1002
}
  0
BLOCK_RECORD
  5
47D
330
1
100
AcDbSymbolTableRecord
100
AcDbBlockTableRecord
  2
4
340
0
310
2800000020000000200000000100080000000000000400000000000000000000000000000000000000000000000080000080000000808000800000008000800080800000C0C0C000C0DCC000F0CAA6000020400000206000002080000020A0000020C0000020E00000400000004020000040400000406000004080000040A0
310
000040C0000040E00000600000006020000060400000606000006080000060A0000060C0000060E00000800000008020000080400000806000008080000080A0000080C0000080E00000A0000000A0200000A0400000A0600000A0800000A0A00000A0C00000A0E00000C0000000C0200000C0400000C0600000C0800000C0
310
A00000C0C00000C0E00000E0000000E0200000E0400000E0600000E0800000E0A00000E0C00000E0E00040000000400020004000400040006000400080004000A0004000C0004000E00040200000402020004020400040206000402080004020A0004020C0004020E000404000004040200040404000404060004040800040
310
40A0004040C0004040E00040600000406020004060400040606000406080004060A0004060C0004060E00040800000408020004080400040806000408080004080A0004080C0004080E00040A0000040A0200040A0400040A0600040A0800040A0A00040A0C00040A0E00040C0000040C0200040C0400040C0600040C08000
310
40C0A00040C0C00040C0E00040E0000040E0200040E0400040E0600040E0800040E0A00040E0C00040E0E00080000000800020008000400080006000800080008000A0008000C0008000E00080200000802020008020400080206000802080008020A0008020C0008020E00080400000804020008040400080406000804080
310
008040A0008040C0008040E00080600000806020008060400080606000806080008060A0008060C0008060E00080800000808020008080400080806000808080008080A0008080C0008080E00080A0000080A0200080A0400080A0600080A0800080A0A00080A0C00080A0E00080C0000080C0200080C0400080C0600080C0
310
800080C0A00080C0C00080C0E00080E0000080E0200080E0400080E0600080E0800080E0A00080E0C00080E0E000C0000000C0002000C0004000C0006000C0008000C000A000C000C000C000E000C0200000C0202000C0204000C0206000C0208000C020A000C020C000C020E000C0400000C0402000C0404000C0406000C0
310
408000C040A000C040C000C040E000C0600000C0602000C0604000C0606000C0608000C060A000C060C000C060E000C0800000C0802000C0804000C0806000C0808000C080A000C080C000C080E000C0A00000C0A02000C0A04000C0A06000C0A08000C0A0A000C0A0C000C0A0E000C0C00000C0C02000C0C04000C0C06000
310
C0C08000C0C0A000F0FBFF00A4A0A000808080000000FF0000FF000000FFFF00FF000000FF00FF00FFFF0000FFFFFF00000000000000000000000000000000000000000000000000000000000000000000000000000000000000000000FF0000000000000000000000000000000000000000000000000000000000FFFFFFFF
310
FF0000000000000000000000000000000000000000000000000000FF0000FF0000FFFF00000000000000000000000000000000000000000000FFFF000000FF00000000FFFF000000000000000000000000000000000000FFFF0000000000FF00FFFFFF00FFFFFF000000000000000000000000000000FF00000000000000FF
310
00FF00FFFF0000FFFF000000000000000000000000FFFF0000000000000000FF00FFFF00FFFF0000FFFFFF000000000000000000FF00000000000000000000FF00FFFF0000FF00000000FFFFFF00000000000000FF00000000000000000000FF00FFFFFF00FF000000000000FFFFFF0000000000FF00000000000000000000
310
FF00FFFFFFA4FF00000000FFFF00FFFFFF00000000FF00000000000000000000FF0000FFFF00FF000000FFFF00FFFF00FF00000000FF00000000000000000000FF000000FFFFFF000000FFFF0000FF00FF00000000FF00000000000000000000FF0000000000FF000000FFFFFF00FFFFFF00000000FF000000000000000000
310
00FF000000000000000000FFFFFF0000FFFF00000000FF0000000000000000FFFFFFFFFF00000000000000FF00FFFFA4FFFF00000000FF000000000000FFFFFFFF00FFFFFFFF000000000000FFFFFF00FFFF00000000FF00000000FFFFFFFF00FFFFFFFFFFFFFFFF0000000000FFFFFFFFFF00000000FF0000FFFFFFFF0000
310
FF000000FFFF00FFFFFF00000000000000FFFF00000000FFFFFFFFFF00000000FFFF00FFFFFF000000FFFFFF000000000000FF00000000FFFFFF0000FFFFFFFFFF00FFFF00000000000000FFFFFF00000000FF00000000FF00000000FF000000FF0000FFFFFFFF000000000000FFFFFF0000FF0000000000FFFF0000FFFFFF
310
FFFF00FF00000000FF00FFFFFFFFFF00FFFFFFFF00000000000000FFFF000000000000FFFFFFFFFFFF00FF000000FF000000FFFF000000000000000000FFFF0000000000000000000000FFFF00FFFF0000FFFF000000000000000000000000FFFF00000000FFFFFFFFFFFFFFFFFF0000FF0000000000000000000000000000
310
0000FF000000FFFF000000FF000000FFFF000000000000000000000000000000000000FFFF0000FFFFFFFFFF00FFFF00000000000000000000000000000000000000000000FFFF0000000000FF0000000000000000000000000000000000000000000000000000FFFF00FFFF00000000000000000000000000000000000000
310
00000000000000000000FF000000000000000000000000000000000000000000000000000000000000000000000000000000000000000000
102
{BLKREFS
331
4B0
102
}
1001
ACAD
1000
DesignCenter Data
1002
{
1070
     1
1070
     4
1002
}
  0
ENDTAB
  0
ENDSEC
  0
SECTION
  2
BLOCKS
  0
BLOCK
  5
20
330
1F
100
AcDbEntity
  8
0
100
AcDbBlockBegin
  2
*Model_Space
 70
     0
 10
0.0
 20
0.0
 30
0.0
  3
*Model_Space
  1

  0
ENDBLK
  5
21
330
1F
100
AcDbEntity
  8
0
100
AcDbBlockEnd
  0
BLOCK
  5
D4
330
D2
100
AcDbEntity
 67
     1
  8
0
100
AcDbBlockBegin
  2
*Paper_Space
 70
     0
 10
0.0
 20
0.0
 30
0.0
  3
*Paper_Space
  1

  0
ENDBLK
  5
D5
330
D2
100
AcDbEntity
 67
     1
  8
0
100
AcDbBlockEnd
  0
BLOCK
  5
D8
330
D6
100
AcDbEntity
 67
     1
  8
0
100
AcDbBlockBegin
  2
*Paper_Space0
 70
     0
 10
0.0
 20
0.0
 30
0.0
  3
*Paper_Space0
  1

  0
ENDBLK
  5
D9
330
D6
100
AcDbEntity
 67
     1
  8
0
100
AcDbBlockEnd
  0
BLOCK
  5
1AE
330
1AD
100
AcDbEntity
  8
0
100
AcDbBlockBegin
  2
SW_CENTERMARKSYMBOL_0
 70
     0
 10
0.0
 20
0.0
 30
0.0
  3
SW_CENTERMARKSYMBOL_0
  1

  0
LINE
  5
1AF
330
1AD
100
AcDbEntity
  8
0
  6
Continuous
 62
     0
370
     0
100
AcDbLine
 10
0.0
 20
0.0
 30
0.0
 11
0.0
 21
2.500000000000002
 31
0.0
  0
LINE
  5
1B0
330
1AD
100
AcDbEntity
  8
0
  6
Continuous
 62
     0
370
     0
100
AcDbLine
 10
0.0
 20
0.0
 30
0.0
 11
-2.500000000000002
 21
0.0
 31
0.0
  0
LINE
  5
1B1
330
1AD
100
AcDbEntity
  8
0
  6
Continuous
 62
     0
370
     0
100
AcDbLine
 10
0.0
 20
0.0
 30
0.0
 11
0.0
 21
-2.500000000000002
 31
0.0
  0
LINE
  5
1B2
330
1AD
100
AcDbEntity
  8
0
  6
Continuous
 62
     0
370
     0
100
AcDbLine
 10
0.0
 20
0.0
 30
0.0
 11
2.500000000000002
 21
0.0
 31
0.0
  0
LINE
  5
1B3
330
1AD
100
AcDbEntity
  8
0
  6
Continuous
 62
     0
370
     0
100
AcDbLine
 10
0.0
 20
5.000000000000004
 30
0.0
 11
0.0
 21
8.000000000000007
 31
0.0
  0
LINE
  5
1B4
330
1AD
100
AcDbEntity
  8
0
  6
Continuous
 62
     0
370
     0
100
AcDbLine
 10
-4.99999999999999
 20
0.0
 30
0.0
 11
-7.999999999999992
 21
0.0
 31
0.0
  0
LINE
  5
1B5
330
1AD
100
AcDbEntity
  8
0
  6
Continuous
 62
     0
370
     0
100
AcDbLine
 10
0.0
 20
-5.000000000000004
 30
0.0
 11
0.0
 21
-8.000000000000007
 31
0.0
  0
LINE
  5
1B6
330
1AD
100
AcDbEntity
  8
0
  6
Continuous
 62
     0
370
     0
100
AcDbLine
 10
5.000000000000004
 20
0.0
 30
0.0
 11
7.999999999999992
 21
0.0
 31
0.0
  0
ENDBLK
  5
1B7
330
1AD
100
AcDbEntity
  8
0
100
AcDbBlockEnd
  0
BLOCK
  5
1B9
330
1B8
100
AcDbEntity
  8
0
100
AcDbBlockBegin
  2
SW_CENTERMARKSYMBOL_1
 70
     0
 10
0.0
 20
0.0
 30
0.0
  3
SW_CENTERMARKSYMBOL_1
  1

  0
LINE
  5
1BA
330
1B8
100
AcDbEntity
  8
0
  6
Continuous
 62
     0
370
     0
100
AcDbLine
 10
0.0
 20
0.0
 30
0.0
 11
0.0
 21
2.500000000000002
 31
0.0
  0
LINE
  5
1BB
330
1B8
100
AcDbEntity
  8
0
  6
Continuous
 62
     0
370
     0
100
AcDbLine
 10
0.0
 20
0.0
 30
0.0
 11
-2.500000000000002
 21
0.0
 31
0.0
  0
LINE
  5
1BC
330
1B8
100
AcDbEntity
  8
0
  6
Continuous
 62
     0
370
     0
100
AcDbLine
 10
0.0
 20
0.0
 30
0.0
 11
0.0
 21
-2.500000000000002
 31
0.0
  0
LINE
  5
1BD
330
1B8
100
AcDbEntity
  8
0
  6
Continuous
 62
     0
370
     0
100
AcDbLine
 10
0.0
 20
0.0
 30
0.0
 11
2.500000000000002
 21
0.0
 31
0.0
  0
LINE
  5
1BE
330
1B8
100
AcDbEntity
  8
0
  6
Continuous
 62
     0
370
     0
100
AcDbLine
 10
0.0
 20
5.000000000000004
 30
0.0
 11
0.0
 21
8.000000000000007
 31
0.0
  0
LINE
  5
1BF
330
1B8
100
AcDbEntity
  8
0
  6
Continuous
 62
     0
370
     0
100
AcDbLine
 10
-5.000000000000004
 20
0.0
 30
0.0
 11
-8.000000000000007
 21
0.0
 31
0.0
  0
LINE
  5
1C0
330
1B8
100
AcDbEntity
  8
0
  6
Continuous
 62
     0
370
     0
100
AcDbLine
 10
0.0
 20
-5.000000000000004
 30
0.0
 11
0.0
 21
-7.999999999999979
 31
0.0
  0
LINE
  5
1C1
330
1B8
100
AcDbEntity
  8
0
  6
Continuous
 62
     0
370
     0
100
AcDbLine
 10
5.000000000000004
 20
0.0
 30
0.0
 11
7.999999999999979
 21
0.0
 31
0.0
  0
ENDBLK
  5
1C2
330
1B8
100
AcDbEntity
  8
0
100
AcDbBlockEnd
  0
BLOCK
  5
1C4
330
1C3
100
AcDbEntity
  8
0
100
AcDbBlockBegin
  2
SW_CENTERMARKSYMBOL_2
 70
     0
 10
0.0
 20
0.0
 30
0.0
  3
SW_CENTERMARKSYMBOL_2
  1

  0
LINE
  5
1C5
330
1C3
100
AcDbEntity
  8
0
  6
Continuous
 62
     0
370
     0
100
AcDbLine
 10
0.0
 20
0.0
 30
0.0
 11
0.0
 21
2.500000000000002
 31
0.0
  0
LINE
  5
1C6
330
1C3
100
AcDbEntity
  8
0
  6
Continuous
 62
     0
370
     0
100
AcDbLine
 10
0.0
 20
0.0
 30
0.0
 11
-2.500000000000002
 21
0.0
 31
0.0
  0
LINE
  5
1C7
330
1C3
100
AcDbEntity
  8
0
  6
Continuous
 62
     0
370
     0
100
AcDbLine
 10
0.0
 20
0.0
 30
0.0
 11
0.0
 21
-2.500000000000002
 31
0.0
  0
LINE
  5
1C8
330
1C3
100
AcDbEntity
  8
0
  6
Continuous
 62
     0
370
     0
100
AcDbLine
 10
0.0
 20
0.0
 30
0.0
 11
2.500000000000002
 21
0.0
 31
0.0
  0
LINE
  5
1C9
330
1C3
100
AcDbEntity
  8
0
  6
Continuous
 62
     0
370
     0
100
AcDbLine
 10
0.0
 20
4.99999999999999
 30
0.0
 11
0.0
 21
6.749999999999992
 31
0.0
  0
LINE
  5
1CA
330
1C3
100
AcDbEntity
  8
0
  6
Continuous
 62
     0
370
     0
100
AcDbLine
 10
-5.000000000000004
 20
0.0
 30
0.0
 11
-6.750000000000006
 21
0.0
 31
0.0
  0
LINE
  5
1CB
330
1C3
100
AcDbEntity
  8
0
  6
Continuous
 62
     0
370
     0
100
AcDbLine
 10
0.0
 20
-4.99999999999999
 30
0.0
 11
0.0
 21
-6.749999999999992
 31
0.0
  0
LINE
  5
1CC
330
1C3
100
AcDbEntity
  8
0
  6
Continuous
 62
     0
370
     0
100
AcDbLine
 10
5.000000000000004
 20
0.0
 30
0.0
 11
6.750000000000006
 21
0.0
 31
0.0
  0
ENDBLK
  5
1CD
330
1C3
100
AcDbEntity
  8
0
100
AcDbBlockEnd
  0
BLOCK
  5
1CF
330
1CE
100
AcDbEntity
  8
0
100
AcDbBlockBegin
  2
SW_CENTERMARKSYMBOL_3
 70
     0
 10
0.0
 20
0.0
 30
0.0
  3
SW_CENTERMARKSYMBOL_3
  1

  0
LINE
  5
1D0
330
1CE
100
AcDbEntity
  8
0
  6
Continuous
 62
     0
370
     0
100
AcDbLine
 10
0.0
 20
0.0
 30
0.0
 11
0.0
 21
2.500000000000002
 31
0.0
  0
LINE
  5
1D1
330
1CE
100
AcDbEntity
  8
0
  6
Continuous
 62
     0
370
     0
100
AcDbLine
 10
0.0
 20
0.0
 30
0.0
 11
-2.500000000000002
 21
0.0
 31
0.0
  0
LINE
  5
1D2
330
1CE
100
AcDbEntity
  8
0
  6
Continuous
 62
     0
370
     0
100
AcDbLine
 10
0.0
 20
0.0
 30
0.0
 11
0.0
 21
-2.500000000000002
 31
0.0
  0
LINE
  5
1D3
330
1CE
100
AcDbEntity
  8
0
  6
Continuous
 62
     0
370
     0
100
AcDbLine
 10
0.0
 20
0.0
 30
0.0
 11
2.500000000000002
 21
0.0
 31
0.0
  0
LINE
  5
1D4
330
1CE
100
AcDbEntity
  8
0
  6
Continuous
 62
     0
370
     0
100
AcDbLine
 10
0.0
 20
4.99999999999999
 30
0.0
 11
0.0
 21
6.750000000000019
 31
0.0
  0
LINE
  5
1D5
330
1CE
100
AcDbEntity
  8
0
  6
Continuous
 62
     0
370
     0
100
AcDbLine
 10
-5.000000000000004
 20
0.0
 30
0.0
 11
-6.750000000000006
 21
0.0
 31
0.0
  0
LINE
  5
1D6
330
1CE
100
AcDbEntity
  8
0
  6
Continuous
 62
     0
370
     0
100
AcDbLine
 10
0.0
 20
-4.99999999999999
 30
0.0
 11
0.0
 21
-6.750000000000006
 31
0.0
  0
LINE
  5
1D7
330
1CE
100
AcDbEntity
  8
0
  6
Continuous
 62
     0
370
     0
100
AcDbLine
 10
5.000000000000004
 20
0.0
 30
0.0
 11
6.750000000000006
 21
0.0
 31
0.0
  0
ENDBLK
  5
1D8
330
1CE
100
AcDbEntity
  8
0
100
AcDbBlockEnd
  0
BLOCK
  5
1DA
330
1D9
100
AcDbEntity
  8
0
100
AcDbBlockBegin
  2
SW_CENTERMARKSYMBOL_4
 70
     0
 10
0.0
 20
0.0
 30
0.0
  3
SW_CENTERMARKSYMBOL_4
  1

  0
LINE
  5
1DB
330
1D9
100
AcDbEntity
  8
0
  6
Continuous
 62
     0
370
     0
100
AcDbLine
 10
0.0
 20
0.0
 30
0.0
 11
0.0
 21
2.499999999999974
 31
0.0
  0
LINE
  5
1DC
330
1D9
100
AcDbEntity
  8
0
  6
Continuous
 62
     0
370
     0
100
AcDbLine
 10
0.0
 20
0.0
 30
0.0
 11
-2.500000000000002
 21
0.0
 31
0.0
  0
LINE
  5
1DD
330
1D9
100
AcDbEntity
  8
0
  6
Continuous
 62
     0
370
     0
100
AcDbLine
 10
0.0
 20
0.0
 30
0.0
 11
0.0
 21
-2.500000000000002
 31
0.0
  0
LINE
  5
1DE
330
1D9
100
AcDbEntity
  8
0
  6
Continuous
 62
     0
370
     0
100
AcDbLine
 10
0.0
 20
0.0
 30
0.0
 11
2.500000000000002
 21
0.0
 31
0.0
  0
LINE
  5
1DF
330
1D9
100
AcDbEntity
  8
0
  6
Continuous
 62
     0
370
     0
100
AcDbLine
 10
0.0
 20
4.999999999999976
 30
0.0
 11
0.0
 21
6.749999999999978
 31
0.0
  0
LINE
  5
1E0
330
1D9
100
AcDbEntity
  8
0
  6
Continuous
 62
     0
370
     0
100
AcDbLine
 10
-5.000000000000004
 20
0.0
 30
0.0
 11
-6.750000000000006
 21
0.0
 31
0.0
  0
LINE
  5
1E1
330
1D9
100
AcDbEntity
  8
0
  6
Continuous
 62
     0
370
     0
100
AcDbLine
 10
0.0
 20
-5.000000000000004
 30
0.0
 11
0.0
 21
-6.750000000000006
 31
0.0
  0
LINE
  5
1E2
330
1D9
100
AcDbEntity
  8
0
  6
Continuous
 62
     0
370
     0
100
AcDbLine
 10
4.999999999999976
 20
0.0
 30
0.0
 11
6.750000000000006
 21
0.0
 31
0.0
  0
ENDBLK
  5
1E3
330
1D9
100
AcDbEntity
  8
0
100
AcDbBlockEnd
  0
BLOCK
  5
1E5
330
1E4
100
AcDbEntity
  8
0
100
AcDbBlockBegin
  2
SW_CENTERMARKSYMBOL_5
 70
     0
 10
0.0
 20
0.0
 30
0.0
  3
SW_CENTERMARKSYMBOL_5
  1

  0
LINE
  5
1E6
330
1E4
100
AcDbEntity
  8
0
  6
Continuous
 62
     0
370
     0
100
AcDbLine
 10
0.0
 20
0.0
 30
0.0
 11
0.0
 21
2.499999999999974
 31
0.0
  0
LINE
  5
1E7
330
1E4
100
AcDbEntity
  8
0
  6
Continuous
 62
     0
370
     0
100
AcDbLine
 10
0.0
 20
0.0
 30
0.0
 11
-2.500000000000002
 21
0.0
 31
0.0
  0
LINE
  5
1E8
330
1E4
100
AcDbEntity
  8
0
  6
Continuous
 62
     0
370
     0
100
AcDbLine
 10
0.0
 20
0.0
 30
0.0
 11
0.0
 21
-2.500000000000002
 31
0.0
  0
LINE
  5
1E9
330
1E4
100
AcDbEntity
  8
0
  6
Continuous
 62
     0
370
     0
100
AcDbLine
 10
0.0
 20
0.0
 30
0.0
 11
2.500000000000002
 21
0.0
 31
0.0
  0
LINE
  5
1EA
330
1E4
100
AcDbEntity
  8
0
  6
Continuous
 62
     0
370
     0
100
AcDbLine
 10
0.0
 20
4.999999999999976
 30
0.0
 11
0.0
 21
6.749999999999978
 31
0.0
  0
LINE
  5
1EB
330
1E4
100
AcDbEntity
  8
0
  6
Continuous
 62
     0
370
     0
100
AcDbLine
 10
-5.000000000000004
 20
0.0
 30
0.0
 11
-6.750000000000006
 21
0.0
 31
0.0
  0
LINE
  5
1EC
330
1E4
100
AcDbEntity
  8
0
  6
Continuous
 62
     0
370
     0
100
AcDbLine
 10
0.0
 20
-5.000000000000004
 30
0.0
 11
0.0
 21
-6.750000000000006
 31
0.0
  0
LINE
  5
1ED
330
1E4
100
AcDbEntity
  8
0
  6
Continuous
 62
     0
370
     0
100
AcDbLine
 10
5.000000000000004
 20
0.0
 30
0.0
 11
6.750000000000006
 21
0.0
 31
0.0
  0
ENDBLK
  5
1EE
330
1E4
100
AcDbEntity
  8
0
100
AcDbBlockEnd
  0
BLOCK
  5
1F0
330
1EF
100
AcDbEntity
  8
0
100
AcDbBlockBegin
  2
SW_CENTERMARKSYMBOL_6
 70
     0
 10
0.0
 20
0.0
 30
0.0
  3
SW_CENTERMARKSYMBOL_6
  1

  0
LINE
  5
1F1
330
1EF
100
AcDbEntity
  8
0
  6
Continuous
 62
     0
370
     0
100
AcDbLine
 10
0.0
 20
0.0
 30
0.0
 11
0.0
 21
2.500000000000002
 31
0.0
  0
LINE
  5
1F2
330
1EF
100
AcDbEntity
  8
0
  6
Continuous
 62
     0
370
     0
100
AcDbLine
 10
0.0
 20
0.0
 30
0.0
 11
-2.500000000000002
 21
0.0
 31
0.0
  0
LINE
  5
1F3
330
1EF
100
AcDbEntity
  8
0
  6
Continuous
 62
     0
370
     0
100
AcDbLine
 10
0.0
 20
0.0
 30
0.0
 11
0.0
 21
-2.500000000000002
 31
0.0
  0
LINE
  5
1F4
330
1EF
100
AcDbEntity
  8
0
  6
Continuous
 62
     0
370
     0
100
AcDbLine
 10
0.0
 20
0.0
 30
0.0
 11
2.500000000000002
 21
0.0
 31
0.0
  0
LINE
  5
1F5
330
1EF
100
AcDbEntity
  8
0
  6
Continuous
 62
     0
370
     0
100
AcDbLine
 10
0.0
 20
5.000000000000004
 30
0.0
 11
0.0
 21
6.649999999999989
 31
0.0
  0
LINE
  5
1F6
330
1EF
100
AcDbEntity
  8
0
  6
Continuous
 62
     0
370
     0
100
AcDbLine
 10
-5.000000000000004
 20
0.0
 30
0.0
 11
-6.650000000000017
 21
0.0
 31
0.0
  0
LINE
  5
1F7
330
1EF
100
AcDbEntity
  8
0
  6
Continuous
 62
     0
370
     0
100
AcDbLine
 10
0.0
 20
-5.000000000000004
 30
0.0
 11
0.0
 21
-6.650000000000017
 31
0.0
  0
LINE
  5
1F8
330
1EF
100
AcDbEntity
  8
0
  6
Continuous
 62
     0
370
     0
100
AcDbLine
 10
5.000000000000004
 20
0.0
 30
0.0
 11
6.649999999999989
 21
0.0
 31
0.0
  0
ENDBLK
  5
1F9
330
1EF
100
AcDbEntity
  8
0
100
AcDbBlockEnd
  0
BLOCK
  5
3C1
330
3C0
100
AcDbEntity
  8
0
100
AcDbBlockBegin
  2
1
 70
     0
 10
0.0
 20
0.0
 30
0.0
  3
1
  1

  0
LINE
  5
3C3
330
3C0
100
AcDbEntity
  8
0
  6
Continuous
 62
     7
370
    15
100
AcDbLine
 10
2360.433026622377
 20
959.029260228263
 30
0.0
 11
2359.683026615857
 21
958.2792605709897
 31
0.0
  0
LINE
  5
3C4
330
3C0
100
AcDbEntity
  8
0
  6
Continuous
 62
     7
370
    15
100
AcDbLine
 10
2360.433026622377
 20
959.029260228263
 30
0.0
 11
2388.933026288032
 21
959.029260228263
 31
0.0
  0
LINE
  5
3C5
330
3C0
100
AcDbEntity
  8
0
  6
Continuous
 62
     7
370
    15
100
AcDbLine
 10
2359.683026615857
 20
958.2792605709897
 30
0.0
 11
2389.683025945305
 21
958.2792605709897
 31
0.0
  0
LINE
  5
3C6
330
3C0
100
AcDbEntity
  8
0
  6
Continuous
 62
     7
370
    15
100
AcDbLine
 10
2388.933026288032
 20
959.029260228263
 30
0.0
 11
2389.683025945305
 21
958.2792605709897
 31
0.0
  0
LINE
  5
3C7
330
3C0
100
AcDbEntity
  8
0
  6
Continuous
 62
     7
370
    15
100
AcDbLine
 10
2359.683026615857
 20
958.2792605709897
 30
0.0
 11
2359.683026615857
 21
929.7792609053345
 31
0.0
  0
LINE
  5
3C8
330
3C0
100
AcDbEntity
  8
0
  6
Continuous
 62
     7
370
    15
100
AcDbLine
 10
2389.683025945305
 20
958.2792605709897
 30
0.0
 11
2389.683025945305
 21
929.7792609053345
 31
0.0
  0
LINE
  5
3C9
330
3C0
100
AcDbEntity
  8
0
  6
Continuous
 62
     7
370
    15
100
AcDbLine
 10
2389.683025945305
 20
929.7792609053345
 30
0.0
 11
2359.683026615857
 21
929.7792609053345
 31
0.0
  0
LINE
  5
3CA
330
3C0
100
AcDbEntity
  8
0
  6
Continuous
 62
     7
370
    15
100
AcDbLine
 10
2388.933026288032
 20
929.0292608988153
 30
0.0
 11
2360.433026622377
 21
929.0292608988153
 31
0.0
  0
LINE
  5
3CB
330
3C0
100
AcDbEntity
  8
0
  6
Continuous
 62
     7
370
    15
100
AcDbLine
 10
2360.433026622377
 20
929.0292608988153
 30
0.0
 11
2359.683026615857
 21
929.7792609053345
 31
0.0
  0
LINE
  5
3CC
330
3C0
100
AcDbEntity
  8
0
  6
Continuous
 62
     7
370
    15
100
AcDbLine
 10
2388.933026288032
 20
929.0292608988153
 30
0.0
 11
2389.683025945305
 21
929.7792609053345
 31
0.0
  0
ENDBLK
  5
3C2
330
3C0
100
AcDbEntity
  8
0
100
AcDbBlockEnd
  0
BLOCK
  5
3CF
330
3CE
100
AcDbEntity
  8
0
100
AcDbBlockBegin
  2
2
 70
     0
 10
0.0
 20
0.0
 30
0.0
  3
2
  1

  0
LINE
  5
3D1
330
3CE
100
AcDbEntity
  8
0
  6
Continuous
 62
     7
370
    15
100
AcDbLine
 10
2308.337623176539
 20
940.0292608392106
 30
0.0
 11
2308.337623176539
 21
948.2792607945071
 31
0.0
  0
LINE
  5
3D2
330
3CE
100
AcDbEntity
  8
0
  6
Continuous
 62
     7
370
    15
100
AcDbLine
 10
2308.337623176539
 20
948.2792607945071
 30
0.0
 11
2296.837622921357
 21
948.2792607945071
 31
0.0
  0
LINE
  5
3D3
330
3CE
100
AcDbEntity
  8
0
  6
Continuous
 62
     7
370
    15
100
AcDbLine
 10
2296.837622921357
 20
948.2792607945071
 30
0.0
 11
2296.837622921357
 21
940.0292608392106
 31
0.0
  0
ARC
  5
3D4
330
3CE
100
AcDbEntity
  8
0
  6
Continuous
 62
     7
370
    15
100
AcDbCircle
 10
2302.587623005176
 20
940.0292608988152
 30
0.0
 40
5.749999999999985
100
AcDbArc
 50
180.0
 51
0.0
  0
LINE
  5
3D5
330
3CE
100
AcDbEntity
  8
0
  6
Continuous
 62
     7
370
    15
100
AcDbLine
 10
2331.33762228992
 20
940.0292608392106
 30
0.0
 11
2331.33762228992
 21
948.2792607945071
 31
0.0
  0
LINE
  5
3D6
330
3CE
100
AcDbEntity
  8
0
  6
Continuous
 62
     7
370
    15
100
AcDbLine
 10
2331.33762228992
 20
948.2792607945071
 30
0.0
 11
2319.837623198891
 21
948.2792607945071
 31
0.0
  0
LINE
  5
3D7
330
3CE
100
AcDbEntity
  8
0
  6
Continuous
 62
     7
370
    15
100
AcDbLine
 10
2319.837623198891
 20
948.2792607945071
 30
0.0
 11
2319.837623198891
 21
940.0292608392106
 31
0.0
  0
ARC
  5
3D8
330
3CE
100
AcDbEntity
  8
0
  6
Continuous
 62
     7
370
    15
100
AcDbCircle
 10
2325.587623005176
 20
940.0292608988152
 30
0.0
 40
5.75
100
AcDbArc
 50
180.0
 51
0.0
  0
LINE
  5
3D9
330
3CE
100
AcDbEntity
  8
0
  6
Continuous
 62
     7
370
    15
100
AcDbLine
 10
2293.087623005176
 20
958.2792605709897
 30
0.0
 11
2293.087623005176
 21
929.7792609053345
 31
0.0
  0
LINE
  5
3DA
330
3CE
100
AcDbEntity
  8
0
  6
Continuous
 62
     7
370
    15
100
AcDbLine
 10
2293.087623005176
 20
958.2792605709897
 30
0.0
 11
2335.087622438932
 21
958.2792605709897
 31
0.0
  0
LINE
  5
3DB
330
3CE
100
AcDbEntity
  8
0
  6
Continuous
 62
     7
370
    15
100
AcDbLine
 10
2335.087622438932
 20
929.7792609053345
 30
0.0
 11
2335.087622438932
 21
958.2792605709897
 31
0.0
  0
LINE
  5
3DC
330
3CE
100
AcDbEntity
  8
0
  6
Continuous
 62
     7
370
    15
100
AcDbLine
 10
2335.087622438932
 20
929.7792609053345
 30
0.0
 11
2293.087623005176
 21
929.7792609053345
 31
0.0
  0
LINE
  5
3DD
330
3CE
100
AcDbEntity
  8
0
  6
Continuous
 62
     7
370
    15
100
AcDbLine
 10
2293.837623011695
 20
959.029260228263
 30
0.0
 11
2293.087623005176
 21
958.2792605709897
 31
0.0
  0
LINE
  5
3DE
330
3CE
100
AcDbEntity
  8
0
  6
Continuous
 62
     7
370
    15
100
AcDbLine
 10
2293.837623011695
 20
959.029260228263
 30
0.0
 11
2334.337624644303
 21
959.029260228263
 31
0.0
  0
LINE
  5
3DF
330
3CE
100
AcDbEntity
  8
0
  6
Continuous
 62
     7
370
    15
100
AcDbLine
 10
2335.087622438932
 20
958.2792605709897
 30
0.0
 11
2334.337624644303
 21
959.029260228263
 31
0.0
  0
LINE
  5
3E0
330
3CE
100
AcDbEntity
  8
0
  6
Continuous
 62
     7
370
    15
100
AcDbLine
 10
2335.087622438932
 20
929.7792609053345
 30
0.0
 11
2334.337624644303
 21
929.0292608988153
 31
0.0
  0
LINE
  5
3E1
330
3CE
100
AcDbEntity
  8
0
  6
Continuous
 62
     7
370
    15
100
AcDbLine
 10
2334.337624644303
 20
929.0292608988153
 30
0.0
 11
2293.837623011695
 21
929.0292608988153
 31
0.0
  0
LINE
  5
3E2
330
3CE
100
AcDbEntity
  8
0
  6
Continuous
 62
     7
370
    15
100
AcDbLine
 10
2293.837623011695
 20
929.0292608988153
 30
0.0
 11
2293.087623005176
 21
929.7792609053345
 31
0.0
  0
LINE
  5
3E3
330
3CE
100
AcDbEntity
  8
0
  6
Continuous
 62
     7
370
    15
100
AcDbLine
 10
2320.287623365784
 20
946.0292618226873
 30
0.0
 11
2329.687624161506
 21
946.0292618226873
 31
0.0
  0
LINE
  5
3E4
330
3CE
100
AcDbEntity
  8
0
  6
Continuous
 62
     7
370
    15
100
AcDbLine
 10
2320.287623365784
 20
947.2292616468536
 30
0.0
 11
2320.287623365784
 21
946.0292618226873
 31
0.0
  0
LINE
  5
3E5
330
3CE
100
AcDbEntity
  8
0
  6
Continuous
 62
     7
370
    15
100
AcDbLine
 10
2329.887623821759
 20
947.2292616468536
 30
0.0
 11
2320.287623365784
 21
947.2292616468536
 31
0.0
  0
ARC
  5
3E6
330
3CE
100
AcDbEntity
  8
0
  6
Continuous
 62
     7
370
    15
100
AcDbCircle
 10
2329.887623005176
 20
946.2292608988153
 30
0.0
 40
1.0
100
AcDbArc
 50
0.0
 51
90.0
  0
LINE
  5
3E7
330
3CE
100
AcDbEntity
  8
0
  6
Continuous
 62
     7
370
    15
100
AcDbLine
 10
2330.887622123027
 20
940.0292608392106
 30
0.0
 11
2330.887622123027
 21
946.2292614829408
 31
0.0
  0
ARC
  5
3E8
330
3CE
100
AcDbEntity
  8
0
  6
Continuous
 62
     7
370
    15
100
AcDbCircle
 10
2325.587623005176
 20
940.0292608988152
 30
0.0
 40
5.300000000000025
100
AcDbArc
 50
180.0
 51
0.0
  0
LINE
  5
3E9
330
3CE
100
AcDbEntity
  8
0
  6
Continuous
 62
     7
370
    15
100
AcDbLine
 10
2320.287623365784
 20
944.8292601358758
 30
0.0
 11
2320.287623365784
 21
940.0292608392106
 31
0.0
  0
ARC
  5
3EA
330
3CE
100
AcDbEntity
  8
0
  6
Continuous
 62
     7
370
    15
100
AcDbCircle
 10
2321.287623005176
 20
944.8292608988154
 30
0.0
 40
1.0
100
AcDbArc
 50
90.0
 51
180.0
  0
LINE
  5
3EB
330
3CE
100
AcDbEntity
  8
0
  6
Continuous
 62
     7
370
    15
100
AcDbLine
 10
2329.687624161506
 20
945.8292602997886
 30
0.0
 11
2321.287623529697
 21
945.8292602997886
 31
0.0
  0
LINE
  5
3EC
330
3CE
100
AcDbEntity
  8
0
  6
Continuous
 62
     7
370
    15
100
AcDbLine
 10
2329.687624161506
 20
946.0292618226873
 30
0.0
 11
2329.687624161506
 21
945.8292602997886
 31
0.0
  0
LINE
  5
3ED
330
3CE
100
AcDbEntity
  8
0
  6
Continuous
 62
     7
370
    15
100
AcDbLine
 10
2329.187623148227
 20
944.6292604756223
 30
0.0
 11
2321.987622340584
 21
944.6292604756223
 31
0.0
  0
ARC
  5
3EE
330
3CE
100
AcDbEntity
  8
0
  6
Continuous
 62
     7
370
    15
100
AcDbCircle
 10
2321.987623005176
 20
944.1292608988153
 30
0.0
 40
0.5
100
AcDbArc
 50
90.0
 51
180.0
  0
LINE
  5
3EF
330
3CE
100
AcDbEntity
  8
0
  6
Continuous
 62
     7
370
    15
100
AcDbLine
 10
2321.48762318995
 20
944.1292613249885
 30
0.0
 11
2321.48762318995
 21
940.0292608392106
 31
0.0
  0
ARC
  5
3F0
330
3CE
100
AcDbEntity
  8
0
  6
Continuous
 62
     7
370
    15
100
AcDbCircle
 10
2325.587623005176
 20
940.0292608988152
 30
0.0
 40
4.099999999999994
100
AcDbArc
 50
180.0
 51
0.0
  0
LINE
  5
3F1
330
3CE
100
AcDbEntity
  8
0
  6
Continuous
 62
     7
370
    15
100
AcDbLine
 10
2329.687624161506
 20
940.0292608392106
 30
0.0
 11
2329.687624161506
 21
944.1292613249885
 31
0.0
  0
ARC
  5
3F2
330
3CE
100
AcDbEntity
  8
0
  6
Continuous
 62
     7
370
    15
100
AcDbCircle
 10
2329.187623005176
 20
944.1292608988153
 30
0.0
 40
0.5
100
AcDbArc
 50
0.0
 51
90.0
  0
LINE
  5
3F3
330
3CE
100
AcDbEntity
  8
0
  6
Continuous
 62
     7
370
    15
100
AcDbLine
 10
2297.287622855419
 20
946.0292618226873
 30
0.0
 11
2306.68762318548
 21
946.0292618226873
 31
0.0
  0
LINE
  5
3F4
330
3CE
100
AcDbEntity
  8
0
  6
Continuous
 62
     7
370
    15
100
AcDbLine
 10
2297.287622855419
 20
947.2292616468536
 30
0.0
 11
2297.287622855419
 21
946.0292618226873
 31
0.0
  0
LINE
  5
3F5
330
3CE
100
AcDbEntity
  8
0
  6
Continuous
 62
     7
370
    15
100
AcDbLine
 10
2306.887622845733
 20
947.2292616468536
 30
0.0
 11
2297.287622855419
 21
947.2292616468536
 31
0.0
  0
ARC
  5
3F6
330
3CE
100
AcDbEntity
  8
0
  6
Continuous
 62
     7
370
    15
100
AcDbCircle
 10
2306.887623005176
 20
946.2292608988153
 30
0.0
 40
1.0
100
AcDbArc
 50
0.0
 51
90.0
  0
LINE
  5
3F7
330
3CE
100
AcDbEntity
  8
0
  6
Continuous
 62
     7
370
    15
100
AcDbLine
 10
2307.887623009646
 20
940.0292608392106
 30
0.0
 11
2307.887623009646
 21
946.2292614829408
 31
0.0
  0
ARC
  5
3F8
330
3CE
100
AcDbEntity
  8
0
  6
Continuous
 62
     7
370
    15
100
AcDbCircle
 10
2302.587623005176
 20
940.0292608988152
 30
0.0
 40
5.300000000000011
100
AcDbArc
 50
180.0
 51
0.0
  0
LINE
  5
3F9
330
3CE
100
AcDbEntity
  8
0
  6
Continuous
 62
     7
370
    15
100
AcDbLine
 10
2297.287622855419
 20
944.8292601358758
 30
0.0
 11
2297.287622855419
 21
940.0292608392106
 31
0.0
  0
ARC
  5
3FA
330
3CE
100
AcDbEntity
  8
0
  6
Continuous
 62
     7
370
    15
100
AcDbCircle
 10
2298.287623005176
 20
944.8292608988154
 30
0.0
 40
1.0
100
AcDbArc
 50
90.0
 51
180.0
  0
LINE
  5
3FB
330
3CE
100
AcDbEntity
  8
0
  6
Continuous
 62
     7
370
    15
100
AcDbLine
 10
2306.68762318548
 20
945.8292602997886
 30
0.0
 11
2298.287623019332
 21
945.8292602997886
 31
0.0
  0
LINE
  5
3FC
330
3CE
100
AcDbEntity
  8
0
  6
Continuous
 62
     7
370
    15
100
AcDbLine
 10
2306.68762318548
 20
946.0292618226873
 30
0.0
 11
2306.68762318548
 21
945.8292602997886
 31
0.0
  0
LINE
  5
3FD
330
3CE
100
AcDbEntity
  8
0
  6
Continuous
 62
     7
370
    15
100
AcDbLine
 10
2306.187623103523
 20
944.6292604756223
 30
0.0
 11
2298.987623227203
 21
944.6292604756223
 31
0.0
  0
ARC
  5
3FE
330
3CE
100
AcDbEntity
  8
0
  6
Continuous
 62
     7
370
    15
100
AcDbCircle
 10
2298.987623005176
 20
944.1292608988153
 30
0.0
 40
0.5
100
AcDbArc
 50
90.0
 51
180.0
  0
LINE
  5
3FF
330
3CE
100
AcDbEntity
  8
0
  6
Continuous
 62
     7
370
    15
100
AcDbLine
 10
2298.487623145247
 20
944.1292613249885
 30
0.0
 11
2298.487623145247
 21
940.0292608392106
 31
0.0
  0
ARC
  5
400
330
3CE
100
AcDbEntity
  8
0
  6
Continuous
 62
     7
370
    15
100
AcDbCircle
 10
2302.587623005176
 20
940.0292608988152
 30
0.0
 40
4.100000000000008
100
AcDbArc
 50
180.0
 51
0.0
  0
LINE
  5
401
330
3CE
100
AcDbEntity
  8
0
  6
Continuous
 62
     7
370
    15
100
AcDbLine
 10
2306.68762318548
 20
940.0292608392106
 30
0.0
 11
2306.68762318548
 21
944.1292613249885
 31
0.0
  0
ARC
  5
402
330
3CE
100
AcDbEntity
  8
0
  6
Continuous
 62
     7
370
    15
100
AcDbCircle
 10
2306.187623005176
 20
944.1292608988153
 30
0.0
 40
0.5
100
AcDbArc
 50
0.0
 51
90.0
  0
INSERT
  5
403
330
3CE
100
AcDbEntity
  8
0
  6
Continuous
 62
     7
370
     0
100
AcDbBlockReference
  2
SW_CENTERMARKSYMBOL_0
 10
2302.587623005176
 20
940.0292608988152
 30
0.0
  0
INSERT
  5
404
330
3CE
100
AcDbEntity
  8
0
  6
Continuous
 62
     7
370
     0
100
AcDbBlockReference
  2
SW_CENTERMARKSYMBOL_1
 10
2325.587623005176
 20
940.0292608988152
 30
0.0
  0
ENDBLK
  5
3D0
330
3CE
100
AcDbEntity
  8
0
100
AcDbBlockEnd
  0
BLOCK
  5
407
330
406
100
AcDbEntity
  8
0
100
AcDbBlockBegin
  2
3
 70
     0
 10
0.0
 20
0.0
 30
0.0
  3
3
  1

  0
LINE
  5
409
330
406
100
AcDbEntity
  8
0
  6
Continuous
 62
     7
370
    15
100
AcDbLine
 10
2388.933026288032
 20
864.7618124003512
 30
0.0
 11
2389.683025945305
 21
864.011812393832
 31
0.0
  0
LINE
  5
40A
330
406
100
AcDbEntity
  8
0
  6
Continuous
 62
     7
370
    15
100
AcDbLine
 10
2388.933026288032
 20
864.7618124003512
 30
0.0
 11
2388.933026288032
 21
905.2618140329597
 31
0.0
  0
LINE
  5
40B
330
406
100
AcDbEntity
  8
0
  6
Continuous
 62
     7
370
    15
100
AcDbLine
 10
2389.683025945305
 20
906.0118118275878
 30
0.0
 11
2388.933026288032
 21
905.2618140329597
 31
0.0
  0
LINE
  5
40C
330
406
100
AcDbEntity
  8
0
  6
Continuous
 62
     7
370
    15
100
AcDbLine
 10
2389.683025945305
 20
864.011812393832
 30
0.0
 11
2389.683025945305
 21
906.0118118275878
 31
0.0
  0
LINE
  5
40D
330
406
100
AcDbEntity
  8
0
  6
Continuous
 62
     7
370
    15
100
AcDbLine
 10
2360.433026622377
 20
864.7618124003512
 30
0.0
 11
2359.683026615857
 21
864.011812393832
 31
0.0
  0
LINE
  5
40E
330
406
100
AcDbEntity
  8
0
  6
Continuous
 62
     7
370
    15
100
AcDbLine
 10
2359.683026615857
 20
906.0118118275878
 30
0.0
 11
2359.683026615857
 21
864.011812393832
 31
0.0
  0
LINE
  5
40F
330
406
100
AcDbEntity
  8
0
  6
Continuous
 62
     7
370
    15
100
AcDbLine
 10
2360.433026622377
 20
905.2618140329597
 30
0.0
 11
2359.683026615857
 21
906.0118118275878
 31
0.0
  0
LINE
  5
410
330
406
100
AcDbEntity
  8
0
  6
Continuous
 62
     7
370
    15
100
AcDbLine
 10
2360.433026622377
 20
905.2618140329597
 30
0.0
 11
2360.433026622377
 21
864.7618124003512
 31
0.0
  0
CIRCLE
  5
411
330
406
100
AcDbEntity
  8
0
  6
Continuous
 62
     7
370
    15
100
AcDbCircle
 10
2374.683026615857
 20
885.0118123938319
 30
0.0
 40
4.150000000000005
  0
CIRCLE
  5
412
330
406
100
AcDbEntity
  8
0
  6
Continuous
 62
     7
370
    15
100
AcDbCircle
 10
2368.833026615857
 20
873.5118123938319
 30
0.0
 40
4.25
  0
CIRCLE
  5
413
330
406
100
AcDbEntity
  8
0
  6
Continuous
 62
     7
370
    15
100
AcDbCircle
 10
2380.533026615857
 20
873.5118123938319
 30
0.0
 40
4.25
  0
CIRCLE
  5
414
330
406
100
AcDbEntity
  8
0
  6
Continuous
 62
     7
370
    15
100
AcDbCircle
 10
2380.533026615857
 20
896.5118123938319
 30
0.0
 40
4.25
  0
CIRCLE
  5
415
330
406
100
AcDbEntity
  8
0
  6
Continuous
 62
     7
370
    15
100
AcDbCircle
 10
2368.833026615857
 20
896.5118123938319
 30
0.0
 40
4.25
  0
LINE
  5
416
330
406
100
AcDbEntity
  8
0
  6
Continuous
 62
     7
370
    15
100
AcDbLine
 10
2360.433026622377
 20
864.7618124003512
 30
0.0
 11
2388.933026288032
 21
864.7618124003512
 31
0.0
  0
LINE
  5
417
330
406
100
AcDbEntity
  8
0
  6
Continuous
 62
     7
370
    15
100
AcDbLine
 10
2388.933026288032
 20
905.2618140329597
 30
0.0
 11
2360.433026622377
 21
905.2618140329597
 31
0.0
  0
LINE
  5
418
330
406
100
AcDbEntity
  8
0
  6
Continuous
 62
     7
370
    15
100
AcDbLine
 10
2389.683025945305
 20
906.0118118275878
 30
0.0
 11
2359.683026615857
 21
906.0118118275878
 31
0.0
  0
LINE
  5
419
330
406
100
AcDbEntity
  8
0
  6
Continuous
 62
     7
370
    15
100
AcDbLine
 10
2359.683026615857
 20
864.011812393832
 30
0.0
 11
2389.683025945305
 21
864.011812393832
 31
0.0
  0
ARC
  5
41A
330
406
100
AcDbEntity
  8
0
  6
Continuous
 62
     7
370
    15
100
AcDbCircle
 10
2368.833026615857
 20
896.5118123938319
 30
0.0
 40
1.299918486680997
100
AcDbArc
 50
125.2673390207953
 51
147.0502324719863
  0
LINE
  5
41B
330
406
100
AcDbEntity
  8
0
  6
Continuous
 62
     7
370
    15
100
AcDbLine
 10
2366.182861905872
 20
897.2188414980648
 30
0.0
 11
2367.742203232228
 21
897.2188414980648
 31
0.0
  0
ARC
  5
41C
330
406
100
AcDbEntity
  8
0
  6
Continuous
 62
     7
370
    15
100
AcDbCircle
 10
2368.833026615857
 20
896.5118123938319
 30
0.0
 40
2.742857143616772
100
AcDbArc
 50
165.0621309251959
 51
194.9378690747788
  0
LINE
  5
41D
330
406
100
AcDbEntity
  8
0
  6
Continuous
 62
     7
370
    15
100
AcDbLine
 10
2367.742203232228
 20
895.8047809054134
 30
0.0
 11
2366.182861905872
 21
895.8047809054134
 31
0.0
  0
ARC
  5
41E
330
406
100
AcDbEntity
  8
0
  6
Continuous
 62
     7
370
    15
100
AcDbCircle
 10
2368.833026615857
 20
896.5118123938319
 30
0.0
 40
1.299918486681123
100
AcDbArc
 50
212.9497675279558
 51
234.7326609792009
  0
LINE
  5
41F
330
406
100
AcDbEntity
  8
0
  6
Continuous
 62
     7
370
    15
100
AcDbLine
 10
2368.082463797509
 20
893.3216551293609
 30
0.0
 11
2368.082463797509
 21
895.450472270417
 31
0.0
  0
ARC
  5
420
330
406
100
AcDbEntity
  8
0
  6
Continuous
 62
     7
370
    15
100
AcDbCircle
 10
2368.833026615857
 20
896.5118123938319
 30
0.0
 40
3.277263126886365
100
AcDbArc
 50
103.2394559412125
 51
256.7605440587874
  0
LINE
  5
421
330
406
100
AcDbEntity
  8
0
  6
Continuous
 62
     7
370
    15
100
AcDbLine
 10
2368.082463797509
 20
897.5731538583515
 30
0.0
 11
2368.082463797509
 21
899.7019709994075
 31
0.0
  0
ARC
  5
422
330
406
100
AcDbEntity
  8
0
  6
Continuous
 62
     7
370
    15
100
AcDbCircle
 10
2368.833026615857
 20
896.5118123938319
 30
0.0
 40
1.299918486680988
100
AcDbArc
 50
305.2673390207666
 51
327.0502324720388
  0
LINE
  5
423
330
406
100
AcDbEntity
  8
0
  6
Continuous
 62
     7
370
    15
100
AcDbLine
 10
2371.483190972685
 20
895.8047809054134
 30
0.0
 11
2369.923850577652
 21
895.8047809054134
 31
0.0
  0
ARC
  5
424
330
406
100
AcDbEntity
  8
0
  6
Continuous
 62
     7
370
    15
100
AcDbCircle
 10
2368.833026615857
 20
896.5118123938319
 30
0.0
 40
2.742857143616731
100
AcDbArc
 50
345.0621309252148
 51
14.93786907481706
  0
LINE
  5
425
330
406
100
AcDbEntity
  8
0
  6
Continuous
 62
     7
370
    15
100
AcDbLine
 10
2369.923850577652
 20
897.2188414980648
 30
0.0
 11
2371.483190972685
 21
897.2188414980648
 31
0.0
  0
ARC
  5
426
330
406
100
AcDbEntity
  8
0
  6
Continuous
 62
     7
370
    15
100
AcDbCircle
 10
2368.833026615857
 20
896.5118123938319
 30
0.0
 40
1.299918486681021
100
AcDbArc
 50
32.94976752801367
 51
54.7326609791721
  0
ARC
  5
427
330
406
100
AcDbEntity
  8
0
  6
Continuous
 62
     7
370
    15
100
AcDbCircle
 10
2368.833026615857
 20
896.5118123938319
 30
0.0
 40
3.27726312688638
100
AcDbArc
 50
283.2394559412141
 51
76.76054405878592
  0
LINE
  5
428
330
406
100
AcDbEntity
  8
0
  6
Continuous
 62
     7
370
    15
100
AcDbLine
 10
2369.583589081048
 20
895.450472270417
 30
0.0
 11
2369.583589081048
 21
893.3216551293609
 31
0.0
  0
LINE
  5
429
330
406
100
AcDbEntity
  8
0
  6
Continuous
 62
     7
370
    15
100
AcDbLine
 10
2369.583589081048
 20
899.7019709994075
 30
0.0
 11
2369.583589081048
 21
897.5731538583515
 31
0.0
  0
ARC
  5
42A
330
406
100
AcDbEntity
  8
0
  6
Continuous
 62
     7
370
    15
100
AcDbCircle
 10
2380.533026615857
 20
896.5118123938319
 30
0.0
 40
1.299918486680988
100
AcDbArc
 50
305.2673390207666
 51
327.0502324720388
  0
LINE
  5
42B
330
406
100
AcDbEntity
  8
0
  6
Continuous
 62
     7
370
    15
100
AcDbLine
 10
2383.183191586613
 20
895.8047809054134
 30
0.0
 11
2381.623850260257
 21
895.8047809054134
 31
0.0
  0
ARC
  5
42C
330
406
100
AcDbEntity
  8
0
  6
Continuous
 62
     7
370
    15
100
AcDbCircle
 10
2380.533026615857
 20
896.5118123938319
 30
0.0
 40
2.742857143616731
100
AcDbArc
 50
345.0621309252148
 51
14.93786907481706
  0
LINE
  5
42D
330
406
100
AcDbEntity
  8
0
  6
Continuous
 62
     7
370
    15
100
AcDbLine
 10
2381.623850260257
 20
897.2188414980648
 30
0.0
 11
2383.183191586613
 21
897.2188414980648
 31
0.0
  0
ARC
  5
42E
330
406
100
AcDbEntity
  8
0
  6
Continuous
 62
     7
370
    15
100
AcDbCircle
 10
2380.533026615857
 20
896.5118123938319
 30
0.0
 40
1.299918486681037
100
AcDbArc
 50
32.94976752801367
 51
54.7326609791721
  0
ARC
  5
42F
330
406
100
AcDbEntity
  8
0
  6
Continuous
 62
     7
370
    15
100
AcDbCircle
 10
2380.533026615857
 20
896.5118123938319
 30
0.0
 40
3.277263126886386
100
AcDbArc
 50
283.2394559412141
 51
76.76054405878592
  0
LINE
  5
430
330
406
100
AcDbEntity
  8
0
  6
Continuous
 62
     7
370
    15
100
AcDbLine
 10
2381.283589694976
 20
895.450472270417
 30
0.0
 11
2381.283589694976
 21
893.3216551293609
 31
0.0
  0
LINE
  5
431
330
406
100
AcDbEntity
  8
0
  6
Continuous
 62
     7
370
    15
100
AcDbLine
 10
2381.283589694976
 20
899.7019709994075
 30
0.0
 11
2381.283589694976
 21
897.5731538583515
 31
0.0
  0
ARC
  5
432
330
406
100
AcDbEntity
  8
0
  6
Continuous
 62
     7
370
    15
100
AcDbCircle
 10
2380.533026615857
 20
896.5118123938319
 30
0.0
 40
1.299918486680997
100
AcDbArc
 50
125.2673390207953
 51
147.0502324719863
  0
LINE
  5
433
330
406
100
AcDbEntity
  8
0
  6
Continuous
 62
     7
370
    15
100
AcDbLine
 10
2377.882861588477
 20
897.2188414980648
 30
0.0
 11
2379.442202914833
 21
897.2188414980648
 31
0.0
  0
ARC
  5
434
330
406
100
AcDbEntity
  8
0
  6
Continuous
 62
     7
370
    15
100
AcDbCircle
 10
2380.533026615857
 20
896.5118123938319
 30
0.0
 40
2.742857143616753
100
AcDbArc
 50
165.0621309251959
 51
194.9378690747788
  0
LINE
  5
435
330
406
100
AcDbEntity
  8
0
  6
Continuous
 62
     7
370
    15
100
AcDbLine
 10
2379.442202914833
 20
895.8047809054134
 30
0.0
 11
2377.882861588477
 21
895.8047809054134
 31
0.0
  0
ARC
  5
436
330
406
100
AcDbEntity
  8
0
  6
Continuous
 62
     7
370
    15
100
AcDbCircle
 10
2380.533026615857
 20
896.5118123938319
 30
0.0
 40
1.299918486681123
100
AcDbArc
 50
212.9497675279558
 51
234.7326609792009
  0
LINE
  5
437
330
406
100
AcDbEntity
  8
0
  6
Continuous
 62
     7
370
    15
100
AcDbLine
 10
2379.782463480114
 20
893.3216551293609
 30
0.0
 11
2379.782463480114
 21
895.450472270417
 31
0.0
  0
ARC
  5
438
330
406
100
AcDbEntity
  8
0
  6
Continuous
 62
     7
370
    15
100
AcDbCircle
 10
2380.533026615857
 20
896.5118123938319
 30
0.0
 40
3.277263126886365
100
AcDbArc
 50
103.2394559412125
 51
256.7605440587874
  0
LINE
  5
439
330
406
100
AcDbEntity
  8
0
  6
Continuous
 62
     7
370
    15
100
AcDbLine
 10
2379.782463480114
 20
897.5731538583515
 30
0.0
 11
2379.782463480114
 21
899.7019709994075
 31
0.0
  0
ARC
  5
43A
330
406
100
AcDbEntity
  8
0
  6
Continuous
 62
     7
370
    15
100
AcDbCircle
 10
2380.533026615857
 20
873.5118123938319
 30
0.0
 40
1.29991848668099
100
AcDbArc
 50
125.2673390207953
 51
147.0502324719863
  0
LINE
  5
43B
330
406
100
AcDbEntity
  8
0
  6
Continuous
 62
     7
370
    15
100
AcDbLine
 10
2377.882861588477
 20
874.2188423846839
 30
0.0
 11
2379.442202914833
 21
874.2188423846839
 31
0.0
  0
ARC
  5
43C
330
406
100
AcDbEntity
  8
0
  6
Continuous
 62
     7
370
    15
100
AcDbCircle
 10
2380.533026615857
 20
873.5118123938319
 30
0.0
 40
2.74285714361675
100
AcDbArc
 50
165.0621309251959
 51
194.9378690747788
  0
LINE
  5
43D
330
406
100
AcDbEntity
  8
0
  6
Continuous
 62
     7
370
    15
100
AcDbLine
 10
2379.442202914833
 20
872.8047817920325
 30
0.0
 11
2377.882861588477
 21
872.8047817920325
 31
0.0
  0
ARC
  5
43E
330
406
100
AcDbEntity
  8
0
  6
Continuous
 62
     7
370
    15
100
AcDbCircle
 10
2380.533026615857
 20
873.5118123938319
 30
0.0
 40
1.299918486681134
100
AcDbArc
 50
212.9497675279558
 51
234.7326609792009
  0
LINE
  5
43F
330
406
100
AcDbEntity
  8
0
  6
Continuous
 62
     7
370
    15
100
AcDbLine
 10
2379.782463480114
 20
870.3216541533349
 30
0.0
 11
2379.782463480114
 21
872.4504722257135
 31
0.0
  0
ARC
  5
440
330
406
100
AcDbEntity
  8
0
  6
Continuous
 62
     7
370
    15
100
AcDbCircle
 10
2380.533026615857
 20
873.5118123938319
 30
0.0
 40
3.277263126883142
100
AcDbArc
 50
103.2394559412141
 51
256.7605440587859
  0
LINE
  5
441
330
406
100
AcDbEntity
  8
0
  6
Continuous
 62
     7
370
    15
100
AcDbLine
 10
2379.782463480114
 20
874.5731528823254
 30
0.0
 11
2379.782463480114
 21
876.7019709547041
 31
0.0
  0
ARC
  5
442
330
406
100
AcDbEntity
  8
0
  6
Continuous
 62
     7
370
    15
100
AcDbCircle
 10
2380.533026615857
 20
873.5118123938319
 30
0.0
 40
1.299918486680996
100
AcDbArc
 50
305.2673390207666
 51
327.0502324720388
  0
LINE
  5
443
330
406
100
AcDbEntity
  8
0
  6
Continuous
 62
     7
370
    15
100
AcDbLine
 10
2383.183191586613
 20
872.8047817920325
 30
0.0
 11
2381.623850260257
 21
872.8047817920325
 31
0.0
  0
ARC
  5
444
330
406
100
AcDbEntity
  8
0
  6
Continuous
 62
     7
370
    15
100
AcDbCircle
 10
2380.533026615857
 20
873.5118123938319
 30
0.0
 40
2.742857143616735
100
AcDbArc
 50
345.0621309252148
 51
14.93786907481706
  0
LINE
  5
445
330
406
100
AcDbEntity
  8
0
  6
Continuous
 62
     7
370
    15
100
AcDbLine
 10
2381.623850260257
 20
874.2188423846839
 30
0.0
 11
2383.183191586613
 21
874.2188423846839
 31
0.0
  0
ARC
  5
446
330
406
100
AcDbEntity
  8
0
  6
Continuous
 62
     7
370
    15
100
AcDbCircle
 10
2380.533026615857
 20
873.5118123938319
 30
0.0
 40
1.299918486681014
100
AcDbArc
 50
32.94976752801367
 51
54.7326609791721
  0
LINE
  5
447
330
406
100
AcDbEntity
  8
0
  6
Continuous
 62
     7
370
    15
100
AcDbLine
 10
2381.283589694976
 20
876.7019709547041
 30
0.0
 11
2381.283589694976
 21
874.5731528823254
 31
0.0
  0
ARC
  5
448
330
406
100
AcDbEntity
  8
0
  6
Continuous
 62
     7
370
    15
100
AcDbCircle
 10
2380.533026615857
 20
873.5118123938319
 30
0.0
 40
3.277263126883136
100
AcDbArc
 50
283.2394559412141
 51
76.76054405876057
  0
LINE
  5
449
330
406
100
AcDbEntity
  8
0
  6
Continuous
 62
     7
370
    15
100
AcDbLine
 10
2381.283589694976
 20
872.4504722257135
 30
0.0
 11
2381.283589694976
 21
870.3216541533349
 31
0.0
  0
ARC
  5
44A
330
406
100
AcDbEntity
  8
0
  6
Continuous
 62
     7
370
    15
100
AcDbCircle
 10
2368.833026615857
 20
873.5118123938319
 30
0.0
 40
1.29991848668099
100
AcDbArc
 50
125.2673390207953
 51
147.0502324719863
  0
LINE
  5
44B
330
406
100
AcDbEntity
  8
0
  6
Continuous
 62
     7
370
    15
100
AcDbLine
 10
2366.182861905872
 20
874.2188423846839
 30
0.0
 11
2367.742203232228
 21
874.2188423846839
 31
0.0
  0
ARC
  5
44C
330
406
100
AcDbEntity
  8
0
  6
Continuous
 62
     7
370
    15
100
AcDbCircle
 10
2368.833026615857
 20
873.5118123938319
 30
0.0
 40
2.742857143616775
100
AcDbArc
 50
165.0621309251959
 51
194.9378690747788
  0
LINE
  5
44D
330
406
100
AcDbEntity
  8
0
  6
Continuous
 62
     7
370
    15
100
AcDbLine
 10
2367.742203232228
 20
872.8047817920325
 30
0.0
 11
2366.182861905872
 21
872.8047817920325
 31
0.0
  0
ARC
  5
44E
330
406
100
AcDbEntity
  8
0
  6
Continuous
 62
     7
370
    15
100
AcDbCircle
 10
2368.833026615857
 20
873.5118123938319
 30
0.0
 40
1.299918486681134
100
AcDbArc
 50
212.9497675279558
 51
234.7326609792009
  0
LINE
  5
44F
330
406
100
AcDbEntity
  8
0
  6
Continuous
 62
     7
370
    15
100
AcDbLine
 10
2368.082463797509
 20
870.3216541533349
 30
0.0
 11
2368.082463797509
 21
872.4504722257135
 31
0.0
  0
ARC
  5
450
330
406
100
AcDbEntity
  8
0
  6
Continuous
 62
     7
370
    15
100
AcDbCircle
 10
2368.833026615857
 20
873.5118123938319
 30
0.0
 40
3.277263126883142
100
AcDbArc
 50
103.2394559412141
 51
256.7605440587859
  0
LINE
  5
451
330
406
100
AcDbEntity
  8
0
  6
Continuous
 62
     7
370
    15
100
AcDbLine
 10
2368.082463797509
 20
874.5731528823254
 30
0.0
 11
2368.082463797509
 21
876.7019709547041
 31
0.0
  0
ARC
  5
452
330
406
100
AcDbEntity
  8
0
  6
Continuous
 62
     7
370
    15
100
AcDbCircle
 10
2368.833026615857
 20
873.5118123938319
 30
0.0
 40
1.299918486680996
100
AcDbArc
 50
305.2673390207666
 51
327.0502324720388
  0
LINE
  5
453
330
406
100
AcDbEntity
  8
0
  6
Continuous
 62
     7
370
    15
100
AcDbLine
 10
2371.483190972685
 20
872.8047817920325
 30
0.0
 11
2369.923850577652
 21
872.8047817920325
 31
0.0
  0
ARC
  5
454
330
406
100
AcDbEntity
  8
0
  6
Continuous
 62
     7
370
    15
100
AcDbCircle
 10
2368.833026615857
 20
873.5118123938319
 30
0.0
 40
2.742857143616735
100
AcDbArc
 50
345.0621309252148
 51
14.93786907481706
  0
LINE
  5
455
330
406
100
AcDbEntity
  8
0
  6
Continuous
 62
     7
370
    15
100
AcDbLine
 10
2369.923850577652
 20
874.2188423846839
 30
0.0
 11
2371.483190972685
 21
874.2188423846839
 31
0.0
  0
ARC
  5
456
330
406
100
AcDbEntity
  8
0
  6
Continuous
 62
     7
370
    15
100
AcDbCircle
 10
2368.833026615857
 20
873.5118123938319
 30
0.0
 40
1.299918486680998
100
AcDbArc
 50
32.94976752801367
 51
54.7326609791721
  0
LINE
  5
457
330
406
100
AcDbEntity
  8
0
  6
Continuous
 62
     7
370
    15
100
AcDbLine
 10
2369.583589081048
 20
876.7019709547041
 30
0.0
 11
2369.583589081048
 21
874.5731528823254
 31
0.0
  0
ARC
  5
458
330
406
100
AcDbEntity
  8
0
  6
Continuous
 62
     7
370
    15
100
AcDbCircle
 10
2368.833026615857
 20
873.5118123938319
 30
0.0
 40
3.277263126883129
100
AcDbArc
 50
283.2394559412141
 51
76.76054405876057
  0
LINE
  5
459
330
406
100
AcDbEntity
  8
0
  6
Continuous
 62
     7
370
    15
100
AcDbLine
 10
2369.583589081048
 20
872.4504722257135
 30
0.0
 11
2369.583589081048
 21
870.3216541533349
 31
0.0
  0
CIRCLE
  5
45A
330
406
100
AcDbEntity
  8
0
  6
Continuous
 62
     7
370
    15
100
AcDbCircle
 10
2368.833026615857
 20
896.5118123938319
 30
0.0
 40
3.600094385335808
  0
ARC
  5
45B
330
406
100
AcDbEntity
  8
0
  6
Continuous
 62
     7
370
    15
100
AcDbCircle
 10
2368.833026615857
 20
896.5118123938319
 30
0.0
 40
3.429735080255013
100
AcDbArc
 50
77.35909542395818
 51
102.6409045760149
  0
ARC
  5
45C
330
406
100
AcDbEntity
  8
0
  6
Continuous
 62
     7
370
    15
100
AcDbCircle
 10
2368.833026615857
 20
896.5118123938319
 30
0.0
 40
3.429735080254978
100
AcDbArc
 50
257.359095423985
 51
282.6409045760419
  0
LINE
  5
45D
330
406
100
AcDbEntity
  8
0
  6
Continuous
 62
     7
370
    15
100
AcDbLine
 10
2368.082463797509
 20
893.165211563277
 30
0.0
 11
2368.082463797509
 21
893.3216551293609
 31
0.0
  0
LINE
  5
45E
330
406
100
AcDbEntity
  8
0
  6
Continuous
 62
     7
370
    15
100
AcDbLine
 10
2369.583589081048
 20
893.3216551293609
 30
0.0
 11
2369.583589081048
 21
893.165211563277
 31
0.0
  0
LINE
  5
45F
330
406
100
AcDbEntity
  8
0
  6
Continuous
 62
     7
370
    15
100
AcDbLine
 10
2368.082463797509
 20
899.7019709994075
 30
0.0
 11
2368.082463797509
 21
899.8584145654914
 31
0.0
  0
LINE
  5
460
330
406
100
AcDbEntity
  8
0
  6
Continuous
 62
     7
370
    15
100
AcDbLine
 10
2369.583589081048
 20
899.8584145654914
 30
0.0
 11
2369.583589081048
 21
899.7019709994075
 31
0.0
  0
CIRCLE
  5
461
330
406
100
AcDbEntity
  8
0
  6
Continuous
 62
     7
370
    15
100
AcDbCircle
 10
2380.533026615857
 20
896.5118123938319
 30
0.0
 40
3.600094385335808
  0
ARC
  5
462
330
406
100
AcDbEntity
  8
0
  6
Continuous
 62
     7
370
    15
100
AcDbCircle
 10
2380.533026615857
 20
896.5118123938319
 30
0.0
 40
3.429735080255013
100
AcDbArc
 50
77.35909542395818
 51
102.6409045760149
  0
ARC
  5
463
330
406
100
AcDbEntity
  8
0
  6
Continuous
 62
     7
370
    15
100
AcDbCircle
 10
2380.533026615857
 20
896.5118123938319
 30
0.0
 40
3.429735080254971
100
AcDbArc
 50
257.359095423985
 51
282.6409045760419
  0
LINE
  5
464
330
406
100
AcDbEntity
  8
0
  6
Continuous
 62
     7
370
    15
100
AcDbLine
 10
2381.283589694976
 20
893.3216551293609
 30
0.0
 11
2381.283589694976
 21
893.165211563277
 31
0.0
  0
LINE
  5
465
330
406
100
AcDbEntity
  8
0
  6
Continuous
 62
     7
370
    15
100
AcDbLine
 10
2379.782463480114
 20
893.165211563277
 30
0.0
 11
2379.782463480114
 21
893.3216551293609
 31
0.0
  0
LINE
  5
466
330
406
100
AcDbEntity
  8
0
  6
Continuous
 62
     7
370
    15
100
AcDbLine
 10
2379.782463480114
 20
899.7019709994075
 30
0.0
 11
2379.782463480114
 21
899.8584145654914
 31
0.0
  0
LINE
  5
467
330
406
100
AcDbEntity
  8
0
  6
Continuous
 62
     7
370
    15
100
AcDbLine
 10
2381.283589694976
 20
899.8584145654914
 30
0.0
 11
2381.283589694976
 21
899.7019709994075
 31
0.0
  0
CIRCLE
  5
468
330
406
100
AcDbEntity
  8
0
  6
Continuous
 62
     7
370
    15
100
AcDbCircle
 10
2368.833026615857
 20
873.5118123938319
 30
0.0
 40
3.600094385332553
  0
ARC
  5
469
330
406
100
AcDbEntity
  8
0
  6
Continuous
 62
     7
370
    15
100
AcDbCircle
 10
2368.833026615857
 20
873.5118123938319
 30
0.0
 40
3.429735080251782
100
AcDbArc
 50
77.35909542395818
 51
102.6409045760418
  0
ARC
  5
46A
330
406
100
AcDbEntity
  8
0
  6
Continuous
 62
     7
370
    15
100
AcDbCircle
 10
2368.833026615857
 20
873.5118123938319
 30
0.0
 40
3.429735080251774
100
AcDbArc
 50
257.3590954239581
 51
282.6409045760419
  0
LINE
  5
46B
330
406
100
AcDbEntity
  8
0
  6
Continuous
 62
     7
370
    15
100
AcDbLine
 10
2368.082463797509
 20
870.1652115185735
 30
0.0
 11
2368.082463797509
 21
870.3216541533349
 31
0.0
  0
LINE
  5
46C
330
406
100
AcDbEntity
  8
0
  6
Continuous
 62
     7
370
    15
100
AcDbLine
 10
2369.583589081048
 20
870.3216541533349
 30
0.0
 11
2369.583589081048
 21
870.1652115185735
 31
0.0
  0
LINE
  5
46D
330
406
100
AcDbEntity
  8
0
  6
Continuous
 62
     7
370
    15
100
AcDbLine
 10
2369.583589081048
 20
876.8584135894654
 30
0.0
 11
2369.583589081048
 21
876.7019709547041
 31
0.0
  0
LINE
  5
46E
330
406
100
AcDbEntity
  8
0
  6
Continuous
 62
     7
370
    15
100
AcDbLine
 10
2368.082463797509
 20
876.7019709547041
 30
0.0
 11
2368.082463797509
 21
876.8584135894654
 31
0.0
  0
CIRCLE
  5
46F
330
406
100
AcDbEntity
  8
0
  6
Continuous
 62
     7
370
    15
100
AcDbCircle
 10
2380.533026615857
 20
873.5118123938319
 30
0.0
 40
3.600094385332553
  0
ARC
  5
470
330
406
100
AcDbEntity
  8
0
  6
Continuous
 62
     7
370
    15
100
AcDbCircle
 10
2380.533026615857
 20
873.5118123938319
 30
0.0
 40
3.429735080251782
100
AcDbArc
 50
77.35909542395818
 51
102.6409045760418
  0
ARC
  5
471
330
406
100
AcDbEntity
  8
0
  6
Continuous
 62
     7
370
    15
100
AcDbCircle
 10
2380.533026615857
 20
873.5118123938319
 30
0.0
 40
3.429735080251769
100
AcDbArc
 50
257.3590954239581
 51
282.6409045760419
  0
LINE
  5
472
330
406
100
AcDbEntity
  8
0
  6
Continuous
 62
     7
370
    15
100
AcDbLine
 10
2379.782463480114
 20
870.1652115185735
 30
0.0
 11
2379.782463480114
 21
870.3216541533349
 31
0.0
  0
LINE
  5
473
330
406
100
AcDbEntity
  8
0
  6
Continuous
 62
     7
370
    15
100
AcDbLine
 10
2381.283589694976
 20
870.3216541533349
 30
0.0
 11
2381.283589694976
 21
870.1652115185735
 31
0.0
  0
LINE
  5
474
330
406
100
AcDbEntity
  8
0
  6
Continuous
 62
     7
370
    15
100
AcDbLine
 10
2381.283589694976
 20
876.8584135894654
 30
0.0
 11
2381.283589694976
 21
876.7019709547041
 31
0.0
  0
LINE
  5
475
330
406
100
AcDbEntity
  8
0
  6
Continuous
 62
     7
370
    15
100
AcDbLine
 10
2379.782463480114
 20
876.7019709547041
 30
0.0
 11
2379.782463480114
 21
876.8584135894654
 31
0.0
  0
CIRCLE
  5
476
330
406
100
AcDbEntity
  8
0
  6
Continuous
 62
     7
370
    15
100
AcDbCircle
 10
2374.683026615857
 20
885.0118123938319
 30
0.0
 40
2.600000000000022
  0
INSERT
  5
477
330
406
100
AcDbEntity
  8
0
  6
Continuous
 62
     7
370
     0
100
AcDbBlockReference
  2
SW_CENTERMARKSYMBOL_2
 10
2368.833026615857
 20
873.5118123938319
 30
0.0
  0
INSERT
  5
478
330
406
100
AcDbEntity
  8
0
  6
Continuous
 62
     7
370
     0
100
AcDbBlockReference
  2
SW_CENTERMARKSYMBOL_3
 10
2380.533026615857
 20
873.5118123938319
 30
0.0
  0
INSERT
  5
479
330
406
100
AcDbEntity
  8
0
  6
Continuous
 62
     7
370
     0
100
AcDbBlockReference
  2
SW_CENTERMARKSYMBOL_4
 10
2380.533026615857
 20
896.5118123938319
 30
0.0
  0
INSERT
  5
47A
330
406
100
AcDbEntity
  8
0
  6
Continuous
 62
     7
370
     0
100
AcDbBlockReference
  2
SW_CENTERMARKSYMBOL_5
 10
2368.833026615857
 20
896.5118123938319
 30
0.0
  0
INSERT
  5
47B
330
406
100
AcDbEntity
  8
0
  6
Continuous
 62
     7
370
     0
100
AcDbBlockReference
  2
SW_CENTERMARKSYMBOL_6
 10
2374.683026615857
 20
885.0118123938319
 30
0.0
  0
ENDBLK
  5
408
330
406
100
AcDbEntity
  8
0
100
AcDbBlockEnd
  0
BLOCK
  5
47E
330
47D
100
AcDbEntity
  8
0
100
AcDbBlockBegin
  2
4
 70
     0
 10
0.0
 20
0.0
 30
0.0
  3
4
  1

  0
LINE
  5
480
330
47D
100
AcDbEntity
  8
0
  6
Continuous
 62
     7
370
    15
100
AcDbLine
 10
2489.264301129137
 20
962.2350381608452
 30
0.0
 11
2489.264300882183
 21
961.0103268851554
 31
0.0
  0
LINE
  5
481
330
47D
100
AcDbEntity
  8
0
  6
Continuous
 62
     7
370
    15
100
AcDbLine
 10
2489.264301129137
 20
962.2350381608452
 30
0.0
 11
2517.902126921621
 21
978.7673030916923
 31
0.0
  0
LINE
  5
482
330
47D
100
AcDbEntity
  8
0
  6
Continuous
 62
     7
370
    15
100
AcDbLine
 10
2518.962785291623
 20
978.1548970022891
 30
0.0
 11
2517.902126921621
 21
978.7673030916923
 31
0.0
  0
LINE
  5
483
330
47D
100
AcDbEntity
  8
0
  6
Continuous
 62
     7
370
    15
100
AcDbLine
 10
2489.264300882183
 20
961.0103268851554
 30
0.0
 11
2518.962785291623
 21
978.1548970022891
 31
0.0
  0
LINE
  5
484
330
47D
100
AcDbEntity
  8
0
  6
Continuous
 62
     7
370
    15
100
AcDbLine
 10
2469.111758101738
 20
973.8688536178379
 30
0.0
 11
2468.051097920739
 21
973.256448288774
 31
0.0
  0
LINE
  5
485
330
47D
100
AcDbEntity
  8
0
  6
Continuous
 62
     7
370
    15
100
AcDbLine
 10
2469.111758101738
 20
973.8688536178379
 30
0.0
 11
2489.264301129137
 21
962.2350381608452
 31
0.0
  0
LINE
  5
486
330
47D
100
AcDbEntity
  8
0
  6
Continuous
 62
     7
370
    15
100
AcDbLine
 10
2468.051097920739
 20
973.256448288774
 30
0.0
 11
2489.264300882183
 21
961.0103268851554
 31
0.0
  0
LINE
  5
487
330
47D
100
AcDbEntity
  8
0
  6
Continuous
 62
     7
370
    15
100
AcDbLine
 10
2500.047679416451
 20
952.3335692098532
 30
0.0
 11
2500.047679416451
 21
959.0700308714083
 31
0.0
  0
LINE
  5
488
330
47D
100
AcDbEntity
  8
0
  6
Continuous
 62
     7
370
    15
100
AcDbLine
 10
2500.047679416451
 20
959.0700308714083
 30
0.0
 11
2491.915951252364
 21
954.3756841242613
 31
0.0
  0
LINE
  5
489
330
47D
100
AcDbEntity
  8
0
  6
Continuous
 62
     7
370
    15
100
AcDbLine
 10
2491.915951252364
 20
954.3756841242613
 30
0.0
 11
2491.915951252364
 21
947.639222462706
 31
0.0
  0
LWPOLYLINE
  5
48A
330
47D
100
AcDbEntity
  8
0
  6
Continuous
 62
     7
370
    15
100
AcDbPolyline
 90
       38
 70
   128
 43
0.0
 10
2491.915951252364
 20
947.639222462706
 10
2491.93059859931
 20
947.2495051495187
 10
2491.974435108393
 20
946.8795068469841
 10
2492.047144678247
 20
946.5318945281223
 10
2492.148203930625
 20
946.2091714007078
 10
2492.276884186029
 20
945.9136628385206
 10
2492.432258543065
 20
945.6474991752084
 10
2492.61320780534
 20
945.4125970723907
 10
2492.818427725457
 20
945.2106492527294
 10
2493.046439870995
 20
945.0431110006922
 10
2493.295601831951
 20
944.9111889447689
 10
2493.564117757453
 20
944.8158342123148
 10
2493.850053173007
 20
944.7577331124916
 10
2494.151348151394
 20
944.7373048536418
 10
2494.465831471369
 20
944.7546964088356
 10
2494.791237739827
 20
944.8097825142649
 10
2495.125221879773
 20
944.9021660481148
 10
2495.465377898848
 20
945.0311816410021
 10
2495.809255352937
 20
945.1958998569745
 10
2496.154375480513
 20
945.3951334658174
 10
2496.498252276058
 20
945.6274473270935
 10
2496.838408295133
 20
945.8911675142141
 10
2497.172393093623
 20
946.1843942405781
 10
2497.497799032808
 20
946.5050140254959
 10
2497.812282352783
 20
946.8507171828578
 10
2498.113577660443
 20
947.2190134092636
 10
2498.399513075997
 20
947.6072485127861
 10
2498.668028672226
 20
948.0126249437381
 10
2498.917190303911
 20
948.4322230863353
 10
2499.145202778721
 20
948.8630187481081
 10
2499.35042302811
 20
949.3019086341718
 10
2499.531371961114
 20
949.7457301181494
 10
2499.686746318149
 20
950.191285195641
 10
2499.815426573553
 20
950.6353648182942
 10
2499.916486155203
 20
951.0747686649745
 10
2499.989195395785
 20
951.5063294762072
 10
2500.033032069504
 20
951.9269404298521
 10
2500.047679416451
 20
952.3335692098532
  0
LINE
  5
48B
330
47D
100
AcDbEntity
  8
0
  6
Continuous
 62
     7
370
    15
100
AcDbLine
 10
2516.311134756807
 20
961.7222621338926
 30
0.0
 11
2516.311134756807
 21
968.4587237954479
 31
0.0
  0
LINE
  5
48C
330
47D
100
AcDbEntity
  8
0
  6
Continuous
 62
     7
370
    15
100
AcDbLine
 10
2516.311134756807
 20
968.4587237954479
 30
0.0
 11
2508.1794074159
 21
963.7643775235131
 31
0.0
  0
LINE
  5
48D
330
47D
100
AcDbEntity
  8
0
  6
Continuous
 62
     7
370
    15
100
AcDbLine
 10
2508.1794074159
 20
963.7643775235131
 30
0.0
 11
2508.1794074159
 21
957.0279158619579
 31
0.0
  0
LWPOLYLINE
  5
48E
330
47D
100
AcDbEntity
  8
0
  6
Continuous
 62
     7
370
    15
100
AcDbPolyline
 90
       38
 70
   128
 43
0.0
 10
2508.1794074159
 20
957.0279158619579
 10
2508.194054762847
 20
956.6381985487705
 10
2508.237891436566
 20
956.2682003412781
 10
2508.310601335692
 20
955.9205882125011
 10
2508.411660258798
 20
955.597864895002
 10
2508.540339855657
 20
955.3023559526449
 10
2508.695714212693
 20
955.0361922893328
 10
2508.876663804241
 20
954.8012903766
 10
2509.081883395085
 20
954.5993423668537
 10
2509.30989652844
 20
954.4318046850712
 10
2509.559058160125
 20
954.2998824390629
 10
2509.827573097809
 20
954.2045271363544
 10
2510.113509171908
 20
954.1464264167009
 10
2510.414803821022
 20
954.1259979677661
 10
2510.729287799542
 20
954.1433899031297
 10
2511.054693080183
 20
954.1984754383046
 10
2511.388677878673
 20
954.2908593523243
 10
2511.728834556293
 20
954.4198753253811
 10
2512.072710693293
 20
954.5845927810141
 10
2512.417830162325
 20
954.7838260096874
 10
2512.761708933503
 20
955.0161410114725
 10
2513.101865611123
 20
955.2798615787626
 10
2513.435847775435
 20
955.5730867844481
 10
2513.761255690253
 20
955.8937077098748
 10
2514.075739668773
 20
956.2394112474063
 10
2514.377034317888
 20
956.6077070936426
 10
2514.662969074898
 20
956.9959418169956
 10
2514.931484012583
 20
957.4013178677777
 10
2515.180645644267
 20
957.820916010375
 10
2515.408660094711
 20
958.2517128126568
 10
2515.613878368466
 20
958.6906015582114
 10
2515.794827960014
 20
959.1344234223587
 10
2515.950202317049
 20
959.5799784998503
 10
2516.078881913909
 20
960.0240577423338
 10
2516.179942154104
 20
960.4634619691838
 10
2516.252650736142
 20
960.8950224002468
 10
2516.296488726949
 20
961.315634114231
 10
2516.311134756807
 20
961.7222621338926
  0
LINE
  5
48F
330
47D
100
AcDbEntity
  8
0
  6
Continuous
 62
     7
370
    15
100
AcDbLine
 10
2489.264300882183
 20
961.0103268851554
 30
0.0
 11
2489.264300882183
 21
937.7389140194177
 31
0.0
  0
LINE
  5
490
330
47D
100
AcDbEntity
  8
0
  6
Continuous
 62
     7
370
    15
100
AcDbLine
 10
2518.962785291623
 20
954.8834841365515
 30
0.0
 11
2518.962785291623
 21
978.1548970022891
 31
0.0
  0
LINE
  5
491
330
47D
100
AcDbEntity
  8
0
  6
Continuous
 62
     7
370
    15
100
AcDbLine
 10
2518.962785291623
 20
954.8834841365515
 30
0.0
 11
2489.264300882183
 21
937.7389140194177
 31
0.0
  0
LINE
  5
492
330
47D
100
AcDbEntity
  8
0
  6
Continuous
 62
     7
370
    15
100
AcDbLine
 10
2468.051097920739
 20
973.256448288774
 30
0.0
 11
2468.051097920739
 21
949.9850354230362
 31
0.0
  0
LINE
  5
493
330
47D
100
AcDbEntity
  8
0
  6
Continuous
 62
     7
370
    15
100
AcDbLine
 10
2489.264300882183
 20
937.7389140194177
 30
0.0
 11
2468.051097920739
 21
949.9850354230362
 31
0.0
  0
LWPOLYLINE
  5
494
330
47D
100
AcDbEntity
  8
0
  6
Continuous
 62
     7
370
    15
100
AcDbPolyline
 90
       64
 70
   128
 43
0.0
 10
2490.572448839364
 20
974.624031359108
 10
2490.294849280191
 20
974.8011216063821
 10
2490.049173983132
 20
974.9932890018973
 10
2489.837862855589
 20
975.1986216724723
 10
2489.663017313086
 20
975.415080768262
 10
2489.526373937491
 20
975.6405141488643
 10
2489.42929064758
 20
975.8726810943485
 10
2489.372733528145
 20
976.109275115434
 10
2489.357264976197
 20
976.3479444826513
 10
2489.383036456973
 20
976.586316177031
 10
2489.449793113747
 20
976.8220221218086
 10
2489.5568717922
 20
977.0527200917562
 10
2489.703208284408
 20
977.2761169035311
 10
2489.887348524097
 20
977.4899923663635
 10
2490.107461757534
 20
977.6922205715578
 10
2490.361358982775
 20
977.8807911819924
 10
2490.646519949988
 20
978.0538318621299
 10
2490.960108966522
 20
978.2096219641237
 10
2491.29900914122
 20
978.3466122966409
 10
2491.659852677468
 20
978.4634426126649
 10
2492.039053800422
 20
978.5589514939083
 10
2492.432842342771
 20
978.6321888964096
 10
2492.83730655014
 20
978.682427935794
 10
2493.248427325394
 20
978.709169449308
 10
2493.662115107142
 20
978.7121465578552
 10
2494.074262553284
 20
978.6913307487122
 10
2494.480769565717
 20
978.6469280738302
 10
2494.877600583693
 20
978.5793810506845
 10
2495.260808291432
 20
978.4893595382028
 10
2495.626584326045
 20
978.3777588359159
 10
2495.971295497482
 20
978.2456878987002
 10
2496.291515398667
 20
978.0944602127037
 10
2496.584059966903
 20
977.9255778282234
 10
2496.846022386734
 20
977.7407188141042
 10
2497.074800748807
 20
977.5417212906154
 10
2497.268119123303
 20
977.3305636606274
 10
2497.424058511527
 20
977.1093421796031
 10
2497.541066065527
 20
976.880256509151
 10
2497.617982746971
 20
976.6455846258278
 10
2497.654039375872
 20
976.4076577299412
 10
2497.648882972374
 20
976.1688404767291
 10
2497.602559634593
 20
975.931505885161
 10
2497.515534294953
 20
975.6980132880991
 10
2497.388669646757
 20
975.4706840014407
 10
2497.223224827105
 20
975.2517762329205
 10
2497.020847514357
 20
975.043465313289
 10
2496.78354758635
 20
974.8478224068122
 10
2496.513681315335
 20
974.666791701092
 10
2496.213934245815
 20
974.5021713985837
 10
2495.887284316055
 20
974.355600030489
 10
2495.536976833389
 20
974.2285313655584
 10
2495.166494181177
 20
974.1222290877161
 10
2494.779517623218
 20
974.0377508289347
 10
2494.379893059439
 20
973.9759360038068
 10
2493.971594147401
 20
973.9373982061511
 10
2493.558677521273
 20
973.9225206469773
 10
2493.145245913339
 20
973.9314500717709
 10
2492.73540864133
 20
973.9640998018515
 10
2492.333239461572
 20
974.0201451723358
 10
2491.942735739228
 20
974.0990273338349
 10
2491.567776301451
 20
974.1999638972044
 10
2491.212091144334
 20
974.3219512145621
 10
2490.879212042072
 20
974.4637761645476
 10
2490.572448839364
 20
974.624031359108
  0
LWPOLYLINE
  5
495
330
47D
100
AcDbEntity
  8
0
  6
Continuous
 62
     7
370
    15
100
AcDbPolyline
 90
       65
 70
   128
 43
0.0
 10
2478.233435724188
 20
972.276857652886
 10
2478.542467612726
 20
972.1151650368703
 10
2478.877465581942
 20
971.9717371015459
 10
2479.235203422291
 20
971.8479550032595
 10
2479.61223464109
 20
971.7450119044649
 10
2480.004929670284
 20
971.6638979570218
 10
2480.409505171675
 20
971.605395169905
 10
2480.822066842313
 20
971.5700663842845
 10
2481.23863970755
 20
971.5582522321691
 10
2481.655212572786
 20
971.5700663842845
 10
2482.067772926336
 20
971.605395169905
 10
2482.472349415543
 20
971.663897766937
 10
2482.865044115464
 20
971.7450119044649
 10
2483.242075334264
 20
971.8479550032595
 10
2483.599813174612
 20
971.9717371015459
 10
2483.934810814556
 20
972.1151652269551
 10
2484.243842703095
 20
972.2768578429709
 10
2484.523933536141
 20
972.4552585350364
 10
2484.772385256846
 20
972.6486485561535
 10
2484.986804714467
 20
972.8551658353653
 10
2485.165127371972
 20
973.0728217052204
 10
2485.305635745284
 20
973.2995191499167
 10
2485.406976525439
 20
973.5330763758193
 10
2485.468174408022
 20
973.7712423984172
 10
2485.488639337152
 20
974.0117247947065
 10
2485.468174408022
 20
974.2522071909959
 10
2485.406976525439
 20
974.490373973933
 10
2485.305635745284
 20
974.7239304394964
 10
2485.165127371972
 20
974.9506286445319
 10
2484.986804714467
 20
975.1682837540476
 10
2484.772385256846
 20
975.3748017935988
 10
2484.523933536141
 20
975.5681918147159
 10
2484.243843361639
 20
975.7465921266119
 10
2483.934810814556
 20
975.9082851227972
 10
2483.599813174612
 20
976.0517132482066
 10
2483.242075334264
 20
976.1754945861538
 10
2482.865044115464
 20
976.2784384452874
 10
2482.472349086271
 20
976.3595520125608
 10
2482.067773255608
 20
976.4180549897625
 10
2481.655211914242
 20
976.4533835852981
 10
2481.238639049005
 20
976.4651977374137
 10
2480.822066183769
 20
976.4533835852981
 10
2480.409505500947
 20
976.4180549897625
 10
2480.004929341012
 20
976.3595518224761
 10
2479.612234970363
 20
976.2784382552027
 10
2479.235203093019
 20
976.1754947762383
 10
2478.877465911215
 20
976.0517130581218
 10
2478.542467941999
 20
975.9082851227972
 10
2478.233435394916
 20
975.7465921266119
 10
2477.953345220414
 20
975.5681918147159
 10
2477.704893828982
 20
975.3748016035141
 10
2477.490473712816
 20
975.1682839441325
 10
2477.312151713855
 20
974.9506284544469
 10
2477.171643011271
 20
974.7239304394964
 10
2477.070301901843
 20
974.490373783848
 10
2477.009104348533
 20
974.2522075711656
 10
2476.988639419403
 20
974.0117251748761
 10
2477.009104348533
 20
973.7712427785869
 10
2477.070301901843
 20
973.5330761857346
 10
2477.171643011271
 20
973.2995195300864
 10
2477.312151384583
 20
973.0728217052204
 10
2477.490474042088
 20
972.8551658353653
 10
2477.704893499709
 20
972.6486485561535
 10
2477.953344891142
 20
972.4552583449515
 10
2478.233435724188
 20
972.276857652886
  0
LWPOLYLINE
  5
496
330
47D
100
AcDbEntity
  8
0
  6
Continuous
 62
     7
370
    15
100
AcDbPolyline
 90
       65
 70
   128
 43
0.0
 10
2486.506585498183
 20
967.5008699481153
 10
2486.815616728177
 20
967.3391777122692
 10
2487.150614697393
 20
967.1957497769447
 10
2487.508351879197
 20
967.071968058828
 10
2487.885384415085
 20
966.9690241996944
 10
2488.278078785735
 20
966.887910632421
 10
2488.68265494567
 20
966.8294074651342
 10
2489.095216616308
 20
966.7940786795139
 10
2489.511788823
 20
966.7822649075679
 10
2489.928362346781
 20
966.7940786795139
 10
2490.340922700331
 20
966.8294074651342
 10
2490.745497872449
 20
966.8879108225056
 10
2491.138193889459
 20
966.9690241996944
 10
2491.515225108259
 20
967.0719672984887
 10
2491.872962948608
 20
967.1957493967751
 10
2492.207960588551
 20
967.3391775221844
 10
2492.51699247709
 20
967.5008701382001
 10
2492.797083310136
 20
967.6792708302658
 10
2493.045535030841
 20
967.8726608513828
 10
2493.259954488462
 20
968.0791781305947
 10
2493.438277145967
 20
968.2968340004498
 10
2493.578784202191
 20
968.5235322054854
 10
2493.680126299435
 20
968.7570886710487
 10
2493.741324182017
 20
968.9952546936465
 10
2493.761788452603
 20
969.2357374701055
 10
2493.741324182017
 20
969.4762194862251
 10
2493.680126299435
 20
969.7143862691623
 10
2493.578784860735
 20
969.9479431148953
 10
2493.438277145967
 20
970.1746409397612
 10
2493.259953171373
 20
970.3922968096163
 10
2493.045534372296
 20
970.5988144689978
 10
2492.797082651592
 20
970.7922044901149
 10
2492.516993135635
 20
970.9706044218412
 10
2492.207960588551
 20
971.1322974180266
 10
2491.872962948608
 20
971.2757255434359
 10
2491.515225108259
 20
971.3995068813829
 10
2491.138193230915
 20
971.5024511206863
 10
2490.745498530993
 20
971.5835644978751
 10
2490.340922371059
 20
971.6420676651615
 10
2489.92836070042
 20
971.6773964507821
 10
2489.511788493728
 20
971.6892102227276
 10
2489.095216287036
 20
971.6773956904425
 10
2488.682654616397
 20
971.6420676651615
 10
2488.278079115007
 20
971.5835641177053
 10
2487.885383756542
 20
971.5024511206863
 10
2487.508351879197
 20
971.3995076417223
 10
2487.150614697393
 20
971.2757259236054
 10
2486.81561705745
 20
971.1322977981962
 10
2486.506584510366
 20
970.9706048020107
 10
2486.226494335864
 20
970.7922044901149
 10
2485.97804261516
 20
970.5988144689978
 10
2485.763622498994
 20
970.3922968096163
 10
2485.585300500034
 20
970.1746413199309
 10
2485.444792785266
 20
969.9479427347256
 10
2485.343451017294
 20
969.7143864592472
 10
2485.282254451801
 20
969.47621967631
 10
2485.261788864126
 20
969.2357376601902
 10
2485.282253134711
 20
968.9952556440706
 10
2485.343451017294
 20
968.7570888611334
 10
2485.444792455993
 20
968.5235320154005
 10
2485.585300500034
 20
968.2968343806194
 10
2485.763623816084
 20
968.0791781305947
 10
2485.978043273704
 20
967.8726608513828
 10
2486.226494665137
 20
967.6792706401808
 10
2486.506585498183
 20
967.5008699481153
  0
LWPOLYLINE
  5
497
330
47D
100
AcDbEntity
  8
0
  6
Continuous
 62
     7
370
    15
100
AcDbPolyline
 90
       65
 70
   128
 43
0.0
 10
2502.770041167811
 20
976.8895630622399
 10
2503.079072397806
 20
976.7278708263937
 10
2503.414071354838
 20
976.5844434613237
 10
2503.771808536642
 20
976.460661743207
 10
2504.148839755442
 20
976.3577171237338
 10
2504.541535113908
 20
976.276604126715
 10
2504.946110615299
 20
976.2181005792587
 10
2505.358672944481
 20
976.1827721738079
 10
2505.775244492629
 20
976.1709580216924
 10
2506.191818674955
 20
976.1827721738079
 10
2506.60437836996
 20
976.2181005792587
 10
2507.008953871349
 20
976.276604126715
 10
2507.401649229816
 20
976.3577171237338
 10
2507.778681765704
 20
976.4606609828677
 10
2508.136417630419
 20
976.584441940645
 10
2508.471415270363
 20
976.7278700660545
 10
2508.780447817446
 20
976.8895630622399
 10
2509.060538650492
 20
977.0679637543052
 10
2509.308990371197
 20
977.2613537754224
 10
2509.523411145907
 20
977.4678718149736
 10
2509.701733144868
 20
977.685527304659
 10
2509.84224151818
 20
977.9122262700338
 10
2509.943582298336
 20
978.145781975258
 10
2510.004779522373
 20
978.3839476176861
 10
2510.025245768592
 20
978.6244315346541
 10
2510.004780839462
 20
978.8649131706041
 10
2509.943582298336
 20
979.1030795733716
 10
2509.84224151818
 20
979.3366367992742
 10
2509.701733144868
 20
979.5633342439705
 10
2509.523408511729
 20
979.7809897336559
 10
2509.308990371197
 20
979.9875077732071
 10
2509.060539967582
 20
980.1808985546635
 10
2508.780449134536
 20
980.3592977260505
 10
2508.471417904541
 20
980.520991482575
 10
2508.136418947509
 20
980.6644188476452
 10
2507.778680448615
 20
980.7881998054226
 10
2507.401649229816
 20
980.8911444248956
 10
2507.008955188439
 20
980.9722581822539
 10
2506.60437836996
 20
981.0307609693708
 10
2506.191817357865
 20
981.0660901351608
 10
2505.775245809718
 20
981.0779042872765
 10
2505.358671627393
 20
981.0660886144823
 10
2504.946110615299
 20
981.0307609693708
 10
2504.541536430997
 20
980.9722581822539
 10
2504.148839755442
 20
980.8911444248956
 10
2503.771808536642
 20
980.7882013261012
 10
2503.414070037749
 20
980.6644188476452
 10
2503.079072397806
 20
980.5209907222359
 10
2502.770039850722
 20
980.3592977260505
 10
2502.489949017677
 20
980.1808970339848
 10
2502.241497296971
 20
979.9875070128678
 10
2502.02707915644
 20
979.7809904939953
 10
2501.84875584039
 20
979.5633342439705
 10
2501.708248784166
 20
979.3366360389351
 10
2501.606906686922
 20
979.1030795733716
 10
2501.545710779974
 20
978.8649131706041
 10
2501.525244533754
 20
978.6244307743148
 10
2501.545709462885
 20
978.3839491383647
 10
2501.606906686922
 20
978.145781975258
 10
2501.708248784166
 20
977.9122255096947
 10
2501.84875584039
 20
977.685527304659
 10
2502.027080473528
 20
977.4678718149736
 10
2502.24149993115
 20
977.2613545357618
 10
2502.489950334765
 20
977.0679637543052
 10
2502.770041167811
 20
976.8895630622399
  0
LWPOLYLINE
  5
498
330
47D
100
AcDbEntity
  8
0
  6
Continuous
 62
     7
370
    15
100
AcDbPolyline
 90
       65
 70
   128
 43
0.0
 10
2494.496891393816
 20
981.6655507670104
 10
2494.805923282355
 20
981.5038581509949
 10
2495.140922239388
 20
981.3604307859248
 10
2495.498660079737
 20
981.2366486876383
 10
2495.875689981447
 20
981.1337048285047
 10
2496.268385998457
 20
981.052591451316
 10
2496.672960841303
 20
980.9940882840294
 10
2497.085523170486
 20
980.9587598785787
 10
2497.502095377178
 20
980.9469453462936
 10
2497.91866890096
 20
980.9587598785787
 10
2498.331228595964
 20
980.9940882840294
 10
2498.735805414443
 20
981.0525910711463
 10
2499.128499455821
 20
981.1337048285047
 10
2499.505531991709
 20
981.2366486876383
 10
2499.863267856424
 20
981.3604296454158
 10
2500.198265496368
 20
981.503857770825
 10
2500.507298043451
 20
981.6655507670104
 10
2500.787388876497
 20
981.843951459076
 10
2501.035840597202
 20
982.0373414801931
 10
2501.250261371912
 20
982.2438595197443
 10
2501.428583370873
 20
982.4615150094299
 10
2501.569093061274
 20
982.6882132144653
 10
2501.67043252434
 20
982.9217696800286
 10
2501.731629748378
 20
983.1599353224568
 10
2501.752096653142
 20
983.4004188592551
 10
2501.731631065467
 20
983.6409008753749
 10
2501.67043252434
 20
983.8790672781422
 10
2501.56909240273
 20
984.1126241238752
 10
2501.428583370873
 20
984.3393219487412
 10
2501.250260054823
 20
984.5569766780872
 10
2501.035841255746
 20
984.7634950978081
 10
2500.78739085213
 20
984.9568858792645
 10
2500.50729936054
 20
985.1352854308212
 10
2500.198268130546
 20
985.2969791873459
 10
2499.863269173514
 20
985.4404065524159
 10
2499.50553067462
 20
985.5641875101932
 10
2499.128500114365
 20
985.6671317494967
 10
2498.735805743716
 20
985.7482456969398
 10
2498.331229254509
 20
985.8067482939718
 10
2497.918668571687
 20
985.8420772696771
 10
2497.502096364995
 20
985.8538918019622
 10
2497.085521524124
 20
985.8420765093379
 10
2496.672961499848
 20
985.8067482939718
 10
2496.268386657002
 20
985.7482458870245
 10
2495.875690969264
 20
985.667131559412
 10
2495.498659750464
 20
985.5641884606173
 10
2495.140921251571
 20
985.4404059821613
 10
2494.805923282355
 20
985.2969780468368
 10
2494.496890735272
 20
985.1352850506515
 10
2494.216799902226
 20
984.956884358586
 10
2493.968348510793
 20
984.763494147384
 10
2493.753930370261
 20
984.5569776285115
 10
2493.575607054211
 20
984.3393213784867
 10
2493.435099010171
 20
984.1126237437055
 10
2493.333757571472
 20
983.8790668979726
 10
2493.272560676706
 20
983.6409010654596
 10
2493.252095089031
 20
983.4004182890007
 10
2493.272560676706
 20
983.1599362728809
 10
2493.333757571472
 20
982.9217692998591
 10
2493.435099339444
 20
982.6882130243804
 10
2493.575606724939
 20
982.46151462926
 10
2493.753930699533
 20
982.2438595197443
 10
2493.968350157155
 20
982.0373422405324
 10
2494.21680056077
 20
981.843951459076
 10
2494.496891393816
 20
981.6655507670104
  0
LINE
  5
499
330
47D
100
AcDbEntity
  8
0
  6
Continuous
 62
     7
370
    15
100
AcDbLine
 10
2497.749583894222
 20
990.4011185486851
 30
0.0
 11
2469.111758101738
 21
973.8688536178379
 31
0.0
  0
LINE
  5
49A
330
47D
100
AcDbEntity
  8
0
  6
Continuous
 62
     7
370
    15
100
AcDbLine
 10
2517.902126921621
 20
978.7673030916923
 30
0.0
 11
2497.749583894222
 21
990.4011185486851
 31
0.0
  0
LINE
  5
49B
330
47D
100
AcDbEntity
  8
0
  6
Continuous
 62
     7
370
    15
100
AcDbLine
 10
2496.724277922087
 20
953.8847442683023
 30
0.0
 11
2496.724277922087
 21
957.1514715542136
 31
0.0
  0
ARC
  5
49C
330
47D
100
AcDbEntity
  8
0
  6
Continuous
 62
     7
370
    15
100
AcDbCircle
 10
2489.103457960817
 20
954.0356673851045
 30
0.0
 40
7.622314259415433
100
AcDbArc
 50
292.0165314153797
 51
358.8654596949696
  0
ARC
  5
49D
330
47D
100
AcDbEntity
  8
0
  6
Continuous
 62
     7
370
    15
100
AcDbCircle
 10
2490.189305764004
 20
953.4112249274024
 30
0.0
 40
5.68646757966519
100
AcDbArc
 50
287.6764389022381
 51
359.8355075609569
  0
LINE
  5
49E
330
47D
100
AcDbEntity
  8
0
  6
Continuous
 62
     7
370
    15
100
AcDbLine
 10
2495.875749908997
 20
953.3948994729847
 30
0.0
 11
2495.875749908997
 21
956.661626758896
 31
0.0
  0
ARC
  5
49F
330
47D
100
AcDbEntity
  8
0
  6
Continuous
 62
     7
370
    15
100
AcDbCircle
 10
2488.887648314055
 20
954.0986984736861
 30
0.0
 40
6.179374141854164
100
AcDbArc
 50
299.3449402351675
 51
357.8264321405274
  0
LINE
  5
4A0
330
47D
100
AcDbEntity
  8
0
  6
Continuous
 62
     7
370
    15
100
AcDbLine
 10
2495.062576516362
 20
953.8643344803478
 30
0.0
 11
2495.062576516362
 21
956.1921927598527
 31
0.0
  0
LINE
  5
4A1
330
47D
100
AcDbEntity
  8
0
  6
Continuous
 62
     7
370
    15
100
AcDbLine
 10
2495.062576516362
 20
953.8643344803478
 30
0.0
 11
2495.875749908997
 21
953.3948994729847
 31
0.0
  0
LINE
  5
4A2
330
47D
100
AcDbEntity
  8
0
  6
Continuous
 62
     7
370
    15
100
AcDbLine
 10
2489.264301129137
 20
937.7388143518059
 30
0.0
 11
2469.111758101738
 21
949.3726298087986
 31
0.0
  0
LINE
  5
4A3
330
47D
100
AcDbEntity
  8
0
  6
Continuous
 62
     7
370
    15
100
AcDbLine
 10
2469.111758101738
 20
949.3726298087986
 30
0.0
 11
2468.051097920739
 21
949.9850354230362
 31
0.0
  0
LINE
  5
4A4
330
47D
100
AcDbEntity
  8
0
  6
Continuous
 62
     7
370
    15
100
AcDbLine
 10
2489.264301129137
 20
937.7388143518059
 30
0.0
 11
2489.264300882183
 21
937.7389140194177
 31
0.0
  0
LINE
  5
4A5
330
47D
100
AcDbEntity
  8
0
  6
Continuous
 62
     7
370
    15
100
AcDbLine
 10
2518.962785291623
 20
954.8834841365515
 30
0.0
 11
2517.902126921621
 21
954.2710792826532
 31
0.0
  0
LINE
  5
4A6
330
47D
100
AcDbEntity
  8
0
  6
Continuous
 62
     7
370
    15
100
AcDbLine
 10
2517.902126921621
 20
954.2710792826532
 30
0.0
 11
2489.264301129137
 21
937.7388143518059
 31
0.0
  0
LINE
  5
4A7
330
47D
100
AcDbEntity
  8
0
  6
Continuous
 62
     7
370
    15
100
AcDbLine
 10
2512.987733262444
 20
963.2734371923419
 30
0.0
 11
2512.987733262444
 21
966.5401644782532
 31
0.0
  0
ARC
  5
4A8
330
47D
100
AcDbEntity
  8
0
  6
Continuous
 62
     7
370
    15
100
AcDbCircle
 10
2505.366916820532
 20
963.424358117745
 30
0.0
 40
7.622310697356552
100
AcDbArc
 50
292.0165243860766
 51
358.8654756403537
  0
ARC
  5
4A9
330
47D
100
AcDbEntity
  8
0
  6
Continuous
 62
     7
370
    15
100
AcDbCircle
 10
2506.452757070578
 20
962.7999221927169
 30
0.0
 40
5.686472940796321
100
AcDbArc
 50
287.6764643450776
 51
359.8354716350934
  0
LINE
  5
4AA
330
47D
100
AcDbEntity
  8
0
  6
Continuous
 62
     7
370
    15
100
AcDbLine
 10
2512.139206566442
 20
962.7835931573637
 30
0.0
 11
2512.139206566442
 21
966.050320443275
 31
0.0
  0
ARC
  5
4AB
330
47D
100
AcDbEntity
  8
0
  6
Continuous
 62
     7
370
    15
100
AcDbCircle
 10
2505.151103176917
 20
963.4873932437152
 30
0.0
 40
6.179375976322047
100
AcDbArc
 50
299.3449427564304
 51
357.8264227125961
  0
LINE
  5
4AC
330
47D
100
AcDbEntity
  8
0
  6
Continuous
 62
     7
370
    15
100
AcDbLine
 10
2511.326033173807
 20
963.2530281647268
 30
0.0
 11
2511.326033173807
 21
965.5808864442317
 31
0.0
  0
LINE
  5
4AD
330
47D
100
AcDbEntity
  8
0
  6
Continuous
 62
     7
370
    15
100
AcDbLine
 10
2511.326033173807
 20
963.2530281647268
 30
0.0
 11
2512.139206566442
 21
962.7835931573637
 31
0.0
  0
LINE
  5
4AE
330
47D
100
AcDbEntity
  8
0
  6
Continuous
 62
     8
370
    15
100
AcDbLine
 10
2500.047679416451
 20
952.3335692098532
 30
0.0
 11
2496.724277922087
 21
954.2521280548752
 31
0.0
  0
LINE
  5
4AF
330
47D
100
AcDbEntity
  8
0
  6
Continuous
 62
     8
370
    15
100
AcDbLine
 10
2516.311134756807
 20
961.7222621338926
 30
0.0
 11
2512.987733262444
 21
963.6408209789149
 31
0.0
  0
ENDBLK
  5
47F
330
47D
100
AcDbEntity
  8
0
100
AcDbBlockEnd
  0
ENDSEC
  0
SECTION
  2
ENTITIES
  0
INSERT
  5
3CD
330
1F
100
AcDbEntity
  8
0
100
AcDbBlockReference
  2
1
 10
0.0
 20
0.0
 30
0.0
  0
INSERT
  5
405
330
1F
100
AcDbEntity
  8
0
100
AcDbBlockReference
  2
2
 10
0.0
 20
0.0
 30
0.0
  0
INSERT
  5
47C
330
1F
100
AcDbEntity
  8
0
100
AcDbBlockReference
  2
3
 10
0.0
 20
0.0
 30
0.0
  0
INSERT
  5
4B0
330
1F
100
AcDbEntity
  8
0
100
AcDbBlockReference
  2
4
 10
-42.97677158537408
 20
-28.72383026251987
 30
0.0
  0
ENDSEC
  0
SECTION
  2
OBJECTS
  0
DICTIONARY
  5
C
330
0
100
AcDbDictionary
281
     1
  3
ACAD_COLOR
350
6B
  3
ACAD_GROUP
350
D
  3
ACAD_LAYOUT
350
1A
  3
ACAD_MATERIAL
350
6A
  3
ACAD_MLEADERSTYLE
350
12D
  3
ACAD_MLINESTYLE
350
17
  3
ACAD_PLOTSETTINGS
350
19
  3
ACAD_PLOTSTYLENAME
350
E
  3
ACAD_SCALELIST
350
10C
  3
ACAD_TABLESTYLE
350
7E
  3
ACAD_VISUALSTYLE
350
EF
  3
ACDB_RECOMPOSE_DATA
350
15D
  3
AcDbVariableDictionary
350
5E
  3
DWGPROPS
350
4BE
  0
DICTIONARY
  5
13C
330
10
100
AcDbDictionary
280
     1
281
     1
  3
ADSK_XREC_LAYER_RECONCILED
360
4B1
  0
DICTIONARY
  5
6B
102
{ACAD_REACTORS
330
C
102
}
330
C
100
AcDbDictionary
281
     1
  0
DICTIONARY
  5
D
102
{ACAD_REACTORS
330
C
102
}
330
C
100
AcDbDictionary
281
     1
  0
DICTIONARY
  5
1A
102
{ACAD_REACTORS
330
C
102
}
330
C
100
AcDbDictionary
281
     1
  3
Layout1
350
D3
  3
Layout2
350
D7
  3
Model
350
22
  0
DICTIONARY
  5
6A
102
{ACAD_REACTORS
330
C
102
}
330
C
100
AcDbDictionary
281
     1
  3
ByBlock
350
ED
  3
ByLayer
350
EC
  3
Global
350
EE
  0
DICTIONARY
  5
12D
102
{ACAD_REACTORS
330
C
102
}
330
C
100
AcDbDictionary
281
     1
  3
Annotative
350
13B
  3
Standard
350
12E
  0
DICTIONARY
  5
17
102
{ACAD_REACTORS
330
C
102
}
330
C
100
AcDbDictionary
281
     1
  3
Standard
350
18
  0
DICTIONARY
  5
19
102
{ACAD_REACTORS
330
C
102
}
330
C
100
AcDbDictionary
281
     1
  0
ACDBDICTIONARYWDFLT
  5
E
102
{ACAD_REACTORS
330
C
102
}
330
C
100
AcDbDictionary
281
     1
  3
Normal
350
F
100
AcDbDictionaryWithDefault
340
F
  0
DICTIONARY
  5
10C
102
{ACAD_REACTORS
330
C
102
}
330
C
100
AcDbDictionary
281
     1
  3
A0
350
10D
  3
A1
350
188
  3
A2
350
189
  3
A3
350
18A
  3
A4
350
18B
  3
A5
350
18C
  3
A6
350
18D
  3
A7
350
18E
  3
A8
350
18F
  3
A9
350
190
  3
B0
350
191
  3
B1
350
192
  3
B2
350
193
  3
B3
350
194
  3
B4
350
195
  3
B5
350
196
  3
B6
350
197
  3
B7
350
198
  3
B8
350
199
  3
B9
350
19A
  3
C0
350
19B
  3
C1
350
19C
  3
C2
350
19D
  3
C3
350
19E
  3
C4
350
19F
  3
C5
350
1A0
  3
C6
350
1A1
  3
C7
350
1A2
  3
C8
350
1A3
  3
C9
350
1A4
  3
D0
350
1A5
  3
D1
350
1A6
  3
D2
350
1A7
  0
DICTIONARY
  5
7E
102
{ACAD_REACTORS
330
C
102
}
330
C
100
AcDbDictionary
281
     1
  3
Standard
350
7F
  0
DICTIONARY
  5
EF
102
{ACAD_REACTORS
330
C
102
}
330
C
100
AcDbDictionary
281
     1
  3
2dWireframe
350
F5
  3
3D Hidden
350
F7
  3
3dWireframe
350
F6
  3
Basic
350
F4
  3
Brighten
350
FB
  3
ColorChange
350
FF
  3
Conceptual
350
F8
  3
Dim
350
FA
  3
Facepattern
350
FE
  3
Flat
350
F0
  3
FlatWithEdges
350
F1
  3
Gouraud
350
F2
  3
GouraudWithEdges
350
F3
  3
Linepattern
350
FD
  3
Realistic
350
F9
  3
Thicken
350
FC
  0
XRECORD
  5
15D
102
{ACAD_REACTORS
330
C
102
}
330
C
100
AcDbXrecord
280
     1
 90
        1
330
7F
  0
DICTIONARY
  5
5E
102
{ACAD_REACTORS
330
C
102
}
330
C
100
AcDbDictionary
281
     1
  3
CANNOSCALE
350
146
  3
CMLEADERSTYLE
350
145
  3
CTABLESTYLE
350
84
  3
DIMASSOC
350
5F
  3
HIDETEXT
350
63
  3
INDEXCTL
350
4BA
  3
LIGHTINGUNITS
350
4B8
  3
MSLTSCALE
350
4B7
  3
PSOLHEIGHT
350
4BC
  3
PSOLWIDTH
350
4BB
  3
SORTENTS
350
4B9
  0
XRECORD
  5
4BE
102
{ACAD_REACTORS
330
C
102
}
330
C
100
AcDbXrecord
280
     1
  1
DWGPROPS COOKIE
  2

  3

  4

  6

  7

  8
orhan kara
  9

300
=
301
=
302
=
303
=
304
=
305
=
306
=
307
=
308
=
309
=
 40
0.0003283333333333
 41
2459083.651218125
 42
2459083.68530154
  1

 90
        0
  0
XRECORD
  5
4B1
102
{ACAD_REACTORS
330
13C
102
}
330
13C
100
AcDbXrecord
280
     1
290
     1
  0
LAYOUT
  5
D3
102
{ACAD_XDICTIONARY
360
4C2
102
}
102
{ACAD_REACTORS
330
1A
102
}
330
1A
100
AcDbPlotSettings
  1

  2
C:\Documents and Settings\basas\Application Data\Autodesk\AutoCAD 2005\R16.1\enu\plotters\Default Windows System Printer.pc3
  4

  6

 40
0.0
 41
0.0
 42
0.0
 43
0.0
 44
0.0
 45
0.0
 46
0.0
 47
0.0
 48
0.0
 49
0.0
140
0.0
141
0.0
142
1.0
143
1.0
 70
   688
 72
     0
 73
     0
 74
     5
  7

 75
    16
147
1.0
148
0.0
149
0.0
100
AcDbLayout
  1
Layout1
 70
     1
 71
     1
 10
0.0
 20
0.0
 11
12.0
 21
9.0
 12
0.0
 22
0.0
 32
0.0
 14
0.0
 24
0.0
 34
0.0
 15
0.0
 25
0.0
 35
0.0
146
0.0
 13
0.0
 23
0.0
 33
0.0
 16
1.0
 26
0.0
 36
0.0
 17
0.0
 27
1.0
 37
0.0
 76
     0
330
D2
  0
LAYOUT
  5
D7
102
{ACAD_XDICTIONARY
360
4C4
102
}
102
{ACAD_REACTORS
330
1A
102
}
330
1A
100
AcDbPlotSettings
  1

  2
C:\Documents and Settings\basas\Application Data\Autodesk\AutoCAD 2005\R16.1\enu\plotters\Default Windows System Printer.pc3
  4

  6

 40
0.0
 41
0.0
 42
0.0
 43
0.0
 44
0.0
 45
0.0
 46
0.0
 47
0.0
 48
0.0
 49
0.0
140
0.0
141
0.0
142
1.0
143
1.0
 70
   688
 72
     0
 73
     0
 74
     5
  7

 75
    16
147
1.0
148
0.0
149
0.0
100
AcDbLayout
  1
Layout2
 70
     1
 71
     2
 10
0.0
 20
0.0
 11
12.0
 21
9.0
 12
0.0
 22
0.0
 32
0.0
 14
0.0
 24
0.0
 34
0.0
 15
0.0
 25
0.0
 35
0.0
146
0.0
 13
0.0
 23
0.0
 33
0.0
 16
1.0
 26
0.0
 36
0.0
 17
0.0
 27
1.0
 37
0.0
 76
     0
330
D6
  0
LAYOUT
  5
22
102
{ACAD_XDICTIONARY
360
4BF
102
}
102
{ACAD_REACTORS
330
1A
102
}
330
1A
100
AcDbPlotSettings
  1

  2
none_device
  4
ISO_A4_(210.00_x_297.00_MM)
  6

 40
7.5
 41
20.0
 42
7.5
 43
20.0
 44
210.0
 45
297.0
 46
11.54999923706054
 47
-13.65000009536743
 48
0.0
 49
0.0
140
0.0
141
0.0
142
1.0
143
8.704084754739808
 70
 11952
 72
     1
 73
     0
 74
     0
  7

 75
     0
147
0.1148885871608098
148
0.0
149
0.0
100
AcDbLayout
  1
Model
 70
     1
 71
     0
 10
0.0
 20
0.0
 11
12.0
 21
9.0
 12
0.0
 22
0.0
 32
0.0
 14
0.0
 24
0.0
 34
0.0
 15
0.0
 25
0.0
 35
0.0
146
0.0
 13
0.0
 23
0.0
 33
0.0
 16
1.0
 26
0.0
 36
0.0
 17
0.0
 27
1.0
 37
0.0
 76
     0
330
1F
331
EA
1001
ACAD_PSEXT
1000
None
1000
None
1000
Not applicable
1000
The layout will not be plotted unless a new plotter configuration name is selected.
1070
     0
  0
MATERIAL
  5
ED
102
{ACAD_XDICTIONARY
360
4C8
102
}
102
{ACAD_REACTORS
330
6A
102
}
330
6A
100
AcDbMaterial
  1
ByBlock
  0
MATERIAL
  5
EC
102
{ACAD_XDICTIONARY
360
4C6
102
}
102
{ACAD_REACTORS
330
6A
102
}
330
6A
100
AcDbMaterial
  1
ByLayer
  0
MATERIAL
  5
EE
102
{ACAD_XDICTIONARY
360
173
102
}
102
{ACAD_REACTORS
330
6A
102
}
330
6A
100
AcDbMaterial
  1
Global
 43
0.0007999999797903
 43
0.0
 43
0.0
 43
0.0
 43
0.0
 43
0.0007999999797903
 43
0.0
 43
0.0
 43
0.0
 43
0.0
 43
1.0
 43
0.0
 43
0.0
 43
0.0
 43
0.0
 43
1.0
 49
0.0007999999797903
 49
0.0
 49
0.0
 49
0.0
 49
0.0
 49
0.0007999999797903
 49
0.0
 49
0.0
 49
0.0
 49
0.0
 49
1.0
 49
0.0
 49
0.0
 49
0.0
 49
0.0
 49
1.0
142
0.0007999999797903
142
0.0
142
0.0
142
0.0
142
0.0
142
0.0007999999797903
142
0.0
142
0.0
142
0.0
142
0.0
142
1.0
142
0.0
142
0.0
142
0.0
142
0.0
142
1.0
144
0.0007999999797903
144
0.0
144
0.0
144
0.0
144
0.0
144
0.0007999999797903
144
0.0
144
0.0
144
0.0
144
0.0
144
1.0
144
0.0
144
0.0
144
0.0
144
0.0
144
1.0
1001
ACAD
1070
    -1
1070
     3
1070
     0
1000

1071
        0
1070
     0
  0
MLEADERSTYLE
  5
13B
102
{ACAD_REACTORS
330
12D
102
}
330
12D
100
AcDbMLeaderStyle
170
     2
171
     1
172
     0
 90
        2
 40
0.0
 41
0.0
173
     1
 91
-1056964608
340
14
 92
       -2
290
     1
 42
2.0
291
     1
 43
8.0
  3
Standard
 44
4.0
300

342
11
174
     1
178
     1
175
     1
176
     0
 93
-1056964608
 45
4.0
292
     0
297
     0
 46
4.0
 94
-1056964608
 47
1.0
 49
1.0
140
1.0
293
     1
141
0.0
294
     1
177
     0
142
1.0
295
     0
296
     1
143
3.75
1001
ACAD_MLEADERVER
1070
     2
  0
MLEADERSTYLE
  5
12E
102
{ACAD_REACTORS
330
12D
102
}
330
12D
100
AcDbMLeaderStyle
170
     2
171
     1
172
     0
 90
        2
 40
0.0
 41
0.0
173
     1
 91
-1056964608
340
14
 92
       -2
290
     1
 42
2.0
291
     1
 43
8.0
  3
Standard
 44
4.0
300

342
11
174
     1
178
     1
175
     1
176
     0
 93
-1056964608
 45
4.0
292
     0
297
     0
 46
4.0
 94
-1056964608
 47
1.0
 49
1.0
140
1.0
293
     1
141
0.0
294
     1
177
     0
142
1.0
295
     0
296
     0
143
3.75
1001
ACAD_MLEADERVER
1070
     2
  0
MLINESTYLE
  5
18
102
{ACAD_REACTORS
330
17
102
}
330
17
100
AcDbMlineStyle
  2
STANDARD
 70
     0
  3

 62
   256
 51
90.0
 52
90.0
 71
     2
 49
0.5
 62
   256
  6
BYLAYER
 49
-0.5
 62
   256
  6
BYLAYER
  0
ACDBPLACEHOLDER
  5
F
102
{ACAD_REACTORS
330
E
102
}
330
E
  0
SCALE
  5
10D
102
{ACAD_REACTORS
330
10C
102
}
330
10C
100
AcDbScale
 70
     0
300
1:1
140
1.0
141
1.0
290
     1
  0
SCALE
  5
188
102
{ACAD_REACTORS
330
10C
102
}
330
10C
100
AcDbScale
 70
     0
300
1:2
140
1.0
141
2.0
290
     0
  0
SCALE
  5
189
102
{ACAD_REACTORS
330
10C
102
}
330
10C
100
AcDbScale
 70
     0
300
1:4
140
1.0
141
4.0
290
     0
  0
SCALE
  5
18A
102
{ACAD_REACTORS
330
10C
102
}
330
10C
100
AcDbScale
 70
     0
300
1:5
140
1.0
141
5.0
290
     0
  0
SCALE
  5
18B
102
{ACAD_REACTORS
330
10C
102
}
330
10C
100
AcDbScale
 70
     0
300
1:8
140
1.0
141
8.0
290
     0
  0
SCALE
  5
18C
102
{ACAD_REACTORS
330
10C
102
}
330
10C
100
AcDbScale
 70
     0
300
1:10
140
1.0
141
10.0
290
     0
  0
SCALE
  5
18D
102
{ACAD_REACTORS
330
10C
102
}
330
10C
100
AcDbScale
 70
     0
300
1:16
140
1.0
141
16.0
290
     0
  0
SCALE
  5
18E
102
{ACAD_REACTORS
330
10C
102
}
330
10C
100
AcDbScale
 70
     0
300
1:20
140
1.0
141
20.0
290
     0
  0
SCALE
  5
18F
102
{ACAD_REACTORS
330
10C
102
}
330
10C
100
AcDbScale
 70
     0
300
1:30
140
1.0
141
30.0
290
     0
  0
SCALE
  5
190
102
{ACAD_REACTORS
330
10C
102
}
330
10C
100
AcDbScale
 70
     0
300
1:40
140
1.0
141
40.0
290
     0
  0
SCALE
  5
191
102
{ACAD_REACTORS
330
10C
102
}
330
10C
100
AcDbScale
 70
     0
300
1:50
140
1.0
141
50.0
290
     0
  0
SCALE
  5
192
102
{ACAD_REACTORS
330
10C
102
}
330
10C
100
AcDbScale
 70
     0
300
1:100
140
1.0
141
100.0
290
     0
  0
SCALE
  5
193
102
{ACAD_REACTORS
330
10C
102
}
330
10C
100
AcDbScale
 70
     0
300
2:1
140
2.0
141
1.0
290
     0
  0
SCALE
  5
194
102
{ACAD_REACTORS
330
10C
102
}
330
10C
100
AcDbScale
 70
     0
300
4:1
140
4.0
141
1.0
290
     0
  0
SCALE
  5
195
102
{ACAD_REACTORS
330
10C
102
}
330
10C
100
AcDbScale
 70
     0
300
8:1
140
8.0
141
1.0
290
     0
  0
SCALE
  5
196
102
{ACAD_REACTORS
330
10C
102
}
330
10C
100
AcDbScale
 70
     0
300
10:1
140
10.0
141
1.0
290
     0
  0
SCALE
  5
197
102
{ACAD_REACTORS
330
10C
102
}
330
10C
100
AcDbScale
 70
     0
300
100:1
140
100.0
141
1.0
290
     0
  0
SCALE
  5
198
102
{ACAD_REACTORS
330
10C
102
}
330
10C
100
AcDbScale
 70
     0
300
1/128" = 1'-0"
140
0.0078125
141
12.0
290
     0
  0
SCALE
  5
199
102
{ACAD_REACTORS
330
10C
102
}
330
10C
100
AcDbScale
 70
     0
300
1/64" = 1'-0"
140
0.015625
141
12.0
290
     0
  0
SCALE
  5
19A
102
{ACAD_REACTORS
330
10C
102
}
330
10C
100
AcDbScale
 70
     0
300
1/32" = 1'-0"
140
0.03125
141
12.0
290
     0
  0
SCALE
  5
19B
102
{ACAD_REACTORS
330
10C
102
}
330
10C
100
AcDbScale
 70
     0
300
1/16" = 1'-0"
140
0.0625
141
12.0
290
     0
  0
SCALE
  5
19C
102
{ACAD_REACTORS
330
10C
102
}
330
10C
100
AcDbScale
 70
     0
300
3/32" = 1'-0"
140
0.09375
141
12.0
290
     0
  0
SCALE
  5
19D
102
{ACAD_REACTORS
330
10C
102
}
330
10C
100
AcDbScale
 70
     0
300
1/8" = 1'-0"
140
0.125
141
12.0
290
     0
  0
SCALE
  5
19E
102
{ACAD_REACTORS
330
10C
102
}
330
10C
100
AcDbScale
 70
     0
300
3/16" = 1'-0"
140
0.1875
141
12.0
290
     0
  0
SCALE
  5
19F
102
{ACAD_REACTORS
330
10C
102
}
330
10C
100
AcDbScale
 70
     0
300
1/4" = 1'-0"
140
0.25
141
12.0
290
     0
  0
SCALE
  5
1A0
102
{ACAD_REACTORS
330
10C
102
}
330
10C
100
AcDbScale
 70
     0
300
3/8" = 1'-0"
140
0.375
141
12.0
290
     0
  0
SCALE
  5
1A1
102
{ACAD_REACTORS
330
10C
102
}
330
10C
100
AcDbScale
 70
     0
300
1/2" = 1'-0"
140
0.5
141
12.0
290
     0
  0
SCALE
  5
1A2
102
{ACAD_REACTORS
330
10C
102
}
330
10C
100
AcDbScale
 70
     0
300
3/4" = 1'-0"
140
0.75
141
12.0
290
     0
  0
SCALE
  5
1A3
102
{ACAD_REACTORS
330
10C
102
}
330
10C
100
AcDbScale
 70
     0
300
1" = 1'-0"
140
1.0
141
12.0
290
     0
  0
SCALE
  5
1A4
102
{ACAD_REACTORS
330
10C
102
}
330
10C
100
AcDbScale
 70
     0
300
1-1/2" = 1'-0"
140
1.5
141
12.0
290
     0
  0
SCALE
  5
1A5
102
{ACAD_REACTORS
330
10C
102
}
330
10C
100
AcDbScale
 70
     0
300
3" = 1'-0"
140
3.0
141
12.0
290
     0
  0
SCALE
  5
1A6
102
{ACAD_REACTORS
330
10C
102
}
330
10C
100
AcDbScale
 70
     0
300
6" = 1'-0"
140
6.0
141
12.0
290
     0
  0
SCALE
  5
1A7
102
{ACAD_REACTORS
330
10C
102
}
330
10C
100
AcDbScale
 70
     0
300
1'-0" = 1'-0"
140
12.0
141
12.0
290
     0
  0
TABLESTYLE
  5
7F
102
{ACAD_XDICTIONARY
360
162
102
}
102
{ACAD_REACTORS
330
7E
102
}
330
7E
100
AcDbTableStyle
  3
Standard
 70
     0
 71
     0
 40
1.5
 41
1.5
280
     0
281
     0
  7
Standard
140
4.5
170
     2
 62
     0
 63
     7
283
     0
274
    -2
284
     1
 64
     0
275
    -2
285
     1
 65
     0
276
    -2
286
     1
 66
     0
277
    -2
287
     1
 67
     0
278
    -2
288
     1
 68
     0
279
    -2
289
     1
 69
     0
  7
Standard
140
6.0
170
     5
 62
     0
 63
     7
283
     0
274
    -2
284
     1
 64
     0
275
    -2
285
     1
 65
     0
276
    -2
286
     1
 66
     0
277
    -2
287
     1
 67
     0
278
    -2
288
     1
 68
     0
279
    -2
289
     1
 69
     0
  7
Standard
140
4.5
170
     5
 62
     0
 63
     7
283
     0
274
    -2
284
     1
 64
     0
275
    -2
285
     1
 65
     0
276
    -2
286
     1
 66
     0
277
    -2
287
     1
 67
     0
278
    -2
288
     1
 68
     0
279
    -2
289
     1
 69
     0
  0
VISUALSTYLE
  5
F5
102
{ACAD_REACTORS
330
EF
102
}
330
EF
100
AcDbVisualStyle
  2
2dWireframe
 70
     4
 71
     0
 72
     2
 73
     1
 90
        0
 40
-0.6
 41
-30.0
 62
     5
 63
     7
 74
     1
 91
        4
 64
     7
 65
   257
 75
     1
175
     1
 42
1.0
 92
        0
 66
   257
 43
1.0
 76
     1
 77
     6
 78
     2
 67
     7
 79
     5
170
     0
171
     0
290
     0
174
     0
 93
        1
 44
0.0
173
     0
291
     0
 45
0.0
1001
ACAD
1000
AcDbSavedByObjectVersion
1070
     0
  0
VISUALSTYLE
  5
F7
102
{ACAD_REACTORS
330
EF
102
}
330
EF
100
AcDbVisualStyle
  2
3D Hidden
 70
     6
 71
     1
 72
     2
 73
     2
 90
        0
 40
-0.6
 41
-30.0
 62
     5
 63
     7
 74
     2
 91
        2
 64
     7
 65
   257
 75
     2
175
     1
 42
40.0
 92
        0
 66
   257
 43
1.0
 76
     1
 77
     6
 78
     2
 67
     7
 79
     3
170
     0
171
     0
290
     0
174
     0
 93
        1
 44
0.0
173
     0
291
     0
 45
0.0
1001
ACAD
1000
AcDbSavedByObjectVersion
1070
     0
  0
VISUALSTYLE
  5
F6
102
{ACAD_REACTORS
330
EF
102
}
330
EF
100
AcDbVisualStyle
  2
3dWireframe
 70
     5
 71
     0
 72
     2
 73
     1
 90
        0
 40
-0.6
 41
-30.0
 62
     5
 63
     7
 74
     1
 91
        4
 64
     7
 65
   257
 75
     1
175
     1
 42
1.0
 92
        0
 66
   257
 43
1.0
 76
     1
 77
     6
 78
     2
 67
     7
 79
     5
170
     0
171
     0
290
     0
174
     0
 93
        1
 44
0.0
173
     0
291
     0
 45
0.0
1001
ACAD
1000
AcDbSavedByObjectVersion
1070
     0
  0
VISUALSTYLE
  5
F4
102
{ACAD_REACTORS
330
EF
102
}
330
EF
100
AcDbVisualStyle
  2
Basic
 70
     7
 71
     1
 72
     0
 73
     1
 90
        0
 40
-0.6
 41
-30.0
 62
     5
 63
     7
 74
     0
 91
        4
 64
     7
 65
   257
 75
     1
175
     1
 42
1.0
 92
        8
 66
     7
 43
1.0
 76
     1
 77
     6
 78
     2
 67
     7
 79
     5
170
     0
171
     0
290
     0
174
     0
 93
        1
 44
0.0
173
     0
291
     1
 45
0.0
1001
ACAD
1000
AcDbSavedByObjectVersion
1070
     0
  0
VISUALSTYLE
  5
FB
102
{ACAD_REACTORS
330
EF
102
}
330
EF
100
AcDbVisualStyle
  2
Brighten
 70
    12
 71
     2
 72
     2
 73
     1
 90
        0
 40
-0.6
 41
-30.0
 62
     5
 63
     7
 74
     1
 91
        4
 64
     7
 65
   257
 75
     1
175
     1
 42
1.0
 92
        8
 66
     7
 43
1.0
 76
     1
 77
     6
 78
     2
 67
     7
 79
     5
170
     0
171
     0
290
     0
174
     0
 93
        1
 44
50.0
173
     0
291
     1
 45
0.0
1001
ACAD
1000
AcDbSavedByObjectVersion
1070
     0
  0
VISUALSTYLE
  5
FF
102
{ACAD_REACTORS
330
EF
102
}
330
EF
100
AcDbVisualStyle
  2
ColorChange
 70
    16
 71
     2
 72
     2
 73
     3
 90
        0
 40
-0.6
 41
-30.0
 62
     5
 63
     8
 74
     1
 91
        4
 64
     7
 65
   257
 75
     1
175
     1
 42
1.0
 92
        8
 66
     8
 43
1.0
 76
     1
 77
     6
 78
     2
 67
     7
 79
     5
170
     0
171
     0
290
     0
174
     0
 93
        1
 44
0.0
173
     0
291
     1
 45
0.0
1001
ACAD
1000
AcDbSavedByObjectVersion
1070
     0
  0
VISUALSTYLE
  5
F8
102
{ACAD_REACTORS
330
EF
102
}
330
EF
100
AcDbVisualStyle
  2
Conceptual
 70
     9
 71
     3
 72
     2
 73
     1
 90
        0
 40
-0.6
 41
-30.0
 62
     5
 63
     7
 74
     2
 91
        2
 64
     7
 65
   257
 75
     1
175
     1
 42
40.0
 92
        8
 66
     7
 43
1.0
 76
     1
 77
     6
 78
     2
 67
     7
 79
     3
170
     0
171
     0
290
     0
174
     0
 93
        1
 44
0.0
173
     0
291
     0
 45
0.0
1001
ACAD
1000
AcDbSavedByObjectVersion
1070
     0
  0
VISUALSTYLE
  5
FA
102
{ACAD_REACTORS
330
EF
102
}
330
EF
100
AcDbVisualStyle
  2
Dim
 70
    11
 71
     2
 72
     2
 73
     1
 90
        0
 40
-0.6
 41
-30.0
 62
     5
 63
     7
 74
     1
 91
        4
 64
     7
 65
   257
 75
     1
175
     1
 42
1.0
 92
        8
 66
     7
 43
1.0
 76
     1
 77
     6
 78
     2
 67
     7
 79
     5
170
     0
171
     0
290
     0
174
     0
 93
        1
 44
-50.0
173
     0
291
     1
 45
0.0
1001
ACAD
1000
AcDbSavedByObjectVersion
1070
     0
  0
VISUALSTYLE
  5
FE
102
{ACAD_REACTORS
330
EF
102
}
330
EF
100
AcDbVisualStyle
  2
Facepattern
 70
    15
 71
     2
 72
     2
 73
     1
 90
        0
 40
-0.6
 41
-30.0
 62
     5
 63
     7
 74
     1
 91
        4
 64
     7
 65
   257
 75
     1
175
     1
 42
1.0
 92
        8
 66
     7
 43
1.0
 76
     1
 77
     6
 78
     2
 67
     7
 79
     5
170
     0
171
     0
290
     0
174
     0
 93
        1
 44
0.0
173
     0
291
     1
 45
0.0
1001
ACAD
1000
AcDbSavedByObjectVersion
1070
     0
  0
VISUALSTYLE
  5
F0
102
{ACAD_REACTORS
330
EF
102
}
330
EF
100
AcDbVisualStyle
  2
Flat
 70
     0
 71
     2
 72
     1
 73
     1
 90
        2
 40
-0.6
 41
30.0
 62
     5
 63
     7
 74
     0
 91
        4
 64
     7
 65
   257
 75
     1
175
     1
 42
1.0
 92
        8
 66
     7
 43
1.0
 76
     1
 77
     6
 78
     2
 67
     7
 79
     5
170
     0
171
     0
290
     0
174
     0
 93
        1
 44
0.0
173
     0
291
     1
 45
0.0
1001
ACAD
1000
AcDbSavedByObjectVersion
1070
     0
  0
VISUALSTYLE
  5
F1
102
{ACAD_REACTORS
330
EF
102
}
330
EF
100
AcDbVisualStyle
  2
FlatWithEdges
 70
     1
 71
     2
 72
     1
 73
     1
 90
        2
 40
-0.6
 41
30.0
 62
     5
 63
     7
 74
     1
 91
        4
 64
     7
 65
   257
 75
     1
175
     1
 42
1.0
 92
        0
 66
   257
 43
1.0
 76
     1
 77
     6
 78
     2
 67
     7
 79
     5
170
     0
171
     0
290
     0
174
     0
 93
        1
 44
0.0
173
     0
291
     1
 45
0.0
1001
ACAD
1000
AcDbSavedByObjectVersion
1070
     0
  0
VISUALSTYLE
  5
F2
102
{ACAD_REACTORS
330
EF
102
}
330
EF
100
AcDbVisualStyle
  2
Gouraud
 70
     2
 71
     2
 72
     2
 73
     1
 90
        2
 40
-0.6
 41
30.0
 62
     5
 63
     7
 74
     0
 91
        4
 64
     7
 65
   257
 75
     1
175
     1
 42
1.0
 92
        0
 66
     7
 43
1.0
 76
     1
 77
     6
 78
     2
 67
     7
 79
     5
170
     0
171
     0
290
     0
174
     0
 93
        1
 44
0.0
173
     0
291
     1
 45
0.0
1001
ACAD
1000
AcDbSavedByObjectVersion
1070
     0
  0
VISUALSTYLE
  5
F3
102
{ACAD_REACTORS
330
EF
102
}
330
EF
100
AcDbVisualStyle
  2
GouraudWithEdges
 70
     3
 71
     2
 72
     2
 73
     1
 90
        2
 40
-0.6
 41
30.0
 62
     5
 63
     7
 74
     1
 91
        4
 64
     7
 65
   257
 75
     1
175
     1
 42
1.0
 92
        0
 66
   257
 43
1.0
 76
     1
 77
     6
 78
     2
 67
     7
 79
     5
170
     0
171
     0
290
     0
174
     0
 93
        1
 44
0.0
173
     0
291
     1
 45
0.0
1001
ACAD
1000
AcDbSavedByObjectVersion
1070
     0
  0
VISUALSTYLE
  5
FD
102
{ACAD_REACTORS
330
EF
102
}
330
EF
100
AcDbVisualStyle
  2
Linepattern
 70
    14
 71
     2
 72
     2
 73
     1
 90
        0
 40
-0.6
 41
-30.0
 62
     5
 63
     7
 74
     1
 91
        4
 64
     7
 65
   257
 75
     7
175
     7
 42
1.0
 92
        8
 66
     7
 43
1.0
 76
     1
 77
     6
 78
     2
 67
     7
 79
     5
170
     0
171
     0
290
     0
174
     0
 93
        1
 44
0.0
173
     0
291
     1
 45
0.0
1001
ACAD
1000
AcDbSavedByObjectVersion
1070
     0
  0
VISUALSTYLE
  5
F9
102
{ACAD_REACTORS
330
EF
102
}
330
EF
100
AcDbVisualStyle
  2
Realistic
 70
     8
 71
     2
 72
     2
 73
     1
 90
        0
 40
-0.6
 41
-30.0
 62
     5
 63
     7
 74
     1
 91
        0
 64
     7
 65
   257
 75
     1
175
     1
 42
1.0
 92
        8
 66
     8
 43
1.0
 76
     1
 77
     6
 78
     2
 67
     7
 79
     5
170
     0
171
     0
290
     0
174
     0
 93
       13
 44
0.0
173
     0
291
     0
 45
0.0
1001
ACAD
1000
AcDbSavedByObjectVersion
1070
     0
  0
VISUALSTYLE
  5
FC
102
{ACAD_REACTORS
330
EF
102
}
330
EF
100
AcDbVisualStyle
  2
Thicken
 70
    13
 71
     2
 72
     2
 73
     1
 90
        0
 40
-0.6
 41
-30.0
 62
     5
 63
     7
 74
     1
 91
        4
 64
     7
 65
   257
 75
     1
175
     1
 42
1.0
 92
       12
 66
     7
 43
1.0
 76
     1
 77
     6
 78
     2
 67
     7
 79
     5
170
     0
171
     0
290
     0
174
     0
 93
        1
 44
0.0
173
     0
291
     1
 45
0.0
1001
ACAD
1000
AcDbSavedByObjectVersion
1070
     0
  0
DICTIONARYVAR
  5
146
102
{ACAD_REACTORS
330
5E
102
}
330
5E
100
DictionaryVariables
280
     0
  1
1:1
  0
DICTIONARYVAR
  5
145
102
{ACAD_REACTORS
330
5E
102
}
330
5E
100
DictionaryVariables
280
     0
  1
STANDARD
  0
DICTIONARYVAR
  5
84
102
{ACAD_REACTORS
330
5E
102
}
330
5E
100
DictionaryVariables
280
     0
  1
STANDARD
  0
DICTIONARYVAR
  5
5F
102
{ACAD_REACTORS
330
5E
102
}
330
5E
100
DictionaryVariables
280
     0
  1
2
  0
DICTIONARYVAR
  5
63
102
{ACAD_REACTORS
330
5E
102
}
330
5E
100
DictionaryVariables
280
     0
  1
1
  0
DICTIONARYVAR
  5
4BA
102
{ACAD_REACTORS
330
5E
102
}
330
5E
100
DictionaryVariables
280
     0
  1
0
  0
DICTIONARYVAR
  5
4B8
102
{ACAD_REACTORS
330
5E
102
}
330
5E
100
DictionaryVariables
280
     0
  1
2
  0
DICTIONARYVAR
  5
4B7
102
{ACAD_REACTORS
330
5E
102
}
330
5E
100
DictionaryVariables
280
     0
  1
1
  0
DICTIONARYVAR
  5
4BC
102
{ACAD_REACTORS
330
5E
102
}
330
5E
100
DictionaryVariables
280
     0
  1
80.000000
  0
DICTIONARYVAR
  5
4BB
102
{ACAD_REACTORS
330
5E
102
}
330
5E
100
DictionaryVariables
280
     0
  1
5.000000
  0
DICTIONARYVAR
  5
4B9
102
{ACAD_REACTORS
330
5E
102
}
330
5E
100
DictionaryVariables
280
     0
  1
127
  0
DICTIONARY
  5
4C2
330
D3
100
AcDbDictionary
280
     1
281
     1
  3
ACAD_XREC_ROUNDTRIP
360
4C3
  0
DICTIONARY
  5
4C4
330
D7
100
AcDbDictionary
280
     1
281
     1
  3
ACAD_XREC_ROUNDTRIP
360
4C5
  0
DICTIONARY
  5
4BF
330
22
100
AcDbDictionary
280
     1
281
     1
  3
ACAD_XREC_ROUNDTRIP
360
4C0
  0
DICTIONARY
  5
4C8
330
ED
100
AcDbDictionary
280
     1
281
     1
  3
ACAD_XREC_ROUNDTRIP
360
4C9
  0
DICTIONARY
  5
4C6
330
EC
100
AcDbDictionary
280
     1
281
     1
  3
ACAD_XREC_ROUNDTRIP
360
4C7
  0
DICTIONARY
  5
173
330
EE
100
AcDbDictionary
280
     1
281
     1
  3
ACAD_XREC_ROUNDTRIP
360
4CA
  3
BUMPTILE
360
175
  3
DIFFUSETILE
360
174
  3
OPACITYTILE
360
176
  3
REFLECTIONTILE
360
177
  0
DICTIONARY
  5
162
330
7F
100
AcDbDictionary
280
     1
281
     1
  3
ACAD_ROUNDTRIP_2008_TABLESTYLE_CELLSTYLEMAP
360
4BD
  3
ACAD_XREC_ROUNDTRIP
360
4C1
  0
XRECORD
  5
4C3
102
{ACAD_REACTORS
330
4C2
102
}
330
4C2
100
AcDbXrecord
280
     1
102
SHADEPLOT
 70
     0
102
SHADEPLOTRESLEVEL
 70
     2
102
SHADEPLOTCUSTOMDPI
 70
   300
  0
XRECORD
  5
4C5
102
{ACAD_REACTORS
330
4C4
102
}
330
4C4
100
AcDbXrecord
280
     1
102
SHADEPLOT
 70
     0
102
SHADEPLOTRESLEVEL
 70
     2
102
SHADEPLOTCUSTOMDPI
 70
   300
  0
XRECORD
  5
4C0
102
{ACAD_REACTORS
330
4BF
102
}
330
4BF
100
AcDbXrecord
280
     1
102
SHADEPLOT
 70
     0
102
SHADEPLOTRESLEVEL
 70
     2
102
SHADEPLOTCUSTOMDPI
 70
   300
  0
XRECORD
  5
4C9
102
{ACAD_REACTORS
330
4C8
102
}
330
4C8
100
AcDbXrecord
280
     1
102
MATERIAL
148
0.0
149
0.0
149
0.0
 93
        0
 94
       63
282
     0
 72
     1
 77
     1
171
     1
175
     1
179
     1
273
     0
  0
XRECORD
  5
4C7
102
{ACAD_REACTORS
330
4C6
102
}
330
4C6
100
AcDbXrecord
280
     1
102
MATERIAL
148
0.0
149
0.0
149
0.0
 93
        0
 94
       63
282
     0
 72
     1
 77
     1
171
     1
175
     1
179
     1
273
     0
  0
XRECORD
  5
4CA
102
{ACAD_REACTORS
330
173
102
}
330
173
100
AcDbXrecord
280
     1
102
MATERIAL
148
0.0
149
0.0
149
0.0
 93
        0
 94
       63
282
     0
 72
     1
 77
     1
171
     1
175
     1
179
     1
273
     0
  0
XRECORD
  5
175
102
{ACAD_REACTORS
330
173
102
}
330
173
100
AcDbXrecord
280
     1
270
     1
271
     1
  0
XRECORD
  5
174
102
{ACAD_REACTORS
330
173
102
}
330
173
100
AcDbXrecord
280
     1
270
     1
271
     1
  0
XRECORD
  5
176
102
{ACAD_REACTORS
330
173
102
}
330
173
100
AcDbXrecord
280
     1
270
     1
271
     1
  0
XRECORD
  5
177
102
{ACAD_REACTORS
330
173
102
}
330
173
100
AcDbXrecord
280
     1
270
     1
271
     1
  0
CELLSTYLEMAP
  5
4BD
102
{ACAD_REACTORS
330
162
102
}
330
162
100
AcDbCellStyleMap
 90
        3
300
CELLSTYLE
  1
TABLEFORMAT_BEGIN
 90
        5
170
     1
 91
        0
 92
    32768
 62
   257
 93
        1
300
CONTENTFORMAT
  1
CONTENTFORMAT_BEGIN
 90
        0
 91
        0
 92
      512
 93
        0
300

 40
0.0
140
1.0
 94
        5
 62
     0
340
11
144
6.0
309
CONTENTFORMAT_END
171
     1
301
MARGIN
  1
CELLMARGIN_BEGIN
 40
1.5
 40
1.5
 40
1.5
 40
1.5
 40
4.5
 40
4.5
309
CELLMARGIN_END
 94
        6
 95
        1
302
GRIDFORMAT
  1
GRIDFORMAT_BEGIN
 90
        0
 91
        1
 62
     0
 92
       -2
340
14
 93
        0
 40
1.125
309
GRIDFORMAT_END
 95
        2
302
GRIDFORMAT
  1
GRIDFORMAT_BEGIN
 90
        0
 91
        1
 62
     0
 92
       -2
340
14
 93
        0
 40
1.125
309
GRIDFORMAT_END
 95
        4
302
GRIDFORMAT
  1
GRIDFORMAT_BEGIN
 90
        0
 91
        1
 62
     0
 92
       -2
340
14
 93
        0
 40
1.125
309
GRIDFORMAT_END
 95
        8
302
GRIDFORMAT
  1
GRIDFORMAT_BEGIN
 90
        0
 91
        1
 62
     0
 92
       -2
340
14
 93
        0
 40
1.125
309
GRIDFORMAT_END
 95
       16
302
GRIDFORMAT
  1
GRIDFORMAT_BEGIN
 90
        0
 91
        1
 62
     0
 92
       -2
340
14
 93
        0
 40
1.125
309
GRIDFORMAT_END
 95
       32
302
GRIDFORMAT
  1
GRIDFORMAT_BEGIN
 90
        0
 91
        1
 62
     0
 92
       -2
340
14
 93
        0
 40
1.125
309
GRIDFORMAT_END
309
TABLEFORMAT_END
  1
CELLSTYLE_BEGIN
 90
        1
 91
        1
300
_TITLE
309
CELLSTYLE_END
300
CELLSTYLE
  1
TABLEFORMAT_BEGIN
 90
        5
170
     1
 91
        0
 92
        0
 62
   257
 93
        1
300
CONTENTFORMAT
  1
CONTENTFORMAT_BEGIN
 90
        0
 91
        0
 92
      512
 93
        0
300

 40
0.0
140
1.0
 94
        5
 62
     0
340
11
144
4.5
309
CONTENTFORMAT_END
171
     1
301
MARGIN
  1
CELLMARGIN_BEGIN
 40
1.5
 40
1.5
 40
1.5
 40
1.5
 40
4.5
 40
4.5
309
CELLMARGIN_END
 94
        6
 95
        1
302
GRIDFORMAT
  1
GRIDFORMAT_BEGIN
 90
        0
 91
        1
 62
     0
 92
       -2
340
14
 93
        0
 40
1.125
309
GRIDFORMAT_END
 95
        2
302
GRIDFORMAT
  1
GRIDFORMAT_BEGIN
 90
        0
 91
        1
 62
     0
 92
       -2
340
14
 93
        0
 40
1.125
309
GRIDFORMAT_END
 95
        4
302
GRIDFORMAT
  1
GRIDFORMAT_BEGIN
 90
        0
 91
        1
 62
     0
 92
       -2
340
14
 93
        0
 40
1.125
309
GRIDFORMAT_END
 95
        8
302
GRIDFORMAT
  1
GRIDFORMAT_BEGIN
 90
        0
 91
        1
 62
     0
 92
       -2
340
14
 93
        0
 40
1.125
309
GRIDFORMAT_END
 95
       16
302
GRIDFORMAT
  1
GRIDFORMAT_BEGIN
 90
        0
 91
        1
 62
     0
 92
       -2
340
14
 93
        0
 40
1.125
309
GRIDFORMAT_END
 95
       32
302
GRIDFORMAT
  1
GRIDFORMAT_BEGIN
 90
        0
 91
        1
 62
     0
 92
       -2
340
14
 93
        0
 40
1.125
309
GRIDFORMAT_END
309
TABLEFORMAT_END
  1
CELLSTYLE_BEGIN
 90
        2
 91
        1
300
_HEADER
309
CELLSTYLE_END
300
CELLSTYLE
  1
TABLEFORMAT_BEGIN
 90
        5
170
     1
 91
        0
 92
        0
 62
   257
 93
        1
300
CONTENTFORMAT
  1
CONTENTFORMAT_BEGIN
 90
        0
 91
        0
 92
      512
 93
        0
300

 40
0.0
140
1.0
 94
        2
 62
     0
340
11
144
4.5
309
CONTENTFORMAT_END
171
     1
301
MARGIN
  1
CELLMARGIN_BEGIN
 40
1.5
 40
1.5
 40
1.5
 40
1.5
 40
4.5
 40
4.5
309
CELLMARGIN_END
 94
        6
 95
        1
302
GRIDFORMAT
  1
GRIDFORMAT_BEGIN
 90
        0
 91
        1
 62
     0
 92
       -2
340
14
 93
        0
 40
1.125
309
GRIDFORMAT_END
 95
        2
302
GRIDFORMAT
  1
GRIDFORMAT_BEGIN
 90
        0
 91
        1
 62
     0
 92
       -2
340
14
 93
        0
 40
1.125
309
GRIDFORMAT_END
 95
        4
302
GRIDFORMAT
  1
GRIDFORMAT_BEGIN
 90
        0
 91
        1
 62
     0
 92
       -2
340
14
 93
        0
 40
1.125
309
GRIDFORMAT_END
 95
        8
302
GRIDFORMAT
  1
GRIDFORMAT_BEGIN
 90
        0
 91
        1
 62
     0
 92
       -2
340
14
 93
        0
 40
1.125
309
GRIDFORMAT_END
 95
       16
302
GRIDFORMAT
  1
GRIDFORMAT_BEGIN
 90
        0
 91
        1
 62
     0
 92
       -2
340
14
 93
        0
 40
1.125
309
GRIDFORMAT_END
 95
       32
302
GRIDFORMAT
  1
GRIDFORMAT_BEGIN
 90
        0
 91
        1
 62
     0
 92
       -2
340
14
 93
        0
 40
1.125
309
GRIDFORMAT_END
309
TABLEFORMAT_END
  1
CELLSTYLE_BEGIN
 90
        3
 91
        2
300
_DATA
309
CELLSTYLE_END
  0
XRECORD
  5
4C1
102
{ACAD_REACTORS
330
162
102
}
330
162
100
AcDbXrecord
280
     1
102
ACAD_ROUNDTRIP_PRE2007_TABLESTYLE
 90
      512
 91
        0
  1

 92
      512
 93
        0
  2

 94
      512
 95
        0
  3

  0
ENDSEC
  0
EOF
