  0
SECTION
  2
HEADER
  9
$ACADVER
  1
AC1015
  9
$ACADMAINTVER
 70
    20
  9
$DWGCODEPAGE
  3
ANSI_1254
  9
$INSBASE
 10
0.0
 20
0.0
 30
0.0
  9
$EXTMIN
 10
2501.254353840451
 20
769.9250931957968
 30
0.0
  9
$EXTMAX
 10
2746.642174209353
 20
916.0872201495458
 30
0.0
  9
$LIMMIN
 10
0.0
 20
0.0
  9
$LIMMAX
 10
420.0
 20
297.0
  9
$ORTHOMODE
 70
     0
  9
$REGENMODE
 70
     1
  9
$FILLMODE
 70
     1
  9
$QTEXTMODE
 70
     0
  9
$MIRRTEXT
 70
     0
  9
$LTSCALE
 40
1.0
  9
$ATTMODE
 70
     1
  9
$TEXTSIZE
 40
2.5
  9
$TRACEWID
 40
1.0
  9
$TEXTSTYLE
  7
Standard
  9
$CLAYER
  8
0
  9
$CELTYPE
  6
ByLayer
  9
$CECOLOR
 62
   256
  9
$CELTSCALE
 40
1.0
  9
$DISPSILH
 70
     0
  9
$DIMSCALE
 40
1.0
  9
$DIMASZ
 40
2.5
  9
$DIMEXO
 40
0.625
  9
$DIMDLI
 40
3.75
  9
$DIMRND
 40
0.0
  9
$DIMDLE
 40
0.0
  9
$DIMEXE
 40
1.25
  9
$DIMTP
 40
0.0
  9
$DIMTM
 40
0.0
  9
$DIMTXT
 40
2.5
  9
$DIMCEN
 40
2.5
  9
$DIMTSZ
 40
0.0
  9
$DIMTOL
 70
     0
  9
$DIMLIM
 70
     0
  9
$DIMTIH
 70
     0
  9
$DIMTOH
 70
     0
  9
$DIMSE1
 70
     0
  9
$DIMSE2
 70
     0
  9
$DIMTAD
 70
     1
  9
$DIMZIN
 70
     8
  9
$DIMBLK
  1

  9
$DIMASO
 70
     1
  9
$DIMSHO
 70
     1
  9
$DIMPOST
  1

  9
$DIMAPOST
  1

  9
$DIMALT
 70
     0
  9
$DIMALTD
 70
     3
  9
$DIMALTF
 40
0.03937007874016
  9
$DIMLFAC
 40
1.0
  9
$DIMTOFL
 70
     1
  9
$DIMTVP
 40
0.0
  9
$DIMTIX
 70
     0
  9
$DIMSOXD
 70
     0
  9
$DIMSAH
 70
     0
  9
$DIMBLK1
  1

  9
$DIMBLK2
  1

  9
$DIMSTYLE
  2
ISO-25
  9
$DIMCLRD
 70
     0
  9
$DIMCLRE
 70
     0
  9
$DIMCLRT
 70
     0
  9
$DIMTFAC
 40
1.0
  9
$DIMGAP
 40
0.625
  9
$DIMJUST
 70
     0
  9
$DIMSD1
 70
     0
  9
$DIMSD2
 70
     0
  9
$DIMTOLJ
 70
     0
  9
$DIMTZIN
 70
     8
  9
$DIMALTZ
 70
     0
  9
$DIMALTTZ
 70
     0
  9
$DIMUPT
 70
     0
  9
$DIMDEC
 70
     2
  9
$DIMTDEC
 70
     2
  9
$DIMALTU
 70
     2
  9
$DIMALTTD
 70
     3
  9
$DIMTXSTY
  7
Standard
  9
$DIMAUNIT
 70
     0
  9
$DIMADEC
 70
     0
  9
$DIMALTRND
 40
0.0
  9
$DIMAZIN
 70
     0
  9
$DIMDSEP
 70
    44
  9
$DIMATFIT
 70
     3
  9
$DIMFRAC
 70
     0
  9
$DIMLDRBLK
  1

  9
$DIMLUNIT
 70
     2
  9
$DIMLWD
 70
    -2
  9
$DIMLWE
 70
    -2
  9
$DIMTMOVE
 70
     0
  9
$LUNITS
 70
     2
  9
$LUPREC
 70
     4
  9
$SKETCHINC
 40
1.0
  9
$FILLETRAD
 40
0.0
  9
$AUNITS
 70
     0
  9
$AUPREC
 70
     0
  9
$MENU
  1
.
  9
$ELEVATION
 40
0.0
  9
$PELEVATION
 40
0.0
  9
$THICKNESS
 40
0.0
  9
$LIMCHECK
 70
     0
  9
$CHAMFERA
 40
0.0
  9
$CHAMFERB
 40
0.0
  9
$CHAMFERC
 40
0.0
  9
$CHAMFERD
 40
0.0
  9
$SKPOLY
 70
     0
  9
$TDCREATE
 40
2459083.648367998
  9
$TDUCREATE
 40
2459083.523367998
  9
$TDUPDATE
 40
2459083.685090671
  9
$TDUUPDATE
 40
2459083.560090672
  9
$TDINDWG
 40
0.0002555556
  9
$TDUSRTIMER
 40
0.0002555556
  9
$USRTIMER
 70
     1
  9
$ANGBASE
 50
0.0
  9
$ANGDIR
 70
     0
  9
$PDMODE
 70
     0
  9
$PDSIZE
 40
0.0
  9
$PLINEWID
 40
0.0
  9
$SPLFRAME
 70
     0
  9
$SPLINETYPE
 70
     6
  9
$SPLINESEGS
 70
     8
  9
$HANDSEED
  5
614
  9
$SURFTAB1
 70
     6
  9
$SURFTAB2
 70
     6
  9
$SURFTYPE
 70
     6
  9
$SURFU
 70
     6
  9
$SURFV
 70
     6
  9
$UCSBASE
  2

  9
$UCSNAME
  2

  9
$UCSORG
 10
0.0
 20
0.0
 30
0.0
  9
$UCSXDIR
 10
1.0
 20
0.0
 30
0.0
  9
$UCSYDIR
 10
0.0
 20
1.0
 30
0.0
  9
$UCSORTHOREF
  2

  9
$UCSORTHOVIEW
 70
     0
  9
$UCSORGTOP
 10
0.0
 20
0.0
 30
0.0
  9
$UCSORGBOTTOM
 10
0.0
 20
0.0
 30
0.0
  9
$UCSORGLEFT
 10
0.0
 20
0.0
 30
0.0
  9
$UCSORGRIGHT
 10
0.0
 20
0.0
 30
0.0
  9
$UCSORGFRONT
 10
0.0
 20
0.0
 30
0.0
  9
$UCSORGBACK
 10
0.0
 20
0.0
 30
0.0
  9
$PUCSBASE
  2

  9
$PUCSNAME
  2

  9
$PUCSORG
 10
0.0
 20
0.0
 30
0.0
  9
$PUCSXDIR
 10
1.0
 20
0.0
 30
0.0
  9
$PUCSYDIR
 10
0.0
 20
1.0
 30
0.0
  9
$PUCSORTHOREF
  2

  9
$PUCSORTHOVIEW
 70
     0
  9
$PUCSORGTOP
 10
0.0
 20
0.0
 30
0.0
  9
$PUCSORGBOTTOM
 10
0.0
 20
0.0
 30
0.0
  9
$PUCSORGLEFT
 10
0.0
 20
0.0
 30
0.0
  9
$PUCSORGRIGHT
 10
0.0
 20
0.0
 30
0.0
  9
$PUCSORGFRONT
 10
0.0
 20
0.0
 30
0.0
  9
$PUCSORGBACK
 10
0.0
 20
0.0
 30
0.0
  9
$USERI1
 70
     0
  9
$USERI2
 70
     0
  9
$USERI3
 70
     0
  9
$USERI4
 70
     0
  9
$USERI5
 70
     0
  9
$USERR1
 40
0.0
  9
$USERR2
 40
0.0
  9
$USERR3
 40
0.0
  9
$USERR4
 40
0.0
  9
$USERR5
 40
0.0
  9
$WORLDVIEW
 70
     1
  9
$SHADEDGE
 70
     3
  9
$SHADEDIF
 70
    70
  9
$TILEMODE
 70
     1
  9
$MAXACTVP
 70
    64
  9
$PINSBASE
 10
0.0
 20
0.0
 30
0.0
  9
$PLIMCHECK
 70
     0
  9
$PEXTMIN
 10
0.0
 20
0.0
 30
0.0
  9
$PEXTMAX
 10
0.0
 20
0.0
 30
0.0
  9
$PLIMMIN
 10
0.0
 20
0.0
  9
$PLIMMAX
 10
12.0
 20
9.0
  9
$UNITMODE
 70
     0
  9
$VISRETAIN
 70
     1
  9
$PLINEGEN
 70
     0
  9
$PSLTSCALE
 70
     1
  9
$TREEDEPTH
 70
  3020
  9
$CMLSTYLE
  2
Standard
  9
$CMLJUST
 70
     0
  9
$CMLSCALE
 40
20.0
  9
$PROXYGRAPHICS
 70
     1
  9
$MEASUREMENT
 70
     1
  9
$CELWEIGHT
370
    -1
  9
$ENDCAPS
280
     0
  9
$JOINSTYLE
280
     0
  9
$LWDISPLAY
290
     0
  9
$INSUNITS
 70
     4
  9
$HYPERLINKBASE
  1

  9
$STYLESHEET
  1

  9
$XEDIT
290
     1
  9
$CEPSNTYPE
380
     0
  9
$PSTYLEMODE
290
     1
  9
$FINGERPRINTGUID
  2
{DEB56B1E-A1E2-4B5C-B92F-FCA573C23078}
  9
$VERSIONGUID
  2
{0413EB92-2056-43C5-B7BD-4561F3B2B386}
  9
$EXTNAMES
290
     1
  9
$PSVPSCALE
 40
0.0
  9
$OLESTARTUP
290
     0
  0
ENDSEC
  0
SECTION
  2
CLASSES
  0
CLASS
  1
ACDBDICTIONARYWDFLT
  2
AcDbDictionaryWithDefault
  3
ObjectDBX Classes
 90
        0
280
     0
281
     0
  0
CLASS
  1
ACDBPLACEHOLDER
  2
AcDbPlaceHolder
  3
ObjectDBX Classes
 90
        0
280
     0
281
     0
  0
CLASS
  1
LAYOUT
  2
AcDbLayout
  3
ObjectDBX Classes
 90
        0
280
     0
281
     0
  0
CLASS
  1
DICTIONARYVAR
  2
AcDbDictionaryVar
  3
ObjectDBX Classes
 90
        0
280
     0
281
     0
  0
CLASS
  1
TABLESTYLE
  2
AcDbTableStyle
  3
ObjectDBX Classes
 90
     4095
280
     0
281
     0
  0
CLASS
  1
MATERIAL
  2
AcDbMaterial
  3
ObjectDBX Classes
 90
     1153
280
     0
281
     0
  0
CLASS
  1
VISUALSTYLE
  2
AcDbVisualStyle
  3
ObjectDBX Classes
 90
     4095
280
     0
281
     0
  0
CLASS
  1
SCALE
  2
AcDbScale
  3
ObjectDBX Classes
 90
     1153
280
     0
281
     0
  0
CLASS
  1
MLEADERSTYLE
  2
AcDbMLeaderStyle
  3
ACDB_MLEADERSTYLE_CLASS
 90
     4095
280
     0
281
     0
  0
CLASS
  1
CELLSTYLEMAP
  2
AcDbCellStyleMap
  3
ObjectDBX Classes
 90
     1152
280
     0
281
     0
  0
ENDSEC
  0
SECTION
  2
TABLES
  0
TABLE
  2
VPORT
  5
8
330
0
100
AcDbSymbolTable
 70
     1
  0
VPORT
  5
EA
330
8
100
AcDbSymbolTableRecord
100
AcDbViewportTableRecord
  2
*Active
 70
     0
 10
0.0
 20
0.0
 11
1.0
 21
1.0
 12
2623.928432577777
 22
852.6827760609991
 13
0.0
 23
0.0
 14
10.0
 24
10.0
 15
10.0
 25
10.0
 16
0.0
 26
0.0
 36
1.0
 17
0.0
 27
0.0
 37
0.0
 40
166.7438135207199
 41
1.903110047846889
 42
50.0
 43
0.0
 44
0.0
 50
0.0
 51
0.0
 71
     0
 72
  1000
 73
     1
 74
     3
 75
     0
 76
     0
 77
     0
 78
     0
281
     0
 65
     1
110
0.0
120
0.0
130
0.0
111
1.0
121
0.0
131
0.0
112
0.0
122
1.0
132
0.0
 79
     0
146
0.0
  0
ENDTAB
  0
TABLE
  2
LTYPE
  5
5
330
0
100
AcDbSymbolTable
 70
     1
  0
LTYPE
  5
14
330
5
100
AcDbSymbolTableRecord
100
AcDbLinetypeTableRecord
  2
ByBlock
 70
     0
  3

 72
    65
 73
     0
 40
0.0
  0
LTYPE
  5
15
330
5
100
AcDbSymbolTableRecord
100
AcDbLinetypeTableRecord
  2
ByLayer
 70
     0
  3

 72
    65
 73
     0
 40
0.0
  0
LTYPE
  5
16
330
5
100
AcDbSymbolTableRecord
100
AcDbLinetypeTableRecord
  2
Continuous
 70
     0
  3
Solid line
 72
    65
 73
     0
 40
0.0
  0
ENDTAB
  0
TABLE
  2
LAYER
  5
2
330
0
100
AcDbSymbolTable
 70
     1
  0
LAYER
  5
10
102
{ACAD_XDICTIONARY
360
13C
102
}
330
2
100
AcDbSymbolTableRecord
100
AcDbLayerTableRecord
  2
0
 70
     0
 62
     7
  6
Continuous
370
    -3
390
F
  0
ENDTAB
  0
TABLE
  2
STYLE
  5
3
330
0
100
AcDbSymbolTable
 70
     2
  0
STYLE
  5
11
330
3
100
AcDbSymbolTableRecord
100
AcDbTextStyleTableRecord
  2
Standard
 70
     0
 40
0.0
 41
1.0
 50
0.0
 71
     0
 42
2.5
  3
txt
  4

  0
STYLE
  5
132
330
3
100
AcDbSymbolTableRecord
100
AcDbTextStyleTableRecord
  2
Annotative
 70
     0
 40
0.0
 41
1.0
 50
0.0
 71
     0
 42
2.5
  3
txt.shx
  4

1001
AcadAnnotative
1000
AnnotativeData
1002
{
1070
     1
1070
     1
1002
}
  0
ENDTAB
  0
TABLE
  2
VIEW
  5
6
330
0
100
AcDbSymbolTable
 70
     0
  0
ENDTAB
  0
TABLE
  2
UCS
  5
7
330
0
100
AcDbSymbolTable
 70
     0
  0
ENDTAB
  0
TABLE
  2
APPID
  5
9
330
0
100
AcDbSymbolTable
 70
     7
  0
APPID
  5
12
330
9
100
AcDbSymbolTableRecord
100
AcDbRegAppTableRecord
  2
ACAD
 70
     0
  0
APPID
  5
9E
330
9
100
AcDbSymbolTableRecord
100
AcDbRegAppTableRecord
  2
ACAD_PSEXT
 70
     0
  0
APPID
  5
133
330
9
100
AcDbSymbolTableRecord
100
AcDbRegAppTableRecord
  2
AcadAnnoPO
 70
     0
  0
APPID
  5
134
330
9
100
AcDbSymbolTableRecord
100
AcDbRegAppTableRecord
  2
AcadAnnotative
 70
     0
  0
APPID
  5
135
330
9
100
AcDbSymbolTableRecord
100
AcDbRegAppTableRecord
  2
ACAD_DSTYLE_DIMJAG
 70
     0
  0
APPID
  5
136
330
9
100
AcDbSymbolTableRecord
100
AcDbRegAppTableRecord
  2
ACAD_DSTYLE_DIMTALN
 70
     0
  0
APPID
  5
165
330
9
100
AcDbSymbolTableRecord
100
AcDbRegAppTableRecord
  2
ACAD_MLEADERVER
 70
     0
  0
ENDTAB
  0
TABLE
  2
DIMSTYLE
  5
A
330
0
100
AcDbSymbolTable
 70
     2
100
AcDbDimStyleTable
 71
     2
340
27
340
137
  0
DIMSTYLE
105
27
330
A
100
AcDbSymbolTableRecord
100
AcDbDimStyleTableRecord
  2
ISO-25
 70
     0
 41
2.5
 42
0.625
 43
3.75
 44
1.25
 73
     0
 74
     0
 77
     1
 78
     8
140
2.5
141
2.5
143
0.03937007874016
147
0.625
171
     3
172
     1
271
     2
272
     2
274
     3
278
    44
283
     0
284
     8
340
11
  0
DIMSTYLE
105
137
330
A
100
AcDbSymbolTableRecord
100
AcDbDimStyleTableRecord
  2
Annotative
 70
     0
 40
0.0
 41
2.5
 42
0.625
 43
3.75
 44
1.25
 73
     0
 74
     0
 77
     1
 78
     8
140
2.5
141
2.5
143
0.03937007874016
147
0.625
171
     3
172
     1
271
     2
272
     2
274
     3
278
    44
283
     0
284
     8
340
11
1001
AcadAnnotative
1000
AnnotativeData
1002
{
1070
     1
1070
     1
1002
}
1001
ACAD_DSTYLE_DIMJAG
1070
   388
1040
1.5
1001
ACAD_DSTYLE_DIMTALN
1070
   392
1070
     0
  0
ENDTAB
  0
TABLE
  2
BLOCK_RECORD
  5
1
330
0
100
AcDbSymbolTable
 70
    16
  0
BLOCK_RECORD
  5
1F
330
1
100
AcDbSymbolTableRecord
100
AcDbBlockTableRecord
  2
*Model_Space
340
22
  0
BLOCK_RECORD
  5
D2
330
1
100
AcDbSymbolTableRecord
100
AcDbBlockTableRecord
  2
*Paper_Space
340
D3
  0
BLOCK_RECORD
  5
D6
330
1
100
AcDbSymbolTableRecord
100
AcDbBlockTableRecord
  2
*Paper_Space0
340
D7
  0
BLOCK_RECORD
  5
1AD
330
1
100
AcDbSymbolTableRecord
100
AcDbBlockTableRecord
  2
SW_CENTERMARKSYMBOL_0
340
0
102
{BLKREFS
331
501
102
}
  0
BLOCK_RECORD
  5
1B8
330
1
100
AcDbSymbolTableRecord
100
AcDbBlockTableRecord
  2
SW_CENTERMARKSYMBOL_1
340
0
102
{BLKREFS
331
502
102
}
  0
BLOCK_RECORD
  5
1C3
330
1
100
AcDbSymbolTableRecord
100
AcDbBlockTableRecord
  2
SW_CENTERMARKSYMBOL_2
340
0
102
{BLKREFS
331
503
102
}
  0
BLOCK_RECORD
  5
1CE
330
1
100
AcDbSymbolTableRecord
100
AcDbBlockTableRecord
  2
SW_CENTERMARKSYMBOL_3
340
0
102
{BLKREFS
331
5AE
102
}
  0
BLOCK_RECORD
  5
1D9
330
1
100
AcDbSymbolTableRecord
100
AcDbBlockTableRecord
  2
SW_CENTERMARKSYMBOL_4
340
0
102
{BLKREFS
331
5AF
102
}
  0
BLOCK_RECORD
  5
1E4
330
1
100
AcDbSymbolTableRecord
100
AcDbBlockTableRecord
  2
SW_CENTERMARKSYMBOL_5
340
0
102
{BLKREFS
331
5B0
102
}
  0
BLOCK_RECORD
  5
1EF
330
1
100
AcDbSymbolTableRecord
100
AcDbBlockTableRecord
  2
SW_CENTERMARKSYMBOL_6
340
0
102
{BLKREFS
331
5B1
102
}
  0
BLOCK_RECORD
  5
1FA
330
1
100
AcDbSymbolTableRecord
100
AcDbBlockTableRecord
  2
SW_CENTERMARKSYMBOL_7
340
0
102
{BLKREFS
331
5B2
102
}
  0
BLOCK_RECORD
  5
205
330
1
100
AcDbSymbolTableRecord
100
AcDbBlockTableRecord
  2
SW_CENTERMARKSYMBOL_8
340
0
102
{BLKREFS
331
5B3
102
}
  0
BLOCK_RECORD
  5
210
330
1
100
AcDbSymbolTableRecord
100
AcDbBlockTableRecord
  2
SW_CENTERMARKSYMBOL_9
340
0
102
{BLKREFS
331
5B4
102
}
  0
BLOCK_RECORD
  5
21B
330
1
100
AcDbSymbolTableRecord
100
AcDbBlockTableRecord
  2
SW_CENTERMARKSYMBOL_10
340
0
102
{BLKREFS
331
5B5
102
}
  0
BLOCK_RECORD
  5
4AA
330
1
100
AcDbSymbolTableRecord
100
AcDbBlockTableRecord
  2
1
340
0
310
2800000020000000200000000100080000000000000400000000000000000000000000000000000000000000000080000080000000808000800000008000800080800000C0C0C000C0DCC000F0CAA6000020400000206000002080000020A0000020C0000020E00000400000004020000040400000406000004080000040A0
310
000040C0000040E00000600000006020000060400000606000006080000060A0000060C0000060E00000800000008020000080400000806000008080000080A0000080C0000080E00000A0000000A0200000A0400000A0600000A0800000A0A00000A0C00000A0E00000C0000000C0200000C0400000C0600000C0800000C0
310
A00000C0C00000C0E00000E0000000E0200000E0400000E0600000E0800000E0A00000E0C00000E0E00040000000400020004000400040006000400080004000A0004000C0004000E00040200000402020004020400040206000402080004020A0004020C0004020E000404000004040200040404000404060004040800040
310
40A0004040C0004040E00040600000406020004060400040606000406080004060A0004060C0004060E00040800000408020004080400040806000408080004080A0004080C0004080E00040A0000040A0200040A0400040A0600040A0800040A0A00040A0C00040A0E00040C0000040C0200040C0400040C0600040C08000
310
40C0A00040C0C00040C0E00040E0000040E0200040E0400040E0600040E0800040E0A00040E0C00040E0E00080000000800020008000400080006000800080008000A0008000C0008000E00080200000802020008020400080206000802080008020A0008020C0008020E00080400000804020008040400080406000804080
310
008040A0008040C0008040E00080600000806020008060400080606000806080008060A0008060C0008060E00080800000808020008080400080806000808080008080A0008080C0008080E00080A0000080A0200080A0400080A0600080A0800080A0A00080A0C00080A0E00080C0000080C0200080C0400080C0600080C0
310
800080C0A00080C0C00080C0E00080E0000080E0200080E0400080E0600080E0800080E0A00080E0C00080E0E000C0000000C0002000C0004000C0006000C0008000C000A000C000C000C000E000C0200000C0202000C0204000C0206000C0208000C020A000C020C000C020E000C0400000C0402000C0404000C0406000C0
310
408000C040A000C040C000C040E000C0600000C0602000C0604000C0606000C0608000C060A000C060C000C060E000C0800000C0802000C0804000C0806000C0808000C080A000C080C000C080E000C0A00000C0A02000C0A04000C0A06000C0A08000C0A0A000C0A0C000C0A0E000C0C00000C0C02000C0C04000C0C06000
310
C0C08000C0C0A000F0FBFF00A4A0A000808080000000FF0000FF000000FFFF00FF000000FF00FF00FFFF0000FFFFFF0000000000000000000000000000000000000000000000000000000000000000000000FFFFFFFFFFFFFFFFFFFFFFFFFFFFFFFFFFFFFFFFFFFFFFFFFFFFFFFF000000FFFFFFFFFFFFFFFFFFFFFFFFFFFF
310
FFFFFFFFFFFFFFFFFFFFFFFFFFFFFFFF0000FF00000000000000000000000000000000000000000000000000000000FF0000FF00000000000000000000000000000000000000000000000000000000FF0000FF00000000000000000000000000000000000000000000000000000000FF0000FF000000000000000000000000
310
00000000000000000000000000000000FF0000FF00000000000000000000000000000000000000000000000000000000FF0000FF00000000000000000000000000000000000000000000000000000000FF0000FF00000000000000000000000000000000000000000000000000000000FF0000FF0000000000000000000000
310
0000000000000000000000000000000000FF0000FF00000000000000000000000000000000000000000000000000000000FF0000FF00000000000000000000000000000000000000000000000000000000FF0000FF00000000000000000000000000000000000000000000000000000000FF0000FF00000000000000000000
310
000000000000000000000000000000000000FF0000FF00000000000000000000000000000000000000000000000000000000FF0000FF00000000000000000000000000000000000000000000000000000000FF0000FF00000000000000000000000000000000000000000000000000000000FF0000FF000000000000000000
310
00000000000000000000000000000000000000FF0000FF00000000000000000000000000000000000000000000000000000000FF0000FF00000000000000000000000000000000000000000000000000000000FF0000FF00000000000000000000000000000000000000000000000000000000FF0000FF0000000000000000
310
0000000000000000000000000000000000000000FF0000FF00000000000000000000000000000000000000000000000000000000FF0000FF00000000000000000000000000000000000000000000000000000000FF0000FF00000000000000000000000000000000000000000000000000000000FF0000FF00000000000000
310
000000000000000000000000000000000000000000FF0000FF00000000000000000000000000000000000000000000000000000000FF0000FF00000000000000000000000000000000000000000000000000000000FF0000FFFFFFFFFFFFFFFFFFFFFFFFFFFFFFFFFFFFFFFFFFFFFFFFFFFFFFFFFFFF000000FFFFFFFFFFFF
310
FFFFFFFFFFFFFFFFFFFFFFFFFFFFFFFFFFFFFFFFFFFF00000000000000000000000000000000000000000000000000000000000000000000
102
{BLKREFS
331
4B7
102
}
1001
ACAD
1000
DesignCenter Data
1002
{
1070
     1
1070
     4
1002
}
  0
BLOCK_RECORD
  5
4B8
330
1
100
AcDbSymbolTableRecord
100
AcDbBlockTableRecord
  2
2
340
0
310
2800000020000000200000000100080000000000000400000000000000000000000000000000000000000000000080000080000000808000800000008000800080800000C0C0C000C0DCC000F0CAA6000020400000206000002080000020A0000020C0000020E00000400000004020000040400000406000004080000040A0
310
000040C0000040E00000600000006020000060400000606000006080000060A0000060C0000060E00000800000008020000080400000806000008080000080A0000080C0000080E00000A0000000A0200000A0400000A0600000A0800000A0A00000A0C00000A0E00000C0000000C0200000C0400000C0600000C0800000C0
310
A00000C0C00000C0E00000E0000000E0200000E0400000E0600000E0800000E0A00000E0C00000E0E00040000000400020004000400040006000400080004000A0004000C0004000E00040200000402020004020400040206000402080004020A0004020C0004020E000404000004040200040404000404060004040800040
310
40A0004040C0004040E00040600000406020004060400040606000406080004060A0004060C0004060E00040800000408020004080400040806000408080004080A0004080C0004080E00040A0000040A0200040A0400040A0600040A0800040A0A00040A0C00040A0E00040C0000040C0200040C0400040C0600040C08000
310
40C0A00040C0C00040C0E00040E0000040E0200040E0400040E0600040E0800040E0A00040E0C00040E0E00080000000800020008000400080006000800080008000A0008000C0008000E00080200000802020008020400080206000802080008020A0008020C0008020E00080400000804020008040400080406000804080
310
008040A0008040C0008040E00080600000806020008060400080606000806080008060A0008060C0008060E00080800000808020008080400080806000808080008080A0008080C0008080E00080A0000080A0200080A0400080A0600080A0800080A0A00080A0C00080A0E00080C0000080C0200080C0400080C0600080C0
310
800080C0A00080C0C00080C0E00080E0000080E0200080E0400080E0600080E0800080E0A00080E0C00080E0E000C0000000C0002000C0004000C0006000C0008000C000A000C000C000C000E000C0200000C0202000C0204000C0206000C0208000C020A000C020C000C020E000C0400000C0402000C0404000C0406000C0
310
408000C040A000C040C000C040E000C0600000C0602000C0604000C0606000C0608000C060A000C060C000C060E000C0800000C0802000C0804000C0806000C0808000C080A000C080C000C080E000C0A00000C0A02000C0A04000C0A06000C0A08000C0A0A000C0A0C000C0A0E000C0C00000C0C02000C0C04000C0C06000
310
C0C08000C0C0A000F0FBFF00A4A0A000808080000000FF0000FF000000FFFF00FF000000FF00FF00FFFF0000FFFFFF0000000000000000000000000000000000000000000000000000000000000000000000000000000000000000000000000000000000000000000000000000000000000000000000000000000000000000
310
00000000000000000000000000000000000000000000000000000000000000000000000000000000000000000000000000000000000000000000000000000000000000000000000000000000000000000000000000000000000000000000000000000000000000000000000000000000000000000000000000000000000000
310
0000000000000000000000000000000000000000000000000000000000000000000000000000000000000000000000000000000000000000000000000000000000000000000000000000000000000000000000FFFFFFFFFFFFFFFFFFFFFFFFFFFFFFFFFFFFFFFFFFFFFFFFFFFFFFFFFFFF0000FF00000000FF000000000000
310
000000FF000000000000000000FF000000FF0000FF00000000FF000000000000000000FF000000000000000000FF000000FF0000FF00000000FF000000000000000000FF000000000000000000FF000000FF0000FF00000000FF000000000000000000FF000000000000000000FF000000FF0000FFFFFFFFFFFFFFFFFF0000
310
FFFFFFFFFFFFFFFF0000FFFFFFFFFFFFFFFFFF0000FF00FFFF00FF00FF00000000FFFF00FFFFFF00000000FFFF00FFFFFF00FF0000FF00FFFFFFFFFFFF00000000FFFFFFFFFFFF00000000FFFFFFFFFFFF00FF0000FF00FFFFFFFFFFFF00000000FFFFFFFFFFFF00000000FFFFFFFFFFFF00FF0000FF000000000000000000
310
00000000000000000000000000000000000000FF0000FF00000000000000000000000000000000000000000000000000000000FF0000FF00000000000000000000000000000000000000000000000000000000FF0000FF00000000000000000000000000000000000000000000000000000000FF0000FFFFFFFFFFFFFFFFFF
310
FFFFFFFFFFFFFFFFFFFFFFFFFFFFFFFFFFFFFFFFFF00000000000000000000000000000000000000000000000000000000000000000000000000000000000000000000000000000000000000000000000000000000000000000000000000000000000000000000000000000000000000000000000000000000000000000000
310
00000000000000000000000000000000000000000000000000000000000000000000000000000000000000000000000000000000000000000000000000000000000000000000000000000000000000000000000000000000000000000000000000000000000000000000000000000000000000000000000000000000000000
310
0000000000000000000000000000000000000000000000000000000000000000000000000000000000000000000000000000000000000000
102
{BLKREFS
331
504
102
}
1001
ACAD
1000
DesignCenter Data
1002
{
1070
     1
1070
     4
1002
}
  0
BLOCK_RECORD
  5
505
330
1
100
AcDbSymbolTableRecord
100
AcDbBlockTableRecord
  2
3
340
0
310
2800000020000000200000000100080000000000000400000000000000000000000000000000000000000000000080000080000000808000800000008000800080800000C0C0C000C0DCC000F0CAA6000020400000206000002080000020A0000020C0000020E00000400000004020000040400000406000004080000040A0
310
000040C0000040E00000600000006020000060400000606000006080000060A0000060C0000060E00000800000008020000080400000806000008080000080A0000080C0000080E00000A0000000A0200000A0400000A0600000A0800000A0A00000A0C00000A0E00000C0000000C0200000C0400000C0600000C0800000C0
310
A00000C0C00000C0E00000E0000000E0200000E0400000E0600000E0800000E0A00000E0C00000E0E00040000000400020004000400040006000400080004000A0004000C0004000E00040200000402020004020400040206000402080004020A0004020C0004020E000404000004040200040404000404060004040800040
310
40A0004040C0004040E00040600000406020004060400040606000406080004060A0004060C0004060E00040800000408020004080400040806000408080004080A0004080C0004080E00040A0000040A0200040A0400040A0600040A0800040A0A00040A0C00040A0E00040C0000040C0200040C0400040C0600040C08000
310
40C0A00040C0C00040C0E00040E0000040E0200040E0400040E0600040E0800040E0A00040E0C00040E0E00080000000800020008000400080006000800080008000A0008000C0008000E00080200000802020008020400080206000802080008020A0008020C0008020E00080400000804020008040400080406000804080
310
008040A0008040C0008040E00080600000806020008060400080606000806080008060A0008060C0008060E00080800000808020008080400080806000808080008080A0008080C0008080E00080A0000080A0200080A0400080A0600080A0800080A0A00080A0C00080A0E00080C0000080C0200080C0400080C0600080C0
310
800080C0A00080C0C00080C0E00080E0000080E0200080E0400080E0600080E0800080E0A00080E0C00080E0E000C0000000C0002000C0004000C0006000C0008000C000A000C000C000C000E000C0200000C0202000C0204000C0206000C0208000C020A000C020C000C020E000C0400000C0402000C0404000C0406000C0
310
408000C040A000C040C000C040E000C0600000C0602000C0604000C0606000C0608000C060A000C060C000C060E000C0800000C0802000C0804000C0806000C0808000C080A000C080C000C080E000C0A00000C0A02000C0A04000C0A06000C0A08000C0A0A000C0A0C000C0A0E000C0C00000C0C02000C0C04000C0C06000
310
C0C08000C0C0A000F0FBFF00A4A0A000808080000000FF0000FF000000FFFF00FF000000FF00FF00FFFF0000FFFFFF000000000000000000000000000000000000000000000000000000000000000000000000000000000000FFFFFFFFFFFFFFFFFFFFFFFFFFFF000000000000000000000000000000000000FFFFFFFFFFFF
310
FFFFFFFFFFFFFFFF000000000000000000000000000000000000FF000000FF00000000FF000000FF000000000000000000000000000000000000FF0000FFFF000000FFFF000000FF000000000000000000000000000000000000FF00FFFFFFFF0000FFFFFFFF00FF000000000000000000000000000000000000FFFFFFFFFF
310
FFFFFFFFFFFFFF00FF000000000000000000000000000000000000FF0000FFFF000000FFFF000000FF000000000000000000000000000000000000FF000000FF0000FF00FF000000FF000000000000000000000000000000000000FF000000FF00FFFF0000000000FF000000000000000000000000000000000000FF000000
310
0000FFFF0000000000FF000000000000000000000000000000000000FF000000FFFFFFFFFFFF000000FF000000000000000000000000000000000000FF0000000000FFFF0000000000FF000000000000000000000000000000000000FF000000FF0000FF00FF000000FF000000000000000000000000000000000000FF0000
310
FFFF0000FFFFFF000000FF000000000000000000000000000000000000FF00FFFFFFFF0000FFFFFFFF00FF000000000000000000000000000000000000FFFFFFFFFFFFFFFFFFFFFFFF00FF000000000000000000000000000000000000FF0000FFFF000000FFFF000000FF000000000000000000000000000000000000FF00
310
0000FF0000FF00FF000000FF000000000000000000000000000000000000FF0000000000FFFF0000000000FF000000000000000000000000000000000000FF0000000000FFFF0000000000FF000000000000000000000000000000000000FF000000FFFFFFFFFFFF000000FF000000000000000000000000000000000000FF
310
000000FF00FFFF0000000000FF000000000000000000000000000000000000FF000000FF0000FF00FF000000FF000000000000000000000000000000000000FF0000FFFF000000FFFF000000FF000000000000000000000000000000000000FFFFFFFFFFFFFFFFFFFFFFFF00FF000000000000000000000000000000000000
310
FF00FFFFFFFF0000FFFFFFFF00FF000000000000000000000000000000000000FF0000FFFF000000FFFF000000FF000000000000000000000000000000000000FF000000FF00000000FF000000FF000000000000000000000000000000000000FFFFFFFFFFFFFFFFFFFFFFFFFFFF0000000000000000000000000000000000
310
00FFFFFFFFFFFFFFFFFFFFFFFFFFFF0000000000000000000000000000000000000000000000000000000000000000000000000000000000
102
{BLKREFS
331
5B6
102
}
1001
ACAD
1000
DesignCenter Data
1002
{
1070
     1
1070
     4
1002
}
  0
BLOCK_RECORD
  5
5B7
330
1
100
AcDbSymbolTableRecord
100
AcDbBlockTableRecord
  2
4
340
0
310
2800000020000000200000000100080000000000000400000000000000000000000000000000000000000000000080000080000000808000800000008000800080800000C0C0C000C0DCC000F0CAA6000020400000206000002080000020A0000020C0000020E00000400000004020000040400000406000004080000040A0
310
000040C0000040E00000600000006020000060400000606000006080000060A0000060C0000060E00000800000008020000080400000806000008080000080A0000080C0000080E00000A0000000A0200000A0400000A0600000A0800000A0A00000A0C00000A0E00000C0000000C0200000C0400000C0600000C0800000C0
310
A00000C0C00000C0E00000E0000000E0200000E0400000E0600000E0800000E0A00000E0C00000E0E00040000000400020004000400040006000400080004000A0004000C0004000E00040200000402020004020400040206000402080004020A0004020C0004020E000404000004040200040404000404060004040800040
310
40A0004040C0004040E00040600000406020004060400040606000406080004060A0004060C0004060E00040800000408020004080400040806000408080004080A0004080C0004080E00040A0000040A0200040A0400040A0600040A0800040A0A00040A0C00040A0E00040C0000040C0200040C0400040C0600040C08000
310
40C0A00040C0C00040C0E00040E0000040E0200040E0400040E0600040E0800040E0A00040E0C00040E0E00080000000800020008000400080006000800080008000A0008000C0008000E00080200000802020008020400080206000802080008020A0008020C0008020E00080400000804020008040400080406000804080
310
008040A0008040C0008040E00080600000806020008060400080606000806080008060A0008060C0008060E00080800000808020008080400080806000808080008080A0008080C0008080E00080A0000080A0200080A0400080A0600080A0800080A0A00080A0C00080A0E00080C0000080C0200080C0400080C0600080C0
310
800080C0A00080C0C00080C0E00080E0000080E0200080E0400080E0600080E0800080E0A00080E0C00080E0E000C0000000C0002000C0004000C0006000C0008000C000A000C000C000C000E000C0200000C0202000C0204000C0206000C0208000C020A000C020C000C020E000C0400000C0402000C0404000C0406000C0
310
408000C040A000C040C000C040E000C0600000C0602000C0604000C0606000C0608000C060A000C060C000C060E000C0800000C0802000C0804000C0806000C0808000C080A000C080C000C080E000C0A00000C0A02000C0A04000C0A06000C0A08000C0A0A000C0A0C000C0A0E000C0C00000C0C02000C0C04000C0C06000
310
C0C08000C0C0A000F0FBFF00A4A0A000808080000000FF0000FF000000FFFF00FF000000FF00FF00FFFF0000FFFFFF0000000000000000000000000000000000000000000000000000000000000000000000000000000000000000000000000000000000000000000000000000000000000000000000000000000000000000
310
000000000000000000000000000000000000000000000000000000FF0000000000000000000000000000000000000000000000000000000000FFFFFFFFFF00000000000000000000000000000000000000000000000000FFFF0000FF0000FFFF000000000000000000000000000000000000000000FFFF00000000FF00FFFF
310
FFFFFF0000000000000000000000000000000000FFFF000000000000FF00FF00FFFF00FFFF0000000000000000000000000000FF0000000000000000FF00FFFF00FF000000FFFF000000000000000000000000FF0000000000000000FF00FFFF00FF000000FFFFFFFF00000000000000000000FF0000000000000000FF00FF
310
FFA4FF0000FFFFFFFFFFFFFF0000000000000000FF0000000000000000FF0000FFFFFF0000FF0000FF0000FFFFFF000000000000FF0000000000000000FF00000000FF0000FFFF0000FF000000FFFFFF00000000FF000000000000FFFFFFFFFF0000000000FF00FF00FF000000FF00FFFF000000FF00000000FFFFFFFF00FF
310
FFFFFF00000000FFFFA4FF0000FF00FFFF00FF0000FF0000FFFF00FF00FFFFFFFFFFFFFFFF000000FFFFFF0000FFFF00FF00FF0000FFFFFF00FFFF0000FF0000FF0000FFFFFFFF000000000000FFFF00FF00FF0000FF00FFFFFFFFFFFFFFFFFF0000000000FF00FF0000000000FFFFFFFF00FF000000FF0000FFFF00FFFF00
310
FFFFFFFF000000FFFFFFFF00000000FFFFFF00FF00000000FFFF00FFFFFF00FFFF00FFFFFFFFFFFFFFFFFFFFFF00000000FF00FF000000000000FFFF00000000FFFFFF00FFFF00FFFF0000FF00FFFF00000000FF0000000000000000FFFF000000FFFFFFFFFFFFFF00000000FFFF00FFFF0000FF00000000000000000000FF
310
FF00FFFF00FFFFFFFFFFFFFF000000FFFF00FFFFFF000000000000000000000000FFFFFFFFFF00FFFF00FFFFFFFFFFFFFFFFFF00FF0000000000000000000000000000FFFF000000FFFFFFFFFFFF00FFFF0000FF0000000000000000000000000000000000FFFF0000FFFFFFFF00FF0000FFFF000000000000000000000000
310
0000000000000000FFFFFFFFFFFF0000FFFF000000000000000000000000000000000000000000000000FFFFFF00FFFF00000000000000000000000000000000000000000000000000000000FFFF00000000000000000000000000000000000000000000000000000000000000000000000000000000000000000000000000
310
0000000000000000000000000000000000000000000000000000000000000000000000000000000000000000000000000000000000000000
102
{BLKREFS
331
5F9
102
}
1001
ACAD
1000
DesignCenter Data
1002
{
1070
     1
1070
     4
1002
}
  0
ENDTAB
  0
ENDSEC
  0
SECTION
  2
BLOCKS
  0
BLOCK
  5
20
330
1F
100
AcDbEntity
  8
0
100
AcDbBlockBegin
  2
*Model_Space
 70
     0
 10
0.0
 20
0.0
 30
0.0
  3
*Model_Space
  1

  0
ENDBLK
  5
21
330
1F
100
AcDbEntity
  8
0
100
AcDbBlockEnd
  0
BLOCK
  5
D4
330
D2
100
AcDbEntity
 67
     1
  8
0
100
AcDbBlockBegin
  2
*Paper_Space
 70
     0
 10
0.0
 20
0.0
 30
0.0
  3
*Paper_Space
  1

  0
ENDBLK
  5
D5
330
D2
100
AcDbEntity
 67
     1
  8
0
100
AcDbBlockEnd
  0
BLOCK
  5
D8
330
D6
100
AcDbEntity
 67
     1
  8
0
100
AcDbBlockBegin
  2
*Paper_Space0
 70
     0
 10
0.0
 20
0.0
 30
0.0
  3
*Paper_Space0
  1

  0
ENDBLK
  5
D9
330
D6
100
AcDbEntity
 67
     1
  8
0
100
AcDbBlockEnd
  0
BLOCK
  5
1AE
330
1AD
100
AcDbEntity
  8
0
100
AcDbBlockBegin
  2
SW_CENTERMARKSYMBOL_0
 70
     0
 10
0.0
 20
0.0
 30
0.0
  3
SW_CENTERMARKSYMBOL_0
  1

  0
LINE
  5
1AF
330
1AD
100
AcDbEntity
  8
0
  6
Continuous
 62
     0
370
     0
100
AcDbLine
 10
0.0
 20
0.0
 30
0.0
 11
0.0
 21
2.500000000000002
 31
0.0
  0
LINE
  5
1B0
330
1AD
100
AcDbEntity
  8
0
  6
Continuous
 62
     0
370
     0
100
AcDbLine
 10
0.0
 20
0.0
 30
0.0
 11
-2.499999999999988
 21
0.0
 31
0.0
  0
LINE
  5
1B1
330
1AD
100
AcDbEntity
  8
0
  6
Continuous
 62
     0
370
     0
100
AcDbLine
 10
0.0
 20
0.0
 30
0.0
 11
0.0
 21
-2.500000000000002
 31
0.0
  0
LINE
  5
1B2
330
1AD
100
AcDbEntity
  8
0
  6
Continuous
 62
     0
370
     0
100
AcDbLine
 10
0.0
 20
0.0
 30
0.0
 11
2.500000000000002
 21
0.0
 31
0.0
  0
LINE
  5
1B3
330
1AD
100
AcDbEntity
  8
0
  6
Continuous
 62
     0
370
     0
100
AcDbLine
 10
0.0
 20
5.000000000000004
 30
0.0
 11
0.0
 21
8.000000000000007
 31
0.0
  0
LINE
  5
1B4
330
1AD
100
AcDbEntity
  8
0
  6
Continuous
 62
     0
370
     0
100
AcDbLine
 10
-4.99999999999999
 20
0.0
 30
0.0
 11
-7.999999999999992
 21
0.0
 31
0.0
  0
LINE
  5
1B5
330
1AD
100
AcDbEntity
  8
0
  6
Continuous
 62
     0
370
     0
100
AcDbLine
 10
0.0
 20
-5.000000000000004
 30
0.0
 11
0.0
 21
-8.000000000000007
 31
0.0
  0
LINE
  5
1B6
330
1AD
100
AcDbEntity
  8
0
  6
Continuous
 62
     0
370
     0
100
AcDbLine
 10
5.000000000000004
 20
0.0
 30
0.0
 11
8.000000000000007
 21
0.0
 31
0.0
  0
ENDBLK
  5
1B7
330
1AD
100
AcDbEntity
  8
0
100
AcDbBlockEnd
  0
BLOCK
  5
1B9
330
1B8
100
AcDbEntity
  8
0
100
AcDbBlockBegin
  2
SW_CENTERMARKSYMBOL_1
 70
     0
 10
0.0
 20
0.0
 30
0.0
  3
SW_CENTERMARKSYMBOL_1
  1

  0
LINE
  5
1BA
330
1B8
100
AcDbEntity
  8
0
  6
Continuous
 62
     0
370
     0
100
AcDbLine
 10
0.0
 20
0.0
 30
0.0
 11
0.0
 21
2.500000000000002
 31
0.0
  0
LINE
  5
1BB
330
1B8
100
AcDbEntity
  8
0
  6
Continuous
 62
     0
370
     0
100
AcDbLine
 10
0.0
 20
0.0
 30
0.0
 11
-2.499999999999974
 21
0.0
 31
0.0
  0
LINE
  5
1BC
330
1B8
100
AcDbEntity
  8
0
  6
Continuous
 62
     0
370
     0
100
AcDbLine
 10
0.0
 20
0.0
 30
0.0
 11
0.0
 21
-2.500000000000002
 31
0.0
  0
LINE
  5
1BD
330
1B8
100
AcDbEntity
  8
0
  6
Continuous
 62
     0
370
     0
100
AcDbLine
 10
0.0
 20
0.0
 30
0.0
 11
2.500000000000002
 21
0.0
 31
0.0
  0
LINE
  5
1BE
330
1B8
100
AcDbEntity
  8
0
  6
Continuous
 62
     0
370
     0
100
AcDbLine
 10
0.0
 20
5.000000000000004
 30
0.0
 11
0.0
 21
8.000000000000007
 31
0.0
  0
LINE
  5
1BF
330
1B8
100
AcDbEntity
  8
0
  6
Continuous
 62
     0
370
     0
100
AcDbLine
 10
-4.999999999999976
 20
0.0
 30
0.0
 11
-7.999999999999979
 21
0.0
 31
0.0
  0
LINE
  5
1C0
330
1B8
100
AcDbEntity
  8
0
  6
Continuous
 62
     0
370
     0
100
AcDbLine
 10
0.0
 20
-5.000000000000004
 30
0.0
 11
0.0
 21
-8.000000000000007
 31
0.0
  0
LINE
  5
1C1
330
1B8
100
AcDbEntity
  8
0
  6
Continuous
 62
     0
370
     0
100
AcDbLine
 10
5.000000000000004
 20
0.0
 30
0.0
 11
8.000000000000007
 21
0.0
 31
0.0
  0
ENDBLK
  5
1C2
330
1B8
100
AcDbEntity
  8
0
100
AcDbBlockEnd
  0
BLOCK
  5
1C4
330
1C3
100
AcDbEntity
  8
0
100
AcDbBlockBegin
  2
SW_CENTERMARKSYMBOL_2
 70
     0
 10
0.0
 20
0.0
 30
0.0
  3
SW_CENTERMARKSYMBOL_2
  1

  0
LINE
  5
1C5
330
1C3
100
AcDbEntity
  8
0
  6
Continuous
 62
     0
370
     0
100
AcDbLine
 10
0.0
 20
0.0
 30
0.0
 11
0.0
 21
2.500000000000002
 31
0.0
  0
LINE
  5
1C6
330
1C3
100
AcDbEntity
  8
0
  6
Continuous
 62
     0
370
     0
100
AcDbLine
 10
0.0
 20
0.0
 30
0.0
 11
-2.500000000000002
 21
0.0
 31
0.0
  0
LINE
  5
1C7
330
1C3
100
AcDbEntity
  8
0
  6
Continuous
 62
     0
370
     0
100
AcDbLine
 10
0.0
 20
0.0
 30
0.0
 11
0.0
 21
-2.500000000000002
 31
0.0
  0
LINE
  5
1C8
330
1C3
100
AcDbEntity
  8
0
  6
Continuous
 62
     0
370
     0
100
AcDbLine
 10
0.0
 20
0.0
 30
0.0
 11
2.500000000000002
 21
0.0
 31
0.0
  0
LINE
  5
1C9
330
1C3
100
AcDbEntity
  8
0
  6
Continuous
 62
     0
370
     0
100
AcDbLine
 10
0.0
 20
5.000000000000004
 30
0.0
 11
0.0
 21
8.000000000000007
 31
0.0
  0
LINE
  5
1CA
330
1C3
100
AcDbEntity
  8
0
  6
Continuous
 62
     0
370
     0
100
AcDbLine
 10
-5.000000000000004
 20
0.0
 30
0.0
 11
-8.000000000000007
 21
0.0
 31
0.0
  0
LINE
  5
1CB
330
1C3
100
AcDbEntity
  8
0
  6
Continuous
 62
     0
370
     0
100
AcDbLine
 10
0.0
 20
-5.000000000000004
 30
0.0
 11
0.0
 21
-8.000000000000007
 31
0.0
  0
LINE
  5
1CC
330
1C3
100
AcDbEntity
  8
0
  6
Continuous
 62
     0
370
     0
100
AcDbLine
 10
5.000000000000004
 20
0.0
 30
0.0
 11
8.000000000000007
 21
0.0
 31
0.0
  0
ENDBLK
  5
1CD
330
1C3
100
AcDbEntity
  8
0
100
AcDbBlockEnd
  0
BLOCK
  5
1CF
330
1CE
100
AcDbEntity
  8
0
100
AcDbBlockBegin
  2
SW_CENTERMARKSYMBOL_3
 70
     0
 10
0.0
 20
0.0
 30
0.0
  3
SW_CENTERMARKSYMBOL_3
  1

  0
LINE
  5
1D0
330
1CE
100
AcDbEntity
  8
0
  6
Continuous
 62
     0
370
     0
100
AcDbLine
 10
0.0
 20
0.0
 30
0.0
 11
0.0
 21
2.499999999999988
 31
0.0
  0
LINE
  5
1D1
330
1CE
100
AcDbEntity
  8
0
  6
Continuous
 62
     0
370
     0
100
AcDbLine
 10
0.0
 20
0.0
 30
0.0
 11
-2.500000000000002
 21
0.0
 31
0.0
  0
LINE
  5
1D2
330
1CE
100
AcDbEntity
  8
0
  6
Continuous
 62
     0
370
     0
100
AcDbLine
 10
0.0
 20
0.0
 30
0.0
 11
0.0
 21
-2.500000000000002
 31
0.0
  0
LINE
  5
1D3
330
1CE
100
AcDbEntity
  8
0
  6
Continuous
 62
     0
370
     0
100
AcDbLine
 10
0.0
 20
0.0
 30
0.0
 11
2.500000000000002
 21
0.0
 31
0.0
  0
LINE
  5
1D4
330
1CE
100
AcDbEntity
  8
0
  6
Continuous
 62
     0
370
     0
100
AcDbLine
 10
0.0
 20
4.99999999999999
 30
0.0
 11
0.0
 21
6.750000000000006
 31
0.0
  0
LINE
  5
1D5
330
1CE
100
AcDbEntity
  8
0
  6
Continuous
 62
     0
370
     0
100
AcDbLine
 10
-5.000000000000004
 20
0.0
 30
0.0
 11
-6.750000000000006
 21
0.0
 31
0.0
  0
LINE
  5
1D6
330
1CE
100
AcDbEntity
  8
0
  6
Continuous
 62
     0
370
     0
100
AcDbLine
 10
0.0
 20
-5.000000000000004
 30
0.0
 11
0.0
 21
-6.750000000000013
 31
0.0
  0
LINE
  5
1D7
330
1CE
100
AcDbEntity
  8
0
  6
Continuous
 62
     0
370
     0
100
AcDbLine
 10
5.000000000000004
 20
0.0
 30
0.0
 11
6.750000000000006
 21
0.0
 31
0.0
  0
ENDBLK
  5
1D8
330
1CE
100
AcDbEntity
  8
0
100
AcDbBlockEnd
  0
BLOCK
  5
1DA
330
1D9
100
AcDbEntity
  8
0
100
AcDbBlockBegin
  2
SW_CENTERMARKSYMBOL_4
 70
     0
 10
0.0
 20
0.0
 30
0.0
  3
SW_CENTERMARKSYMBOL_4
  1

  0
LINE
  5
1DB
330
1D9
100
AcDbEntity
  8
0
  6
Continuous
 62
     0
370
     0
100
AcDbLine
 10
0.0
 20
0.0
 30
0.0
 11
0.0
 21
2.500000000000002
 31
0.0
  0
LINE
  5
1DC
330
1D9
100
AcDbEntity
  8
0
  6
Continuous
 62
     0
370
     0
100
AcDbLine
 10
0.0
 20
0.0
 30
0.0
 11
-2.500000000000002
 21
0.0
 31
0.0
  0
LINE
  5
1DD
330
1D9
100
AcDbEntity
  8
0
  6
Continuous
 62
     0
370
     0
100
AcDbLine
 10
0.0
 20
0.0
 30
0.0
 11
0.0
 21
-2.500000000000002
 31
0.0
  0
LINE
  5
1DE
330
1D9
100
AcDbEntity
  8
0
  6
Continuous
 62
     0
370
     0
100
AcDbLine
 10
0.0
 20
0.0
 30
0.0
 11
2.500000000000002
 21
0.0
 31
0.0
  0
LINE
  5
1DF
330
1D9
100
AcDbEntity
  8
0
  6
Continuous
 62
     0
370
     0
100
AcDbLine
 10
0.0
 20
5.000000000000004
 30
0.0
 11
0.0
 21
6.749999999999992
 31
0.0
  0
LINE
  5
1E0
330
1D9
100
AcDbEntity
  8
0
  6
Continuous
 62
     0
370
     0
100
AcDbLine
 10
-5.000000000000004
 20
0.0
 30
0.0
 11
-6.749999999999978
 21
0.0
 31
0.0
  0
LINE
  5
1E1
330
1D9
100
AcDbEntity
  8
0
  6
Continuous
 62
     0
370
     0
100
AcDbLine
 10
0.0
 20
-5.000000000000004
 30
0.0
 11
0.0
 21
-6.749999999999992
 31
0.0
  0
LINE
  5
1E2
330
1D9
100
AcDbEntity
  8
0
  6
Continuous
 62
     0
370
     0
100
AcDbLine
 10
5.000000000000004
 20
0.0
 30
0.0
 11
6.750000000000006
 21
0.0
 31
0.0
  0
ENDBLK
  5
1E3
330
1D9
100
AcDbEntity
  8
0
100
AcDbBlockEnd
  0
BLOCK
  5
1E5
330
1E4
100
AcDbEntity
  8
0
100
AcDbBlockBegin
  2
SW_CENTERMARKSYMBOL_5
 70
     0
 10
0.0
 20
0.0
 30
0.0
  3
SW_CENTERMARKSYMBOL_5
  1

  0
LINE
  5
1E6
330
1E4
100
AcDbEntity
  8
0
  6
Continuous
 62
     0
370
     0
100
AcDbLine
 10
0.0
 20
0.0
 30
0.0
 11
0.0
 21
2.500000000000002
 31
0.0
  0
LINE
  5
1E7
330
1E4
100
AcDbEntity
  8
0
  6
Continuous
 62
     0
370
     0
100
AcDbLine
 10
0.0
 20
0.0
 30
0.0
 11
-2.500000000000002
 21
0.0
 31
0.0
  0
LINE
  5
1E8
330
1E4
100
AcDbEntity
  8
0
  6
Continuous
 62
     0
370
     0
100
AcDbLine
 10
0.0
 20
0.0
 30
0.0
 11
0.0
 21
-2.499999999999988
 31
0.0
  0
LINE
  5
1E9
330
1E4
100
AcDbEntity
  8
0
  6
Continuous
 62
     0
370
     0
100
AcDbLine
 10
0.0
 20
0.0
 30
0.0
 11
2.500000000000002
 21
0.0
 31
0.0
  0
LINE
  5
1EA
330
1E4
100
AcDbEntity
  8
0
  6
Continuous
 62
     0
370
     0
100
AcDbLine
 10
0.0
 20
5.000000000000004
 30
0.0
 11
0.0
 21
6.750000000000006
 31
0.0
  0
LINE
  5
1EB
330
1E4
100
AcDbEntity
  8
0
  6
Continuous
 62
     0
370
     0
100
AcDbLine
 10
-5.000000000000004
 20
0.0
 30
0.0
 11
-6.749999999999978
 21
0.0
 31
0.0
  0
LINE
  5
1EC
330
1E4
100
AcDbEntity
  8
0
  6
Continuous
 62
     0
370
     0
100
AcDbLine
 10
0.0
 20
-4.99999999999999
 30
0.0
 11
0.0
 21
-6.749999999999992
 31
0.0
  0
LINE
  5
1ED
330
1E4
100
AcDbEntity
  8
0
  6
Continuous
 62
     0
370
     0
100
AcDbLine
 10
5.000000000000004
 20
0.0
 30
0.0
 11
6.750000000000006
 21
0.0
 31
0.0
  0
ENDBLK
  5
1EE
330
1E4
100
AcDbEntity
  8
0
100
AcDbBlockEnd
  0
BLOCK
  5
1F0
330
1EF
100
AcDbEntity
  8
0
100
AcDbBlockBegin
  2
SW_CENTERMARKSYMBOL_6
 70
     0
 10
0.0
 20
0.0
 30
0.0
  3
SW_CENTERMARKSYMBOL_6
  1

  0
LINE
  5
1F1
330
1EF
100
AcDbEntity
  8
0
  6
Continuous
 62
     0
370
     0
100
AcDbLine
 10
0.0
 20
0.0
 30
0.0
 11
0.0
 21
2.500000000000002
 31
0.0
  0
LINE
  5
1F2
330
1EF
100
AcDbEntity
  8
0
  6
Continuous
 62
     0
370
     0
100
AcDbLine
 10
0.0
 20
0.0
 30
0.0
 11
-2.500000000000002
 21
0.0
 31
0.0
  0
LINE
  5
1F3
330
1EF
100
AcDbEntity
  8
0
  6
Continuous
 62
     0
370
     0
100
AcDbLine
 10
0.0
 20
0.0
 30
0.0
 11
0.0
 21
-2.500000000000002
 31
0.0
  0
LINE
  5
1F4
330
1EF
100
AcDbEntity
  8
0
  6
Continuous
 62
     0
370
     0
100
AcDbLine
 10
0.0
 20
0.0
 30
0.0
 11
2.500000000000002
 21
0.0
 31
0.0
  0
LINE
  5
1F5
330
1EF
100
AcDbEntity
  8
0
  6
Continuous
 62
     0
370
     0
100
AcDbLine
 10
0.0
 20
2.500000000000002
 30
0.0
 11
0.0
 21
5.000000000693837
 31
0.0
  0
LINE
  5
1F6
330
1EF
100
AcDbEntity
  8
0
  6
Continuous
 62
     0
370
     0
100
AcDbLine
 10
-2.500000000000002
 20
0.0
 30
0.0
 11
-5.000000000693837
 21
0.0
 31
0.0
  0
LINE
  5
1F7
330
1EF
100
AcDbEntity
  8
0
  6
Continuous
 62
     0
370
     0
100
AcDbLine
 10
0.0
 20
-2.500000000000002
 30
0.0
 11
0.0
 21
-5.000000000693837
 31
0.0
  0
LINE
  5
1F8
330
1EF
100
AcDbEntity
  8
0
  6
Continuous
 62
     0
370
     0
100
AcDbLine
 10
2.500000000000002
 20
0.0
 30
0.0
 11
5.000000000693837
 21
0.0
 31
0.0
  0
ENDBLK
  5
1F9
330
1EF
100
AcDbEntity
  8
0
100
AcDbBlockEnd
  0
BLOCK
  5
1FB
330
1FA
100
AcDbEntity
  8
0
100
AcDbBlockBegin
  2
SW_CENTERMARKSYMBOL_7
 70
     0
 10
0.0
 20
0.0
 30
0.0
  3
SW_CENTERMARKSYMBOL_7
  1

  0
LINE
  5
1FC
330
1FA
100
AcDbEntity
  8
0
  6
Continuous
 62
     0
370
     0
100
AcDbLine
 10
0.0
 20
0.0
 30
0.0
 11
0.0
 21
2.500000000000002
 31
0.0
  0
LINE
  5
1FD
330
1FA
100
AcDbEntity
  8
0
  6
Continuous
 62
     0
370
     0
100
AcDbLine
 10
0.0
 20
0.0
 30
0.0
 11
-2.500000000000002
 21
0.0
 31
0.0
  0
LINE
  5
1FE
330
1FA
100
AcDbEntity
  8
0
  6
Continuous
 62
     0
370
     0
100
AcDbLine
 10
0.0
 20
0.0
 30
0.0
 11
0.0
 21
-2.499999999999988
 31
0.0
  0
LINE
  5
1FF
330
1FA
100
AcDbEntity
  8
0
  6
Continuous
 62
     0
370
     0
100
AcDbLine
 10
0.0
 20
0.0
 30
0.0
 11
2.499999999999974
 21
0.0
 31
0.0
  0
LINE
  5
200
330
1FA
100
AcDbEntity
  8
0
  6
Continuous
 62
     0
370
     0
100
AcDbLine
 10
0.0
 20
2.500000000000002
 30
0.0
 11
0.0
 21
5.000000000693852
 31
0.0
  0
LINE
  5
201
330
1FA
100
AcDbEntity
  8
0
  6
Continuous
 62
     0
370
     0
100
AcDbLine
 10
-2.500000000000002
 20
0.0
 30
0.0
 11
-5.000000000693866
 21
0.0
 31
0.0
  0
LINE
  5
202
330
1FA
100
AcDbEntity
  8
0
  6
Continuous
 62
     0
370
     0
100
AcDbLine
 10
0.0
 20
-2.499999999999988
 30
0.0
 11
0.0
 21
-5.000000000693837
 31
0.0
  0
LINE
  5
203
330
1FA
100
AcDbEntity
  8
0
  6
Continuous
 62
     0
370
     0
100
AcDbLine
 10
2.499999999999974
 20
0.0
 30
0.0
 11
5.000000000693837
 21
0.0
 31
0.0
  0
ENDBLK
  5
204
330
1FA
100
AcDbEntity
  8
0
100
AcDbBlockEnd
  0
BLOCK
  5
206
330
205
100
AcDbEntity
  8
0
100
AcDbBlockBegin
  2
SW_CENTERMARKSYMBOL_8
 70
     0
 10
0.0
 20
0.0
 30
0.0
  3
SW_CENTERMARKSYMBOL_8
  1

  0
LINE
  5
207
330
205
100
AcDbEntity
  8
0
  6
Continuous
 62
     0
370
     0
100
AcDbLine
 10
0.0
 20
0.0
 30
0.0
 11
0.0
 21
2.500000000000002
 31
0.0
  0
LINE
  5
208
330
205
100
AcDbEntity
  8
0
  6
Continuous
 62
     0
370
     0
100
AcDbLine
 10
0.0
 20
0.0
 30
0.0
 11
-2.500000000000002
 21
0.0
 31
0.0
  0
LINE
  5
209
330
205
100
AcDbEntity
  8
0
  6
Continuous
 62
     0
370
     0
100
AcDbLine
 10
0.0
 20
0.0
 30
0.0
 11
0.0
 21
-2.500000000000002
 31
0.0
  0
LINE
  5
20A
330
205
100
AcDbEntity
  8
0
  6
Continuous
 62
     0
370
     0
100
AcDbLine
 10
0.0
 20
0.0
 30
0.0
 11
2.499999999999974
 21
0.0
 31
0.0
  0
LINE
  5
20B
330
205
100
AcDbEntity
  8
0
  6
Continuous
 62
     0
370
     0
100
AcDbLine
 10
0.0
 20
2.500000000000002
 30
0.0
 11
0.0
 21
5.000000000693837
 31
0.0
  0
LINE
  5
20C
330
205
100
AcDbEntity
  8
0
  6
Continuous
 62
     0
370
     0
100
AcDbLine
 10
-2.500000000000002
 20
0.0
 30
0.0
 11
-5.000000000693837
 21
0.0
 31
0.0
  0
LINE
  5
20D
330
205
100
AcDbEntity
  8
0
  6
Continuous
 62
     0
370
     0
100
AcDbLine
 10
0.0
 20
-2.500000000000002
 30
0.0
 11
0.0
 21
-5.000000000693837
 31
0.0
  0
LINE
  5
20E
330
205
100
AcDbEntity
  8
0
  6
Continuous
 62
     0
370
     0
100
AcDbLine
 10
2.499999999999974
 20
0.0
 30
0.0
 11
5.00000000069381
 21
0.0
 31
0.0
  0
ENDBLK
  5
20F
330
205
100
AcDbEntity
  8
0
100
AcDbBlockEnd
  0
BLOCK
  5
211
330
210
100
AcDbEntity
  8
0
100
AcDbBlockBegin
  2
SW_CENTERMARKSYMBOL_9
 70
     0
 10
0.0
 20
0.0
 30
0.0
  3
SW_CENTERMARKSYMBOL_9
  1

  0
LINE
  5
212
330
210
100
AcDbEntity
  8
0
  6
Continuous
 62
     0
370
     0
100
AcDbLine
 10
0.0
 20
0.0
 30
0.0
 11
0.0
 21
2.500000000000002
 31
0.0
  0
LINE
  5
213
330
210
100
AcDbEntity
  8
0
  6
Continuous
 62
     0
370
     0
100
AcDbLine
 10
0.0
 20
0.0
 30
0.0
 11
-2.500000000000002
 21
0.0
 31
0.0
  0
LINE
  5
214
330
210
100
AcDbEntity
  8
0
  6
Continuous
 62
     0
370
     0
100
AcDbLine
 10
0.0
 20
0.0
 30
0.0
 11
0.0
 21
-2.500000000000002
 31
0.0
  0
LINE
  5
215
330
210
100
AcDbEntity
  8
0
  6
Continuous
 62
     0
370
     0
100
AcDbLine
 10
0.0
 20
0.0
 30
0.0
 11
2.500000000000002
 21
0.0
 31
0.0
  0
LINE
  5
216
330
210
100
AcDbEntity
  8
0
  6
Continuous
 62
     0
370
     0
100
AcDbLine
 10
0.0
 20
5.000000000000004
 30
0.0
 11
0.0
 21
6.649999999999989
 31
0.0
  0
LINE
  5
217
330
210
100
AcDbEntity
  8
0
  6
Continuous
 62
     0
370
     0
100
AcDbLine
 10
-5.000000000000004
 20
0.0
 30
0.0
 11
-6.649999999999989
 21
0.0
 31
0.0
  0
LINE
  5
218
330
210
100
AcDbEntity
  8
0
  6
Continuous
 62
     0
370
     0
100
AcDbLine
 10
0.0
 20
-5.000000000000004
 30
0.0
 11
0.0
 21
-6.650000000000003
 31
0.0
  0
LINE
  5
219
330
210
100
AcDbEntity
  8
0
  6
Continuous
 62
     0
370
     0
100
AcDbLine
 10
5.000000000000004
 20
0.0
 30
0.0
 11
6.650000000000017
 21
0.0
 31
0.0
  0
ENDBLK
  5
21A
330
210
100
AcDbEntity
  8
0
100
AcDbBlockEnd
  0
BLOCK
  5
21C
330
21B
100
AcDbEntity
  8
0
100
AcDbBlockBegin
  2
SW_CENTERMARKSYMBOL_10
 70
     0
 10
0.0
 20
0.0
 30
0.0
  3
SW_CENTERMARKSYMBOL_10
  1

  0
LINE
  5
21D
330
21B
100
AcDbEntity
  8
0
  6
Continuous
 62
     0
370
     0
100
AcDbLine
 10
0.0
 20
0.0
 30
0.0
 11
0.0
 21
2.499999999999988
 31
0.0
  0
LINE
  5
21E
330
21B
100
AcDbEntity
  8
0
  6
Continuous
 62
     0
370
     0
100
AcDbLine
 10
0.0
 20
0.0
 30
0.0
 11
-2.500000000000002
 21
0.0
 31
0.0
  0
LINE
  5
21F
330
21B
100
AcDbEntity
  8
0
  6
Continuous
 62
     0
370
     0
100
AcDbLine
 10
0.0
 20
0.0
 30
0.0
 11
0.0
 21
-2.500000000000002
 31
0.0
  0
LINE
  5
220
330
21B
100
AcDbEntity
  8
0
  6
Continuous
 62
     0
370
     0
100
AcDbLine
 10
0.0
 20
0.0
 30
0.0
 11
2.500000000000002
 21
0.0
 31
0.0
  0
LINE
  5
221
330
21B
100
AcDbEntity
  8
0
  6
Continuous
 62
     0
370
     0
100
AcDbLine
 10
0.0
 20
4.99999999999999
 30
0.0
 11
0.0
 21
6.649999999999989
 31
0.0
  0
LINE
  5
222
330
21B
100
AcDbEntity
  8
0
  6
Continuous
 62
     0
370
     0
100
AcDbLine
 10
-5.000000000000004
 20
0.0
 30
0.0
 11
-6.649999999999989
 21
0.0
 31
0.0
  0
LINE
  5
223
330
21B
100
AcDbEntity
  8
0
  6
Continuous
 62
     0
370
     0
100
AcDbLine
 10
0.0
 20
-5.000000000000004
 30
0.0
 11
0.0
 21
-6.650000000000017
 31
0.0
  0
LINE
  5
224
330
21B
100
AcDbEntity
  8
0
  6
Continuous
 62
     0
370
     0
100
AcDbLine
 10
5.000000000000004
 20
0.0
 30
0.0
 11
6.650000000000017
 21
0.0
 31
0.0
  0
ENDBLK
  5
225
330
21B
100
AcDbEntity
  8
0
100
AcDbBlockEnd
  0
BLOCK
  5
4AB
330
4AA
100
AcDbEntity
  8
0
100
AcDbBlockBegin
  2
1
 70
     0
 10
0.0
 20
0.0
 30
0.0
  3
1
  1

  0
LINE
  5
4AD
330
4AA
100
AcDbEntity
  8
0
  6
Continuous
 62
     7
370
    15
100
AcDbLine
 10
2638.250681033212
 20
890.6289998238538
 30
0.0
 11
2609.750681367557
 21
890.6289998238538
 31
0.0
  0
LINE
  5
4AE
330
4AA
100
AcDbEntity
  8
0
  6
Continuous
 62
     7
370
    15
100
AcDbLine
 10
2638.250681033212
 20
890.6289998238538
 30
0.0
 11
2639.000680690485
 21
889.8790001665805
 31
0.0
  0
LINE
  5
4AF
330
4AA
100
AcDbEntity
  8
0
  6
Continuous
 62
     7
370
    15
100
AcDbLine
 10
2609.000681361038
 20
889.8790001665805
 30
0.0
 11
2639.000680690485
 21
889.8790001665805
 31
0.0
  0
LINE
  5
4B0
330
4AA
100
AcDbEntity
  8
0
  6
Continuous
 62
     7
370
    15
100
AcDbLine
 10
2609.000681361038
 20
889.8790001665805
 30
0.0
 11
2609.750681367557
 21
890.6289998238538
 31
0.0
  0
LINE
  5
4B1
330
4AA
100
AcDbEntity
  8
0
  6
Continuous
 62
     7
370
    15
100
AcDbLine
 10
2639.000680690485
 20
861.3790005009253
 30
0.0
 11
2639.000680690485
 21
889.8790001665805
 31
0.0
  0
LINE
  5
4B2
330
4AA
100
AcDbEntity
  8
0
  6
Continuous
 62
     7
370
    15
100
AcDbLine
 10
2609.000681361038
 20
861.3790005009253
 30
0.0
 11
2639.000680690485
 21
861.3790005009253
 31
0.0
  0
LINE
  5
4B3
330
4AA
100
AcDbEntity
  8
0
  6
Continuous
 62
     7
370
    15
100
AcDbLine
 10
2609.000681361038
 20
889.8790001665805
 30
0.0
 11
2609.000681361038
 21
861.3790005009253
 31
0.0
  0
LINE
  5
4B4
330
4AA
100
AcDbEntity
  8
0
  6
Continuous
 62
     7
370
    15
100
AcDbLine
 10
2609.750681367557
 20
860.629000494406
 30
0.0
 11
2638.250681033212
 21
860.629000494406
 31
0.0
  0
LINE
  5
4B5
330
4AA
100
AcDbEntity
  8
0
  6
Continuous
 62
     7
370
    15
100
AcDbLine
 10
2609.000681361038
 20
861.3790005009253
 30
0.0
 11
2609.750681367557
 21
860.629000494406
 31
0.0
  0
LINE
  5
4B6
330
4AA
100
AcDbEntity
  8
0
  6
Continuous
 62
     7
370
    15
100
AcDbLine
 10
2638.250681033212
 20
860.629000494406
 30
0.0
 11
2639.000680690485
 21
861.3790005009253
 31
0.0
  0
ENDBLK
  5
4AC
330
4AA
100
AcDbEntity
  8
0
100
AcDbBlockEnd
  0
BLOCK
  5
4B9
330
4B8
100
AcDbEntity
  8
0
100
AcDbBlockBegin
  2
2
 70
     0
 10
0.0
 20
0.0
 30
0.0
  3
2
  1

  0
LINE
  5
4BB
330
4B8
100
AcDbEntity
  8
0
  6
Continuous
 62
     7
370
    15
100
AcDbLine
 10
2517.104353923898
 20
871.6290004348014
 30
0.0
 11
2517.104353923898
 21
879.8790003900979
 31
0.0
  0
LINE
  5
4BC
330
4B8
100
AcDbEntity
  8
0
  6
Continuous
 62
     7
370
    15
100
AcDbLine
 10
2517.104353923898
 20
879.8790003900979
 30
0.0
 11
2505.604352970224
 21
879.8790003900979
 31
0.0
  0
LINE
  5
4BD
330
4B8
100
AcDbEntity
  8
0
  6
Continuous
 62
     7
370
    15
100
AcDbLine
 10
2505.604352970224
 20
879.8790003900979
 30
0.0
 11
2505.604352970224
 21
871.6290004348014
 31
0.0
  0
ARC
  5
4BE
330
4B8
100
AcDbEntity
  8
0
  6
Continuous
 62
     7
370
    15
100
AcDbCircle
 10
2511.354354162317
 20
871.629000494406
 30
0.0
 40
5.750000000000014
100
AcDbArc
 50
180.0
 51
0.0
  0
LINE
  5
4BF
330
4B8
100
AcDbEntity
  8
0
  6
Continuous
 62
     7
370
    15
100
AcDbLine
 10
2540.104353968601
 20
871.6290004348014
 30
0.0
 11
2540.104353968601
 21
879.8790003900979
 31
0.0
  0
LINE
  5
4C0
330
4B8
100
AcDbEntity
  8
0
  6
Continuous
 62
     7
370
    15
100
AcDbLine
 10
2540.104353968601
 20
879.8790003900979
 30
0.0
 11
2528.604354877572
 21
879.8790003900979
 31
0.0
  0
LINE
  5
4C1
330
4B8
100
AcDbEntity
  8
0
  6
Continuous
 62
     7
370
    15
100
AcDbLine
 10
2528.604354877572
 20
879.8790003900979
 30
0.0
 11
2528.604354877572
 21
871.6290004348014
 31
0.0
  0
ARC
  5
4C2
330
4B8
100
AcDbEntity
  8
0
  6
Continuous
 62
     7
370
    15
100
AcDbCircle
 10
2534.354354162317
 20
871.629000494406
 30
0.0
 40
5.75
100
AcDbArc
 50
180.0
 51
0.0
  0
LINE
  5
4C3
330
4B8
100
AcDbEntity
  8
0
  6
Continuous
 62
     7
370
    15
100
AcDbLine
 10
2563.104354246136
 20
871.6290004348014
 30
0.0
 11
2563.104354246136
 21
879.8790003900979
 31
0.0
  0
LINE
  5
4C4
330
4B8
100
AcDbEntity
  8
0
  6
Continuous
 62
     7
370
    15
100
AcDbLine
 10
2563.104354246136
 20
879.8790003900979
 30
0.0
 11
2551.604353990953
 21
879.8790003900979
 31
0.0
  0
LINE
  5
4C5
330
4B8
100
AcDbEntity
  8
0
  6
Continuous
 62
     7
370
    15
100
AcDbLine
 10
2551.604353990953
 20
879.8790003900979
 30
0.0
 11
2551.604353990953
 21
871.6290004348014
 31
0.0
  0
ARC
  5
4C6
330
4B8
100
AcDbEntity
  8
0
  6
Continuous
 62
     7
370
    15
100
AcDbCircle
 10
2557.354354162317
 20
871.629000494406
 30
0.0
 40
5.75
100
AcDbArc
 50
180.0
 51
0.0
  0
LINE
  5
4C7
330
4B8
100
AcDbEntity
  8
0
  6
Continuous
 62
     7
370
    15
100
AcDbLine
 10
2501.254353840451
 20
861.3790005009253
 30
0.0
 11
2501.254353840451
 21
889.8790001665805
 31
0.0
  0
LINE
  5
4C8
330
4B8
100
AcDbEntity
  8
0
  6
Continuous
 62
     7
370
    15
100
AcDbLine
 10
2501.254353840451
 20
889.8790001665805
 30
0.0
 11
2566.854354162316
 21
889.8790001665805
 31
0.0
  0
LINE
  5
4C9
330
4B8
100
AcDbEntity
  8
0
  6
Continuous
 62
     7
370
    15
100
AcDbLine
 10
2566.854354162316
 20
861.3790005009253
 30
0.0
 11
2566.854354162316
 21
889.8790001665805
 31
0.0
  0
LINE
  5
4CA
330
4B8
100
AcDbEntity
  8
0
  6
Continuous
 62
     7
370
    15
100
AcDbLine
 10
2501.254353840451
 20
861.3790005009253
 30
0.0
 11
2566.854354162316
 21
861.3790005009253
 31
0.0
  0
LINE
  5
4CB
330
4B8
100
AcDbEntity
  8
0
  6
Continuous
 62
     7
370
    15
100
AcDbLine
 10
2502.00435163508
 20
860.629000494406
 30
0.0
 11
2566.104354155797
 21
860.629000494406
 31
0.0
  0
LINE
  5
4CC
330
4B8
100
AcDbEntity
  8
0
  6
Continuous
 62
     7
370
    15
100
AcDbLine
 10
2502.00435163508
 20
860.629000494406
 30
0.0
 11
2501.254353840451
 21
861.3790005009253
 31
0.0
  0
LINE
  5
4CD
330
4B8
100
AcDbEntity
  8
0
  6
Continuous
 62
     7
370
    15
100
AcDbLine
 10
2566.104354155797
 20
860.629000494406
 30
0.0
 11
2566.854354162316
 21
861.3790005009253
 31
0.0
  0
LINE
  5
4CE
330
4B8
100
AcDbEntity
  8
0
  6
Continuous
 62
     7
370
    15
100
AcDbLine
 10
2566.104354155797
 20
890.6289998238538
 30
0.0
 11
2566.854354162316
 21
889.8790001665805
 31
0.0
  0
LINE
  5
4CF
330
4B8
100
AcDbEntity
  8
0
  6
Continuous
 62
     7
370
    15
100
AcDbLine
 10
2502.00435163508
 20
890.6289998238538
 30
0.0
 11
2501.254353840451
 21
889.8790001665805
 31
0.0
  0
LINE
  5
4D0
330
4B8
100
AcDbEntity
  8
0
  6
Continuous
 62
     7
370
    15
100
AcDbLine
 10
2566.104354155797
 20
890.6289998238538
 30
0.0
 11
2502.00435163508
 21
890.6289998238538
 31
0.0
  0
LINE
  5
4D1
330
4B8
100
AcDbEntity
  8
0
  6
Continuous
 62
     7
370
    15
100
AcDbLine
 10
2552.054354157846
 20
877.629001418278
 30
0.0
 11
2561.454354022246
 21
877.629001418278
 31
0.0
  0
LINE
  5
4D2
330
4B8
100
AcDbEntity
  8
0
  6
Continuous
 62
     7
370
    15
100
AcDbLine
 10
2552.054354157846
 20
878.8290012424443
 30
0.0
 11
2552.054354157846
 21
877.629001418278
 31
0.0
  0
LINE
  5
4D3
330
4B8
100
AcDbEntity
  8
0
  6
Continuous
 62
     7
370
    15
100
AcDbLine
 10
2561.65435414816
 20
878.8290012424443
 30
0.0
 11
2552.054354157846
 21
878.8290012424443
 31
0.0
  0
ARC
  5
4D4
330
4B8
100
AcDbEntity
  8
0
  6
Continuous
 62
     7
370
    15
100
AcDbCircle
 10
2561.654354162317
 20
877.8290004944061
 30
0.0
 40
1.0
100
AcDbArc
 50
0.0
 51
90.0
  0
LINE
  5
4D5
330
4B8
100
AcDbEntity
  8
0
  6
Continuous
 62
     7
370
    15
100
AcDbLine
 10
2562.654354312073
 20
871.6290004348014
 30
0.0
 11
2562.654354312073
 21
877.8290010785315
 31
0.0
  0
LINE
  5
4D6
330
4B8
100
AcDbEntity
  8
0
  6
Continuous
 62
     7
370
    15
100
AcDbLine
 10
2552.054354157846
 20
876.4289997314666
 30
0.0
 11
2552.054354157846
 21
871.6290004348014
 31
0.0
  0
ARC
  5
4D7
330
4B8
100
AcDbEntity
  8
0
  6
Continuous
 62
     7
370
    15
100
AcDbCircle
 10
2553.054354162317
 20
876.429000494406
 30
0.0
 40
1.0
100
AcDbArc
 50
90.0
 51
180.0
  0
LINE
  5
4D8
330
4B8
100
AcDbEntity
  8
0
  6
Continuous
 62
     7
370
    15
100
AcDbLine
 10
2561.454354022246
 20
877.4289998953793
 30
0.0
 11
2553.054354321759
 21
877.4289998953793
 31
0.0
  0
LINE
  5
4D9
330
4B8
100
AcDbEntity
  8
0
  6
Continuous
 62
     7
370
    15
100
AcDbLine
 10
2561.454354022246
 20
877.629001418278
 30
0.0
 11
2561.454354022246
 21
877.4289998953793
 31
0.0
  0
LINE
  5
4DA
330
4B8
100
AcDbEntity
  8
0
  6
Continuous
 62
     7
370
    15
100
AcDbLine
 10
2560.954353940289
 20
876.229000071213
 30
0.0
 11
2553.754354063969
 21
876.229000071213
 31
0.0
  0
ARC
  5
4DB
330
4B8
100
AcDbEntity
  8
0
  6
Continuous
 62
     7
370
    15
100
AcDbCircle
 10
2553.754354162317
 20
875.729000494406
 30
0.0
 40
0.5
100
AcDbArc
 50
90.0
 51
180.0
  0
LINE
  5
4DC
330
4B8
100
AcDbEntity
  8
0
  6
Continuous
 62
     7
370
    15
100
AcDbLine
 10
2553.254353982012
 20
875.7290009205792
 30
0.0
 11
2553.254353982012
 21
871.6290004348014
 31
0.0
  0
ARC
  5
4DD
330
4B8
100
AcDbEntity
  8
0
  6
Continuous
 62
     7
370
    15
100
AcDbCircle
 10
2557.354354162317
 20
871.629000494406
 30
0.0
 40
4.100000000000022
100
AcDbArc
 50
180.0
 51
0.0
  0
LINE
  5
4DE
330
4B8
100
AcDbEntity
  8
0
  6
Continuous
 62
     7
370
    15
100
AcDbLine
 10
2561.454354022246
 20
871.6290004348014
 30
0.0
 11
2561.454354022246
 21
875.7290009205792
 31
0.0
  0
ARC
  5
4DF
330
4B8
100
AcDbEntity
  8
0
  6
Continuous
 62
     7
370
    15
100
AcDbCircle
 10
2560.954354162317
 20
875.729000494406
 30
0.0
 40
0.5
100
AcDbArc
 50
0.0
 51
90.0
  0
ARC
  5
4E0
330
4B8
100
AcDbEntity
  8
0
  6
Continuous
 62
     7
370
    15
100
AcDbCircle
 10
2557.354354162317
 20
871.629000494406
 30
0.0
 40
5.300000000000011
100
AcDbArc
 50
180.0
 51
0.0
  0
LINE
  5
4E1
330
4B8
100
AcDbEntity
  8
0
  6
Continuous
 62
     7
370
    15
100
AcDbLine
 10
2529.054355044465
 20
877.629001418278
 30
0.0
 11
2538.454353977542
 21
877.629001418278
 31
0.0
  0
LINE
  5
4E2
330
4B8
100
AcDbEntity
  8
0
  6
Continuous
 62
     7
370
    15
100
AcDbLine
 10
2529.054355044465
 20
878.8290012424443
 30
0.0
 11
2529.054355044465
 21
877.629001418278
 31
0.0
  0
LINE
  5
4E3
330
4B8
100
AcDbEntity
  8
0
  6
Continuous
 62
     7
370
    15
100
AcDbLine
 10
2538.654353637796
 20
878.8290012424443
 30
0.0
 11
2529.054355044465
 21
878.8290012424443
 31
0.0
  0
LINE
  5
4E4
330
4B8
100
AcDbEntity
  8
0
  6
Continuous
 62
     7
370
    15
100
AcDbLine
 10
2529.054355044465
 20
876.4289997314666
 30
0.0
 11
2529.054355044465
 21
871.6290004348014
 31
0.0
  0
ARC
  5
4E5
330
4B8
100
AcDbEntity
  8
0
  6
Continuous
 62
     7
370
    15
100
AcDbCircle
 10
2530.054354162317
 20
876.429000494406
 30
0.0
 40
1.0
100
AcDbArc
 50
90.0
 51
180.0
  0
LINE
  5
4E6
330
4B8
100
AcDbEntity
  8
0
  6
Continuous
 62
     7
370
    15
100
AcDbLine
 10
2538.454353977542
 20
877.4289998953793
 30
0.0
 11
2530.054353345733
 21
877.4289998953793
 31
0.0
  0
LINE
  5
4E7
330
4B8
100
AcDbEntity
  8
0
  6
Continuous
 62
     7
370
    15
100
AcDbLine
 10
2538.454353977542
 20
877.629001418278
 30
0.0
 11
2538.454353977542
 21
877.4289998953793
 31
0.0
  0
LINE
  5
4E8
330
4B8
100
AcDbEntity
  8
0
  6
Continuous
 62
     7
370
    15
100
AcDbLine
 10
2537.954354826908
 20
876.229000071213
 30
0.0
 11
2530.754354019265
 21
876.229000071213
 31
0.0
  0
ARC
  5
4E9
330
4B8
100
AcDbEntity
  8
0
  6
Continuous
 62
     7
370
    15
100
AcDbCircle
 10
2530.754354162317
 20
875.729000494406
 30
0.0
 40
0.5
100
AcDbArc
 50
90.0
 51
180.0
  0
LINE
  5
4EA
330
4B8
100
AcDbEntity
  8
0
  6
Continuous
 62
     7
370
    15
100
AcDbLine
 10
2530.254353005986
 20
875.7290009205792
 30
0.0
 11
2530.254353005986
 21
871.6290004348014
 31
0.0
  0
ARC
  5
4EB
330
4B8
100
AcDbEntity
  8
0
  6
Continuous
 62
     7
370
    15
100
AcDbCircle
 10
2534.354354162317
 20
871.629000494406
 30
0.0
 40
4.099999999999994
100
AcDbArc
 50
180.0
 51
0.0
  0
LINE
  5
4EC
330
4B8
100
AcDbEntity
  8
0
  6
Continuous
 62
     7
370
    15
100
AcDbLine
 10
2538.454353977542
 20
871.6290004348014
 30
0.0
 11
2538.454353977542
 21
875.7290009205792
 31
0.0
  0
ARC
  5
4ED
330
4B8
100
AcDbEntity
  8
0
  6
Continuous
 62
     7
370
    15
100
AcDbCircle
 10
2537.954354162317
 20
875.729000494406
 30
0.0
 40
0.5
100
AcDbArc
 50
0.0
 51
90.0
  0
ARC
  5
4EE
330
4B8
100
AcDbEntity
  8
0
  6
Continuous
 62
     7
370
    15
100
AcDbCircle
 10
2534.354354162317
 20
871.629000494406
 30
0.0
 40
5.300000000000011
100
AcDbArc
 50
180.0
 51
0.0
  0
ARC
  5
4EF
330
4B8
100
AcDbEntity
  8
0
  6
Continuous
 62
     7
370
    15
100
AcDbCircle
 10
2538.654354162316
 20
877.8290004944061
 30
0.0
 40
1.000000000000028
100
AcDbArc
 50
0.0
 51
90.0
  0
LINE
  5
4F0
330
4B8
100
AcDbEntity
  8
0
  6
Continuous
 62
     7
370
    15
100
AcDbLine
 10
2539.654353801708
 20
871.6290004348014
 30
0.0
 11
2539.654353801708
 21
877.8290010785315
 31
0.0
  0
LINE
  5
4F1
330
4B8
100
AcDbEntity
  8
0
  6
Continuous
 62
     7
370
    15
100
AcDbLine
 10
2515.454355795484
 20
877.4289998953793
 30
0.0
 11
2515.454355795484
 21
877.629001418278
 31
0.0
  0
LINE
  5
4F2
330
4B8
100
AcDbEntity
  8
0
  6
Continuous
 62
     7
370
    15
100
AcDbLine
 10
2515.454355795484
 20
877.629001418278
 30
0.0
 11
2506.054353137117
 21
877.629001418278
 31
0.0
  0
LINE
  5
4F3
330
4B8
100
AcDbEntity
  8
0
  6
Continuous
 62
     7
370
    15
100
AcDbLine
 10
2506.054353137117
 20
878.8290012424443
 30
0.0
 11
2506.054353137117
 21
877.629001418278
 31
0.0
  0
LINE
  5
4F4
330
4B8
100
AcDbEntity
  8
0
  6
Continuous
 62
     7
370
    15
100
AcDbLine
 10
2515.654355455737
 20
878.8290012424443
 30
0.0
 11
2506.054353137117
 21
878.8290012424443
 31
0.0
  0
ARC
  5
4F5
330
4B8
100
AcDbEntity
  8
0
  6
Continuous
 62
     7
370
    15
100
AcDbCircle
 10
2515.654354162317
 20
877.8290004944061
 30
0.0
 40
1.0
100
AcDbArc
 50
0.0
 51
90.0
  0
LINE
  5
4F6
330
4B8
100
AcDbEntity
  8
0
  6
Continuous
 62
     7
370
    15
100
AcDbLine
 10
2516.654353757005
 20
871.6290004348014
 30
0.0
 11
2516.654353757005
 21
877.8290010785315
 31
0.0
  0
ARC
  5
4F7
330
4B8
100
AcDbEntity
  8
0
  6
Continuous
 62
     7
370
    15
100
AcDbCircle
 10
2511.354354162317
 20
871.629000494406
 30
0.0
 40
5.300000000000025
100
AcDbArc
 50
180.0
 51
0.0
  0
LINE
  5
4F8
330
4B8
100
AcDbEntity
  8
0
  6
Continuous
 62
     7
370
    15
100
AcDbLine
 10
2506.054353137117
 20
876.4289997314666
 30
0.0
 11
2506.054353137117
 21
871.6290004348014
 31
0.0
  0
ARC
  5
4F9
330
4B8
100
AcDbEntity
  8
0
  6
Continuous
 62
     7
370
    15
100
AcDbCircle
 10
2507.054354162317
 20
876.429000494406
 30
0.0
 40
1.0
100
AcDbArc
 50
90.0
 51
180.0
  0
LINE
  5
4FA
330
4B8
100
AcDbEntity
  8
0
  6
Continuous
 62
     7
370
    15
100
AcDbLine
 10
2507.054355163675
 20
877.4289998953793
 30
0.0
 11
2515.454355795484
 21
877.4289998953793
 31
0.0
  0
ARC
  5
4FB
330
4B8
100
AcDbEntity
  8
0
  6
Continuous
 62
     7
370
    15
100
AcDbCircle
 10
2511.354354162317
 20
871.629000494406
 30
0.0
 40
4.099999999999994
100
AcDbArc
 50
180.0
 51
0.0
  0
LINE
  5
4FC
330
4B8
100
AcDbEntity
  8
0
  6
Continuous
 62
     7
370
    15
100
AcDbLine
 10
2515.454355795484
 20
871.6290004348014
 30
0.0
 11
2515.454355795484
 21
875.7290009205792
 31
0.0
  0
ARC
  5
4FD
330
4B8
100
AcDbEntity
  8
0
  6
Continuous
 62
     7
370
    15
100
AcDbCircle
 10
2514.954354162317
 20
875.729000494406
 30
0.0
 40
0.5
100
AcDbArc
 50
0.0
 51
90.0
  0
LINE
  5
4FE
330
4B8
100
AcDbEntity
  8
0
  6
Continuous
 62
     7
370
    15
100
AcDbLine
 10
2514.954354782205
 20
876.229000071213
 30
0.0
 11
2507.754355837207
 21
876.229000071213
 31
0.0
  0
ARC
  5
4FF
330
4B8
100
AcDbEntity
  8
0
  6
Continuous
 62
     7
370
    15
100
AcDbCircle
 10
2507.754354162317
 20
875.729000494406
 30
0.0
 40
0.5
100
AcDbArc
 50
90.0
 51
180.0
  0
LINE
  5
500
330
4B8
100
AcDbEntity
  8
0
  6
Continuous
 62
     7
370
    15
100
AcDbLine
 10
2507.254354823928
 20
875.7290009205792
 30
0.0
 11
2507.254354823928
 21
871.6290004348014
 31
0.0
  0
INSERT
  5
501
330
4B8
100
AcDbEntity
  8
0
  6
Continuous
 62
     7
370
     0
100
AcDbBlockReference
  2
SW_CENTERMARKSYMBOL_0
 10
2511.354354162317
 20
871.629000494406
 30
0.0
  0
INSERT
  5
502
330
4B8
100
AcDbEntity
  8
0
  6
Continuous
 62
     7
370
     0
100
AcDbBlockReference
  2
SW_CENTERMARKSYMBOL_1
 10
2534.354354162317
 20
871.629000494406
 30
0.0
  0
INSERT
  5
503
330
4B8
100
AcDbEntity
  8
0
  6
Continuous
 62
     7
370
     0
100
AcDbBlockReference
  2
SW_CENTERMARKSYMBOL_2
 10
2557.354354162317
 20
871.629000494406
 30
0.0
  0
ENDBLK
  5
4BA
330
4B8
100
AcDbEntity
  8
0
100
AcDbBlockEnd
  0
BLOCK
  5
506
330
505
100
AcDbEntity
  8
0
100
AcDbBlockBegin
  2
3
 70
     0
 10
0.0
 20
0.0
 30
0.0
  3
3
  1

  0
LINE
  5
508
330
505
100
AcDbEntity
  8
0
  6
Continuous
 62
     7
370
    15
100
AcDbLine
 10
2609.750681367557
 20
834.7750935111427
 30
0.0
 11
2609.000681361038
 21
835.525093517662
 31
0.0
  0
LINE
  5
509
330
505
100
AcDbEntity
  8
0
  6
Continuous
 62
     7
370
    15
100
AcDbLine
 10
2609.750681367557
 20
770.675090990425
 30
0.0
 11
2609.750681367557
 21
834.7750935111427
 31
0.0
  0
LINE
  5
50A
330
505
100
AcDbEntity
  8
0
  6
Continuous
 62
     7
370
    15
100
AcDbLine
 10
2609.000681361038
 20
769.9250931957968
 30
0.0
 11
2609.750681367557
 21
770.675090990425
 31
0.0
  0
LINE
  5
50B
330
505
100
AcDbEntity
  8
0
  6
Continuous
 62
     7
370
    15
100
AcDbLine
 10
2609.000681361038
 20
835.525093517662
 30
0.0
 11
2609.000681361038
 21
769.9250931957968
 31
0.0
  0
LINE
  5
50C
330
505
100
AcDbEntity
  8
0
  6
Continuous
 62
     7
370
    15
100
AcDbLine
 10
2609.750681367557
 20
834.7750935111427
 30
0.0
 11
2638.250681033212
 21
834.7750935111427
 31
0.0
  0
LINE
  5
50D
330
505
100
AcDbEntity
  8
0
  6
Continuous
 62
     7
370
    15
100
AcDbLine
 10
2639.000680690485
 20
835.525093517662
 30
0.0
 11
2609.000681361038
 21
835.525093517662
 31
0.0
  0
LINE
  5
50E
330
505
100
AcDbEntity
  8
0
  6
Continuous
 62
     7
370
    15
100
AcDbLine
 10
2638.250681033212
 20
834.7750935111427
 30
0.0
 11
2639.000680690485
 21
835.525093517662
 31
0.0
  0
LINE
  5
50F
330
505
100
AcDbEntity
  8
0
  6
Continuous
 62
     7
370
    15
100
AcDbLine
 10
2639.000680690485
 20
769.9250931957968
 30
0.0
 11
2639.000680690485
 21
835.525093517662
 31
0.0
  0
LINE
  5
510
330
505
100
AcDbEntity
  8
0
  6
Continuous
 62
     7
370
    15
100
AcDbLine
 10
2638.250681033212
 20
770.675090990425
 30
0.0
 11
2639.000680690485
 21
769.9250931957968
 31
0.0
  0
LINE
  5
511
330
505
100
AcDbEntity
  8
0
  6
Continuous
 62
     7
370
    15
100
AcDbLine
 10
2638.250681033212
 20
834.7750935111427
 30
0.0
 11
2638.250681033212
 21
770.675090990425
 31
0.0
  0
CIRCLE
  5
512
330
505
100
AcDbEntity
  8
0
  6
Continuous
 62
     7
370
    15
100
AcDbCircle
 10
2624.000681361038
 20
791.525093517662
 30
0.0
 40
4.150000000000005
  0
CIRCLE
  5
513
330
505
100
AcDbEntity
  8
0
  6
Continuous
 62
     7
370
    15
100
AcDbCircle
 10
2624.000681361037
 20
814.5250935176619
 30
0.0
 40
4.149999999999991
  0
CIRCLE
  5
514
330
505
100
AcDbEntity
  8
0
  6
Continuous
 62
     7
370
    15
100
AcDbCircle
 10
2629.850681361038
 20
779.7250935176618
 30
0.0
 40
4.249999999999985
  0
CIRCLE
  5
515
330
505
100
AcDbEntity
  8
0
  6
Continuous
 62
     7
370
    15
100
AcDbCircle
 10
2618.150681361038
 20
779.7250935176618
 30
0.0
 40
4.25
  0
CIRCLE
  5
516
330
505
100
AcDbEntity
  8
0
  6
Continuous
 62
     7
370
    15
100
AcDbCircle
 10
2629.850681361038
 20
802.7250935176619
 30
0.0
 40
4.249999999999985
  0
CIRCLE
  5
517
330
505
100
AcDbEntity
  8
0
  6
Continuous
 62
     7
370
    15
100
AcDbCircle
 10
2618.150681361038
 20
802.7250935176619
 30
0.0
 40
4.25
  0
CIRCLE
  5
518
330
505
100
AcDbEntity
  8
0
  6
Continuous
 62
     7
370
    15
100
AcDbCircle
 10
2629.850681361038
 20
825.7250935176619
 30
0.0
 40
4.25
  0
CIRCLE
  5
519
330
505
100
AcDbEntity
  8
0
  6
Continuous
 62
     7
370
    15
100
AcDbCircle
 10
2618.150681361038
 20
825.7250935176619
 30
0.0
 40
4.25
  0
LINE
  5
51A
330
505
100
AcDbEntity
  8
0
  6
Continuous
 62
     7
370
    15
100
AcDbLine
 10
2638.250681033212
 20
770.675090990425
 30
0.0
 11
2609.750681367557
 21
770.675090990425
 31
0.0
  0
LINE
  5
51B
330
505
100
AcDbEntity
  8
0
  6
Continuous
 62
     7
370
    15
100
AcDbLine
 10
2609.000681361038
 20
769.9250931957968
 30
0.0
 11
2639.000680690485
 21
769.9250931957968
 31
0.0
  0
ARC
  5
51C
330
505
100
AcDbEntity
  8
0
  6
Continuous
 62
     7
370
    15
100
AcDbCircle
 10
2629.850681361038
 20
802.7250935176619
 30
0.0
 40
1.083265405568152
100
AcDbArc
 50
305.2673390208028
 51
327.0502324720693
  0
LINE
  5
51D
330
505
100
AcDbEntity
  8
0
  6
Continuous
 62
     7
370
    15
100
AcDbLine
 10
2632.059151699621
 20
802.1359014431247
 30
0.0
 11
2630.759701525647
 21
802.1359014431247
 31
0.0
  0
ARC
  5
51E
330
505
100
AcDbEntity
  8
0
  6
Continuous
 62
     7
370
    15
100
AcDbCircle
 10
2629.850681361038
 20
802.7250935176619
 30
0.0
 40
2.285714286348288
100
AcDbArc
 50
345.0621309252211
 51
14.93786907482335
  0
LINE
  5
51F
330
505
100
AcDbEntity
  8
0
  6
Continuous
 62
     7
370
    15
100
AcDbLine
 10
2630.759701525647
 20
803.3142852703342
 30
0.0
 11
2632.059151699621
 21
803.3142852703342
 31
0.0
  0
ARC
  5
520
330
505
100
AcDbEntity
  8
0
  6
Continuous
 62
     7
370
    15
100
AcDbCircle
 10
2629.850681361038
 20
802.7250935176619
 30
0.0
 40
1.083265405568129
100
AcDbArc
 50
32.9497675280497
 51
54.73266097919714
  0
LINE
  5
521
330
505
100
AcDbEntity
  8
0
  6
Continuous
 62
     7
370
    15
100
AcDbLine
 10
2630.476151054579
 20
805.3835592339048
 30
0.0
 11
2630.476151054579
 21
803.6095443288097
 31
0.0
  0
ARC
  5
522
330
505
100
AcDbEntity
  8
0
  6
Continuous
 62
     7
370
    15
100
AcDbCircle
 10
2629.850681361038
 20
802.7250935176619
 30
0.0
 40
2.731052608424145
100
AcDbArc
 50
283.2394559279645
 51
76.76054407203558
  0
LINE
  5
523
330
505
100
AcDbEntity
  8
0
  6
Continuous
 62
     7
370
    15
100
AcDbLine
 10
2630.476151054579
 20
801.8406423846492
 30
0.0
 11
2630.476151054579
 21
800.0666293421993
 31
0.0
  0
ARC
  5
524
330
505
100
AcDbEntity
  8
0
  6
Continuous
 62
     7
370
    15
100
AcDbCircle
 10
2618.150681361038
 20
802.7250935176619
 30
0.0
 40
1.08326540556812
100
AcDbArc
 50
125.2673390207665
 51
147.0502324719394
  0
LINE
  5
525
330
505
100
AcDbEntity
  8
0
  6
Continuous
 62
     7
370
    15
100
AcDbLine
 10
2615.942210817564
 20
803.3142852703342
 30
0.0
 11
2617.241661457199
 21
803.3142852703342
 31
0.0
  0
ARC
  5
526
330
505
100
AcDbEntity
  8
0
  6
Continuous
 62
     7
370
    15
100
AcDbCircle
 10
2618.150681361038
 20
802.7250935176619
 30
0.0
 40
2.2857142863487
100
AcDbArc
 50
165.0621309251704
 51
194.9378690747788
  0
LINE
  5
527
330
505
100
AcDbEntity
  8
0
  6
Continuous
 62
     7
370
    15
100
AcDbLine
 10
2617.241661457199
 20
802.1359014431247
 30
0.0
 11
2615.942210817564
 21
802.1359014431247
 31
0.0
  0
ARC
  5
528
330
505
100
AcDbEntity
  8
0
  6
Continuous
 62
     7
370
    15
100
AcDbCircle
 10
2618.150681361038
 20
802.7250935176619
 30
0.0
 40
1.083265405568141
100
AcDbArc
 50
212.9497675279306
 51
234.7326609792335
  0
LINE
  5
529
330
505
100
AcDbEntity
  8
0
  6
Continuous
 62
     7
370
    15
100
AcDbLine
 10
2617.525211928267
 20
800.0666293421993
 30
0.0
 11
2617.525211928267
 21
801.8406423846492
 31
0.0
  0
ARC
  5
52A
330
505
100
AcDbEntity
  8
0
  6
Continuous
 62
     7
370
    15
100
AcDbCircle
 10
2618.150681361038
 20
802.7250935176619
 30
0.0
 40
2.731052608424141
100
AcDbArc
 50
103.2394559279375
 51
256.7605440720624
  0
LINE
  5
52B
330
505
100
AcDbEntity
  8
0
  6
Continuous
 62
     7
370
    15
100
AcDbLine
 10
2617.525211928267
 20
803.6095443288097
 30
0.0
 11
2617.525211928267
 21
805.3835592339048
 31
0.0
  0
ARC
  5
52C
330
505
100
AcDbEntity
  8
0
  6
Continuous
 62
     7
370
    15
100
AcDbCircle
 10
2629.850681361038
 20
802.7250935176619
 30
0.0
 40
1.083265405568134
100
AcDbArc
 50
125.2673390207665
 51
147.0502324719394
  0
LINE
  5
52D
330
505
100
AcDbEntity
  8
0
  6
Continuous
 62
     7
370
    15
100
AcDbLine
 10
2627.64221096583
 20
803.3142852703342
 30
0.0
 11
2628.941661139804
 21
803.3142852703342
 31
0.0
  0
ARC
  5
52E
330
505
100
AcDbEntity
  8
0
  6
Continuous
 62
     7
370
    15
100
AcDbCircle
 10
2629.850681361038
 20
802.7250935176619
 30
0.0
 40
2.285714286348707
100
AcDbArc
 50
165.0621309251704
 51
194.9378690747788
  0
LINE
  5
52F
330
505
100
AcDbEntity
  8
0
  6
Continuous
 62
     7
370
    15
100
AcDbLine
 10
2628.941661139804
 20
802.1359014431247
 30
0.0
 11
2627.64221096583
 21
802.1359014431247
 31
0.0
  0
ARC
  5
530
330
505
100
AcDbEntity
  8
0
  6
Continuous
 62
     7
370
    15
100
AcDbCircle
 10
2629.850681361038
 20
802.7250935176619
 30
0.0
 40
1.083265405568134
100
AcDbArc
 50
212.9497675279306
 51
234.7326609792335
  0
LINE
  5
531
330
505
100
AcDbEntity
  8
0
  6
Continuous
 62
     7
370
    15
100
AcDbLine
 10
2629.225211610872
 20
800.0666293421993
 30
0.0
 11
2629.225211610872
 21
801.8406423846492
 31
0.0
  0
ARC
  5
532
330
505
100
AcDbEntity
  8
0
  6
Continuous
 62
     7
370
    15
100
AcDbCircle
 10
2629.850681361038
 20
802.7250935176619
 30
0.0
 40
2.731052608424147
100
AcDbArc
 50
103.2394559279375
 51
256.7605440720624
  0
LINE
  5
533
330
505
100
AcDbEntity
  8
0
  6
Continuous
 62
     7
370
    15
100
AcDbLine
 10
2629.225211610872
 20
803.6095443288097
 30
0.0
 11
2629.225211610872
 21
805.3835592339048
 31
0.0
  0
CIRCLE
  5
534
330
505
100
AcDbEntity
  8
0
  6
Continuous
 62
     7
370
    15
100
AcDbCircle
 10
2629.850681361038
 20
802.7250935176619
 30
0.0
 40
3.000085598030167
  0
LINE
  5
535
330
505
100
AcDbEntity
  8
0
  6
Continuous
 62
     7
370
    15
100
AcDbLine
 10
2630.476151054579
 20
800.0666293421993
 30
0.0
 11
2630.476151054579
 21
799.9745699683436
 31
0.0
  0
LINE
  5
536
330
505
100
AcDbEntity
  8
0
  6
Continuous
 62
     7
370
    15
100
AcDbLine
 10
2630.476151054579
 20
805.4756186077604
 30
0.0
 11
2630.476151054579
 21
805.3835592339048
 31
0.0
  0
ARC
  5
537
330
505
100
AcDbEntity
  8
0
  6
Continuous
 62
     7
370
    15
100
AcDbCircle
 10
2629.850681361038
 20
802.7250935176619
 30
0.0
 40
2.820744303186412
100
AcDbArc
 50
77.18880492601805
 51
102.8111950739805
  0
LINE
  5
538
330
505
100
AcDbEntity
  8
0
  6
Continuous
 62
     7
370
    15
100
AcDbLine
 10
2629.225211610872
 20
799.9745699683436
 30
0.0
 11
2629.225211610872
 21
800.0666293421993
 31
0.0
  0
ARC
  5
539
330
505
100
AcDbEntity
  8
0
  6
Continuous
 62
     7
370
    15
100
AcDbCircle
 10
2629.850681361038
 20
802.7250935176619
 30
0.0
 40
2.820744303186434
100
AcDbArc
 50
257.1888049260195
 51
282.811195073982
  0
LINE
  5
53A
330
505
100
AcDbEntity
  8
0
  6
Continuous
 62
     7
370
    15
100
AcDbLine
 10
2629.225211610872
 20
805.3835592339048
 30
0.0
 11
2629.225211610872
 21
805.4756186077604
 31
0.0
  0
ARC
  5
53B
330
505
100
AcDbEntity
  8
0
  6
Continuous
 62
     7
370
    15
100
AcDbCircle
 10
2618.150681361038
 20
802.7250935176619
 30
0.0
 40
1.083265405568158
100
AcDbArc
 50
305.2673390208028
 51
327.0502324720748
  0
LINE
  5
53C
330
505
100
AcDbEntity
  8
0
  6
Continuous
 62
     7
370
    15
100
AcDbLine
 10
2620.359152017015
 20
802.1359014431247
 30
0.0
 11
2619.059700911719
 21
802.1359014431247
 31
0.0
  0
ARC
  5
53D
330
505
100
AcDbEntity
  8
0
  6
Continuous
 62
     7
370
    15
100
AcDbCircle
 10
2618.150681361038
 20
802.7250935176619
 30
0.0
 40
2.285714286348288
100
AcDbArc
 50
345.0621309252211
 51
14.93786907482335
  0
LINE
  5
53E
330
505
100
AcDbEntity
  8
0
  6
Continuous
 62
     7
370
    15
100
AcDbLine
 10
2619.059700911719
 20
803.3142852703342
 30
0.0
 11
2620.359152017015
 21
803.3142852703342
 31
0.0
  0
ARC
  5
53F
330
505
100
AcDbEntity
  8
0
  6
Continuous
 62
     7
370
    15
100
AcDbCircle
 10
2618.150681361038
 20
802.7250935176619
 30
0.0
 40
1.083265405568148
100
AcDbArc
 50
32.94976752804424
 51
54.73266097919714
  0
LINE
  5
540
330
505
100
AcDbEntity
  8
0
  6
Continuous
 62
     7
370
    15
100
AcDbLine
 10
2618.776150440651
 20
805.3835592339048
 30
0.0
 11
2618.776150440651
 21
803.6095443288097
 31
0.0
  0
ARC
  5
541
330
505
100
AcDbEntity
  8
0
  6
Continuous
 62
     7
370
    15
100
AcDbCircle
 10
2618.150681361038
 20
802.7250935176619
 30
0.0
 40
2.731052608424145
100
AcDbArc
 50
283.2394559279645
 51
76.76054407203558
  0
LINE
  5
542
330
505
100
AcDbEntity
  8
0
  6
Continuous
 62
     7
370
    15
100
AcDbLine
 10
2618.776150440651
 20
801.8406423846492
 30
0.0
 11
2618.776150440651
 21
800.0666293421993
 31
0.0
  0
CIRCLE
  5
543
330
505
100
AcDbEntity
  8
0
  6
Continuous
 62
     7
370
    15
100
AcDbCircle
 10
2618.150681361038
 20
802.7250935176619
 30
0.0
 40
3.000085598030167
  0
LINE
  5
544
330
505
100
AcDbEntity
  8
0
  6
Continuous
 62
     7
370
    15
100
AcDbLine
 10
2618.776150440651
 20
800.0666293421993
 30
0.0
 11
2618.776150440651
 21
799.9745699683436
 31
0.0
  0
ARC
  5
545
330
505
100
AcDbEntity
  8
0
  6
Continuous
 62
     7
370
    15
100
AcDbCircle
 10
2618.150681361038
 20
802.7250935176619
 30
0.0
 40
2.820744303186412
100
AcDbArc
 50
77.18880492601805
 51
102.8111950739805
  0
LINE
  5
546
330
505
100
AcDbEntity
  8
0
  6
Continuous
 62
     7
370
    15
100
AcDbLine
 10
2617.525211928267
 20
799.9745699683436
 30
0.0
 11
2617.525211928267
 21
800.0666293421993
 31
0.0
  0
ARC
  5
547
330
505
100
AcDbEntity
  8
0
  6
Continuous
 62
     7
370
    15
100
AcDbCircle
 10
2618.150681361038
 20
802.7250935176619
 30
0.0
 40
2.820744303186427
100
AcDbArc
 50
257.1888049260195
 51
282.811195073982
  0
LINE
  5
548
330
505
100
AcDbEntity
  8
0
  6
Continuous
 62
     7
370
    15
100
AcDbLine
 10
2618.776150440651
 20
805.4756186077604
 30
0.0
 11
2618.776150440651
 21
805.3835592339048
 31
0.0
  0
LINE
  5
549
330
505
100
AcDbEntity
  8
0
  6
Continuous
 62
     7
370
    15
100
AcDbLine
 10
2617.525211928267
 20
805.3835592339048
 30
0.0
 11
2617.525211928267
 21
805.4756186077604
 31
0.0
  0
CIRCLE
  5
54A
330
505
100
AcDbEntity
  8
0
  6
Continuous
 62
     7
370
    15
100
AcDbCircle
 10
2629.850681361038
 20
825.7250935176619
 30
0.0
 40
3.000085598026316
  0
LINE
  5
54B
330
505
100
AcDbEntity
  8
0
  6
Continuous
 62
     7
370
    15
100
AcDbLine
 10
2630.476151054579
 20
823.0666284555802
 30
0.0
 11
2630.476151054579
 21
822.9745690817246
 31
0.0
  0
ARC
  5
54C
330
505
100
AcDbEntity
  8
0
  6
Continuous
 62
     7
370
    15
100
AcDbCircle
 10
2629.850681361038
 20
825.7250935176619
 30
0.0
 40
2.731052608420285
100
AcDbArc
 50
283.2394559279912
 51
76.76054407200874
  0
ARC
  5
54D
330
505
100
AcDbEntity
  8
0
  6
Continuous
 62
     7
370
    15
100
AcDbCircle
 10
2629.850681361038
 20
825.7250935176619
 30
0.0
 40
2.820744303182574
100
AcDbArc
 50
77.18880492599264
 51
102.8111950739819
  0
ARC
  5
54E
330
505
100
AcDbEntity
  8
0
  6
Continuous
 62
     7
370
    15
100
AcDbCircle
 10
2629.850681361038
 20
825.7250935176619
 30
0.0
 40
2.731052608420288
100
AcDbArc
 50
103.2394559279644
 51
256.7605440720356
  0
LINE
  5
54F
330
505
100
AcDbEntity
  8
0
  6
Continuous
 62
     7
370
    15
100
AcDbLine
 10
2629.225211610872
 20
822.9745690817246
 30
0.0
 11
2629.225211610872
 21
823.0666284555802
 31
0.0
  0
ARC
  5
550
330
505
100
AcDbEntity
  8
0
  6
Continuous
 62
     7
370
    15
100
AcDbCircle
 10
2629.850681361038
 20
825.7250935176619
 30
0.0
 40
2.820744303182567
100
AcDbArc
 50
257.1888049260181
 51
282.8111950740074
  0
LINE
  5
551
330
505
100
AcDbEntity
  8
0
  6
Continuous
 62
     7
370
    15
100
AcDbLine
 10
2629.225211610872
 20
828.383558812947
 30
0.0
 11
2629.225211610872
 21
828.4756181868026
 31
0.0
  0
LINE
  5
552
330
505
100
AcDbEntity
  8
0
  6
Continuous
 62
     7
370
    15
100
AcDbLine
 10
2630.476151054579
 20
828.4756181868026
 30
0.0
 11
2630.476151054579
 21
828.383558812947
 31
0.0
  0
CIRCLE
  5
553
330
505
100
AcDbEntity
  8
0
  6
Continuous
 62
     7
370
    15
100
AcDbCircle
 10
2618.150681361038
 20
825.7250935176619
 30
0.0
 40
3.000085598026316
  0
LINE
  5
554
330
505
100
AcDbEntity
  8
0
  6
Continuous
 62
     7
370
    15
100
AcDbLine
 10
2618.776150440651
 20
823.0666284555802
 30
0.0
 11
2618.776150440651
 21
822.9745690817246
 31
0.0
  0
ARC
  5
555
330
505
100
AcDbEntity
  8
0
  6
Continuous
 62
     7
370
    15
100
AcDbCircle
 10
2618.150681361038
 20
825.7250935176619
 30
0.0
 40
2.731052608420285
100
AcDbArc
 50
283.2394559279912
 51
76.76054407200874
  0
ARC
  5
556
330
505
100
AcDbEntity
  8
0
  6
Continuous
 62
     7
370
    15
100
AcDbCircle
 10
2618.150681361038
 20
825.7250935176619
 30
0.0
 40
2.820744303182574
100
AcDbArc
 50
77.18880492599264
 51
102.8111950739819
  0
ARC
  5
557
330
505
100
AcDbEntity
  8
0
  6
Continuous
 62
     7
370
    15
100
AcDbCircle
 10
2618.150681361038
 20
825.7250935176619
 30
0.0
 40
2.731052608420281
100
AcDbArc
 50
103.2394559279644
 51
256.7605440720356
  0
LINE
  5
558
330
505
100
AcDbEntity
  8
0
  6
Continuous
 62
     7
370
    15
100
AcDbLine
 10
2617.525211928267
 20
822.9745690817246
 30
0.0
 11
2617.525211928267
 21
823.0666284555802
 31
0.0
  0
ARC
  5
559
330
505
100
AcDbEntity
  8
0
  6
Continuous
 62
     7
370
    15
100
AcDbCircle
 10
2618.150681361038
 20
825.7250935176619
 30
0.0
 40
2.820744303182561
100
AcDbArc
 50
257.1888049260181
 51
282.8111950740074
  0
LINE
  5
55A
330
505
100
AcDbEntity
  8
0
  6
Continuous
 62
     7
370
    15
100
AcDbLine
 10
2617.525211928267
 20
828.383558812947
 30
0.0
 11
2617.525211928267
 21
828.4756181868026
 31
0.0
  0
LINE
  5
55B
330
505
100
AcDbEntity
  8
0
  6
Continuous
 62
     7
370
    15
100
AcDbLine
 10
2618.776150440651
 20
828.4756181868026
 30
0.0
 11
2618.776150440651
 21
828.383558812947
 31
0.0
  0
ARC
  5
55C
330
505
100
AcDbEntity
  8
0
  6
Continuous
 62
     7
370
    15
100
AcDbCircle
 10
2618.150681361038
 20
825.7250935176619
 30
0.0
 40
1.083265405568129
100
AcDbArc
 50
125.2673390207665
 51
147.0502324719394
  0
LINE
  5
55D
330
505
100
AcDbEntity
  8
0
  6
Continuous
 62
     7
370
    15
100
AcDbLine
 10
2615.942210817564
 20
826.3142853150377
 30
0.0
 11
2617.241661457199
 21
826.3142853150377
 31
0.0
  0
ARC
  5
55E
330
505
100
AcDbEntity
  8
0
  6
Continuous
 62
     7
370
    15
100
AcDbCircle
 10
2618.150681361038
 20
825.7250935176619
 30
0.0
 40
2.285714286348696
100
AcDbArc
 50
165.0621309251704
 51
194.9378690747788
  0
LINE
  5
55F
330
505
100
AcDbEntity
  8
0
  6
Continuous
 62
     7
370
    15
100
AcDbLine
 10
2617.241661457199
 20
825.1359014878282
 30
0.0
 11
2615.942210817564
 21
825.1359014878282
 31
0.0
  0
ARC
  5
560
330
505
100
AcDbEntity
  8
0
  6
Continuous
 62
     7
370
    15
100
AcDbCircle
 10
2618.150681361038
 20
825.7250935176619
 30
0.0
 40
1.083265405568129
100
AcDbArc
 50
212.9497675279306
 51
234.7326609792335
  0
LINE
  5
561
330
505
100
AcDbEntity
  8
0
  6
Continuous
 62
     7
370
    15
100
AcDbLine
 10
2617.525211928267
 20
823.0666284555802
 30
0.0
 11
2617.525211928267
 21
824.8406433606753
 31
0.0
  0
LINE
  5
562
330
505
100
AcDbEntity
  8
0
  6
Continuous
 62
     7
370
    15
100
AcDbLine
 10
2617.525211928267
 20
826.6095434421906
 30
0.0
 11
2617.525211928267
 21
828.383558812947
 31
0.0
  0
ARC
  5
563
330
505
100
AcDbEntity
  8
0
  6
Continuous
 62
     7
370
    15
100
AcDbCircle
 10
2629.850681361038
 20
825.7250935176619
 30
0.0
 40
1.083265405568146
100
AcDbArc
 50
125.2673390207665
 51
147.0502324719394
  0
LINE
  5
564
330
505
100
AcDbEntity
  8
0
  6
Continuous
 62
     7
370
    15
100
AcDbLine
 10
2627.64221096583
 20
826.3142853150377
 30
0.0
 11
2628.941661139804
 21
826.3142853150377
 31
0.0
  0
ARC
  5
565
330
505
100
AcDbEntity
  8
0
  6
Continuous
 62
     7
370
    15
100
AcDbCircle
 10
2629.850681361038
 20
825.7250935176619
 30
0.0
 40
2.285714286348723
100
AcDbArc
 50
165.0621309251704
 51
194.9378690747788
  0
LINE
  5
566
330
505
100
AcDbEntity
  8
0
  6
Continuous
 62
     7
370
    15
100
AcDbLine
 10
2628.941661139804
 20
825.1359014878282
 30
0.0
 11
2627.64221096583
 21
825.1359014878282
 31
0.0
  0
ARC
  5
567
330
505
100
AcDbEntity
  8
0
  6
Continuous
 62
     7
370
    15
100
AcDbCircle
 10
2629.850681361038
 20
825.7250935176619
 30
0.0
 40
1.083265405568129
100
AcDbArc
 50
212.9497675279306
 51
234.7326609792335
  0
LINE
  5
568
330
505
100
AcDbEntity
  8
0
  6
Continuous
 62
     7
370
    15
100
AcDbLine
 10
2629.225211610872
 20
823.0666284555802
 30
0.0
 11
2629.225211610872
 21
824.8406433606753
 31
0.0
  0
LINE
  5
569
330
505
100
AcDbEntity
  8
0
  6
Continuous
 62
     7
370
    15
100
AcDbLine
 10
2629.225211610872
 20
826.6095434421906
 30
0.0
 11
2629.225211610872
 21
828.383558812947
 31
0.0
  0
ARC
  5
56A
330
505
100
AcDbEntity
  8
0
  6
Continuous
 62
     7
370
    15
100
AcDbCircle
 10
2618.150681361038
 20
825.7250935176619
 30
0.0
 40
1.08326540556815
100
AcDbArc
 50
305.2673390208028
 51
327.0502324720748
  0
LINE
  5
56B
330
505
100
AcDbEntity
  8
0
  6
Continuous
 62
     7
370
    15
100
AcDbLine
 10
2620.359152017015
 20
825.1359014878282
 30
0.0
 11
2619.059700911719
 21
825.1359014878282
 31
0.0
  0
ARC
  5
56C
330
505
100
AcDbEntity
  8
0
  6
Continuous
 62
     7
370
    15
100
AcDbCircle
 10
2618.150681361038
 20
825.7250935176619
 30
0.0
 40
2.285714286348288
100
AcDbArc
 50
345.0621309252211
 51
14.93786907482335
  0
LINE
  5
56D
330
505
100
AcDbEntity
  8
0
  6
Continuous
 62
     7
370
    15
100
AcDbLine
 10
2619.059700911719
 20
826.3142853150377
 30
0.0
 11
2620.359152017015
 21
826.3142853150377
 31
0.0
  0
ARC
  5
56E
330
505
100
AcDbEntity
  8
0
  6
Continuous
 62
     7
370
    15
100
AcDbCircle
 10
2618.150681361038
 20
825.7250935176619
 30
0.0
 40
1.083265405568156
100
AcDbArc
 50
32.94976752804424
 51
54.73266097919714
  0
LINE
  5
56F
330
505
100
AcDbEntity
  8
0
  6
Continuous
 62
     7
370
    15
100
AcDbLine
 10
2618.776150440651
 20
824.8406433606753
 30
0.0
 11
2618.776150440651
 21
823.0666284555802
 31
0.0
  0
LINE
  5
570
330
505
100
AcDbEntity
  8
0
  6
Continuous
 62
     7
370
    15
100
AcDbLine
 10
2618.776150440651
 20
828.383558812947
 30
0.0
 11
2618.776150440651
 21
826.6095434421906
 31
0.0
  0
ARC
  5
571
330
505
100
AcDbEntity
  8
0
  6
Continuous
 62
     7
370
    15
100
AcDbCircle
 10
2629.850681361038
 20
825.7250935176619
 30
0.0
 40
1.08326540556814
100
AcDbArc
 50
305.2673390208028
 51
327.0502324720748
  0
LINE
  5
572
330
505
100
AcDbEntity
  8
0
  6
Continuous
 62
     7
370
    15
100
AcDbLine
 10
2632.059151699621
 20
825.1359014878282
 30
0.0
 11
2630.759701525647
 21
825.1359014878282
 31
0.0
  0
ARC
  5
573
330
505
100
AcDbEntity
  8
0
  6
Continuous
 62
     7
370
    15
100
AcDbCircle
 10
2629.850681361038
 20
825.7250935176619
 30
0.0
 40
2.285714286348284
100
AcDbArc
 50
345.0621309252211
 51
14.93786907482335
  0
LINE
  5
574
330
505
100
AcDbEntity
  8
0
  6
Continuous
 62
     7
370
    15
100
AcDbLine
 10
2630.759701525647
 20
826.3142853150377
 30
0.0
 11
2632.059151699621
 21
826.3142853150377
 31
0.0
  0
ARC
  5
575
330
505
100
AcDbEntity
  8
0
  6
Continuous
 62
     7
370
    15
100
AcDbCircle
 10
2629.850681361038
 20
825.7250935176619
 30
0.0
 40
1.08326540556814
100
AcDbArc
 50
32.94976752804424
 51
54.73266097919714
  0
LINE
  5
576
330
505
100
AcDbEntity
  8
0
  6
Continuous
 62
     7
370
    15
100
AcDbLine
 10
2630.476151054579
 20
824.8406433606753
 30
0.0
 11
2630.476151054579
 21
823.0666284555802
 31
0.0
  0
LINE
  5
577
330
505
100
AcDbEntity
  8
0
  6
Continuous
 62
     7
370
    15
100
AcDbLine
 10
2630.476151054579
 20
828.383558812947
 30
0.0
 11
2630.476151054579
 21
826.6095434421906
 31
0.0
  0
CIRCLE
  5
578
330
505
100
AcDbEntity
  8
0
  6
Continuous
 62
     7
370
    15
100
AcDbCircle
 10
2629.850681361038
 20
779.7250935176618
 30
0.0
 40
3.000085598026942
  0
LINE
  5
579
330
505
100
AcDbEntity
  8
0
  6
Continuous
 62
     7
370
    15
100
AcDbLine
 10
2630.476151054579
 20
777.0666274348505
 30
0.0
 11
2630.476151054579
 21
776.974568060995
 31
0.0
  0
ARC
  5
57A
330
505
100
AcDbEntity
  8
0
  6
Continuous
 62
     7
370
    15
100
AcDbCircle
 10
2629.850681361038
 20
779.7250935176618
 30
0.0
 40
2.731052608420908
100
AcDbArc
 50
283.2394559279897
 51
76.76054407201021
  0
LINE
  5
57B
330
505
100
AcDbEntity
  8
0
  6
Continuous
 62
     7
370
    15
100
AcDbLine
 10
2630.476151054579
 20
782.4756185630568
 30
0.0
 11
2630.476151054579
 21
782.3835591892012
 31
0.0
  0
ARC
  5
57C
330
505
100
AcDbEntity
  8
0
  6
Continuous
 62
     7
370
    15
100
AcDbCircle
 10
2629.850681361038
 20
779.7250935176618
 30
0.0
 40
2.820744303183211
100
AcDbArc
 50
77.18880492599264
 51
102.8111950739819
  0
ARC
  5
57D
330
505
100
AcDbEntity
  8
0
  6
Continuous
 62
     7
370
    15
100
AcDbCircle
 10
2629.850681361038
 20
779.7250935176618
 30
0.0
 40
2.731052608420918
100
AcDbArc
 50
103.2394559279644
 51
256.7605440720356
  0
LINE
  5
57E
330
505
100
AcDbEntity
  8
0
  6
Continuous
 62
     7
370
    15
100
AcDbLine
 10
2629.225211610872
 20
776.974568060995
 30
0.0
 11
2629.225211610872
 21
777.0666274348505
 31
0.0
  0
ARC
  5
57F
330
505
100
AcDbEntity
  8
0
  6
Continuous
 62
     7
370
    15
100
AcDbCircle
 10
2629.850681361038
 20
779.7250935176618
 30
0.0
 40
2.820744303183185
100
AcDbArc
 50
257.1888049260181
 51
282.8111950740074
  0
LINE
  5
580
330
505
100
AcDbEntity
  8
0
  6
Continuous
 62
     7
370
    15
100
AcDbLine
 10
2629.225211610872
 20
782.3835591892012
 30
0.0
 11
2629.225211610872
 21
782.4756185630568
 31
0.0
  0
CIRCLE
  5
581
330
505
100
AcDbEntity
  8
0
  6
Continuous
 62
     7
370
    15
100
AcDbCircle
 10
2618.150681361038
 20
779.7250935176618
 30
0.0
 40
3.000085598026942
  0
LINE
  5
582
330
505
100
AcDbEntity
  8
0
  6
Continuous
 62
     7
370
    15
100
AcDbLine
 10
2618.776150440651
 20
777.0666274348505
 30
0.0
 11
2618.776150440651
 21
776.974568060995
 31
0.0
  0
ARC
  5
583
330
505
100
AcDbEntity
  8
0
  6
Continuous
 62
     7
370
    15
100
AcDbCircle
 10
2618.150681361038
 20
779.7250935176618
 30
0.0
 40
2.731052608420908
100
AcDbArc
 50
283.2394559279897
 51
76.76054407201021
  0
LINE
  5
584
330
505
100
AcDbEntity
  8
0
  6
Continuous
 62
     7
370
    15
100
AcDbLine
 10
2618.776150440651
 20
782.4756185630568
 30
0.0
 11
2618.776150440651
 21
782.3835591892012
 31
0.0
  0
ARC
  5
585
330
505
100
AcDbEntity
  8
0
  6
Continuous
 62
     7
370
    15
100
AcDbCircle
 10
2618.150681361038
 20
779.7250935176618
 30
0.0
 40
2.820744303183211
100
AcDbArc
 50
77.18880492599264
 51
102.8111950739819
  0
LINE
  5
586
330
505
100
AcDbEntity
  8
0
  6
Continuous
 62
     7
370
    15
100
AcDbLine
 10
2617.525211928267
 20
782.3835591892012
 30
0.0
 11
2617.525211928267
 21
782.4756185630568
 31
0.0
  0
ARC
  5
587
330
505
100
AcDbEntity
  8
0
  6
Continuous
 62
     7
370
    15
100
AcDbCircle
 10
2618.150681361038
 20
779.7250935176618
 30
0.0
 40
2.731052608420918
100
AcDbArc
 50
103.2394559279644
 51
256.7605440720356
  0
LINE
  5
588
330
505
100
AcDbEntity
  8
0
  6
Continuous
 62
     7
370
    15
100
AcDbLine
 10
2617.525211928267
 20
776.974568060995
 30
0.0
 11
2617.525211928267
 21
777.0666274348505
 31
0.0
  0
ARC
  5
589
330
505
100
AcDbEntity
  8
0
  6
Continuous
 62
     7
370
    15
100
AcDbCircle
 10
2618.150681361038
 20
779.7250935176618
 30
0.0
 40
2.820744303183185
100
AcDbArc
 50
257.1888049260181
 51
282.8111950740074
  0
ARC
  5
58A
330
505
100
AcDbEntity
  8
0
  6
Continuous
 62
     7
370
    15
100
AcDbCircle
 10
2618.150681361038
 20
779.7250935176618
 30
0.0
 40
1.08326540556815
100
AcDbArc
 50
305.2673390208028
 51
327.0502324720748
  0
LINE
  5
58B
330
505
100
AcDbEntity
  8
0
  6
Continuous
 62
     7
370
    15
100
AcDbLine
 10
2620.359152017015
 20
779.1359032610663
 30
0.0
 11
2619.059700911719
 21
779.1359032610663
 31
0.0
  0
ARC
  5
58C
330
505
100
AcDbEntity
  8
0
  6
Continuous
 62
     7
370
    15
100
AcDbCircle
 10
2618.150681361038
 20
779.7250935176618
 30
0.0
 40
2.285714286348284
100
AcDbArc
 50
345.0621309252211
 51
14.93786907482335
  0
LINE
  5
58D
330
505
100
AcDbEntity
  8
0
  6
Continuous
 62
     7
370
    15
100
AcDbLine
 10
2619.059700911719
 20
780.3142870882758
 30
0.0
 11
2620.359152017015
 21
780.3142870882758
 31
0.0
  0
ARC
  5
58E
330
505
100
AcDbEntity
  8
0
  6
Continuous
 62
     7
370
    15
100
AcDbCircle
 10
2618.150681361038
 20
779.7250935176618
 30
0.0
 40
1.083265405568148
100
AcDbArc
 50
32.94976752804424
 51
54.73266097919714
  0
LINE
  5
58F
330
505
100
AcDbEntity
  8
0
  6
Continuous
 62
     7
370
    15
100
AcDbLine
 10
2618.776150440651
 20
782.3835591892012
 30
0.0
 11
2618.776150440651
 21
780.609542421461
 31
0.0
  0
LINE
  5
590
330
505
100
AcDbEntity
  8
0
  6
Continuous
 62
     7
370
    15
100
AcDbLine
 10
2618.776150440651
 20
778.8406442025908
 30
0.0
 11
2618.776150440651
 21
777.0666274348505
 31
0.0
  0
ARC
  5
591
330
505
100
AcDbEntity
  8
0
  6
Continuous
 62
     7
370
    15
100
AcDbCircle
 10
2629.850681361038
 20
779.7250935176618
 30
0.0
 40
1.08326540556815
100
AcDbArc
 50
305.2673390208028
 51
327.0502324720748
  0
LINE
  5
592
330
505
100
AcDbEntity
  8
0
  6
Continuous
 62
     7
370
    15
100
AcDbLine
 10
2632.059151699621
 20
779.1359032610663
 30
0.0
 11
2630.759701525647
 21
779.1359032610663
 31
0.0
  0
ARC
  5
593
330
505
100
AcDbEntity
  8
0
  6
Continuous
 62
     7
370
    15
100
AcDbCircle
 10
2629.850681361038
 20
779.7250935176618
 30
0.0
 40
2.285714286348284
100
AcDbArc
 50
345.0621309252211
 51
14.93786907482335
  0
LINE
  5
594
330
505
100
AcDbEntity
  8
0
  6
Continuous
 62
     7
370
    15
100
AcDbLine
 10
2630.759701525647
 20
780.3142870882758
 30
0.0
 11
2632.059151699621
 21
780.3142870882758
 31
0.0
  0
ARC
  5
595
330
505
100
AcDbEntity
  8
0
  6
Continuous
 62
     7
370
    15
100
AcDbCircle
 10
2629.850681361038
 20
779.7250935176618
 30
0.0
 40
1.08326540556814
100
AcDbArc
 50
32.94976752804424
 51
54.73266097919714
  0
LINE
  5
596
330
505
100
AcDbEntity
  8
0
  6
Continuous
 62
     7
370
    15
100
AcDbLine
 10
2630.476151054579
 20
782.3835591892012
 30
0.0
 11
2630.476151054579
 21
780.609542421461
 31
0.0
  0
LINE
  5
597
330
505
100
AcDbEntity
  8
0
  6
Continuous
 62
     7
370
    15
100
AcDbLine
 10
2630.476151054579
 20
778.8406442025908
 30
0.0
 11
2630.476151054579
 21
777.0666274348505
 31
0.0
  0
ARC
  5
598
330
505
100
AcDbEntity
  8
0
  6
Continuous
 62
     7
370
    15
100
AcDbCircle
 10
2629.850681361038
 20
779.7250935176618
 30
0.0
 40
1.083265405568129
100
AcDbArc
 50
125.2673390207665
 51
147.0502324719394
  0
LINE
  5
599
330
505
100
AcDbEntity
  8
0
  6
Continuous
 62
     7
370
    15
100
AcDbLine
 10
2627.64221096583
 20
780.3142870882758
 30
0.0
 11
2628.941661139804
 21
780.3142870882758
 31
0.0
  0
ARC
  5
59A
330
505
100
AcDbEntity
  8
0
  6
Continuous
 62
     7
370
    15
100
AcDbCircle
 10
2629.850681361038
 20
779.7250935176618
 30
0.0
 40
2.285714286348711
100
AcDbArc
 50
165.0621309251704
 51
194.9378690747788
  0
LINE
  5
59B
330
505
100
AcDbEntity
  8
0
  6
Continuous
 62
     7
370
    15
100
AcDbLine
 10
2628.941661139804
 20
779.1359032610663
 30
0.0
 11
2627.64221096583
 21
779.1359032610663
 31
0.0
  0
ARC
  5
59C
330
505
100
AcDbEntity
  8
0
  6
Continuous
 62
     7
370
    15
100
AcDbCircle
 10
2629.850681361038
 20
779.7250935176618
 30
0.0
 40
1.083265405568129
100
AcDbArc
 50
212.9497675279306
 51
234.7326609792335
  0
LINE
  5
59D
330
505
100
AcDbEntity
  8
0
  6
Continuous
 62
     7
370
    15
100
AcDbLine
 10
2629.225211610872
 20
777.0666274348505
 30
0.0
 11
2629.225211610872
 21
778.8406442025908
 31
0.0
  0
LINE
  5
59E
330
505
100
AcDbEntity
  8
0
  6
Continuous
 62
     7
370
    15
100
AcDbLine
 10
2629.225211610872
 20
780.609542421461
 30
0.0
 11
2629.225211610872
 21
782.3835591892012
 31
0.0
  0
ARC
  5
59F
330
505
100
AcDbEntity
  8
0
  6
Continuous
 62
     7
370
    15
100
AcDbCircle
 10
2618.150681361038
 20
779.7250935176618
 30
0.0
 40
1.083265405568129
100
AcDbArc
 50
125.2673390207665
 51
147.0502324719394
  0
LINE
  5
5A0
330
505
100
AcDbEntity
  8
0
  6
Continuous
 62
     7
370
    15
100
AcDbLine
 10
2615.942210817564
 20
780.3142870882758
 30
0.0
 11
2617.241661457199
 21
780.3142870882758
 31
0.0
  0
ARC
  5
5A1
330
505
100
AcDbEntity
  8
0
  6
Continuous
 62
     7
370
    15
100
AcDbCircle
 10
2618.150681361038
 20
779.7250935176618
 30
0.0
 40
2.285714286348696
100
AcDbArc
 50
165.0621309251704
 51
194.9378690747788
  0
LINE
  5
5A2
330
505
100
AcDbEntity
  8
0
  6
Continuous
 62
     7
370
    15
100
AcDbLine
 10
2617.241661457199
 20
779.1359032610663
 30
0.0
 11
2615.942210817564
 21
779.1359032610663
 31
0.0
  0
ARC
  5
5A3
330
505
100
AcDbEntity
  8
0
  6
Continuous
 62
     7
370
    15
100
AcDbCircle
 10
2618.150681361038
 20
779.7250935176618
 30
0.0
 40
1.083265405568129
100
AcDbArc
 50
212.9497675279306
 51
234.7326609792335
  0
LINE
  5
5A4
330
505
100
AcDbEntity
  8
0
  6
Continuous
 62
     7
370
    15
100
AcDbLine
 10
2617.525211928267
 20
777.0666274348505
 30
0.0
 11
2617.525211928267
 21
778.8406442025908
 31
0.0
  0
LINE
  5
5A5
330
505
100
AcDbEntity
  8
0
  6
Continuous
 62
     7
370
    15
100
AcDbLine
 10
2617.525211928267
 20
780.609542421461
 30
0.0
 11
2617.525211928267
 21
782.3835591892012
 31
0.0
  0
CIRCLE
  5
5A6
330
505
100
AcDbEntity
  8
0
  6
Continuous
 62
     7
370
    15
100
AcDbCircle
 10
2624.000681361037
 20
814.5250935176619
 30
0.0
 40
2.59999999999998
  0
CIRCLE
  5
5A7
330
505
100
AcDbEntity
  8
0
  6
Continuous
 62
     7
370
    15
100
AcDbCircle
 10
2624.000681361038
 20
791.525093517662
 30
0.0
 40
2.600000000000008
  0
LINE
  5
5A8
330
505
100
AcDbEntity
  8
0
  6
Continuous
 62
     7
370
    15
100
AcDbLine
 10
2614.400681501109
 20
827.7250937292585
 30
0.0
 11
2614.400681501109
 21
823.7250930736074
 31
0.0
  0
LINE
  5
5A9
330
505
100
AcDbEntity
  8
0
  6
Continuous
 62
     7
370
    15
100
AcDbLine
 10
2633.600680550415
 20
827.7250937292585
 30
0.0
 11
2633.600680550415
 21
823.7250930736074
 31
0.0
  0
LINE
  5
5AA
330
505
100
AcDbEntity
  8
0
  6
Continuous
 62
     7
370
    15
100
AcDbLine
 10
2633.600680550415
 20
804.725093684555
 30
0.0
 11
2633.600680550415
 21
800.7250930289039
 31
0.0
  0
LINE
  5
5AB
330
505
100
AcDbEntity
  8
0
  6
Continuous
 62
     7
370
    15
100
AcDbLine
 10
2614.400681501109
 20
804.725093684555
 30
0.0
 11
2614.400681501109
 21
800.7250930289039
 31
0.0
  0
LINE
  5
5AC
330
505
100
AcDbEntity
  8
0
  6
Continuous
 62
     7
370
    15
100
AcDbLine
 10
2633.600680550415
 20
781.7250917772063
 30
0.0
 11
2633.600680550415
 21
777.7250948468455
 31
0.0
  0
LINE
  5
5AD
330
505
100
AcDbEntity
  8
0
  6
Continuous
 62
     7
370
    15
100
AcDbLine
 10
2614.400681501109
 20
781.7250917772063
 30
0.0
 11
2614.400681501109
 21
777.7250948468455
 31
0.0
  0
INSERT
  5
5AE
330
505
100
AcDbEntity
  8
0
  6
Continuous
 62
     7
370
     0
100
AcDbBlockReference
  2
SW_CENTERMARKSYMBOL_3
 10
2618.150681361038
 20
779.7250935176618
 30
0.0
  0
INSERT
  5
5AF
330
505
100
AcDbEntity
  8
0
  6
Continuous
 62
     7
370
     0
100
AcDbBlockReference
  2
SW_CENTERMARKSYMBOL_4
 10
2618.150681361038
 20
802.7250935176617
 30
0.0
  0
INSERT
  5
5B0
330
505
100
AcDbEntity
  8
0
  6
Continuous
 62
     7
370
     0
100
AcDbBlockReference
  2
SW_CENTERMARKSYMBOL_5
 10
2618.150681361038
 20
825.7250935176617
 30
0.0
  0
INSERT
  5
5B1
330
505
100
AcDbEntity
  8
0
  6
Continuous
 62
     7
370
     0
100
AcDbBlockReference
  2
SW_CENTERMARKSYMBOL_6
 10
2629.850681361038
 20
779.7250935176618
 30
0.0
  0
INSERT
  5
5B2
330
505
100
AcDbEntity
  8
0
  6
Continuous
 62
     7
370
     0
100
AcDbBlockReference
  2
SW_CENTERMARKSYMBOL_7
 10
2629.850681361038
 20
802.7250935176619
 30
0.0
  0
INSERT
  5
5B3
330
505
100
AcDbEntity
  8
0
  6
Continuous
 62
     7
370
     0
100
AcDbBlockReference
  2
SW_CENTERMARKSYMBOL_8
 10
2629.850681361038
 20
825.7250935176619
 30
0.0
  0
INSERT
  5
5B4
330
505
100
AcDbEntity
  8
0
  6
Continuous
 62
     7
370
     0
100
AcDbBlockReference
  2
SW_CENTERMARKSYMBOL_9
 10
2624.000681361037
 20
814.5250935176617
 30
0.0
  0
INSERT
  5
5B5
330
505
100
AcDbEntity
  8
0
  6
Continuous
 62
     7
370
     0
100
AcDbBlockReference
  2
SW_CENTERMARKSYMBOL_10
 10
2624.000681361038
 20
791.5250935176618
 30
0.0
  0
ENDBLK
  5
507
330
505
100
AcDbEntity
  8
0
100
AcDbBlockEnd
  0
BLOCK
  5
5B8
330
5B7
100
AcDbEntity
  8
0
100
AcDbBlockBegin
  2
4
 70
     0
 10
0.0
 20
0.0
 30
0.0
  3
4
  1

  0
LINE
  5
5BA
330
5B7
100
AcDbEntity
  8
0
  6
Continuous
 62
     7
370
    15
100
AcDbLine
 10
2745.581514275307
 20
904.4534046925532
 30
0.0
 11
2746.642174209353
 21
903.8409995060529
 31
0.0
  0
LINE
  5
5BB
330
5B7
100
AcDbEntity
  8
0
  6
Continuous
 62
     7
370
    15
100
AcDbLine
 10
2700.255969135922
 20
877.0628133068813
 30
0.0
 11
2746.642174209353
 21
903.8409995060529
 31
0.0
  0
LINE
  5
5BC
330
5B7
100
AcDbEntity
  8
0
  6
Continuous
 62
     7
370
    15
100
AcDbLine
 10
2700.255967818833
 20
878.2875236796682
 30
0.0
 11
2700.255969135922
 21
877.0628133068813
 31
0.0
  0
LINE
  5
5BD
330
5B7
100
AcDbEntity
  8
0
  6
Continuous
 62
     7
370
    15
100
AcDbLine
 10
2745.581514275307
 20
904.4534046925532
 30
0.0
 11
2700.255967818833
 21
878.2875236796682
 31
0.0
  0
LINE
  5
5BE
330
5B7
100
AcDbEntity
  8
0
  6
Continuous
 62
     7
370
    15
100
AcDbLine
 10
2700.255967818833
 20
878.2875236796682
 30
0.0
 11
2680.103424791434
 21
889.9213391366609
 31
0.0
  0
LINE
  5
5BF
330
5B7
100
AcDbEntity
  8
0
  6
Continuous
 62
     7
370
    15
100
AcDbLine
 10
2679.042766174478
 20
889.3089347104998
 30
0.0
 11
2700.255969135922
 21
877.0628133068813
 31
0.0
  0
LINE
  5
5C0
330
5B7
100
AcDbEntity
  8
0
  6
Continuous
 62
     7
370
    15
100
AcDbLine
 10
2679.042766174478
 20
889.3089347104998
 30
0.0
 11
2680.103424791434
 21
889.9213391366609
 31
0.0
  0
LINE
  5
5C1
330
5B7
100
AcDbEntity
  8
0
  6
Continuous
 62
     7
370
    15
100
AcDbLine
 10
2711.463611676735
 20
868.6309780292379
 30
0.0
 11
2711.463611676735
 21
875.3674396907932
 31
0.0
  0
LINE
  5
5C2
330
5B7
100
AcDbEntity
  8
0
  6
Continuous
 62
     7
370
    15
100
AcDbLine
 10
2711.463611676735
 20
875.3674396907932
 30
0.0
 11
2703.33188301874
 21
870.6730926585189
 31
0.0
  0
LINE
  5
5C3
330
5B7
100
AcDbEntity
  8
0
  6
Continuous
 62
     7
370
    15
100
AcDbLine
 10
2703.33188301874
 20
870.6730926585189
 30
0.0
 11
2703.33188301874
 21
863.9366309969636
 31
0.0
  0
LWPOLYLINE
  5
5C4
330
5B7
100
AcDbEntity
  8
0
  6
Continuous
 62
     7
370
    15
100
AcDbPolyline
 90
       33
 70
   128
 43
0.0
 10
2703.33188301874
 20
863.9366309969636
 10
2703.351462864051
 20
863.4877332382883
 10
2703.410007470811
 20
863.0657605748684
 10
2703.506958393276
 20
862.6747815355727
 10
2703.641380498245
 20
862.318559738996
 10
2703.811975135949
 20
862.0005227132457
 10
2704.01710648183
 20
861.7237390795821
 10
2704.254793634007
 20
861.4908698835357
 10
2704.522747491771
 20
861.304158705429
 10
2704.818391829007
 20
861.1654054224294
 10
2705.138873830906
 20
861.0759437739051
 10
2705.481114143348
 20
861.0366386951088
 10
2705.841809507083
 20
861.0478650239695
 10
2706.217490709641
 20
861.109517001441
 10
2706.604538390406
 20
861.2210002851581
 10
2706.999222553286
 20
861.3812395503583
 10
2707.397747347737
 20
861.5886948356321
 10
2707.796272142188
 20
861.841366483954
 10
2708.190958939246
 20
862.1368213742034
 10
2708.578006620012
 20
862.4722138306808
 10
2708.95368782257
 20
862.8443141370059
 10
2709.314383186304
 20
863.2495378107252
 10
2709.656620864569
 20
863.6839836227496
 10
2709.977105500645
 20
864.1434674352341
 10
2710.272747203703
 20
864.6235628836228
 10
2710.540703695646
 20
865.1196485213942
 10
2710.778390847822
 20
865.6269454619858
 10
2710.983519559525
 20
866.1405671856517
 10
2711.154116831407
 20
866.6555701082689
 10
2711.288536302199
 20
867.1669908430299
 10
2711.385487224664
 20
867.6699070347547
 10
2711.444034465602
 20
868.1594753830356
 10
2711.463611676735
 20
868.6309780292379
  0
LINE
  5
5C5
330
5B7
100
AcDbEntity
  8
0
  6
Continuous
 62
     7
370
    15
100
AcDbLine
 10
2727.727067675635
 20
878.0196713334472
 30
0.0
 11
2727.727067675635
 21
884.7561329950023
 31
0.0
  0
LINE
  5
5C6
330
5B7
100
AcDbEntity
  8
0
  6
Continuous
 62
     7
370
    15
100
AcDbLine
 10
2727.727067675635
 20
884.7561329950023
 30
0.0
 11
2719.595340334729
 21
880.0617867230673
 31
0.0
  0
LINE
  5
5C7
330
5B7
100
AcDbEntity
  8
0
  6
Continuous
 62
     7
370
    15
100
AcDbLine
 10
2719.595340334729
 20
880.0617867230673
 30
0.0
 11
2719.595340334729
 21
873.3253250615122
 31
0.0
  0
LWPOLYLINE
  5
5C8
330
5B7
100
AcDbEntity
  8
0
  6
Continuous
 62
     7
370
    15
100
AcDbPolyline
 90
       33
 70
   128
 43
0.0
 10
2719.595340334729
 20
873.3253250615122
 10
2719.614917545863
 20
872.8764257821582
 10
2719.673464786801
 20
872.454454639417
 10
2719.770415709266
 20
872.0634756001212
 10
2719.904835180057
 20
871.707252282866
 10
2720.075432451939
 20
871.3892167777943
 10
2720.280561163642
 20
871.1124316234521
 10
2720.518248315819
 20
870.8795624274058
 10
2720.786204807761
 20
870.6928527699776
 10
2721.081846510819
 20
870.5540979662995
 10
2721.402331146896
 20
870.4646378384536
 10
2721.74456882516
 20
870.4253312389788
 10
2722.105264188894
 20
870.4365575678396
 10
2722.480945391453
 20
870.4982095453109
 10
2722.867993072218
 20
870.609692829028
 10
2723.262679869276
 20
870.7699336149069
 10
2723.661204663727
 20
870.9773889001807
 10
2724.059729458178
 20
871.2300605485026
 10
2724.454413621058
 20
871.5255139180735
 10
2724.841461301824
 20
871.8609063745509
 10
2725.217142504382
 20
872.2330066808758
 10
2725.577839185205
 20
872.6382311149345
 10
2725.920076863469
 20
873.072676926959
 10
2726.240560182457
 20
873.532159979104
 10
2726.536203202604
 20
874.0122561878321
 10
2726.804159694546
 20
874.5083418256037
 10
2727.041845529634
 20
875.0156380058557
 10
2727.246975558426
 20
875.529260489861
 10
2727.417572830308
 20
876.0442634124782
 10
2727.551993618189
 20
876.5556849075784
 10
2727.648943223565
 20
877.058600338964
 10
2727.707489147413
 20
877.5481679269056
 10
2727.727067675635
 20
878.0196713334472
  0
LINE
  5
5C9
330
5B7
100
AcDbEntity
  8
0
  6
Continuous
 62
     7
370
    15
100
AcDbLine
 10
2743.990523839172
 20
887.4083647326989
 30
0.0
 11
2743.990523839172
 21
894.1448263942541
 31
0.0
  0
LINE
  5
5CA
330
5B7
100
AcDbEntity
  8
0
  6
Continuous
 62
     7
370
    15
100
AcDbLine
 10
2743.990523839172
 20
894.1448263942541
 30
0.0
 11
2735.858795675086
 21
889.4504796471069
 31
0.0
  0
LINE
  5
5CB
330
5B7
100
AcDbEntity
  8
0
  6
Continuous
 62
     7
370
    15
100
AcDbLine
 10
2735.858795675086
 20
889.4504796471069
 30
0.0
 11
2735.858795675086
 21
882.7140179855518
 31
0.0
  0
LWPOLYLINE
  5
5CC
330
5B7
100
AcDbEntity
  8
0
  6
Continuous
 62
     7
370
    15
100
AcDbPolyline
 90
       33
 70
   128
 43
0.0
 10
2735.858795675086
 20
882.7140179855518
 10
2735.878374203308
 20
882.2651194665372
 10
2735.936920127157
 20
881.8431475634566
 10
2736.033870391077
 20
881.4521681439911
 10
2736.168291178957
 20
881.0959455870753
 10
2736.338887792296
 20
880.777909701834
 10
2736.544017162542
 20
880.5011249276613
 10
2736.78170431472
 20
880.2682557316149
 10
2737.049659489573
 20
880.0815453138476
 10
2737.345303168264
 20
879.9427916506784
 10
2737.665786487252
 20
879.8533307624934
 10
2738.008024824061
 20
879.8140245431881
 10
2738.368720846339
 20
879.8252512522184
 10
2738.744402048898
 20
879.8869032296899
 10
2739.131449071118
 20
879.9983861332373
 10
2739.526135209632
 20
880.1586265389465
 10
2739.924660004083
 20
880.3660818242203
 10
2740.323184139989
 20
880.6187530923727
 10
2740.717870278503
 20
880.9142076024524
 10
2741.104917959269
 20
881.2496000589298
 10
2741.480598503282
 20
881.6216999850851
 10
2741.841294854834
 20
882.026924229059
 10
2742.18353286237
 20
882.4613702311683
 10
2742.50401651063
 20
882.9208534733982
 10
2742.799659860049
 20
883.400949872211
 10
2743.067615034902
 20
883.8970347496433
 10
2743.30530218708
 20
884.4043316902347
 10
2743.510431557326
 20
884.9179537940701
 10
2743.681028170664
 20
885.4329563365178
 10
2743.815448958545
 20
885.9443778316181
 10
2743.912399387101
 20
886.4472937382156
 10
2743.970945475586
 20
886.9368614211996
 10
2743.990523839172
 20
887.4083647326989
  0
LINE
  5
5CD
330
5B7
100
AcDbEntity
  8
0
  6
Continuous
 62
     7
370
    15
100
AcDbLine
 10
2700.255969135922
 20
853.7914004411437
 30
0.0
 11
2700.255969135922
 21
877.0628133068813
 31
0.0
  0
LINE
  5
5CE
330
5B7
100
AcDbEntity
  8
0
  6
Continuous
 62
     7
370
    15
100
AcDbLine
 10
2746.642174209353
 20
880.5695866403151
 30
0.0
 11
2746.642174209353
 21
903.8409995060529
 31
0.0
  0
LINE
  5
5CF
330
5B7
100
AcDbEntity
  8
0
  6
Continuous
 62
     7
370
    15
100
AcDbLine
 10
2700.255969135922
 20
853.7914004411437
 30
0.0
 11
2746.642174209353
 21
880.5695866403151
 31
0.0
  0
LINE
  5
5D0
330
5B7
100
AcDbEntity
  8
0
  6
Continuous
 62
     7
370
    15
100
AcDbLine
 10
2679.042766174478
 20
889.3089347104998
 30
0.0
 11
2679.042766174478
 21
866.0375218447622
 31
0.0
  0
LINE
  5
5D1
330
5B7
100
AcDbEntity
  8
0
  6
Continuous
 62
     7
370
    15
100
AcDbLine
 10
2679.042766174478
 20
866.0375218447622
 30
0.0
 11
2700.255969135922
 21
853.7914004411437
 31
0.0
  0
LWPOLYLINE
  5
5D2
330
5B7
100
AcDbEntity
  8
0
  6
Continuous
 62
     7
370
    15
100
AcDbPolyline
 90
       56
 70
   128
 43
0.0
 10
2701.988381758193
 20
890.9214405586624
 10
2701.673001500597
 20
891.1255890007705
 10
2701.399990679556
 20
891.3491618310944
 10
2701.172905435413
 20
891.5892423880613
 10
2700.994705925731
 20
891.8427014952628
 10
2700.867713519901
 20
892.1062343379118
 10
2700.79359170135
 20
892.3764079840474
 10
2700.77329931088
 20
892.6496975006532
 10
2700.807101083386
 20
892.9225406980874
 10
2700.894558428224
 20
893.1913799487432
 10
2701.034534039029
 20
893.4527142702926
 10
2701.225197820614
 20
893.7031324004454
 10
2701.464067060183
 20
893.9393717232452
 10
2701.748027500758
 20
894.1583517239994
 10
2702.073376805115
 20
894.3572188492975
 10
2702.435873288079
 20
894.533379201602
 10
2702.830790575716
 20
894.6845369363822
 10
2703.252982142694
 20
894.8087208739911
 10
2703.696945191107
 20
894.9043145330669
 10
2704.15688848055
 20
894.9700686761321
 10
2704.626815963279
 20
895.0051260206208
 10
2705.100606468092
 20
895.0090330241376
 10
2705.572078237691
 20
894.9817360827619
 10
2706.035085076186
 20
894.9235898947788
 10
2706.483594715881
 20
894.8353547994933
 10
2706.911757964459
 20
894.7181811902732
 10
2707.313992340123
 20
894.5735946879333
 10
2707.685054511502
 20
894.4034816942883
 10
2708.020108127729
 20
894.2100593587506
 10
2708.314785063083
 20
893.9958493466242
 10
2708.565242710359
 20
893.7636447643445
 10
2708.768215347342
 20
893.5164713821743
 10
2708.921059576378
 20
893.257552278426
 10
2709.021782641784
 20
892.9902641199516
 10
2709.069067454546
 20
892.7180892607662
 10
2709.062300251183
 20
892.4445754440654
 10
2709.001571910834
 20
892.1732924628845
 10
2708.887670052734
 20
891.9077728536326
 10
2708.722079036201
 20
891.6514784411639
 10
2708.506962838491
 20
891.4077524374011
 10
2708.24512159085
 20
891.1797715399584
 10
2707.939969188008
 20
890.970507154839
 10
2707.595484555882
 20
890.7826866191284
 10
2707.216158968017
 20
890.6187597460659
 10
2706.80693545949
 20
890.4808638494372
 10
2706.373152192082
 20
890.3707956110189
 10
2705.920459477671
 20
890.2899890307397
 10
2705.454764460494
 20
890.2395017405725
 10
2704.982136286739
 20
890.2199876323189
 10
2704.508732347552
 20
890.2317029403247
 10
2704.040727156242
 20
890.2744925553719
 10
2703.584226737487
 20
890.3478029504466
 10
2703.145175114014
 20
890.4506753376857
 10
2702.729297671778
 20
890.5817692388952
 10
2702.342015549168
 20
890.7393754113181
 10
2701.988381758193
 20
890.9214405586624
  0
LWPOLYLINE
  5
5D3
330
5B7
100
AcDbEntity
  8
0
  6
Continuous
 62
     7
370
    15
100
AcDbPolyline
 90
       56
 70
   128
 43
0.0
 10
2718.251837757093
 20
900.3101338628717
 10
2717.936457499498
 20
900.51428230498
 10
2717.663445361368
 20
900.7378543749643
 10
2717.436360117225
 20
900.9779349319313
 10
2717.258160607543
 20
901.2313940391329
 10
2717.13117083589
 20
901.4949284024604
 10
2717.057046383161
 20
901.7651005279171
 10
2717.036753992692
 20
902.0383900445231
 10
2717.070557082287
 20
902.3112340022965
 10
2717.158015744214
 20
902.5800740132918
 10
2717.297988720841
 20
902.8414068141627
 10
2717.488653819515
 20
903.0918257046547
 10
2717.727521741995
 20
903.3280642671153
 10
2718.011483499659
 20
903.5470450282087
 10
2718.336831486928
 20
903.7459113931674
 10
2718.699327969891
 20
903.9220717454719
 10
2719.094246574616
 20
904.0732302405913
 10
2719.516439458684
 20
904.1974149385396
 10
2719.960399872918
 20
904.2930070769369
 10
2720.420343162361
 20
904.3587612200022
 10
2720.890273279269
 20
904.3938200851695
 10
2721.364062466992
 20
904.3977263283471
 10
2721.835532919503
 20
904.3704286266317
 10
2722.298542392176
 20
904.3122839593275
 10
2722.747052031871
 20
904.224048864042
 10
2723.175213963359
 20
904.1068744944825
 10
2723.577448339024
 20
903.9622879921425
 10
2723.948510510403
 20
903.7921749984976
 10
2724.28356412663
 20
903.5987526629599
 10
2724.578241061983
 20
903.3845426508335
 10
2724.828698709259
 20
903.1523380685538
 10
2725.031672663332
 20
902.9051654467229
 10
2725.184516892367
 20
902.6462463429746
 10
2725.285237323596
 20
902.3789566638216
 10
2725.332523453448
 20
902.1067825649755
 10
2725.325757567173
 20
901.833269508614
 10
2725.265026592646
 20
901.5619850067544
 10
2725.151124734545
 20
901.2964653975025
 10
2724.985536352191
 20
901.0401725057125
 10
2724.770418837392
 20
900.7964457416104
 10
2724.508576272662
 20
900.5684640838286
 10
2724.20342386982
 20
900.359199698709
 10
2723.858940554783
 20
900.1713799233376
 10
2723.479613649829
 20
900.0074522899359
 10
2723.07039145839
 20
899.8695571536465
 10
2722.636606873893
 20
899.759488154889
 10
2722.183916793661
 20
899.6786830952883
 10
2721.718220459396
 20
899.6281950447817
 10
2721.245590968551
 20
899.6086801761887
 10
2720.772187029364
 20
899.6203954841947
 10
2720.304184472232
 20
899.6631866199205
 10
2719.847681419298
 20
899.7364954943165
 10
2719.408629795826
 20
899.8393678815558
 10
2718.99275235359
 20
899.9704617827653
 10
2718.605471548069
 20
900.1280687155274
 10
2718.251837757093
 20
900.3101338628717
  0
LWPOLYLINE
  5
5D4
330
5B7
100
AcDbEntity
  8
0
  6
Continuous
 62
     7
370
    15
100
AcDbPolyline
 90
       57
 70
   128
 43
0.0
 10
2697.710386413739
 20
883.6758179488404
 10
2697.392804641854
 20
883.8809696586611
 10
2697.117010153178
 20
884.1053587132284
 10
2696.886472160179
 20
884.3461642537222
 10
2696.704085624515
 20
884.6003555676743
 10
2696.572146232341
 20
884.8647369489869
 10
2696.492313515816
 20
885.1359841942207
 10
2696.465588462593
 20
885.4106849005759
 10
2696.492313515816
 20
885.6853871276101
 10
2696.572144915251
 20
885.9566336125045
 10
2696.704085624515
 20
886.2210157541564
 10
2696.88647084309
 20
886.4752063077691
 10
2697.117010153178
 20
886.7160110879236
 10
2697.392805958943
 20
886.9404009028302
 10
2697.710386413739
 20
887.1455533729903
 10
2698.065756786582
 20
887.3288871464643
 10
2698.454453462796
 20
887.4881006761773
 10
2698.871584773775
 20
887.6211881870435
 10
2699.311903436881
 20
887.7264769325929
 10
2699.769876361156
 20
887.8026446827744
 10
2700.239739965067
 20
887.8487303687073
 10
2700.715589738557
 20
887.8641584135376
 10
2701.191439512046
 20
887.8487318893858
 10
2701.661301798869
 20
887.8026439224351
 10
2702.119276040233
 20
887.7264784532714
 10
2702.559596020428
 20
887.6211889473829
 10
2702.976726014318
 20
887.4881006761773
 10
2703.365421373443
 20
887.3288879068036
 10
2703.720793063374
 20
887.1455518523116
 10
2704.038373518171
 20
886.9404009028302
 10
2704.314168006847
 20
886.716011848263
 10
2704.544708634023
 20
886.4752078284478
 10
2704.727095169687
 20
886.2210165144958
 10
2704.859031927683
 20
885.9566336125045
 10
2704.938867278386
 20
885.6853878879492
 10
2704.965589697431
 20
885.4106856609153
 10
2704.938864644208
 20
885.1359834338813
 10
2704.859033244773
 20
884.8647369489869
 10
2704.727092535509
 20
884.6003548073349
 10
2704.544707316935
 20
884.3461642537222
 10
2704.314168006847
 20
884.1053594735676
 10
2704.038372201082
 20
883.880969658661
 10
2703.720794380463
 20
883.6758187091797
 10
2703.365421373443
 20
883.4924834150269
 10
2702.976724697228
 20
883.3332698853141
 10
2702.559593386249
 20
883.2001823744478
 10
2702.119274723143
 20
883.0948936288987
 10
2701.661301798869
 20
883.0187258787171
 10
2701.191438194957
 20
882.9726401927841
 10
2700.715588421468
 20
882.9572121479536
 10
2700.239741282157
 20
882.9726401927841
 10
2699.769876361156
 20
883.0187266390563
 10
2699.311904753969
 20
883.0948936288987
 10
2698.871584773775
 20
883.2001831347872
 10
2698.454452145707
 20
883.3332698853141
 10
2698.065756786582
 20
883.4924826546878
 10
2697.710386413739
 20
883.6758179488404
  0
LWPOLYLINE
  5
5D5
330
5B7
100
AcDbEntity
  8
0
  6
Continuous
 62
     7
370
    15
100
AcDbPolyline
 90
       57
 70
   128
 43
0.0
 10
2689.437236639744
 20
888.451805653611
 10
2689.119655526403
 20
888.6569569832619
 10
2688.843861037727
 20
888.8813460378294
 10
2688.613323374001
 20
889.1221513882383
 10
2688.430936838337
 20
889.3763427021903
 10
2688.29899711689
 20
889.6407242735881
 10
2688.219164071093
 20
889.9119717089066
 10
2688.19243901787
 20
890.1866724152618
 10
2688.219163741821
 20
890.4613748323807
 10
2688.298995141257
 20
890.7326213172749
 10
2688.43093585052
 20
890.9970034589273
 10
2688.613321069095
 20
891.2511940125398
 10
2688.843861037727
 20
891.4919984125246
 10
2689.11965651422
 20
891.7163884175161
 10
2689.437237298289
 20
891.9215406975913
 10
2689.792607341859
 20
892.1048746611502
 10
2690.181304347345
 20
892.2640880007783
 10
2690.59843499978
 20
892.3971758918142
 10
2691.038753662885
 20
892.5024646373636
 10
2691.496726587161
 20
892.5786323875451
 10
2691.966590191072
 20
892.6247180734778
 10
2692.442440293834
 20
892.6401459282235
 10
2692.918290067323
 20
892.6247194040717
 10
2693.388152683418
 20
892.5786312470361
 10
2693.846127254055
 20
892.5024655877875
 10
2694.286447234249
 20
892.3971760818989
 10
2694.703576898867
 20
892.2640880007783
 10
2695.092272257992
 20
892.1048752314048
 10
2695.447643289379
 20
891.9215395570823
 10
2695.76522440272
 20
891.7163882274314
 10
2696.041018232852
 20
891.4919995530336
 10
2696.271558860028
 20
891.2511955332185
 10
2696.453945395692
 20
890.9970042192664
 10
2696.585882153688
 20
890.7326213172749
 10
2696.665718162936
 20
890.4613752125504
 10
2696.692440581981
 20
890.1866729855164
 10
2696.665716187302
 20
889.9119703783126
 10
2696.585884129321
 20
889.6407242735881
 10
2696.453944078603
 20
889.3763417517662
 10
2696.271558201484
 20
889.1221515783232
 10
2696.041018232852
 20
888.8813471783384
 10
2695.765223085631
 20
888.6569569832619
 10
2695.447644606468
 20
888.4518064139504
 10
2695.092272257992
 20
888.2684707396281
 10
2694.703574923233
 20
888.1092575900847
 10
2694.286444270799
 20
887.9761696990488
 10
2693.846126266238
 20
887.87088057333
 10
2693.388152683418
 20
887.7947132033179
 10
2692.918289738051
 20
887.7486271372156
 10
2692.442439306017
 20
887.7331994725548
 10
2691.966592166706
 20
887.7486275173852
 10
2691.496726587161
 20
887.7947143438271
 10
2691.038754979974
 20
887.8708813336693
 10
2690.59843499978
 20
887.9761708395578
 10
2690.181302371712
 20
888.1092575900847
 10
2689.792607671132
 20
888.2684699792887
 10
2689.437236639744
 20
888.451805653611
  0
LWPOLYLINE
  5
5D6
330
5B7
100
AcDbEntity
  8
0
  6
Continuous
 62
     7
370
    15
100
AcDbPolyline
 90
       57
 70
   128
 43
0.0
 10
2713.973841095552
 20
893.0645104927103
 10
2713.656261957844
 20
893.2696637232096
 10
2713.380467469168
 20
893.4940527777769
 10
2713.149926841991
 20
893.7348567975922
 10
2712.967540306327
 20
893.9890481115442
 10
2712.835600914153
 20
894.253429492857
 10
2712.755768197628
 20
894.5246767380906
 10
2712.729045778583
 20
894.7993789651247
 10
2712.755768197628
 20
895.0740796714798
 10
2712.835602231241
 20
895.3453276770529
 10
2712.967540306327
 20
895.6097082980264
 10
2713.14992815908
 20
895.8639003723178
 10
2713.380467469168
 20
896.1047051524722
 10
2713.656260640755
 20
896.3290934467003
 10
2713.973841095552
 20
896.5342459168603
 10
2714.329214102572
 20
896.7175812110129
 10
2714.717908144608
 20
896.8767932200472
 10
2715.135039455587
 20
897.0098807309135
 10
2715.575359435781
 20
897.115170236802
 10
2716.033331042968
 20
897.1913372266444
 10
2716.503197281057
 20
897.2374244332558
 10
2716.979045737458
 20
897.2528517177469
 10
2717.454894193858
 20
897.2374244332558
 10
2717.924759114858
 20
897.1913379869835
 10
2718.382730722045
 20
897.1151709971413
 10
2718.823050702239
 20
897.0098814912528
 10
2719.240180696129
 20
896.8767932200472
 10
2719.628877372343
 20
896.7175812110129
 10
2719.984249062275
 20
896.5342451565209
 10
2720.301829517072
 20
896.3290942070395
 10
2720.577622688658
 20
896.1047043921331
 10
2720.808163315835
 20
895.8639003723178
 10
2720.990549851499
 20
895.6097090583657
 10
2721.122489243673
 20
895.3453276770529
 10
2721.202321960198
 20
895.0740804318193
 10
2721.229045696332
 20
894.7993789651247
 10
2721.202321960198
 20
894.5246774984299
 10
2721.122487926584
 20
894.253429492857
 10
2720.99054853441
 20
893.9890481115442
 10
2720.808161998746
 20
893.734856797592
 10
2720.577622688658
 20
893.4940520174377
 10
2720.301829517072
 20
893.2696637232096
 10
2719.984249062275
 20
893.0645112530497
 10
2719.628876055254
 20
892.881175958897
 10
2719.240182013218
 20
892.7219639498627
 10
2718.823050702239
 20
892.5888764389965
 10
2718.382729404956
 20
892.4835861727686
 10
2717.924759114858
 20
892.4074199432656
 10
2717.454892876769
 20
892.3613327366542
 10
2716.979045737458
 20
892.3459062125022
 10
2716.503195963968
 20
892.3613327366542
 10
2716.033331042968
 20
892.4074191829262
 10
2715.575359435781
 20
892.4835861727686
 10
2715.135039455587
 20
892.5888756786571
 10
2714.717909461696
 20
892.7219639498627
 10
2714.329214102572
 20
892.8811767192364
 10
2713.973841095552
 20
893.0645104927103
  0
LWPOLYLINE
  5
5D7
330
5B7
100
AcDbEntity
  8
0
  6
Continuous
 62
     7
370
    15
100
AcDbPolyline
 90
       57
 70
   128
 43
0.0
 10
2705.700691321556
 20
897.840498197481
 10
2705.383112842393
 20
898.0456510478106
 10
2705.107318353717
 20
898.270040102378
 10
2704.876778055812
 20
898.5108439321084
 10
2704.694391520148
 20
898.7650352460603
 10
2704.562451798702
 20
899.029416817458
 10
2704.482618752905
 20
899.3006642527765
 10
2704.45589633386
 20
899.5753664798105
 10
2704.482618423633
 20
899.8500673762507
 10
2704.562452457246
 20
900.1213153818238
 10
2704.694390532332
 20
900.3856960027972
 10
2704.876778385085
 20
900.6398880770884
 10
2705.107318353717
 20
900.8806924770734
 10
2705.383111196032
 20
901.1050809613861
 10
2705.7006919801
 20
901.3102332414613
 10
2706.056064657849
 20
901.4935687256988
 10
2706.444759029157
 20
901.6527805446482
 10
2706.861889681592
 20
901.7858684356841
 10
2707.302209661786
 20
901.8911579415728
 10
2707.760181268973
 20
901.967324931415
 10
2708.230047507062
 20
902.0134121380264
 10
2708.705896292734
 20
902.0288392324328
 10
2709.181744749134
 20
902.0134119479417
 10
2709.651609999407
 20
901.9673253115847
 10
2710.109581935866
 20
901.8911581316576
 10
2710.549901916061
 20
901.7858686257691
 10
2710.967031580679
 20
901.6527805446482
 10
2711.355728256892
 20
901.4935685356141
 10
2711.71109928828
 20
901.3102328612918
 10
2712.028680401621
 20
901.1050815316407
 10
2712.304472914663
 20
900.8806920969036
 10
2712.53501354184
 20
900.6398880770884
 10
2712.717400077504
 20
900.3856967631364
 10
2712.849339469678
 20
900.1213153818238
 10
2712.929172844747
 20
899.8500677564203
 10
2712.955896580881
 20
899.5753662897257
 10
2712.929173503292
 20
899.3006644428614
 10
2712.849338811134
 20
899.029416817458
 10
2712.717400077504
 20
898.7650350559755
 10
2712.535012883295
 20
898.5108441221932
 10
2712.304472914663
 20
898.2700397222084
 10
2712.028680401621
 20
898.0456510478106
 10
2711.71109928828
 20
897.8404989578203
 10
2711.355726939804
 20
897.657163283498
 10
2710.967032239223
 20
897.4979516546333
 10
2710.549901586788
 20
897.3648637635974
 10
2710.10958094805
 20
897.2595731172001
 10
2709.651609999407
 20
897.1834072678666
 10
2709.181744419863
 20
897.1373196810855
 10
2708.705896622007
 20
897.1218935371034
 10
2708.230046848517
 20
897.1373200612552
 10
2707.760181268972
 20
897.1834068876969
 10
2707.302209661786
 20
897.2595738775392
 10
2706.861889681592
 20
897.3648633834278
 10
2706.444759687701
 20
897.4979516546333
 10
2706.056064987122
 20
897.6571640438374
 10
2705.700691321556
 20
897.840498197481
  0
LWPOLYLINE
  5
5D8
330
5B7
100
AcDbEntity
  8
0
  6
Continuous
 62
     7
370
    15
100
AcDbPolyline
 90
       57
 70
   128
 43
0.0
 10
2730.237297752996
 20
902.4532041770893
 10
2729.9197172982
 20
902.6583566472492
 10
2729.643922809524
 20
902.8827457018165
 10
2729.413382840891
 20
903.1235501018015
 10
2729.230996305228
 20
903.3777414157535
 10
2729.099057571598
 20
903.642123177236
 10
2729.019224196529
 20
903.9133700422999
 10
2728.992501118939
 20
904.1880718891642
 10
2729.019224855073
 20
904.4627733558588
 10
2729.099057571598
 20
904.7340206010927
 10
2729.230997622317
 20
904.998402362575
 10
2729.413384157981
 20
905.252593676527
 10
2729.643922809524
 20
905.493398076512
 10
2729.9197172982
 20
905.7177871310793
 10
2730.237297094452
 20
905.9229392210696
 10
2730.592669442928
 20
906.1062741350525
 10
2730.981364802053
 20
906.2654869044262
 10
2731.398496113032
 20
906.3985744152924
 10
2731.838815434682
 20
906.5038635410113
 10
2732.296787700413
 20
906.5800309110233
 10
2732.766652621414
 20
906.6261173572954
 10
2733.242501077814
 20
906.6415446417865
 10
2733.718350192758
 20
906.626117737465
 10
2734.188214784487
 20
906.5800311011081
 10
2734.646186720945
 20
906.5038643013506
 10
2735.08650670114
 20
906.3985747954621
 10
2735.503637353575
 20
906.2654869044262
 10
2735.892332712699
 20
906.1062741350525
 10
2736.24770571972
 20
905.9229388408999
 10
2736.565284857428
 20
905.7177871310793
 10
2736.841079346103
 20
905.493398076512
 10
2737.071619314736
 20
905.252593676527
 10
2737.2540058504
 20
904.998402362575
 10
2737.385944913302
 20
904.7340207911773
 10
2737.465777959099
 20
904.4627737360285
 10
2737.492501036688
 20
904.1880718891642
 10
2737.465777300554
 20
903.9133704224695
 10
2737.38594458403
 20
903.642123177236
 10
2737.254004533311
 20
903.3777414157535
 10
2737.071618656191
 20
903.123550481971
 10
2736.841079346103
 20
902.8827457018165
 10
2736.565284857428
 20
902.6583566472492
 10
2736.247705061176
 20
902.4532045572589
 10
2735.892332712699
 20
902.2698696432758
 10
2735.503637353575
 20
902.1106568739023
 10
2735.08650670114
 20
901.9775697432057
 10
2734.646186720945
 20
901.872280237317
 10
2734.188214455214
 20
901.7961128673052
 10
2733.718349534214
 20
901.7500264210331
 10
2733.242501077814
 20
901.734599136542
 10
2732.766651962869
 20
901.7500260408635
 10
2732.296787700413
 20
901.7961128673052
 10
2731.838815434682
 20
901.8722794769779
 10
2731.398495454488
 20
901.9775689828664
 10
2730.981364802053
 20
902.1106568739023
 10
2730.592669442928
 20
902.2698696432758
 10
2730.237297752996
 20
902.4532041770893
  0
LWPOLYLINE
  5
5D9
330
5B7
100
AcDbEntity
  8
0
  6
Continuous
 62
     7
370
    15
100
AcDbPolyline
 90
       57
 70
   128
 43
0.0
 10
2721.964147979001
 20
907.2291918818599
 10
2721.646568182749
 20
907.4343439718502
 10
2721.370773694073
 20
907.6587330264176
 10
2721.140234054713
 20
907.8995372363177
 10
2720.957847519049
 20
908.1537285502697
 10
2720.825908456147
 20
908.418110501837
 10
2720.746074751806
 20
908.6893575569858
 10
2720.719351674217
 20
908.9640594038501
 10
2720.746075081078
 20
909.2387610606296
 10
2720.825907797603
 20
909.5100083058632
 10
2720.957847848322
 20
909.7743900673457
 10
2721.140234383986
 20
910.0285813812977
 10
2721.370773694073
 20
910.2693854011128
 10
2721.646567853477
 20
910.493774645765
 10
2721.964147979001
 20
910.6989265456705
 10
2722.319519998205
 20
910.8822616497384
 10
2722.708215686602
 20
911.0414742290272
 10
2723.125346339037
 20
911.1745621200631
 10
2723.565665660687
 20
911.2798512457821
 10
2724.023637926418
 20
911.356018615794
 10
2724.493502847419
 20
911.402105062066
 10
2724.969351633091
 20
911.4175321564724
 10
2725.445200748036
 20
911.4021052521509
 10
2725.915065669036
 20
911.3560184257092
 10
2726.373037934767
 20
911.2798514358669
 10
2726.813357914962
 20
911.1745619299782
 10
2727.230488238124
 20
911.0414742290272
 10
2727.619183597249
 20
910.8822614596535
 10
2727.974555945725
 20
910.6989265456705
 10
2728.292135741977
 20
910.4937744556803
 10
2728.567929572109
 20
910.2693857812825
 10
2728.79846954074
 20
910.0285813812977
 10
2728.980856076404
 20
909.7743900673457
 10
2729.112795139307
 20
909.5100084959481
 10
2729.192628843648
 20
909.2387610606296
 10
2729.219351921237
 20
908.9640592137653
 10
2729.192628843648
 20
908.6893573669009
 10
2729.112795468579
 20
908.418110501837
 10
2728.980856076404
 20
908.1537283601848
 10
2728.79846954074
 20
907.8995378065721
 10
2728.567929572109
 20
907.6587334065873
 10
2728.292135741977
 20
907.4343439718502
 10
2727.974555287181
 20
907.2291922620296
 10
2727.619183597249
 20
907.045856967877
 10
2727.230487579579
 20
906.886644578673
 10
2726.813357585689
 20
906.7535570678067
 10
2726.37303826404
 20
906.6482671817485
 10
2725.915065339764
 20
906.5721001919062
 10
2725.445201077308
 20
906.5260133654645
 10
2724.969351962363
 20
906.510586461143
 10
2724.493502847419
 20
906.5260133654645
 10
2724.023637926418
 20
906.5721005720758
 10
2723.565665660687
 20
906.6482671817485
 10
2723.125345680493
 20
906.7535566876371
 10
2722.708215028058
 20
906.886644578673
 10
2722.319520327478
 20
907.045856967877
 10
2721.964147979001
 20
907.2291918818599
  0
LINE
  5
5DA
330
5B7
100
AcDbEntity
  8
0
  6
Continuous
 62
     7
370
    15
100
AcDbLine
 10
2725.428971247909
 20
916.0872201495458
 30
0.0
 11
2745.581514275307
 21
904.4534046925532
 31
0.0
  0
LINE
  5
5DB
330
5B7
100
AcDbEntity
  8
0
  6
Continuous
 62
     7
370
    15
100
AcDbLine
 10
2680.103424791434
 20
889.9213391366609
 30
0.0
 11
2725.428971247909
 21
916.0872201495458
 31
0.0
  0
LINE
  5
5DC
330
5B7
100
AcDbEntity
  8
0
  6
Continuous
 62
     7
370
    15
100
AcDbLine
 10
2707.786657392371
 20
870.3862547689279
 30
0.0
 11
2707.786657392371
 21
873.2447777422473
 31
0.0
  0
ARC
  5
5DD
330
5B7
100
AcDbEntity
  8
0
  6
Continuous
 62
     7
370
    15
100
AcDbCircle
 10
2700.017074210395
 20
870.5931650697126
 30
0.0
 40
7.772337788222157
100
AcDbArc
 50
295.3507305810314
 51
358.4745274818307
  0
ARC
  5
5DE
330
5B7
100
AcDbEntity
  8
0
  6
Continuous
 62
     7
370
    15
100
AcDbCircle
 10
2700.989642226759
 20
870.0376246039063
 30
0.0
 40
5.950164403624768
100
AcDbArc
 50
293.181398244632
 51
358.6400848897747
  0
LINE
  5
5DF
330
5B7
100
AcDbEntity
  8
0
  6
Continuous
 62
     7
370
    15
100
AcDbLine
 10
2706.93813069637
 20
869.8964107339497
 30
0.0
 11
2706.93813069637
 21
872.7549337072689
 31
0.0
  0
ARC
  5
5E0
330
5B7
100
AcDbEntity
  8
0
  6
Continuous
 62
     7
370
    15
100
AcDbCircle
 10
2700.332261922494
 20
870.3785918388934
 30
0.0
 40
6.15007232003554
100
AcDbArc
 50
299.1919983521851
 51
357.9793671168445
  0
LINE
  5
5E1
330
5B7
100
AcDbEntity
  8
0
  6
Continuous
 62
     7
370
    15
100
AcDbLine
 10
2706.478510093735
 20
872.4896023395769
 30
0.0
 11
2706.478510093735
 21
870.1617440600719
 31
0.0
  0
LINE
  5
5E2
330
5B7
100
AcDbEntity
  8
0
  6
Continuous
 62
     7
370
    15
100
AcDbLine
 10
2700.255967818833
 20
853.7912998706289
 30
0.0
 11
2700.255969135922
 21
853.7914004411437
 31
0.0
  0
LINE
  5
5E3
330
5B7
100
AcDbEntity
  8
0
  6
Continuous
 62
     7
370
    15
100
AcDbLine
 10
2680.103424791434
 20
865.4251153276216
 30
0.0
 11
2700.255967818833
 21
853.7912998706289
 31
0.0
  0
LINE
  5
5E4
330
5B7
100
AcDbEntity
  8
0
  6
Continuous
 62
     7
370
    15
100
AcDbLine
 10
2679.042766174478
 20
866.0375218447622
 30
0.0
 11
2680.103424791434
 21
865.4251153276216
 31
0.0
  0
LINE
  5
5E5
330
5B7
100
AcDbEntity
  8
0
  6
Continuous
 62
     7
370
    15
100
AcDbLine
 10
2700.255967818833
 20
853.7912998706289
 30
0.0
 11
2745.581514275307
 21
879.9571808835139
 31
0.0
  0
LINE
  5
5E6
330
5B7
100
AcDbEntity
  8
0
  6
Continuous
 62
     7
370
    15
100
AcDbLine
 10
2745.581514275307
 20
879.9571808835139
 30
0.0
 11
2746.642174209353
 21
880.5695866403151
 31
0.0
  0
LINE
  5
5E7
330
5B7
100
AcDbEntity
  8
0
  6
Continuous
 62
     7
370
    15
100
AcDbLine
 10
2706.478510093735
 20
870.1617440600719
 30
0.0
 11
2706.93813069637
 21
869.8964107339497
 31
0.0
  0
LINE
  5
5E8
330
5B7
100
AcDbEntity
  8
0
  6
Continuous
 62
     7
370
    15
100
AcDbLine
 10
2724.050113391272
 20
879.7749480731374
 30
0.0
 11
2724.050113391272
 21
882.6334710464564
 31
0.0
  0
ARC
  5
5E9
330
5B7
100
AcDbEntity
  8
0
  6
Continuous
 62
     7
370
    15
100
AcDbCircle
 10
2716.28052611799
 20
879.9818608992611
 30
0.0
 40
7.77234194530584
100
AcDbArc
 50
295.3507386920157
 51
358.4745096751545
  0
ARC
  5
5EA
330
5B7
100
AcDbEntity
  8
0
  6
Continuous
 62
     7
370
    15
100
AcDbCircle
 10
2717.253100520081
 20
879.4263147035872
 30
0.0
 40
5.950160735124772
100
AcDbArc
 50
293.1813755408102
 51
358.6401075935977
  0
LINE
  5
5EB
330
5B7
100
AcDbEntity
  8
0
  6
Continuous
 62
     7
370
    15
100
AcDbLine
 10
2723.201585378181
 20
879.2851032778198
 30
0.0
 11
2723.201585378181
 21
882.1436262511388
 31
0.0
  0
ARC
  5
5EC
330
5B7
100
AcDbEntity
  8
0
  6
Continuous
 62
     7
370
    15
100
AcDbCircle
 10
2716.567411836757
 20
879.784571396337
 30
0.0
 40
6.178990459204202
100
AcDbArc
 50
299.3429415252478
 51
357.8284239437639
  0
LINE
  5
5ED
330
5B7
100
AcDbEntity
  8
0
  6
Continuous
 62
     7
370
    15
100
AcDbLine
 10
2722.741964775547
 20
879.550436603942
 30
0.0
 11
2722.741964775547
 21
881.8782948834469
 31
0.0
  0
LINE
  5
5EE
330
5B7
100
AcDbEntity
  8
0
  6
Continuous
 62
     7
370
    15
100
AcDbLine
 10
2722.741964775547
 20
879.550436603942
 30
0.0
 11
2723.201585378181
 21
879.2851032778198
 31
0.0
  0
LINE
  5
5EF
330
5B7
100
AcDbEntity
  8
0
  6
Continuous
 62
     7
370
    15
100
AcDbLine
 10
2740.313569719445
 20
889.1636415674314
 30
0.0
 11
2740.313569719445
 21
892.0221645407506
 31
0.0
  0
ARC
  5
5F0
330
5B7
100
AcDbEntity
  8
0
  6
Continuous
 62
     7
370
    15
100
AcDbCircle
 10
2732.543983789791
 20
889.370553553193
 30
0.0
 40
7.772340579782164
100
AcDbArc
 50
295.3507351868831
 51
358.4745156042189
  0
ARC
  5
5F1
330
5B7
100
AcDbEntity
  8
0
  6
Continuous
 62
     7
370
    15
100
AcDbCircle
 10
2733.516557989773
 20
888.8150071131699
 30
0.0
 40
5.950159243515691
100
AcDbArc
 50
293.1813731830318
 51
358.6401158696746
  0
LINE
  5
5F2
330
5B7
100
AcDbEntity
  8
0
  6
Continuous
 62
     7
370
    15
100
AcDbLine
 10
2739.465041377082
 20
888.6737965820289
 30
0.0
 11
2739.465041377082
 21
891.5323195553481
 31
0.0
  0
ARC
  5
5F3
330
5B7
100
AcDbEntity
  8
0
  6
Continuous
 62
     7
370
    15
100
AcDbCircle
 10
2732.830869285244
 20
889.1732638256327
 30
0.0
 40
6.178988977505904
100
AcDbArc
 50
299.342940834282
 51
357.8284315414037
  0
LINE
  5
5F4
330
5B7
100
AcDbEntity
  8
0
  6
Continuous
 62
     7
370
    15
100
AcDbLine
 10
2739.005420774448
 20
888.9391299081513
 30
0.0
 11
2739.005420774448
 21
891.2669881876562
 31
0.0
  0
LINE
  5
5F5
330
5B7
100
AcDbEntity
  8
0
  6
Continuous
 62
     7
370
    15
100
AcDbLine
 10
2739.005420774448
 20
888.9391299081513
 30
0.0
 11
2739.465041377082
 21
888.6737965820289
 31
0.0
  0
LINE
  5
5F6
330
5B7
100
AcDbEntity
  8
0
  6
Continuous
 62
     8
370
    15
100
AcDbLine
 10
2711.463611676735
 20
868.6309780292379
 30
0.0
 11
2707.786657392371
 21
870.7536385555011
 31
0.0
  0
LINE
  5
5F7
330
5B7
100
AcDbEntity
  8
0
  6
Continuous
 62
     8
370
    15
100
AcDbLine
 10
2727.727067675635
 20
878.0196713334472
 30
0.0
 11
2724.050113391272
 21
880.1423318597104
 31
0.0
  0
LINE
  5
5F8
330
5B7
100
AcDbEntity
  8
0
  6
Continuous
 62
     8
370
    15
100
AcDbLine
 10
2743.990523839172
 20
887.4083647326989
 30
0.0
 11
2740.313569554809
 21
889.531025258962
 31
0.0
  0
ENDBLK
  5
5B9
330
5B7
100
AcDbEntity
  8
0
100
AcDbBlockEnd
  0
ENDSEC
  0
SECTION
  2
ENTITIES
  0
INSERT
  5
4B7
330
1F
100
AcDbEntity
  8
0
100
AcDbBlockReference
  2
1
 10
0.0
 20
0.0
 30
0.0
  0
INSERT
  5
504
330
1F
100
AcDbEntity
  8
0
100
AcDbBlockReference
  2
2
 10
0.0
 20
0.0
 30
0.0
  0
INSERT
  5
5B6
330
1F
100
AcDbEntity
  8
0
100
AcDbBlockReference
  2
3
 10
0.0
 20
0.0
 30
0.0
  0
INSERT
  5
5F9
330
1F
100
AcDbEntity
  8
0
100
AcDbBlockReference
  2
4
 10
0.0
 20
0.0
 30
0.0
  0
ENDSEC
  0
SECTION
  2
OBJECTS
  0
DICTIONARY
  5
C
330
0
100
AcDbDictionary
281
     1
  3
ACAD_COLOR
350
6B
  3
ACAD_GROUP
350
D
  3
ACAD_LAYOUT
350
1A
  3
ACAD_MATERIAL
350
6A
  3
ACAD_MLEADERSTYLE
350
12D
  3
ACAD_MLINESTYLE
350
17
  3
ACAD_PLOTSETTINGS
350
19
  3
ACAD_PLOTSTYLENAME
350
E
  3
ACAD_SCALELIST
350
10C
  3
ACAD_TABLESTYLE
350
7E
  3
ACAD_VISUALSTYLE
350
EF
  3
ACDB_RECOMPOSE_DATA
350
15D
  3
AcDbVariableDictionary
350
5E
  3
DWGPROPS
350
607
  0
DICTIONARY
  5
13C
330
10
100
AcDbDictionary
280
     1
281
     1
  3
ADSK_XREC_LAYER_RECONCILED
360
5FA
  0
DICTIONARY
  5
6B
102
{ACAD_REACTORS
330
C
102
}
330
C
100
AcDbDictionary
281
     1
  0
DICTIONARY
  5
D
102
{ACAD_REACTORS
330
C
102
}
330
C
100
AcDbDictionary
281
     1
  0
DICTIONARY
  5
1A
102
{ACAD_REACTORS
330
C
102
}
330
C
100
AcDbDictionary
281
     1
  3
Layout1
350
D3
  3
Layout2
350
D7
  3
Model
350
22
  0
DICTIONARY
  5
6A
102
{ACAD_REACTORS
330
C
102
}
330
C
100
AcDbDictionary
281
     1
  3
ByBlock
350
ED
  3
ByLayer
350
EC
  3
Global
350
EE
  0
DICTIONARY
  5
12D
102
{ACAD_REACTORS
330
C
102
}
330
C
100
AcDbDictionary
281
     1
  3
Annotative
350
13B
  3
Standard
350
12E
  0
DICTIONARY
  5
17
102
{ACAD_REACTORS
330
C
102
}
330
C
100
AcDbDictionary
281
     1
  3
Standard
350
18
  0
DICTIONARY
  5
19
102
{ACAD_REACTORS
330
C
102
}
330
C
100
AcDbDictionary
281
     1
  0
ACDBDICTIONARYWDFLT
  5
E
102
{ACAD_REACTORS
330
C
102
}
330
C
100
AcDbDictionary
281
     1
  3
Normal
350
F
100
AcDbDictionaryWithDefault
340
F
  0
DICTIONARY
  5
10C
102
{ACAD_REACTORS
330
C
102
}
330
C
100
AcDbDictionary
281
     1
  3
A0
350
10D
  3
A1
350
188
  3
A2
350
189
  3
A3
350
18A
  3
A4
350
18B
  3
A5
350
18C
  3
A6
350
18D
  3
A7
350
18E
  3
A8
350
18F
  3
A9
350
190
  3
B0
350
191
  3
B1
350
192
  3
B2
350
193
  3
B3
350
194
  3
B4
350
195
  3
B5
350
196
  3
B6
350
197
  3
B7
350
198
  3
B8
350
199
  3
B9
350
19A
  3
C0
350
19B
  3
C1
350
19C
  3
C2
350
19D
  3
C3
350
19E
  3
C4
350
19F
  3
C5
350
1A0
  3
C6
350
1A1
  3
C7
350
1A2
  3
C8
350
1A3
  3
C9
350
1A4
  3
D0
350
1A5
  3
D1
350
1A6
  3
D2
350
1A7
  0
DICTIONARY
  5
7E
102
{ACAD_REACTORS
330
C
102
}
330
C
100
AcDbDictionary
281
     1
  3
Standard
350
7F
  0
DICTIONARY
  5
EF
102
{ACAD_REACTORS
330
C
102
}
330
C
100
AcDbDictionary
281
     1
  3
2dWireframe
350
F5
  3
3D Hidden
350
F7
  3
3dWireframe
350
F6
  3
Basic
350
F4
  3
Brighten
350
FB
  3
ColorChange
350
FF
  3
Conceptual
350
F8
  3
Dim
350
FA
  3
Facepattern
350
FE
  3
Flat
350
F0
  3
FlatWithEdges
350
F1
  3
Gouraud
350
F2
  3
GouraudWithEdges
350
F3
  3
Linepattern
350
FD
  3
Realistic
350
F9
  3
Thicken
350
FC
  0
XRECORD
  5
15D
102
{ACAD_REACTORS
330
C
102
}
330
C
100
AcDbXrecord
280
     1
 90
        1
330
7F
  0
DICTIONARY
  5
5E
102
{ACAD_REACTORS
330
C
102
}
330
C
100
AcDbDictionary
281
     1
  3
CANNOSCALE
350
146
  3
CMLEADERSTYLE
350
145
  3
CTABLESTYLE
350
84
  3
DIMASSOC
350
5F
  3
HIDETEXT
350
63
  3
INDEXCTL
350
603
  3
LIGHTINGUNITS
350
601
  3
MSLTSCALE
350
600
  3
PSOLHEIGHT
350
605
  3
PSOLWIDTH
350
604
  3
SORTENTS
350
602
  0
XRECORD
  5
607
102
{ACAD_REACTORS
330
C
102
}
330
C
100
AcDbXrecord
280
     1
  1
DWGPROPS COOKIE
  2

  3

  4

  6

  7

  8
orhan kara
  9

300
=
301
=
302
=
303
=
304
=
305
=
306
=
307
=
308
=
309
=
 40
0.0002554976851852
 41
2459083.648367998
 42
2459083.685090671
  1

 90
        0
  0
XRECORD
  5
5FA
102
{ACAD_REACTORS
330
13C
102
}
330
13C
100
AcDbXrecord
280
     1
290
     1
  0
LAYOUT
  5
D3
102
{ACAD_XDICTIONARY
360
60B
102
}
102
{ACAD_REACTORS
330
1A
102
}
330
1A
100
AcDbPlotSettings
  1

  2
C:\Documents and Settings\basas\Application Data\Autodesk\AutoCAD 2005\R16.1\enu\plotters\Default Windows System Printer.pc3
  4

  6

 40
0.0
 41
0.0
 42
0.0
 43
0.0
 44
0.0
 45
0.0
 46
0.0
 47
0.0
 48
0.0
 49
0.0
140
0.0
141
0.0
142
1.0
143
1.0
 70
   688
 72
     0
 73
     0
 74
     5
  7

 75
    16
147
1.0
148
0.0
149
0.0
100
AcDbLayout
  1
Layout1
 70
     1
 71
     1
 10
0.0
 20
0.0
 11
12.0
 21
9.0
 12
0.0
 22
0.0
 32
0.0
 14
0.0
 24
0.0
 34
0.0
 15
0.0
 25
0.0
 35
0.0
146
0.0
 13
0.0
 23
0.0
 33
0.0
 16
1.0
 26
0.0
 36
0.0
 17
0.0
 27
1.0
 37
0.0
 76
     0
330
D2
  0
LAYOUT
  5
D7
102
{ACAD_XDICTIONARY
360
60D
102
}
102
{ACAD_REACTORS
330
1A
102
}
330
1A
100
AcDbPlotSettings
  1

  2
C:\Documents and Settings\basas\Application Data\Autodesk\AutoCAD 2005\R16.1\enu\plotters\Default Windows System Printer.pc3
  4

  6

 40
0.0
 41
0.0
 42
0.0
 43
0.0
 44
0.0
 45
0.0
 46
0.0
 47
0.0
 48
0.0
 49
0.0
140
0.0
141
0.0
142
1.0
143
1.0
 70
   688
 72
     0
 73
     0
 74
     5
  7

 75
    16
147
1.0
148
0.0
149
0.0
100
AcDbLayout
  1
Layout2
 70
     1
 71
     2
 10
0.0
 20
0.0
 11
12.0
 21
9.0
 12
0.0
 22
0.0
 32
0.0
 14
0.0
 24
0.0
 34
0.0
 15
0.0
 25
0.0
 35
0.0
146
0.0
 13
0.0
 23
0.0
 33
0.0
 16
1.0
 26
0.0
 36
0.0
 17
0.0
 27
1.0
 37
0.0
 76
     0
330
D6
  0
LAYOUT
  5
22
102
{ACAD_XDICTIONARY
360
608
102
}
102
{ACAD_REACTORS
330
1A
102
}
330
1A
100
AcDbPlotSettings
  1

  2
none_device
  4
ISO_A4_(210.00_x_297.00_MM)
  6

 40
7.5
 41
20.0
 42
7.5
 43
20.0
 44
210.0
 45
297.0
 46
11.54999923706054
 47
-13.65000009536743
 48
0.0
 49
0.0
140
0.0
141
0.0
142
1.0
143
8.704084754739808
 70
 11952
 72
     1
 73
     0
 74
     0
  7

 75
     0
147
0.1148885871608098
148
0.0
149
0.0
100
AcDbLayout
  1
Model
 70
     1
 71
     0
 10
0.0
 20
0.0
 11
12.0
 21
9.0
 12
0.0
 22
0.0
 32
0.0
 14
0.0
 24
0.0
 34
0.0
 15
0.0
 25
0.0
 35
0.0
146
0.0
 13
0.0
 23
0.0
 33
0.0
 16
1.0
 26
0.0
 36
0.0
 17
0.0
 27
1.0
 37
0.0
 76
     0
330
1F
331
EA
1001
ACAD_PSEXT
1000
None
1000
None
1000
Not applicable
1000
The layout will not be plotted unless a new plotter configuration name is selected.
1070
     0
  0
MATERIAL
  5
ED
102
{ACAD_XDICTIONARY
360
611
102
}
102
{ACAD_REACTORS
330
6A
102
}
330
6A
100
AcDbMaterial
  1
ByBlock
  0
MATERIAL
  5
EC
102
{ACAD_XDICTIONARY
360
60F
102
}
102
{ACAD_REACTORS
330
6A
102
}
330
6A
100
AcDbMaterial
  1
ByLayer
  0
MATERIAL
  5
EE
102
{ACAD_XDICTIONARY
360
173
102
}
102
{ACAD_REACTORS
330
6A
102
}
330
6A
100
AcDbMaterial
  1
Global
 43
0.0007999999797903
 43
0.0
 43
0.0
 43
0.0
 43
0.0
 43
0.0007999999797903
 43
0.0
 43
0.0
 43
0.0
 43
0.0
 43
1.0
 43
0.0
 43
0.0
 43
0.0
 43
0.0
 43
1.0
 49
0.0007999999797903
 49
0.0
 49
0.0
 49
0.0
 49
0.0
 49
0.0007999999797903
 49
0.0
 49
0.0
 49
0.0
 49
0.0
 49
1.0
 49
0.0
 49
0.0
 49
0.0
 49
0.0
 49
1.0
142
0.0007999999797903
142
0.0
142
0.0
142
0.0
142
0.0
142
0.0007999999797903
142
0.0
142
0.0
142
0.0
142
0.0
142
1.0
142
0.0
142
0.0
142
0.0
142
0.0
142
1.0
144
0.0007999999797903
144
0.0
144
0.0
144
0.0
144
0.0
144
0.0007999999797903
144
0.0
144
0.0
144
0.0
144
0.0
144
1.0
144
0.0
144
0.0
144
0.0
144
0.0
144
1.0
1001
ACAD
1070
    -1
1070
     3
1070
     0
1000

1071
        0
1070
     0
  0
MLEADERSTYLE
  5
13B
102
{ACAD_REACTORS
330
12D
102
}
330
12D
100
AcDbMLeaderStyle
170
     2
171
     1
172
     0
 90
        2
 40
0.0
 41
0.0
173
     1
 91
-1056964608
340
14
 92
       -2
290
     1
 42
2.0
291
     1
 43
8.0
  3
Standard
 44
4.0
300

342
11
174
     1
178
     1
175
     1
176
     0
 93
-1056964608
 45
4.0
292
     0
297
     0
 46
4.0
 94
-1056964608
 47
1.0
 49
1.0
140
1.0
293
     1
141
0.0
294
     1
177
     0
142
1.0
295
     0
296
     1
143
3.75
1001
ACAD_MLEADERVER
1070
     2
  0
MLEADERSTYLE
  5
12E
102
{ACAD_REACTORS
330
12D
102
}
330
12D
100
AcDbMLeaderStyle
170
     2
171
     1
172
     0
 90
        2
 40
0.0
 41
0.0
173
     1
 91
-1056964608
340
14
 92
       -2
290
     1
 42
2.0
291
     1
 43
8.0
  3
Standard
 44
4.0
300

342
11
174
     1
178
     1
175
     1
176
     0
 93
-1056964608
 45
4.0
292
     0
297
     0
 46
4.0
 94
-1056964608
 47
1.0
 49
1.0
140
1.0
293
     1
141
0.0
294
     1
177
     0
142
1.0
295
     0
296
     0
143
3.75
1001
ACAD_MLEADERVER
1070
     2
  0
MLINESTYLE
  5
18
102
{ACAD_REACTORS
330
17
102
}
330
17
100
AcDbMlineStyle
  2
STANDARD
 70
     0
  3

 62
   256
 51
90.0
 52
90.0
 71
     2
 49
0.5
 62
   256
  6
BYLAYER
 49
-0.5
 62
   256
  6
BYLAYER
  0
ACDBPLACEHOLDER
  5
F
102
{ACAD_REACTORS
330
E
102
}
330
E
  0
SCALE
  5
10D
102
{ACAD_REACTORS
330
10C
102
}
330
10C
100
AcDbScale
 70
     0
300
1:1
140
1.0
141
1.0
290
     1
  0
SCALE
  5
188
102
{ACAD_REACTORS
330
10C
102
}
330
10C
100
AcDbScale
 70
     0
300
1:2
140
1.0
141
2.0
290
     0
  0
SCALE
  5
189
102
{ACAD_REACTORS
330
10C
102
}
330
10C
100
AcDbScale
 70
     0
300
1:4
140
1.0
141
4.0
290
     0
  0
SCALE
  5
18A
102
{ACAD_REACTORS
330
10C
102
}
330
10C
100
AcDbScale
 70
     0
300
1:5
140
1.0
141
5.0
290
     0
  0
SCALE
  5
18B
102
{ACAD_REACTORS
330
10C
102
}
330
10C
100
AcDbScale
 70
     0
300
1:8
140
1.0
141
8.0
290
     0
  0
SCALE
  5
18C
102
{ACAD_REACTORS
330
10C
102
}
330
10C
100
AcDbScale
 70
     0
300
1:10
140
1.0
141
10.0
290
     0
  0
SCALE
  5
18D
102
{ACAD_REACTORS
330
10C
102
}
330
10C
100
AcDbScale
 70
     0
300
1:16
140
1.0
141
16.0
290
     0
  0
SCALE
  5
18E
102
{ACAD_REACTORS
330
10C
102
}
330
10C
100
AcDbScale
 70
     0
300
1:20
140
1.0
141
20.0
290
     0
  0
SCALE
  5
18F
102
{ACAD_REACTORS
330
10C
102
}
330
10C
100
AcDbScale
 70
     0
300
1:30
140
1.0
141
30.0
290
     0
  0
SCALE
  5
190
102
{ACAD_REACTORS
330
10C
102
}
330
10C
100
AcDbScale
 70
     0
300
1:40
140
1.0
141
40.0
290
     0
  0
SCALE
  5
191
102
{ACAD_REACTORS
330
10C
102
}
330
10C
100
AcDbScale
 70
     0
300
1:50
140
1.0
141
50.0
290
     0
  0
SCALE
  5
192
102
{ACAD_REACTORS
330
10C
102
}
330
10C
100
AcDbScale
 70
     0
300
1:100
140
1.0
141
100.0
290
     0
  0
SCALE
  5
193
102
{ACAD_REACTORS
330
10C
102
}
330
10C
100
AcDbScale
 70
     0
300
2:1
140
2.0
141
1.0
290
     0
  0
SCALE
  5
194
102
{ACAD_REACTORS
330
10C
102
}
330
10C
100
AcDbScale
 70
     0
300
4:1
140
4.0
141
1.0
290
     0
  0
SCALE
  5
195
102
{ACAD_REACTORS
330
10C
102
}
330
10C
100
AcDbScale
 70
     0
300
8:1
140
8.0
141
1.0
290
     0
  0
SCALE
  5
196
102
{ACAD_REACTORS
330
10C
102
}
330
10C
100
AcDbScale
 70
     0
300
10:1
140
10.0
141
1.0
290
     0
  0
SCALE
  5
197
102
{ACAD_REACTORS
330
10C
102
}
330
10C
100
AcDbScale
 70
     0
300
100:1
140
100.0
141
1.0
290
     0
  0
SCALE
  5
198
102
{ACAD_REACTORS
330
10C
102
}
330
10C
100
AcDbScale
 70
     0
300
1/128" = 1'-0"
140
0.0078125
141
12.0
290
     0
  0
SCALE
  5
199
102
{ACAD_REACTORS
330
10C
102
}
330
10C
100
AcDbScale
 70
     0
300
1/64" = 1'-0"
140
0.015625
141
12.0
290
     0
  0
SCALE
  5
19A
102
{ACAD_REACTORS
330
10C
102
}
330
10C
100
AcDbScale
 70
     0
300
1/32" = 1'-0"
140
0.03125
141
12.0
290
     0
  0
SCALE
  5
19B
102
{ACAD_REACTORS
330
10C
102
}
330
10C
100
AcDbScale
 70
     0
300
1/16" = 1'-0"
140
0.0625
141
12.0
290
     0
  0
SCALE
  5
19C
102
{ACAD_REACTORS
330
10C
102
}
330
10C
100
AcDbScale
 70
     0
300
3/32" = 1'-0"
140
0.09375
141
12.0
290
     0
  0
SCALE
  5
19D
102
{ACAD_REACTORS
330
10C
102
}
330
10C
100
AcDbScale
 70
     0
300
1/8" = 1'-0"
140
0.125
141
12.0
290
     0
  0
SCALE
  5
19E
102
{ACAD_REACTORS
330
10C
102
}
330
10C
100
AcDbScale
 70
     0
300
3/16" = 1'-0"
140
0.1875
141
12.0
290
     0
  0
SCALE
  5
19F
102
{ACAD_REACTORS
330
10C
102
}
330
10C
100
AcDbScale
 70
     0
300
1/4" = 1'-0"
140
0.25
141
12.0
290
     0
  0
SCALE
  5
1A0
102
{ACAD_REACTORS
330
10C
102
}
330
10C
100
AcDbScale
 70
     0
300
3/8" = 1'-0"
140
0.375
141
12.0
290
     0
  0
SCALE
  5
1A1
102
{ACAD_REACTORS
330
10C
102
}
330
10C
100
AcDbScale
 70
     0
300
1/2" = 1'-0"
140
0.5
141
12.0
290
     0
  0
SCALE
  5
1A2
102
{ACAD_REACTORS
330
10C
102
}
330
10C
100
AcDbScale
 70
     0
300
3/4" = 1'-0"
140
0.75
141
12.0
290
     0
  0
SCALE
  5
1A3
102
{ACAD_REACTORS
330
10C
102
}
330
10C
100
AcDbScale
 70
     0
300
1" = 1'-0"
140
1.0
141
12.0
290
     0
  0
SCALE
  5
1A4
102
{ACAD_REACTORS
330
10C
102
}
330
10C
100
AcDbScale
 70
     0
300
1-1/2" = 1'-0"
140
1.5
141
12.0
290
     0
  0
SCALE
  5
1A5
102
{ACAD_REACTORS
330
10C
102
}
330
10C
100
AcDbScale
 70
     0
300
3" = 1'-0"
140
3.0
141
12.0
290
     0
  0
SCALE
  5
1A6
102
{ACAD_REACTORS
330
10C
102
}
330
10C
100
AcDbScale
 70
     0
300
6" = 1'-0"
140
6.0
141
12.0
290
     0
  0
SCALE
  5
1A7
102
{ACAD_REACTORS
330
10C
102
}
330
10C
100
AcDbScale
 70
     0
300
1'-0" = 1'-0"
140
12.0
141
12.0
290
     0
  0
TABLESTYLE
  5
7F
102
{ACAD_XDICTIONARY
360
162
102
}
102
{ACAD_REACTORS
330
7E
102
}
330
7E
100
AcDbTableStyle
  3
Standard
 70
     0
 71
     0
 40
1.5
 41
1.5
280
     0
281
     0
  7
Standard
140
4.5
170
     2
 62
     0
 63
     7
283
     0
274
    -2
284
     1
 64
     0
275
    -2
285
     1
 65
     0
276
    -2
286
     1
 66
     0
277
    -2
287
     1
 67
     0
278
    -2
288
     1
 68
     0
279
    -2
289
     1
 69
     0
  7
Standard
140
6.0
170
     5
 62
     0
 63
     7
283
     0
274
    -2
284
     1
 64
     0
275
    -2
285
     1
 65
     0
276
    -2
286
     1
 66
     0
277
    -2
287
     1
 67
     0
278
    -2
288
     1
 68
     0
279
    -2
289
     1
 69
     0
  7
Standard
140
4.5
170
     5
 62
     0
 63
     7
283
     0
274
    -2
284
     1
 64
     0
275
    -2
285
     1
 65
     0
276
    -2
286
     1
 66
     0
277
    -2
287
     1
 67
     0
278
    -2
288
     1
 68
     0
279
    -2
289
     1
 69
     0
  0
VISUALSTYLE
  5
F5
102
{ACAD_REACTORS
330
EF
102
}
330
EF
100
AcDbVisualStyle
  2
2dWireframe
 70
     4
 71
     0
 72
     2
 73
     1
 90
        0
 40
-0.6
 41
-30.0
 62
     5
 63
     7
 74
     1
 91
        4
 64
     7
 65
   257
 75
     1
175
     1
 42
1.0
 92
        0
 66
   257
 43
1.0
 76
     1
 77
     6
 78
     2
 67
     7
 79
     5
170
     0
171
     0
290
     0
174
     0
 93
        1
 44
0.0
173
     0
291
     0
 45
0.0
1001
ACAD
1000
AcDbSavedByObjectVersion
1070
     0
  0
VISUALSTYLE
  5
F7
102
{ACAD_REACTORS
330
EF
102
}
330
EF
100
AcDbVisualStyle
  2
3D Hidden
 70
     6
 71
     1
 72
     2
 73
     2
 90
        0
 40
-0.6
 41
-30.0
 62
     5
 63
     7
 74
     2
 91
        2
 64
     7
 65
   257
 75
     2
175
     1
 42
40.0
 92
        0
 66
   257
 43
1.0
 76
     1
 77
     6
 78
     2
 67
     7
 79
     3
170
     0
171
     0
290
     0
174
     0
 93
        1
 44
0.0
173
     0
291
     0
 45
0.0
1001
ACAD
1000
AcDbSavedByObjectVersion
1070
     0
  0
VISUALSTYLE
  5
F6
102
{ACAD_REACTORS
330
EF
102
}
330
EF
100
AcDbVisualStyle
  2
3dWireframe
 70
     5
 71
     0
 72
     2
 73
     1
 90
        0
 40
-0.6
 41
-30.0
 62
     5
 63
     7
 74
     1
 91
        4
 64
     7
 65
   257
 75
     1
175
     1
 42
1.0
 92
        0
 66
   257
 43
1.0
 76
     1
 77
     6
 78
     2
 67
     7
 79
     5
170
     0
171
     0
290
     0
174
     0
 93
        1
 44
0.0
173
     0
291
     0
 45
0.0
1001
ACAD
1000
AcDbSavedByObjectVersion
1070
     0
  0
VISUALSTYLE
  5
F4
102
{ACAD_REACTORS
330
EF
102
}
330
EF
100
AcDbVisualStyle
  2
Basic
 70
     7
 71
     1
 72
     0
 73
     1
 90
        0
 40
-0.6
 41
-30.0
 62
     5
 63
     7
 74
     0
 91
        4
 64
     7
 65
   257
 75
     1
175
     1
 42
1.0
 92
        8
 66
     7
 43
1.0
 76
     1
 77
     6
 78
     2
 67
     7
 79
     5
170
     0
171
     0
290
     0
174
     0
 93
        1
 44
0.0
173
     0
291
     1
 45
0.0
1001
ACAD
1000
AcDbSavedByObjectVersion
1070
     0
  0
VISUALSTYLE
  5
FB
102
{ACAD_REACTORS
330
EF
102
}
330
EF
100
AcDbVisualStyle
  2
Brighten
 70
    12
 71
     2
 72
     2
 73
     1
 90
        0
 40
-0.6
 41
-30.0
 62
     5
 63
     7
 74
     1
 91
        4
 64
     7
 65
   257
 75
     1
175
     1
 42
1.0
 92
        8
 66
     7
 43
1.0
 76
     1
 77
     6
 78
     2
 67
     7
 79
     5
170
     0
171
     0
290
     0
174
     0
 93
        1
 44
50.0
173
     0
291
     1
 45
0.0
1001
ACAD
1000
AcDbSavedByObjectVersion
1070
     0
  0
VISUALSTYLE
  5
FF
102
{ACAD_REACTORS
330
EF
102
}
330
EF
100
AcDbVisualStyle
  2
ColorChange
 70
    16
 71
     2
 72
     2
 73
     3
 90
        0
 40
-0.6
 41
-30.0
 62
     5
 63
     8
 74
     1
 91
        4
 64
     7
 65
   257
 75
     1
175
     1
 42
1.0
 92
        8
 66
     8
 43
1.0
 76
     1
 77
     6
 78
     2
 67
     7
 79
     5
170
     0
171
     0
290
     0
174
     0
 93
        1
 44
0.0
173
     0
291
     1
 45
0.0
1001
ACAD
1000
AcDbSavedByObjectVersion
1070
     0
  0
VISUALSTYLE
  5
F8
102
{ACAD_REACTORS
330
EF
102
}
330
EF
100
AcDbVisualStyle
  2
Conceptual
 70
     9
 71
     3
 72
     2
 73
     1
 90
        0
 40
-0.6
 41
-30.0
 62
     5
 63
     7
 74
     2
 91
        2
 64
     7
 65
   257
 75
     1
175
     1
 42
40.0
 92
        8
 66
     7
 43
1.0
 76
     1
 77
     6
 78
     2
 67
     7
 79
     3
170
     0
171
     0
290
     0
174
     0
 93
        1
 44
0.0
173
     0
291
     0
 45
0.0
1001
ACAD
1000
AcDbSavedByObjectVersion
1070
     0
  0
VISUALSTYLE
  5
FA
102
{ACAD_REACTORS
330
EF
102
}
330
EF
100
AcDbVisualStyle
  2
Dim
 70
    11
 71
     2
 72
     2
 73
     1
 90
        0
 40
-0.6
 41
-30.0
 62
     5
 63
     7
 74
     1
 91
        4
 64
     7
 65
   257
 75
     1
175
     1
 42
1.0
 92
        8
 66
     7
 43
1.0
 76
     1
 77
     6
 78
     2
 67
     7
 79
     5
170
     0
171
     0
290
     0
174
     0
 93
        1
 44
-50.0
173
     0
291
     1
 45
0.0
1001
ACAD
1000
AcDbSavedByObjectVersion
1070
     0
  0
VISUALSTYLE
  5
FE
102
{ACAD_REACTORS
330
EF
102
}
330
EF
100
AcDbVisualStyle
  2
Facepattern
 70
    15
 71
     2
 72
     2
 73
     1
 90
        0
 40
-0.6
 41
-30.0
 62
     5
 63
     7
 74
     1
 91
        4
 64
     7
 65
   257
 75
     1
175
     1
 42
1.0
 92
        8
 66
     7
 43
1.0
 76
     1
 77
     6
 78
     2
 67
     7
 79
     5
170
     0
171
     0
290
     0
174
     0
 93
        1
 44
0.0
173
     0
291
     1
 45
0.0
1001
ACAD
1000
AcDbSavedByObjectVersion
1070
     0
  0
VISUALSTYLE
  5
F0
102
{ACAD_REACTORS
330
EF
102
}
330
EF
100
AcDbVisualStyle
  2
Flat
 70
     0
 71
     2
 72
     1
 73
     1
 90
        2
 40
-0.6
 41
30.0
 62
     5
 63
     7
 74
     0
 91
        4
 64
     7
 65
   257
 75
     1
175
     1
 42
1.0
 92
        8
 66
     7
 43
1.0
 76
     1
 77
     6
 78
     2
 67
     7
 79
     5
170
     0
171
     0
290
     0
174
     0
 93
        1
 44
0.0
173
     0
291
     1
 45
0.0
1001
ACAD
1000
AcDbSavedByObjectVersion
1070
     0
  0
VISUALSTYLE
  5
F1
102
{ACAD_REACTORS
330
EF
102
}
330
EF
100
AcDbVisualStyle
  2
FlatWithEdges
 70
     1
 71
     2
 72
     1
 73
     1
 90
        2
 40
-0.6
 41
30.0
 62
     5
 63
     7
 74
     1
 91
        4
 64
     7
 65
   257
 75
     1
175
     1
 42
1.0
 92
        0
 66
   257
 43
1.0
 76
     1
 77
     6
 78
     2
 67
     7
 79
     5
170
     0
171
     0
290
     0
174
     0
 93
        1
 44
0.0
173
     0
291
     1
 45
0.0
1001
ACAD
1000
AcDbSavedByObjectVersion
1070
     0
  0
VISUALSTYLE
  5
F2
102
{ACAD_REACTORS
330
EF
102
}
330
EF
100
AcDbVisualStyle
  2
Gouraud
 70
     2
 71
     2
 72
     2
 73
     1
 90
        2
 40
-0.6
 41
30.0
 62
     5
 63
     7
 74
     0
 91
        4
 64
     7
 65
   257
 75
     1
175
     1
 42
1.0
 92
        0
 66
     7
 43
1.0
 76
     1
 77
     6
 78
     2
 67
     7
 79
     5
170
     0
171
     0
290
     0
174
     0
 93
        1
 44
0.0
173
     0
291
     1
 45
0.0
1001
ACAD
1000
AcDbSavedByObjectVersion
1070
     0
  0
VISUALSTYLE
  5
F3
102
{ACAD_REACTORS
330
EF
102
}
330
EF
100
AcDbVisualStyle
  2
GouraudWithEdges
 70
     3
 71
     2
 72
     2
 73
     1
 90
        2
 40
-0.6
 41
30.0
 62
     5
 63
     7
 74
     1
 91
        4
 64
     7
 65
   257
 75
     1
175
     1
 42
1.0
 92
        0
 66
   257
 43
1.0
 76
     1
 77
     6
 78
     2
 67
     7
 79
     5
170
     0
171
     0
290
     0
174
     0
 93
        1
 44
0.0
173
     0
291
     1
 45
0.0
1001
ACAD
1000
AcDbSavedByObjectVersion
1070
     0
  0
VISUALSTYLE
  5
FD
102
{ACAD_REACTORS
330
EF
102
}
330
EF
100
AcDbVisualStyle
  2
Linepattern
 70
    14
 71
     2
 72
     2
 73
     1
 90
        0
 40
-0.6
 41
-30.0
 62
     5
 63
     7
 74
     1
 91
        4
 64
     7
 65
   257
 75
     7
175
     7
 42
1.0
 92
        8
 66
     7
 43
1.0
 76
     1
 77
     6
 78
     2
 67
     7
 79
     5
170
     0
171
     0
290
     0
174
     0
 93
        1
 44
0.0
173
     0
291
     1
 45
0.0
1001
ACAD
1000
AcDbSavedByObjectVersion
1070
     0
  0
VISUALSTYLE
  5
F9
102
{ACAD_REACTORS
330
EF
102
}
330
EF
100
AcDbVisualStyle
  2
Realistic
 70
     8
 71
     2
 72
     2
 73
     1
 90
        0
 40
-0.6
 41
-30.0
 62
     5
 63
     7
 74
     1
 91
        0
 64
     7
 65
   257
 75
     1
175
     1
 42
1.0
 92
        8
 66
     8
 43
1.0
 76
     1
 77
     6
 78
     2
 67
     7
 79
     5
170
     0
171
     0
290
     0
174
     0
 93
       13
 44
0.0
173
     0
291
     0
 45
0.0
1001
ACAD
1000
AcDbSavedByObjectVersion
1070
     0
  0
VISUALSTYLE
  5
FC
102
{ACAD_REACTORS
330
EF
102
}
330
EF
100
AcDbVisualStyle
  2
Thicken
 70
    13
 71
     2
 72
     2
 73
     1
 90
        0
 40
-0.6
 41
-30.0
 62
     5
 63
     7
 74
     1
 91
        4
 64
     7
 65
   257
 75
     1
175
     1
 42
1.0
 92
       12
 66
     7
 43
1.0
 76
     1
 77
     6
 78
     2
 67
     7
 79
     5
170
     0
171
     0
290
     0
174
     0
 93
        1
 44
0.0
173
     0
291
     1
 45
0.0
1001
ACAD
1000
AcDbSavedByObjectVersion
1070
     0
  0
DICTIONARYVAR
  5
146
102
{ACAD_REACTORS
330
5E
102
}
330
5E
100
DictionaryVariables
280
     0
  1
1:1
  0
DICTIONARYVAR
  5
145
102
{ACAD_REACTORS
330
5E
102
}
330
5E
100
DictionaryVariables
280
     0
  1
STANDARD
  0
DICTIONARYVAR
  5
84
102
{ACAD_REACTORS
330
5E
102
}
330
5E
100
DictionaryVariables
280
     0
  1
STANDARD
  0
DICTIONARYVAR
  5
5F
102
{ACAD_REACTORS
330
5E
102
}
330
5E
100
DictionaryVariables
280
     0
  1
2
  0
DICTIONARYVAR
  5
63
102
{ACAD_REACTORS
330
5E
102
}
330
5E
100
DictionaryVariables
280
     0
  1
1
  0
DICTIONARYVAR
  5
603
102
{ACAD_REACTORS
330
5E
102
}
330
5E
100
DictionaryVariables
280
     0
  1
0
  0
DICTIONARYVAR
  5
601
102
{ACAD_REACTORS
330
5E
102
}
330
5E
100
DictionaryVariables
280
     0
  1
2
  0
DICTIONARYVAR
  5
600
102
{ACAD_REACTORS
330
5E
102
}
330
5E
100
DictionaryVariables
280
     0
  1
1
  0
DICTIONARYVAR
  5
605
102
{ACAD_REACTORS
330
5E
102
}
330
5E
100
DictionaryVariables
280
     0
  1
80.000000
  0
DICTIONARYVAR
  5
604
102
{ACAD_REACTORS
330
5E
102
}
330
5E
100
DictionaryVariables
280
     0
  1
5.000000
  0
DICTIONARYVAR
  5
602
102
{ACAD_REACTORS
330
5E
102
}
330
5E
100
DictionaryVariables
280
     0
  1
127
  0
DICTIONARY
  5
60B
330
D3
100
AcDbDictionary
280
     1
281
     1
  3
ACAD_XREC_ROUNDTRIP
360
60C
  0
DICTIONARY
  5
60D
330
D7
100
AcDbDictionary
280
     1
281
     1
  3
ACAD_XREC_ROUNDTRIP
360
60E
  0
DICTIONARY
  5
608
330
22
100
AcDbDictionary
280
     1
281
     1
  3
ACAD_XREC_ROUNDTRIP
360
609
  0
DICTIONARY
  5
611
330
ED
100
AcDbDictionary
280
     1
281
     1
  3
ACAD_XREC_ROUNDTRIP
360
612
  0
DICTIONARY
  5
60F
330
EC
100
AcDbDictionary
280
     1
281
     1
  3
ACAD_XREC_ROUNDTRIP
360
610
  0
DICTIONARY
  5
173
330
EE
100
AcDbDictionary
280
     1
281
     1
  3
ACAD_XREC_ROUNDTRIP
360
613
  3
BUMPTILE
360
175
  3
DIFFUSETILE
360
174
  3
OPACITYTILE
360
176
  3
REFLECTIONTILE
360
177
  0
DICTIONARY
  5
162
330
7F
100
AcDbDictionary
280
     1
281
     1
  3
ACAD_ROUNDTRIP_2008_TABLESTYLE_CELLSTYLEMAP
360
606
  3
ACAD_XREC_ROUNDTRIP
360
60A
  0
XRECORD
  5
60C
102
{ACAD_REACTORS
330
60B
102
}
330
60B
100
AcDbXrecord
280
     1
102
SHADEPLOT
 70
     0
102
SHADEPLOTRESLEVEL
 70
     2
102
SHADEPLOTCUSTOMDPI
 70
   300
  0
XRECORD
  5
60E
102
{ACAD_REACTORS
330
60D
102
}
330
60D
100
AcDbXrecord
280
     1
102
SHADEPLOT
 70
     0
102
SHADEPLOTRESLEVEL
 70
     2
102
SHADEPLOTCUSTOMDPI
 70
   300
  0
XRECORD
  5
609
102
{ACAD_REACTORS
330
608
102
}
330
608
100
AcDbXrecord
280
     1
102
SHADEPLOT
 70
     0
102
SHADEPLOTRESLEVEL
 70
     2
102
SHADEPLOTCUSTOMDPI
 70
   300
  0
XRECORD
  5
612
102
{ACAD_REACTORS
330
611
102
}
330
611
100
AcDbXrecord
280
     1
102
MATERIAL
148
0.0
149
0.0
149
0.0
 93
        0
 94
       63
282
     0
 72
     1
 77
     1
171
     1
175
     1
179
     1
273
     0
  0
XRECORD
  5
610
102
{ACAD_REACTORS
330
60F
102
}
330
60F
100
AcDbXrecord
280
     1
102
MATERIAL
148
0.0
149
0.0
149
0.0
 93
        0
 94
       63
282
     0
 72
     1
 77
     1
171
     1
175
     1
179
     1
273
     0
  0
XRECORD
  5
613
102
{ACAD_REACTORS
330
173
102
}
330
173
100
AcDbXrecord
280
     1
102
MATERIAL
148
0.0
149
0.0
149
0.0
 93
        0
 94
       63
282
     0
 72
     1
 77
     1
171
     1
175
     1
179
     1
273
     0
  0
XRECORD
  5
175
102
{ACAD_REACTORS
330
173
102
}
330
173
100
AcDbXrecord
280
     1
270
     1
271
     1
  0
XRECORD
  5
174
102
{ACAD_REACTORS
330
173
102
}
330
173
100
AcDbXrecord
280
     1
270
     1
271
     1
  0
XRECORD
  5
176
102
{ACAD_REACTORS
330
173
102
}
330
173
100
AcDbXrecord
280
     1
270
     1
271
     1
  0
XRECORD
  5
177
102
{ACAD_REACTORS
330
173
102
}
330
173
100
AcDbXrecord
280
     1
270
     1
271
     1
  0
CELLSTYLEMAP
  5
606
102
{ACAD_REACTORS
330
162
102
}
330
162
100
AcDbCellStyleMap
 90
        3
300
CELLSTYLE
  1
TABLEFORMAT_BEGIN
 90
        5
170
     1
 91
        0
 92
    32768
 62
   257
 93
        1
300
CONTENTFORMAT
  1
CONTENTFORMAT_BEGIN
 90
        0
 91
        0
 92
      512
 93
        0
300

 40
0.0
140
1.0
 94
        5
 62
     0
340
11
144
6.0
309
CONTENTFORMAT_END
171
     1
301
MARGIN
  1
CELLMARGIN_BEGIN
 40
1.5
 40
1.5
 40
1.5
 40
1.5
 40
4.5
 40
4.5
309
CELLMARGIN_END
 94
        6
 95
        1
302
GRIDFORMAT
  1
GRIDFORMAT_BEGIN
 90
        0
 91
        1
 62
     0
 92
       -2
340
14
 93
        0
 40
1.125
309
GRIDFORMAT_END
 95
        2
302
GRIDFORMAT
  1
GRIDFORMAT_BEGIN
 90
        0
 91
        1
 62
     0
 92
       -2
340
14
 93
        0
 40
1.125
309
GRIDFORMAT_END
 95
        4
302
GRIDFORMAT
  1
GRIDFORMAT_BEGIN
 90
        0
 91
        1
 62
     0
 92
       -2
340
14
 93
        0
 40
1.125
309
GRIDFORMAT_END
 95
        8
302
GRIDFORMAT
  1
GRIDFORMAT_BEGIN
 90
        0
 91
        1
 62
     0
 92
       -2
340
14
 93
        0
 40
1.125
309
GRIDFORMAT_END
 95
       16
302
GRIDFORMAT
  1
GRIDFORMAT_BEGIN
 90
        0
 91
        1
 62
     0
 92
       -2
340
14
 93
        0
 40
1.125
309
GRIDFORMAT_END
 95
       32
302
GRIDFORMAT
  1
GRIDFORMAT_BEGIN
 90
        0
 91
        1
 62
     0
 92
       -2
340
14
 93
        0
 40
1.125
309
GRIDFORMAT_END
309
TABLEFORMAT_END
  1
CELLSTYLE_BEGIN
 90
        1
 91
        1
300
_TITLE
309
CELLSTYLE_END
300
CELLSTYLE
  1
TABLEFORMAT_BEGIN
 90
        5
170
     1
 91
        0
 92
        0
 62
   257
 93
        1
300
CONTENTFORMAT
  1
CONTENTFORMAT_BEGIN
 90
        0
 91
        0
 92
      512
 93
        0
300

 40
0.0
140
1.0
 94
        5
 62
     0
340
11
144
4.5
309
CONTENTFORMAT_END
171
     1
301
MARGIN
  1
CELLMARGIN_BEGIN
 40
1.5
 40
1.5
 40
1.5
 40
1.5
 40
4.5
 40
4.5
309
CELLMARGIN_END
 94
        6
 95
        1
302
GRIDFORMAT
  1
GRIDFORMAT_BEGIN
 90
        0
 91
        1
 62
     0
 92
       -2
340
14
 93
        0
 40
1.125
309
GRIDFORMAT_END
 95
        2
302
GRIDFORMAT
  1
GRIDFORMAT_BEGIN
 90
        0
 91
        1
 62
     0
 92
       -2
340
14
 93
        0
 40
1.125
309
GRIDFORMAT_END
 95
        4
302
GRIDFORMAT
  1
GRIDFORMAT_BEGIN
 90
        0
 91
        1
 62
     0
 92
       -2
340
14
 93
        0
 40
1.125
309
GRIDFORMAT_END
 95
        8
302
GRIDFORMAT
  1
GRIDFORMAT_BEGIN
 90
        0
 91
        1
 62
     0
 92
       -2
340
14
 93
        0
 40
1.125
309
GRIDFORMAT_END
 95
       16
302
GRIDFORMAT
  1
GRIDFORMAT_BEGIN
 90
        0
 91
        1
 62
     0
 92
       -2
340
14
 93
        0
 40
1.125
309
GRIDFORMAT_END
 95
       32
302
GRIDFORMAT
  1
GRIDFORMAT_BEGIN
 90
        0
 91
        1
 62
     0
 92
       -2
340
14
 93
        0
 40
1.125
309
GRIDFORMAT_END
309
TABLEFORMAT_END
  1
CELLSTYLE_BEGIN
 90
        2
 91
        1
300
_HEADER
309
CELLSTYLE_END
300
CELLSTYLE
  1
TABLEFORMAT_BEGIN
 90
        5
170
     1
 91
        0
 92
        0
 62
   257
 93
        1
300
CONTENTFORMAT
  1
CONTENTFORMAT_BEGIN
 90
        0
 91
        0
 92
      512
 93
        0
300

 40
0.0
140
1.0
 94
        2
 62
     0
340
11
144
4.5
309
CONTENTFORMAT_END
171
     1
301
MARGIN
  1
CELLMARGIN_BEGIN
 40
1.5
 40
1.5
 40
1.5
 40
1.5
 40
4.5
 40
4.5
309
CELLMARGIN_END
 94
        6
 95
        1
302
GRIDFORMAT
  1
GRIDFORMAT_BEGIN
 90
        0
 91
        1
 62
     0
 92
       -2
340
14
 93
        0
 40
1.125
309
GRIDFORMAT_END
 95
        2
302
GRIDFORMAT
  1
GRIDFORMAT_BEGIN
 90
        0
 91
        1
 62
     0
 92
       -2
340
14
 93
        0
 40
1.125
309
GRIDFORMAT_END
 95
        4
302
GRIDFORMAT
  1
GRIDFORMAT_BEGIN
 90
        0
 91
        1
 62
     0
 92
       -2
340
14
 93
        0
 40
1.125
309
GRIDFORMAT_END
 95
        8
302
GRIDFORMAT
  1
GRIDFORMAT_BEGIN
 90
        0
 91
        1
 62
     0
 92
       -2
340
14
 93
        0
 40
1.125
309
GRIDFORMAT_END
 95
       16
302
GRIDFORMAT
  1
GRIDFORMAT_BEGIN
 90
        0
 91
        1
 62
     0
 92
       -2
340
14
 93
        0
 40
1.125
309
GRIDFORMAT_END
 95
       32
302
GRIDFORMAT
  1
GRIDFORMAT_BEGIN
 90
        0
 91
        1
 62
     0
 92
       -2
340
14
 93
        0
 40
1.125
309
GRIDFORMAT_END
309
TABLEFORMAT_END
  1
CELLSTYLE_BEGIN
 90
        3
 91
        2
300
_DATA
309
CELLSTYLE_END
  0
XRECORD
  5
60A
102
{ACAD_REACTORS
330
162
102
}
330
162
100
AcDbXrecord
280
     1
102
ACAD_ROUNDTRIP_PRE2007_TABLESTYLE
 90
      512
 91
        0
  1

 92
      512
 93
        0
  2

 94
      512
 95
        0
  3

  0
ENDSEC
  0
EOF
