  0
SECTION
  2
HEADER
  9
$ACADVER
  1
AC1015
  9
$ACADMAINTVER
 70
    20
  9
$DWGCODEPAGE
  3
ANSI_1254
  9
$INSBASE
 10
0.0
 20
0.0
 30
0.0
  9
$EXTMIN
 10
2282.963068787959
 20
790.6987877737941
 30
0.0
  9
$EXTMAX
 10
2534.820716399385
 20
935.4407087474767
 30
0.0
  9
$LIMMIN
 10
0.0
 20
0.0
  9
$LIMMAX
 10
420.0
 20
297.0
  9
$ORTHOMODE
 70
     0
  9
$REGENMODE
 70
     1
  9
$FILLMODE
 70
     1
  9
$QTEXTMODE
 70
     0
  9
$MIRRTEXT
 70
     0
  9
$LTSCALE
 40
1.0
  9
$ATTMODE
 70
     1
  9
$TEXTSIZE
 40
2.5
  9
$TRACEWID
 40
1.0
  9
$TEXTSTYLE
  7
Standard
  9
$CLAYER
  8
0
  9
$CELTYPE
  6
ByLayer
  9
$CECOLOR
 62
   256
  9
$CELTSCALE
 40
1.0
  9
$DISPSILH
 70
     0
  9
$DIMSCALE
 40
1.0
  9
$DIMASZ
 40
2.5
  9
$DIMEXO
 40
0.625
  9
$DIMDLI
 40
3.75
  9
$DIMRND
 40
0.0
  9
$DIMDLE
 40
0.0
  9
$DIMEXE
 40
1.25
  9
$DIMTP
 40
0.0
  9
$DIMTM
 40
0.0
  9
$DIMTXT
 40
2.5
  9
$DIMCEN
 40
2.5
  9
$DIMTSZ
 40
0.0
  9
$DIMTOL
 70
     0
  9
$DIMLIM
 70
     0
  9
$DIMTIH
 70
     0
  9
$DIMTOH
 70
     0
  9
$DIMSE1
 70
     0
  9
$DIMSE2
 70
     0
  9
$DIMTAD
 70
     1
  9
$DIMZIN
 70
     8
  9
$DIMBLK
  1

  9
$DIMASO
 70
     1
  9
$DIMSHO
 70
     1
  9
$DIMPOST
  1

  9
$DIMAPOST
  1

  9
$DIMALT
 70
     0
  9
$DIMALTD
 70
     3
  9
$DIMALTF
 40
0.03937007874016
  9
$DIMLFAC
 40
1.0
  9
$DIMTOFL
 70
     1
  9
$DIMTVP
 40
0.0
  9
$DIMTIX
 70
     0
  9
$DIMSOXD
 70
     0
  9
$DIMSAH
 70
     0
  9
$DIMBLK1
  1

  9
$DIMBLK2
  1

  9
$DIMSTYLE
  2
ISO-25
  9
$DIMCLRD
 70
     0
  9
$DIMCLRE
 70
     0
  9
$DIMCLRT
 70
     0
  9
$DIMTFAC
 40
1.0
  9
$DIMGAP
 40
0.625
  9
$DIMJUST
 70
     0
  9
$DIMSD1
 70
     0
  9
$DIMSD2
 70
     0
  9
$DIMTOLJ
 70
     0
  9
$DIMTZIN
 70
     8
  9
$DIMALTZ
 70
     0
  9
$DIMALTTZ
 70
     0
  9
$DIMUPT
 70
     0
  9
$DIMDEC
 70
     2
  9
$DIMTDEC
 70
     2
  9
$DIMALTU
 70
     2
  9
$DIMALTTD
 70
     3
  9
$DIMTXSTY
  7
Standard
  9
$DIMAUNIT
 70
     0
  9
$DIMADEC
 70
     0
  9
$DIMALTRND
 40
0.0
  9
$DIMAZIN
 70
     0
  9
$DIMDSEP
 70
    44
  9
$DIMATFIT
 70
     3
  9
$DIMFRAC
 70
     0
  9
$DIMLDRBLK
  1

  9
$DIMLUNIT
 70
     2
  9
$DIMLWD
 70
    -2
  9
$DIMLWE
 70
    -2
  9
$DIMTMOVE
 70
     0
  9
$LUNITS
 70
     2
  9
$LUPREC
 70
     4
  9
$SKETCHINC
 40
1.0
  9
$FILLETRAD
 40
0.0
  9
$AUNITS
 70
     0
  9
$AUPREC
 70
     0
  9
$MENU
  1
.
  9
$ELEVATION
 40
0.0
  9
$PELEVATION
 40
0.0
  9
$THICKNESS
 40
0.0
  9
$LIMCHECK
 70
     0
  9
$CHAMFERA
 40
0.0
  9
$CHAMFERB
 40
0.0
  9
$CHAMFERC
 40
0.0
  9
$CHAMFERD
 40
0.0
  9
$SKPOLY
 70
     0
  9
$TDCREATE
 40
2459083.643109236
  9
$TDUCREATE
 40
2459083.518109236
  9
$TDUPDATE
 40
2459083.684912385
  9
$TDUUPDATE
 40
2459083.559912385
  9
$TDINDWG
 40
0.0004205671
  9
$TDUSRTIMER
 40
0.0004205671
  9
$USRTIMER
 70
     1
  9
$ANGBASE
 50
0.0
  9
$ANGDIR
 70
     0
  9
$PDMODE
 70
     0
  9
$PDSIZE
 40
0.0
  9
$PLINEWID
 40
0.0
  9
$SPLFRAME
 70
     0
  9
$SPLINETYPE
 70
     6
  9
$SPLINESEGS
 70
     8
  9
$HANDSEED
  5
67F
  9
$SURFTAB1
 70
     6
  9
$SURFTAB2
 70
     6
  9
$SURFTYPE
 70
     6
  9
$SURFU
 70
     6
  9
$SURFV
 70
     6
  9
$UCSBASE
  2

  9
$UCSNAME
  2

  9
$UCSORG
 10
0.0
 20
0.0
 30
0.0
  9
$UCSXDIR
 10
1.0
 20
0.0
 30
0.0
  9
$UCSYDIR
 10
0.0
 20
1.0
 30
0.0
  9
$UCSORTHOREF
  2

  9
$UCSORTHOVIEW
 70
     0
  9
$UCSORGTOP
 10
0.0
 20
0.0
 30
0.0
  9
$UCSORGBOTTOM
 10
0.0
 20
0.0
 30
0.0
  9
$UCSORGLEFT
 10
0.0
 20
0.0
 30
0.0
  9
$UCSORGRIGHT
 10
0.0
 20
0.0
 30
0.0
  9
$UCSORGFRONT
 10
0.0
 20
0.0
 30
0.0
  9
$UCSORGBACK
 10
0.0
 20
0.0
 30
0.0
  9
$PUCSBASE
  2

  9
$PUCSNAME
  2

  9
$PUCSORG
 10
0.0
 20
0.0
 30
0.0
  9
$PUCSXDIR
 10
1.0
 20
0.0
 30
0.0
  9
$PUCSYDIR
 10
0.0
 20
1.0
 30
0.0
  9
$PUCSORTHOREF
  2

  9
$PUCSORTHOVIEW
 70
     0
  9
$PUCSORGTOP
 10
0.0
 20
0.0
 30
0.0
  9
$PUCSORGBOTTOM
 10
0.0
 20
0.0
 30
0.0
  9
$PUCSORGLEFT
 10
0.0
 20
0.0
 30
0.0
  9
$PUCSORGRIGHT
 10
0.0
 20
0.0
 30
0.0
  9
$PUCSORGFRONT
 10
0.0
 20
0.0
 30
0.0
  9
$PUCSORGBACK
 10
0.0
 20
0.0
 30
0.0
  9
$USERI1
 70
     0
  9
$USERI2
 70
     0
  9
$USERI3
 70
     0
  9
$USERI4
 70
     0
  9
$USERI5
 70
     0
  9
$USERR1
 40
0.0
  9
$USERR2
 40
0.0
  9
$USERR3
 40
0.0
  9
$USERR4
 40
0.0
  9
$USERR5
 40
0.0
  9
$WORLDVIEW
 70
     1
  9
$SHADEDGE
 70
     3
  9
$SHADEDIF
 70
    70
  9
$TILEMODE
 70
     1
  9
$MAXACTVP
 70
    64
  9
$PINSBASE
 10
0.0
 20
0.0
 30
0.0
  9
$PLIMCHECK
 70
     0
  9
$PEXTMIN
 10
0.0
 20
0.0
 30
0.0
  9
$PEXTMAX
 10
0.0
 20
0.0
 30
0.0
  9
$PLIMMIN
 10
0.0
 20
0.0
  9
$PLIMMAX
 10
12.0
 20
9.0
  9
$UNITMODE
 70
     0
  9
$VISRETAIN
 70
     1
  9
$PLINEGEN
 70
     0
  9
$PSLTSCALE
 70
     1
  9
$TREEDEPTH
 70
  3020
  9
$CMLSTYLE
  2
Standard
  9
$CMLJUST
 70
     0
  9
$CMLSCALE
 40
20.0
  9
$PROXYGRAPHICS
 70
     1
  9
$MEASUREMENT
 70
     1
  9
$CELWEIGHT
370
    -1
  9
$ENDCAPS
280
     0
  9
$JOINSTYLE
280
     0
  9
$LWDISPLAY
290
     0
  9
$INSUNITS
 70
     4
  9
$HYPERLINKBASE
  1

  9
$STYLESHEET
  1

  9
$XEDIT
290
     1
  9
$CEPSNTYPE
380
     0
  9
$PSTYLEMODE
290
     1
  9
$FINGERPRINTGUID
  2
{F1787CC8-5ECC-4002-A171-53A9D99C3748}
  9
$VERSIONGUID
  2
{7342F227-05AB-4F56-9F30-AEC68589B6EE}
  9
$EXTNAMES
290
     1
  9
$PSVPSCALE
 40
0.0
  9
$OLESTARTUP
290
     0
  0
ENDSEC
  0
SECTION
  2
CLASSES
  0
CLASS
  1
ACDBDICTIONARYWDFLT
  2
AcDbDictionaryWithDefault
  3
ObjectDBX Classes
 90
        0
280
     0
281
     0
  0
CLASS
  1
ACDBPLACEHOLDER
  2
AcDbPlaceHolder
  3
ObjectDBX Classes
 90
        0
280
     0
281
     0
  0
CLASS
  1
LAYOUT
  2
AcDbLayout
  3
ObjectDBX Classes
 90
        0
280
     0
281
     0
  0
CLASS
  1
DICTIONARYVAR
  2
AcDbDictionaryVar
  3
ObjectDBX Classes
 90
        0
280
     0
281
     0
  0
CLASS
  1
TABLESTYLE
  2
AcDbTableStyle
  3
ObjectDBX Classes
 90
     4095
280
     0
281
     0
  0
CLASS
  1
MATERIAL
  2
AcDbMaterial
  3
ObjectDBX Classes
 90
     1153
280
     0
281
     0
  0
CLASS
  1
VISUALSTYLE
  2
AcDbVisualStyle
  3
ObjectDBX Classes
 90
     4095
280
     0
281
     0
  0
CLASS
  1
SCALE
  2
AcDbScale
  3
ObjectDBX Classes
 90
     1153
280
     0
281
     0
  0
CLASS
  1
MLEADERSTYLE
  2
AcDbMLeaderStyle
  3
ACDB_MLEADERSTYLE_CLASS
 90
     4095
280
     0
281
     0
  0
CLASS
  1
CELLSTYLEMAP
  2
AcDbCellStyleMap
  3
ObjectDBX Classes
 90
     1152
280
     0
281
     0
  0
CLASS
  1
ACAD_EVALUATION_GRAPH
  2
AcDbEvalGraph
  3
ObjectDBX Classes
 90
    33921
280
     0
281
     0
  0
CLASS
  1
ACAECUSTOBJ
  2
AcAeEditorObj
  3
AcAeEditorObj
 90
    33792
280
     0
281
     0
  0
CLASS
  1
ACDB_DYNAMICBLOCKPURGEPREVENTER_VERSION
  2
AcDbDynamicBlockPurgePreventer
  3
ObjectDBX Classes
 90
    33921
280
     0
281
     0
  0
ENDSEC
  0
SECTION
  2
TABLES
  0
TABLE
  2
VPORT
  5
8
330
0
100
AcDbSymbolTable
 70
     1
  0
VPORT
  5
EA
330
8
100
AcDbSymbolTableRecord
100
AcDbViewportTableRecord
  2
*Active
 70
     0
 10
0.0
 20
0.0
 11
1.0
 21
1.0
 12
2451.806771945092
 22
881.6597852880301
 13
0.0
 23
0.0
 14
10.0
 24
10.0
 15
10.0
 25
10.0
 16
0.0
 26
0.0
 36
1.0
 17
0.0
 27
0.0
 37
0.0
 40
264.2374145339189
 41
1.903110047846889
 42
50.0
 43
0.0
 44
0.0
 50
0.0
 51
0.0
 71
     0
 72
  1000
 73
     1
 74
     3
 75
     0
 76
     0
 77
     0
 78
     0
281
     0
 65
     1
110
0.0
120
0.0
130
0.0
111
1.0
121
0.0
131
0.0
112
0.0
122
1.0
132
0.0
 79
     0
146
0.0
  0
ENDTAB
  0
TABLE
  2
LTYPE
  5
5
330
0
100
AcDbSymbolTable
 70
     1
  0
LTYPE
  5
14
330
5
100
AcDbSymbolTableRecord
100
AcDbLinetypeTableRecord
  2
ByBlock
 70
     0
  3

 72
    65
 73
     0
 40
0.0
  0
LTYPE
  5
15
330
5
100
AcDbSymbolTableRecord
100
AcDbLinetypeTableRecord
  2
ByLayer
 70
     0
  3

 72
    65
 73
     0
 40
0.0
  0
LTYPE
  5
16
330
5
100
AcDbSymbolTableRecord
100
AcDbLinetypeTableRecord
  2
Continuous
 70
     0
  3
Solid line
 72
    65
 73
     0
 40
0.0
  0
ENDTAB
  0
TABLE
  2
LAYER
  5
2
330
0
100
AcDbSymbolTable
 70
     1
  0
LAYER
  5
10
102
{ACAD_XDICTIONARY
360
13C
102
}
330
2
100
AcDbSymbolTableRecord
100
AcDbLayerTableRecord
  2
0
 70
     0
 62
     7
  6
Continuous
370
    -3
390
F
  0
ENDTAB
  0
TABLE
  2
STYLE
  5
3
330
0
100
AcDbSymbolTable
 70
     2
  0
STYLE
  5
11
330
3
100
AcDbSymbolTableRecord
100
AcDbTextStyleTableRecord
  2
Standard
 70
     0
 40
0.0
 41
1.0
 50
0.0
 71
     0
 42
2.5
  3
txt
  4

  0
STYLE
  5
132
330
3
100
AcDbSymbolTableRecord
100
AcDbTextStyleTableRecord
  2
Annotative
 70
     0
 40
0.0
 41
1.0
 50
0.0
 71
     0
 42
2.5
  3
txt.shx
  4

1001
AcadAnnotative
1000
AnnotativeData
1002
{
1070
     1
1070
     1
1002
}
  0
ENDTAB
  0
TABLE
  2
VIEW
  5
6
330
0
100
AcDbSymbolTable
 70
     0
  0
ENDTAB
  0
TABLE
  2
UCS
  5
7
330
0
100
AcDbSymbolTable
 70
     0
  0
ENDTAB
  0
TABLE
  2
APPID
  5
9
330
0
100
AcDbSymbolTable
 70
    11
  0
APPID
  5
12
330
9
100
AcDbSymbolTableRecord
100
AcDbRegAppTableRecord
  2
ACAD
 70
     0
  0
APPID
  5
9E
330
9
100
AcDbSymbolTableRecord
100
AcDbRegAppTableRecord
  2
ACAD_PSEXT
 70
     0
  0
APPID
  5
133
330
9
100
AcDbSymbolTableRecord
100
AcDbRegAppTableRecord
  2
AcadAnnoPO
 70
     0
  0
APPID
  5
134
330
9
100
AcDbSymbolTableRecord
100
AcDbRegAppTableRecord
  2
AcadAnnotative
 70
     0
  0
APPID
  5
135
330
9
100
AcDbSymbolTableRecord
100
AcDbRegAppTableRecord
  2
ACAD_DSTYLE_DIMJAG
 70
     0
  0
APPID
  5
136
330
9
100
AcDbSymbolTableRecord
100
AcDbRegAppTableRecord
  2
ACAD_DSTYLE_DIMTALN
 70
     0
  0
APPID
  5
165
330
9
100
AcDbSymbolTableRecord
100
AcDbRegAppTableRecord
  2
ACAD_MLEADERVER
 70
     0
  0
APPID
  5
65E
330
9
100
AcDbSymbolTableRecord
100
AcDbRegAppTableRecord
  2
ACAUTHENVIRON
 70
     0
  0
APPID
  5
662
330
9
100
AcDbSymbolTableRecord
100
AcDbRegAppTableRecord
  2
AcDbDynamicBlockTrueName
 70
     0
  0
APPID
  5
663
330
9
100
AcDbSymbolTableRecord
100
AcDbRegAppTableRecord
  2
AcDbDynamicBlockGUID
 70
     0
  0
APPID
  5
665
330
9
100
AcDbSymbolTableRecord
100
AcDbRegAppTableRecord
  2
AcDbBlockRepETag
 70
     0
  0
ENDTAB
  0
TABLE
  2
DIMSTYLE
  5
A
330
0
100
AcDbSymbolTable
 70
     2
100
AcDbDimStyleTable
 71
     2
340
27
340
137
  0
DIMSTYLE
105
27
330
A
100
AcDbSymbolTableRecord
100
AcDbDimStyleTableRecord
  2
ISO-25
 70
     0
 41
2.5
 42
0.625
 43
3.75
 44
1.25
 73
     0
 74
     0
 77
     1
 78
     8
140
2.5
141
2.5
143
0.03937007874016
147
0.625
171
     3
172
     1
271
     2
272
     2
274
     3
278
    44
283
     0
284
     8
340
11
  0
DIMSTYLE
105
137
330
A
100
AcDbSymbolTableRecord
100
AcDbDimStyleTableRecord
  2
Annotative
 70
     0
 40
0.0
 41
2.5
 42
0.625
 43
3.75
 44
1.25
 73
     0
 74
     0
 77
     1
 78
     8
140
2.5
141
2.5
143
0.03937007874016
147
0.625
171
     3
172
     1
271
     2
272
     2
274
     3
278
    44
283
     0
284
     8
340
11
1001
AcadAnnotative
1000
AnnotativeData
1002
{
1070
     1
1070
     1
1002
}
1001
ACAD_DSTYLE_DIMJAG
1070
   388
1040
1.5
1001
ACAD_DSTYLE_DIMTALN
1070
   392
1070
     0
  0
ENDTAB
  0
TABLE
  2
BLOCK_RECORD
  5
1
330
0
100
AcDbSymbolTable
 70
    16
  0
BLOCK_RECORD
  5
1F
330
1
100
AcDbSymbolTableRecord
100
AcDbBlockTableRecord
  2
*Model_Space
340
22
  0
BLOCK_RECORD
  5
D2
330
1
100
AcDbSymbolTableRecord
100
AcDbBlockTableRecord
  2
*Paper_Space
340
D3
  0
BLOCK_RECORD
  5
D6
330
1
100
AcDbSymbolTableRecord
100
AcDbBlockTableRecord
  2
*Paper_Space0
340
D7
  0
BLOCK_RECORD
  5
1AD
330
1
100
AcDbSymbolTableRecord
100
AcDbBlockTableRecord
  2
SW_CENTERMARKSYMBOL_0
340
0
  0
BLOCK_RECORD
  5
1B8
330
1
100
AcDbSymbolTableRecord
100
AcDbBlockTableRecord
  2
SW_CENTERMARKSYMBOL_1
340
0
  0
BLOCK_RECORD
  5
1C3
330
1
100
AcDbSymbolTableRecord
100
AcDbBlockTableRecord
  2
SW_CENTERMARKSYMBOL_2
340
0
  0
BLOCK_RECORD
  5
1CE
330
1
100
AcDbSymbolTableRecord
100
AcDbBlockTableRecord
  2
SW_CENTERMARKSYMBOL_3
340
0
102
{BLKREFS
331
5BA
102
}
  0
BLOCK_RECORD
  5
1D9
330
1
100
AcDbSymbolTableRecord
100
AcDbBlockTableRecord
  2
SW_CENTERMARKSYMBOL_4
340
0
102
{BLKREFS
331
5BB
102
}
  0
BLOCK_RECORD
  5
1E4
330
1
100
AcDbSymbolTableRecord
100
AcDbBlockTableRecord
  2
SW_CENTERMARKSYMBOL_5
340
0
102
{BLKREFS
331
5BC
102
}
  0
BLOCK_RECORD
  5
1EF
330
1
100
AcDbSymbolTableRecord
100
AcDbBlockTableRecord
  2
SW_CENTERMARKSYMBOL_6
340
0
102
{BLKREFS
331
5BD
102
}
  0
BLOCK_RECORD
  5
1FA
330
1
100
AcDbSymbolTableRecord
100
AcDbBlockTableRecord
  2
SW_CENTERMARKSYMBOL_7
340
0
102
{BLKREFS
331
5BE
102
}
  0
BLOCK_RECORD
  5
205
330
1
100
AcDbSymbolTableRecord
100
AcDbBlockTableRecord
  2
SW_CENTERMARKSYMBOL_8
340
0
102
{BLKREFS
331
5BF
102
}
  0
BLOCK_RECORD
  5
210
330
1
100
AcDbSymbolTableRecord
100
AcDbBlockTableRecord
  2
SW_CENTERMARKSYMBOL_9
340
0
102
{BLKREFS
331
5C0
102
}
  0
BLOCK_RECORD
  5
21B
330
1
100
AcDbSymbolTableRecord
100
AcDbBlockTableRecord
  2
SW_CENTERMARKSYMBOL_10
340
0
102
{BLKREFS
331
5C1
102
}
  0
BLOCK_RECORD
  5
4B6
330
1
100
AcDbSymbolTableRecord
100
AcDbBlockTableRecord
  2
1
340
0
310
2800000020000000200000000100080000000000000400000000000000000000000000000000000000000000000080000080000000808000800000008000800080800000C0C0C000C0DCC000F0CAA6000020400000206000002080000020A0000020C0000020E00000400000004020000040400000406000004080000040A0
310
000040C0000040E00000600000006020000060400000606000006080000060A0000060C0000060E00000800000008020000080400000806000008080000080A0000080C0000080E00000A0000000A0200000A0400000A0600000A0800000A0A00000A0C00000A0E00000C0000000C0200000C0400000C0600000C0800000C0
310
A00000C0C00000C0E00000E0000000E0200000E0400000E0600000E0800000E0A00000E0C00000E0E00040000000400020004000400040006000400080004000A0004000C0004000E00040200000402020004020400040206000402080004020A0004020C0004020E000404000004040200040404000404060004040800040
310
40A0004040C0004040E00040600000406020004060400040606000406080004060A0004060C0004060E00040800000408020004080400040806000408080004080A0004080C0004080E00040A0000040A0200040A0400040A0600040A0800040A0A00040A0C00040A0E00040C0000040C0200040C0400040C0600040C08000
310
40C0A00040C0C00040C0E00040E0000040E0200040E0400040E0600040E0800040E0A00040E0C00040E0E00080000000800020008000400080006000800080008000A0008000C0008000E00080200000802020008020400080206000802080008020A0008020C0008020E00080400000804020008040400080406000804080
310
008040A0008040C0008040E00080600000806020008060400080606000806080008060A0008060C0008060E00080800000808020008080400080806000808080008080A0008080C0008080E00080A0000080A0200080A0400080A0600080A0800080A0A00080A0C00080A0E00080C0000080C0200080C0400080C0600080C0
310
800080C0A00080C0C00080C0E00080E0000080E0200080E0400080E0600080E0800080E0A00080E0C00080E0E000C0000000C0002000C0004000C0006000C0008000C000A000C000C000C000E000C0200000C0202000C0204000C0206000C0208000C020A000C020C000C020E000C0400000C0402000C0404000C0406000C0
310
408000C040A000C040C000C040E000C0600000C0602000C0604000C0606000C0608000C060A000C060C000C060E000C0800000C0802000C0804000C0806000C0808000C080A000C080C000C080E000C0A00000C0A02000C0A04000C0A06000C0A08000C0A0A000C0A0C000C0A0E000C0C00000C0C02000C0C04000C0C06000
310
C0C08000C0C0A000F0FBFF00A4A0A000808080000000FF0000FF000000FFFF00FF000000FF00FF00FFFF0000FFFFFF0000000000000000000000000000000000000000000000000000000000000000000000FFFFFFFFFFFFFFFFFFFFFFFFFFFFFFFFFFFFFFFFFFFFFFFFFFFFFFFF000000FFFFFFFFFFFFFFFFFFFFFFFFFFFF
310
FFFFFFFFFFFFFFFFFFFFFFFFFFFFFFFF0000FF00000000000000000000000000000000000000000000000000000000FF0000FF00000000000000000000000000000000000000000000000000000000FF0000FF00000000000000000000000000000000000000000000000000000000FF0000FF000000000000000000000000
310
00000000000000000000000000000000FF0000FF00000000000000000000000000000000000000000000000000000000FF0000FF00000000000000000000000000000000000000000000000000000000FF0000FF00000000000000000000000000000000000000000000000000000000FF0000FF0000000000000000000000
310
0000000000000000000000000000000000FF0000FF00000000000000000000000000000000000000000000000000000000FF0000FF00000000000000000000000000000000000000000000000000000000FF0000FF00000000000000000000000000000000000000000000000000000000FF0000FF00000000000000000000
310
000000000000000000000000000000000000FF0000FF00000000000000000000000000000000000000000000000000000000FF0000FF00000000000000000000000000000000000000000000000000000000FF0000FF00000000000000000000000000000000000000000000000000000000FF0000FF000000000000000000
310
00000000000000000000000000000000000000FF0000FF00000000000000000000000000000000000000000000000000000000FF0000FF00000000000000000000000000000000000000000000000000000000FF0000FF00000000000000000000000000000000000000000000000000000000FF0000FF0000000000000000
310
0000000000000000000000000000000000000000FF0000FF00000000000000000000000000000000000000000000000000000000FF0000FF00000000000000000000000000000000000000000000000000000000FF0000FF00000000000000000000000000000000000000000000000000000000FF0000FF00000000000000
310
000000000000000000000000000000000000000000FF0000FF00000000000000000000000000000000000000000000000000000000FF0000FF00000000000000000000000000000000000000000000000000000000FF0000FFFFFFFFFFFFFFFFFFFFFFFFFFFFFFFFFFFFFFFFFFFFFFFFFFFFFFFFFFFF000000FFFFFFFFFFFF
310
FFFFFFFFFFFFFFFFFFFFFFFFFFFFFFFFFFFFFFFFFFFF00000000000000000000000000000000000000000000000000000000000000000000
102
{BLKREFS
331
4C3
102
}
1001
ACAD
1000
DesignCenter Data
1002
{
1070
     1
1070
     4
1002
}
  0
BLOCK_RECORD
  5
4C4
102
{ACAD_XDICTIONARY
360
65F
102
}
330
1
100
AcDbSymbolTableRecord
100
AcDbBlockTableRecord
  2
2
340
0
310
2800000020000000200000000100080000000000000400000000000000000000000000000000000000000000000080000080000000808000800000008000800080800000C0C0C000C0DCC000F0CAA6000020400000206000002080000020A0000020C0000020E00000400000004020000040400000406000004080000040A0
310
000040C0000040E00000600000006020000060400000606000006080000060A0000060C0000060E00000800000008020000080400000806000008080000080A0000080C0000080E00000A0000000A0200000A0400000A0600000A0800000A0A00000A0C00000A0E00000C0000000C0200000C0400000C0600000C0800000C0
310
A00000C0C00000C0E00000E0000000E0200000E0400000E0600000E0800000E0A00000E0C00000E0E00040000000400020004000400040006000400080004000A0004000C0004000E00040200000402020004020400040206000402080004020A0004020C0004020E000404000004040200040404000404060004040800040
310
40A0004040C0004040E00040600000406020004060400040606000406080004060A0004060C0004060E00040800000408020004080400040806000408080004080A0004080C0004080E00040A0000040A0200040A0400040A0600040A0800040A0A00040A0C00040A0E00040C0000040C0200040C0400040C0600040C08000
310
40C0A00040C0C00040C0E00040E0000040E0200040E0400040E0600040E0800040E0A00040E0C00040E0E00080000000800020008000400080006000800080008000A0008000C0008000E00080200000802020008020400080206000802080008020A0008020C0008020E00080400000804020008040400080406000804080
310
008040A0008040C0008040E00080600000806020008060400080606000806080008060A0008060C0008060E00080800000808020008080400080806000808080008080A0008080C0008080E00080A0000080A0200080A0400080A0600080A0800080A0A00080A0C00080A0E00080C0000080C0200080C0400080C0600080C0
310
800080C0A00080C0C00080C0E00080E0000080E0200080E0400080E0600080E0800080E0A00080E0C00080E0E000C0000000C0002000C0004000C0006000C0008000C000A000C000C000C000E000C0200000C0202000C0204000C0206000C0208000C020A000C020C000C020E000C0400000C0402000C0404000C0406000C0
310
408000C040A000C040C000C040E000C0600000C0602000C0604000C0606000C0608000C060A000C060C000C060E000C0800000C0802000C0804000C0806000C0808000C080A000C080C000C080E000C0A00000C0A02000C0A04000C0A06000C0A08000C0A0A000C0A0C000C0A0E000C0C00000C0C02000C0C04000C0C06000
310
C0C08000C0C0A000F0FBFF00A4A0A000808080000000FF0000FF000000FFFF00FF000000FF00FF00FFFF0000FFFFFF0000000000000000000000000000000000000000000000000000000000000000000000000000000000000000000000000000000000000000000000000000000000000000000000000000000000000000
310
00000000000000000000000000000000000000000000000000000000000000000000000000000000000000000000000000000000000000000000000000000000000000000000000000000000000000000000000000000000000000000000000000000000000000000000000000000000000000000000000000000000000000
310
0000000000000000000000000000000000000000000000000000000000000000000000000000000000000000000000000000000000000000000000000000000000000000000000000000000000000000000000FFFFFFFFFFFFFFFFFFFFFFFFFFFFFFFFFFFFFFFFFFFFFFFFFFFFFFFFFFFF0000FF00000000FF000000000000
310
000000FF000000000000000000FF000000FF0000FF00000000FF000000000000000000FF000000000000000000FF000000FF0000FF00000000FF000000000000000000FF000000000000000000FF000000FF0000FF00000000FF000000000000000000FF000000000000000000FF000000FF0000FFFFFFFFFFFFFFFFFF0000
310
FFFFFFFFFFFFFFFF0000FFFFFFFFFFFFFFFFFF0000FF00FFFF00FFFFFF00000000FFFF00FFFFFF00000000FFFF00FFFFFF00FF0000FF00FFFFFFFFFFFF00000000FFFFFFFFFFFF00000000FFFFFFFFFFFF00FF0000FF00FFFFFFFFFFFF00000000FFFFFFFFFFFF00000000FFFFFFFFFFFF00FF0000FF000000000000000000
310
00000000000000000000000000000000000000FF0000FF00000000000000000000000000000000000000000000000000000000FF0000FF00000000000000000000000000000000000000000000000000000000FF0000FF00000000000000000000000000000000000000000000000000000000FF0000FFFFFFFFFFFFFFFFFF
310
FFFFFFFFFFFFFFFFFFFFFFFFFFFFFFFFFFFFFFFFFF00000000000000000000000000000000000000000000000000000000000000000000000000000000000000000000000000000000000000000000000000000000000000000000000000000000000000000000000000000000000000000000000000000000000000000000
310
00000000000000000000000000000000000000000000000000000000000000000000000000000000000000000000000000000000000000000000000000000000000000000000000000000000000000000000000000000000000000000000000000000000000000000000000000000000000000000000000000000000000000
310
0000000000000000000000000000000000000000000000000000000000000000000000000000000000000000000000000000000000000000
102
{BLKREFS
331
510
102
}
1001
AcDbDynamicBlockGUID
1000
{87DE6017-E228-4451-BCD4-3F6A89C57E42}
1001
AcDbBlockRepETag
1070
     1
1071
       70
1001
ACAD
1000
DesignCenter Data
1002
{
1070
     1
1070
     4
1002
}
  0
BLOCK_RECORD
  5
511
330
1
100
AcDbSymbolTableRecord
100
AcDbBlockTableRecord
  2
3
340
0
310
2800000020000000200000000100080000000000000400000000000000000000000000000000000000000000000080000080000000808000800000008000800080800000C0C0C000C0DCC000F0CAA6000020400000206000002080000020A0000020C0000020E00000400000004020000040400000406000004080000040A0
310
000040C0000040E00000600000006020000060400000606000006080000060A0000060C0000060E00000800000008020000080400000806000008080000080A0000080C0000080E00000A0000000A0200000A0400000A0600000A0800000A0A00000A0C00000A0E00000C0000000C0200000C0400000C0600000C0800000C0
310
A00000C0C00000C0E00000E0000000E0200000E0400000E0600000E0800000E0A00000E0C00000E0E00040000000400020004000400040006000400080004000A0004000C0004000E00040200000402020004020400040206000402080004020A0004020C0004020E000404000004040200040404000404060004040800040
310
40A0004040C0004040E00040600000406020004060400040606000406080004060A0004060C0004060E00040800000408020004080400040806000408080004080A0004080C0004080E00040A0000040A0200040A0400040A0600040A0800040A0A00040A0C00040A0E00040C0000040C0200040C0400040C0600040C08000
310
40C0A00040C0C00040C0E00040E0000040E0200040E0400040E0600040E0800040E0A00040E0C00040E0E00080000000800020008000400080006000800080008000A0008000C0008000E00080200000802020008020400080206000802080008020A0008020C0008020E00080400000804020008040400080406000804080
310
008040A0008040C0008040E00080600000806020008060400080606000806080008060A0008060C0008060E00080800000808020008080400080806000808080008080A0008080C0008080E00080A0000080A0200080A0400080A0600080A0800080A0A00080A0C00080A0E00080C0000080C0200080C0400080C0600080C0
310
800080C0A00080C0C00080C0E00080E0000080E0200080E0400080E0600080E0800080E0A00080E0C00080E0E000C0000000C0002000C0004000C0006000C0008000C000A000C000C000C000E000C0200000C0202000C0204000C0206000C0208000C020A000C020C000C020E000C0400000C0402000C0404000C0406000C0
310
408000C040A000C040C000C040E000C0600000C0602000C0604000C0606000C0608000C060A000C060C000C060E000C0800000C0802000C0804000C0806000C0808000C080A000C080C000C080E000C0A00000C0A02000C0A04000C0A06000C0A08000C0A0A000C0A0C000C0A0E000C0C00000C0C02000C0C04000C0C06000
310
C0C08000C0C0A000F0FBFF00A4A0A000808080000000FF0000FF000000FFFF00FF000000FF00FF00FFFF0000FFFFFF000000000000000000000000000000000000000000000000000000000000000000000000000000000000FFFFFFFFFFFFFFFFFFFFFFFFFFFF000000000000000000000000000000000000FFFFFFFFFFFF
310
FFFFFFFFFFFFFFFF000000000000000000000000000000000000FF000000FF00000000FF000000FF000000000000000000000000000000000000FF0000FFFF000000FFFF000000FF000000000000000000000000000000000000FF00FFFFFFFF0000FFFFFFFF00FF000000000000000000000000000000000000FFFFFFFFFF
310
FFFFFFFFFFFFFF00FF000000000000000000000000000000000000FF0000FFFF000000FFFF000000FF000000000000000000000000000000000000FF000000FF0000FF00FF000000FF000000000000000000000000000000000000FF000000FF00FFFF0000000000FF000000000000000000000000000000000000FF000000
310
0000FFFF0000000000FF000000000000000000000000000000000000FF000000FFFFFFFFFFFF000000FF000000000000000000000000000000000000FF0000000000FFFF0000000000FF000000000000000000000000000000000000FF000000FF0000FF00FF000000FF000000000000000000000000000000000000FF0000
310
FFFF0000FFFFFF000000FF000000000000000000000000000000000000FF00FFFFFFFFFF00FFFFFFFF00FF000000000000000000000000000000000000FFFFFFFFFFFFFFFFFFFFFFFF00FF000000000000000000000000000000000000FF0000FFFF000000FFFF000000FF000000000000000000000000000000000000FF00
310
0000FF0000FF00FF000000FF000000000000000000000000000000000000FF0000000000FFFF0000000000FF000000000000000000000000000000000000FF0000000000FFFF0000000000FF000000000000000000000000000000000000FF000000FFFFFFFFFFFF000000FF000000000000000000000000000000000000FF
310
000000FF00FFFF0000000000FF000000000000000000000000000000000000FF000000FF0000FF00FF000000FF000000000000000000000000000000000000FF0000FFFF000000FFFF000000FF000000000000000000000000000000000000FFFFFFFFFFFFFFFFFFFFFFFF00FF000000000000000000000000000000000000
310
FF00FFFFFFFF0000FFFFFFFF00FF000000000000000000000000000000000000FF0000FFFF000000FFFF000000FF000000000000000000000000000000000000FF000000FF00000000FF000000FF000000000000000000000000000000000000FFFFFFFFFFFFFFFFFFFFFFFFFFFF0000000000000000000000000000000000
310
00FFFFFFFFFFFFFFFFFFFFFFFFFFFF0000000000000000000000000000000000000000000000000000000000000000000000000000000000
102
{BLKREFS
331
5C2
102
}
1001
ACAD
1000
DesignCenter Data
1002
{
1070
     1
1070
     4
1002
}
  0
BLOCK_RECORD
  5
5C3
330
1
100
AcDbSymbolTableRecord
100
AcDbBlockTableRecord
  2
4
340
0
310
2800000020000000200000000100080000000000000400000000000000000000000000000000000000000000000080000080000000808000800000008000800080800000C0C0C000C0DCC000F0CAA6000020400000206000002080000020A0000020C0000020E00000400000004020000040400000406000004080000040A0
310
000040C0000040E00000600000006020000060400000606000006080000060A0000060C0000060E00000800000008020000080400000806000008080000080A0000080C0000080E00000A0000000A0200000A0400000A0600000A0800000A0A00000A0C00000A0E00000C0000000C0200000C0400000C0600000C0800000C0
310
A00000C0C00000C0E00000E0000000E0200000E0400000E0600000E0800000E0A00000E0C00000E0E00040000000400020004000400040006000400080004000A0004000C0004000E00040200000402020004020400040206000402080004020A0004020C0004020E000404000004040200040404000404060004040800040
310
40A0004040C0004040E00040600000406020004060400040606000406080004060A0004060C0004060E00040800000408020004080400040806000408080004080A0004080C0004080E00040A0000040A0200040A0400040A0600040A0800040A0A00040A0C00040A0E00040C0000040C0200040C0400040C0600040C08000
310
40C0A00040C0C00040C0E00040E0000040E0200040E0400040E0600040E0800040E0A00040E0C00040E0E00080000000800020008000400080006000800080008000A0008000C0008000E00080200000802020008020400080206000802080008020A0008020C0008020E00080400000804020008040400080406000804080
310
008040A0008040C0008040E00080600000806020008060400080606000806080008060A0008060C0008060E00080800000808020008080400080806000808080008080A0008080C0008080E00080A0000080A0200080A0400080A0600080A0800080A0A00080A0C00080A0E00080C0000080C0200080C0400080C0600080C0
310
800080C0A00080C0C00080C0E00080E0000080E0200080E0400080E0600080E0800080E0A00080E0C00080E0E000C0000000C0002000C0004000C0006000C0008000C000A000C000C000C000E000C0200000C0202000C0204000C0206000C0208000C020A000C020C000C020E000C0400000C0402000C0404000C0406000C0
310
408000C040A000C040C000C040E000C0600000C0602000C0604000C0606000C0608000C060A000C060C000C060E000C0800000C0802000C0804000C0806000C0808000C080A000C080C000C080E000C0A00000C0A02000C0A04000C0A06000C0A08000C0A0A000C0A0C000C0A0E000C0C00000C0C02000C0C04000C0C06000
310
C0C08000C0C0A000F0FBFF00A4A0A000808080000000FF0000FF000000FFFF00FF000000FF00FF00FFFF0000FFFFFF0000000000000000000000000000000000000000000000000000000000000000000000000000000000000000000000000000000000000000000000000000000000000000000000000000000000000000
310
000000000000000000000000000000000000000000000000000000FF0000000000000000000000000000000000000000000000000000000000FFFFFFFFFF00000000000000000000000000000000000000000000000000FFFF0000FF0000FFFF000000000000000000000000000000000000000000FFFF00000000FF00FFFF
310
FFFFFF0000000000000000000000000000000000FFFF000000000000FF00FF00FFFF00FFFF0000000000000000000000000000FF0000000000000000FF00FFFF00FF000000FFFF000000000000000000000000FF0000000000000000FF00FFFF00FF000000FFFFFFFF00000000000000000000FF0000000000000000FF00FF
310
FFFFFF0000FFFFFFFFFFFFFF0000000000000000FF0000000000000000FF0000FFFFFF0000FF0000FF0000FFFFFF000000000000FF0000000000000000FF00000000FF0000FFFF0000FF000000FFFFFF00000000FF000000000000FFFFFFFFFF0000000000FFFFFF00FF000000FF00FFFF000000FF00000000FFFFFFFF00FF
310
FFFFFF00000000FFFFFFFF0000FF00FFFF00FF0000FF0000FFFF00FF00FFFFFFFFFFFFFFFF000000FFFFFF0000FFFF00FF00FF0000FFFFFF00FFFF0000FF0000FF0000FFFFFFFF000000000000FFFF00FF00FF0000FF00FFFFFFFFFFFFFFFFFF0000000000FF00FF0000000000FFFFFFFF00FF000000FF0000FFFF00FFFF00
310
FFFFFFFF000000FFFFFFFF00000000FFFFFF00FF00000000FFFF00FFFFFF00FFFF00FFFFFFFFFFFFFFFFFFFFFF00000000FF00FF000000000000FFFF00000000FFFFFF00FFFF00FFFF0000FF00FFFF00000000FF0000000000000000FFFF000000FFFFFFFFFFFFFF00000000FFFF00FFFF0000FF00000000000000000000FF
310
FF00FFFF00FFFFFFFFFFFFFF000000FFFF00FFFFFF000000000000000000000000FFFFFFFFFF00FFFF00FFFFFFFFFFFFFFFFFF00FF0000000000000000000000000000FFFF000000FFFFFFFFFFFF00FFFF0000FF0000000000000000000000000000000000FFFF0000FFFFFFFF00FF0000FFFF000000000000000000000000
310
0000000000000000FFFFFFFFFFFF0000FFFF000000000000000000000000000000000000000000000000FFFFFF00FFFF00000000000000000000000000000000000000000000000000000000FFFF00000000000000000000000000000000000000000000000000000000000000000000000000000000000000000000000000
310
0000000000000000000000000000000000000000000000000000000000000000000000000000000000000000000000000000000000000000
102
{BLKREFS
331
60B
102
}
1001
ACAD
1000
DesignCenter Data
1002
{
1070
     1
1070
     4
1002
}
  0
ENDTAB
  0
ENDSEC
  0
SECTION
  2
BLOCKS
  0
BLOCK
  5
20
330
1F
100
AcDbEntity
  8
0
100
AcDbBlockBegin
  2
*Model_Space
 70
     0
 10
0.0
 20
0.0
 30
0.0
  3
*Model_Space
  1

  0
ENDBLK
  5
21
330
1F
100
AcDbEntity
  8
0
100
AcDbBlockEnd
  0
BLOCK
  5
D4
330
D2
100
AcDbEntity
 67
     1
  8
0
100
AcDbBlockBegin
  2
*Paper_Space
 70
     0
 10
0.0
 20
0.0
 30
0.0
  3
*Paper_Space
  1

  0
ENDBLK
  5
D5
330
D2
100
AcDbEntity
 67
     1
  8
0
100
AcDbBlockEnd
  0
BLOCK
  5
D8
330
D6
100
AcDbEntity
 67
     1
  8
0
100
AcDbBlockBegin
  2
*Paper_Space0
 70
     0
 10
0.0
 20
0.0
 30
0.0
  3
*Paper_Space0
  1

  0
ENDBLK
  5
D9
330
D6
100
AcDbEntity
 67
     1
  8
0
100
AcDbBlockEnd
  0
BLOCK
  5
1AE
330
1AD
100
AcDbEntity
  8
0
100
AcDbBlockBegin
  2
SW_CENTERMARKSYMBOL_0
 70
     0
 10
0.0
 20
0.0
 30
0.0
  3
SW_CENTERMARKSYMBOL_0
  1

  0
LINE
  5
1AF
330
1AD
100
AcDbEntity
  8
0
  6
Continuous
 62
     0
370
     0
100
AcDbLine
 10
0.0
 20
0.0
 30
0.0
 11
0.0
 21
2.500000000000002
 31
0.0
  0
LINE
  5
1B0
330
1AD
100
AcDbEntity
  8
0
  6
Continuous
 62
     0
370
     0
100
AcDbLine
 10
0.0
 20
0.0
 30
0.0
 11
-2.499999999999988
 21
0.0
 31
0.0
  0
LINE
  5
1B1
330
1AD
100
AcDbEntity
  8
0
  6
Continuous
 62
     0
370
     0
100
AcDbLine
 10
0.0
 20
0.0
 30
0.0
 11
0.0
 21
-2.500000000000002
 31
0.0
  0
LINE
  5
1B2
330
1AD
100
AcDbEntity
  8
0
  6
Continuous
 62
     0
370
     0
100
AcDbLine
 10
0.0
 20
0.0
 30
0.0
 11
2.500000000000002
 21
0.0
 31
0.0
  0
LINE
  5
1B3
330
1AD
100
AcDbEntity
  8
0
  6
Continuous
 62
     0
370
     0
100
AcDbLine
 10
0.0
 20
5.000000000000004
 30
0.0
 11
0.0
 21
8.000000000000007
 31
0.0
  0
LINE
  5
1B4
330
1AD
100
AcDbEntity
  8
0
  6
Continuous
 62
     0
370
     0
100
AcDbLine
 10
-4.99999999999999
 20
0.0
 30
0.0
 11
-7.999999999999992
 21
0.0
 31
0.0
  0
LINE
  5
1B5
330
1AD
100
AcDbEntity
  8
0
  6
Continuous
 62
     0
370
     0
100
AcDbLine
 10
0.0
 20
-5.000000000000004
 30
0.0
 11
0.0
 21
-8.000000000000007
 31
0.0
  0
LINE
  5
1B6
330
1AD
100
AcDbEntity
  8
0
  6
Continuous
 62
     0
370
     0
100
AcDbLine
 10
5.000000000000004
 20
0.0
 30
0.0
 11
8.000000000000007
 21
0.0
 31
0.0
  0
ENDBLK
  5
1B7
330
1AD
100
AcDbEntity
  8
0
100
AcDbBlockEnd
  0
BLOCK
  5
1B9
330
1B8
100
AcDbEntity
  8
0
100
AcDbBlockBegin
  2
SW_CENTERMARKSYMBOL_1
 70
     0
 10
0.0
 20
0.0
 30
0.0
  3
SW_CENTERMARKSYMBOL_1
  1

  0
LINE
  5
1BA
330
1B8
100
AcDbEntity
  8
0
  6
Continuous
 62
     0
370
     0
100
AcDbLine
 10
0.0
 20
0.0
 30
0.0
 11
0.0
 21
2.500000000000002
 31
0.0
  0
LINE
  5
1BB
330
1B8
100
AcDbEntity
  8
0
  6
Continuous
 62
     0
370
     0
100
AcDbLine
 10
0.0
 20
0.0
 30
0.0
 11
-2.500000000000002
 21
0.0
 31
0.0
  0
LINE
  5
1BC
330
1B8
100
AcDbEntity
  8
0
  6
Continuous
 62
     0
370
     0
100
AcDbLine
 10
0.0
 20
0.0
 30
0.0
 11
0.0
 21
-2.500000000000002
 31
0.0
  0
LINE
  5
1BD
330
1B8
100
AcDbEntity
  8
0
  6
Continuous
 62
     0
370
     0
100
AcDbLine
 10
0.0
 20
0.0
 30
0.0
 11
2.500000000000002
 21
0.0
 31
0.0
  0
LINE
  5
1BE
330
1B8
100
AcDbEntity
  8
0
  6
Continuous
 62
     0
370
     0
100
AcDbLine
 10
0.0
 20
5.000000000000004
 30
0.0
 11
0.0
 21
8.000000000000007
 31
0.0
  0
LINE
  5
1BF
330
1B8
100
AcDbEntity
  8
0
  6
Continuous
 62
     0
370
     0
100
AcDbLine
 10
-5.000000000000004
 20
0.0
 30
0.0
 11
-7.999999999999992
 21
0.0
 31
0.0
  0
LINE
  5
1C0
330
1B8
100
AcDbEntity
  8
0
  6
Continuous
 62
     0
370
     0
100
AcDbLine
 10
0.0
 20
-5.000000000000004
 30
0.0
 11
0.0
 21
-8.000000000000007
 31
0.0
  0
LINE
  5
1C1
330
1B8
100
AcDbEntity
  8
0
  6
Continuous
 62
     0
370
     0
100
AcDbLine
 10
5.000000000000004
 20
0.0
 30
0.0
 11
7.999999999999992
 21
0.0
 31
0.0
  0
ENDBLK
  5
1C2
330
1B8
100
AcDbEntity
  8
0
100
AcDbBlockEnd
  0
BLOCK
  5
1C4
330
1C3
100
AcDbEntity
  8
0
100
AcDbBlockBegin
  2
SW_CENTERMARKSYMBOL_2
 70
     0
 10
0.0
 20
0.0
 30
0.0
  3
SW_CENTERMARKSYMBOL_2
  1

  0
LINE
  5
1C5
330
1C3
100
AcDbEntity
  8
0
  6
Continuous
 62
     0
370
     0
100
AcDbLine
 10
0.0
 20
0.0
 30
0.0
 11
0.0
 21
2.500000000000002
 31
0.0
  0
LINE
  5
1C6
330
1C3
100
AcDbEntity
  8
0
  6
Continuous
 62
     0
370
     0
100
AcDbLine
 10
0.0
 20
0.0
 30
0.0
 11
-2.500000000000002
 21
0.0
 31
0.0
  0
LINE
  5
1C7
330
1C3
100
AcDbEntity
  8
0
  6
Continuous
 62
     0
370
     0
100
AcDbLine
 10
0.0
 20
0.0
 30
0.0
 11
0.0
 21
-2.500000000000002
 31
0.0
  0
LINE
  5
1C8
330
1C3
100
AcDbEntity
  8
0
  6
Continuous
 62
     0
370
     0
100
AcDbLine
 10
0.0
 20
0.0
 30
0.0
 11
2.500000000000002
 21
0.0
 31
0.0
  0
LINE
  5
1C9
330
1C3
100
AcDbEntity
  8
0
  6
Continuous
 62
     0
370
     0
100
AcDbLine
 10
0.0
 20
5.000000000000004
 30
0.0
 11
0.0
 21
8.000000000000007
 31
0.0
  0
LINE
  5
1CA
330
1C3
100
AcDbEntity
  8
0
  6
Continuous
 62
     0
370
     0
100
AcDbLine
 10
-5.000000000000004
 20
0.0
 30
0.0
 11
-8.000000000000007
 21
0.0
 31
0.0
  0
LINE
  5
1CB
330
1C3
100
AcDbEntity
  8
0
  6
Continuous
 62
     0
370
     0
100
AcDbLine
 10
0.0
 20
-5.000000000000004
 30
0.0
 11
0.0
 21
-8.000000000000007
 31
0.0
  0
LINE
  5
1CC
330
1C3
100
AcDbEntity
  8
0
  6
Continuous
 62
     0
370
     0
100
AcDbLine
 10
5.000000000000004
 20
0.0
 30
0.0
 11
8.000000000000007
 21
0.0
 31
0.0
  0
ENDBLK
  5
1CD
330
1C3
100
AcDbEntity
  8
0
100
AcDbBlockEnd
  0
BLOCK
  5
1CF
330
1CE
100
AcDbEntity
  8
0
100
AcDbBlockBegin
  2
SW_CENTERMARKSYMBOL_3
 70
     0
 10
0.0
 20
0.0
 30
0.0
  3
SW_CENTERMARKSYMBOL_3
  1

  0
LINE
  5
1D0
330
1CE
100
AcDbEntity
  8
0
  6
Continuous
 62
     0
370
     0
100
AcDbLine
 10
0.0
 20
0.0
 30
0.0
 11
0.0
 21
2.499999999999988
 31
0.0
  0
LINE
  5
1D1
330
1CE
100
AcDbEntity
  8
0
  6
Continuous
 62
     0
370
     0
100
AcDbLine
 10
0.0
 20
0.0
 30
0.0
 11
-2.500000000000002
 21
0.0
 31
0.0
  0
LINE
  5
1D2
330
1CE
100
AcDbEntity
  8
0
  6
Continuous
 62
     0
370
     0
100
AcDbLine
 10
0.0
 20
0.0
 30
0.0
 11
0.0
 21
-2.500000000000002
 31
0.0
  0
LINE
  5
1D3
330
1CE
100
AcDbEntity
  8
0
  6
Continuous
 62
     0
370
     0
100
AcDbLine
 10
0.0
 20
0.0
 30
0.0
 11
2.500000000000002
 21
0.0
 31
0.0
  0
LINE
  5
1D4
330
1CE
100
AcDbEntity
  8
0
  6
Continuous
 62
     0
370
     0
100
AcDbLine
 10
0.0
 20
4.99999999999999
 30
0.0
 11
0.0
 21
6.750000000000006
 31
0.0
  0
LINE
  5
1D5
330
1CE
100
AcDbEntity
  8
0
  6
Continuous
 62
     0
370
     0
100
AcDbLine
 10
-5.000000000000004
 20
0.0
 30
0.0
 11
-6.750000000000006
 21
0.0
 31
0.0
  0
LINE
  5
1D6
330
1CE
100
AcDbEntity
  8
0
  6
Continuous
 62
     0
370
     0
100
AcDbLine
 10
0.0
 20
-5.000000000000004
 30
0.0
 11
0.0
 21
-6.750000000000006
 31
0.0
  0
LINE
  5
1D7
330
1CE
100
AcDbEntity
  8
0
  6
Continuous
 62
     0
370
     0
100
AcDbLine
 10
5.000000000000004
 20
0.0
 30
0.0
 11
6.750000000000006
 21
0.0
 31
0.0
  0
ENDBLK
  5
1D8
330
1CE
100
AcDbEntity
  8
0
100
AcDbBlockEnd
  0
BLOCK
  5
1DA
330
1D9
100
AcDbEntity
  8
0
100
AcDbBlockBegin
  2
SW_CENTERMARKSYMBOL_4
 70
     0
 10
0.0
 20
0.0
 30
0.0
  3
SW_CENTERMARKSYMBOL_4
  1

  0
LINE
  5
1DB
330
1D9
100
AcDbEntity
  8
0
  6
Continuous
 62
     0
370
     0
100
AcDbLine
 10
0.0
 20
0.0
 30
0.0
 11
0.0
 21
2.500000000000002
 31
0.0
  0
LINE
  5
1DC
330
1D9
100
AcDbEntity
  8
0
  6
Continuous
 62
     0
370
     0
100
AcDbLine
 10
0.0
 20
0.0
 30
0.0
 11
-2.500000000000002
 21
0.0
 31
0.0
  0
LINE
  5
1DD
330
1D9
100
AcDbEntity
  8
0
  6
Continuous
 62
     0
370
     0
100
AcDbLine
 10
0.0
 20
0.0
 30
0.0
 11
0.0
 21
-2.500000000000002
 31
0.0
  0
LINE
  5
1DE
330
1D9
100
AcDbEntity
  8
0
  6
Continuous
 62
     0
370
     0
100
AcDbLine
 10
0.0
 20
0.0
 30
0.0
 11
2.500000000000002
 21
0.0
 31
0.0
  0
LINE
  5
1DF
330
1D9
100
AcDbEntity
  8
0
  6
Continuous
 62
     0
370
     0
100
AcDbLine
 10
0.0
 20
5.000000000000004
 30
0.0
 11
0.0
 21
6.749999999999992
 31
0.0
  0
LINE
  5
1E0
330
1D9
100
AcDbEntity
  8
0
  6
Continuous
 62
     0
370
     0
100
AcDbLine
 10
-5.000000000000004
 20
0.0
 30
0.0
 11
-6.749999999999978
 21
0.0
 31
0.0
  0
LINE
  5
1E1
330
1D9
100
AcDbEntity
  8
0
  6
Continuous
 62
     0
370
     0
100
AcDbLine
 10
0.0
 20
-5.000000000000004
 30
0.0
 11
0.0
 21
-6.749999999999992
 31
0.0
  0
LINE
  5
1E2
330
1D9
100
AcDbEntity
  8
0
  6
Continuous
 62
     0
370
     0
100
AcDbLine
 10
5.000000000000004
 20
0.0
 30
0.0
 11
6.750000000000006
 21
0.0
 31
0.0
  0
ENDBLK
  5
1E3
330
1D9
100
AcDbEntity
  8
0
100
AcDbBlockEnd
  0
BLOCK
  5
1E5
330
1E4
100
AcDbEntity
  8
0
100
AcDbBlockBegin
  2
SW_CENTERMARKSYMBOL_5
 70
     0
 10
0.0
 20
0.0
 30
0.0
  3
SW_CENTERMARKSYMBOL_5
  1

  0
LINE
  5
1E6
330
1E4
100
AcDbEntity
  8
0
  6
Continuous
 62
     0
370
     0
100
AcDbLine
 10
0.0
 20
0.0
 30
0.0
 11
0.0
 21
2.500000000000002
 31
0.0
  0
LINE
  5
1E7
330
1E4
100
AcDbEntity
  8
0
  6
Continuous
 62
     0
370
     0
100
AcDbLine
 10
0.0
 20
0.0
 30
0.0
 11
-2.500000000000002
 21
0.0
 31
0.0
  0
LINE
  5
1E8
330
1E4
100
AcDbEntity
  8
0
  6
Continuous
 62
     0
370
     0
100
AcDbLine
 10
0.0
 20
0.0
 30
0.0
 11
0.0
 21
-2.499999999999988
 31
0.0
  0
LINE
  5
1E9
330
1E4
100
AcDbEntity
  8
0
  6
Continuous
 62
     0
370
     0
100
AcDbLine
 10
0.0
 20
0.0
 30
0.0
 11
2.500000000000002
 21
0.0
 31
0.0
  0
LINE
  5
1EA
330
1E4
100
AcDbEntity
  8
0
  6
Continuous
 62
     0
370
     0
100
AcDbLine
 10
0.0
 20
5.000000000000004
 30
0.0
 11
0.0
 21
6.750000000000006
 31
0.0
  0
LINE
  5
1EB
330
1E4
100
AcDbEntity
  8
0
  6
Continuous
 62
     0
370
     0
100
AcDbLine
 10
-5.000000000000004
 20
0.0
 30
0.0
 11
-6.749999999999978
 21
0.0
 31
0.0
  0
LINE
  5
1EC
330
1E4
100
AcDbEntity
  8
0
  6
Continuous
 62
     0
370
     0
100
AcDbLine
 10
0.0
 20
-4.99999999999999
 30
0.0
 11
0.0
 21
-6.749999999999992
 31
0.0
  0
LINE
  5
1ED
330
1E4
100
AcDbEntity
  8
0
  6
Continuous
 62
     0
370
     0
100
AcDbLine
 10
5.000000000000004
 20
0.0
 30
0.0
 11
6.750000000000006
 21
0.0
 31
0.0
  0
ENDBLK
  5
1EE
330
1E4
100
AcDbEntity
  8
0
100
AcDbBlockEnd
  0
BLOCK
  5
1F0
330
1EF
100
AcDbEntity
  8
0
100
AcDbBlockBegin
  2
SW_CENTERMARKSYMBOL_6
 70
     0
 10
0.0
 20
0.0
 30
0.0
  3
SW_CENTERMARKSYMBOL_6
  1

  0
LINE
  5
1F1
330
1EF
100
AcDbEntity
  8
0
  6
Continuous
 62
     0
370
     0
100
AcDbLine
 10
0.0
 20
0.0
 30
0.0
 11
0.0
 21
2.500000000000002
 31
0.0
  0
LINE
  5
1F2
330
1EF
100
AcDbEntity
  8
0
  6
Continuous
 62
     0
370
     0
100
AcDbLine
 10
0.0
 20
0.0
 30
0.0
 11
-2.500000000000002
 21
0.0
 31
0.0
  0
LINE
  5
1F3
330
1EF
100
AcDbEntity
  8
0
  6
Continuous
 62
     0
370
     0
100
AcDbLine
 10
0.0
 20
0.0
 30
0.0
 11
0.0
 21
-2.500000000000002
 31
0.0
  0
LINE
  5
1F4
330
1EF
100
AcDbEntity
  8
0
  6
Continuous
 62
     0
370
     0
100
AcDbLine
 10
0.0
 20
0.0
 30
0.0
 11
2.500000000000002
 21
0.0
 31
0.0
  0
LINE
  5
1F5
330
1EF
100
AcDbEntity
  8
0
  6
Continuous
 62
     0
370
     0
100
AcDbLine
 10
0.0
 20
2.500000000000002
 30
0.0
 11
0.0
 21
5.000000000693837
 31
0.0
  0
LINE
  5
1F6
330
1EF
100
AcDbEntity
  8
0
  6
Continuous
 62
     0
370
     0
100
AcDbLine
 10
-2.500000000000002
 20
0.0
 30
0.0
 11
-5.000000000693837
 21
0.0
 31
0.0
  0
LINE
  5
1F7
330
1EF
100
AcDbEntity
  8
0
  6
Continuous
 62
     0
370
     0
100
AcDbLine
 10
0.0
 20
-2.500000000000002
 30
0.0
 11
0.0
 21
-5.000000000693837
 31
0.0
  0
LINE
  5
1F8
330
1EF
100
AcDbEntity
  8
0
  6
Continuous
 62
     0
370
     0
100
AcDbLine
 10
2.500000000000002
 20
0.0
 30
0.0
 11
5.000000000693837
 21
0.0
 31
0.0
  0
ENDBLK
  5
1F9
330
1EF
100
AcDbEntity
  8
0
100
AcDbBlockEnd
  0
BLOCK
  5
1FB
330
1FA
100
AcDbEntity
  8
0
100
AcDbBlockBegin
  2
SW_CENTERMARKSYMBOL_7
 70
     0
 10
0.0
 20
0.0
 30
0.0
  3
SW_CENTERMARKSYMBOL_7
  1

  0
LINE
  5
1FC
330
1FA
100
AcDbEntity
  8
0
  6
Continuous
 62
     0
370
     0
100
AcDbLine
 10
0.0
 20
0.0
 30
0.0
 11
0.0
 21
2.500000000000002
 31
0.0
  0
LINE
  5
1FD
330
1FA
100
AcDbEntity
  8
0
  6
Continuous
 62
     0
370
     0
100
AcDbLine
 10
0.0
 20
0.0
 30
0.0
 11
-2.500000000000002
 21
0.0
 31
0.0
  0
LINE
  5
1FE
330
1FA
100
AcDbEntity
  8
0
  6
Continuous
 62
     0
370
     0
100
AcDbLine
 10
0.0
 20
0.0
 30
0.0
 11
0.0
 21
-2.499999999999988
 31
0.0
  0
LINE
  5
1FF
330
1FA
100
AcDbEntity
  8
0
  6
Continuous
 62
     0
370
     0
100
AcDbLine
 10
0.0
 20
0.0
 30
0.0
 11
2.499999999999974
 21
0.0
 31
0.0
  0
LINE
  5
200
330
1FA
100
AcDbEntity
  8
0
  6
Continuous
 62
     0
370
     0
100
AcDbLine
 10
0.0
 20
2.500000000000002
 30
0.0
 11
0.0
 21
5.000000000693852
 31
0.0
  0
LINE
  5
201
330
1FA
100
AcDbEntity
  8
0
  6
Continuous
 62
     0
370
     0
100
AcDbLine
 10
-2.500000000000002
 20
0.0
 30
0.0
 11
-5.000000000693866
 21
0.0
 31
0.0
  0
LINE
  5
202
330
1FA
100
AcDbEntity
  8
0
  6
Continuous
 62
     0
370
     0
100
AcDbLine
 10
0.0
 20
-2.499999999999988
 30
0.0
 11
0.0
 21
-5.000000000693837
 31
0.0
  0
LINE
  5
203
330
1FA
100
AcDbEntity
  8
0
  6
Continuous
 62
     0
370
     0
100
AcDbLine
 10
2.499999999999974
 20
0.0
 30
0.0
 11
5.000000000693837
 21
0.0
 31
0.0
  0
ENDBLK
  5
204
330
1FA
100
AcDbEntity
  8
0
100
AcDbBlockEnd
  0
BLOCK
  5
206
330
205
100
AcDbEntity
  8
0
100
AcDbBlockBegin
  2
SW_CENTERMARKSYMBOL_8
 70
     0
 10
0.0
 20
0.0
 30
0.0
  3
SW_CENTERMARKSYMBOL_8
  1

  0
LINE
  5
207
330
205
100
AcDbEntity
  8
0
  6
Continuous
 62
     0
370
     0
100
AcDbLine
 10
0.0
 20
0.0
 30
0.0
 11
0.0
 21
2.499999999999988
 31
0.0
  0
LINE
  5
208
330
205
100
AcDbEntity
  8
0
  6
Continuous
 62
     0
370
     0
100
AcDbLine
 10
0.0
 20
0.0
 30
0.0
 11
-2.500000000000002
 21
0.0
 31
0.0
  0
LINE
  5
209
330
205
100
AcDbEntity
  8
0
  6
Continuous
 62
     0
370
     0
100
AcDbLine
 10
0.0
 20
0.0
 30
0.0
 11
0.0
 21
-2.500000000000002
 31
0.0
  0
LINE
  5
20A
330
205
100
AcDbEntity
  8
0
  6
Continuous
 62
     0
370
     0
100
AcDbLine
 10
0.0
 20
0.0
 30
0.0
 11
2.499999999999974
 21
0.0
 31
0.0
  0
LINE
  5
20B
330
205
100
AcDbEntity
  8
0
  6
Continuous
 62
     0
370
     0
100
AcDbLine
 10
0.0
 20
2.499999999999988
 30
0.0
 11
0.0
 21
5.000000000693824
 31
0.0
  0
LINE
  5
20C
330
205
100
AcDbEntity
  8
0
  6
Continuous
 62
     0
370
     0
100
AcDbLine
 10
-2.500000000000002
 20
0.0
 30
0.0
 11
-5.000000000693837
 21
0.0
 31
0.0
  0
LINE
  5
20D
330
205
100
AcDbEntity
  8
0
  6
Continuous
 62
     0
370
     0
100
AcDbLine
 10
0.0
 20
-2.500000000000002
 30
0.0
 11
0.0
 21
-5.000000000693837
 31
0.0
  0
LINE
  5
20E
330
205
100
AcDbEntity
  8
0
  6
Continuous
 62
     0
370
     0
100
AcDbLine
 10
2.499999999999974
 20
0.0
 30
0.0
 11
5.00000000069381
 21
0.0
 31
0.0
  0
ENDBLK
  5
20F
330
205
100
AcDbEntity
  8
0
100
AcDbBlockEnd
  0
BLOCK
  5
211
330
210
100
AcDbEntity
  8
0
100
AcDbBlockBegin
  2
SW_CENTERMARKSYMBOL_9
 70
     0
 10
0.0
 20
0.0
 30
0.0
  3
SW_CENTERMARKSYMBOL_9
  1

  0
LINE
  5
212
330
210
100
AcDbEntity
  8
0
  6
Continuous
 62
     0
370
     0
100
AcDbLine
 10
0.0
 20
0.0
 30
0.0
 11
0.0
 21
2.500000000000002
 31
0.0
  0
LINE
  5
213
330
210
100
AcDbEntity
  8
0
  6
Continuous
 62
     0
370
     0
100
AcDbLine
 10
0.0
 20
0.0
 30
0.0
 11
-2.500000000000002
 21
0.0
 31
0.0
  0
LINE
  5
214
330
210
100
AcDbEntity
  8
0
  6
Continuous
 62
     0
370
     0
100
AcDbLine
 10
0.0
 20
0.0
 30
0.0
 11
0.0
 21
-2.500000000000002
 31
0.0
  0
LINE
  5
215
330
210
100
AcDbEntity
  8
0
  6
Continuous
 62
     0
370
     0
100
AcDbLine
 10
0.0
 20
0.0
 30
0.0
 11
2.500000000000002
 21
0.0
 31
0.0
  0
LINE
  5
216
330
210
100
AcDbEntity
  8
0
  6
Continuous
 62
     0
370
     0
100
AcDbLine
 10
0.0
 20
5.000000000000004
 30
0.0
 11
0.0
 21
6.649999999999989
 31
0.0
  0
LINE
  5
217
330
210
100
AcDbEntity
  8
0
  6
Continuous
 62
     0
370
     0
100
AcDbLine
 10
-5.000000000000004
 20
0.0
 30
0.0
 11
-6.649999999999989
 21
0.0
 31
0.0
  0
LINE
  5
218
330
210
100
AcDbEntity
  8
0
  6
Continuous
 62
     0
370
     0
100
AcDbLine
 10
0.0
 20
-5.000000000000004
 30
0.0
 11
0.0
 21
-6.650000000000003
 31
0.0
  0
LINE
  5
219
330
210
100
AcDbEntity
  8
0
  6
Continuous
 62
     0
370
     0
100
AcDbLine
 10
5.000000000000004
 20
0.0
 30
0.0
 11
6.650000000000017
 21
0.0
 31
0.0
  0
ENDBLK
  5
21A
330
210
100
AcDbEntity
  8
0
100
AcDbBlockEnd
  0
BLOCK
  5
21C
330
21B
100
AcDbEntity
  8
0
100
AcDbBlockBegin
  2
SW_CENTERMARKSYMBOL_10
 70
     0
 10
0.0
 20
0.0
 30
0.0
  3
SW_CENTERMARKSYMBOL_10
  1

  0
LINE
  5
21D
330
21B
100
AcDbEntity
  8
0
  6
Continuous
 62
     0
370
     0
100
AcDbLine
 10
0.0
 20
0.0
 30
0.0
 11
0.0
 21
2.499999999999988
 31
0.0
  0
LINE
  5
21E
330
21B
100
AcDbEntity
  8
0
  6
Continuous
 62
     0
370
     0
100
AcDbLine
 10
0.0
 20
0.0
 30
0.0
 11
-2.500000000000002
 21
0.0
 31
0.0
  0
LINE
  5
21F
330
21B
100
AcDbEntity
  8
0
  6
Continuous
 62
     0
370
     0
100
AcDbLine
 10
0.0
 20
0.0
 30
0.0
 11
0.0
 21
-2.500000000000002
 31
0.0
  0
LINE
  5
220
330
21B
100
AcDbEntity
  8
0
  6
Continuous
 62
     0
370
     0
100
AcDbLine
 10
0.0
 20
0.0
 30
0.0
 11
2.500000000000002
 21
0.0
 31
0.0
  0
LINE
  5
221
330
21B
100
AcDbEntity
  8
0
  6
Continuous
 62
     0
370
     0
100
AcDbLine
 10
0.0
 20
4.99999999999999
 30
0.0
 11
0.0
 21
6.649999999999989
 31
0.0
  0
LINE
  5
222
330
21B
100
AcDbEntity
  8
0
  6
Continuous
 62
     0
370
     0
100
AcDbLine
 10
-5.000000000000004
 20
0.0
 30
0.0
 11
-6.649999999999989
 21
0.0
 31
0.0
  0
LINE
  5
223
330
21B
100
AcDbEntity
  8
0
  6
Continuous
 62
     0
370
     0
100
AcDbLine
 10
0.0
 20
-5.000000000000004
 30
0.0
 11
0.0
 21
-6.650000000000017
 31
0.0
  0
LINE
  5
224
330
21B
100
AcDbEntity
  8
0
  6
Continuous
 62
     0
370
     0
100
AcDbLine
 10
5.000000000000004
 20
0.0
 30
0.0
 11
6.650000000000017
 21
0.0
 31
0.0
  0
ENDBLK
  5
225
330
21B
100
AcDbEntity
  8
0
100
AcDbBlockEnd
  0
BLOCK
  5
4B7
330
4B6
100
AcDbEntity
  8
0
100
AcDbBlockBegin
  2
1
 70
     0
 10
0.0
 20
0.0
 30
0.0
  3
1
  1

  0
LINE
  5
4B9
330
4B6
100
AcDbEntity
  8
0
  6
Continuous
 62
     7
370
    15
100
AcDbLine
 10
2432.583449136866
 20
921.1863355978644
 30
0.0
 11
2404.083449471211
 21
921.1863355978644
 31
0.0
  0
LINE
  5
4BA
330
4B6
100
AcDbEntity
  8
0
  6
Continuous
 62
     7
370
    15
100
AcDbLine
 10
2432.583449136866
 20
921.1863355978644
 30
0.0
 11
2433.333448794139
 21
920.4363359405911
 31
0.0
  0
LINE
  5
4BB
330
4B6
100
AcDbEntity
  8
0
  6
Continuous
 62
     7
370
    15
100
AcDbLine
 10
2403.333449464692
 20
920.4363359405911
 30
0.0
 11
2433.333448794139
 21
920.4363359405911
 31
0.0
  0
LINE
  5
4BC
330
4B6
100
AcDbEntity
  8
0
  6
Continuous
 62
     7
370
    15
100
AcDbLine
 10
2403.333449464692
 20
920.4363359405911
 30
0.0
 11
2404.083449471211
 21
921.1863355978644
 31
0.0
  0
LINE
  5
4BD
330
4B6
100
AcDbEntity
  8
0
  6
Continuous
 62
     7
370
    15
100
AcDbLine
 10
2403.333449464692
 20
920.4363359405911
 30
0.0
 11
2403.333449464692
 21
891.936336274936
 31
0.0
  0
LINE
  5
4BE
330
4B6
100
AcDbEntity
  8
0
  6
Continuous
 62
     7
370
    15
100
AcDbLine
 10
2433.333448794139
 20
891.936336274936
 30
0.0
 11
2433.333448794139
 21
920.4363359405911
 31
0.0
  0
LINE
  5
4BF
330
4B6
100
AcDbEntity
  8
0
  6
Continuous
 62
     7
370
    15
100
AcDbLine
 10
2403.333449464692
 20
891.936336274936
 30
0.0
 11
2433.333448794139
 21
891.936336274936
 31
0.0
  0
LINE
  5
4C0
330
4B6
100
AcDbEntity
  8
0
  6
Continuous
 62
     7
370
    15
100
AcDbLine
 10
2404.083449471211
 20
891.1863362684167
 30
0.0
 11
2432.583449136866
 21
891.1863362684167
 31
0.0
  0
LINE
  5
4C1
330
4B6
100
AcDbEntity
  8
0
  6
Continuous
 62
     7
370
    15
100
AcDbLine
 10
2403.333449464692
 20
891.936336274936
 30
0.0
 11
2404.083449471211
 21
891.1863362684167
 31
0.0
  0
LINE
  5
4C2
330
4B6
100
AcDbEntity
  8
0
  6
Continuous
 62
     7
370
    15
100
AcDbLine
 10
2432.583449136866
 20
891.1863362684167
 30
0.0
 11
2433.333448794139
 21
891.936336274936
 31
0.0
  0
ENDBLK
  5
4B8
330
4B6
100
AcDbEntity
  8
0
100
AcDbBlockEnd
  0
BLOCK
  5
4C5
330
4C4
100
AcDbEntity
  8
0
100
AcDbBlockBegin
  2
2
 70
     0
 10
0.0
 20
0.0
 30
0.0
  3
2
  1

  0
LINE
  5
615
330
4C4
100
AcDbEntity
  8
0
  6
Continuous
 62
     7
370
    15
100
AcDbLine
 10
2298.813068871405
 20
902.1863362088121
 30
0.0
 11
2298.813068871405
 21
910.4363361641086
 31
0.0
1001
AcDbBlockRepETag
1070
     1
1071
        0
1005
615
  0
LINE
  5
616
330
4C4
100
AcDbEntity
  8
0
  6
Continuous
 62
     7
370
    15
100
AcDbLine
 10
2298.813068871405
 20
910.4363361641086
 30
0.0
 11
2287.313067917731
 21
910.4363361641086
 31
0.0
1001
AcDbBlockRepETag
1070
     1
1071
        1
1005
616
  0
LINE
  5
617
330
4C4
100
AcDbEntity
  8
0
  6
Continuous
 62
     7
370
    15
100
AcDbLine
 10
2287.313067917731
 20
910.4363361641086
 30
0.0
 11
2287.313067917731
 21
902.1863362088121
 31
0.0
1001
AcDbBlockRepETag
1070
     1
1071
        2
1005
617
  0
ARC
  5
618
330
4C4
100
AcDbEntity
  8
0
  6
Continuous
 62
     7
370
    15
100
AcDbCircle
 10
2293.063069109824
 20
902.1863362684166
 30
0.0
 40
5.75
100
AcDbArc
 50
180.0
 51
0.0
1001
AcDbBlockRepETag
1070
     1
1071
        3
1005
618
  0
LINE
  5
619
330
4C4
100
AcDbEntity
  8
0
  6
Continuous
 62
     7
370
    15
100
AcDbLine
 10
2321.813068916109
 20
902.1863362088121
 30
0.0
 11
2321.813068916109
 21
910.4363361641086
 31
0.0
1001
AcDbBlockRepETag
1070
     1
1071
        4
1005
619
  0
LINE
  5
61A
330
4C4
100
AcDbEntity
  8
0
  6
Continuous
 62
     7
370
    15
100
AcDbLine
 10
2321.813068916109
 20
910.4363361641086
 30
0.0
 11
2310.31306982508
 21
910.4363361641086
 31
0.0
1001
AcDbBlockRepETag
1070
     1
1071
        5
1005
61A
  0
LINE
  5
61B
330
4C4
100
AcDbEntity
  8
0
  6
Continuous
 62
     7
370
    15
100
AcDbLine
 10
2310.31306982508
 20
910.4363361641086
 30
0.0
 11
2310.31306982508
 21
902.1863362088121
 31
0.0
1001
AcDbBlockRepETag
1070
     1
1071
        6
1005
61B
  0
ARC
  5
61C
330
4C4
100
AcDbEntity
  8
0
  6
Continuous
 62
     7
370
    15
100
AcDbCircle
 10
2316.063069109824
 20
902.1863362684166
 30
0.0
 40
5.75
100
AcDbArc
 50
180.0
 51
0.0
1001
AcDbBlockRepETag
1070
     1
1071
        7
1005
61C
  0
LINE
  5
61D
330
4C4
100
AcDbEntity
  8
0
  6
Continuous
 62
     7
370
    15
100
AcDbLine
 10
2344.813069193643
 20
902.1863362088121
 30
0.0
 11
2344.813069193643
 21
910.4363361641086
 31
0.0
1001
AcDbBlockRepETag
1070
     1
1071
        8
1005
61D
  0
LINE
  5
61E
330
4C4
100
AcDbEntity
  8
0
  6
Continuous
 62
     7
370
    15
100
AcDbLine
 10
2344.813069193643
 20
910.4363361641086
 30
0.0
 11
2333.313068938461
 21
910.4363361641086
 31
0.0
1001
AcDbBlockRepETag
1070
     1
1071
        9
1005
61E
  0
LINE
  5
61F
330
4C4
100
AcDbEntity
  8
0
  6
Continuous
 62
     7
370
    15
100
AcDbLine
 10
2333.313068938461
 20
910.4363361641086
 30
0.0
 11
2333.313068938461
 21
902.1863362088121
 31
0.0
1001
AcDbBlockRepETag
1070
     1
1071
       10
1005
61F
  0
ARC
  5
620
330
4C4
100
AcDbEntity
  8
0
  6
Continuous
 62
     7
370
    15
100
AcDbCircle
 10
2339.063069109824
 20
902.1863362684166
 30
0.0
 40
5.75
100
AcDbArc
 50
180.0
 51
0.0
1001
AcDbBlockRepETag
1070
     1
1071
       11
1005
620
  0
LINE
  5
621
330
4C4
100
AcDbEntity
  8
0
  6
Continuous
 62
     7
370
    15
100
AcDbLine
 10
2282.963068787959
 20
891.936336274936
 30
0.0
 11
2282.963068787959
 21
920.4363359405911
 31
0.0
1001
AcDbBlockRepETag
1070
     1
1071
       12
1005
621
  0
LINE
  5
622
330
4C4
100
AcDbEntity
  8
0
  6
Continuous
 62
     7
370
    15
100
AcDbLine
 10
2282.963068787959
 20
920.4363359405911
 30
0.0
 11
2348.563069109824
 21
920.4363359405911
 31
0.0
1001
AcDbBlockRepETag
1070
     1
1071
       13
1005
622
  0
LINE
  5
623
330
4C4
100
AcDbEntity
  8
0
  6
Continuous
 62
     7
370
    15
100
AcDbLine
 10
2348.563069109824
 20
891.936336274936
 30
0.0
 11
2348.563069109824
 21
920.4363359405911
 31
0.0
1001
AcDbBlockRepETag
1070
     1
1071
       14
1005
623
  0
LINE
  5
624
330
4C4
100
AcDbEntity
  8
0
  6
Continuous
 62
     7
370
    15
100
AcDbLine
 10
2282.963068787959
 20
891.936336274936
 30
0.0
 11
2348.563069109824
 21
891.936336274936
 31
0.0
1001
AcDbBlockRepETag
1070
     1
1071
       15
1005
624
  0
LINE
  5
625
330
4C4
100
AcDbEntity
  8
0
  6
Continuous
 62
     7
370
    15
100
AcDbLine
 10
2283.713066582587
 20
891.1863362684167
 30
0.0
 11
2347.813069103305
 21
891.1863362684167
 31
0.0
1001
AcDbBlockRepETag
1070
     1
1071
       16
1005
625
  0
LINE
  5
626
330
4C4
100
AcDbEntity
  8
0
  6
Continuous
 62
     7
370
    15
100
AcDbLine
 10
2283.713066582587
 20
891.1863362684167
 30
0.0
 11
2282.963068787959
 21
891.936336274936
 31
0.0
1001
AcDbBlockRepETag
1070
     1
1071
       17
1005
626
  0
LINE
  5
627
330
4C4
100
AcDbEntity
  8
0
  6
Continuous
 62
     7
370
    15
100
AcDbLine
 10
2347.813069103305
 20
891.1863362684167
 30
0.0
 11
2348.563069109824
 21
891.936336274936
 31
0.0
1001
AcDbBlockRepETag
1070
     1
1071
       18
1005
627
  0
LINE
  5
628
330
4C4
100
AcDbEntity
  8
0
  6
Continuous
 62
     7
370
    15
100
AcDbLine
 10
2347.813069103305
 20
921.1863355978644
 30
0.0
 11
2348.563069109824
 21
920.4363359405911
 31
0.0
1001
AcDbBlockRepETag
1070
     1
1071
       19
1005
628
  0
LINE
  5
629
330
4C4
100
AcDbEntity
  8
0
  6
Continuous
 62
     7
370
    15
100
AcDbLine
 10
2283.713066582587
 20
921.1863355978644
 30
0.0
 11
2282.963068787959
 21
920.4363359405911
 31
0.0
1001
AcDbBlockRepETag
1070
     1
1071
       20
1005
629
  0
LINE
  5
62A
330
4C4
100
AcDbEntity
  8
0
  6
Continuous
 62
     7
370
    15
100
AcDbLine
 10
2347.813069103305
 20
921.1863355978644
 30
0.0
 11
2283.713066582587
 21
921.1863355978644
 31
0.0
1001
AcDbBlockRepETag
1070
     1
1071
       21
1005
62A
  0
LINE
  5
62B
330
4C4
100
AcDbEntity
  8
0
  6
Continuous
 62
     7
370
    15
100
AcDbLine
 10
2334.713069354203
 20
906.2363358482039
 30
0.0
 11
2334.713069354203
 21
902.1863362088121
 31
0.0
1001
AcDbBlockRepETag
1070
     1
1071
       22
1005
62B
  0
ARC
  5
62C
330
4C4
100
AcDbEntity
  8
0
  6
Continuous
 62
     7
370
    15
100
AcDbCircle
 10
2335.713069109824
 20
906.2363362684166
 30
0.0
 40
1.0
100
AcDbArc
 50
90.0
 51
180.0
1001
AcDbBlockRepETag
1070
     1
1071
       23
1005
62C
  0
LINE
  5
62D
330
4C4
100
AcDbEntity
  8
0
  6
Continuous
 62
     7
370
    15
100
AcDbLine
 10
2342.41306931248
 20
907.2363360121167
 30
0.0
 11
2335.713069518116
 21
907.2363360121167
 31
0.0
1001
AcDbBlockRepETag
1070
     1
1071
       24
1005
62D
  0
LINE
  5
62E
330
4C4
100
AcDbEntity
  8
0
  6
Continuous
 62
     7
370
    15
100
AcDbLine
 10
2342.41306931248
 20
907.4363356723702
 30
0.0
 11
2342.41306931248
 21
907.2363360121167
 31
0.0
1001
AcDbBlockRepETag
1070
     1
1071
       25
1005
62E
  0
LINE
  5
62F
330
4C4
100
AcDbEntity
  8
0
  6
Continuous
 62
     7
370
    15
100
AcDbLine
 10
2334.713069354203
 20
907.4363356723702
 30
0.0
 11
2342.41306931248
 21
907.4363356723702
 31
0.0
1001
AcDbBlockRepETag
1070
     1
1071
       26
1005
62F
  0
LINE
  5
630
330
4C4
100
AcDbEntity
  8
0
  6
Continuous
 62
     7
370
    15
100
AcDbLine
 10
2334.713069354203
 20
908.436335836283
 30
0.0
 11
2334.713069354203
 21
907.4363356723702
 31
0.0
1001
AcDbBlockRepETag
1070
     1
1071
       27
1005
630
  0
LINE
  5
631
330
4C4
100
AcDbEntity
  8
0
  6
Continuous
 62
     7
370
    15
100
AcDbLine
 10
2342.41306931248
 20
908.436335836283
 30
0.0
 11
2334.713069354203
 21
908.436335836283
 31
0.0
1001
AcDbBlockRepETag
1070
     1
1071
       28
1005
631
  0
LINE
  5
632
330
4C4
100
AcDbEntity
  8
0
  6
Continuous
 62
     7
370
    15
100
AcDbLine
 10
2335.713069518116
 20
905.9363363578237
 30
0.0
 11
2335.713069518116
 21
902.1863362088121
 31
0.0
1001
AcDbBlockRepETag
1070
     1
1071
       29
1005
632
  0
ARC
  5
633
330
4C4
100
AcDbEntity
  8
0
  6
Continuous
 62
     7
370
    15
100
AcDbCircle
 10
2339.063069109824
 20
902.1863362684166
 30
0.0
 40
3.349999999999994
100
AcDbArc
 50
180.0
 51
0.0
1001
AcDbBlockRepETag
1070
     1
1071
       30
1005
633
  0
LINE
  5
634
330
4C4
100
AcDbEntity
  8
0
  6
Continuous
 62
     7
370
    15
100
AcDbLine
 10
2342.41306931248
 20
902.1863362088121
 30
0.0
 11
2342.41306931248
 21
905.9363363578237
 31
0.0
1001
AcDbBlockRepETag
1070
     1
1071
       31
1005
634
  0
ARC
  5
635
330
4C4
100
AcDbEntity
  8
0
  6
Continuous
 62
     7
370
    15
100
AcDbCircle
 10
2342.113069109824
 20
905.9363362684166
 30
0.0
 40
0.3000000000000114
100
AcDbArc
 50
0.0
 51
90.0
1001
AcDbBlockRepETag
1070
     1
1071
       32
1005
635
  0
LINE
  5
636
330
4C4
100
AcDbEntity
  8
0
  6
Continuous
 62
     7
370
    15
100
AcDbLine
 10
2342.113068890777
 20
906.2363358482039
 30
0.0
 11
2336.013069008496
 21
906.2363358482039
 31
0.0
1001
AcDbBlockRepETag
1070
     1
1071
       33
1005
636
  0
ARC
  5
637
330
4C4
100
AcDbEntity
  8
0
  6
Continuous
 62
     7
370
    15
100
AcDbCircle
 10
2336.013069109824
 20
905.9363362684166
 30
0.0
 40
0.3000000000000114
100
AcDbArc
 50
90.0
 51
180.0
1001
AcDbBlockRepETag
1070
     1
1071
       34
1005
637
  0
ARC
  5
638
330
4C4
100
AcDbEntity
  8
0
  6
Continuous
 62
     7
370
    15
100
AcDbCircle
 10
2339.063069109824
 20
902.1863362684166
 30
0.0
 40
4.349999999999994
100
AcDbArc
 50
180.0
 51
0.0
1001
AcDbBlockRepETag
1070
     1
1071
       35
1005
638
  0
LINE
  5
639
330
4C4
100
AcDbEntity
  8
0
  6
Continuous
 62
     7
370
    15
100
AcDbLine
 10
2343.413069010731
 20
902.1863362088121
 30
0.0
 11
2343.413069010731
 21
907.4363356723702
 31
0.0
1001
AcDbBlockRepETag
1070
     1
1071
       36
1005
639
  0
ARC
  5
63A
330
4C4
100
AcDbEntity
  8
0
  6
Continuous
 62
     7
370
    15
100
AcDbCircle
 10
2342.413069109825
 20
907.4363362684167
 30
0.0
 40
1.0
100
AcDbArc
 50
0.0
 51
90.0
1001
AcDbBlockRepETag
1070
     1
1071
       37
1005
63A
  0
LINE
  5
63B
330
4C4
100
AcDbEntity
  8
0
  6
Continuous
 62
     7
370
    15
100
AcDbLine
 10
2311.713067446854
 20
906.2363358482039
 30
0.0
 11
2311.713067446854
 21
902.1863362088121
 31
0.0
1001
AcDbBlockRepETag
1070
     1
1071
       38
1005
63B
  0
ARC
  5
63C
330
4C4
100
AcDbEntity
  8
0
  6
Continuous
 62
     7
370
    15
100
AcDbCircle
 10
2312.713069109824
 20
906.2363362684166
 30
0.0
 40
1.0
100
AcDbArc
 50
90.0
 51
180.0
1001
AcDbBlockRepETag
1070
     1
1071
       39
1005
63C
  0
LINE
  5
63D
330
4C4
100
AcDbEntity
  8
0
  6
Continuous
 62
     7
370
    15
100
AcDbLine
 10
2319.413069267776
 20
907.2363360121167
 30
0.0
 11
2312.713069473412
 21
907.2363360121167
 31
0.0
1001
AcDbBlockRepETag
1070
     1
1071
       40
1005
63D
  0
LINE
  5
63E
330
4C4
100
AcDbEntity
  8
0
  6
Continuous
 62
     7
370
    15
100
AcDbLine
 10
2319.413069267776
 20
907.4363356723702
 30
0.0
 11
2319.413069267776
 21
907.2363360121167
 31
0.0
1001
AcDbBlockRepETag
1070
     1
1071
       41
1005
63E
  0
LINE
  5
63F
330
4C4
100
AcDbEntity
  8
0
  6
Continuous
 62
     7
370
    15
100
AcDbLine
 10
2311.713067446854
 20
907.4363356723702
 30
0.0
 11
2319.413069267776
 21
907.4363356723702
 31
0.0
1001
AcDbBlockRepETag
1070
     1
1071
       42
1005
63F
  0
LINE
  5
640
330
4C4
100
AcDbEntity
  8
0
  6
Continuous
 62
     7
370
    15
100
AcDbLine
 10
2311.713067446854
 20
908.436335836283
 30
0.0
 11
2311.713067446854
 21
907.4363356723702
 31
0.0
1001
AcDbBlockRepETag
1070
     1
1071
       43
1005
640
  0
LINE
  5
641
330
4C4
100
AcDbEntity
  8
0
  6
Continuous
 62
     7
370
    15
100
AcDbLine
 10
2319.413069267776
 20
908.436335836283
 30
0.0
 11
2311.713067446854
 21
908.436335836283
 31
0.0
1001
AcDbBlockRepETag
1070
     1
1071
       44
1005
641
  0
ARC
  5
642
330
4C4
100
AcDbEntity
  8
0
  6
Continuous
 62
     7
370
    15
100
AcDbCircle
 10
2319.413069109824
 20
907.4363362684167
 30
0.0
 40
1.0
100
AcDbArc
 50
0.0
 51
90.0
1001
AcDbBlockRepETag
1070
     1
1071
       45
1005
642
  0
LINE
  5
643
330
4C4
100
AcDbEntity
  8
0
  6
Continuous
 62
     7
370
    15
100
AcDbLine
 10
2320.413069431689
 20
902.1863362088121
 30
0.0
 11
2320.413069431689
 21
907.4363356723702
 31
0.0
1001
AcDbBlockRepETag
1070
     1
1071
       46
1005
643
  0
ARC
  5
644
330
4C4
100
AcDbEntity
  8
0
  6
Continuous
 62
     7
370
    15
100
AcDbCircle
 10
2316.063069109824
 20
902.1863362684166
 30
0.0
 40
4.350000000000008
100
AcDbArc
 50
180.0
 51
0.0
1001
AcDbBlockRepETag
1070
     1
1071
       47
1005
644
  0
LINE
  5
645
330
4C4
100
AcDbEntity
  8
0
  6
Continuous
 62
     7
370
    15
100
AcDbLine
 10
2312.713069473412
 20
905.9363363578237
 30
0.0
 11
2312.713069473412
 21
902.1863362088121
 31
0.0
1001
AcDbBlockRepETag
1070
     1
1071
       48
1005
645
  0
ARC
  5
646
330
4C4
100
AcDbEntity
  8
0
  6
Continuous
 62
     7
370
    15
100
AcDbCircle
 10
2316.063069109824
 20
902.1863362684166
 30
0.0
 40
3.350000000000008
100
AcDbArc
 50
180.0
 51
0.0
1001
AcDbBlockRepETag
1070
     1
1071
       49
1005
646
  0
LINE
  5
647
330
4C4
100
AcDbEntity
  8
0
  6
Continuous
 62
     7
370
    15
100
AcDbLine
 10
2319.413069267776
 20
902.1863362088121
 30
0.0
 11
2319.413069267776
 21
905.9363363578237
 31
0.0
1001
AcDbBlockRepETag
1070
     1
1071
       50
1005
647
  0
ARC
  5
648
330
4C4
100
AcDbEntity
  8
0
  6
Continuous
 62
     7
370
    15
100
AcDbCircle
 10
2319.113069109824
 20
905.9363362684166
 30
0.0
 40
0.3000000000000114
100
AcDbArc
 50
0.0
 51
90.0
1001
AcDbBlockRepETag
1070
     1
1071
       51
1005
648
  0
LINE
  5
649
330
4C4
100
AcDbEntity
  8
0
  6
Continuous
 62
     7
370
    15
100
AcDbLine
 10
2319.113069777396
 20
906.2363358482039
 30
0.0
 11
2313.013070826438
 21
906.2363358482039
 31
0.0
1001
AcDbBlockRepETag
1070
     1
1071
       52
1005
649
  0
ARC
  5
64A
330
4C4
100
AcDbEntity
  8
0
  6
Continuous
 62
     7
370
    15
100
AcDbCircle
 10
2313.013069109825
 20
905.9363362684166
 30
0.0
 40
0.3000000000000114
100
AcDbArc
 50
90.0
 51
180.0
1001
AcDbBlockRepETag
1070
     1
1071
       53
1005
64A
  0
ARC
  5
64B
330
4C4
100
AcDbEntity
  8
0
  6
Continuous
 62
     7
370
    15
100
AcDbCircle
 10
2293.063069109824
 20
902.1863362684166
 30
0.0
 40
4.350000000000008
100
AcDbArc
 50
180.0
 51
0.0
1001
AcDbBlockRepETag
1070
     1
1071
       54
1005
64B
  0
LINE
  5
64C
330
4C4
100
AcDbEntity
  8
0
  6
Continuous
 62
     7
370
    15
100
AcDbLine
 10
2288.713069264796
 20
906.2363358482039
 30
0.0
 11
2288.713069264796
 21
902.1863362088121
 31
0.0
1001
AcDbBlockRepETag
1070
     1
1071
       55
1005
64C
  0
ARC
  5
64D
330
4C4
100
AcDbEntity
  8
0
  6
Continuous
 62
     7
370
    15
100
AcDbCircle
 10
2289.713069109824
 20
906.2363362684166
 30
0.0
 40
1.0
100
AcDbArc
 50
90.0
 51
180.0
1001
AcDbBlockRepETag
1070
     1
1071
       56
1005
64D
  0
LINE
  5
64E
330
4C4
100
AcDbEntity
  8
0
  6
Continuous
 62
     7
370
    15
100
AcDbLine
 10
2289.713067566064
 20
907.2363360121167
 30
0.0
 11
2296.413069223073
 21
907.2363360121167
 31
0.0
1001
AcDbBlockRepETag
1070
     1
1071
       57
1005
64E
  0
LINE
  5
64F
330
4C4
100
AcDbEntity
  8
0
  6
Continuous
 62
     7
370
    15
100
AcDbLine
 10
2296.413069223073
 20
907.2363360121167
 30
0.0
 11
2296.413069223073
 21
907.4363356723702
 31
0.0
1001
AcDbBlockRepETag
1070
     1
1071
       58
1005
64F
  0
LINE
  5
650
330
4C4
100
AcDbEntity
  8
0
  6
Continuous
 62
     7
370
    15
100
AcDbLine
 10
2296.413069223073
 20
907.4363356723702
 30
0.0
 11
2288.713069264796
 21
907.4363356723702
 31
0.0
1001
AcDbBlockRepETag
1070
     1
1071
       59
1005
650
  0
LINE
  5
651
330
4C4
100
AcDbEntity
  8
0
  6
Continuous
 62
     7
370
    15
100
AcDbLine
 10
2288.713069264796
 20
908.436335836283
 30
0.0
 11
2288.713069264796
 21
907.4363356723702
 31
0.0
1001
AcDbBlockRepETag
1070
     1
1071
       60
1005
651
  0
LINE
  5
652
330
4C4
100
AcDbEntity
  8
0
  6
Continuous
 62
     7
370
    15
100
AcDbLine
 10
2296.413069223073
 20
908.436335836283
 30
0.0
 11
2288.713069264796
 21
908.436335836283
 31
0.0
1001
AcDbBlockRepETag
1070
     1
1071
       61
1005
652
  0
ARC
  5
653
330
4C4
100
AcDbEntity
  8
0
  6
Continuous
 62
     7
370
    15
100
AcDbCircle
 10
2296.413069109824
 20
907.4363362684167
 30
0.0
 40
1.0
100
AcDbArc
 50
0.0
 51
90.0
1001
AcDbBlockRepETag
1070
     1
1071
       62
1005
653
  0
LINE
  5
654
330
4C4
100
AcDbEntity
  8
0
  6
Continuous
 62
     7
370
    15
100
AcDbLine
 10
2297.41306752434
 20
902.1863362088121
 30
0.0
 11
2297.41306752434
 21
907.4363356723702
 31
0.0
1001
AcDbBlockRepETag
1070
     1
1071
       63
1005
654
  0
ARC
  5
655
330
4C4
100
AcDbEntity
  8
0
  6
Continuous
 62
     7
370
    15
100
AcDbCircle
 10
2293.063069109824
 20
902.1863362684166
 30
0.0
 40
3.350000000000008
100
AcDbArc
 50
180.0
 51
0.0
1001
AcDbBlockRepETag
1070
     1
1071
       64
1005
655
  0
LINE
  5
656
330
4C4
100
AcDbEntity
  8
0
  6
Continuous
 62
     7
370
    15
100
AcDbLine
 10
2296.413069223073
 20
902.1863362088121
 30
0.0
 11
2296.413069223073
 21
905.9363363578237
 31
0.0
1001
AcDbBlockRepETag
1070
     1
1071
       65
1005
656
  0
ARC
  5
657
330
4C4
100
AcDbEntity
  8
0
  6
Continuous
 62
     7
370
    15
100
AcDbCircle
 10
2296.113069109825
 20
905.9363362684166
 30
0.0
 40
0.3000000000000114
100
AcDbArc
 50
0.0
 51
90.0
1001
AcDbBlockRepETag
1070
     1
1071
       66
1005
657
  0
LINE
  5
658
330
4C4
100
AcDbEntity
  8
0
  6
Continuous
 62
     7
370
    15
100
AcDbLine
 10
2296.113067870047
 20
906.2363358482039
 30
0.0
 11
2290.013068919089
 21
906.2363358482039
 31
0.0
1001
AcDbBlockRepETag
1070
     1
1071
       67
1005
658
  0
ARC
  5
659
330
4C4
100
AcDbEntity
  8
0
  6
Continuous
 62
     7
370
    15
100
AcDbCircle
 10
2290.013069109825
 20
905.9363362684166
 30
0.0
 40
0.3000000000000114
100
AcDbArc
 50
90.0
 51
180.0
1001
AcDbBlockRepETag
1070
     1
1071
       68
1005
659
  0
LINE
  5
65A
330
4C4
100
AcDbEntity
  8
0
  6
Continuous
 62
     7
370
    15
100
AcDbLine
 10
2289.713067566064
 20
905.9363363578237
 30
0.0
 11
2289.713067566064
 21
902.1863362088121
 31
0.0
1001
AcDbBlockRepETag
1070
     1
1071
       69
1005
65A
  0
ENDBLK
  5
4C6
330
4C4
100
AcDbEntity
  8
0
100
AcDbBlockEnd
  0
BLOCK
  5
512
330
511
100
AcDbEntity
  8
0
100
AcDbBlockBegin
  2
3
 70
     0
 10
0.0
 20
0.0
 30
0.0
  3
3
  1

  0
LINE
  5
514
330
511
100
AcDbEntity
  8
0
  6
Continuous
 62
     7
370
    15
100
AcDbLine
 10
2404.083449471211
 20
855.54878808914
 30
0.0
 11
2403.333449464692
 21
856.2987880956592
 31
0.0
  0
LINE
  5
515
330
511
100
AcDbEntity
  8
0
  6
Continuous
 62
     7
370
    15
100
AcDbLine
 10
2404.083449471211
 20
791.4487855684223
 30
0.0
 11
2404.083449471211
 21
855.54878808914
 31
0.0
  0
LINE
  5
516
330
511
100
AcDbEntity
  8
0
  6
Continuous
 62
     7
370
    15
100
AcDbLine
 10
2403.333449464692
 20
790.6987877737941
 30
0.0
 11
2404.083449471211
 21
791.4487855684223
 31
0.0
  0
LINE
  5
517
330
511
100
AcDbEntity
  8
0
  6
Continuous
 62
     7
370
    15
100
AcDbLine
 10
2403.333449464692
 20
856.2987880956592
 30
0.0
 11
2403.333449464692
 21
790.6987877737941
 31
0.0
  0
LINE
  5
518
330
511
100
AcDbEntity
  8
0
  6
Continuous
 62
     7
370
    15
100
AcDbLine
 10
2404.083449471211
 20
855.54878808914
 30
0.0
 11
2432.583449136866
 21
855.54878808914
 31
0.0
  0
LINE
  5
519
330
511
100
AcDbEntity
  8
0
  6
Continuous
 62
     7
370
    15
100
AcDbLine
 10
2433.333448794139
 20
856.2987880956592
 30
0.0
 11
2403.333449464692
 21
856.2987880956592
 31
0.0
  0
LINE
  5
51A
330
511
100
AcDbEntity
  8
0
  6
Continuous
 62
     7
370
    15
100
AcDbLine
 10
2432.583449136866
 20
855.54878808914
 30
0.0
 11
2433.333448794139
 21
856.2987880956592
 31
0.0
  0
LINE
  5
51B
330
511
100
AcDbEntity
  8
0
  6
Continuous
 62
     7
370
    15
100
AcDbLine
 10
2433.333448794139
 20
790.6987877737941
 30
0.0
 11
2433.333448794139
 21
856.2987880956592
 31
0.0
  0
LINE
  5
51C
330
511
100
AcDbEntity
  8
0
  6
Continuous
 62
     7
370
    15
100
AcDbLine
 10
2432.583449136866
 20
791.4487855684223
 30
0.0
 11
2433.333448794139
 21
790.6987877737941
 31
0.0
  0
LINE
  5
51D
330
511
100
AcDbEntity
  8
0
  6
Continuous
 62
     7
370
    15
100
AcDbLine
 10
2432.583449136866
 20
855.54878808914
 30
0.0
 11
2432.583449136866
 21
791.4487855684223
 31
0.0
  0
CIRCLE
  5
51E
330
511
100
AcDbEntity
  8
0
  6
Continuous
 62
     7
370
    15
100
AcDbCircle
 10
2418.333449464692
 20
812.2987880956593
 30
0.0
 40
4.150000000000005
  0
CIRCLE
  5
51F
330
511
100
AcDbEntity
  8
0
  6
Continuous
 62
     7
370
    15
100
AcDbCircle
 10
2418.333449464692
 20
835.2987880956591
 30
0.0
 40
4.150000000000005
  0
CIRCLE
  5
520
330
511
100
AcDbEntity
  8
0
  6
Continuous
 62
     7
370
    15
100
AcDbCircle
 10
2424.183449464692
 20
800.4987880956592
 30
0.0
 40
4.25
  0
CIRCLE
  5
521
330
511
100
AcDbEntity
  8
0
  6
Continuous
 62
     7
370
    15
100
AcDbCircle
 10
2412.483449464692
 20
800.4987880956592
 30
0.0
 40
4.250000000000014
  0
CIRCLE
  5
522
330
511
100
AcDbEntity
  8
0
  6
Continuous
 62
     7
370
    15
100
AcDbCircle
 10
2424.183449464692
 20
823.4987880956591
 30
0.0
 40
4.249999999999985
  0
CIRCLE
  5
523
330
511
100
AcDbEntity
  8
0
  6
Continuous
 62
     7
370
    15
100
AcDbCircle
 10
2412.483449464692
 20
823.4987880956593
 30
0.0
 40
4.25
  0
CIRCLE
  5
524
330
511
100
AcDbEntity
  8
0
  6
Continuous
 62
     7
370
    15
100
AcDbCircle
 10
2424.183449464692
 20
846.4987880956593
 30
0.0
 40
4.250000000000014
  0
CIRCLE
  5
525
330
511
100
AcDbEntity
  8
0
  6
Continuous
 62
     7
370
    15
100
AcDbCircle
 10
2412.483449464692
 20
846.4987880956593
 30
0.0
 40
4.250000000000014
  0
LINE
  5
526
330
511
100
AcDbEntity
  8
0
  6
Continuous
 62
     7
370
    15
100
AcDbLine
 10
2432.583449136866
 20
791.4487855684223
 30
0.0
 11
2404.083449471211
 21
791.4487855684223
 31
0.0
  0
LINE
  5
527
330
511
100
AcDbEntity
  8
0
  6
Continuous
 62
     7
370
    15
100
AcDbLine
 10
2403.333449464692
 20
790.6987877737941
 30
0.0
 11
2433.333448794139
 21
790.6987877737941
 31
0.0
  0
ARC
  5
528
330
511
100
AcDbEntity
  8
0
  6
Continuous
 62
     7
370
    15
100
AcDbCircle
 10
2412.483449464692
 20
823.4987880956593
 30
0.0
 40
1.083265405568158
100
AcDbArc
 50
305.2673390208028
 51
327.0502324720748
  0
LINE
  5
529
330
511
100
AcDbEntity
  8
0
  6
Continuous
 62
     7
370
    15
100
AcDbLine
 10
2414.691920120669
 20
822.9095960211219
 30
0.0
 11
2413.392469015373
 21
822.9095960211219
 31
0.0
  0
ARC
  5
52A
330
511
100
AcDbEntity
  8
0
  6
Continuous
 62
     7
370
    15
100
AcDbCircle
 10
2412.483449464692
 20
823.4987880956593
 30
0.0
 40
2.285714286348288
100
AcDbArc
 50
345.0621309252211
 51
14.93786907482335
  0
LINE
  5
52B
330
511
100
AcDbEntity
  8
0
  6
Continuous
 62
     7
370
    15
100
AcDbLine
 10
2413.392469015373
 20
824.0879798483314
 30
0.0
 11
2414.691920120669
 21
824.0879798483314
 31
0.0
  0
ARC
  5
52C
330
511
100
AcDbEntity
  8
0
  6
Continuous
 62
     7
370
    15
100
AcDbCircle
 10
2412.483449464692
 20
823.4987880956593
 30
0.0
 40
1.083265405568148
100
AcDbArc
 50
32.94976752804424
 51
54.73266097919714
  0
LINE
  5
52D
330
511
100
AcDbEntity
  8
0
  6
Continuous
 62
     7
370
    15
100
AcDbLine
 10
2413.108918544305
 20
826.157253811902
 30
0.0
 11
2413.108918544305
 21
824.3832389068069
 31
0.0
  0
ARC
  5
52E
330
511
100
AcDbEntity
  8
0
  6
Continuous
 62
     7
370
    15
100
AcDbCircle
 10
2412.483449464692
 20
823.4987880956593
 30
0.0
 40
2.731052608424145
100
AcDbArc
 50
283.2394559279645
 51
76.76054407203558
  0
LINE
  5
52F
330
511
100
AcDbEntity
  8
0
  6
Continuous
 62
     7
370
    15
100
AcDbLine
 10
2413.108918544305
 20
822.6143369626464
 30
0.0
 11
2413.108918544305
 21
820.8403239201965
 31
0.0
  0
ARC
  5
530
330
511
100
AcDbEntity
  8
0
  6
Continuous
 62
     7
370
    15
100
AcDbCircle
 10
2412.483449464692
 20
823.4987880956593
 30
0.0
 40
1.083265405568128
100
AcDbArc
 50
125.2673390207665
 51
147.0502324719394
  0
LINE
  5
531
330
511
100
AcDbEntity
  8
0
  6
Continuous
 62
     7
370
    15
100
AcDbLine
 10
2410.274978921218
 20
824.0879798483314
 30
0.0
 11
2411.574429560853
 21
824.0879798483314
 31
0.0
  0
ARC
  5
532
330
511
100
AcDbEntity
  8
0
  6
Continuous
 62
     7
370
    15
100
AcDbCircle
 10
2412.483449464692
 20
823.4987880956593
 30
0.0
 40
2.2857142863487
100
AcDbArc
 50
165.0621309251704
 51
194.9378690747788
  0
LINE
  5
533
330
511
100
AcDbEntity
  8
0
  6
Continuous
 62
     7
370
    15
100
AcDbLine
 10
2411.574429560853
 20
822.9095960211219
 30
0.0
 11
2410.274978921218
 21
822.9095960211219
 31
0.0
  0
ARC
  5
534
330
511
100
AcDbEntity
  8
0
  6
Continuous
 62
     7
370
    15
100
AcDbCircle
 10
2412.483449464692
 20
823.4987880956593
 30
0.0
 40
1.083265405568141
100
AcDbArc
 50
212.9497675279306
 51
234.7326609792335
  0
LINE
  5
535
330
511
100
AcDbEntity
  8
0
  6
Continuous
 62
     7
370
    15
100
AcDbLine
 10
2411.85798003192
 20
820.8403239201965
 30
0.0
 11
2411.85798003192
 21
822.6143369626464
 31
0.0
  0
ARC
  5
536
330
511
100
AcDbEntity
  8
0
  6
Continuous
 62
     7
370
    15
100
AcDbCircle
 10
2412.483449464692
 20
823.4987880956593
 30
0.0
 40
2.731052608424141
100
AcDbArc
 50
103.2394559279375
 51
256.7605440720624
  0
LINE
  5
537
330
511
100
AcDbEntity
  8
0
  6
Continuous
 62
     7
370
    15
100
AcDbLine
 10
2411.85798003192
 20
824.3832389068069
 30
0.0
 11
2411.85798003192
 21
826.157253811902
 31
0.0
  0
CIRCLE
  5
538
330
511
100
AcDbEntity
  8
0
  6
Continuous
 62
     7
370
    15
100
AcDbCircle
 10
2412.483449464692
 20
823.4987880956593
 30
0.0
 40
3.000085598030167
  0
LINE
  5
539
330
511
100
AcDbEntity
  8
0
  6
Continuous
 62
     7
370
    15
100
AcDbLine
 10
2413.108918544305
 20
820.8403239201965
 30
0.0
 11
2413.108918544305
 21
820.7482645463409
 31
0.0
  0
ARC
  5
53A
330
511
100
AcDbEntity
  8
0
  6
Continuous
 62
     7
370
    15
100
AcDbCircle
 10
2412.483449464692
 20
823.4987880956593
 30
0.0
 40
2.820744303186412
100
AcDbArc
 50
77.18880492601805
 51
102.8111950739805
  0
LINE
  5
53B
330
511
100
AcDbEntity
  8
0
  6
Continuous
 62
     7
370
    15
100
AcDbLine
 10
2411.85798003192
 20
820.7482645463409
 30
0.0
 11
2411.85798003192
 21
820.8403239201965
 31
0.0
  0
ARC
  5
53C
330
511
100
AcDbEntity
  8
0
  6
Continuous
 62
     7
370
    15
100
AcDbCircle
 10
2412.483449464692
 20
823.4987880956593
 30
0.0
 40
2.820744303186427
100
AcDbArc
 50
257.1888049260195
 51
282.811195073982
  0
LINE
  5
53D
330
511
100
AcDbEntity
  8
0
  6
Continuous
 62
     7
370
    15
100
AcDbLine
 10
2411.85798003192
 20
826.157253811902
 30
0.0
 11
2411.85798003192
 21
826.2493131857576
 31
0.0
  0
LINE
  5
53E
330
511
100
AcDbEntity
  8
0
  6
Continuous
 62
     7
370
    15
100
AcDbLine
 10
2413.108918544305
 20
826.2493131857576
 30
0.0
 11
2413.108918544305
 21
826.157253811902
 31
0.0
  0
ARC
  5
53F
330
511
100
AcDbEntity
  8
0
  6
Continuous
 62
     7
370
    15
100
AcDbCircle
 10
2424.183449464692
 20
823.4987880956593
 30
0.0
 40
1.083265405568134
100
AcDbArc
 50
125.2673390207665
 51
147.0502324719394
  0
LINE
  5
540
330
511
100
AcDbEntity
  8
0
  6
Continuous
 62
     7
370
    15
100
AcDbLine
 10
2421.974979069484
 20
824.0879798483314
 30
0.0
 11
2423.274429243458
 21
824.0879798483314
 31
0.0
  0
ARC
  5
541
330
511
100
AcDbEntity
  8
0
  6
Continuous
 62
     7
370
    15
100
AcDbCircle
 10
2424.183449464692
 20
823.4987880956593
 30
0.0
 40
2.285714286348711
100
AcDbArc
 50
165.0621309251704
 51
194.9378690747788
  0
LINE
  5
542
330
511
100
AcDbEntity
  8
0
  6
Continuous
 62
     7
370
    15
100
AcDbLine
 10
2423.274429243458
 20
822.9095960211219
 30
0.0
 11
2421.974979069484
 21
822.9095960211219
 31
0.0
  0
ARC
  5
543
330
511
100
AcDbEntity
  8
0
  6
Continuous
 62
     7
370
    15
100
AcDbCircle
 10
2424.183449464692
 20
823.4987880956593
 30
0.0
 40
1.083265405568134
100
AcDbArc
 50
212.9497675279306
 51
234.7326609792335
  0
LINE
  5
544
330
511
100
AcDbEntity
  8
0
  6
Continuous
 62
     7
370
    15
100
AcDbLine
 10
2423.557979714526
 20
820.8403239201965
 30
0.0
 11
2423.557979714526
 21
822.6143369626464
 31
0.0
  0
ARC
  5
545
330
511
100
AcDbEntity
  8
0
  6
Continuous
 62
     7
370
    15
100
AcDbCircle
 10
2424.183449464692
 20
823.4987880956593
 30
0.0
 40
2.731052608424147
100
AcDbArc
 50
103.2394559279375
 51
256.7605440720624
  0
LINE
  5
546
330
511
100
AcDbEntity
  8
0
  6
Continuous
 62
     7
370
    15
100
AcDbLine
 10
2423.557979714526
 20
824.3832389068069
 30
0.0
 11
2423.557979714526
 21
826.157253811902
 31
0.0
  0
CIRCLE
  5
547
330
511
100
AcDbEntity
  8
0
  6
Continuous
 62
     7
370
    15
100
AcDbCircle
 10
2424.183449464692
 20
823.4987880956593
 30
0.0
 40
3.000085598030167
  0
LINE
  5
548
330
511
100
AcDbEntity
  8
0
  6
Continuous
 62
     7
370
    15
100
AcDbLine
 10
2424.808919158233
 20
820.8403239201965
 30
0.0
 11
2424.808919158233
 21
820.7482645463409
 31
0.0
  0
ARC
  5
549
330
511
100
AcDbEntity
  8
0
  6
Continuous
 62
     7
370
    15
100
AcDbCircle
 10
2424.183449464692
 20
823.4987880956593
 30
0.0
 40
2.731052608424145
100
AcDbArc
 50
283.2394559279645
 51
76.76054407203558
  0
ARC
  5
54A
330
511
100
AcDbEntity
  8
0
  6
Continuous
 62
     7
370
    15
100
AcDbCircle
 10
2424.183449464692
 20
823.4987880956593
 30
0.0
 40
2.820744303186412
100
AcDbArc
 50
77.18880492601805
 51
102.8111950739805
  0
LINE
  5
54B
330
511
100
AcDbEntity
  8
0
  6
Continuous
 62
     7
370
    15
100
AcDbLine
 10
2423.557979714526
 20
820.7482645463409
 30
0.0
 11
2423.557979714526
 21
820.8403239201965
 31
0.0
  0
ARC
  5
54C
330
511
100
AcDbEntity
  8
0
  6
Continuous
 62
     7
370
    15
100
AcDbCircle
 10
2424.183449464692
 20
823.4987880956593
 30
0.0
 40
2.820744303186434
100
AcDbArc
 50
257.1888049260195
 51
282.811195073982
  0
LINE
  5
54D
330
511
100
AcDbEntity
  8
0
  6
Continuous
 62
     7
370
    15
100
AcDbLine
 10
2424.808919158233
 20
826.2493131857576
 30
0.0
 11
2424.808919158233
 21
826.157253811902
 31
0.0
  0
LINE
  5
54E
330
511
100
AcDbEntity
  8
0
  6
Continuous
 62
     7
370
    15
100
AcDbLine
 10
2423.557979714526
 20
826.157253811902
 30
0.0
 11
2423.557979714526
 21
826.2493131857576
 31
0.0
  0
ARC
  5
54F
330
511
100
AcDbEntity
  8
0
  6
Continuous
 62
     7
370
    15
100
AcDbCircle
 10
2424.183449464692
 20
823.4987880956593
 30
0.0
 40
1.083265405568152
100
AcDbArc
 50
305.2673390208028
 51
327.0502324720693
  0
LINE
  5
550
330
511
100
AcDbEntity
  8
0
  6
Continuous
 62
     7
370
    15
100
AcDbLine
 10
2426.391919803275
 20
822.9095960211219
 30
0.0
 11
2425.092469629301
 21
822.9095960211219
 31
0.0
  0
ARC
  5
551
330
511
100
AcDbEntity
  8
0
  6
Continuous
 62
     7
370
    15
100
AcDbCircle
 10
2424.183449464692
 20
823.4987880956593
 30
0.0
 40
2.285714286348288
100
AcDbArc
 50
345.0621309252211
 51
14.93786907482335
  0
LINE
  5
552
330
511
100
AcDbEntity
  8
0
  6
Continuous
 62
     7
370
    15
100
AcDbLine
 10
2425.092469629301
 20
824.0879798483314
 30
0.0
 11
2426.391919803275
 21
824.0879798483314
 31
0.0
  0
ARC
  5
553
330
511
100
AcDbEntity
  8
0
  6
Continuous
 62
     7
370
    15
100
AcDbCircle
 10
2424.183449464692
 20
823.4987880956593
 30
0.0
 40
1.083265405568129
100
AcDbArc
 50
32.94976752804424
 51
54.73266097919714
  0
LINE
  5
554
330
511
100
AcDbEntity
  8
0
  6
Continuous
 62
     7
370
    15
100
AcDbLine
 10
2424.808919158233
 20
822.6143369626464
 30
0.0
 11
2424.808919158233
 21
820.8403239201965
 31
0.0
  0
LINE
  5
555
330
511
100
AcDbEntity
  8
0
  6
Continuous
 62
     7
370
    15
100
AcDbLine
 10
2424.808919158233
 20
826.157253811902
 30
0.0
 11
2424.808919158233
 21
824.3832389068069
 31
0.0
  0
ARC
  5
556
330
511
100
AcDbEntity
  8
0
  6
Continuous
 62
     7
370
    15
100
AcDbCircle
 10
2424.183449464692
 20
846.4987880956593
 30
0.0
 40
1.083265405568157
100
AcDbArc
 50
125.2673390207665
 51
147.0502324719394
  0
LINE
  5
557
330
511
100
AcDbEntity
  8
0
  6
Continuous
 62
     7
370
    15
100
AcDbLine
 10
2421.974979069484
 20
847.0879798930349
 30
0.0
 11
2423.274429243458
 21
847.0879798930349
 31
0.0
  0
ARC
  5
558
330
511
100
AcDbEntity
  8
0
  6
Continuous
 62
     7
370
    15
100
AcDbCircle
 10
2424.183449464692
 20
846.4987880956593
 30
0.0
 40
2.285714286348723
100
AcDbArc
 50
165.0621309251704
 51
194.9378690747725
  0
LINE
  5
559
330
511
100
AcDbEntity
  8
0
  6
Continuous
 62
     7
370
    15
100
AcDbLine
 10
2423.274429243458
 20
845.9095960658254
 30
0.0
 11
2421.974979069484
 21
845.9095960658254
 31
0.0
  0
ARC
  5
55A
330
511
100
AcDbEntity
  8
0
  6
Continuous
 62
     7
370
    15
100
AcDbCircle
 10
2424.183449464692
 20
846.4987880956593
 30
0.0
 40
1.083265405568141
100
AcDbArc
 50
212.9497675279306
 51
234.7326609792335
  0
LINE
  5
55B
330
511
100
AcDbEntity
  8
0
  6
Continuous
 62
     7
370
    15
100
AcDbLine
 10
2423.557979714526
 20
843.8403230335774
 30
0.0
 11
2423.557979714526
 21
845.6143379386725
 31
0.0
  0
ARC
  5
55C
330
511
100
AcDbEntity
  8
0
  6
Continuous
 62
     7
370
    15
100
AcDbCircle
 10
2424.183449464692
 20
846.4987880956593
 30
0.0
 40
2.731052608420288
100
AcDbArc
 50
103.2394559279644
 51
256.7605440720356
  0
LINE
  5
55D
330
511
100
AcDbEntity
  8
0
  6
Continuous
 62
     7
370
    15
100
AcDbLine
 10
2423.557979714526
 20
847.3832380201878
 30
0.0
 11
2423.557979714526
 21
849.1572533909442
 31
0.0
  0
ARC
  5
55E
330
511
100
AcDbEntity
  8
0
  6
Continuous
 62
     7
370
    15
100
AcDbCircle
 10
2424.183449464692
 20
846.4987880956593
 30
0.0
 40
1.08326540556814
100
AcDbArc
 50
305.2673390208028
 51
327.0502324720693
  0
LINE
  5
55F
330
511
100
AcDbEntity
  8
0
  6
Continuous
 62
     7
370
    15
100
AcDbLine
 10
2426.391919803275
 20
845.9095960658254
 30
0.0
 11
2425.092469629301
 21
845.9095960658254
 31
0.0
  0
ARC
  5
560
330
511
100
AcDbEntity
  8
0
  6
Continuous
 62
     7
370
    15
100
AcDbCircle
 10
2424.183449464692
 20
846.4987880956593
 30
0.0
 40
2.285714286348284
100
AcDbArc
 50
345.0621309252211
 51
14.93786907482335
  0
LINE
  5
561
330
511
100
AcDbEntity
  8
0
  6
Continuous
 62
     7
370
    15
100
AcDbLine
 10
2425.092469629301
 20
847.0879798930349
 30
0.0
 11
2426.391919803275
 21
847.0879798930349
 31
0.0
  0
ARC
  5
562
330
511
100
AcDbEntity
  8
0
  6
Continuous
 62
     7
370
    15
100
AcDbCircle
 10
2424.183449464692
 20
846.4987880956593
 30
0.0
 40
1.083265405568156
100
AcDbArc
 50
32.94976752804424
 51
54.73266097919714
  0
ARC
  5
563
330
511
100
AcDbEntity
  8
0
  6
Continuous
 62
     7
370
    15
100
AcDbCircle
 10
2424.183449464692
 20
846.4987880956593
 30
0.0
 40
2.731052608420285
100
AcDbArc
 50
283.2394559279912
 51
76.76054407200874
  0
LINE
  5
564
330
511
100
AcDbEntity
  8
0
  6
Continuous
 62
     7
370
    15
100
AcDbLine
 10
2424.808919158233
 20
845.6143379386725
 30
0.0
 11
2424.808919158233
 21
843.8403230335774
 31
0.0
  0
LINE
  5
565
330
511
100
AcDbEntity
  8
0
  6
Continuous
 62
     7
370
    15
100
AcDbLine
 10
2424.808919158233
 20
849.1572533909442
 30
0.0
 11
2424.808919158233
 21
847.3832380201878
 31
0.0
  0
CIRCLE
  5
566
330
511
100
AcDbEntity
  8
0
  6
Continuous
 62
     7
370
    15
100
AcDbCircle
 10
2412.483449464692
 20
846.4987880956593
 30
0.0
 40
3.000085598026302
  0
LINE
  5
567
330
511
100
AcDbEntity
  8
0
  6
Continuous
 62
     7
370
    15
100
AcDbLine
 10
2413.108918544305
 20
843.8403230335774
 30
0.0
 11
2413.108918544305
 21
843.7482636597218
 31
0.0
  0
ARC
  5
568
330
511
100
AcDbEntity
  8
0
  6
Continuous
 62
     7
370
    15
100
AcDbCircle
 10
2412.483449464692
 20
846.4987880956593
 30
0.0
 40
2.731052608420285
100
AcDbArc
 50
283.2394559279912
 51
76.76054407200874
  0
LINE
  5
569
330
511
100
AcDbEntity
  8
0
  6
Continuous
 62
     7
370
    15
100
AcDbLine
 10
2413.108918544305
 20
849.2493127647998
 30
0.0
 11
2413.108918544305
 21
849.1572533909442
 31
0.0
  0
ARC
  5
56A
330
511
100
AcDbEntity
  8
0
  6
Continuous
 62
     7
370
    15
100
AcDbCircle
 10
2412.483449464692
 20
846.4987880956593
 30
0.0
 40
2.82074430318256
100
AcDbArc
 50
77.18880492599264
 51
102.8111950739819
  0
ARC
  5
56B
330
511
100
AcDbEntity
  8
0
  6
Continuous
 62
     7
370
    15
100
AcDbCircle
 10
2412.483449464692
 20
846.4987880956593
 30
0.0
 40
2.731052608420281
100
AcDbArc
 50
103.2394559279644
 51
256.7605440720356
  0
LINE
  5
56C
330
511
100
AcDbEntity
  8
0
  6
Continuous
 62
     7
370
    15
100
AcDbLine
 10
2411.85798003192
 20
843.7482636597218
 30
0.0
 11
2411.85798003192
 21
843.8403230335774
 31
0.0
  0
ARC
  5
56D
330
511
100
AcDbEntity
  8
0
  6
Continuous
 62
     7
370
    15
100
AcDbCircle
 10
2412.483449464692
 20
846.4987880956593
 30
0.0
 40
2.820744303182575
100
AcDbArc
 50
257.1888049260181
 51
282.8111950740074
  0
LINE
  5
56E
330
511
100
AcDbEntity
  8
0
  6
Continuous
 62
     7
370
    15
100
AcDbLine
 10
2411.85798003192
 20
849.1572533909442
 30
0.0
 11
2411.85798003192
 21
849.2493127647998
 31
0.0
  0
ARC
  5
56F
330
511
100
AcDbEntity
  8
0
  6
Continuous
 62
     7
370
    15
100
AcDbCircle
 10
2412.483449464692
 20
846.4987880956593
 30
0.0
 40
1.083265405568141
100
AcDbArc
 50
125.2673390207665
 51
147.0502324719394
  0
LINE
  5
570
330
511
100
AcDbEntity
  8
0
  6
Continuous
 62
     7
370
    15
100
AcDbLine
 10
2410.274978921218
 20
847.0879798930349
 30
0.0
 11
2411.574429560853
 21
847.0879798930349
 31
0.0
  0
ARC
  5
571
330
511
100
AcDbEntity
  8
0
  6
Continuous
 62
     7
370
    15
100
AcDbCircle
 10
2412.483449464692
 20
846.4987880956593
 30
0.0
 40
2.285714286348696
100
AcDbArc
 50
165.0621309251704
 51
194.9378690747788
  0
LINE
  5
572
330
511
100
AcDbEntity
  8
0
  6
Continuous
 62
     7
370
    15
100
AcDbLine
 10
2411.574429560853
 20
845.9095960658254
 30
0.0
 11
2410.274978921218
 21
845.9095960658254
 31
0.0
  0
ARC
  5
573
330
511
100
AcDbEntity
  8
0
  6
Continuous
 62
     7
370
    15
100
AcDbCircle
 10
2412.483449464692
 20
846.4987880956593
 30
0.0
 40
1.083265405568141
100
AcDbArc
 50
212.9497675279306
 51
234.7326609792335
  0
LINE
  5
574
330
511
100
AcDbEntity
  8
0
  6
Continuous
 62
     7
370
    15
100
AcDbLine
 10
2411.85798003192
 20
843.8403230335774
 30
0.0
 11
2411.85798003192
 21
845.6143379386725
 31
0.0
  0
LINE
  5
575
330
511
100
AcDbEntity
  8
0
  6
Continuous
 62
     7
370
    15
100
AcDbLine
 10
2411.85798003192
 20
847.3832380201878
 30
0.0
 11
2411.85798003192
 21
849.1572533909442
 31
0.0
  0
CIRCLE
  5
576
330
511
100
AcDbEntity
  8
0
  6
Continuous
 62
     7
370
    15
100
AcDbCircle
 10
2424.183449464692
 20
846.4987880956593
 30
0.0
 40
3.000085598026302
  0
LINE
  5
577
330
511
100
AcDbEntity
  8
0
  6
Continuous
 62
     7
370
    15
100
AcDbLine
 10
2424.808919158233
 20
843.8403230335774
 30
0.0
 11
2424.808919158233
 21
843.7482636597218
 31
0.0
  0
ARC
  5
578
330
511
100
AcDbEntity
  8
0
  6
Continuous
 62
     7
370
    15
100
AcDbCircle
 10
2424.183449464692
 20
846.4987880956593
 30
0.0
 40
2.82074430318256
100
AcDbArc
 50
77.18880492599264
 51
102.8111950739819
  0
LINE
  5
579
330
511
100
AcDbEntity
  8
0
  6
Continuous
 62
     7
370
    15
100
AcDbLine
 10
2423.557979714526
 20
849.1572533909442
 30
0.0
 11
2423.557979714526
 21
849.2493127647998
 31
0.0
  0
LINE
  5
57A
330
511
100
AcDbEntity
  8
0
  6
Continuous
 62
     7
370
    15
100
AcDbLine
 10
2423.557979714526
 20
843.7482636597218
 30
0.0
 11
2423.557979714526
 21
843.8403230335774
 31
0.0
  0
ARC
  5
57B
330
511
100
AcDbEntity
  8
0
  6
Continuous
 62
     7
370
    15
100
AcDbCircle
 10
2424.183449464692
 20
846.4987880956593
 30
0.0
 40
2.820744303182581
100
AcDbArc
 50
257.1888049260181
 51
282.8111950740074
  0
LINE
  5
57C
330
511
100
AcDbEntity
  8
0
  6
Continuous
 62
     7
370
    15
100
AcDbLine
 10
2424.808919158233
 20
849.2493127647998
 30
0.0
 11
2424.808919158233
 21
849.1572533909442
 31
0.0
  0
ARC
  5
57D
330
511
100
AcDbEntity
  8
0
  6
Continuous
 62
     7
370
    15
100
AcDbCircle
 10
2412.483449464692
 20
846.4987880956593
 30
0.0
 40
1.08326540556815
100
AcDbArc
 50
305.2673390208028
 51
327.0502324720748
  0
LINE
  5
57E
330
511
100
AcDbEntity
  8
0
  6
Continuous
 62
     7
370
    15
100
AcDbLine
 10
2414.691920120669
 20
845.9095960658254
 30
0.0
 11
2413.392469015373
 21
845.9095960658254
 31
0.0
  0
ARC
  5
57F
330
511
100
AcDbEntity
  8
0
  6
Continuous
 62
     7
370
    15
100
AcDbCircle
 10
2412.483449464692
 20
846.4987880956593
 30
0.0
 40
2.285714286348288
100
AcDbArc
 50
345.0621309252211
 51
14.93786907482335
  0
LINE
  5
580
330
511
100
AcDbEntity
  8
0
  6
Continuous
 62
     7
370
    15
100
AcDbLine
 10
2413.392469015373
 20
847.0879798930349
 30
0.0
 11
2414.691920120669
 21
847.0879798930349
 31
0.0
  0
ARC
  5
581
330
511
100
AcDbEntity
  8
0
  6
Continuous
 62
     7
370
    15
100
AcDbCircle
 10
2412.483449464692
 20
846.4987880956593
 30
0.0
 40
1.083265405568156
100
AcDbArc
 50
32.94976752804424
 51
54.73266097919714
  0
LINE
  5
582
330
511
100
AcDbEntity
  8
0
  6
Continuous
 62
     7
370
    15
100
AcDbLine
 10
2413.108918544305
 20
845.6143379386725
 30
0.0
 11
2413.108918544305
 21
843.8403230335774
 31
0.0
  0
LINE
  5
583
330
511
100
AcDbEntity
  8
0
  6
Continuous
 62
     7
370
    15
100
AcDbLine
 10
2413.108918544305
 20
849.1572533909442
 30
0.0
 11
2413.108918544305
 21
847.3832380201878
 31
0.0
  0
CIRCLE
  5
584
330
511
100
AcDbEntity
  8
0
  6
Continuous
 62
     7
370
    15
100
AcDbCircle
 10
2412.483449464692
 20
800.4987880956592
 30
0.0
 40
3.000085598026927
  0
LINE
  5
585
330
511
100
AcDbEntity
  8
0
  6
Continuous
 62
     7
370
    15
100
AcDbLine
 10
2413.108918544305
 20
797.8403220128479
 30
0.0
 11
2413.108918544305
 21
797.7482626389923
 31
0.0
  0
ARC
  5
586
330
511
100
AcDbEntity
  8
0
  6
Continuous
 62
     7
370
    15
100
AcDbCircle
 10
2412.483449464692
 20
800.4987880956592
 30
0.0
 40
2.731052608420908
100
AcDbArc
 50
283.2394559279897
 51
76.76054407201021
  0
LINE
  5
587
330
511
100
AcDbEntity
  8
0
  6
Continuous
 62
     7
370
    15
100
AcDbLine
 10
2413.108918544305
 20
803.2493131410541
 30
0.0
 11
2413.108918544305
 21
803.1572537671985
 31
0.0
  0
ARC
  5
588
330
511
100
AcDbEntity
  8
0
  6
Continuous
 62
     7
370
    15
100
AcDbCircle
 10
2412.483449464692
 20
800.4987880956592
 30
0.0
 40
2.820744303183198
100
AcDbArc
 50
77.18880492599264
 51
102.8111950739819
  0
ARC
  5
589
330
511
100
AcDbEntity
  8
0
  6
Continuous
 62
     7
370
    15
100
AcDbCircle
 10
2412.483449464692
 20
800.4987880956592
 30
0.0
 40
2.731052608420918
100
AcDbArc
 50
103.2394559279644
 51
256.7605440720356
  0
LINE
  5
58A
330
511
100
AcDbEntity
  8
0
  6
Continuous
 62
     7
370
    15
100
AcDbLine
 10
2411.85798003192
 20
797.7482626389923
 30
0.0
 11
2411.85798003192
 21
797.8403220128479
 31
0.0
  0
ARC
  5
58B
330
511
100
AcDbEntity
  8
0
  6
Continuous
 62
     7
370
    15
100
AcDbCircle
 10
2412.483449464692
 20
800.4987880956592
 30
0.0
 40
2.820744303183199
100
AcDbArc
 50
257.1888049260181
 51
282.8111950740074
  0
LINE
  5
58C
330
511
100
AcDbEntity
  8
0
  6
Continuous
 62
     7
370
    15
100
AcDbLine
 10
2411.85798003192
 20
803.1572537671985
 30
0.0
 11
2411.85798003192
 21
803.2493131410541
 31
0.0
  0
ARC
  5
58D
330
511
100
AcDbEntity
  8
0
  6
Continuous
 62
     7
370
    15
100
AcDbCircle
 10
2424.183449464692
 20
800.4987880956592
 30
0.0
 40
1.083265405568129
100
AcDbArc
 50
125.2673390207665
 51
147.0502324719394
  0
LINE
  5
58E
330
511
100
AcDbEntity
  8
0
  6
Continuous
 62
     7
370
    15
100
AcDbLine
 10
2421.974979069484
 20
801.0879816662731
 30
0.0
 11
2423.274429243458
 21
801.0879816662731
 31
0.0
  0
ARC
  5
58F
330
511
100
AcDbEntity
  8
0
  6
Continuous
 62
     7
370
    15
100
AcDbCircle
 10
2424.183449464692
 20
800.4987880956592
 30
0.0
 40
2.285714286348707
100
AcDbArc
 50
165.0621309251704
 51
194.9378690747788
  0
LINE
  5
590
330
511
100
AcDbEntity
  8
0
  6
Continuous
 62
     7
370
    15
100
AcDbLine
 10
2423.274429243458
 20
799.9095978390636
 30
0.0
 11
2421.974979069484
 21
799.9095978390636
 31
0.0
  0
ARC
  5
591
330
511
100
AcDbEntity
  8
0
  6
Continuous
 62
     7
370
    15
100
AcDbCircle
 10
2424.183449464692
 20
800.4987880956592
 30
0.0
 40
1.083265405568129
100
AcDbArc
 50
212.9497675279306
 51
234.7326609792335
  0
LINE
  5
592
330
511
100
AcDbEntity
  8
0
  6
Continuous
 62
     7
370
    15
100
AcDbLine
 10
2423.557979714526
 20
797.8403220128479
 30
0.0
 11
2423.557979714526
 21
799.6143387805881
 31
0.0
  0
ARC
  5
593
330
511
100
AcDbEntity
  8
0
  6
Continuous
 62
     7
370
    15
100
AcDbCircle
 10
2424.183449464692
 20
800.4987880956592
 30
0.0
 40
2.731052608420918
100
AcDbArc
 50
103.2394559279644
 51
256.7605440720356
  0
LINE
  5
594
330
511
100
AcDbEntity
  8
0
  6
Continuous
 62
     7
370
    15
100
AcDbLine
 10
2423.557979714526
 20
801.3832369994583
 30
0.0
 11
2423.557979714526
 21
803.1572537671985
 31
0.0
  0
ARC
  5
595
330
511
100
AcDbEntity
  8
0
  6
Continuous
 62
     7
370
    15
100
AcDbCircle
 10
2412.483449464692
 20
800.4987880956592
 30
0.0
 40
1.083265405568129
100
AcDbArc
 50
125.2673390207665
 51
147.0502324719394
  0
LINE
  5
596
330
511
100
AcDbEntity
  8
0
  6
Continuous
 62
     7
370
    15
100
AcDbLine
 10
2410.274978921218
 20
801.0879816662731
 30
0.0
 11
2411.574429560853
 21
801.0879816662731
 31
0.0
  0
ARC
  5
597
330
511
100
AcDbEntity
  8
0
  6
Continuous
 62
     7
370
    15
100
AcDbCircle
 10
2412.483449464692
 20
800.4987880956592
 30
0.0
 40
2.285714286348696
100
AcDbArc
 50
165.0621309251704
 51
194.9378690747788
  0
LINE
  5
598
330
511
100
AcDbEntity
  8
0
  6
Continuous
 62
     7
370
    15
100
AcDbLine
 10
2411.574429560853
 20
799.9095978390636
 30
0.0
 11
2410.274978921218
 21
799.9095978390636
 31
0.0
  0
ARC
  5
599
330
511
100
AcDbEntity
  8
0
  6
Continuous
 62
     7
370
    15
100
AcDbCircle
 10
2412.483449464692
 20
800.4987880956592
 30
0.0
 40
1.083265405568129
100
AcDbArc
 50
212.9497675279306
 51
234.7326609792335
  0
LINE
  5
59A
330
511
100
AcDbEntity
  8
0
  6
Continuous
 62
     7
370
    15
100
AcDbLine
 10
2411.85798003192
 20
797.8403220128479
 30
0.0
 11
2411.85798003192
 21
799.6143387805881
 31
0.0
  0
LINE
  5
59B
330
511
100
AcDbEntity
  8
0
  6
Continuous
 62
     7
370
    15
100
AcDbLine
 10
2411.85798003192
 20
801.3832369994583
 30
0.0
 11
2411.85798003192
 21
803.1572537671985
 31
0.0
  0
ARC
  5
59C
330
511
100
AcDbEntity
  8
0
  6
Continuous
 62
     7
370
    15
100
AcDbCircle
 10
2424.183449464692
 20
800.4987880956592
 30
0.0
 40
1.08326540556815
100
AcDbArc
 50
305.2673390208028
 51
327.0502324720748
  0
LINE
  5
59D
330
511
100
AcDbEntity
  8
0
  6
Continuous
 62
     7
370
    15
100
AcDbLine
 10
2426.391919803275
 20
799.9095978390636
 30
0.0
 11
2425.092469629301
 21
799.9095978390636
 31
0.0
  0
ARC
  5
59E
330
511
100
AcDbEntity
  8
0
  6
Continuous
 62
     7
370
    15
100
AcDbCircle
 10
2424.183449464692
 20
800.4987880956592
 30
0.0
 40
2.285714286348284
100
AcDbArc
 50
345.0621309252211
 51
14.93786907482335
  0
LINE
  5
59F
330
511
100
AcDbEntity
  8
0
  6
Continuous
 62
     7
370
    15
100
AcDbLine
 10
2425.092469629301
 20
801.0879816662731
 30
0.0
 11
2426.391919803275
 21
801.0879816662731
 31
0.0
  0
ARC
  5
5A0
330
511
100
AcDbEntity
  8
0
  6
Continuous
 62
     7
370
    15
100
AcDbCircle
 10
2424.183449464692
 20
800.4987880956592
 30
0.0
 40
1.083265405568148
100
AcDbArc
 50
32.94976752804424
 51
54.73266097919714
  0
ARC
  5
5A1
330
511
100
AcDbEntity
  8
0
  6
Continuous
 62
     7
370
    15
100
AcDbCircle
 10
2424.183449464692
 20
800.4987880956592
 30
0.0
 40
2.731052608420908
100
AcDbArc
 50
283.2394559279897
 51
76.76054407201021
  0
LINE
  5
5A2
330
511
100
AcDbEntity
  8
0
  6
Continuous
 62
     7
370
    15
100
AcDbLine
 10
2424.808919158233
 20
799.6143387805881
 30
0.0
 11
2424.808919158233
 21
797.8403220128479
 31
0.0
  0
LINE
  5
5A3
330
511
100
AcDbEntity
  8
0
  6
Continuous
 62
     7
370
    15
100
AcDbLine
 10
2424.808919158233
 20
803.1572537671985
 30
0.0
 11
2424.808919158233
 21
801.3832369994583
 31
0.0
  0
CIRCLE
  5
5A4
330
511
100
AcDbEntity
  8
0
  6
Continuous
 62
     7
370
    15
100
AcDbCircle
 10
2424.183449464692
 20
800.4987880956592
 30
0.0
 40
3.000085598026927
  0
LINE
  5
5A5
330
511
100
AcDbEntity
  8
0
  6
Continuous
 62
     7
370
    15
100
AcDbLine
 10
2424.808919158233
 20
797.8403220128479
 30
0.0
 11
2424.808919158233
 21
797.7482626389923
 31
0.0
  0
ARC
  5
5A6
330
511
100
AcDbEntity
  8
0
  6
Continuous
 62
     7
370
    15
100
AcDbCircle
 10
2424.183449464692
 20
800.4987880956592
 30
0.0
 40
2.820744303183198
100
AcDbArc
 50
77.18880492599264
 51
102.8111950739819
  0
LINE
  5
5A7
330
511
100
AcDbEntity
  8
0
  6
Continuous
 62
     7
370
    15
100
AcDbLine
 10
2423.557979714526
 20
803.1572537671985
 30
0.0
 11
2423.557979714526
 21
803.2493131410541
 31
0.0
  0
LINE
  5
5A8
330
511
100
AcDbEntity
  8
0
  6
Continuous
 62
     7
370
    15
100
AcDbLine
 10
2423.557979714526
 20
797.7482626389923
 30
0.0
 11
2423.557979714526
 21
797.8403220128479
 31
0.0
  0
ARC
  5
5A9
330
511
100
AcDbEntity
  8
0
  6
Continuous
 62
     7
370
    15
100
AcDbCircle
 10
2424.183449464692
 20
800.4987880956592
 30
0.0
 40
2.820744303183199
100
AcDbArc
 50
257.1888049260181
 51
282.8111950740074
  0
LINE
  5
5AA
330
511
100
AcDbEntity
  8
0
  6
Continuous
 62
     7
370
    15
100
AcDbLine
 10
2424.808919158233
 20
803.2493131410541
 30
0.0
 11
2424.808919158233
 21
803.1572537671985
 31
0.0
  0
ARC
  5
5AB
330
511
100
AcDbEntity
  8
0
  6
Continuous
 62
     7
370
    15
100
AcDbCircle
 10
2412.483449464692
 20
800.4987880956592
 30
0.0
 40
1.08326540556815
100
AcDbArc
 50
305.2673390208028
 51
327.0502324720748
  0
LINE
  5
5AC
330
511
100
AcDbEntity
  8
0
  6
Continuous
 62
     7
370
    15
100
AcDbLine
 10
2414.691920120669
 20
799.9095978390636
 30
0.0
 11
2413.392469015373
 21
799.9095978390636
 31
0.0
  0
ARC
  5
5AD
330
511
100
AcDbEntity
  8
0
  6
Continuous
 62
     7
370
    15
100
AcDbCircle
 10
2412.483449464692
 20
800.4987880956592
 30
0.0
 40
2.285714286348284
100
AcDbArc
 50
345.0621309252211
 51
14.93786907482335
  0
LINE
  5
5AE
330
511
100
AcDbEntity
  8
0
  6
Continuous
 62
     7
370
    15
100
AcDbLine
 10
2413.392469015373
 20
801.0879816662731
 30
0.0
 11
2414.691920120669
 21
801.0879816662731
 31
0.0
  0
ARC
  5
5AF
330
511
100
AcDbEntity
  8
0
  6
Continuous
 62
     7
370
    15
100
AcDbCircle
 10
2412.483449464692
 20
800.4987880956592
 30
0.0
 40
1.083265405568148
100
AcDbArc
 50
32.94976752804424
 51
54.73266097919714
  0
LINE
  5
5B0
330
511
100
AcDbEntity
  8
0
  6
Continuous
 62
     7
370
    15
100
AcDbLine
 10
2413.108918544305
 20
799.6143387805881
 30
0.0
 11
2413.108918544305
 21
797.8403220128479
 31
0.0
  0
LINE
  5
5B1
330
511
100
AcDbEntity
  8
0
  6
Continuous
 62
     7
370
    15
100
AcDbLine
 10
2413.108918544305
 20
803.1572537671985
 30
0.0
 11
2413.108918544305
 21
801.3832369994583
 31
0.0
  0
CIRCLE
  5
5B2
330
511
100
AcDbEntity
  8
0
  6
Continuous
 62
     7
370
    15
100
AcDbCircle
 10
2418.333449464692
 20
835.2987880956591
 30
0.0
 40
2.599999999999994
  0
CIRCLE
  5
5B3
330
511
100
AcDbEntity
  8
0
  6
Continuous
 62
     7
370
    15
100
AcDbCircle
 10
2418.333449464692
 20
812.2987880956593
 30
0.0
 40
2.600000000000008
  0
LINE
  5
5B4
330
511
100
AcDbEntity
  8
0
  6
Continuous
 62
     7
370
    15
100
AcDbLine
 10
2427.933448654068
 20
848.4987883072557
 30
0.0
 11
2427.933448654068
 21
844.4987876516046
 31
0.0
  0
LINE
  5
5B5
330
511
100
AcDbEntity
  8
0
  6
Continuous
 62
     7
370
    15
100
AcDbLine
 10
2408.733449604762
 20
848.4987883072557
 30
0.0
 11
2408.733449604762
 21
844.4987876516046
 31
0.0
  0
LINE
  5
5B6
330
511
100
AcDbEntity
  8
0
  6
Continuous
 62
     7
370
    15
100
AcDbLine
 10
2427.933448654068
 20
825.4987882625522
 30
0.0
 11
2427.933448654068
 21
821.4987876069011
 31
0.0
  0
LINE
  5
5B7
330
511
100
AcDbEntity
  8
0
  6
Continuous
 62
     7
370
    15
100
AcDbLine
 10
2408.733449604762
 20
825.4987882625522
 30
0.0
 11
2408.733449604762
 21
821.4987876069011
 31
0.0
  0
LINE
  5
5B8
330
511
100
AcDbEntity
  8
0
  6
Continuous
 62
     7
370
    15
100
AcDbLine
 10
2408.733449604762
 20
802.4987863552036
 30
0.0
 11
2408.733449604762
 21
798.4987894248428
 31
0.0
  0
LINE
  5
5B9
330
511
100
AcDbEntity
  8
0
  6
Continuous
 62
     7
370
    15
100
AcDbLine
 10
2427.933448654068
 20
802.4987863552036
 30
0.0
 11
2427.933448654068
 21
798.4987894248428
 31
0.0
  0
INSERT
  5
5BA
330
511
100
AcDbEntity
  8
0
  6
Continuous
 62
     7
370
     0
100
AcDbBlockReference
  2
SW_CENTERMARKSYMBOL_3
 10
2412.483449464692
 20
800.4987880956591
 30
0.0
  0
INSERT
  5
5BB
330
511
100
AcDbEntity
  8
0
  6
Continuous
 62
     7
370
     0
100
AcDbBlockReference
  2
SW_CENTERMARKSYMBOL_4
 10
2412.483449464692
 20
823.4987880956591
 30
0.0
  0
INSERT
  5
5BC
330
511
100
AcDbEntity
  8
0
  6
Continuous
 62
     7
370
     0
100
AcDbBlockReference
  2
SW_CENTERMARKSYMBOL_5
 10
2412.483449464692
 20
846.4987880956591
 30
0.0
  0
INSERT
  5
5BD
330
511
100
AcDbEntity
  8
0
  6
Continuous
 62
     7
370
     0
100
AcDbBlockReference
  2
SW_CENTERMARKSYMBOL_6
 10
2424.183449464692
 20
800.4987880956591
 30
0.0
  0
INSERT
  5
5BE
330
511
100
AcDbEntity
  8
0
  6
Continuous
 62
     7
370
     0
100
AcDbBlockReference
  2
SW_CENTERMARKSYMBOL_7
 10
2424.183449464692
 20
823.4987880956591
 30
0.0
  0
INSERT
  5
5BF
330
511
100
AcDbEntity
  8
0
  6
Continuous
 62
     7
370
     0
100
AcDbBlockReference
  2
SW_CENTERMARKSYMBOL_8
 10
2424.183449464692
 20
846.4987880956591
 30
0.0
  0
INSERT
  5
5C0
330
511
100
AcDbEntity
  8
0
  6
Continuous
 62
     7
370
     0
100
AcDbBlockReference
  2
SW_CENTERMARKSYMBOL_9
 10
2418.333449464692
 20
835.2987880956591
 30
0.0
  0
INSERT
  5
5C1
330
511
100
AcDbEntity
  8
0
  6
Continuous
 62
     7
370
     0
100
AcDbBlockReference
  2
SW_CENTERMARKSYMBOL_10
 10
2418.333449464692
 20
812.2987880956591
 30
0.0
  0
ENDBLK
  5
513
330
511
100
AcDbEntity
  8
0
100
AcDbBlockEnd
  0
BLOCK
  5
5C4
330
5C3
100
AcDbEntity
  8
0
100
AcDbBlockBegin
  2
4
 70
     0
 10
0.0
 20
0.0
 30
0.0
  3
4
  1

  0
LINE
  5
5C6
330
5C3
100
AcDbEntity
  8
0
  6
Continuous
 62
     7
370
    15
100
AcDbLine
 10
2488.434510008866
 20
897.6410122775989
 30
0.0
 11
2468.281966981467
 21
909.2748277345917
 31
0.0
  0
LINE
  5
5C7
330
5C3
100
AcDbEntity
  8
0
  6
Continuous
 62
     7
370
    15
100
AcDbLine
 10
2488.434510008866
 20
897.6410122775989
 30
0.0
 11
2488.434511325955
 21
896.4163019048122
 31
0.0
  0
LINE
  5
5C8
330
5C3
100
AcDbEntity
  8
0
  6
Continuous
 62
     7
370
    15
100
AcDbLine
 10
2467.22130836451
 20
908.6624233084306
 30
0.0
 11
2488.434511325955
 21
896.4163019048122
 31
0.0
  0
LINE
  5
5C9
330
5C3
100
AcDbEntity
  8
0
  6
Continuous
 62
     7
370
    15
100
AcDbLine
 10
2467.22130836451
 20
908.6624233084306
 30
0.0
 11
2468.281966981467
 21
909.2748277345917
 31
0.0
  0
LINE
  5
5CA
330
5C3
100
AcDbEntity
  8
0
  6
Continuous
 62
     7
370
    15
100
AcDbLine
 10
2533.76005646534
 20
923.8068932904839
 30
0.0
 11
2534.820716399385
 21
923.1944881039837
 31
0.0
  0
LINE
  5
5CB
330
5C3
100
AcDbEntity
  8
0
  6
Continuous
 62
     7
370
    15
100
AcDbLine
 10
2488.434511325955
 20
896.4163019048122
 30
0.0
 11
2534.820716399385
 21
923.1944881039837
 31
0.0
  0
LINE
  5
5CC
330
5C3
100
AcDbEntity
  8
0
  6
Continuous
 62
     7
370
    15
100
AcDbLine
 10
2533.76005646534
 20
923.8068932904839
 30
0.0
 11
2488.434510008866
 21
897.6410122775989
 31
0.0
  0
LINE
  5
5CD
330
5C3
100
AcDbEntity
  8
0
  6
Continuous
 62
     7
370
    15
100
AcDbLine
 10
2499.642153866767
 20
887.9844666271687
 30
0.0
 11
2499.642153866767
 21
894.7209282887239
 31
0.0
  0
LINE
  5
5CE
330
5C3
100
AcDbEntity
  8
0
  6
Continuous
 62
     7
370
    15
100
AcDbLine
 10
2499.642153866767
 20
894.7209282887239
 30
0.0
 11
2491.510425208772
 21
890.0265812564496
 31
0.0
  0
LINE
  5
5CF
330
5C3
100
AcDbEntity
  8
0
  6
Continuous
 62
     7
370
    15
100
AcDbLine
 10
2491.510425208772
 20
890.0265812564496
 30
0.0
 11
2491.510425208772
 21
883.2901195948943
 31
0.0
  0
LWPOLYLINE
  5
5D0
330
5C3
100
AcDbEntity
  8
0
  6
Continuous
 62
     7
370
    15
100
AcDbPolyline
 90
       33
 70
   128
 43
0.0
 10
2491.510425208772
 20
883.2901195948943
 10
2491.530005054084
 20
882.841221836219
 10
2491.588549660843
 20
882.4192491727991
 10
2491.685500583308
 20
882.0282701335033
 10
2491.819922688278
 20
881.6720483369268
 10
2491.990517325982
 20
881.3540113111766
 10
2492.195648671863
 20
881.0772276775129
 10
2492.433335824039
 20
880.8443584814666
 10
2492.701289681804
 20
880.6576473033597
 10
2492.99693401904
 20
880.5188940203603
 10
2493.317416020938
 20
880.4294323718359
 10
2493.659656333381
 20
880.3901272930396
 10
2494.020351697115
 20
880.4013536219004
 10
2494.396032899673
 20
880.4630055993717
 10
2494.783080580438
 20
880.5744888830888
 10
2495.177764743319
 20
880.7347281482892
 10
2495.57628953777
 20
880.942183433563
 10
2495.974814332221
 20
881.1948550818849
 10
2496.369501129279
 20
881.4903099721343
 10
2496.756548810044
 20
881.8257024286117
 10
2497.132230012602
 20
882.1978027349366
 10
2497.492925376337
 20
882.6030264086559
 10
2497.835163054601
 20
883.0374722206805
 10
2498.155647690678
 20
883.4969560331648
 10
2498.451289393736
 20
883.9770514815537
 10
2498.719245885678
 20
884.4731371193251
 10
2498.956933037855
 20
884.9804340599165
 10
2499.162061749558
 20
885.4940557835824
 10
2499.332659021439
 20
886.0090587061996
 10
2499.467078492231
 20
886.5204794409606
 10
2499.564029414696
 20
887.0233956326854
 10
2499.622576655634
 20
887.5129639809664
 10
2499.642153866767
 20
887.9844666271687
  0
LINE
  5
5D1
330
5C3
100
AcDbEntity
  8
0
  6
Continuous
 62
     7
370
    15
100
AcDbLine
 10
2515.905609865668
 20
897.3731599313779
 30
0.0
 11
2515.905609865668
 21
904.1096215929332
 31
0.0
  0
LINE
  5
5D2
330
5C3
100
AcDbEntity
  8
0
  6
Continuous
 62
     7
370
    15
100
AcDbLine
 10
2515.905609865668
 20
904.1096215929332
 30
0.0
 11
2507.773882524762
 21
899.4152753209982
 31
0.0
  0
LINE
  5
5D3
330
5C3
100
AcDbEntity
  8
0
  6
Continuous
 62
     7
370
    15
100
AcDbLine
 10
2507.773882524762
 20
899.4152753209982
 30
0.0
 11
2507.773882524762
 21
892.678813659443
 31
0.0
  0
LWPOLYLINE
  5
5D4
330
5C3
100
AcDbEntity
  8
0
  6
Continuous
 62
     7
370
    15
100
AcDbPolyline
 90
       33
 70
   128
 43
0.0
 10
2507.773882524762
 20
892.678813659443
 10
2507.793459735895
 20
892.229914380089
 10
2507.852006976833
 20
891.8079432373476
 10
2507.948957899298
 20
891.4169641980519
 10
2508.08337737009
 20
891.0607408807969
 10
2508.253974641972
 20
890.7427053757251
 10
2508.459103353674
 20
890.465920221383
 10
2508.696790505851
 20
890.2330510253364
 10
2508.964746997794
 20
890.0463413679084
 10
2509.260388700851
 20
889.9075865642302
 10
2509.580873336928
 20
889.8181264363845
 10
2509.923111015192
 20
889.7788198369097
 10
2510.283806378927
 20
889.7900461657702
 10
2510.659487581485
 20
889.8516981432416
 10
2511.04653526225
 20
889.9631814269588
 10
2511.441222059309
 20
890.1234222128376
 10
2511.83974685376
 20
890.3308774981114
 10
2512.238271648211
 20
890.5835491464335
 10
2512.632955811091
 20
890.8790025160042
 10
2513.020003491857
 20
891.2143949724816
 10
2513.395684694414
 20
891.5864952788066
 10
2513.756381375237
 20
891.9917197128652
 10
2514.098619053502
 20
892.4261655248898
 10
2514.41910237249
 20
892.8856485770349
 10
2514.714745392637
 20
893.3657447857628
 10
2514.982701884579
 20
893.8618304235344
 10
2515.220387719667
 20
894.3691266037864
 10
2515.425517748458
 20
894.8827490877917
 10
2515.59611502034
 20
895.3977520104089
 10
2515.73053580822
 20
895.9091735055093
 10
2515.827485413597
 20
896.4120889368947
 10
2515.886031337446
 20
896.9016565248365
 10
2515.905609865668
 20
897.3731599313779
  0
LINE
  5
5D5
330
5C3
100
AcDbEntity
  8
0
  6
Continuous
 62
     7
370
    15
100
AcDbLine
 10
2532.169066029205
 20
906.7618533306298
 30
0.0
 11
2532.169066029205
 21
913.4983149921849
 31
0.0
  0
LINE
  5
5D6
330
5C3
100
AcDbEntity
  8
0
  6
Continuous
 62
     7
370
    15
100
AcDbLine
 10
2532.169066029205
 20
913.4983149921849
 30
0.0
 11
2524.037337865119
 21
908.8039682450379
 31
0.0
  0
LINE
  5
5D7
330
5C3
100
AcDbEntity
  8
0
  6
Continuous
 62
     7
370
    15
100
AcDbLine
 10
2524.037337865119
 20
908.8039682450379
 30
0.0
 11
2524.037337865119
 21
902.0675065834826
 31
0.0
  0
LWPOLYLINE
  5
5D8
330
5C3
100
AcDbEntity
  8
0
  6
Continuous
 62
     7
370
    15
100
AcDbPolyline
 90
       33
 70
   128
 43
0.0
 10
2524.037337865119
 20
902.0675065834826
 10
2524.056916393341
 20
901.6186080644679
 10
2524.115462317189
 20
901.1966361613874
 10
2524.21241258111
 20
900.805656741922
 10
2524.346833368991
 20
900.449434185006
 10
2524.517429982328
 20
900.1313982997647
 10
2524.722559352575
 20
899.8546135255921
 10
2524.960246504752
 20
899.6217443295458
 10
2525.228201679605
 20
899.4350339117785
 10
2525.523845358296
 20
899.2962802486092
 10
2525.844328677284
 20
899.2068193604241
 10
2526.186567014093
 20
899.1675131411188
 10
2526.547263036372
 20
899.1787398501491
 10
2526.92294423893
 20
899.2403918276206
 10
2527.309991261151
 20
899.351874731168
 10
2527.704677399665
 20
899.5121151368774
 10
2528.103202194115
 20
899.719570422151
 10
2528.501726330022
 20
899.9722416903034
 10
2528.896412468536
 20
900.2676962003832
 10
2529.283460149301
 20
900.6030886568606
 10
2529.659140693315
 20
900.975188583016
 10
2530.019837044866
 20
901.3804128269898
 10
2530.362075052403
 20
901.8148588290991
 10
2530.682558700663
 20
902.274342071329
 10
2530.978202050082
 20
902.7544384701418
 10
2531.246157224935
 20
903.250523347574
 10
2531.483844377112
 20
903.7578202881654
 10
2531.688973747359
 20
904.271442392001
 10
2531.859570360697
 20
904.7864449344485
 10
2531.993991148577
 20
905.2978664295489
 10
2532.090941577134
 20
905.8007823361464
 10
2532.149487665618
 20
906.2903500191305
 10
2532.169066029205
 20
906.7618533306298
  0
LINE
  5
5D9
330
5C3
100
AcDbEntity
  8
0
  6
Continuous
 62
     7
370
    15
100
AcDbLine
 10
2488.434511325955
 20
873.1448890390744
 30
0.0
 11
2488.434511325955
 21
896.4163019048122
 31
0.0
  0
LINE
  5
5DA
330
5C3
100
AcDbEntity
  8
0
  6
Continuous
 62
     7
370
    15
100
AcDbLine
 10
2534.820716399385
 20
899.9230752382459
 30
0.0
 11
2534.820716399385
 21
923.1944881039837
 31
0.0
  0
LINE
  5
5DB
330
5C3
100
AcDbEntity
  8
0
  6
Continuous
 62
     7
370
    15
100
AcDbLine
 10
2488.434511325955
 20
873.1448890390744
 30
0.0
 11
2534.820716399385
 21
899.9230752382459
 31
0.0
  0
LINE
  5
5DC
330
5C3
100
AcDbEntity
  8
0
  6
Continuous
 62
     7
370
    15
100
AcDbLine
 10
2467.22130836451
 20
908.6624233084306
 30
0.0
 11
2467.22130836451
 21
885.391010442693
 31
0.0
  0
LINE
  5
5DD
330
5C3
100
AcDbEntity
  8
0
  6
Continuous
 62
     7
370
    15
100
AcDbLine
 10
2467.22130836451
 20
885.391010442693
 30
0.0
 11
2488.434511325955
 21
873.1448890390744
 31
0.0
  0
LWPOLYLINE
  5
5DE
330
5C3
100
AcDbEntity
  8
0
  6
Continuous
 62
     7
370
    15
100
AcDbPolyline
 90
       56
 70
   128
 43
0.0
 10
2490.166923948225
 20
910.2749291565931
 10
2489.85154369063
 20
910.4790775987014
 10
2489.578532869589
 20
910.7026504290251
 10
2489.351447625446
 20
910.942730985992
 10
2489.173248115764
 20
911.1961900931936
 10
2489.046255709933
 20
911.4597229358425
 10
2488.972133891382
 20
911.7298965819781
 10
2488.951841500913
 20
912.0031860985839
 10
2488.985643273419
 20
912.2760292960181
 10
2489.073100618256
 20
912.5448685466739
 10
2489.213076229062
 20
912.8062028682235
 10
2489.403740010646
 20
913.0566209983761
 10
2489.642609250216
 20
913.2928603211761
 10
2489.926569690791
 20
913.5118403219301
 10
2490.251918995148
 20
913.7107074472282
 10
2490.614415478111
 20
913.8868677995326
 10
2491.009332765748
 20
914.038025534313
 10
2491.431524332727
 20
914.1622094719219
 10
2491.875487381139
 20
914.2578031309977
 10
2492.335430670582
 20
914.323557274063
 10
2492.805358153311
 20
914.3586146185516
 10
2493.279148658124
 20
914.3625216220684
 10
2493.750620427724
 20
914.3352246806925
 10
2494.213627266218
 20
914.2770784927096
 10
2494.662136905914
 20
914.1888433974241
 10
2495.090300154491
 20
914.0716697882039
 10
2495.492534530156
 20
913.927083285864
 10
2495.863596701534
 20
913.756970292219
 10
2496.198650317762
 20
913.5635479566813
 10
2496.493327253115
 20
913.349337944555
 10
2496.743784900391
 20
913.1171333622752
 10
2496.946757537374
 20
912.869959980105
 10
2497.09960176641
 20
912.6110408763567
 10
2497.200324831817
 20
912.3437527178824
 10
2497.247609644579
 20
912.0715778586971
 10
2497.240842441215
 20
911.7980640419961
 10
2497.180114100867
 20
911.5267810608152
 10
2497.066212242766
 20
911.2612614515633
 10
2496.900621226234
 20
911.0049670390948
 10
2496.685505028523
 20
910.7612410353317
 10
2496.423663780883
 20
910.5332601378893
 10
2496.11851137804
 20
910.3239957527698
 10
2495.774026745915
 20
910.1361752170591
 10
2495.39470115805
 20
909.9722483439967
 10
2494.985477649522
 20
909.834352447368
 10
2494.551694382114
 20
909.7242842089498
 10
2494.099001667704
 20
909.6434776286706
 10
2493.633306650528
 20
909.592990338503
 10
2493.160678476771
 20
909.5734762302495
 10
2492.687274537585
 20
909.5851915382555
 10
2492.219269346275
 20
909.6279811533026
 10
2491.762768927519
 20
909.7012915483773
 10
2491.323717304047
 20
909.8041639356166
 10
2490.907839861811
 20
909.9352578368261
 10
2490.520557739201
 20
910.0928640092488
 10
2490.166923948225
 20
910.2749291565931
  0
LWPOLYLINE
  5
5DF
330
5C3
100
AcDbEntity
  8
0
  6
Continuous
 62
     7
370
    15
100
AcDbPolyline
 90
       56
 70
   128
 43
0.0
 10
2506.430379947126
 20
919.6636224608024
 10
2506.11499968953
 20
919.8677709029107
 10
2505.841987551401
 20
920.0913429728952
 10
2505.614902307257
 20
920.331423529862
 10
2505.436702797575
 20
920.5848826370637
 10
2505.309713025923
 20
920.8484170003911
 10
2505.235588573193
 20
921.118589125848
 10
2505.215296182724
 20
921.3918786424541
 10
2505.249099272319
 20
921.6647226002274
 10
2505.336557934246
 20
921.9335626112226
 10
2505.476530910874
 20
922.1948954120934
 10
2505.667196009548
 20
922.4453143025854
 10
2505.906063932028
 20
922.681552865046
 10
2506.190025689692
 20
922.9005336261394
 10
2506.51537367696
 20
923.0993999910982
 10
2506.877870159923
 20
923.2755603434027
 10
2507.272788764649
 20
923.4267188385222
 10
2507.694981648716
 20
923.5509035364705
 10
2508.138942062951
 20
923.6464956748676
 10
2508.598885352394
 20
923.712249817933
 10
2509.068815469301
 20
923.7473086831002
 10
2509.542604657025
 20
923.7512149262776
 10
2510.014075109536
 20
923.7239172245626
 10
2510.477084582208
 20
923.6657725572582
 10
2510.925594221904
 20
923.5775374619727
 10
2511.353756153392
 20
923.4603630924132
 10
2511.755990529056
 20
923.3157765900733
 10
2512.127052700435
 20
923.1456635964285
 10
2512.462106316662
 20
922.9522412608908
 10
2512.756783252016
 20
922.7380312487641
 10
2513.007240899292
 20
922.5058266664845
 10
2513.210214853364
 20
922.2586540446537
 10
2513.3630590824
 20
921.9997349409053
 10
2513.463779513628
 20
921.7324452617523
 10
2513.51106564348
 20
921.4602711629064
 10
2513.504299757205
 20
921.1867581065448
 10
2513.443568782679
 20
920.9154736046851
 10
2513.329666924578
 20
920.6499539954334
 10
2513.164078542224
 20
920.3936611036434
 10
2512.948961027424
 20
920.1499343395409
 10
2512.687118462694
 20
919.9219526817593
 10
2512.381966059852
 20
919.7126882966399
 10
2512.037482744816
 20
919.5248685212684
 10
2511.658155839861
 20
919.3609408878668
 10
2511.248933648423
 20
919.2230457515773
 10
2510.815149063926
 20
919.1129767528197
 10
2510.362458983693
 20
919.0321716932192
 10
2509.896762649428
 20
918.9816836427125
 10
2509.424133158583
 20
918.9621687741196
 10
2508.950729219397
 20
918.9738840821254
 10
2508.482726662264
 20
919.0166752178512
 10
2508.026223609331
 20
919.0899840922474
 10
2507.587171985859
 20
919.1928564794865
 10
2507.171294543623
 20
919.323950380696
 10
2506.784013738101
 20
919.4815573134581
 10
2506.430379947126
 20
919.6636224608024
  0
LWPOLYLINE
  5
5E0
330
5C3
100
AcDbEntity
  8
0
  6
Continuous
 62
     7
370
    15
100
AcDbPolyline
 90
       57
 70
   128
 43
0.0
 10
2485.888928603772
 20
903.0293065467711
 10
2485.571346831886
 20
903.2344582565917
 10
2485.29555234321
 20
903.4588473111591
 10
2485.065014350212
 20
903.699652851653
 10
2484.882627814548
 20
903.953844165605
 10
2484.750688422373
 20
904.2182255469178
 10
2484.670855705849
 20
904.4894727921514
 10
2484.644130652626
 20
904.7641734985068
 10
2484.670855705849
 20
905.0388757255406
 10
2484.750687105285
 20
905.310122210435
 10
2484.882627814548
 20
905.5745043520872
 10
2485.065013033123
 20
905.8286949057
 10
2485.29555234321
 20
906.0694996858543
 10
2485.571348148975
 20
906.2938895007611
 10
2485.888928603772
 20
906.4990419709211
 10
2486.244298976615
 20
906.6823757443952
 10
2486.632995652828
 20
906.841589274108
 10
2487.050126963808
 20
906.9746767849743
 10
2487.490445626913
 20
907.0799655305236
 10
2487.948418551189
 20
907.1561332807052
 10
2488.4182821551
 20
907.2022189666379
 10
2488.894131928589
 20
907.2176470114683
 10
2489.369981702079
 20
907.2022204873166
 10
2489.839843988901
 20
907.1561325203658
 10
2490.297818230265
 20
907.0799670512021
 10
2490.73813821046
 20
906.9746775453136
 10
2491.15526820435
 20
906.841589274108
 10
2491.543963563475
 20
906.6823765047343
 10
2491.899335253406
 20
906.4990404502426
 10
2492.216915708203
 20
906.2938895007611
 10
2492.492710196879
 20
906.0695004461939
 10
2492.723250824056
 20
905.8286964263785
 10
2492.90563735972
 20
905.5745051124265
 10
2493.037574117716
 20
905.310122210435
 10
2493.117409468418
 20
905.0388764858801
 10
2493.144131887464
 20
904.764174258846
 10
2493.117406834241
 20
904.4894720318122
 10
2493.037575434805
 20
904.2182255469178
 10
2492.905634725542
 20
903.9538434052657
 10
2492.723249506967
 20
903.699652851653
 10
2492.492710196879
 20
903.4588480714985
 10
2492.216914391114
 20
903.2344582565917
 10
2491.899336570496
 20
903.0293073071105
 10
2491.543963563475
 20
902.8459720129577
 10
2491.155266887261
 20
902.6867584832448
 10
2490.738135576282
 20
902.5536709723786
 10
2490.297816913176
 20
902.4483822268294
 10
2489.839843988901
 20
902.3722144766477
 10
2489.369980384989
 20
902.326128790715
 10
2488.8941306115
 20
902.3107007458845
 10
2488.418283472189
 20
902.326128790715
 10
2487.948418551189
 20
902.372215236987
 10
2487.490446944002
 20
902.4483822268294
 10
2487.050126963808
 20
902.5536717327179
 10
2486.632994335739
 20
902.6867584832448
 10
2486.244298976615
 20
902.8459712526185
 10
2485.888928603772
 20
903.0293065467711
  0
LWPOLYLINE
  5
5E1
330
5C3
100
AcDbEntity
  8
0
  6
Continuous
 62
     7
370
    15
100
AcDbPolyline
 90
       57
 70
   128
 43
0.0
 10
2477.615778829777
 20
907.8052942515418
 10
2477.298197716436
 20
908.0104455811929
 10
2477.022403227759
 20
908.2348346357601
 10
2476.791865564033
 20
908.4756399861692
 10
2476.609479028369
 20
908.7298313001211
 10
2476.477539306923
 20
908.9942128715188
 10
2476.397706261126
 20
909.2654603068373
 10
2476.370981207903
 20
909.5401610131927
 10
2476.397705931854
 20
909.8148634303115
 10
2476.477537331289
 20
910.0861099152059
 10
2476.609478040553
 20
910.350492056858
 10
2476.791863259127
 20
910.6046826104707
 10
2477.022403227759
 20
910.8454870104555
 10
2477.298198704252
 20
911.0698770154469
 10
2477.615779488321
 20
911.2750292955221
 10
2477.971149531892
 20
911.4583632590809
 10
2478.359846537378
 20
911.617576598709
 10
2478.776977189813
 20
911.7506644897449
 10
2479.217295852918
 20
911.8559532352943
 10
2479.675268777193
 20
911.9321209854758
 10
2480.145132381105
 20
911.9782066714087
 10
2480.620982483866
 20
911.9936345261542
 10
2481.096832257355
 20
911.9782080020025
 10
2481.56669487345
 20
911.9321198449668
 10
2482.024669444087
 20
911.8559541857184
 10
2482.464989424281
 20
911.7506646798299
 10
2482.8821190889
 20
911.617576598709
 10
2483.270814448024
 20
911.4583638293353
 10
2483.626185479411
 20
911.2750281550132
 10
2483.943766592753
 20
911.0698768253621
 10
2484.219560422884
 20
910.8454881509643
 10
2484.450101050061
 20
910.6046841311492
 10
2484.632487585725
 20
910.3504928171972
 10
2484.764424343721
 20
910.0861099152059
 10
2484.844260352968
 20
909.8148638104811
 10
2484.870982772013
 20
909.5401615834472
 10
2484.844258377334
 20
909.2654589762435
 10
2484.764426319355
 20
908.9942128715188
 10
2484.632486268635
 20
908.729830349697
 10
2484.450100391516
 20
908.475640176254
 10
2484.219560422884
 20
908.2348357762692
 10
2483.943765275663
 20
908.0104455811929
 10
2483.626186796501
 20
907.8052950118811
 10
2483.270814448024
 20
907.6219593375588
 10
2482.882117113266
 20
907.4627461880155
 10
2482.464986460831
 20
907.3296582969797
 10
2482.02466845627
 20
907.2243691712607
 10
2481.56669487345
 20
907.1482018012488
 10
2481.096831928083
 20
907.1021157351463
 10
2480.620981496049
 20
907.0866880704855
 10
2480.145134356738
 20
907.102116115316
 10
2479.675268777193
 20
907.1482029417577
 10
2479.217297170007
 20
907.2243699316
 10
2478.776977189813
 20
907.3296594374886
 10
2478.359844561744
 20
907.4627461880155
 10
2477.971149861164
 20
907.6219585772195
 10
2477.615778829777
 20
907.8052942515418
  0
LWPOLYLINE
  5
5E2
330
5C3
100
AcDbEntity
  8
0
  6
Continuous
 62
     7
370
    15
100
AcDbPolyline
 90
       57
 70
   128
 43
0.0
 10
2502.152383285583
 20
912.417999090641
 10
2501.834804147876
 20
912.6231523211403
 10
2501.5590096592
 20
912.8475413757078
 10
2501.328469032023
 20
913.0883453955229
 10
2501.146082496359
 20
913.342536709475
 10
2501.014143104185
 20
913.6069180907878
 10
2500.93431038766
 20
913.8781653360213
 10
2500.907587968615
 20
914.1528675630555
 10
2500.93431038766
 20
914.4275682694107
 10
2501.014144421275
 20
914.6988162749837
 10
2501.146082496359
 20
914.9631968959573
 10
2501.328470349112
 20
915.2173889702485
 10
2501.5590096592
 20
915.4581937504032
 10
2501.834802830787
 20
915.6825820446311
 10
2502.152383285583
 20
915.887734514791
 10
2502.507756292605
 20
916.0710698089438
 10
2502.89645033464
 20
916.230281817978
 10
2503.31358164562
 20
916.3633693288444
 10
2503.753901625814
 20
916.4686588347329
 10
2504.211873233
 20
916.5448258245751
 10
2504.68173947109
 20
916.5909130311865
 10
2505.15758792749
 20
916.6063403156776
 10
2505.63343638389
 20
916.5909130311865
 10
2506.103301304891
 20
916.5448265849144
 10
2506.561272912077
 20
916.4686595950721
 10
2507.001592892271
 20
916.3633700891834
 10
2507.418722886162
 20
916.230281817978
 10
2507.807419562376
 20
916.0710698089438
 10
2508.162791252307
 20
915.8877337544518
 10
2508.480371707104
 20
915.6825828049704
 10
2508.756164878691
 20
915.4581929900636
 10
2508.986705505868
 20
915.2173889702485
 10
2509.169092041532
 20
914.9631976562965
 10
2509.301031433706
 20
914.6988162749837
 10
2509.380864150231
 20
914.4275690297501
 10
2509.407587886364
 20
914.1528675630555
 10
2509.380864150231
 20
913.8781660963607
 10
2509.301030116617
 20
913.6069180907878
 10
2509.169090724443
 20
913.342536709475
 10
2508.986704188779
 20
913.0883453955229
 10
2508.756164878691
 20
912.8475406153684
 10
2508.480371707104
 20
912.6231523211403
 10
2508.162791252307
 20
912.4179998509804
 10
2507.807418245287
 20
912.2346645568278
 10
2507.418724203251
 20
912.0754525477934
 10
2507.001592892271
 20
911.9423650369272
 10
2506.561271594988
 20
911.8370747706993
 10
2506.103301304891
 20
911.7609085411963
 10
2505.633435066801
 20
911.7148213345849
 10
2505.15758792749
 20
911.6993948104331
 10
2504.681738154001
 20
911.7148213345849
 10
2504.211873233
 20
911.760907780857
 10
2503.753901625814
 20
911.8370747706993
 10
2503.31358164562
 20
911.9423642765879
 10
2502.896451651729
 20
912.0754525477934
 10
2502.507756292605
 20
912.2346653171671
 10
2502.152383285583
 20
912.417999090641
  0
LWPOLYLINE
  5
5E3
330
5C3
100
AcDbEntity
  8
0
  6
Continuous
 62
     7
370
    15
100
AcDbPolyline
 90
       57
 70
   128
 43
0.0
 10
2493.879233511588
 20
917.1939867954117
 10
2493.561655032426
 20
917.3991396457415
 10
2493.285860543749
 20
917.6235287003088
 10
2493.055320245845
 20
917.8643325300392
 10
2492.872933710181
 20
918.1185238439912
 10
2492.740993988734
 20
918.3829054153887
 10
2492.661160942938
 20
918.6541528507072
 10
2492.634438523893
 20
918.9288550777412
 10
2492.661160613665
 20
919.2035559741814
 10
2492.740994647279
 20
919.4748039797545
 10
2492.872932722364
 20
919.7391846007278
 10
2493.055320575117
 20
919.9933766750191
 10
2493.285860543749
 20
920.2341810750041
 10
2493.561653386064
 20
920.458569559317
 10
2493.879234170133
 20
920.663721839392
 10
2494.234606847882
 20
920.8470573236295
 10
2494.623301219189
 20
921.006269142579
 10
2495.040431871624
 20
921.1393570336149
 10
2495.480751851819
 20
921.2446465395034
 10
2495.938723459005
 20
921.3208135293458
 10
2496.408589697095
 20
921.3669007359571
 10
2496.884438482767
 20
921.3823278303635
 10
2497.360286939167
 20
921.3669005458724
 10
2497.83015218944
 20
921.3208139095154
 10
2498.288124125899
 20
921.2446467295883
 10
2498.728444106093
 20
921.1393572236998
 10
2499.145573770711
 20
921.006269142579
 10
2499.534270446925
 20
920.8470571335446
 10
2499.889641478312
 20
920.6637214592223
 10
2500.207222591653
 20
920.4585701295714
 10
2500.483015104696
 20
920.2341806948345
 10
2500.713555731873
 20
919.9933766750191
 10
2500.895942267536
 20
919.7391853610673
 10
2501.027881659711
 20
919.4748039797545
 10
2501.10771503478
 20
919.2035563543511
 10
2501.134438770914
 20
918.9288548876563
 10
2501.107715693324
 20
918.6541530407922
 10
2501.027881001166
 20
918.3829054153887
 10
2500.895942267536
 20
918.1185236539063
 10
2500.713555073328
 20
917.8643327201241
 10
2500.483015104696
 20
917.6235283201391
 10
2500.207222591653
 20
917.3991396457415
 10
2499.889641478312
 20
917.1939875557511
 10
2499.534269129836
 20
917.0106518814289
 10
2499.145574429256
 20
916.8514402525641
 10
2498.728443776821
 20
916.7183523615284
 10
2498.288123138082
 20
916.6130617151306
 10
2497.83015218944
 20
916.5368958657975
 10
2497.360286609895
 20
916.4908082790164
 10
2496.884438812039
 20
916.4753821350341
 10
2496.40858903855
 20
916.4908086591859
 10
2495.938723459005
 20
916.5368954856276
 10
2495.480751851819
 20
916.61306247547
 10
2495.040431871624
 20
916.7183519813587
 10
2494.623301877734
 20
916.8514402525641
 10
2494.234607177153
 20
917.0106526417681
 10
2493.879233511588
 20
917.1939867954117
  0
LWPOLYLINE
  5
5E4
330
5C3
100
AcDbEntity
  8
0
  6
Continuous
 62
     7
370
    15
100
AcDbPolyline
 90
       57
 70
   128
 43
0.0
 10
2518.415839943029
 20
921.80669277502
 10
2518.098259488232
 20
922.0118452451799
 10
2517.822464999556
 20
922.2362342997474
 10
2517.591925030924
 20
922.4770386997322
 10
2517.409538495261
 20
922.7312300136842
 10
2517.277599761631
 20
922.9956117751667
 10
2517.197766386561
 20
923.2668586402308
 10
2517.171043308972
 20
923.5415604870949
 10
2517.197767045106
 20
923.8162619537897
 10
2517.277599761631
 20
924.0875091990233
 10
2517.409539812349
 20
924.3518909605057
 10
2517.591926348013
 20
924.6060822744578
 10
2517.822464999556
 20
924.8468866744426
 10
2518.098259488232
 20
925.07127572901
 10
2518.415839284485
 20
925.2764278190005
 10
2518.771211632961
 20
925.4597627329832
 10
2519.159906992085
 20
925.6189755023569
 10
2519.577038303065
 20
925.7520630132232
 10
2520.017357624715
 20
925.857352138942
 10
2520.475329890445
 20
925.9335195089541
 10
2520.945194811446
 20
925.9796059552263
 10
2521.421043267846
 20
925.9950332397172
 10
2521.896892382791
 20
925.9796063353958
 10
2522.366756974519
 20
925.933519699039
 10
2522.824728910978
 20
925.8573528992814
 10
2523.265048891172
 20
925.7520633933928
 10
2523.682179543607
 20
925.6189755023569
 10
2524.070874902732
 20
925.4597627329832
 10
2524.426247909753
 20
925.2764274388308
 10
2524.74382704746
 20
925.07127572901
 10
2525.019621536137
 20
924.8468866744426
 10
2525.250161504768
 20
924.6060822744578
 10
2525.432548040432
 20
924.3518909605057
 10
2525.564487103335
 20
924.0875093891082
 10
2525.644320149131
 20
923.8162623339594
 10
2525.671043226721
 20
923.5415604870949
 10
2525.644319490587
 20
923.2668590204003
 10
2525.564486774062
 20
922.9956117751667
 10
2525.432546723343
 20
922.7312300136842
 10
2525.250160846224
 20
922.4770390799019
 10
2525.019621536137
 20
922.2362342997474
 10
2524.74382704746
 20
922.0118452451799
 10
2524.426247251208
 20
921.8066931551897
 10
2524.070874902732
 20
921.6233582412067
 10
2523.682179543607
 20
921.464145471833
 10
2523.265048891172
 20
921.3310583411365
 10
2522.824728910978
 20
921.2257688352478
 10
2522.366756645247
 20
921.1496014652359
 10
2521.896891724246
 20
921.1035150189639
 10
2521.421043267846
 20
921.0880877344727
 10
2520.945194152901
 20
921.1035146387942
 10
2520.475329890445
 20
921.1496014652359
 10
2520.017357624715
 20
921.2257680749086
 10
2519.57703764452
 20
921.3310575807973
 10
2519.159906992085
 20
921.464145471833
 10
2518.771211632961
 20
921.6233582412067
 10
2518.415839943029
 20
921.80669277502
  0
LWPOLYLINE
  5
5E5
330
5C3
100
AcDbEntity
  8
0
  6
Continuous
 62
     7
370
    15
100
AcDbPolyline
 90
       57
 70
   128
 43
0.0
 10
2510.142690169034
 20
926.5826804797907
 10
2509.825110372782
 20
926.7878325697809
 10
2509.549315884106
 20
927.0122216243484
 10
2509.318776244746
 20
927.2530258342484
 10
2509.136389709082
 20
927.5072171482005
 10
2509.004450646179
 20
927.7715990997677
 10
2508.924616941838
 20
928.0428461549165
 10
2508.897893864249
 20
928.3175480017808
 10
2508.924617271111
 20
928.5922496585603
 10
2509.004449987636
 20
928.8634969037941
 10
2509.136390038354
 20
929.1278786652766
 10
2509.318776574018
 20
929.3820699792284
 10
2509.549315884106
 20
929.6228739990437
 10
2509.82511004351
 20
929.8472632436959
 10
2510.142690169034
 20
930.0524151436013
 10
2510.498062188238
 20
930.2357502476692
 10
2510.886757876634
 20
930.3949628269579
 10
2511.30388852907
 20
930.5280507179938
 10
2511.744207850719
 20
930.6333398437129
 10
2512.20218011645
 20
930.7095072137247
 10
2512.672045037451
 20
930.7555936599968
 10
2513.147893823123
 20
930.7710207544031
 10
2513.623742938068
 20
930.7555938500817
 10
2514.093607859069
 20
930.70950702364
 10
2514.5515801248
 20
930.6333400337976
 10
2514.991900104994
 20
930.5280505279091
 10
2515.409030428156
 20
930.3949628269579
 10
2515.797725787281
 20
930.2357500575844
 10
2516.153098135757
 20
930.0524151436013
 10
2516.47067793201
 20
929.847263053611
 10
2516.746471762141
 20
929.6228743792134
 10
2516.977011730773
 20
929.3820699792284
 10
2517.159398266437
 20
929.1278786652766
 10
2517.291337329339
 20
928.8634970938788
 10
2517.371171033681
 20
928.5922496585603
 10
2517.39789411127
 20
928.3175478116961
 10
2517.371171033681
 20
928.0428459648318
 10
2517.291337658611
 20
927.7715990997677
 10
2517.159398266437
 20
927.5072169581155
 10
2516.977011730773
 20
927.2530264045029
 10
2516.746471762141
 20
927.0122220045179
 10
2516.47067793201
 20
926.7878325697809
 10
2516.153097477213
 20
926.5826808599603
 10
2515.797725787281
 20
926.3993455658079
 10
2515.409029769613
 20
926.2401331766037
 10
2514.991899775722
 20
926.1070456657376
 10
2514.551580454071
 20
926.0017557796793
 10
2514.093607529797
 20
925.9255887898371
 10
2513.62374326734
 20
925.8795019633952
 10
2513.147894152396
 20
925.8640750590737
 10
2512.672045037451
 20
925.8795019633952
 10
2512.20218011645
 20
925.9255891700066
 10
2511.744207850719
 20
926.0017557796793
 10
2511.303887870525
 20
926.1070452855678
 10
2510.88675721809
 20
926.2401331766037
 10
2510.49806251751
 20
926.3993455658079
 10
2510.142690169034
 20
926.5826804797907
  0
LINE
  5
5E6
330
5C3
100
AcDbEntity
  8
0
  6
Continuous
 62
     7
370
    15
100
AcDbLine
 10
2513.607513437941
 20
935.4407087474767
 30
0.0
 11
2533.76005646534
 21
923.8068932904839
 31
0.0
  0
LINE
  5
5E7
330
5C3
100
AcDbEntity
  8
0
  6
Continuous
 62
     7
370
    15
100
AcDbLine
 10
2468.281966981467
 20
909.2748277345917
 30
0.0
 11
2513.607513437941
 21
935.4407087474767
 31
0.0
  0
LINE
  5
5E8
330
5C3
100
AcDbEntity
  8
0
  6
Continuous
 62
     7
370
    15
100
AcDbLine
 10
2495.823777149315
 20
890.1887685862675
 30
0.0
 11
2495.823777149315
 21
892.5166268657724
 31
0.0
  0
ARC
  5
5E9
330
5C3
100
AcDbEntity
  8
0
  6
Continuous
 62
     7
370
    15
100
AcDbCircle
 10
2487.110280450274
 20
890.5408946100429
 30
0.0
 40
8.720608778107578
100
AcDbArc
 50
300.3571440762204
 51
357.6858471722762
  0
ARC
  5
5EA
330
5C3
100
AcDbEntity
  8
0
  6
Continuous
 62
     7
370
    15
100
AcDbCircle
 10
2488.988088878266
 20
889.4917981646973
 30
0.0
 40
6.306909122478303
100
AcDbArc
 50
293.5739690251825
 51
358.7294217044311
  0
LINE
  5
5EB
330
5C3
100
AcDbEntity
  8
0
  6
Continuous
 62
     7
370
    15
100
AcDbLine
 10
2495.293447305769
 20
889.3519490319921
 30
0.0
 11
2495.293447305769
 21
892.2104720053111
 31
0.0
  0
ARC
  5
5EC
330
5C3
100
AcDbEntity
  8
0
  6
Continuous
 62
     7
370
    15
100
AcDbCircle
 10
2489.812859498247
 20
889.0194376693468
 30
0.0
 40
4.774082305040209
100
AcDbArc
 50
290.8289974585429
 51
359.0915502558653
  0
LINE
  5
5ED
330
5C3
100
AcDbEntity
  8
0
  6
Continuous
 62
     7
370
    15
100
AcDbLine
 10
2494.586341725768
 20
888.9437456695102
 30
0.0
 11
2494.586341725768
 21
891.8022686428292
 31
0.0
  0
LINE
  5
5EE
330
5C3
100
AcDbEntity
  8
0
  6
Continuous
 62
     7
370
    15
100
AcDbLine
 10
2499.642153866767
 20
887.9844666271687
 30
0.0
 11
2495.823777149315
 21
890.1887685862675
 31
0.0
  0
LINE
  5
5EF
330
5C3
100
AcDbEntity
  8
0
  6
Continuous
 62
     7
370
    15
100
AcDbLine
 10
2494.126721123134
 20
891.5369372751372
 30
0.0
 11
2494.126721123134
 21
889.2090789956323
 31
0.0
  0
ARC
  5
5F0
330
5C3
100
AcDbEntity
  8
0
  6
Continuous
 62
     7
370
    15
100
AcDbCircle
 10
2489.104822388497
 20
889.3902385807395
 30
0.0
 40
5.025165240688195
100
AcDbArc
 50
298.6012785351566
 51
357.9340123626607
  0
LINE
  5
5F1
330
5C3
100
AcDbEntity
  8
0
  6
Continuous
 62
     7
370
    15
100
AcDbLine
 10
2488.434510008866
 20
873.1447884685598
 30
0.0
 11
2488.434511325955
 21
873.1448890390744
 31
0.0
  0
LINE
  5
5F2
330
5C3
100
AcDbEntity
  8
0
  6
Continuous
 62
     7
370
    15
100
AcDbLine
 10
2468.281966981467
 20
884.7786039255524
 30
0.0
 11
2488.434510008866
 21
873.1447884685598
 31
0.0
  0
LINE
  5
5F3
330
5C3
100
AcDbEntity
  8
0
  6
Continuous
 62
     7
370
    15
100
AcDbLine
 10
2467.22130836451
 20
885.391010442693
 30
0.0
 11
2468.281966981467
 21
884.7786039255524
 31
0.0
  0
LINE
  5
5F4
330
5C3
100
AcDbEntity
  8
0
  6
Continuous
 62
     7
370
    15
100
AcDbLine
 10
2488.434510008866
 20
873.1447884685598
 30
0.0
 11
2533.76005646534
 21
899.3106694814446
 31
0.0
  0
LINE
  5
5F5
330
5C3
100
AcDbEntity
  8
0
  6
Continuous
 62
     7
370
    15
100
AcDbLine
 10
2533.76005646534
 20
899.3106694814446
 30
0.0
 11
2534.820716399385
 21
899.9230752382459
 31
0.0
  0
LINE
  5
5F6
330
5C3
100
AcDbEntity
  8
0
  6
Continuous
 62
     7
370
    15
100
AcDbLine
 10
2494.126721123134
 20
889.2090789956323
 30
0.0
 11
2494.586341725768
 21
888.9437456695102
 31
0.0
  0
LINE
  5
5F7
330
5C3
100
AcDbEntity
  8
0
  6
Continuous
 62
     7
370
    15
100
AcDbLine
 10
2512.087233148215
 20
899.5774618904768
 30
0.0
 11
2512.087233148215
 21
901.9053201699817
 31
0.0
  0
ARC
  5
5F8
330
5C3
100
AcDbEntity
  8
0
  6
Continuous
 62
     7
370
    15
100
AcDbCircle
 10
2503.373735415264
 20
899.929588546572
 30
0.0
 40
8.720609836706895
100
AcDbArc
 50
300.3571378464671
 51
357.6858432955087
  0
LINE
  5
5F9
330
5C3
100
AcDbEntity
  8
0
  6
Continuous
 62
     7
370
    15
100
AcDbLine
 10
2511.556904621759
 20
898.7406430965407
 30
0.0
 11
2511.556904621759
 21
901.5991660698599
 31
0.0
  0
ARC
  5
5FA
330
5C3
100
AcDbEntity
  8
0
  6
Continuous
 62
     7
370
    15
100
AcDbCircle
 10
2505.25154201936
 20
898.8804946487322
 30
0.0
 40
6.306913349998497
100
AcDbArc
 50
293.5739675383668
 51
358.7294005707731
  0
ARC
  5
5FB
330
5C3
100
AcDbEntity
  8
0
  6
Continuous
 62
     7
370
    15
100
AcDbCircle
 10
2506.07631468457
 20
898.4081312796341
 30
0.0
 40
4.7740831223685
100
AcDbArc
 50
290.8289872484894
 51
359.0915467375736
  0
LINE
  5
5FC
330
5C3
100
AcDbEntity
  8
0
  6
Continuous
 62
     7
370
    15
100
AcDbLine
 10
2510.849797724669
 20
898.3324389737193
 30
0.0
 11
2510.849797724669
 21
901.1909619470387
 31
0.0
  0
LINE
  5
5FD
330
5C3
100
AcDbEntity
  8
0
  6
Continuous
 62
     7
370
    15
100
AcDbLine
 10
2515.905609865668
 20
897.3731599313779
 30
0.0
 11
2512.087233148215
 21
899.5774618904768
 31
0.0
  0
LINE
  5
5FE
330
5C3
100
AcDbEntity
  8
0
  6
Continuous
 62
     7
370
    15
100
AcDbLine
 10
2510.390177122034
 20
898.5977722998416
 30
0.0
 11
2510.390177122034
 21
900.9256305793465
 31
0.0
  0
ARC
  5
5FF
330
5C3
100
AcDbEntity
  8
0
  6
Continuous
 62
     7
370
    15
100
AcDbCircle
 10
2505.359847499198
 20
898.7841454444801
 30
0.0
 40
5.033780990808457
100
AcDbArc
 50
298.6571059473131
 51
357.8781683574675
  0
LINE
  5
600
330
5C3
100
AcDbEntity
  8
0
  6
Continuous
 62
     7
370
    15
100
AcDbLine
 10
2510.390177122034
 20
898.5977722998416
 30
0.0
 11
2510.849797724669
 21
898.3324389737193
 31
0.0
  0
LINE
  5
601
330
5C3
100
AcDbEntity
  8
0
  6
Continuous
 62
     7
370
    15
100
AcDbLine
 10
2528.350689311753
 20
908.9661552897284
 30
0.0
 11
2528.350689311753
 21
911.2940135692335
 31
0.0
  0
ARC
  5
602
330
5C3
100
AcDbEntity
  8
0
  6
Continuous
 62
     7
370
    15
100
AcDbCircle
 10
2519.637190459585
 20
909.3182826191968
 30
0.0
 40
8.720610982200117
100
AcDbArc
 50
300.357140706812
 51
357.6858391718768
  0
LINE
  5
603
330
5C3
100
AcDbEntity
  8
0
  6
Continuous
 62
     7
370
    15
100
AcDbLine
 10
2527.820360291388
 20
908.129336210665
 30
0.0
 11
2527.820360291388
 21
910.9878591839843
 31
0.0
  0
ARC
  5
604
330
5C3
100
AcDbEntity
  8
0
  6
Continuous
 62
     7
370
    15
100
AcDbCircle
 10
2521.514999000709
 20
908.269187025807
 30
0.0
 40
6.306912022256099
100
AcDbArc
 50
293.5739695911197
 51
358.7294070006893
  0
ARC
  5
605
330
5C3
100
AcDbEntity
  8
0
  6
Continuous
 62
     7
370
    15
100
AcDbCircle
 10
2522.339771534603
 20
907.7968241188614
 30
0.0
 40
4.77408226397068
100
AcDbArc
 50
290.8289886948593
 51
359.0915521553648
  0
LINE
  5
606
330
5C3
100
AcDbEntity
  8
0
  6
Continuous
 62
     7
370
    15
100
AcDbLine
 10
2527.113253723569
 20
907.7211322779287
 30
0.0
 11
2527.113253723569
 21
910.5796552512479
 31
0.0
  0
LINE
  5
607
330
5C3
100
AcDbEntity
  8
0
  6
Continuous
 62
     7
370
    15
100
AcDbLine
 10
2532.169066029205
 20
906.7618533306298
 30
0.0
 11
2528.350689311753
 21
908.9661552897284
 31
0.0
  0
LINE
  5
608
330
5C3
100
AcDbEntity
  8
0
  6
Continuous
 62
     7
370
    15
100
AcDbLine
 10
2526.653633120935
 20
907.9864656040509
 30
0.0
 11
2526.653633120935
 21
910.3143238835558
 31
0.0
  0
ARC
  5
609
330
5C3
100
AcDbEntity
  8
0
  6
Continuous
 62
     7
370
    15
100
AcDbCircle
 10
2521.623304039915
 20
908.1728384347943
 30
0.0
 40
5.033780437741968
100
AcDbArc
 50
298.657110901788
 51
357.8781716995151
  0
LINE
  5
60A
330
5C3
100
AcDbEntity
  8
0
  6
Continuous
 62
     7
370
    15
100
AcDbLine
 10
2526.653633120935
 20
907.9864656040509
 30
0.0
 11
2527.113253723569
 21
907.7211322779287
 31
0.0
  0
ENDBLK
  5
5C5
330
5C3
100
AcDbEntity
  8
0
100
AcDbBlockEnd
  0
ENDSEC
  0
SECTION
  2
ENTITIES
  0
INSERT
  5
4C3
330
1F
100
AcDbEntity
  8
0
100
AcDbBlockReference
  2
1
 10
0.0
 20
0.0
 30
0.0
  0
INSERT
  5
510
330
1F
100
AcDbEntity
  8
0
100
AcDbBlockReference
  2
2
 10
0.0
 20
0.0
 30
0.0
  0
INSERT
  5
5C2
330
1F
100
AcDbEntity
  8
0
100
AcDbBlockReference
  2
3
 10
0.0
 20
0.0
 30
0.0
  0
INSERT
  5
60B
330
1F
100
AcDbEntity
  8
0
100
AcDbBlockReference
  2
4
 10
0.0
 20
0.0
 30
0.0
  0
ENDSEC
  0
SECTION
  2
OBJECTS
  0
DICTIONARY
  5
C
330
0
100
AcDbDictionary
281
     1
  3
ACAD_COLOR
350
6B
  3
ACAD_GROUP
350
D
  3
ACAD_LAYOUT
350
1A
  3
ACAD_MATERIAL
350
6A
  3
ACAD_MLEADERSTYLE
350
12D
  3
ACAD_MLINESTYLE
350
17
  3
ACAD_PLOTSETTINGS
350
19
  3
ACAD_PLOTSTYLENAME
350
E
  3
ACAD_SCALELIST
350
10C
  3
ACAD_TABLESTYLE
350
7E
  3
ACAD_VISUALSTYLE
350
EF
  3
ACDB_RECOMPOSE_DATA
350
15D
  3
AcDbVariableDictionary
350
5E
  3
DWGPROPS
350
672
  0
DICTIONARY
  5
13C
330
10
100
AcDbDictionary
280
     1
281
     1
  3
ADSK_XREC_LAYER_RECONCILED
360
60C
  0
DICTIONARY
  5
65F
330
4C4
100
AcDbDictionary
280
     1
281
     1
  0
DICTIONARY
  5
6B
102
{ACAD_REACTORS
330
C
102
}
330
C
100
AcDbDictionary
281
     1
  0
DICTIONARY
  5
D
102
{ACAD_REACTORS
330
C
102
}
330
C
100
AcDbDictionary
281
     1
  0
DICTIONARY
  5
1A
102
{ACAD_REACTORS
330
C
102
}
330
C
100
AcDbDictionary
281
     1
  3
Layout1
350
D3
  3
Layout2
350
D7
  3
Model
350
22
  0
DICTIONARY
  5
6A
102
{ACAD_REACTORS
330
C
102
}
330
C
100
AcDbDictionary
281
     1
  3
ByBlock
350
ED
  3
ByLayer
350
EC
  3
Global
350
EE
  0
DICTIONARY
  5
12D
102
{ACAD_REACTORS
330
C
102
}
330
C
100
AcDbDictionary
281
     1
  3
Annotative
350
13B
  3
Standard
350
12E
  0
DICTIONARY
  5
17
102
{ACAD_REACTORS
330
C
102
}
330
C
100
AcDbDictionary
281
     1
  3
Standard
350
18
  0
DICTIONARY
  5
19
102
{ACAD_REACTORS
330
C
102
}
330
C
100
AcDbDictionary
281
     1
  0
ACDBDICTIONARYWDFLT
  5
E
102
{ACAD_REACTORS
330
C
102
}
330
C
100
AcDbDictionary
281
     1
  3
Normal
350
F
100
AcDbDictionaryWithDefault
340
F
  0
DICTIONARY
  5
10C
102
{ACAD_REACTORS
330
C
102
}
330
C
100
AcDbDictionary
281
     1
  3
A0
350
10D
  3
A1
350
188
  3
A2
350
189
  3
A3
350
18A
  3
A4
350
18B
  3
A5
350
18C
  3
A6
350
18D
  3
A7
350
18E
  3
A8
350
18F
  3
A9
350
190
  3
B0
350
191
  3
B1
350
192
  3
B2
350
193
  3
B3
350
194
  3
B4
350
195
  3
B5
350
196
  3
B6
350
197
  3
B7
350
198
  3
B8
350
199
  3
B9
350
19A
  3
C0
350
19B
  3
C1
350
19C
  3
C2
350
19D
  3
C3
350
19E
  3
C4
350
19F
  3
C5
350
1A0
  3
C6
350
1A1
  3
C7
350
1A2
  3
C8
350
1A3
  3
C9
350
1A4
  3
D0
350
1A5
  3
D1
350
1A6
  3
D2
350
1A7
  0
DICTIONARY
  5
7E
102
{ACAD_REACTORS
330
C
102
}
330
C
100
AcDbDictionary
281
     1
  3
Standard
350
7F
  0
DICTIONARY
  5
EF
102
{ACAD_REACTORS
330
C
102
}
330
C
100
AcDbDictionary
281
     1
  3
2dWireframe
350
F5
  3
3D Hidden
350
F7
  3
3dWireframe
350
F6
  3
Basic
350
F4
  3
Brighten
350
FB
  3
ColorChange
350
FF
  3
Conceptual
350
F8
  3
Dim
350
FA
  3
Facepattern
350
FE
  3
Flat
350
F0
  3
FlatWithEdges
350
F1
  3
Gouraud
350
F2
  3
GouraudWithEdges
350
F3
  3
Linepattern
350
FD
  3
Realistic
350
F9
  3
Thicken
350
FC
  0
XRECORD
  5
15D
102
{ACAD_REACTORS
330
C
102
}
330
C
100
AcDbXrecord
280
     1
 90
        1
330
7F
  0
DICTIONARY
  5
5E
102
{ACAD_REACTORS
330
C
102
}
330
C
100
AcDbDictionary
281
     1
  3
CANNOSCALE
350
146
  3
CMLEADERSTYLE
350
145
  3
CTABLESTYLE
350
84
  3
DIMASSOC
350
5F
  3
HIDETEXT
350
63
  3
INDEXCTL
350
66E
  3
LIGHTINGUNITS
350
66C
  3
MSLTSCALE
350
66B
  3
PSOLHEIGHT
350
670
  3
PSOLWIDTH
350
66F
  3
SORTENTS
350
66D
  0
XRECORD
  5
672
102
{ACAD_REACTORS
330
C
102
}
330
C
100
AcDbXrecord
280
     1
  1
DWGPROPS COOKIE
  2

  3

  4

  6

  7

  8
orhan kara
  9

300
=
301
=
302
=
303
=
304
=
305
=
306
=
307
=
308
=
309
=
 40
0.0004205208333333
 41
2459083.643109236
 42
2459083.684912385
  1

 90
        0
  0
XRECORD
  5
60C
102
{ACAD_REACTORS
330
13C
102
}
330
13C
100
AcDbXrecord
280
     1
290
     1
  0
LAYOUT
  5
D3
102
{ACAD_XDICTIONARY
360
676
102
}
102
{ACAD_REACTORS
330
1A
102
}
330
1A
100
AcDbPlotSettings
  1

  2
C:\Documents and Settings\basas\Application Data\Autodesk\AutoCAD 2005\R16.1\enu\plotters\Default Windows System Printer.pc3
  4

  6

 40
0.0
 41
0.0
 42
0.0
 43
0.0
 44
0.0
 45
0.0
 46
0.0
 47
0.0
 48
0.0
 49
0.0
140
0.0
141
0.0
142
1.0
143
1.0
 70
   688
 72
     0
 73
     0
 74
     5
  7

 75
    16
147
1.0
148
0.0
149
0.0
100
AcDbLayout
  1
Layout1
 70
     1
 71
     1
 10
0.0
 20
0.0
 11
12.0
 21
9.0
 12
0.0
 22
0.0
 32
0.0
 14
0.0
 24
0.0
 34
0.0
 15
0.0
 25
0.0
 35
0.0
146
0.0
 13
0.0
 23
0.0
 33
0.0
 16
1.0
 26
0.0
 36
0.0
 17
0.0
 27
1.0
 37
0.0
 76
     0
330
D2
  0
LAYOUT
  5
D7
102
{ACAD_XDICTIONARY
360
678
102
}
102
{ACAD_REACTORS
330
1A
102
}
330
1A
100
AcDbPlotSettings
  1

  2
C:\Documents and Settings\basas\Application Data\Autodesk\AutoCAD 2005\R16.1\enu\plotters\Default Windows System Printer.pc3
  4

  6

 40
0.0
 41
0.0
 42
0.0
 43
0.0
 44
0.0
 45
0.0
 46
0.0
 47
0.0
 48
0.0
 49
0.0
140
0.0
141
0.0
142
1.0
143
1.0
 70
   688
 72
     0
 73
     0
 74
     5
  7

 75
    16
147
1.0
148
0.0
149
0.0
100
AcDbLayout
  1
Layout2
 70
     1
 71
     2
 10
0.0
 20
0.0
 11
12.0
 21
9.0
 12
0.0
 22
0.0
 32
0.0
 14
0.0
 24
0.0
 34
0.0
 15
0.0
 25
0.0
 35
0.0
146
0.0
 13
0.0
 23
0.0
 33
0.0
 16
1.0
 26
0.0
 36
0.0
 17
0.0
 27
1.0
 37
0.0
 76
     0
330
D6
  0
LAYOUT
  5
22
102
{ACAD_XDICTIONARY
360
673
102
}
102
{ACAD_REACTORS
330
1A
102
}
330
1A
100
AcDbPlotSettings
  1

  2
none_device
  4
ISO_A4_(210.00_x_297.00_MM)
  6

 40
7.5
 41
20.0
 42
7.5
 43
20.0
 44
210.0
 45
297.0
 46
11.54999923706054
 47
-13.65000009536743
 48
0.0
 49
0.0
140
0.0
141
0.0
142
1.0
143
8.704084754739808
 70
 11952
 72
     1
 73
     0
 74
     0
  7

 75
     0
147
0.1148885871608098
148
0.0
149
0.0
100
AcDbLayout
  1
Model
 70
     1
 71
     0
 10
0.0
 20
0.0
 11
12.0
 21
9.0
 12
0.0
 22
0.0
 32
0.0
 14
0.0
 24
0.0
 34
0.0
 15
0.0
 25
0.0
 35
0.0
146
0.0
 13
0.0
 23
0.0
 33
0.0
 16
1.0
 26
0.0
 36
0.0
 17
0.0
 27
1.0
 37
0.0
 76
     0
330
1F
331
EA
1001
ACAD_PSEXT
1000
None
1000
None
1000
Not applicable
1000
The layout will not be plotted unless a new plotter configuration name is selected.
1070
     0
  0
MATERIAL
  5
ED
102
{ACAD_XDICTIONARY
360
67C
102
}
102
{ACAD_REACTORS
330
6A
102
}
330
6A
100
AcDbMaterial
  1
ByBlock
  0
MATERIAL
  5
EC
102
{ACAD_XDICTIONARY
360
67A
102
}
102
{ACAD_REACTORS
330
6A
102
}
330
6A
100
AcDbMaterial
  1
ByLayer
  0
MATERIAL
  5
EE
102
{ACAD_XDICTIONARY
360
173
102
}
102
{ACAD_REACTORS
330
6A
102
}
330
6A
100
AcDbMaterial
  1
Global
 43
0.0007999999797903
 43
0.0
 43
0.0
 43
0.0
 43
0.0
 43
0.0007999999797903
 43
0.0
 43
0.0
 43
0.0
 43
0.0
 43
1.0
 43
0.0
 43
0.0
 43
0.0
 43
0.0
 43
1.0
 49
0.0007999999797903
 49
0.0
 49
0.0
 49
0.0
 49
0.0
 49
0.0007999999797903
 49
0.0
 49
0.0
 49
0.0
 49
0.0
 49
1.0
 49
0.0
 49
0.0
 49
0.0
 49
0.0
 49
1.0
142
0.0007999999797903
142
0.0
142
0.0
142
0.0
142
0.0
142
0.0007999999797903
142
0.0
142
0.0
142
0.0
142
0.0
142
1.0
142
0.0
142
0.0
142
0.0
142
0.0
142
1.0
144
0.0007999999797903
144
0.0
144
0.0
144
0.0
144
0.0
144
0.0007999999797903
144
0.0
144
0.0
144
0.0
144
0.0
144
1.0
144
0.0
144
0.0
144
0.0
144
0.0
144
1.0
1001
ACAD
1070
    -1
1070
     3
1070
     0
1000

1071
        0
1070
     0
  0
MLEADERSTYLE
  5
13B
102
{ACAD_REACTORS
330
12D
102
}
330
12D
100
AcDbMLeaderStyle
170
     2
171
     1
172
     0
 90
        2
 40
0.0
 41
0.0
173
     1
 91
-1056964608
340
14
 92
       -2
290
     1
 42
2.0
291
     1
 43
8.0
  3
Standard
 44
4.0
300

342
11
174
     1
178
     1
175
     1
176
     0
 93
-1056964608
 45
4.0
292
     0
297
     0
 46
4.0
 94
-1056964608
 47
1.0
 49
1.0
140
1.0
293
     1
141
0.0
294
     1
177
     0
142
1.0
295
     0
296
     1
143
3.75
1001
ACAD_MLEADERVER
1070
     2
  0
MLEADERSTYLE
  5
12E
102
{ACAD_REACTORS
330
12D
102
}
330
12D
100
AcDbMLeaderStyle
170
     2
171
     1
172
     0
 90
        2
 40
0.0
 41
0.0
173
     1
 91
-1056964608
340
14
 92
       -2
290
     1
 42
2.0
291
     1
 43
8.0
  3
Standard
 44
4.0
300

342
11
174
     1
178
     1
175
     1
176
     0
 93
-1056964608
 45
4.0
292
     0
297
     0
 46
4.0
 94
-1056964608
 47
1.0
 49
1.0
140
1.0
293
     1
141
0.0
294
     1
177
     0
142
1.0
295
     0
296
     0
143
3.75
1001
ACAD_MLEADERVER
1070
     2
  0
MLINESTYLE
  5
18
102
{ACAD_REACTORS
330
17
102
}
330
17
100
AcDbMlineStyle
  2
STANDARD
 70
     0
  3

 62
   256
 51
90.0
 52
90.0
 71
     2
 49
0.5
 62
   256
  6
BYLAYER
 49
-0.5
 62
   256
  6
BYLAYER
  0
ACDBPLACEHOLDER
  5
F
102
{ACAD_REACTORS
330
E
102
}
330
E
  0
SCALE
  5
10D
102
{ACAD_REACTORS
330
10C
102
}
330
10C
100
AcDbScale
 70
     0
300
1:1
140
1.0
141
1.0
290
     1
  0
SCALE
  5
188
102
{ACAD_REACTORS
330
10C
102
}
330
10C
100
AcDbScale
 70
     0
300
1:2
140
1.0
141
2.0
290
     0
  0
SCALE
  5
189
102
{ACAD_REACTORS
330
10C
102
}
330
10C
100
AcDbScale
 70
     0
300
1:4
140
1.0
141
4.0
290
     0
  0
SCALE
  5
18A
102
{ACAD_REACTORS
330
10C
102
}
330
10C
100
AcDbScale
 70
     0
300
1:5
140
1.0
141
5.0
290
     0
  0
SCALE
  5
18B
102
{ACAD_REACTORS
330
10C
102
}
330
10C
100
AcDbScale
 70
     0
300
1:8
140
1.0
141
8.0
290
     0
  0
SCALE
  5
18C
102
{ACAD_REACTORS
330
10C
102
}
330
10C
100
AcDbScale
 70
     0
300
1:10
140
1.0
141
10.0
290
     0
  0
SCALE
  5
18D
102
{ACAD_REACTORS
330
10C
102
}
330
10C
100
AcDbScale
 70
     0
300
1:16
140
1.0
141
16.0
290
     0
  0
SCALE
  5
18E
102
{ACAD_REACTORS
330
10C
102
}
330
10C
100
AcDbScale
 70
     0
300
1:20
140
1.0
141
20.0
290
     0
  0
SCALE
  5
18F
102
{ACAD_REACTORS
330
10C
102
}
330
10C
100
AcDbScale
 70
     0
300
1:30
140
1.0
141
30.0
290
     0
  0
SCALE
  5
190
102
{ACAD_REACTORS
330
10C
102
}
330
10C
100
AcDbScale
 70
     0
300
1:40
140
1.0
141
40.0
290
     0
  0
SCALE
  5
191
102
{ACAD_REACTORS
330
10C
102
}
330
10C
100
AcDbScale
 70
     0
300
1:50
140
1.0
141
50.0
290
     0
  0
SCALE
  5
192
102
{ACAD_REACTORS
330
10C
102
}
330
10C
100
AcDbScale
 70
     0
300
1:100
140
1.0
141
100.0
290
     0
  0
SCALE
  5
193
102
{ACAD_REACTORS
330
10C
102
}
330
10C
100
AcDbScale
 70
     0
300
2:1
140
2.0
141
1.0
290
     0
  0
SCALE
  5
194
102
{ACAD_REACTORS
330
10C
102
}
330
10C
100
AcDbScale
 70
     0
300
4:1
140
4.0
141
1.0
290
     0
  0
SCALE
  5
195
102
{ACAD_REACTORS
330
10C
102
}
330
10C
100
AcDbScale
 70
     0
300
8:1
140
8.0
141
1.0
290
     0
  0
SCALE
  5
196
102
{ACAD_REACTORS
330
10C
102
}
330
10C
100
AcDbScale
 70
     0
300
10:1
140
10.0
141
1.0
290
     0
  0
SCALE
  5
197
102
{ACAD_REACTORS
330
10C
102
}
330
10C
100
AcDbScale
 70
     0
300
100:1
140
100.0
141
1.0
290
     0
  0
SCALE
  5
198
102
{ACAD_REACTORS
330
10C
102
}
330
10C
100
AcDbScale
 70
     0
300
1/128" = 1'-0"
140
0.0078125
141
12.0
290
     0
  0
SCALE
  5
199
102
{ACAD_REACTORS
330
10C
102
}
330
10C
100
AcDbScale
 70
     0
300
1/64" = 1'-0"
140
0.015625
141
12.0
290
     0
  0
SCALE
  5
19A
102
{ACAD_REACTORS
330
10C
102
}
330
10C
100
AcDbScale
 70
     0
300
1/32" = 1'-0"
140
0.03125
141
12.0
290
     0
  0
SCALE
  5
19B
102
{ACAD_REACTORS
330
10C
102
}
330
10C
100
AcDbScale
 70
     0
300
1/16" = 1'-0"
140
0.0625
141
12.0
290
     0
  0
SCALE
  5
19C
102
{ACAD_REACTORS
330
10C
102
}
330
10C
100
AcDbScale
 70
     0
300
3/32" = 1'-0"
140
0.09375
141
12.0
290
     0
  0
SCALE
  5
19D
102
{ACAD_REACTORS
330
10C
102
}
330
10C
100
AcDbScale
 70
     0
300
1/8" = 1'-0"
140
0.125
141
12.0
290
     0
  0
SCALE
  5
19E
102
{ACAD_REACTORS
330
10C
102
}
330
10C
100
AcDbScale
 70
     0
300
3/16" = 1'-0"
140
0.1875
141
12.0
290
     0
  0
SCALE
  5
19F
102
{ACAD_REACTORS
330
10C
102
}
330
10C
100
AcDbScale
 70
     0
300
1/4" = 1'-0"
140
0.25
141
12.0
290
     0
  0
SCALE
  5
1A0
102
{ACAD_REACTORS
330
10C
102
}
330
10C
100
AcDbScale
 70
     0
300
3/8" = 1'-0"
140
0.375
141
12.0
290
     0
  0
SCALE
  5
1A1
102
{ACAD_REACTORS
330
10C
102
}
330
10C
100
AcDbScale
 70
     0
300
1/2" = 1'-0"
140
0.5
141
12.0
290
     0
  0
SCALE
  5
1A2
102
{ACAD_REACTORS
330
10C
102
}
330
10C
100
AcDbScale
 70
     0
300
3/4" = 1'-0"
140
0.75
141
12.0
290
     0
  0
SCALE
  5
1A3
102
{ACAD_REACTORS
330
10C
102
}
330
10C
100
AcDbScale
 70
     0
300
1" = 1'-0"
140
1.0
141
12.0
290
     0
  0
SCALE
  5
1A4
102
{ACAD_REACTORS
330
10C
102
}
330
10C
100
AcDbScale
 70
     0
300
1-1/2" = 1'-0"
140
1.5
141
12.0
290
     0
  0
SCALE
  5
1A5
102
{ACAD_REACTORS
330
10C
102
}
330
10C
100
AcDbScale
 70
     0
300
3" = 1'-0"
140
3.0
141
12.0
290
     0
  0
SCALE
  5
1A6
102
{ACAD_REACTORS
330
10C
102
}
330
10C
100
AcDbScale
 70
     0
300
6" = 1'-0"
140
6.0
141
12.0
290
     0
  0
SCALE
  5
1A7
102
{ACAD_REACTORS
330
10C
102
}
330
10C
100
AcDbScale
 70
     0
300
1'-0" = 1'-0"
140
12.0
141
12.0
290
     0
  0
TABLESTYLE
  5
7F
102
{ACAD_XDICTIONARY
360
162
102
}
102
{ACAD_REACTORS
330
7E
102
}
330
7E
100
AcDbTableStyle
  3
Standard
 70
     0
 71
     0
 40
1.5
 41
1.5
280
     0
281
     0
  7
Standard
140
4.5
170
     2
 62
     0
 63
     7
283
     0
274
    -2
284
     1
 64
     0
275
    -2
285
     1
 65
     0
276
    -2
286
     1
 66
     0
277
    -2
287
     1
 67
     0
278
    -2
288
     1
 68
     0
279
    -2
289
     1
 69
     0
  7
Standard
140
6.0
170
     5
 62
     0
 63
     7
283
     0
274
    -2
284
     1
 64
     0
275
    -2
285
     1
 65
     0
276
    -2
286
     1
 66
     0
277
    -2
287
     1
 67
     0
278
    -2
288
     1
 68
     0
279
    -2
289
     1
 69
     0
  7
Standard
140
4.5
170
     5
 62
     0
 63
     7
283
     0
274
    -2
284
     1
 64
     0
275
    -2
285
     1
 65
     0
276
    -2
286
     1
 66
     0
277
    -2
287
     1
 67
     0
278
    -2
288
     1
 68
     0
279
    -2
289
     1
 69
     0
  0
VISUALSTYLE
  5
F5
102
{ACAD_REACTORS
330
EF
102
}
330
EF
100
AcDbVisualStyle
  2
2dWireframe
 70
     4
 71
     0
 72
     2
 73
     1
 90
        0
 40
-0.6
 41
-30.0
 62
     5
 63
     7
 74
     1
 91
        4
 64
     7
 65
   257
 75
     1
175
     1
 42
1.0
 92
        0
 66
   257
 43
1.0
 76
     1
 77
     6
 78
     2
 67
     7
 79
     5
170
     0
171
     0
290
     0
174
     0
 93
        1
 44
0.0
173
     0
291
     0
 45
0.0
1001
ACAD
1000
AcDbSavedByObjectVersion
1070
     0
  0
VISUALSTYLE
  5
F7
102
{ACAD_REACTORS
330
EF
102
}
330
EF
100
AcDbVisualStyle
  2
3D Hidden
 70
     6
 71
     1
 72
     2
 73
     2
 90
        0
 40
-0.6
 41
-30.0
 62
     5
 63
     7
 74
     2
 91
        2
 64
     7
 65
   257
 75
     2
175
     1
 42
40.0
 92
        0
 66
   257
 43
1.0
 76
     1
 77
     6
 78
     2
 67
     7
 79
     3
170
     0
171
     0
290
     0
174
     0
 93
        1
 44
0.0
173
     0
291
     0
 45
0.0
1001
ACAD
1000
AcDbSavedByObjectVersion
1070
     0
  0
VISUALSTYLE
  5
F6
102
{ACAD_REACTORS
330
EF
102
}
330
EF
100
AcDbVisualStyle
  2
3dWireframe
 70
     5
 71
     0
 72
     2
 73
     1
 90
        0
 40
-0.6
 41
-30.0
 62
     5
 63
     7
 74
     1
 91
        4
 64
     7
 65
   257
 75
     1
175
     1
 42
1.0
 92
        0
 66
   257
 43
1.0
 76
     1
 77
     6
 78
     2
 67
     7
 79
     5
170
     0
171
     0
290
     0
174
     0
 93
        1
 44
0.0
173
     0
291
     0
 45
0.0
1001
ACAD
1000
AcDbSavedByObjectVersion
1070
     0
  0
VISUALSTYLE
  5
F4
102
{ACAD_REACTORS
330
EF
102
}
330
EF
100
AcDbVisualStyle
  2
Basic
 70
     7
 71
     1
 72
     0
 73
     1
 90
        0
 40
-0.6
 41
-30.0
 62
     5
 63
     7
 74
     0
 91
        4
 64
     7
 65
   257
 75
     1
175
     1
 42
1.0
 92
        8
 66
     7
 43
1.0
 76
     1
 77
     6
 78
     2
 67
     7
 79
     5
170
     0
171
     0
290
     0
174
     0
 93
        1
 44
0.0
173
     0
291
     1
 45
0.0
1001
ACAD
1000
AcDbSavedByObjectVersion
1070
     0
  0
VISUALSTYLE
  5
FB
102
{ACAD_REACTORS
330
EF
102
}
330
EF
100
AcDbVisualStyle
  2
Brighten
 70
    12
 71
     2
 72
     2
 73
     1
 90
        0
 40
-0.6
 41
-30.0
 62
     5
 63
     7
 74
     1
 91
        4
 64
     7
 65
   257
 75
     1
175
     1
 42
1.0
 92
        8
 66
     7
 43
1.0
 76
     1
 77
     6
 78
     2
 67
     7
 79
     5
170
     0
171
     0
290
     0
174
     0
 93
        1
 44
50.0
173
     0
291
     1
 45
0.0
1001
ACAD
1000
AcDbSavedByObjectVersion
1070
     0
  0
VISUALSTYLE
  5
FF
102
{ACAD_REACTORS
330
EF
102
}
330
EF
100
AcDbVisualStyle
  2
ColorChange
 70
    16
 71
     2
 72
     2
 73
     3
 90
        0
 40
-0.6
 41
-30.0
 62
     5
 63
     8
 74
     1
 91
        4
 64
     7
 65
   257
 75
     1
175
     1
 42
1.0
 92
        8
 66
     8
 43
1.0
 76
     1
 77
     6
 78
     2
 67
     7
 79
     5
170
     0
171
     0
290
     0
174
     0
 93
        1
 44
0.0
173
     0
291
     1
 45
0.0
1001
ACAD
1000
AcDbSavedByObjectVersion
1070
     0
  0
VISUALSTYLE
  5
F8
102
{ACAD_REACTORS
330
EF
102
}
330
EF
100
AcDbVisualStyle
  2
Conceptual
 70
     9
 71
     3
 72
     2
 73
     1
 90
        0
 40
-0.6
 41
-30.0
 62
     5
 63
     7
 74
     2
 91
        2
 64
     7
 65
   257
 75
     1
175
     1
 42
40.0
 92
        8
 66
     7
 43
1.0
 76
     1
 77
     6
 78
     2
 67
     7
 79
     3
170
     0
171
     0
290
     0
174
     0
 93
        1
 44
0.0
173
     0
291
     0
 45
0.0
1001
ACAD
1000
AcDbSavedByObjectVersion
1070
     0
  0
VISUALSTYLE
  5
FA
102
{ACAD_REACTORS
330
EF
102
}
330
EF
100
AcDbVisualStyle
  2
Dim
 70
    11
 71
     2
 72
     2
 73
     1
 90
        0
 40
-0.6
 41
-30.0
 62
     5
 63
     7
 74
     1
 91
        4
 64
     7
 65
   257
 75
     1
175
     1
 42
1.0
 92
        8
 66
     7
 43
1.0
 76
     1
 77
     6
 78
     2
 67
     7
 79
     5
170
     0
171
     0
290
     0
174
     0
 93
        1
 44
-50.0
173
     0
291
     1
 45
0.0
1001
ACAD
1000
AcDbSavedByObjectVersion
1070
     0
  0
VISUALSTYLE
  5
FE
102
{ACAD_REACTORS
330
EF
102
}
330
EF
100
AcDbVisualStyle
  2
Facepattern
 70
    15
 71
     2
 72
     2
 73
     1
 90
        0
 40
-0.6
 41
-30.0
 62
     5
 63
     7
 74
     1
 91
        4
 64
     7
 65
   257
 75
     1
175
     1
 42
1.0
 92
        8
 66
     7
 43
1.0
 76
     1
 77
     6
 78
     2
 67
     7
 79
     5
170
     0
171
     0
290
     0
174
     0
 93
        1
 44
0.0
173
     0
291
     1
 45
0.0
1001
ACAD
1000
AcDbSavedByObjectVersion
1070
     0
  0
VISUALSTYLE
  5
F0
102
{ACAD_REACTORS
330
EF
102
}
330
EF
100
AcDbVisualStyle
  2
Flat
 70
     0
 71
     2
 72
     1
 73
     1
 90
        2
 40
-0.6
 41
30.0
 62
     5
 63
     7
 74
     0
 91
        4
 64
     7
 65
   257
 75
     1
175
     1
 42
1.0
 92
        8
 66
     7
 43
1.0
 76
     1
 77
     6
 78
     2
 67
     7
 79
     5
170
     0
171
     0
290
     0
174
     0
 93
        1
 44
0.0
173
     0
291
     1
 45
0.0
1001
ACAD
1000
AcDbSavedByObjectVersion
1070
     0
  0
VISUALSTYLE
  5
F1
102
{ACAD_REACTORS
330
EF
102
}
330
EF
100
AcDbVisualStyle
  2
FlatWithEdges
 70
     1
 71
     2
 72
     1
 73
     1
 90
        2
 40
-0.6
 41
30.0
 62
     5
 63
     7
 74
     1
 91
        4
 64
     7
 65
   257
 75
     1
175
     1
 42
1.0
 92
        0
 66
   257
 43
1.0
 76
     1
 77
     6
 78
     2
 67
     7
 79
     5
170
     0
171
     0
290
     0
174
     0
 93
        1
 44
0.0
173
     0
291
     1
 45
0.0
1001
ACAD
1000
AcDbSavedByObjectVersion
1070
     0
  0
VISUALSTYLE
  5
F2
102
{ACAD_REACTORS
330
EF
102
}
330
EF
100
AcDbVisualStyle
  2
Gouraud
 70
     2
 71
     2
 72
     2
 73
     1
 90
        2
 40
-0.6
 41
30.0
 62
     5
 63
     7
 74
     0
 91
        4
 64
     7
 65
   257
 75
     1
175
     1
 42
1.0
 92
        0
 66
     7
 43
1.0
 76
     1
 77
     6
 78
     2
 67
     7
 79
     5
170
     0
171
     0
290
     0
174
     0
 93
        1
 44
0.0
173
     0
291
     1
 45
0.0
1001
ACAD
1000
AcDbSavedByObjectVersion
1070
     0
  0
VISUALSTYLE
  5
F3
102
{ACAD_REACTORS
330
EF
102
}
330
EF
100
AcDbVisualStyle
  2
GouraudWithEdges
 70
     3
 71
     2
 72
     2
 73
     1
 90
        2
 40
-0.6
 41
30.0
 62
     5
 63
     7
 74
     1
 91
        4
 64
     7
 65
   257
 75
     1
175
     1
 42
1.0
 92
        0
 66
   257
 43
1.0
 76
     1
 77
     6
 78
     2
 67
     7
 79
     5
170
     0
171
     0
290
     0
174
     0
 93
        1
 44
0.0
173
     0
291
     1
 45
0.0
1001
ACAD
1000
AcDbSavedByObjectVersion
1070
     0
  0
VISUALSTYLE
  5
FD
102
{ACAD_REACTORS
330
EF
102
}
330
EF
100
AcDbVisualStyle
  2
Linepattern
 70
    14
 71
     2
 72
     2
 73
     1
 90
        0
 40
-0.6
 41
-30.0
 62
     5
 63
     7
 74
     1
 91
        4
 64
     7
 65
   257
 75
     7
175
     7
 42
1.0
 92
        8
 66
     7
 43
1.0
 76
     1
 77
     6
 78
     2
 67
     7
 79
     5
170
     0
171
     0
290
     0
174
     0
 93
        1
 44
0.0
173
     0
291
     1
 45
0.0
1001
ACAD
1000
AcDbSavedByObjectVersion
1070
     0
  0
VISUALSTYLE
  5
F9
102
{ACAD_REACTORS
330
EF
102
}
330
EF
100
AcDbVisualStyle
  2
Realistic
 70
     8
 71
     2
 72
     2
 73
     1
 90
        0
 40
-0.6
 41
-30.0
 62
     5
 63
     7
 74
     1
 91
        0
 64
     7
 65
   257
 75
     1
175
     1
 42
1.0
 92
        8
 66
     8
 43
1.0
 76
     1
 77
     6
 78
     2
 67
     7
 79
     5
170
     0
171
     0
290
     0
174
     0
 93
       13
 44
0.0
173
     0
291
     0
 45
0.0
1001
ACAD
1000
AcDbSavedByObjectVersion
1070
     0
  0
VISUALSTYLE
  5
FC
102
{ACAD_REACTORS
330
EF
102
}
330
EF
100
AcDbVisualStyle
  2
Thicken
 70
    13
 71
     2
 72
     2
 73
     1
 90
        0
 40
-0.6
 41
-30.0
 62
     5
 63
     7
 74
     1
 91
        4
 64
     7
 65
   257
 75
     1
175
     1
 42
1.0
 92
       12
 66
     7
 43
1.0
 76
     1
 77
     6
 78
     2
 67
     7
 79
     5
170
     0
171
     0
290
     0
174
     0
 93
        1
 44
0.0
173
     0
291
     1
 45
0.0
1001
ACAD
1000
AcDbSavedByObjectVersion
1070
     0
  0
DICTIONARYVAR
  5
146
102
{ACAD_REACTORS
330
5E
102
}
330
5E
100
DictionaryVariables
280
     0
  1
1:1
  0
DICTIONARYVAR
  5
145
102
{ACAD_REACTORS
330
5E
102
}
330
5E
100
DictionaryVariables
280
     0
  1
STANDARD
  0
DICTIONARYVAR
  5
84
102
{ACAD_REACTORS
330
5E
102
}
330
5E
100
DictionaryVariables
280
     0
  1
STANDARD
  0
DICTIONARYVAR
  5
5F
102
{ACAD_REACTORS
330
5E
102
}
330
5E
100
DictionaryVariables
280
     0
  1
2
  0
DICTIONARYVAR
  5
63
102
{ACAD_REACTORS
330
5E
102
}
330
5E
100
DictionaryVariables
280
     0
  1
1
  0
DICTIONARYVAR
  5
66E
102
{ACAD_REACTORS
330
5E
102
}
330
5E
100
DictionaryVariables
280
     0
  1
0
  0
DICTIONARYVAR
  5
66C
102
{ACAD_REACTORS
330
5E
102
}
330
5E
100
DictionaryVariables
280
     0
  1
2
  0
DICTIONARYVAR
  5
66B
102
{ACAD_REACTORS
330
5E
102
}
330
5E
100
DictionaryVariables
280
     0
  1
1
  0
DICTIONARYVAR
  5
670
102
{ACAD_REACTORS
330
5E
102
}
330
5E
100
DictionaryVariables
280
     0
  1
80.000000
  0
DICTIONARYVAR
  5
66F
102
{ACAD_REACTORS
330
5E
102
}
330
5E
100
DictionaryVariables
280
     0
  1
5.000000
  0
DICTIONARYVAR
  5
66D
102
{ACAD_REACTORS
330
5E
102
}
330
5E
100
DictionaryVariables
280
     0
  1
127
  0
DICTIONARY
  5
676
330
D3
100
AcDbDictionary
280
     1
281
     1
  3
ACAD_XREC_ROUNDTRIP
360
677
  0
DICTIONARY
  5
678
330
D7
100
AcDbDictionary
280
     1
281
     1
  3
ACAD_XREC_ROUNDTRIP
360
679
  0
DICTIONARY
  5
673
330
22
100
AcDbDictionary
280
     1
281
     1
  3
ACAD_XREC_ROUNDTRIP
360
674
  0
DICTIONARY
  5
67C
330
ED
100
AcDbDictionary
280
     1
281
     1
  3
ACAD_XREC_ROUNDTRIP
360
67D
  0
DICTIONARY
  5
67A
330
EC
100
AcDbDictionary
280
     1
281
     1
  3
ACAD_XREC_ROUNDTRIP
360
67B
  0
DICTIONARY
  5
173
330
EE
100
AcDbDictionary
280
     1
281
     1
  3
ACAD_XREC_ROUNDTRIP
360
67E
  3
BUMPTILE
360
175
  3
DIFFUSETILE
360
174
  3
OPACITYTILE
360
176
  3
REFLECTIONTILE
360
177
  0
DICTIONARY
  5
162
330
7F
100
AcDbDictionary
280
     1
281
     1
  3
ACAD_ROUNDTRIP_2008_TABLESTYLE_CELLSTYLEMAP
360
671
  3
ACAD_XREC_ROUNDTRIP
360
675
  0
XRECORD
  5
677
102
{ACAD_REACTORS
330
676
102
}
330
676
100
AcDbXrecord
280
     1
102
SHADEPLOT
 70
     0
102
SHADEPLOTRESLEVEL
 70
     2
102
SHADEPLOTCUSTOMDPI
 70
   300
  0
XRECORD
  5
679
102
{ACAD_REACTORS
330
678
102
}
330
678
100
AcDbXrecord
280
     1
102
SHADEPLOT
 70
     0
102
SHADEPLOTRESLEVEL
 70
     2
102
SHADEPLOTCUSTOMDPI
 70
   300
  0
XRECORD
  5
674
102
{ACAD_REACTORS
330
673
102
}
330
673
100
AcDbXrecord
280
     1
102
SHADEPLOT
 70
     0
102
SHADEPLOTRESLEVEL
 70
     2
102
SHADEPLOTCUSTOMDPI
 70
   300
  0
XRECORD
  5
67D
102
{ACAD_REACTORS
330
67C
102
}
330
67C
100
AcDbXrecord
280
     1
102
MATERIAL
148
0.0
149
0.0
149
0.0
 93
        0
 94
       63
282
     0
 72
     1
 77
     1
171
     1
175
     1
179
     1
273
     0
  0
XRECORD
  5
67B
102
{ACAD_REACTORS
330
67A
102
}
330
67A
100
AcDbXrecord
280
     1
102
MATERIAL
148
0.0
149
0.0
149
0.0
 93
        0
 94
       63
282
     0
 72
     1
 77
     1
171
     1
175
     1
179
     1
273
     0
  0
XRECORD
  5
67E
102
{ACAD_REACTORS
330
173
102
}
330
173
100
AcDbXrecord
280
     1
102
MATERIAL
148
0.0
149
0.0
149
0.0
 93
        0
 94
       63
282
     0
 72
     1
 77
     1
171
     1
175
     1
179
     1
273
     0
  0
XRECORD
  5
175
102
{ACAD_REACTORS
330
173
102
}
330
173
100
AcDbXrecord
280
     1
270
     1
271
     1
  0
XRECORD
  5
174
102
{ACAD_REACTORS
330
173
102
}
330
173
100
AcDbXrecord
280
     1
270
     1
271
     1
  0
XRECORD
  5
176
102
{ACAD_REACTORS
330
173
102
}
330
173
100
AcDbXrecord
280
     1
270
     1
271
     1
  0
XRECORD
  5
177
102
{ACAD_REACTORS
330
173
102
}
330
173
100
AcDbXrecord
280
     1
270
     1
271
     1
  0
CELLSTYLEMAP
  5
671
102
{ACAD_REACTORS
330
162
102
}
330
162
100
AcDbCellStyleMap
 90
        3
300
CELLSTYLE
  1
TABLEFORMAT_BEGIN
 90
        5
170
     1
 91
        0
 92
    32768
 62
   257
 93
        1
300
CONTENTFORMAT
  1
CONTENTFORMAT_BEGIN
 90
        0
 91
        0
 92
      512
 93
        0
300

 40
0.0
140
1.0
 94
        5
 62
     0
340
11
144
6.0
309
CONTENTFORMAT_END
171
     1
301
MARGIN
  1
CELLMARGIN_BEGIN
 40
1.5
 40
1.5
 40
1.5
 40
1.5
 40
4.5
 40
4.5
309
CELLMARGIN_END
 94
        6
 95
        1
302
GRIDFORMAT
  1
GRIDFORMAT_BEGIN
 90
        0
 91
        1
 62
     0
 92
       -2
340
14
 93
        0
 40
1.125
309
GRIDFORMAT_END
 95
        2
302
GRIDFORMAT
  1
GRIDFORMAT_BEGIN
 90
        0
 91
        1
 62
     0
 92
       -2
340
14
 93
        0
 40
1.125
309
GRIDFORMAT_END
 95
        4
302
GRIDFORMAT
  1
GRIDFORMAT_BEGIN
 90
        0
 91
        1
 62
     0
 92
       -2
340
14
 93
        0
 40
1.125
309
GRIDFORMAT_END
 95
        8
302
GRIDFORMAT
  1
GRIDFORMAT_BEGIN
 90
        0
 91
        1
 62
     0
 92
       -2
340
14
 93
        0
 40
1.125
309
GRIDFORMAT_END
 95
       16
302
GRIDFORMAT
  1
GRIDFORMAT_BEGIN
 90
        0
 91
        1
 62
     0
 92
       -2
340
14
 93
        0
 40
1.125
309
GRIDFORMAT_END
 95
       32
302
GRIDFORMAT
  1
GRIDFORMAT_BEGIN
 90
        0
 91
        1
 62
     0
 92
       -2
340
14
 93
        0
 40
1.125
309
GRIDFORMAT_END
309
TABLEFORMAT_END
  1
CELLSTYLE_BEGIN
 90
        1
 91
        1
300
_TITLE
309
CELLSTYLE_END
300
CELLSTYLE
  1
TABLEFORMAT_BEGIN
 90
        5
170
     1
 91
        0
 92
        0
 62
   257
 93
        1
300
CONTENTFORMAT
  1
CONTENTFORMAT_BEGIN
 90
        0
 91
        0
 92
      512
 93
        0
300

 40
0.0
140
1.0
 94
        5
 62
     0
340
11
144
4.5
309
CONTENTFORMAT_END
171
     1
301
MARGIN
  1
CELLMARGIN_BEGIN
 40
1.5
 40
1.5
 40
1.5
 40
1.5
 40
4.5
 40
4.5
309
CELLMARGIN_END
 94
        6
 95
        1
302
GRIDFORMAT
  1
GRIDFORMAT_BEGIN
 90
        0
 91
        1
 62
     0
 92
       -2
340
14
 93
        0
 40
1.125
309
GRIDFORMAT_END
 95
        2
302
GRIDFORMAT
  1
GRIDFORMAT_BEGIN
 90
        0
 91
        1
 62
     0
 92
       -2
340
14
 93
        0
 40
1.125
309
GRIDFORMAT_END
 95
        4
302
GRIDFORMAT
  1
GRIDFORMAT_BEGIN
 90
        0
 91
        1
 62
     0
 92
       -2
340
14
 93
        0
 40
1.125
309
GRIDFORMAT_END
 95
        8
302
GRIDFORMAT
  1
GRIDFORMAT_BEGIN
 90
        0
 91
        1
 62
     0
 92
       -2
340
14
 93
        0
 40
1.125
309
GRIDFORMAT_END
 95
       16
302
GRIDFORMAT
  1
GRIDFORMAT_BEGIN
 90
        0
 91
        1
 62
     0
 92
       -2
340
14
 93
        0
 40
1.125
309
GRIDFORMAT_END
 95
       32
302
GRIDFORMAT
  1
GRIDFORMAT_BEGIN
 90
        0
 91
        1
 62
     0
 92
       -2
340
14
 93
        0
 40
1.125
309
GRIDFORMAT_END
309
TABLEFORMAT_END
  1
CELLSTYLE_BEGIN
 90
        2
 91
        1
300
_HEADER
309
CELLSTYLE_END
300
CELLSTYLE
  1
TABLEFORMAT_BEGIN
 90
        5
170
     1
 91
        0
 92
        0
 62
   257
 93
        1
300
CONTENTFORMAT
  1
CONTENTFORMAT_BEGIN
 90
        0
 91
        0
 92
      512
 93
        0
300

 40
0.0
140
1.0
 94
        2
 62
     0
340
11
144
4.5
309
CONTENTFORMAT_END
171
     1
301
MARGIN
  1
CELLMARGIN_BEGIN
 40
1.5
 40
1.5
 40
1.5
 40
1.5
 40
4.5
 40
4.5
309
CELLMARGIN_END
 94
        6
 95
        1
302
GRIDFORMAT
  1
GRIDFORMAT_BEGIN
 90
        0
 91
        1
 62
     0
 92
       -2
340
14
 93
        0
 40
1.125
309
GRIDFORMAT_END
 95
        2
302
GRIDFORMAT
  1
GRIDFORMAT_BEGIN
 90
        0
 91
        1
 62
     0
 92
       -2
340
14
 93
        0
 40
1.125
309
GRIDFORMAT_END
 95
        4
302
GRIDFORMAT
  1
GRIDFORMAT_BEGIN
 90
        0
 91
        1
 62
     0
 92
       -2
340
14
 93
        0
 40
1.125
309
GRIDFORMAT_END
 95
        8
302
GRIDFORMAT
  1
GRIDFORMAT_BEGIN
 90
        0
 91
        1
 62
     0
 92
       -2
340
14
 93
        0
 40
1.125
309
GRIDFORMAT_END
 95
       16
302
GRIDFORMAT
  1
GRIDFORMAT_BEGIN
 90
        0
 91
        1
 62
     0
 92
       -2
340
14
 93
        0
 40
1.125
309
GRIDFORMAT_END
 95
       32
302
GRIDFORMAT
  1
GRIDFORMAT_BEGIN
 90
        0
 91
        1
 62
     0
 92
       -2
340
14
 93
        0
 40
1.125
309
GRIDFORMAT_END
309
TABLEFORMAT_END
  1
CELLSTYLE_BEGIN
 90
        3
 91
        2
300
_DATA
309
CELLSTYLE_END
  0
XRECORD
  5
675
102
{ACAD_REACTORS
330
162
102
}
330
162
100
AcDbXrecord
280
     1
102
ACAD_ROUNDTRIP_PRE2007_TABLESTYLE
 90
      512
 91
        0
  1

 92
      512
 93
        0
  2

 94
      512
 95
        0
  3

  0
ENDSEC
  0
EOF
