  0
SECTION
  2
HEADER
  9
$ACADVER
  1
AC1015
  9
$ACADMAINTVER
 70
    20
  9
$DWGCODEPAGE
  3
ANSI_1254
  9
$INSBASE
 10
0.0
 20
0.0
 30
0.0
  9
$EXTMIN
 10
2015.296365085523
 20
827.0527547208185
 30
0.0
  9
$EXTMAX
 10
2190.555561472137
 20
921.2516866360275
 30
0.0
  9
$LIMMIN
 10
0.0
 20
0.0
  9
$LIMMAX
 10
420.0
 20
297.0
  9
$ORTHOMODE
 70
     0
  9
$REGENMODE
 70
     1
  9
$FILLMODE
 70
     1
  9
$QTEXTMODE
 70
     0
  9
$MIRRTEXT
 70
     0
  9
$LTSCALE
 40
1.0
  9
$ATTMODE
 70
     1
  9
$TEXTSIZE
 40
2.5
  9
$TRACEWID
 40
1.0
  9
$TEXTSTYLE
  7
Standard
  9
$CLAYER
  8
0
  9
$CELTYPE
  6
ByLayer
  9
$CECOLOR
 62
   256
  9
$CELTSCALE
 40
1.0
  9
$DISPSILH
 70
     0
  9
$DIMSCALE
 40
1.0
  9
$DIMASZ
 40
2.5
  9
$DIMEXO
 40
0.625
  9
$DIMDLI
 40
3.75
  9
$DIMRND
 40
0.0
  9
$DIMDLE
 40
0.0
  9
$DIMEXE
 40
1.25
  9
$DIMTP
 40
0.0
  9
$DIMTM
 40
0.0
  9
$DIMTXT
 40
2.5
  9
$DIMCEN
 40
2.5
  9
$DIMTSZ
 40
0.0
  9
$DIMTOL
 70
     0
  9
$DIMLIM
 70
     0
  9
$DIMTIH
 70
     0
  9
$DIMTOH
 70
     0
  9
$DIMSE1
 70
     0
  9
$DIMSE2
 70
     0
  9
$DIMTAD
 70
     1
  9
$DIMZIN
 70
     8
  9
$DIMBLK
  1

  9
$DIMASO
 70
     1
  9
$DIMSHO
 70
     1
  9
$DIMPOST
  1

  9
$DIMAPOST
  1

  9
$DIMALT
 70
     0
  9
$DIMALTD
 70
     3
  9
$DIMALTF
 40
0.03937007874016
  9
$DIMLFAC
 40
1.0
  9
$DIMTOFL
 70
     1
  9
$DIMTVP
 40
0.0
  9
$DIMTIX
 70
     0
  9
$DIMSOXD
 70
     0
  9
$DIMSAH
 70
     0
  9
$DIMBLK1
  1

  9
$DIMBLK2
  1

  9
$DIMSTYLE
  2
ISO-25
  9
$DIMCLRD
 70
     0
  9
$DIMCLRE
 70
     0
  9
$DIMCLRT
 70
     0
  9
$DIMTFAC
 40
1.0
  9
$DIMGAP
 40
0.625
  9
$DIMJUST
 70
     0
  9
$DIMSD1
 70
     0
  9
$DIMSD2
 70
     0
  9
$DIMTOLJ
 70
     0
  9
$DIMTZIN
 70
     8
  9
$DIMALTZ
 70
     0
  9
$DIMALTTZ
 70
     0
  9
$DIMUPT
 70
     0
  9
$DIMDEC
 70
     2
  9
$DIMTDEC
 70
     2
  9
$DIMALTU
 70
     2
  9
$DIMALTTD
 70
     3
  9
$DIMTXSTY
  7
Standard
  9
$DIMAUNIT
 70
     0
  9
$DIMADEC
 70
     0
  9
$DIMALTRND
 40
0.0
  9
$DIMAZIN
 70
     0
  9
$DIMDSEP
 70
    44
  9
$DIMATFIT
 70
     3
  9
$DIMFRAC
 70
     0
  9
$DIMLDRBLK
  1

  9
$DIMLUNIT
 70
     2
  9
$DIMLWD
 70
    -2
  9
$DIMLWE
 70
    -2
  9
$DIMTMOVE
 70
     0
  9
$LUNITS
 70
     2
  9
$LUPREC
 70
     4
  9
$SKETCHINC
 40
1.0
  9
$FILLETRAD
 40
0.0
  9
$AUNITS
 70
     0
  9
$AUPREC
 70
     0
  9
$MENU
  1
.
  9
$ELEVATION
 40
0.0
  9
$PELEVATION
 40
0.0
  9
$THICKNESS
 40
0.0
  9
$LIMCHECK
 70
     0
  9
$CHAMFERA
 40
0.0
  9
$CHAMFERB
 40
0.0
  9
$CHAMFERC
 40
0.0
  9
$CHAMFERD
 40
0.0
  9
$SKPOLY
 70
     0
  9
$TDCREATE
 40
2459083.612897558
  9
$TDUCREATE
 40
2459083.487897558
  9
$TDUPDATE
 40
2459083.678274213
  9
$TDUUPDATE
 40
2459083.553274213
  9
$TDINDWG
 40
0.0002455671
  9
$TDUSRTIMER
 40
0.0002455671
  9
$USRTIMER
 70
     1
  9
$ANGBASE
 50
0.0
  9
$ANGDIR
 70
     0
  9
$PDMODE
 70
     0
  9
$PDSIZE
 40
0.0
  9
$PLINEWID
 40
0.0
  9
$SPLFRAME
 70
     0
  9
$SPLINETYPE
 70
     6
  9
$SPLINESEGS
 70
     8
  9
$HANDSEED
  5
8A8
  9
$SURFTAB1
 70
     6
  9
$SURFTAB2
 70
     6
  9
$SURFTYPE
 70
     6
  9
$SURFU
 70
     6
  9
$SURFV
 70
     6
  9
$UCSBASE
  2

  9
$UCSNAME
  2

  9
$UCSORG
 10
0.0
 20
0.0
 30
0.0
  9
$UCSXDIR
 10
1.0
 20
0.0
 30
0.0
  9
$UCSYDIR
 10
0.0
 20
1.0
 30
0.0
  9
$UCSORTHOREF
  2

  9
$UCSORTHOVIEW
 70
     0
  9
$UCSORGTOP
 10
0.0
 20
0.0
 30
0.0
  9
$UCSORGBOTTOM
 10
0.0
 20
0.0
 30
0.0
  9
$UCSORGLEFT
 10
0.0
 20
0.0
 30
0.0
  9
$UCSORGRIGHT
 10
0.0
 20
0.0
 30
0.0
  9
$UCSORGFRONT
 10
0.0
 20
0.0
 30
0.0
  9
$UCSORGBACK
 10
0.0
 20
0.0
 30
0.0
  9
$PUCSBASE
  2

  9
$PUCSNAME
  2

  9
$PUCSORG
 10
0.0
 20
0.0
 30
0.0
  9
$PUCSXDIR
 10
1.0
 20
0.0
 30
0.0
  9
$PUCSYDIR
 10
0.0
 20
1.0
 30
0.0
  9
$PUCSORTHOREF
  2

  9
$PUCSORTHOVIEW
 70
     0
  9
$PUCSORGTOP
 10
0.0
 20
0.0
 30
0.0
  9
$PUCSORGBOTTOM
 10
0.0
 20
0.0
 30
0.0
  9
$PUCSORGLEFT
 10
0.0
 20
0.0
 30
0.0
  9
$PUCSORGRIGHT
 10
0.0
 20
0.0
 30
0.0
  9
$PUCSORGFRONT
 10
0.0
 20
0.0
 30
0.0
  9
$PUCSORGBACK
 10
0.0
 20
0.0
 30
0.0
  9
$USERI1
 70
     0
  9
$USERI2
 70
     0
  9
$USERI3
 70
     0
  9
$USERI4
 70
     0
  9
$USERI5
 70
     0
  9
$USERR1
 40
0.0
  9
$USERR2
 40
0.0
  9
$USERR3
 40
0.0
  9
$USERR4
 40
0.0
  9
$USERR5
 40
0.0
  9
$WORLDVIEW
 70
     1
  9
$SHADEDGE
 70
     3
  9
$SHADEDIF
 70
    70
  9
$TILEMODE
 70
     1
  9
$MAXACTVP
 70
    64
  9
$PINSBASE
 10
0.0
 20
0.0
 30
0.0
  9
$PLIMCHECK
 70
     0
  9
$PEXTMIN
 10
0.0
 20
0.0
 30
0.0
  9
$PEXTMAX
 10
0.0
 20
0.0
 30
0.0
  9
$PLIMMIN
 10
0.0
 20
0.0
  9
$PLIMMAX
 10
12.0
 20
9.0
  9
$UNITMODE
 70
     0
  9
$VISRETAIN
 70
     1
  9
$PLINEGEN
 70
     0
  9
$PSLTSCALE
 70
     1
  9
$TREEDEPTH
 70
  3020
  9
$CMLSTYLE
  2
Standard
  9
$CMLJUST
 70
     0
  9
$CMLSCALE
 40
20.0
  9
$PROXYGRAPHICS
 70
     1
  9
$MEASUREMENT
 70
     1
  9
$CELWEIGHT
370
    -1
  9
$ENDCAPS
280
     0
  9
$JOINSTYLE
280
     0
  9
$LWDISPLAY
290
     0
  9
$INSUNITS
 70
     4
  9
$HYPERLINKBASE
  1

  9
$STYLESHEET
  1

  9
$XEDIT
290
     1
  9
$CEPSNTYPE
380
     0
  9
$PSTYLEMODE
290
     1
  9
$FINGERPRINTGUID
  2
{792F2AFB-4A75-435A-8A38-8BE2EABDD509}
  9
$VERSIONGUID
  2
{64200829-BD62-4902-903A-F3C701CA0884}
  9
$EXTNAMES
290
     1
  9
$PSVPSCALE
 40
0.0
  9
$OLESTARTUP
290
     0
  0
ENDSEC
  0
SECTION
  2
CLASSES
  0
CLASS
  1
ACDBDICTIONARYWDFLT
  2
AcDbDictionaryWithDefault
  3
ObjectDBX Classes
 90
        0
280
     0
281
     0
  0
CLASS
  1
ACDBPLACEHOLDER
  2
AcDbPlaceHolder
  3
ObjectDBX Classes
 90
        0
280
     0
281
     0
  0
CLASS
  1
LAYOUT
  2
AcDbLayout
  3
ObjectDBX Classes
 90
        0
280
     0
281
     0
  0
CLASS
  1
DICTIONARYVAR
  2
AcDbDictionaryVar
  3
ObjectDBX Classes
 90
        0
280
     0
281
     0
  0
CLASS
  1
TABLESTYLE
  2
AcDbTableStyle
  3
ObjectDBX Classes
 90
     4095
280
     0
281
     0
  0
CLASS
  1
MATERIAL
  2
AcDbMaterial
  3
ObjectDBX Classes
 90
     1153
280
     0
281
     0
  0
CLASS
  1
VISUALSTYLE
  2
AcDbVisualStyle
  3
ObjectDBX Classes
 90
     4095
280
     0
281
     0
  0
CLASS
  1
SCALE
  2
AcDbScale
  3
ObjectDBX Classes
 90
     1153
280
     0
281
     0
  0
CLASS
  1
MLEADERSTYLE
  2
AcDbMLeaderStyle
  3
ACDB_MLEADERSTYLE_CLASS
 90
     4095
280
     0
281
     0
  0
CLASS
  1
CELLSTYLEMAP
  2
AcDbCellStyleMap
  3
ObjectDBX Classes
 90
     1152
280
     0
281
     0
  0
ENDSEC
  0
SECTION
  2
TABLES
  0
TABLE
  2
VPORT
  5
8
330
0
100
AcDbSymbolTable
 70
     1
  0
VPORT
  5
EA
330
8
100
AcDbSymbolTableRecord
100
AcDbViewportTableRecord
  2
*Active
 70
     0
 10
0.0
 20
0.0
 11
1.0
 21
1.0
 12
2102.881201935165
 22
879.5425901552894
 13
0.0
 23
0.0
 14
10.0
 24
10.0
 15
10.0
 25
10.0
 16
0.0
 26
0.0
 36
1.0
 17
0.0
 27
0.0
 37
0.0
 40
105.7816771781697
 41
1.903110047846889
 42
50.0
 43
0.0
 44
0.0
 50
0.0
 51
0.0
 71
     0
 72
  1000
 73
     1
 74
     3
 75
     0
 76
     0
 77
     0
 78
     0
281
     0
 65
     1
110
0.0
120
0.0
130
0.0
111
1.0
121
0.0
131
0.0
112
0.0
122
1.0
132
0.0
 79
     0
146
0.0
  0
ENDTAB
  0
TABLE
  2
LTYPE
  5
5
330
0
100
AcDbSymbolTable
 70
     1
  0
LTYPE
  5
14
330
5
100
AcDbSymbolTableRecord
100
AcDbLinetypeTableRecord
  2
ByBlock
 70
     0
  3

 72
    65
 73
     0
 40
0.0
  0
LTYPE
  5
15
330
5
100
AcDbSymbolTableRecord
100
AcDbLinetypeTableRecord
  2
ByLayer
 70
     0
  3

 72
    65
 73
     0
 40
0.0
  0
LTYPE
  5
16
330
5
100
AcDbSymbolTableRecord
100
AcDbLinetypeTableRecord
  2
Continuous
 70
     0
  3
Solid line
 72
    65
 73
     0
 40
0.0
  0
ENDTAB
  0
TABLE
  2
LAYER
  5
2
330
0
100
AcDbSymbolTable
 70
     1
  0
LAYER
  5
10
102
{ACAD_XDICTIONARY
360
13C
102
}
330
2
100
AcDbSymbolTableRecord
100
AcDbLayerTableRecord
  2
0
 70
     0
 62
     7
  6
Continuous
370
    -3
390
F
  0
ENDTAB
  0
TABLE
  2
STYLE
  5
3
330
0
100
AcDbSymbolTable
 70
     2
  0
STYLE
  5
11
330
3
100
AcDbSymbolTableRecord
100
AcDbTextStyleTableRecord
  2
Standard
 70
     0
 40
0.0
 41
1.0
 50
0.0
 71
     0
 42
2.5
  3
txt
  4

  0
STYLE
  5
132
330
3
100
AcDbSymbolTableRecord
100
AcDbTextStyleTableRecord
  2
Annotative
 70
     0
 40
0.0
 41
1.0
 50
0.0
 71
     0
 42
2.5
  3
txt.shx
  4

1001
AcadAnnotative
1000
AnnotativeData
1002
{
1070
     1
1070
     1
1002
}
  0
ENDTAB
  0
TABLE
  2
VIEW
  5
6
330
0
100
AcDbSymbolTable
 70
     0
  0
ENDTAB
  0
TABLE
  2
UCS
  5
7
330
0
100
AcDbSymbolTable
 70
     0
  0
ENDTAB
  0
TABLE
  2
APPID
  5
9
330
0
100
AcDbSymbolTable
 70
     7
  0
APPID
  5
12
330
9
100
AcDbSymbolTableRecord
100
AcDbRegAppTableRecord
  2
ACAD
 70
     0
  0
APPID
  5
9E
330
9
100
AcDbSymbolTableRecord
100
AcDbRegAppTableRecord
  2
ACAD_PSEXT
 70
     0
  0
APPID
  5
133
330
9
100
AcDbSymbolTableRecord
100
AcDbRegAppTableRecord
  2
AcadAnnoPO
 70
     0
  0
APPID
  5
134
330
9
100
AcDbSymbolTableRecord
100
AcDbRegAppTableRecord
  2
AcadAnnotative
 70
     0
  0
APPID
  5
135
330
9
100
AcDbSymbolTableRecord
100
AcDbRegAppTableRecord
  2
ACAD_DSTYLE_DIMJAG
 70
     0
  0
APPID
  5
136
330
9
100
AcDbSymbolTableRecord
100
AcDbRegAppTableRecord
  2
ACAD_DSTYLE_DIMTALN
 70
     0
  0
APPID
  5
165
330
9
100
AcDbSymbolTableRecord
100
AcDbRegAppTableRecord
  2
ACAD_MLEADERVER
 70
     0
  0
ENDTAB
  0
TABLE
  2
DIMSTYLE
  5
A
330
0
100
AcDbSymbolTable
 70
     2
100
AcDbDimStyleTable
 71
     2
340
27
340
137
  0
DIMSTYLE
105
27
330
A
100
AcDbSymbolTableRecord
100
AcDbDimStyleTableRecord
  2
ISO-25
 70
     0
 41
2.5
 42
0.625
 43
3.75
 44
1.25
 73
     0
 74
     0
 77
     1
 78
     8
140
2.5
141
2.5
143
0.03937007874016
147
0.625
171
     3
172
     1
271
     2
272
     2
274
     3
278
    44
283
     0
284
     8
340
11
  0
DIMSTYLE
105
137
330
A
100
AcDbSymbolTableRecord
100
AcDbDimStyleTableRecord
  2
Annotative
 70
     0
 40
0.0
 41
2.5
 42
0.625
 43
3.75
 44
1.25
 73
     0
 74
     0
 77
     1
 78
     8
140
2.5
141
2.5
143
0.03937007874016
147
0.625
171
     3
172
     1
271
     2
272
     2
274
     3
278
    44
283
     0
284
     8
340
11
1001
AcadAnnotative
1000
AnnotativeData
1002
{
1070
     1
1070
     1
1002
}
1001
ACAD_DSTYLE_DIMJAG
1070
   388
1040
1.5
1001
ACAD_DSTYLE_DIMTALN
1070
   392
1070
     0
  0
ENDTAB
  0
TABLE
  2
BLOCK_RECORD
  5
1
330
0
100
AcDbSymbolTable
 70
    13
  0
BLOCK_RECORD
  5
1F
330
1
100
AcDbSymbolTableRecord
100
AcDbBlockTableRecord
  2
*Model_Space
340
22
  0
BLOCK_RECORD
  5
D2
330
1
100
AcDbSymbolTableRecord
100
AcDbBlockTableRecord
  2
*Paper_Space
340
D3
  0
BLOCK_RECORD
  5
D6
330
1
100
AcDbSymbolTableRecord
100
AcDbBlockTableRecord
  2
*Paper_Space0
340
D7
  0
BLOCK_RECORD
  5
1AD
330
1
100
AcDbSymbolTableRecord
100
AcDbBlockTableRecord
  2
SW_CENTERMARKSYMBOL_0
340
0
102
{BLKREFS
331
848
102
}
  0
BLOCK_RECORD
  5
1B8
330
1
100
AcDbSymbolTableRecord
100
AcDbBlockTableRecord
  2
SW_CENTERMARKSYMBOL_1
340
0
102
{BLKREFS
331
849
102
}
  0
BLOCK_RECORD
  5
1C3
330
1
100
AcDbSymbolTableRecord
100
AcDbBlockTableRecord
  2
SW_CENTERMARKSYMBOL_2
340
0
102
{BLKREFS
331
84A
102
}
  0
BLOCK_RECORD
  5
1CE
330
1
100
AcDbSymbolTableRecord
100
AcDbBlockTableRecord
  2
SW_CENTERMARKSYMBOL_3
340
0
102
{BLKREFS
331
84B
102
}
  0
BLOCK_RECORD
  5
1D9
330
1
100
AcDbSymbolTableRecord
100
AcDbBlockTableRecord
  2
SW_CENTERMARKSYMBOL_4
340
0
102
{BLKREFS
331
84C
102
}
  0
BLOCK_RECORD
  5
1E4
330
1
100
AcDbSymbolTableRecord
100
AcDbBlockTableRecord
  2
SW_CENTERMARKSYMBOL_5
340
0
102
{BLKREFS
331
84D
102
}
  0
BLOCK_RECORD
  5
1EF
330
1
100
AcDbSymbolTableRecord
100
AcDbBlockTableRecord
  2
SW_CENTERMARKSYMBOL_6
340
0
102
{BLKREFS
331
84E
102
}
  0
BLOCK_RECORD
  5
1FA
330
1
100
AcDbSymbolTableRecord
100
AcDbBlockTableRecord
  2
SW_CENTERMARKSYMBOL_7
340
0
102
{BLKREFS
331
84F
102
}
  0
BLOCK_RECORD
  5
657
330
1
100
AcDbSymbolTableRecord
100
AcDbBlockTableRecord
  2
1
340
0
310
2800000020000000200000000100080000000000000400000000000000000000000000000000000000000000000080000080000000808000800000008000800080800000C0C0C000C0DCC000F0CAA6000020400000206000002080000020A0000020C0000020E00000400000004020000040400000406000004080000040A0
310
000040C0000040E00000600000006020000060400000606000006080000060A0000060C0000060E00000800000008020000080400000806000008080000080A0000080C0000080E00000A0000000A0200000A0400000A0600000A0800000A0A00000A0C00000A0E00000C0000000C0200000C0400000C0600000C0800000C0
310
A00000C0C00000C0E00000E0000000E0200000E0400000E0600000E0800000E0A00000E0C00000E0E00040000000400020004000400040006000400080004000A0004000C0004000E00040200000402020004020400040206000402080004020A0004020C0004020E000404000004040200040404000404060004040800040
310
40A0004040C0004040E00040600000406020004060400040606000406080004060A0004060C0004060E00040800000408020004080400040806000408080004080A0004080C0004080E00040A0000040A0200040A0400040A0600040A0800040A0A00040A0C00040A0E00040C0000040C0200040C0400040C0600040C08000
310
40C0A00040C0C00040C0E00040E0000040E0200040E0400040E0600040E0800040E0A00040E0C00040E0E00080000000800020008000400080006000800080008000A0008000C0008000E00080200000802020008020400080206000802080008020A0008020C0008020E00080400000804020008040400080406000804080
310
008040A0008040C0008040E00080600000806020008060400080606000806080008060A0008060C0008060E00080800000808020008080400080806000808080008080A0008080C0008080E00080A0000080A0200080A0400080A0600080A0800080A0A00080A0C00080A0E00080C0000080C0200080C0400080C0600080C0
310
800080C0A00080C0C00080C0E00080E0000080E0200080E0400080E0600080E0800080E0A00080E0C00080E0E000C0000000C0002000C0004000C0006000C0008000C000A000C000C000C000E000C0200000C0202000C0204000C0206000C0208000C020A000C020C000C020E000C0400000C0402000C0404000C0406000C0
310
408000C040A000C040C000C040E000C0600000C0602000C0604000C0606000C0608000C060A000C060C000C060E000C0800000C0802000C0804000C0806000C0808000C080A000C080C000C080E000C0A00000C0A02000C0A04000C0A06000C0A08000C0A0A000C0A0C000C0A0E000C0C00000C0C02000C0C04000C0C06000
310
C0C08000C0C0A000F0FBFF00A4A0A000808080000000FF0000FF000000FFFF00FF000000FF00FF00FFFF0000FFFFFF0000000000000000000000000000000000000000000000000000000000000000000000000000000000000000000000000000000000000000000000000000000000000000000000000000000000000000
310
0000000000000000000000000000000000000000000000000000000000000000000000000000000000000000000000000000FFFFFFFFFFFFFFFFFFFFFFFFFFFFFFFFFFFFFFFFFFFFFFFFFFFFFFFFFFFF0000FF00000000000000000000000000000000000000000000000000000000FF0000FF000000000000000000000000
310
00000000000000000000000000000000FF0000FF00000000000000000000000000000000000000000000000000000000FF0000FF00000000000000000000000000000000000000000000000000000000FF0000FF00000000000000000000000000000000000000000000000000000000FF0000FF0000000000000000000000
310
0000000000000000000000000000000000FF0000FF00000000000000000000000000000000000000000000000000000000FF0000FF00000000000000000000000000000000000000000000000000000000FF0000FF00000000000000000000000000000000000000000000000000000000FF0000FF00000000000000000000
310
000000000000000000000000000000000000FF0000FF00000000000000000000000000000000000000000000000000000000FF0000FF00000000000000000000000000000000000000000000000000000000FF0000FF00000000000000000000000000000000000000000000000000000000FF0000FF000000000000000000
310
00000000000000000000000000000000000000FF0000FF00000000000000000000000000000000000000000000000000000000FF0000FF00000000000000000000000000000000000000000000000000000000FF0000FF00000000000000000000000000000000000000000000000000000000FF0000FF0000000000000000
310
0000000000000000000000000000000000000000FF0000FF00000000000000000000000000000000000000000000000000000000FF0000FF00000000000000000000000000000000000000000000000000000000FF0000FF00000000000000000000000000000000000000000000000000000000FF0000FF00000000000000
310
000000000000000000000000000000000000000000FF0000FFFFFFFFFFFFFFFFFFFFFFFFFFFFFFFFFFFFFFFFFFFFFFFFFFFFFFFFFFFF00000000000000000000000000000000000000000000000000000000000000000000000000000000000000000000000000000000000000000000000000000000000000000000000000
310
0000000000000000000000000000000000000000000000000000000000000000000000000000000000000000000000000000000000000000
102
{BLKREFS
331
664
102
}
1001
ACAD
1000
DesignCenter Data
1002
{
1070
     1
1070
     4
1002
}
  0
BLOCK_RECORD
  5
665
330
1
100
AcDbSymbolTableRecord
100
AcDbBlockTableRecord
  2
2
340
0
310
2800000020000000200000000100080000000000000400000000000000000000000000000000000000000000000080000080000000808000800000008000800080800000C0C0C000C0DCC000F0CAA6000020400000206000002080000020A0000020C0000020E00000400000004020000040400000406000004080000040A0
310
000040C0000040E00000600000006020000060400000606000006080000060A0000060C0000060E00000800000008020000080400000806000008080000080A0000080C0000080E00000A0000000A0200000A0400000A0600000A0800000A0A00000A0C00000A0E00000C0000000C0200000C0400000C0600000C0800000C0
310
A00000C0C00000C0E00000E0000000E0200000E0400000E0600000E0800000E0A00000E0C00000E0E00040000000400020004000400040006000400080004000A0004000C0004000E00040200000402020004020400040206000402080004020A0004020C0004020E000404000004040200040404000404060004040800040
310
40A0004040C0004040E00040600000406020004060400040606000406080004060A0004060C0004060E00040800000408020004080400040806000408080004080A0004080C0004080E00040A0000040A0200040A0400040A0600040A0800040A0A00040A0C00040A0E00040C0000040C0200040C0400040C0600040C08000
310
40C0A00040C0C00040C0E00040E0000040E0200040E0400040E0600040E0800040E0A00040E0C00040E0E00080000000800020008000400080006000800080008000A0008000C0008000E00080200000802020008020400080206000802080008020A0008020C0008020E00080400000804020008040400080406000804080
310
008040A0008040C0008040E00080600000806020008060400080606000806080008060A0008060C0008060E00080800000808020008080400080806000808080008080A0008080C0008080E00080A0000080A0200080A0400080A0600080A0800080A0A00080A0C00080A0E00080C0000080C0200080C0400080C0600080C0
310
800080C0A00080C0C00080C0E00080E0000080E0200080E0400080E0600080E0800080E0A00080E0C00080E0E000C0000000C0002000C0004000C0006000C0008000C000A000C000C000C000E000C0200000C0202000C0204000C0206000C0208000C020A000C020C000C020E000C0400000C0402000C0404000C0406000C0
310
408000C040A000C040C000C040E000C0600000C0602000C0604000C0606000C0608000C060A000C060C000C060E000C0800000C0802000C0804000C0806000C0808000C080A000C080C000C080E000C0A00000C0A02000C0A04000C0A06000C0A08000C0A0A000C0A0C000C0A0E000C0C00000C0C02000C0C04000C0C06000
310
C0C08000C0C0A000F0FBFF00A4A0A000808080000000FF0000FF000000FFFF00FF000000FF00FF00FFFF0000FFFFFF0000000000000000000000000000000000000000000000000000000000000000000000000000000000000000000000000000000000000000000000000000000000000000000000000000000000000000
310
00000000000000000000000000000000000000000000000000000000000000000000000000000000000000000000000000000000000000000000000000000000000000000000000000000000000000000000000000000000000000000000000000000000000000000000000000000000000000000000000000000000000000
310
0000000000000000000000000000000000000000000000000000000000000000000000000000000000000000000000000000000000000000000000000000000000000000000000000000000000000000000000FFFFFFFFFFFFFFFFFFFFFFFFFFFFFFFFFFFFFFFFFFFFFFFFFFFFFFFFFFFF0000FF0000000000000000000000
310
0000000000000000000000000000000000FF0000FF00000000000000000000000000000000000000000000000000000000FF0000FF00000000000000000000000000000000000000000000000000000000FF0000FF00000000000000000000000000000000000000000000000000000000FF0000FF0000FFFFFFFFFF000000
310
00FFFFFFFFFFFF00000000FFFFFFFFFF0000FF0000FF0000FFFF0000FF00000000FFFF0000FFFF00000000FF0000FFFF0000FF0000FF0000FFFFFFFFFF00000000FFFFFFFFFFFF00000000FFFFFFFFFF0000FF0000FF0000FFFFFFFFFF00000000FFFFFFFFFFFF00000000FFFFFFFFFF0000FF0000FF000000000000000000
310
00000000000000000000000000000000000000FF0000FF00000000000000000000000000000000000000000000000000000000FF0000FF00000000000000000000000000000000000000000000000000000000FF0000FF00000000000000000000000000000000000000000000000000000000FF0000FFFFFFFFFFFFFFFFFF
310
FFFFFFFFFFFFFFFFFFFFFFFFFFFFFFFFFFFFFFFFFF00000000000000000000000000000000000000000000000000000000000000000000000000000000000000000000000000000000000000000000000000000000000000000000000000000000000000000000000000000000000000000000000000000000000000000000
310
00000000000000000000000000000000000000000000000000000000000000000000000000000000000000000000000000000000000000000000000000000000000000000000000000000000000000000000000000000000000000000000000000000000000000000000000000000000000000000000000000000000000000
310
0000000000000000000000000000000000000000000000000000000000000000000000000000000000000000000000000000000000000000
102
{BLKREFS
331
6AE
102
}
1001
ACAD
1000
DesignCenter Data
1002
{
1070
     1
1070
     4
1002
}
  0
BLOCK_RECORD
  5
6AF
330
1
100
AcDbSymbolTableRecord
100
AcDbBlockTableRecord
  2
3
340
0
310
2800000020000000200000000100080000000000000400000000000000000000000000000000000000000000000080000080000000808000800000008000800080800000C0C0C000C0DCC000F0CAA6000020400000206000002080000020A0000020C0000020E00000400000004020000040400000406000004080000040A0
310
000040C0000040E00000600000006020000060400000606000006080000060A0000060C0000060E00000800000008020000080400000806000008080000080A0000080C0000080E00000A0000000A0200000A0400000A0600000A0800000A0A00000A0C00000A0E00000C0000000C0200000C0400000C0600000C0800000C0
310
A00000C0C00000C0E00000E0000000E0200000E0400000E0600000E0800000E0A00000E0C00000E0E00040000000400020004000400040006000400080004000A0004000C0004000E00040200000402020004020400040206000402080004020A0004020C0004020E000404000004040200040404000404060004040800040
310
40A0004040C0004040E00040600000406020004060400040606000406080004060A0004060C0004060E00040800000408020004080400040806000408080004080A0004080C0004080E00040A0000040A0200040A0400040A0600040A0800040A0A00040A0C00040A0E00040C0000040C0200040C0400040C0600040C08000
310
40C0A00040C0C00040C0E00040E0000040E0200040E0400040E0600040E0800040E0A00040E0C00040E0E00080000000800020008000400080006000800080008000A0008000C0008000E00080200000802020008020400080206000802080008020A0008020C0008020E00080400000804020008040400080406000804080
310
008040A0008040C0008040E00080600000806020008060400080606000806080008060A0008060C0008060E00080800000808020008080400080806000808080008080A0008080C0008080E00080A0000080A0200080A0400080A0600080A0800080A0A00080A0C00080A0E00080C0000080C0200080C0400080C0600080C0
310
800080C0A00080C0C00080C0E00080E0000080E0200080E0400080E0600080E0800080E0A00080E0C00080E0E000C0000000C0002000C0004000C0006000C0008000C000A000C000C000C000E000C0200000C0202000C0204000C0206000C0208000C020A000C020C000C020E000C0400000C0402000C0404000C0406000C0
310
408000C040A000C040C000C040E000C0600000C0602000C0604000C0606000C0608000C060A000C060C000C060E000C0800000C0802000C0804000C0806000C0808000C080A000C080C000C080E000C0A00000C0A02000C0A04000C0A06000C0A08000C0A0A000C0A0C000C0A0E000C0C00000C0C02000C0C04000C0C06000
310
C0C08000C0C0A000F0FBFF00A4A0A000808080000000FF0000FF000000FFFF00FF000000FF00FF00FFFF0000FFFFFF00000000000000000000000000000000000000000000000000000000000000000000000000000000FFFFFFFFFFFFFFFFFFFFFFFFFFFFFFFFFFFF0000000000000000000000000000FFFFFFFFFFFFFFFF
310
FFFFFFFFFFFFFFFFFFFF0000000000000000000000000000FFFF00000000FF00000000FF00000000FFFF0000000000000000000000000000FFFF0000000000000000000000000000FFFF0000000000000000000000000000FFFF000000FFFFFF0000FFFFFF000000FFFF0000000000000000000000000000FFFF00FF00FFFF
310
FFFFFFFFFFFFFFFF00FFFF0000000000000000000000000000FFFF000000FFFFFF00FFFFFFFF000000FFFF0000000000000000000000000000FFFF000000FFFF0000FFFFFF00000000FFFF0000000000000000000000000000FFFF00000000FFFFFFFF00FF00000000FFFF0000000000000000000000000000FFFF00000000
310
00FFFFFFFF0000000000FFFF0000000000000000000000000000FFFF000000FFFFFFFFFFFFFFFF000000FFFF0000000000000000000000000000FFFF00000000FFFF00FFFFFF00000000FFFF0000000000000000000000000000FFFF00000000FFFFFFFF00FF00000000FFFF0000000000000000000000000000FFFF000000
310
FFFF0000FFFFFF00000000FFFF0000000000000000000000000000FFFF000000FFFFFFFF00FFFFFFFF0000FFFF0000000000000000000000000000FFFF00FF00FFFFFFFFFFFFFFFF00FF00FFFF0000000000000000000000000000FFFF000000FFFF0000FFFFFF00000000FFFF0000000000000000000000000000FFFF0000
310
0000FFFFFF0000FF00000000FFFF0000000000000000000000000000FFFF00000000FFFFFFFFFFFF00000000FFFF0000000000000000000000000000FFFF000000FFFFFFFFFFFFFFFF000000FFFF0000000000000000000000000000FFFF0000000000FF00FFFF0000000000FFFF0000000000000000000000000000FFFF00
310
000000FFFFFFFF00FF00000000FFFF0000000000000000000000000000FFFF000000FFFF0000FFFFFF00000000FFFF0000000000000000000000000000FFFF000000FFFFFF00FFFFFFFF000000FFFF0000000000000000000000000000FFFF00FF00FFFFFFFFFFFFFFFFFFFF00FFFF0000000000000000000000000000FFFF
310
000000FFFFFF0000FFFFFF000000FFFF0000000000000000000000000000FFFF0000000000000000000000000000FFFF0000000000000000000000000000FFFF00000000FF00000000FF00000000FFFF0000000000000000000000000000FFFFFFFFFFFFFFFFFFFFFFFFFFFFFFFFFFFF0000000000000000000000000000FF
310
FFFFFFFFFFFFFFFFFFFFFFFFFFFFFFFFFF000000000000000000000000000000000000000000000000000000000000000000000000000000
102
{BLKREFS
331
850
102
}
1001
ACAD
1000
DesignCenter Data
1002
{
1070
     1
1070
     4
1002
}
  0
BLOCK_RECORD
  5
851
330
1
100
AcDbSymbolTableRecord
100
AcDbBlockTableRecord
  2
4
340
0
310
2800000020000000200000000100080000000000000400000000000000000000000000000000000000000000000080000080000000808000800000008000800080800000C0C0C000C0DCC000F0CAA6000020400000206000002080000020A0000020C0000020E00000400000004020000040400000406000004080000040A0
310
000040C0000040E00000600000006020000060400000606000006080000060A0000060C0000060E00000800000008020000080400000806000008080000080A0000080C0000080E00000A0000000A0200000A0400000A0600000A0800000A0A00000A0C00000A0E00000C0000000C0200000C0400000C0600000C0800000C0
310
A00000C0C00000C0E00000E0000000E0200000E0400000E0600000E0800000E0A00000E0C00000E0E00040000000400020004000400040006000400080004000A0004000C0004000E00040200000402020004020400040206000402080004020A0004020C0004020E000404000004040200040404000404060004040800040
310
40A0004040C0004040E00040600000406020004060400040606000406080004060A0004060C0004060E00040800000408020004080400040806000408080004080A0004080C0004080E00040A0000040A0200040A0400040A0600040A0800040A0A00040A0C00040A0E00040C0000040C0200040C0400040C0600040C08000
310
40C0A00040C0C00040C0E00040E0000040E0200040E0400040E0600040E0800040E0A00040E0C00040E0E00080000000800020008000400080006000800080008000A0008000C0008000E00080200000802020008020400080206000802080008020A0008020C0008020E00080400000804020008040400080406000804080
310
008040A0008040C0008040E00080600000806020008060400080606000806080008060A0008060C0008060E00080800000808020008080400080806000808080008080A0008080C0008080E00080A0000080A0200080A0400080A0600080A0800080A0A00080A0C00080A0E00080C0000080C0200080C0400080C0600080C0
310
800080C0A00080C0C00080C0E00080E0000080E0200080E0400080E0600080E0800080E0A00080E0C00080E0E000C0000000C0002000C0004000C0006000C0008000C000A000C000C000C000E000C0200000C0202000C0204000C0206000C0208000C020A000C020C000C020E000C0400000C0402000C0404000C0406000C0
310
408000C040A000C040C000C040E000C0600000C0602000C0604000C0606000C0608000C060A000C060C000C060E000C0800000C0802000C0804000C0806000C0808000C080A000C080C000C080E000C0A00000C0A02000C0A04000C0A06000C0A08000C0A0A000C0A0C000C0A0E000C0C00000C0C02000C0C04000C0C06000
310
C0C08000C0C0A000F0FBFF00A4A0A000808080000000FF0000FF000000FFFF00FF000000FF00FF00FFFF0000FFFFFF0000000000000000000000000000000000000000000000000000000000000000000000000000000000000000000000000000000000000000000000000000000000000000000000000000000000000000
310
000000000000000000000000000000000000000000000000000000000000000000000000FF0000000000000000000000000000000000000000000000000000000000FFFFFFFFFF00000000000000000000000000000000000000000000000000FFFF0000FF0000FFFF000000000000000000000000000000000000000000FF
310
FF00000000FF00000000FFFF0000000000000000000000000000000000FFFFFF0000FFFF00FF000000000000FFFF0000000000000000000000000000FFFF000000FF00FF00FF0000000000000000FFFF00000000000000000000FFFF0000000000FF0000FFFF00000000000000000000FF00000000000000FFFF0000FFFFFF
310
0000FFA4FFFFFF00000000000000000000FF0000000000FFFFFF0000FFFF00FF0000FFFF0000FF00000000000000000000FF000000FFFFFF00000000FF0000FF000000000000FF00000000000000000000FF0000FFFF0000FF000000FFA4FFFF00000000FFFFFFFFFF0000000000000000FF0000FF0000FF00FF0000FFFFFF
310
000000FFFFFFFF00FFFFFFFF000000000000FF0000FF00FF0000FF0000FF000000FFFFFFFF0000FFFFFFFFFFFFFF00000000FF0000FF00FF0000FF00000000FFFF00FF000000FFFF00FF0000FFFFFFFF0000FF0000FF00FFFFFFFF000000FF00FFFF00000000FFFFFFFFFFFFFF00FFFFFFFFFF0000FF00FF00000000FFFFFF
310
FF00000000FFFFFFFFFF00FF00FF000000FFFFFF0000FF00000000FFFFFFFF0000FFFFFFFFFFFFFFFFFF00FFFFFF0000FFFF00000000FF0000FFFF00FF00000000FFFFFFFF00FFFFFFFF00000000FFFF000000000000FFFFFF00FFFF00000000FFFFFFFF00FFFFFFFF00000000FF0000000000000000FF00FFFF0000FFFFFF
310
00FFFFFFFFFFFFFFFFFF0000FFFF00000000000000000000FF00000000FF00FF00FFFFFFFF0000000000FFFF00000000000000000000000000FFFF0000FFFFFFFFFFFFFF00000000FFFF0000000000000000000000000000000000FFFF000000FF00FFFF000000FF000000000000000000000000000000000000000000FFFF
310
0000FFFF0000FFFF000000000000000000000000000000000000000000000000FFFF0000FFFF00000000000000000000000000000000000000000000000000000000FFFF0000000000000000000000000000000000000000000000000000000000000000000000000000000000000000000000000000000000000000000000
310
0000000000000000000000000000000000000000000000000000000000000000000000000000000000000000000000000000000000000000
102
{BLKREFS
331
88D
102
}
1001
ACAD
1000
DesignCenter Data
1002
{
1070
     1
1070
     4
1002
}
  0
ENDTAB
  0
ENDSEC
  0
SECTION
  2
BLOCKS
  0
BLOCK
  5
20
330
1F
100
AcDbEntity
  8
0
100
AcDbBlockBegin
  2
*Model_Space
 70
     0
 10
0.0
 20
0.0
 30
0.0
  3
*Model_Space
  1

  0
ENDBLK
  5
21
330
1F
100
AcDbEntity
  8
0
100
AcDbBlockEnd
  0
BLOCK
  5
D4
330
D2
100
AcDbEntity
 67
     1
  8
0
100
AcDbBlockBegin
  2
*Paper_Space
 70
     0
 10
0.0
 20
0.0
 30
0.0
  3
*Paper_Space
  1

  0
ENDBLK
  5
D5
330
D2
100
AcDbEntity
 67
     1
  8
0
100
AcDbBlockEnd
  0
BLOCK
  5
D8
330
D6
100
AcDbEntity
 67
     1
  8
0
100
AcDbBlockBegin
  2
*Paper_Space0
 70
     0
 10
0.0
 20
0.0
 30
0.0
  3
*Paper_Space0
  1

  0
ENDBLK
  5
D9
330
D6
100
AcDbEntity
 67
     1
  8
0
100
AcDbBlockEnd
  0
BLOCK
  5
1AE
330
1AD
100
AcDbEntity
  8
0
100
AcDbBlockBegin
  2
SW_CENTERMARKSYMBOL_0
 70
     0
 10
0.0
 20
0.0
 30
0.0
  3
SW_CENTERMARKSYMBOL_0
  1

  0
LINE
  5
1AF
330
1AD
100
AcDbEntity
  8
0
  6
Continuous
 62
     0
370
     0
100
AcDbLine
 10
0.0
 20
0.0
 30
0.0
 11
0.0
 21
2.500000000000002
 31
0.0
  0
LINE
  5
1B0
330
1AD
100
AcDbEntity
  8
0
  6
Continuous
 62
     0
370
     0
100
AcDbLine
 10
0.0
 20
0.0
 30
0.0
 11
-2.500000000000002
 21
0.0
 31
0.0
  0
LINE
  5
1B1
330
1AD
100
AcDbEntity
  8
0
  6
Continuous
 62
     0
370
     0
100
AcDbLine
 10
0.0
 20
0.0
 30
0.0
 11
0.0
 21
-2.500000000000002
 31
0.0
  0
LINE
  5
1B2
330
1AD
100
AcDbEntity
  8
0
  6
Continuous
 62
     0
370
     0
100
AcDbLine
 10
0.0
 20
0.0
 30
0.0
 11
2.500000000000002
 21
0.0
 31
0.0
  0
LINE
  5
1B3
330
1AD
100
AcDbEntity
  8
0
  6
Continuous
 62
     0
370
     0
100
AcDbLine
 10
0.0
 20
5.000000000000004
 30
0.0
 11
0.0
 21
5.500000000000032
 31
0.0
  0
LINE
  5
1B4
330
1AD
100
AcDbEntity
  8
0
  6
Continuous
 62
     0
370
     0
100
AcDbLine
 10
-5.000000000000004
 20
0.0
 30
0.0
 11
-5.500000000000032
 21
0.0
 31
0.0
  0
LINE
  5
1B5
330
1AD
100
AcDbEntity
  8
0
  6
Continuous
 62
     0
370
     0
100
AcDbLine
 10
0.0
 20
-5.000000000000004
 30
0.0
 11
0.0
 21
-5.500000000000032
 31
0.0
  0
LINE
  5
1B6
330
1AD
100
AcDbEntity
  8
0
  6
Continuous
 62
     0
370
     0
100
AcDbLine
 10
4.999999999999976
 20
0.0
 30
0.0
 11
5.500000000000005
 21
0.0
 31
0.0
  0
ENDBLK
  5
1B7
330
1AD
100
AcDbEntity
  8
0
100
AcDbBlockEnd
  0
BLOCK
  5
1B9
330
1B8
100
AcDbEntity
  8
0
100
AcDbBlockBegin
  2
SW_CENTERMARKSYMBOL_1
 70
     0
 10
0.0
 20
0.0
 30
0.0
  3
SW_CENTERMARKSYMBOL_1
  1

  0
LINE
  5
1BA
330
1B8
100
AcDbEntity
  8
0
  6
Continuous
 62
     0
370
     0
100
AcDbLine
 10
0.0
 20
0.0
 30
0.0
 11
0.0
 21
2.500000000000002
 31
0.0
  0
LINE
  5
1BB
330
1B8
100
AcDbEntity
  8
0
  6
Continuous
 62
     0
370
     0
100
AcDbLine
 10
0.0
 20
0.0
 30
0.0
 11
-2.500000000000002
 21
0.0
 31
0.0
  0
LINE
  5
1BC
330
1B8
100
AcDbEntity
  8
0
  6
Continuous
 62
     0
370
     0
100
AcDbLine
 10
0.0
 20
0.0
 30
0.0
 11
0.0
 21
-2.500000000000002
 31
0.0
  0
LINE
  5
1BD
330
1B8
100
AcDbEntity
  8
0
  6
Continuous
 62
     0
370
     0
100
AcDbLine
 10
0.0
 20
0.0
 30
0.0
 11
2.500000000000002
 21
0.0
 31
0.0
  0
LINE
  5
1BE
330
1B8
100
AcDbEntity
  8
0
  6
Continuous
 62
     0
370
     0
100
AcDbLine
 10
0.0
 20
5.000000000000004
 30
0.0
 11
0.0
 21
5.500000000000018
 31
0.0
  0
LINE
  5
1BF
330
1B8
100
AcDbEntity
  8
0
  6
Continuous
 62
     0
370
     0
100
AcDbLine
 10
-5.000000000000004
 20
0.0
 30
0.0
 11
-5.500000000000032
 21
0.0
 31
0.0
  0
LINE
  5
1C0
330
1B8
100
AcDbEntity
  8
0
  6
Continuous
 62
     0
370
     0
100
AcDbLine
 10
0.0
 20
-5.000000000000004
 30
0.0
 11
0.0
 21
-5.500000000000018
 31
0.0
  0
LINE
  5
1C1
330
1B8
100
AcDbEntity
  8
0
  6
Continuous
 62
     0
370
     0
100
AcDbLine
 10
5.000000000000004
 20
0.0
 30
0.0
 11
5.500000000000032
 21
0.0
 31
0.0
  0
ENDBLK
  5
1C2
330
1B8
100
AcDbEntity
  8
0
100
AcDbBlockEnd
  0
BLOCK
  5
1C4
330
1C3
100
AcDbEntity
  8
0
100
AcDbBlockBegin
  2
SW_CENTERMARKSYMBOL_2
 70
     0
 10
0.0
 20
0.0
 30
0.0
  3
SW_CENTERMARKSYMBOL_2
  1

  0
LINE
  5
1C5
330
1C3
100
AcDbEntity
  8
0
  6
Continuous
 62
     0
370
     0
100
AcDbLine
 10
0.0
 20
0.0
 30
0.0
 11
0.0
 21
2.500000000000002
 31
0.0
  0
LINE
  5
1C6
330
1C3
100
AcDbEntity
  8
0
  6
Continuous
 62
     0
370
     0
100
AcDbLine
 10
0.0
 20
0.0
 30
0.0
 11
-2.500000000000002
 21
0.0
 31
0.0
  0
LINE
  5
1C7
330
1C3
100
AcDbEntity
  8
0
  6
Continuous
 62
     0
370
     0
100
AcDbLine
 10
0.0
 20
0.0
 30
0.0
 11
0.0
 21
-2.500000000000002
 31
0.0
  0
LINE
  5
1C8
330
1C3
100
AcDbEntity
  8
0
  6
Continuous
 62
     0
370
     0
100
AcDbLine
 10
0.0
 20
0.0
 30
0.0
 11
2.500000000000002
 21
0.0
 31
0.0
  0
LINE
  5
1C9
330
1C3
100
AcDbEntity
  8
0
  6
Continuous
 62
     0
370
     0
100
AcDbLine
 10
0.0
 20
5.000000000000004
 30
0.0
 11
0.0
 21
5.500000000000032
 31
0.0
  0
LINE
  5
1CA
330
1C3
100
AcDbEntity
  8
0
  6
Continuous
 62
     0
370
     0
100
AcDbLine
 10
-5.000000000000004
 20
0.0
 30
0.0
 11
-5.500000000000032
 21
0.0
 31
0.0
  0
LINE
  5
1CB
330
1C3
100
AcDbEntity
  8
0
  6
Continuous
 62
     0
370
     0
100
AcDbLine
 10
0.0
 20
-5.000000000000004
 30
0.0
 11
0.0
 21
-5.500000000000032
 31
0.0
  0
LINE
  5
1CC
330
1C3
100
AcDbEntity
  8
0
  6
Continuous
 62
     0
370
     0
100
AcDbLine
 10
5.000000000000004
 20
0.0
 30
0.0
 11
5.500000000000032
 21
0.0
 31
0.0
  0
ENDBLK
  5
1CD
330
1C3
100
AcDbEntity
  8
0
100
AcDbBlockEnd
  0
BLOCK
  5
1CF
330
1CE
100
AcDbEntity
  8
0
100
AcDbBlockBegin
  2
SW_CENTERMARKSYMBOL_3
 70
     0
 10
0.0
 20
0.0
 30
0.0
  3
SW_CENTERMARKSYMBOL_3
  1

  0
LINE
  5
1D0
330
1CE
100
AcDbEntity
  8
0
  6
Continuous
 62
     0
370
     0
100
AcDbLine
 10
0.0
 20
0.0
 30
0.0
 11
0.0
 21
2.500000000000002
 31
0.0
  0
LINE
  5
1D1
330
1CE
100
AcDbEntity
  8
0
  6
Continuous
 62
     0
370
     0
100
AcDbLine
 10
0.0
 20
0.0
 30
0.0
 11
-2.500000000000002
 21
0.0
 31
0.0
  0
LINE
  5
1D2
330
1CE
100
AcDbEntity
  8
0
  6
Continuous
 62
     0
370
     0
100
AcDbLine
 10
0.0
 20
0.0
 30
0.0
 11
0.0
 21
-2.500000000000002
 31
0.0
  0
LINE
  5
1D3
330
1CE
100
AcDbEntity
  8
0
  6
Continuous
 62
     0
370
     0
100
AcDbLine
 10
0.0
 20
0.0
 30
0.0
 11
2.500000000000002
 21
0.0
 31
0.0
  0
LINE
  5
1D4
330
1CE
100
AcDbEntity
  8
0
  6
Continuous
 62
     0
370
     0
100
AcDbLine
 10
0.0
 20
5.000000000000004
 30
0.0
 11
0.0
 21
5.500000000000032
 31
0.0
  0
LINE
  5
1D5
330
1CE
100
AcDbEntity
  8
0
  6
Continuous
 62
     0
370
     0
100
AcDbLine
 10
-5.000000000000004
 20
0.0
 30
0.0
 11
-5.500000000000032
 21
0.0
 31
0.0
  0
LINE
  5
1D6
330
1CE
100
AcDbEntity
  8
0
  6
Continuous
 62
     0
370
     0
100
AcDbLine
 10
0.0
 20
-5.000000000000004
 30
0.0
 11
0.0
 21
-5.500000000000032
 31
0.0
  0
LINE
  5
1D7
330
1CE
100
AcDbEntity
  8
0
  6
Continuous
 62
     0
370
     0
100
AcDbLine
 10
5.000000000000004
 20
0.0
 30
0.0
 11
5.500000000000032
 21
0.0
 31
0.0
  0
ENDBLK
  5
1D8
330
1CE
100
AcDbEntity
  8
0
100
AcDbBlockEnd
  0
BLOCK
  5
1DA
330
1D9
100
AcDbEntity
  8
0
100
AcDbBlockBegin
  2
SW_CENTERMARKSYMBOL_4
 70
     0
 10
0.0
 20
0.0
 30
0.0
  3
SW_CENTERMARKSYMBOL_4
  1

  0
LINE
  5
1DB
330
1D9
100
AcDbEntity
  8
0
  6
Continuous
 62
     0
370
     0
100
AcDbLine
 10
0.0
 20
0.0
 30
0.0
 11
0.0
 21
2.500000000000002
 31
0.0
  0
LINE
  5
1DC
330
1D9
100
AcDbEntity
  8
0
  6
Continuous
 62
     0
370
     0
100
AcDbLine
 10
0.0
 20
0.0
 30
0.0
 11
-2.500000000000002
 21
0.0
 31
0.0
  0
LINE
  5
1DD
330
1D9
100
AcDbEntity
  8
0
  6
Continuous
 62
     0
370
     0
100
AcDbLine
 10
0.0
 20
0.0
 30
0.0
 11
0.0
 21
-2.500000000000002
 31
0.0
  0
LINE
  5
1DE
330
1D9
100
AcDbEntity
  8
0
  6
Continuous
 62
     0
370
     0
100
AcDbLine
 10
0.0
 20
0.0
 30
0.0
 11
2.500000000000002
 21
0.0
 31
0.0
  0
LINE
  5
1DF
330
1D9
100
AcDbEntity
  8
0
  6
Continuous
 62
     0
370
     0
100
AcDbLine
 10
0.0
 20
5.000000000000004
 30
0.0
 11
0.0
 21
5.500000000000032
 31
0.0
  0
LINE
  5
1E0
330
1D9
100
AcDbEntity
  8
0
  6
Continuous
 62
     0
370
     0
100
AcDbLine
 10
-5.000000000000004
 20
0.0
 30
0.0
 11
-5.500000000000032
 21
0.0
 31
0.0
  0
LINE
  5
1E1
330
1D9
100
AcDbEntity
  8
0
  6
Continuous
 62
     0
370
     0
100
AcDbLine
 10
0.0
 20
-5.000000000000004
 30
0.0
 11
0.0
 21
-5.500000000000032
 31
0.0
  0
LINE
  5
1E2
330
1D9
100
AcDbEntity
  8
0
  6
Continuous
 62
     0
370
     0
100
AcDbLine
 10
4.999999999999976
 20
0.0
 30
0.0
 11
5.500000000000005
 21
0.0
 31
0.0
  0
ENDBLK
  5
1E3
330
1D9
100
AcDbEntity
  8
0
100
AcDbBlockEnd
  0
BLOCK
  5
1E5
330
1E4
100
AcDbEntity
  8
0
100
AcDbBlockBegin
  2
SW_CENTERMARKSYMBOL_5
 70
     0
 10
0.0
 20
0.0
 30
0.0
  3
SW_CENTERMARKSYMBOL_5
  1

  0
LINE
  5
1E6
330
1E4
100
AcDbEntity
  8
0
  6
Continuous
 62
     0
370
     0
100
AcDbLine
 10
0.0
 20
0.0
 30
0.0
 11
0.0
 21
2.500000000000002
 31
0.0
  0
LINE
  5
1E7
330
1E4
100
AcDbEntity
  8
0
  6
Continuous
 62
     0
370
     0
100
AcDbLine
 10
0.0
 20
0.0
 30
0.0
 11
-2.500000000000002
 21
0.0
 31
0.0
  0
LINE
  5
1E8
330
1E4
100
AcDbEntity
  8
0
  6
Continuous
 62
     0
370
     0
100
AcDbLine
 10
0.0
 20
0.0
 30
0.0
 11
0.0
 21
-2.500000000000002
 31
0.0
  0
LINE
  5
1E9
330
1E4
100
AcDbEntity
  8
0
  6
Continuous
 62
     0
370
     0
100
AcDbLine
 10
0.0
 20
0.0
 30
0.0
 11
2.500000000000002
 21
0.0
 31
0.0
  0
LINE
  5
1EA
330
1E4
100
AcDbEntity
  8
0
  6
Continuous
 62
     0
370
     0
100
AcDbLine
 10
0.0
 20
5.000000000000004
 30
0.0
 11
0.0
 21
5.500000000000018
 31
0.0
  0
LINE
  5
1EB
330
1E4
100
AcDbEntity
  8
0
  6
Continuous
 62
     0
370
     0
100
AcDbLine
 10
-5.000000000000004
 20
0.0
 30
0.0
 11
-5.500000000000032
 21
0.0
 31
0.0
  0
LINE
  5
1EC
330
1E4
100
AcDbEntity
  8
0
  6
Continuous
 62
     0
370
     0
100
AcDbLine
 10
0.0
 20
-5.000000000000004
 30
0.0
 11
0.0
 21
-5.500000000000018
 31
0.0
  0
LINE
  5
1ED
330
1E4
100
AcDbEntity
  8
0
  6
Continuous
 62
     0
370
     0
100
AcDbLine
 10
4.999999999999976
 20
0.0
 30
0.0
 11
5.500000000000005
 21
0.0
 31
0.0
  0
ENDBLK
  5
1EE
330
1E4
100
AcDbEntity
  8
0
100
AcDbBlockEnd
  0
BLOCK
  5
1F0
330
1EF
100
AcDbEntity
  8
0
100
AcDbBlockBegin
  2
SW_CENTERMARKSYMBOL_6
 70
     0
 10
0.0
 20
0.0
 30
0.0
  3
SW_CENTERMARKSYMBOL_6
  1

  0
LINE
  5
1F1
330
1EF
100
AcDbEntity
  8
0
  6
Continuous
 62
     0
370
     0
100
AcDbLine
 10
0.0
 20
0.0
 30
0.0
 11
0.0
 21
2.500000000000002
 31
0.0
  0
LINE
  5
1F2
330
1EF
100
AcDbEntity
  8
0
  6
Continuous
 62
     0
370
     0
100
AcDbLine
 10
0.0
 20
0.0
 30
0.0
 11
-2.500000000000002
 21
0.0
 31
0.0
  0
LINE
  5
1F3
330
1EF
100
AcDbEntity
  8
0
  6
Continuous
 62
     0
370
     0
100
AcDbLine
 10
0.0
 20
0.0
 30
0.0
 11
0.0
 21
-2.500000000000002
 31
0.0
  0
LINE
  5
1F4
330
1EF
100
AcDbEntity
  8
0
  6
Continuous
 62
     0
370
     0
100
AcDbLine
 10
0.0
 20
0.0
 30
0.0
 11
2.500000000000002
 21
0.0
 31
0.0
  0
LINE
  5
1F5
330
1EF
100
AcDbEntity
  8
0
  6
Continuous
 62
     0
370
     0
100
AcDbLine
 10
0.0
 20
5.000000000000004
 30
0.0
 11
0.0
 21
6.650000000000017
 31
0.0
  0
LINE
  5
1F6
330
1EF
100
AcDbEntity
  8
0
  6
Continuous
 62
     0
370
     0
100
AcDbLine
 10
-5.000000000000004
 20
0.0
 30
0.0
 11
-6.649999999999989
 21
0.0
 31
0.0
  0
LINE
  5
1F7
330
1EF
100
AcDbEntity
  8
0
  6
Continuous
 62
     0
370
     0
100
AcDbLine
 10
0.0
 20
-5.000000000000004
 30
0.0
 11
0.0
 21
-6.650000000000003
 31
0.0
  0
LINE
  5
1F8
330
1EF
100
AcDbEntity
  8
0
  6
Continuous
 62
     0
370
     0
100
AcDbLine
 10
5.000000000000004
 20
0.0
 30
0.0
 11
6.650000000000017
 21
0.0
 31
0.0
  0
ENDBLK
  5
1F9
330
1EF
100
AcDbEntity
  8
0
100
AcDbBlockEnd
  0
BLOCK
  5
1FB
330
1FA
100
AcDbEntity
  8
0
100
AcDbBlockBegin
  2
SW_CENTERMARKSYMBOL_7
 70
     0
 10
0.0
 20
0.0
 30
0.0
  3
SW_CENTERMARKSYMBOL_7
  1

  0
LINE
  5
1FC
330
1FA
100
AcDbEntity
  8
0
  6
Continuous
 62
     0
370
     0
100
AcDbLine
 10
0.0
 20
0.0
 30
0.0
 11
0.0
 21
2.500000000000002
 31
0.0
  0
LINE
  5
1FD
330
1FA
100
AcDbEntity
  8
0
  6
Continuous
 62
     0
370
     0
100
AcDbLine
 10
0.0
 20
0.0
 30
0.0
 11
-2.500000000000002
 21
0.0
 31
0.0
  0
LINE
  5
1FE
330
1FA
100
AcDbEntity
  8
0
  6
Continuous
 62
     0
370
     0
100
AcDbLine
 10
0.0
 20
0.0
 30
0.0
 11
0.0
 21
-2.500000000000002
 31
0.0
  0
LINE
  5
1FF
330
1FA
100
AcDbEntity
  8
0
  6
Continuous
 62
     0
370
     0
100
AcDbLine
 10
0.0
 20
0.0
 30
0.0
 11
2.500000000000002
 21
0.0
 31
0.0
  0
LINE
  5
200
330
1FA
100
AcDbEntity
  8
0
  6
Continuous
 62
     0
370
     0
100
AcDbLine
 10
0.0
 20
5.000000000000004
 30
0.0
 11
0.0
 21
6.650000000000017
 31
0.0
  0
LINE
  5
201
330
1FA
100
AcDbEntity
  8
0
  6
Continuous
 62
     0
370
     0
100
AcDbLine
 10
-5.000000000000004
 20
0.0
 30
0.0
 11
-6.650000000000017
 21
0.0
 31
0.0
  0
LINE
  5
202
330
1FA
100
AcDbEntity
  8
0
  6
Continuous
 62
     0
370
     0
100
AcDbLine
 10
0.0
 20
-5.000000000000004
 30
0.0
 11
0.0
 21
-6.650000000000017
 31
0.0
  0
LINE
  5
203
330
1FA
100
AcDbEntity
  8
0
  6
Continuous
 62
     0
370
     0
100
AcDbLine
 10
5.000000000000004
 20
0.0
 30
0.0
 11
6.650000000000017
 21
0.0
 31
0.0
  0
ENDBLK
  5
204
330
1FA
100
AcDbEntity
  8
0
100
AcDbBlockEnd
  0
BLOCK
  5
658
330
657
100
AcDbEntity
  8
0
100
AcDbBlockBegin
  2
1
 70
     0
 10
0.0
 20
0.0
 30
0.0
  3
1
  1

  0
LINE
  5
65A
330
657
100
AcDbEntity
  8
0
  6
Continuous
 62
     7
370
    15
100
AcDbLine
 10
2106.542529705524
 20
920.0985921420974
 30
0.0
 11
2076.542529705524
 21
920.0985921420974
 31
0.0
  0
LINE
  5
65B
330
657
100
AcDbEntity
  8
0
  6
Continuous
 62
     7
370
    15
100
AcDbLine
 10
2076.542529705524
 20
920.0985921420974
 30
0.0
 11
2077.292529705524
 21
920.8485921420972
 31
0.0
  0
LINE
  5
65C
330
657
100
AcDbEntity
  8
0
  6
Continuous
 62
     7
370
    15
100
AcDbLine
 10
2105.792529705524
 20
920.8485921420972
 30
0.0
 11
2077.292529705524
 21
920.8485921420972
 31
0.0
  0
LINE
  5
65D
330
657
100
AcDbEntity
  8
0
  6
Continuous
 62
     7
370
    15
100
AcDbLine
 10
2105.792529705524
 20
920.8485921420972
 30
0.0
 11
2106.542529705524
 21
920.0985921420974
 31
0.0
  0
LINE
  5
65E
330
657
100
AcDbEntity
  8
0
  6
Continuous
 62
     7
370
    15
100
AcDbLine
 10
2106.542529705524
 20
896.5985921420973
 30
0.0
 11
2076.542529705524
 21
896.5985921420973
 31
0.0
  0
LINE
  5
65F
330
657
100
AcDbEntity
  8
0
  6
Continuous
 62
     7
370
    15
100
AcDbLine
 10
2106.542529705524
 20
896.5985921420973
 30
0.0
 11
2105.792529705524
 21
895.8485921420972
 31
0.0
  0
LINE
  5
660
330
657
100
AcDbEntity
  8
0
  6
Continuous
 62
     7
370
    15
100
AcDbLine
 10
2077.292529705524
 20
895.8485921420972
 30
0.0
 11
2105.792529705524
 21
895.8485921420972
 31
0.0
  0
LINE
  5
661
330
657
100
AcDbEntity
  8
0
  6
Continuous
 62
     7
370
    15
100
AcDbLine
 10
2077.292529705524
 20
895.8485921420972
 30
0.0
 11
2076.542529705524
 21
896.5985921420973
 31
0.0
  0
LINE
  5
662
330
657
100
AcDbEntity
  8
0
  6
Continuous
 62
     7
370
    15
100
AcDbLine
 10
2106.542529705524
 20
920.0985921420974
 30
0.0
 11
2106.542529705524
 21
896.5985921420973
 31
0.0
  0
LINE
  5
663
330
657
100
AcDbEntity
  8
0
  6
Continuous
 62
     7
370
    15
100
AcDbLine
 10
2076.542529705524
 20
896.5985921420973
 30
0.0
 11
2076.542529705524
 21
920.0985921420974
 31
0.0
  0
ENDBLK
  5
659
330
657
100
AcDbEntity
  8
0
100
AcDbBlockEnd
  0
BLOCK
  5
666
330
665
100
AcDbEntity
  8
0
100
AcDbBlockBegin
  2
2
 70
     0
 10
0.0
 20
0.0
 30
0.0
  3
2
  1

  0
LINE
  5
668
330
665
100
AcDbEntity
  8
0
  6
Continuous
 62
     7
370
    15
100
AcDbLine
 10
2066.796357694547
 20
896.598600431565
 30
0.0
 11
2015.296365085523
 21
896.598600431565
 31
0.0
  0
LINE
  5
669
330
665
100
AcDbEntity
  8
0
  6
Continuous
 62
     7
370
    15
100
AcDbLine
 10
2015.296365085523
 20
920.098595901612
 30
0.0
 11
2015.296365085523
 21
896.598600431565
 31
0.0
  0
LINE
  5
66A
330
665
100
AcDbEntity
  8
0
  6
Continuous
 62
     7
370
    15
100
AcDbLine
 10
2066.796357694547
 20
920.098595901612
 30
0.0
 11
2015.296365085523
 21
920.098595901612
 31
0.0
  0
LINE
  5
66B
330
665
100
AcDbEntity
  8
0
  6
Continuous
 62
     7
370
    15
100
AcDbLine
 10
2066.796357694547
 20
920.098595901612
 30
0.0
 11
2066.796357694547
 21
896.598600431565
 31
0.0
  0
ARC
  5
66C
330
665
100
AcDbEntity
  8
0
  6
Continuous
 62
     7
370
    15
100
AcDbCircle
 10
2024.04636861976
 20
906.1485921420972
 30
0.0
 40
3.749999999999937
100
AcDbArc
 50
180.5193585313188
 51
359.4806414686812
  0
LINE
  5
66D
330
665
100
AcDbEntity
  8
0
  6
Continuous
 62
     7
370
    15
100
AcDbLine
 10
2027.845914426725
 20
911.5985861264503
 30
0.0
 11
2027.796204152982
 21
906.1146011792457
 31
0.0
  0
LINE
  5
66E
330
665
100
AcDbEntity
  8
0
  6
Continuous
 62
     7
370
    15
100
AcDbLine
 10
2054.296518627088
 20
906.1146011792457
 30
0.0
 11
2054.246808353346
 21
911.5985861264503
 31
0.0
  0
ARC
  5
66F
330
665
100
AcDbEntity
  8
0
  6
Continuous
 62
     7
370
    15
100
AcDbCircle
 10
2058.04636861976
 20
906.1485921420972
 30
0.0
 40
3.749999999999994
100
AcDbArc
 50
180.5193585313188
 51
359.4806414686812
  0
LINE
  5
670
330
665
100
AcDbEntity
  8
0
  6
Continuous
 62
     7
370
    15
100
AcDbLine
 10
2061.84592372505
 20
911.5985861264503
 30
0.0
 11
2061.796213451307
 21
906.1146011792457
 31
0.0
  0
LINE
  5
671
330
665
100
AcDbEntity
  8
0
  6
Continuous
 62
     7
370
    15
100
AcDbLine
 10
2054.246808353346
 20
911.5985861264503
 30
0.0
 11
2061.84592372505
 21
911.5985861264503
 31
0.0
  0
ARC
  5
672
330
665
100
AcDbEntity
  8
0
  6
Continuous
 62
     7
370
    15
100
AcDbCircle
 10
2041.04636861976
 20
906.1485921420972
 30
0.0
 40
3.749999999999937
100
AcDbArc
 50
180.5193585313188
 51
359.4806414686812
  0
LINE
  5
673
330
665
100
AcDbEntity
  8
0
  6
Continuous
 62
     7
370
    15
100
AcDbLine
 10
2044.845933977049
 20
911.5985861264503
 30
0.0
 11
2044.796223703306
 21
906.1146011792457
 31
0.0
  0
LINE
  5
674
330
665
100
AcDbEntity
  8
0
  6
Continuous
 62
     7
370
    15
100
AcDbLine
 10
2037.296528879087
 20
906.1146011792457
 30
0.0
 11
2037.246818605344
 21
911.5985861264503
 31
0.0
  0
LINE
  5
675
330
665
100
AcDbEntity
  8
0
  6
Continuous
 62
     7
370
    15
100
AcDbLine
 10
2020.246799055021
 20
911.5985861264503
 30
0.0
 11
2027.845914426725
 21
911.5985861264503
 31
0.0
  0
LINE
  5
676
330
665
100
AcDbEntity
  8
0
  6
Continuous
 62
     7
370
    15
100
AcDbLine
 10
2020.296509328764
 20
906.1146011792457
 30
0.0
 11
2020.246799055021
 21
911.5985861264503
 31
0.0
  0
LINE
  5
677
330
665
100
AcDbEntity
  8
0
  6
Continuous
 62
     7
370
    15
100
AcDbLine
 10
2037.246818605344
 20
911.5985861264503
 30
0.0
 11
2044.845933977049
 21
911.5985861264503
 31
0.0
  0
LINE
  5
678
330
665
100
AcDbEntity
  8
0
  6
Continuous
 62
     7
370
    15
100
AcDbLine
 10
2016.046370330732
 20
920.8486011468208
 30
0.0
 11
2015.296365085523
 21
920.098595901612
 31
0.0
  0
LINE
  5
679
330
665
100
AcDbEntity
  8
0
  6
Continuous
 62
     7
370
    15
100
AcDbLine
 10
2066.046382251661
 20
920.8486011468208
 30
0.0
 11
2016.046370330732
 21
920.8486011468208
 31
0.0
  0
LINE
  5
67A
330
665
100
AcDbEntity
  8
0
  6
Continuous
 62
     7
370
    15
100
AcDbLine
 10
2066.046382251661
 20
920.8486011468208
 30
0.0
 11
2066.796357694547
 21
920.098595901612
 31
0.0
  0
LINE
  5
67B
330
665
100
AcDbEntity
  8
0
  6
Continuous
 62
     7
370
    15
100
AcDbLine
 10
2016.046370330732
 20
895.8485951863563
 30
0.0
 11
2066.046382251661
 21
895.8485951863563
 31
0.0
  0
LINE
  5
67C
330
665
100
AcDbEntity
  8
0
  6
Continuous
 62
     7
370
    15
100
AcDbLine
 10
2066.796357694547
 20
896.598600431565
 30
0.0
 11
2066.046382251661
 21
895.8485951863563
 31
0.0
  0
LINE
  5
67D
330
665
100
AcDbEntity
  8
0
  6
Continuous
 62
     7
370
    15
100
AcDbLine
 10
2015.296365085523
 20
896.598600431565
 30
0.0
 11
2016.046370330732
 21
895.8485951863563
 31
0.0
  0
LINE
  5
67E
330
665
100
AcDbEntity
  8
0
  6
Continuous
 62
     7
370
    15
100
AcDbLine
 10
2060.346360269468
 20
909.7486069642341
 30
0.0
 11
2055.446381631773
 21
909.7486069642341
 31
0.0
  0
LINE
  5
67F
330
665
100
AcDbEntity
  8
0
  6
Continuous
 62
     7
370
    15
100
AcDbLine
 10
2060.346360269468
 20
909.9485805474555
 30
0.0
 11
2060.346360269468
 21
909.7486069642341
 31
0.0
  0
LINE
  5
680
330
665
100
AcDbEntity
  8
0
  6
Continuous
 62
     7
370
    15
100
AcDbLine
 10
2054.746354881208
 20
909.9485805474555
 30
0.0
 11
2060.346360269468
 21
909.9485805474555
 31
0.0
  0
LINE
  5
681
330
665
100
AcDbEntity
  8
0
  6
Continuous
 62
     7
370
    15
100
AcDbLine
 10
2054.746354881208
 20
910.7485940896308
 30
0.0
 11
2054.746354881208
 21
909.9485805474555
 31
0.0
  0
LINE
  5
682
330
665
100
AcDbEntity
  8
0
  6
Continuous
 62
     7
370
    15
100
AcDbLine
 10
2061.646367374342
 20
906.1486056290901
 30
0.0
 11
2061.646367374342
 21
909.5486035786903
 31
0.0
  0
ARC
  5
683
330
665
100
AcDbEntity
  8
0
  6
Continuous
 62
     7
370
    15
100
AcDbCircle
 10
2058.04636861976
 20
906.1485921420972
 30
0.0
 40
3.599999999999953
100
AcDbArc
 50
179.9999946556422
 51
0.0
  0
LINE
  5
684
330
665
100
AcDbEntity
  8
0
  6
Continuous
 62
     7
370
    15
100
AcDbLine
 10
2054.446364704054
 20
908.748590036515
 30
0.0
 11
2054.446364704054
 21
906.1486056290901
 31
0.0
  0
LINE
  5
685
330
665
100
AcDbEntity
  8
0
  6
Continuous
 62
     7
370
    15
100
AcDbLine
 10
2060.496355358045
 20
908.9485934220588
 30
0.0
 11
2055.846358600538
 21
908.9485934220588
 31
0.0
  0
ARC
  5
686
330
665
100
AcDbEntity
  8
0
  6
Continuous
 62
     7
370
    15
100
AcDbCircle
 10
2055.84636861976
 20
908.34859344797
 30
0.0
 40
0.5999999999999375
100
AcDbArc
 50
90.0
 51
180.0
  0
LINE
  5
687
330
665
100
AcDbEntity
  8
0
  6
Continuous
 62
     7
370
    15
100
AcDbLine
 10
2055.246378246229
 20
908.3485832654274
 30
0.0
 11
2055.246378246229
 21
906.1486056290901
 31
0.0
  0
ARC
  5
688
330
665
100
AcDbEntity
  8
0
  6
Continuous
 62
     7
370
    15
100
AcDbCircle
 10
2058.04636861976
 20
906.1485921420972
 30
0.0
 40
2.800000000000039
100
AcDbArc
 50
180.0
 51
0.0000074821008984
  0
LINE
  5
689
330
665
100
AcDbEntity
  8
0
  6
Continuous
 62
     7
370
    15
100
AcDbLine
 10
2060.846353832166
 20
906.1486056290901
 30
0.0
 11
2060.846353832166
 21
908.5985949479377
 31
0.0
  0
ARC
  5
68A
330
665
100
AcDbEntity
  8
0
  6
Continuous
 62
     7
370
    15
100
AcDbCircle
 10
2060.496368619759
 20
908.5985934479699
 30
0.0
 40
0.3500000000000227
100
AcDbArc
 50
0.0
 51
90.0
  0
ARC
  5
68B
330
665
100
AcDbEntity
  8
0
  6
Continuous
 62
     7
370
    15
100
AcDbCircle
 10
2055.44636861976
 20
908.7485934479699
 30
0.0
 40
1.0
100
AcDbArc
 50
90.0
 51
179.9999999999935
  0
LINE
  5
68C
330
665
100
AcDbEntity
  8
0
  6
Continuous
 62
     7
370
    15
100
AcDbLine
 10
2060.446376863401
 20
910.7485940896308
 30
0.0
 11
2054.746354881208
 21
910.7485940896308
 31
0.0
  0
ARC
  5
68D
330
665
100
AcDbEntity
  8
0
  6
Continuous
 62
     7
370
    15
100
AcDbCircle
 10
2060.44636861976
 20
909.54859344797
 30
0.0
 40
1.199999999999931
100
AcDbArc
 50
0.0
 51
89.99999999994789
  0
LINE
  5
68E
330
665
100
AcDbEntity
  8
0
  6
Continuous
 62
     7
370
    15
100
AcDbLine
 10
2037.746365133207
 20
909.9485805474555
 30
0.0
 11
2043.346370521467
 21
909.9485805474555
 31
0.0
  0
LINE
  5
68F
330
665
100
AcDbEntity
  8
0
  6
Continuous
 62
     7
370
    15
100
AcDbLine
 10
2037.746365133207
 20
910.7485940896308
 30
0.0
 11
2037.746365133207
 21
909.9485805474555
 31
0.0
  0
LINE
  5
690
330
665
100
AcDbEntity
  8
0
  6
Continuous
 62
     7
370
    15
100
AcDbLine
 10
2044.646377626341
 20
906.1486056290901
 30
0.0
 11
2044.646377626341
 21
909.5486035786903
 31
0.0
  0
ARC
  5
691
330
665
100
AcDbEntity
  8
0
  6
Continuous
 62
     7
370
    15
100
AcDbCircle
 10
2041.04636861976
 20
906.1485921420972
 30
0.0
 40
3.599999999999994
100
AcDbArc
 50
179.9999946556422
 51
0.0
  0
LINE
  5
692
330
665
100
AcDbEntity
  8
0
  6
Continuous
 62
     7
370
    15
100
AcDbLine
 10
2037.446374956052
 20
908.748590036515
 30
0.0
 11
2037.446374956052
 21
906.1486056290901
 31
0.0
  0
LINE
  5
693
330
665
100
AcDbEntity
  8
0
  6
Continuous
 62
     7
370
    15
100
AcDbLine
 10
2043.496365610044
 20
908.9485934220588
 30
0.0
 11
2038.846368852537
 21
908.9485934220588
 31
0.0
  0
ARC
  5
694
330
665
100
AcDbEntity
  8
0
  6
Continuous
 62
     7
370
    15
100
AcDbCircle
 10
2038.846368619759
 20
908.34859344797
 30
0.0
 40
0.5999999999999375
100
AcDbArc
 50
90.0
 51
180.0
  0
LINE
  5
695
330
665
100
AcDbEntity
  8
0
  6
Continuous
 62
     7
370
    15
100
AcDbLine
 10
2038.246358695905
 20
908.3485832654274
 30
0.0
 11
2038.246358695905
 21
906.1486056290901
 31
0.0
  0
ARC
  5
696
330
665
100
AcDbEntity
  8
0
  6
Continuous
 62
     7
370
    15
100
AcDbCircle
 10
2041.04636861976
 20
906.1485921420972
 30
0.0
 40
2.800000000000063
100
AcDbArc
 50
180.0
 51
0.0000074821008984
  0
LINE
  5
697
330
665
100
AcDbEntity
  8
0
  6
Continuous
 62
     7
370
    15
100
AcDbLine
 10
2043.846364084165
 20
906.1486056290901
 30
0.0
 11
2043.846364084165
 21
908.5985949479377
 31
0.0
  0
ARC
  5
698
330
665
100
AcDbEntity
  8
0
  6
Continuous
 62
     7
370
    15
100
AcDbCircle
 10
2043.496368619759
 20
908.5985934479699
 30
0.0
 40
0.3500000000000227
100
AcDbArc
 50
0.0
 51
90.0
  0
ARC
  5
699
330
665
100
AcDbEntity
  8
0
  6
Continuous
 62
     7
370
    15
100
AcDbCircle
 10
2038.44636861976
 20
908.7485934479699
 30
0.0
 40
1.0
100
AcDbArc
 50
90.0
 51
179.9999999999935
  0
LINE
  5
69A
330
665
100
AcDbEntity
  8
0
  6
Continuous
 62
     7
370
    15
100
AcDbLine
 10
2043.346370521467
 20
909.7486069642341
 30
0.0
 11
2038.446362081449
 21
909.7486069642341
 31
0.0
  0
LINE
  5
69B
330
665
100
AcDbEntity
  8
0
  6
Continuous
 62
     7
370
    15
100
AcDbLine
 10
2043.346370521467
 20
909.9485805474555
 30
0.0
 11
2043.346370521467
 21
909.7486069642341
 31
0.0
  0
ARC
  5
69C
330
665
100
AcDbEntity
  8
0
  6
Continuous
 62
     7
370
    15
100
AcDbCircle
 10
2043.44636861976
 20
909.54859344797
 30
0.0
 40
1.199999999999931
100
AcDbArc
 50
0.0
 51
89.99999999994789
  0
LINE
  5
69D
330
665
100
AcDbEntity
  8
0
  6
Continuous
 62
     7
370
    15
100
AcDbLine
 10
2043.446357313078
 20
910.7485940896308
 30
0.0
 11
2037.746365133207
 21
910.7485940896308
 31
0.0
  0
ARC
  5
69E
330
665
100
AcDbEntity
  8
0
  6
Continuous
 62
     7
370
    15
100
AcDbCircle
 10
2021.44636861976
 20
908.7485934479699
 30
0.0
 40
1.0
100
AcDbArc
 50
90.0
 51
179.9999999999935
  0
LINE
  5
69F
330
665
100
AcDbEntity
  8
0
  6
Continuous
 62
     7
370
    15
100
AcDbLine
 10
2026.496375862043
 20
908.9485934220588
 30
0.0
 11
2021.846379104536
 21
908.9485934220588
 31
0.0
  0
ARC
  5
6A0
330
665
100
AcDbEntity
  8
0
  6
Continuous
 62
     7
370
    15
100
AcDbCircle
 10
2021.84636861976
 20
908.34859344797
 30
0.0
 40
0.5999999999999375
100
AcDbArc
 50
90.0
 51
180.0
  0
LINE
  5
6A1
330
665
100
AcDbEntity
  8
0
  6
Continuous
 62
     7
370
    15
100
AcDbLine
 10
2026.346380773466
 20
909.7486069642341
 30
0.0
 11
2021.446372333448
 21
909.7486069642341
 31
0.0
  0
LINE
  5
6A2
330
665
100
AcDbEntity
  8
0
  6
Continuous
 62
     7
370
    15
100
AcDbLine
 10
2020.446355405729
 20
908.748590036515
 30
0.0
 11
2020.446355405729
 21
906.1486056290901
 31
0.0
  0
LINE
  5
6A3
330
665
100
AcDbEntity
  8
0
  6
Continuous
 62
     7
370
    15
100
AcDbLine
 10
2026.846374336164
 20
906.1486056290901
 30
0.0
 11
2026.846374336164
 21
908.5985949479377
 31
0.0
  0
ARC
  5
6A4
330
665
100
AcDbEntity
  8
0
  6
Continuous
 62
     7
370
    15
100
AcDbCircle
 10
2026.49636861976
 20
908.5985934479699
 30
0.0
 40
0.3500000000000227
100
AcDbArc
 50
0.0
 51
90.0
  0
LINE
  5
6A5
330
665
100
AcDbEntity
  8
0
  6
Continuous
 62
     7
370
    15
100
AcDbLine
 10
2020.746375385206
 20
910.7485940896308
 30
0.0
 11
2020.746375385206
 21
909.9485805474555
 31
0.0
  0
ARC
  5
6A6
330
665
100
AcDbEntity
  8
0
  6
Continuous
 62
     7
370
    15
100
AcDbCircle
 10
2024.04636861976
 20
906.1485921420972
 30
0.0
 40
2.800000000000049
100
AcDbArc
 50
180.0
 51
0.0000074821008984
  0
LINE
  5
6A7
330
665
100
AcDbEntity
  8
0
  6
Continuous
 62
     7
370
    15
100
AcDbLine
 10
2021.246368947904
 20
908.3485832654274
 30
0.0
 11
2021.246368947904
 21
906.1486056290901
 31
0.0
  0
ARC
  5
6A8
330
665
100
AcDbEntity
  8
0
  6
Continuous
 62
     7
370
    15
100
AcDbCircle
 10
2026.44636861976
 20
909.54859344797
 30
0.0
 40
1.199999999999931
100
AcDbArc
 50
0.0
 51
89.99999999994789
  0
LINE
  5
6A9
330
665
100
AcDbEntity
  8
0
  6
Continuous
 62
     7
370
    15
100
AcDbLine
 10
2026.446367565077
 20
910.7485940896308
 30
0.0
 11
2020.746375385206
 21
910.7485940896308
 31
0.0
  0
LINE
  5
6AA
330
665
100
AcDbEntity
  8
0
  6
Continuous
 62
     7
370
    15
100
AcDbLine
 10
2020.746375385206
 20
909.9485805474555
 30
0.0
 11
2026.346380773466
 21
909.9485805474555
 31
0.0
  0
LINE
  5
6AB
330
665
100
AcDbEntity
  8
0
  6
Continuous
 62
     7
370
    15
100
AcDbLine
 10
2026.346380773466
 20
909.9485805474555
 30
0.0
 11
2026.346380773466
 21
909.7486069642341
 31
0.0
  0
LINE
  5
6AC
330
665
100
AcDbEntity
  8
0
  6
Continuous
 62
     7
370
    15
100
AcDbLine
 10
2027.646358076017
 20
906.1486056290901
 30
0.0
 11
2027.646358076017
 21
909.5486035786903
 31
0.0
  0
ARC
  5
6AD
330
665
100
AcDbEntity
  8
0
  6
Continuous
 62
     7
370
    15
100
AcDbCircle
 10
2024.04636861976
 20
906.1485921420972
 30
0.0
 40
3.599999999999994
100
AcDbArc
 50
179.9999946556422
 51
0.0
  0
ENDBLK
  5
667
330
665
100
AcDbEntity
  8
0
100
AcDbBlockEnd
  0
BLOCK
  5
6B0
330
6AF
100
AcDbEntity
  8
0
100
AcDbBlockBegin
  2
3
 70
     0
 10
0.0
 20
0.0
 30
0.0
  3
3
  1

  0
LINE
  5
6B2
330
6AF
100
AcDbEntity
  8
0
  6
Continuous
 62
     7
370
    15
100
AcDbLine
 10
2105.792529377699
 20
877.8027718869562
 30
0.0
 11
2105.792529377699
 21
827.8027599660273
 31
0.0
  0
LINE
  5
6B3
330
6AF
100
AcDbEntity
  8
0
  6
Continuous
 62
     7
370
    15
100
AcDbLine
 10
2105.792529377699
 20
827.8027599660273
 30
0.0
 11
2077.292529712043
 21
827.8027599660273
 31
0.0
  0
LINE
  5
6B4
330
6AF
100
AcDbEntity
  8
0
  6
Continuous
 62
     7
370
    15
100
AcDbLine
 10
2077.292529712043
 20
827.8027599660273
 30
0.0
 11
2077.292529712043
 21
877.8027718869562
 31
0.0
  0
LINE
  5
6B5
330
6AF
100
AcDbEntity
  8
0
  6
Continuous
 62
     7
370
    15
100
AcDbLine
 10
2077.292529712043
 20
877.8027718869562
 30
0.0
 11
2105.792529377699
 21
877.8027718869562
 31
0.0
  0
CIRCLE
  5
6B6
330
6AF
100
AcDbEntity
  8
0
  6
Continuous
 62
     7
370
    15
100
AcDbCircle
 10
2091.542529705524
 20
844.3027582550552
 30
0.0
 40
4.150000000000005
  0
CIRCLE
  5
6B7
330
6AF
100
AcDbEntity
  8
0
  6
Continuous
 62
     7
370
    15
100
AcDbCircle
 10
2091.542529705524
 20
861.3027582550554
 30
0.0
 40
4.150000000000005
  0
CIRCLE
  5
6B8
330
6AF
100
AcDbEntity
  8
0
  6
Continuous
 62
     7
370
    15
100
AcDbCircle
 10
2086.892529705524
 20
869.8027582550553
 30
0.0
 40
3.0
  0
CIRCLE
  5
6B9
330
6AF
100
AcDbEntity
  8
0
  6
Continuous
 62
     7
370
    15
100
AcDbCircle
 10
2096.192529705524
 20
835.8027582550553
 30
0.0
 40
3.000000000000028
  0
CIRCLE
  5
6BA
330
6AF
100
AcDbEntity
  8
0
  6
Continuous
 62
     7
370
    15
100
AcDbCircle
 10
2096.192529705524
 20
869.8027582550553
 30
0.0
 40
3.000000000000028
  0
CIRCLE
  5
6BB
330
6AF
100
AcDbEntity
  8
0
  6
Continuous
 62
     7
370
    15
100
AcDbCircle
 10
2096.192529705524
 20
852.8027582550553
 30
0.0
 40
3.000000000000028
  0
CIRCLE
  5
6BC
330
6AF
100
AcDbEntity
  8
0
  6
Continuous
 62
     7
370
    15
100
AcDbCircle
 10
2086.892529705524
 20
852.8027582550553
 30
0.0
 40
3.0
  0
CIRCLE
  5
6BD
330
6AF
100
AcDbEntity
  8
0
  6
Continuous
 62
     7
370
    15
100
AcDbCircle
 10
2086.892529705524
 20
835.8027582550553
 30
0.0
 40
3.0
  0
LINE
  5
6BE
330
6AF
100
AcDbEntity
  8
0
  6
Continuous
 62
     7
370
    15
100
AcDbLine
 10
2076.542529705524
 20
878.5527473298426
 30
0.0
 11
2106.542529034972
 21
878.5527473298426
 31
0.0
  0
LINE
  5
6BF
330
6AF
100
AcDbEntity
  8
0
  6
Continuous
 62
     7
370
    15
100
AcDbLine
 10
2105.792529377699
 20
877.8027718869562
 30
0.0
 11
2106.542529034972
 21
878.5527473298426
 31
0.0
  0
LINE
  5
6C0
330
6AF
100
AcDbEntity
  8
0
  6
Continuous
 62
     7
370
    15
100
AcDbLine
 10
2077.292529712043
 20
877.8027718869562
 30
0.0
 11
2076.542529705524
 21
878.5527473298426
 31
0.0
  0
LINE
  5
6C1
330
6AF
100
AcDbEntity
  8
0
  6
Continuous
 62
     7
370
    15
100
AcDbLine
 10
2106.542529034972
 20
878.5527473298426
 30
0.0
 11
2106.542529034972
 21
827.0527547208185
 31
0.0
  0
LINE
  5
6C2
330
6AF
100
AcDbEntity
  8
0
  6
Continuous
 62
     7
370
    15
100
AcDbLine
 10
2105.792529377699
 20
827.8027599660273
 30
0.0
 11
2106.542529034972
 21
827.0527547208185
 31
0.0
  0
LINE
  5
6C3
330
6AF
100
AcDbEntity
  8
0
  6
Continuous
 62
     7
370
    15
100
AcDbLine
 10
2076.542529705524
 20
827.0527547208185
 30
0.0
 11
2077.292529712043
 21
827.8027599660273
 31
0.0
  0
LINE
  5
6C4
330
6AF
100
AcDbEntity
  8
0
  6
Continuous
 62
     7
370
    15
100
AcDbLine
 10
2076.542529705524
 20
827.0527547208185
 30
0.0
 11
2076.542529705524
 21
878.5527473298426
 31
0.0
  0
LINE
  5
6C5
330
6AF
100
AcDbEntity
  8
0
  6
Continuous
 62
     7
370
    15
100
AcDbLine
 10
2106.542529034972
 20
827.0527547208185
 30
0.0
 11
2076.542529705524
 21
827.0527547208185
 31
0.0
  0
LINE
  5
6C6
330
6AF
100
AcDbEntity
  8
0
  6
Continuous
 62
     7
370
    15
100
AcDbLine
 10
2095.042529943943
 20
863.3234923688288
 30
0.0
 11
2095.042529943943
 21
859.2820292321558
 31
0.0
  0
LINE
  5
6C7
330
6AF
100
AcDbEntity
  8
0
  6
Continuous
 62
     7
370
    15
100
AcDbLine
 10
2088.042529727876
 20
859.2820292321558
 30
0.0
 11
2088.042529727876
 21
863.3234923688288
 31
0.0
  0
LINE
  5
6C8
330
6AF
100
AcDbEntity
  8
0
  6
Continuous
 62
     7
370
    15
100
AcDbLine
 10
2091.542529370248
 20
857.2613125649805
 30
0.0
 11
2088.042529727876
 21
859.2820292321558
 31
0.0
  0
LINE
  5
6C9
330
6AF
100
AcDbEntity
  8
0
  6
Continuous
 62
     7
370
    15
100
AcDbLine
 10
2095.042529943943
 20
859.2820292321558
 30
0.0
 11
2091.542529370248
 21
857.2613125649805
 31
0.0
  0
LINE
  5
6CA
330
6AF
100
AcDbEntity
  8
0
  6
Continuous
 62
     7
370
    15
100
AcDbLine
 10
2091.542529370248
 20
865.3442090360041
 30
0.0
 11
2095.042529943943
 21
863.3234923688288
 31
0.0
  0
LINE
  5
6CB
330
6AF
100
AcDbEntity
  8
0
  6
Continuous
 62
     7
370
    15
100
AcDbLine
 10
2088.042529727876
 20
863.3234923688288
 30
0.0
 11
2091.542529370248
 21
865.3442090360041
 31
0.0
  0
LINE
  5
6CC
330
6AF
100
AcDbEntity
  8
0
  6
Continuous
 62
     7
370
    15
100
AcDbLine
 10
2088.042529727876
 20
842.2820394841547
 30
0.0
 11
2088.042529727876
 21
846.3234728185053
 31
0.0
  0
LINE
  5
6CD
330
6AF
100
AcDbEntity
  8
0
  6
Continuous
 62
     7
370
    15
100
AcDbLine
 10
2091.542529370248
 20
840.261293014657
 30
0.0
 11
2088.042529727876
 21
842.2820394841547
 31
0.0
  0
LINE
  5
6CE
330
6AF
100
AcDbEntity
  8
0
  6
Continuous
 62
     7
370
    15
100
AcDbLine
 10
2095.042529943943
 20
842.2820394841547
 30
0.0
 11
2091.542529370248
 21
840.261293014657
 31
0.0
  0
LINE
  5
6CF
330
6AF
100
AcDbEntity
  8
0
  6
Continuous
 62
     7
370
    15
100
AcDbLine
 10
2095.042529943943
 20
846.3234728185053
 30
0.0
 11
2095.042529943943
 21
842.2820394841547
 31
0.0
  0
LINE
  5
6D0
330
6AF
100
AcDbEntity
  8
0
  6
Continuous
 62
     7
370
    15
100
AcDbLine
 10
2091.542529370248
 20
848.344219288003
 30
0.0
 11
2095.042529943943
 21
846.3234728185053
 31
0.0
  0
LINE
  5
6D1
330
6AF
100
AcDbEntity
  8
0
  6
Continuous
 62
     7
370
    15
100
AcDbLine
 10
2088.042529727876
 20
846.3234728185053
 30
0.0
 11
2091.542529370248
 21
848.344219288003
 31
0.0
  0
LINE
  5
6D2
330
6AF
100
AcDbEntity
  8
0
  6
Continuous
 62
     7
370
    15
100
AcDbLine
 10
2098.447165879965
 20
870.2931826917048
 30
0.0
 11
2098.511371258259
 21
870.2699964848871
 31
0.0
  0
LINE
  5
6D3
330
6AF
100
AcDbEntity
  8
0
  6
Continuous
 62
     7
370
    15
100
AcDbLine
 10
2098.511371258259
 20
870.2699964848871
 30
0.0
 11
2098.503866660952
 21
870.2608471719141
 31
0.0
  0
LINE
  5
6D4
330
6AF
100
AcDbEntity
  8
0
  6
Continuous
 62
     7
370
    15
100
AcDbLine
 10
2098.503866660952
 20
870.2608471719141
 30
0.0
 11
2096.877525988579
 21
870.2608471719141
 31
0.0
  0
LINE
  5
6D5
330
6AF
100
AcDbEntity
  8
0
  6
Continuous
 62
     7
370
    15
100
AcDbLine
 10
2096.877525988579
 20
870.2608471719141
 30
0.0
 11
2096.899559218049
 21
870.3027492371912
 31
0.0
  0
LINE
  5
6D6
330
6AF
100
AcDbEntity
  8
0
  6
Continuous
 62
     7
370
    15
100
AcDbLine
 10
2096.899559218049
 20
870.3027492371912
 30
0.0
 11
2098.137795421838
 21
870.3027492371912
 31
0.0
  0
SPLINE
  5
6D7
330
6AF
100
AcDbEntity
  8
0
  6
Continuous
 62
     7
370
    15
100
AcDbSpline
210
0.0
220
0.0
230
1.0
 70
     8
 71
     3
 72
    12
 73
     8
 74
     0
 42
0.0000000001
 43
0.0000000001
 40
0.0
 40
0.0
 40
0.0
 40
0.0
 40
0.2361371415380052
 40
0.4723646711762591
 40
0.7053117527210276
 40
0.9324251879744206
 40
1.0
 40
1.0
 40
1.0
 40
1.0
 10
2098.137795421838
 20
870.3027492371912
 30
0.0
 10
2098.173464501796
 20
870.3026231680397
 30
0.0
 10
2098.24481631505
 20
870.3023709814802
 30
0.0
 10
2098.339535409
 20
870.3005147992216
 30
0.0
 10
2098.409807566771
 20
870.2976817947677
 30
0.0
 10
2098.440165706388
 20
870.2951125891365
 30
0.0
 10
2098.44586010119
 20
870.293542685507
 30
0.0
 10
2098.447165879965
 20
870.2931826917048
 30
0.0
  0
SPLINE
  5
6D8
330
6AF
100
AcDbEntity
  8
0
  6
Continuous
 62
     7
370
    15
100
AcDbSpline
210
0.0
220
0.0
230
1.0
 70
     8
 71
     3
 72
     8
 73
     4
 74
     0
 42
0.0000000001
 43
0.0000000001
 40
0.0000000000000103
 40
0.0000000000000103
 40
0.0000000000000103
 40
0.0000000000000103
 40
0.0006674565865735
 40
0.0006674565865735
 40
0.0006674565865735
 40
0.0006674565865735
 10
2093.937893302451
 20
869.3123233758196
 30
0.0
 10
2093.916397348415
 20
869.3200516827701
 30
0.0
 10
2093.894998140607
 20
869.3277803180999
 30
0.0
 10
2093.873687891738
 20
869.3355092514291
 30
0.0
  0
LINE
  5
6D9
330
6AF
100
AcDbEntity
  8
0
  6
Continuous
 62
     7
370
    15
100
AcDbLine
 10
2093.873688447833
 20
869.3355148640986
 30
0.0
 11
2093.881193045139
 21
869.3446641770716
 31
0.0
  0
LINE
  5
6DA
330
6AF
100
AcDbEntity
  8
0
  6
Continuous
 62
     7
370
    15
100
AcDbLine
 10
2093.881193045139
 20
869.3446641770716
 30
0.0
 11
2095.507533717513
 21
869.3446641770716
 31
0.0
  0
LINE
  5
6DB
330
6AF
100
AcDbEntity
  8
0
  6
Continuous
 62
     7
370
    15
100
AcDbLine
 10
2095.507533717513
 20
869.3446641770716
 30
0.0
 11
2095.485500488043
 21
869.3027621117945
 31
0.0
  0
LINE
  5
6DC
330
6AF
100
AcDbEntity
  8
0
  6
Continuous
 62
     7
370
    15
100
AcDbLine
 10
2095.485500488043
 20
869.3027621117945
 30
0.0
 11
2094.247264284253
 21
869.3027621117945
 31
0.0
  0
SPLINE
  5
6DD
330
6AF
100
AcDbEntity
  8
0
  6
Continuous
 62
     7
370
    15
100
AcDbSpline
210
0.0
220
0.0
230
1.0
 70
     8
 71
     3
 72
    10
 73
     6
 74
     0
 42
0.0000000001
 43
0.0000000001
 40
0.0
 40
0.0
 40
0.0
 40
0.0
 40
0.5
 40
0.5
 40
1.0
 40
1.0
 40
1.0
 40
1.0
 10
2094.247263575903
 20
869.3027582550552
 30
0.0
 10
2094.171056740703
 20
869.302758255055
 30
0.0
 10
2094.096566266541
 20
869.3037214898438
 30
0.0
 10
2093.982533592499
 20
869.3072038624658
 30
0.0
 10
2093.945247583608
 20
869.309674071721
 30
0.0
 10
2093.937893302451
 20
869.3123233758196
 30
0.0
  0
LINE
  5
6DE
330
6AF
100
AcDbEntity
  8
0
  6
Continuous
 62
     7
370
    15
100
AcDbLine
 10
2089.147165845692
 20
870.2931826917048
 30
0.0
 11
2089.211371223986
 21
870.2699964848871
 31
0.0
  0
LINE
  5
6DF
330
6AF
100
AcDbEntity
  8
0
  6
Continuous
 62
     7
370
    15
100
AcDbLine
 10
2089.211371223986
 20
870.2699964848871
 30
0.0
 11
2089.203865695357
 21
870.2608471719141
 31
0.0
  0
LINE
  5
6E0
330
6AF
100
AcDbEntity
  8
0
  6
Continuous
 62
     7
370
    15
100
AcDbLine
 10
2089.203865695357
 20
870.2608471719141
 30
0.0
 11
2087.577525954306
 21
870.2608471719141
 31
0.0
  0
LINE
  5
6E1
330
6AF
100
AcDbEntity
  8
0
  6
Continuous
 62
     7
370
    15
100
AcDbLine
 10
2087.577525954306
 20
870.2608471719141
 30
0.0
 11
2087.599559183776
 21
870.3027492371912
 31
0.0
  0
LINE
  5
6E2
330
6AF
100
AcDbEntity
  8
0
  6
Continuous
 62
     7
370
    15
100
AcDbLine
 10
2087.599559183776
 20
870.3027492371912
 30
0.0
 11
2088.837795387566
 21
870.3027492371912
 31
0.0
  0
SPLINE
  5
6E3
330
6AF
100
AcDbEntity
  8
0
  6
Continuous
 62
     7
370
    15
100
AcDbSpline
210
0.0
220
0.0
230
1.0
 70
     8
 71
     3
 72
    12
 73
     8
 74
     0
 42
0.0000000001
 43
0.0000000001
 40
0.0
 40
0.0
 40
0.0
 40
0.0
 40
0.23613703579644
 40
0.4723644596526532
 40
0.7053114368843565
 40
0.932425523588656
 40
0.9999999999999998
 40
0.9999999999999998
 40
0.9999999999999998
 40
0.9999999999999998
 10
2088.837795387566
 20
870.3027492371912
 30
0.0
 10
2088.873464451093
 20
870.3026231678842
 30
0.0
 10
2088.944816231479
 20
870.3023709810137
 30
0.0
 10
2089.039535570869
 20
870.300514801077
 30
0.0
 10
2089.109806892029
 20
870.2976817849258
 30
0.0
 10
2089.140167567649
 20
870.2951126005231
 30
0.0
 10
2089.145860426913
 20
870.2935426858628
 30
0.0
 10
2089.147165845692
 20
870.2931826917048
 30
0.0
  0
SPLINE
  5
6E4
330
6AF
100
AcDbEntity
  8
0
  6
Continuous
 62
     7
370
    15
100
AcDbSpline
210
0.0
220
0.0
230
1.0
 70
     8
 71
     3
 72
     8
 73
     4
 74
     0
 42
0.0000000001
 43
0.0000000001
 40
0.0000000000000103
 40
0.0000000000000103
 40
0.0000000000000103
 40
0.0000000000000103
 40
0.0006674565865735
 40
0.0006674565865735
 40
0.0006674565865735
 40
0.0006674565865735
 10
2084.637893302451
 20
869.3123233758196
 30
0.0
 10
2084.616397348415
 20
869.3200516827701
 30
0.0
 10
2084.594998140606
 20
869.3277803180999
 30
0.0
 10
2084.573687891738
 20
869.3355092514291
 30
0.0
  0
LINE
  5
6E5
330
6AF
100
AcDbEntity
  8
0
  6
Continuous
 62
     7
370
    15
100
AcDbLine
 10
2084.573687482238
 20
869.3355148640986
 30
0.0
 11
2084.581193010866
 21
869.3446641770716
 31
0.0
  0
LINE
  5
6E6
330
6AF
100
AcDbEntity
  8
0
  6
Continuous
 62
     7
370
    15
100
AcDbLine
 10
2084.581193010866
 20
869.3446641770716
 30
0.0
 11
2086.20753368324
 21
869.3446641770716
 31
0.0
  0
LINE
  5
6E7
330
6AF
100
AcDbEntity
  8
0
  6
Continuous
 62
     7
370
    15
100
AcDbLine
 10
2086.20753368324
 20
869.3446641770716
 30
0.0
 11
2086.18550045377
 21
869.3027621117945
 31
0.0
  0
LINE
  5
6E8
330
6AF
100
AcDbEntity
  8
0
  6
Continuous
 62
     7
370
    15
100
AcDbLine
 10
2086.18550045377
 20
869.3027621117945
 30
0.0
 11
2084.947263318658
 21
869.3027621117945
 31
0.0
  0
SPLINE
  5
6E9
330
6AF
100
AcDbEntity
  8
0
  6
Continuous
 62
     7
370
    15
100
AcDbSpline
210
0.0
220
0.0
230
1.0
 70
     8
 71
     3
 72
    10
 73
     6
 74
     0
 42
0.0000000001
 43
0.0000000001
 40
0.0
 40
0.0
 40
0.0
 40
0.0
 40
0.5
 40
0.5
 40
1.0
 40
1.0
 40
1.0
 40
1.0
 10
2084.947263575904
 20
869.3027582550552
 30
0.0
 10
2084.871056740704
 20
869.302758255055
 30
0.0
 10
2084.796566266541
 20
869.3037214898438
 30
0.0
 10
2084.682533592498
 20
869.3072038624658
 30
0.0
 10
2084.645247583608
 20
869.309674071721
 30
0.0
 10
2084.637893302452
 20
869.3123233758196
 30
0.0
  0
LINE
  5
6EA
330
6AF
100
AcDbEntity
  8
0
  6
Continuous
 62
     7
370
    15
100
AcDbLine
 10
2084.637892860532
 20
852.3123091069574
 30
0.0
 11
2084.573687482238
 21
852.3354953137751
 31
0.0
  0
LINE
  5
6EB
330
6AF
100
AcDbEntity
  8
0
  6
Continuous
 62
     7
370
    15
100
AcDbLine
 10
2084.573687482238
 20
852.3354953137751
 30
0.0
 11
2084.581193010866
 21
852.3446744290705
 31
0.0
  0
LINE
  5
6EC
330
6AF
100
AcDbEntity
  8
0
  6
Continuous
 62
     7
370
    15
100
AcDbLine
 10
2084.581193010866
 20
852.3446744290705
 30
0.0
 11
2086.20753368324
 21
852.3446744290705
 31
0.0
  0
LINE
  5
6ED
330
6AF
100
AcDbEntity
  8
0
  6
Continuous
 62
     7
370
    15
100
AcDbLine
 10
2086.20753368324
 20
852.3446744290705
 30
0.0
 11
2086.18550045377
 21
852.3027723637934
 31
0.0
  0
LINE
  5
6EE
330
6AF
100
AcDbEntity
  8
0
  6
Continuous
 62
     7
370
    15
100
AcDbLine
 10
2086.18550045377
 20
852.3027723637934
 30
0.0
 11
2084.947263318658
 21
852.3027723637934
 31
0.0
  0
SPLINE
  5
6EF
330
6AF
100
AcDbEntity
  8
0
  6
Continuous
 62
     7
370
    15
100
AcDbSpline
210
0.0
220
0.0
230
1.0
 70
     8
 71
     3
 72
    12
 73
     8
 74
     0
 42
0.0000000001
 43
0.0000000001
 40
0.0
 40
0.0
 40
0.0
 40
0.0
 40
0.2361351953333382
 40
0.4723661161089384
 40
0.7053105655904945
 40
0.9324273467882294
 40
1.0
 40
1.0
 40
1.0
 40
1.0
 10
2084.947263318658
 20
852.3027723637934
 30
0.0
 10
2084.911594534414
 20
852.3028809637201
 30
0.0
 10
2084.840242506368
 20
852.303098207599
 30
0.0
 10
2084.745524072008
 20
852.3050373069505
 30
0.0
 10
2084.675251750792
 20
852.3077712287456
 30
0.0
 10
2084.644893313672
 20
852.3104426206353
 30
0.0
 10
2084.63919865324
 20
852.3119609517479
 30
0.0
 10
2084.637892860532
 20
852.3123091069574
 30
0.0
  0
SPLINE
  5
6F0
330
6AF
100
AcDbEntity
  8
0
  6
Continuous
 62
     7
370
    15
100
AcDbSpline
210
0.0
220
0.0
230
1.0
 70
     8
 71
     3
 72
     8
 73
     4
 74
     0
 42
0.0000000001
 43
0.0000000001
 40
0.0000000000000104
 40
0.0000000000000104
 40
0.0000000000000104
 40
0.0000000000000104
 40
0.0006674565865733
 40
0.0006674565865733
 40
0.0006674565865733
 40
0.0006674565865733
 10
2098.447166108595
 20
853.2931931342908
 30
0.0
 10
2098.46866206263
 20
853.2854648273403
 30
0.0
 10
2098.490061270439
 20
853.2777361920105
 30
0.0
 10
2098.511371519308
 20
853.2700072586813
 30
0.0
  0
LINE
  5
6F1
330
6AF
100
AcDbEntity
  8
0
  6
Continuous
 62
     7
370
    15
100
AcDbLine
 10
2098.511371258259
 20
853.270006736886
 30
0.0
 11
2098.503866660952
 21
853.260857423913
 31
0.0
  0
LINE
  5
6F2
330
6AF
100
AcDbEntity
  8
0
  6
Continuous
 62
     7
370
    15
100
AcDbLine
 10
2098.503866660952
 20
853.260857423913
 30
0.0
 11
2096.877525988579
 21
853.260857423913
 31
0.0
  0
LINE
  5
6F3
330
6AF
100
AcDbEntity
  8
0
  6
Continuous
 62
     7
370
    15
100
AcDbLine
 10
2096.877525988579
 20
853.260857423913
 30
0.0
 11
2096.899559218049
 21
853.3027594891901
 31
0.0
  0
LINE
  5
6F4
330
6AF
100
AcDbEntity
  8
0
  6
Continuous
 62
     7
370
    15
100
AcDbLine
 10
2096.899559218049
 20
853.3027594891901
 30
0.0
 11
2098.137795421838
 21
853.3027594891901
 31
0.0
  0
SPLINE
  5
6F5
330
6AF
100
AcDbEntity
  8
0
  6
Continuous
 62
     7
370
    15
100
AcDbSpline
210
0.0
220
0.0
230
1.0
 70
     8
 71
     3
 72
    10
 73
     6
 74
     0
 42
0.0000000001
 43
0.0000000001
 40
0.0
 40
0.0
 40
0.0
 40
0.0
 40
0.5
 40
0.5
 40
1.0
 40
1.0
 40
1.0
 40
1.0
 10
2098.137795835144
 20
853.3027582550554
 30
0.0
 10
2098.214002670345
 20
853.3027582550554
 30
0.0
 10
2098.288493144507
 20
853.3017950202669
 30
0.0
 10
2098.40252581855
 20
853.2983126476448
 30
0.0
 10
2098.43981182744
 20
853.2958424383895
 30
0.0
 10
2098.447166108597
 20
853.2931931342908
 30
0.0
  0
SPLINE
  5
6F6
330
6AF
100
AcDbEntity
  8
0
  6
Continuous
 62
     7
370
    15
100
AcDbSpline
210
0.0
220
0.0
230
1.0
 70
     8
 71
     3
 72
     8
 73
     4
 74
     0
 42
0.0000000001
 43
0.0000000001
 40
0.0000000000000104
 40
0.0000000000000104
 40
0.0000000000000104
 40
0.0000000000000104
 40
0.0006674565865733
 40
0.0006674565865733
 40
0.0006674565865733
 40
0.0006674565865733
 10
2089.147166108594
 20
853.2931931342908
 30
0.0
 10
2089.16866206263
 20
853.2854648273403
 30
0.0
 10
2089.190061270439
 20
853.2777361920105
 30
0.0
 10
2089.211371519308
 20
853.2700072586813
 30
0.0
  0
LINE
  5
6F7
330
6AF
100
AcDbEntity
  8
0
  6
Continuous
 62
     7
370
    15
100
AcDbLine
 10
2089.211371223986
 20
853.270006736886
 30
0.0
 11
2089.203865695357
 21
853.260857423913
 31
0.0
  0
LINE
  5
6F8
330
6AF
100
AcDbEntity
  8
0
  6
Continuous
 62
     7
370
    15
100
AcDbLine
 10
2089.203865695357
 20
853.260857423913
 30
0.0
 11
2087.577525954306
 21
853.260857423913
 31
0.0
  0
LINE
  5
6F9
330
6AF
100
AcDbEntity
  8
0
  6
Continuous
 62
     7
370
    15
100
AcDbLine
 10
2087.577525954306
 20
853.260857423913
 30
0.0
 11
2087.599559183776
 21
853.3027594891901
 31
0.0
  0
LINE
  5
6FA
330
6AF
100
AcDbEntity
  8
0
  6
Continuous
 62
     7
370
    15
100
AcDbLine
 10
2087.599559183776
 20
853.3027594891901
 30
0.0
 11
2088.837795387566
 21
853.3027594891901
 31
0.0
  0
SPLINE
  5
6FB
330
6AF
100
AcDbEntity
  8
0
  6
Continuous
 62
     7
370
    15
100
AcDbSpline
210
0.0
220
0.0
230
1.0
 70
     8
 71
     3
 72
    10
 73
     6
 74
     0
 42
0.0000000001
 43
0.0000000001
 40
0.0
 40
0.0
 40
0.0
 40
0.0
 40
0.5
 40
0.5
 40
1.0
 40
1.0
 40
1.0
 40
1.0
 10
2088.837795835145
 20
853.3027582550554
 30
0.0
 10
2088.914002670345
 20
853.3027582550554
 30
0.0
 10
2088.988493144507
 20
853.3017950202669
 30
0.0
 10
2089.10252581855
 20
853.2983126476448
 30
0.0
 10
2089.13981182744
 20
853.2958424383895
 30
0.0
 10
2089.147166108597
 20
853.2931931342908
 30
0.0
  0
LINE
  5
6FC
330
6AF
100
AcDbEntity
  8
0
  6
Continuous
 62
     7
370
    15
100
AcDbLine
 10
2093.937893826127
 20
852.3123091069574
 30
0.0
 11
2093.873688447833
 21
852.3354953137751
 31
0.0
  0
LINE
  5
6FD
330
6AF
100
AcDbEntity
  8
0
  6
Continuous
 62
     7
370
    15
100
AcDbLine
 10
2093.873688447833
 20
852.3354953137751
 30
0.0
 11
2093.881193045139
 21
852.3446744290705
 31
0.0
  0
LINE
  5
6FE
330
6AF
100
AcDbEntity
  8
0
  6
Continuous
 62
     7
370
    15
100
AcDbLine
 10
2093.881193045139
 20
852.3446744290705
 30
0.0
 11
2095.507533717513
 21
852.3446744290705
 31
0.0
  0
LINE
  5
6FF
330
6AF
100
AcDbEntity
  8
0
  6
Continuous
 62
     7
370
    15
100
AcDbLine
 10
2095.507533717513
 20
852.3446744290705
 30
0.0
 11
2095.485500488043
 21
852.3027723637934
 31
0.0
  0
LINE
  5
700
330
6AF
100
AcDbEntity
  8
0
  6
Continuous
 62
     7
370
    15
100
AcDbLine
 10
2095.485500488043
 20
852.3027723637934
 30
0.0
 11
2094.247264284253
 21
852.3027723637934
 31
0.0
  0
SPLINE
  5
701
330
6AF
100
AcDbEntity
  8
0
  6
Continuous
 62
     7
370
    15
100
AcDbSpline
210
0.0
220
0.0
230
1.0
 70
     8
 71
     3
 72
    12
 73
     8
 74
     0
 42
0.0000000001
 43
0.0000000001
 40
0.0
 40
0.0
 40
0.0
 40
0.0
 40
0.2361368213838928
 40
0.4723655274855477
 40
0.7053109339762717
 40
0.9324280746016777
 40
1.0
 40
1.0
 40
1.0
 40
1.0
 10
2094.247264284253
 20
852.3027723637934
 30
0.0
 10
2094.211595157443
 20
852.3028809598393
 30
0.0
 10
2094.14024302438
 20
852.3030981941873
 30
0.0
 10
2094.045524649286
 20
852.3050373260431
 30
0.0
 10
2093.975252676266
 20
852.30777122699
 30
0.0
 10
2093.94489055126
 20
852.3104426035285
 30
0.0
 10
2093.939198913343
 20
852.3119609512534
 30
0.0
 10
2093.937893826127
 20
852.3123091069574
 30
0.0
  0
SPLINE
  5
702
330
6AF
100
AcDbEntity
  8
0
  6
Continuous
 62
     7
370
    15
100
AcDbSpline
210
0.0
220
0.0
230
1.0
 70
     8
 71
     3
 72
     8
 73
     4
 74
     0
 42
0.0000000001
 43
0.0000000001
 40
0.0000000000000103
 40
0.0000000000000103
 40
0.0000000000000103
 40
0.0000000000000103
 40
0.0006674565865733
 40
0.0006674565865733
 40
0.0006674565865733
 40
0.0006674565865733
 10
2084.63789330245
 20
835.3123233758196
 30
0.0
 10
2084.616397348414
 20
835.3200516827701
 30
0.0
 10
2084.594998140605
 20
835.3277803180999
 30
0.0
 10
2084.573687891737
 20
835.3355092514291
 30
0.0
  0
LINE
  5
703
330
6AF
100
AcDbEntity
  8
0
  6
Continuous
 62
     7
370
    15
100
AcDbLine
 10
2084.573687482238
 20
835.335505565774
 30
0.0
 11
2084.581193010866
 21
835.344654878747
 31
0.0
  0
LINE
  5
704
330
6AF
100
AcDbEntity
  8
0
  6
Continuous
 62
     7
370
    15
100
AcDbLine
 10
2084.581193010866
 20
835.344654878747
 30
0.0
 11
2086.20753368324
 21
835.344654878747
 31
0.0
  0
LINE
  5
705
330
6AF
100
AcDbEntity
  8
0
  6
Continuous
 62
     7
370
    15
100
AcDbLine
 10
2086.20753368324
 20
835.344654878747
 30
0.0
 11
2086.18550045377
 21
835.3027528134699
 31
0.0
  0
LINE
  5
706
330
6AF
100
AcDbEntity
  8
0
  6
Continuous
 62
     7
370
    15
100
AcDbLine
 10
2086.18550045377
 20
835.3027528134699
 30
0.0
 11
2084.947263318658
 21
835.3027528134699
 31
0.0
  0
SPLINE
  5
707
330
6AF
100
AcDbEntity
  8
0
  6
Continuous
 62
     7
370
    15
100
AcDbSpline
210
0.0
220
0.0
230
1.0
 70
     8
 71
     3
 72
    10
 73
     6
 74
     0
 42
0.0000000001
 43
0.0000000001
 40
0.0
 40
0.0
 40
0.0
 40
0.0
 40
0.5
 40
0.5
 40
1.0
 40
1.0
 40
1.0
 40
1.0
 10
2084.947263575904
 20
835.3027582550552
 30
0.0
 10
2084.871056740704
 20
835.3027582550552
 30
0.0
 10
2084.796566266541
 20
835.3037214898439
 30
0.0
 10
2084.682533592498
 20
835.3072038624656
 30
0.0
 10
2084.645247583608
 20
835.3096740717209
 30
0.0
 10
2084.637893302452
 20
835.3123233758196
 30
0.0
  0
SPLINE
  5
708
330
6AF
100
AcDbEntity
  8
0
  6
Continuous
 62
     7
370
    15
100
AcDbSpline
210
0.0
220
0.0
230
1.0
 70
     8
 71
     3
 72
     8
 73
     4
 74
     0
 42
0.0000000001
 43
0.0000000001
 40
0.0
 40
0.0
 40
0.0
 40
0.0
 40
0.0006674565865733
 40
0.0006674565865733
 40
0.0006674565865733
 40
0.0006674565865733
 10
2089.147166108599
 20
836.2931931342908
 30
0.0
 10
2089.168662062634
 20
836.2854648273403
 30
0.0
 10
2089.190061270443
 20
836.2777361920105
 30
0.0
 10
2089.211371519312
 20
836.2700072586813
 30
0.0
  0
LINE
  5
709
330
6AF
100
AcDbEntity
  8
0
  6
Continuous
 62
     7
370
    15
100
AcDbLine
 10
2089.211371223986
 20
836.2700169888849
 30
0.0
 11
2089.203865695357
 21
836.2608676759119
 31
0.0
  0
LINE
  5
70A
330
6AF
100
AcDbEntity
  8
0
  6
Continuous
 62
     7
370
    15
100
AcDbLine
 10
2089.203865695357
 20
836.2608676759119
 30
0.0
 11
2087.577525954306
 21
836.2608676759119
 31
0.0
  0
LINE
  5
70B
330
6AF
100
AcDbEntity
  8
0
  6
Continuous
 62
     7
370
    15
100
AcDbLine
 10
2087.577525954306
 20
836.2608676759119
 30
0.0
 11
2087.599559183776
 21
836.302769741189
 31
0.0
  0
LINE
  5
70C
330
6AF
100
AcDbEntity
  8
0
  6
Continuous
 62
     7
370
    15
100
AcDbLine
 10
2087.599559183776
 20
836.302769741189
 30
0.0
 11
2088.837795387566
 21
836.302769741189
 31
0.0
  0
SPLINE
  5
70D
330
6AF
100
AcDbEntity
  8
0
  6
Continuous
 62
     7
370
    15
100
AcDbSpline
210
0.0
220
0.0
230
1.0
 70
     8
 71
     3
 72
    12
 73
     8
 74
     0
 42
0.0000000001
 43
0.0000000001
 40
0.0
 40
0.0
 40
0.0
 40
0.0
 40
0.2361372165499328
 40
0.4723659389468839
 40
0.7053113615064188
 40
0.9324277646371763
 40
1.0
 40
1.0
 40
1.0
 40
1.0
 10
2088.837795387566
 20
836.302769741189
 30
0.0
 10
2088.873464517297
 20
836.3026485482819
 30
0.0
 10
2088.94481659895
 20
836.3024061155041
 30
0.0
 10
2089.039534838804
 20
836.300477090872
 30
0.0
 10
2089.10980763271
 20
836.2977405193667
 30
0.0
 10
2089.140167225166
 20
836.2950697220783
 30
0.0
 10
2089.14586039852
 20
836.2935513573967
 30
0.0
 10
2089.147165845692
 20
836.2932031957026
 30
0.0
  0
SPLINE
  5
70E
330
6AF
100
AcDbEntity
  8
0
  6
Continuous
 62
     7
370
    15
100
AcDbSpline
210
0.0
220
0.0
230
1.0
 70
     8
 71
     3
 72
     8
 73
     4
 74
     0
 42
0.0000000001
 43
0.0000000001
 40
0.0000000000000103
 40
0.0000000000000103
 40
0.0000000000000103
 40
0.0000000000000103
 40
0.0006674565865733
 40
0.0006674565865733
 40
0.0006674565865733
 40
0.0006674565865733
 10
2093.93789330245
 20
835.3123233758196
 30
0.0
 10
2093.916397348414
 20
835.3200516827701
 30
0.0
 10
2093.894998140605
 20
835.3277803180999
 30
0.0
 10
2093.873687891737
 20
835.3355092514291
 30
0.0
  0
LINE
  5
70F
330
6AF
100
AcDbEntity
  8
0
  6
Continuous
 62
     7
370
    15
100
AcDbLine
 10
2093.873688447833
 20
835.335505565774
 30
0.0
 11
2093.881193045139
 21
835.344654878747
 31
0.0
  0
LINE
  5
710
330
6AF
100
AcDbEntity
  8
0
  6
Continuous
 62
     7
370
    15
100
AcDbLine
 10
2093.881193045139
 20
835.344654878747
 30
0.0
 11
2095.507533717513
 21
835.344654878747
 31
0.0
  0
LINE
  5
711
330
6AF
100
AcDbEntity
  8
0
  6
Continuous
 62
     7
370
    15
100
AcDbLine
 10
2095.507533717513
 20
835.344654878747
 30
0.0
 11
2095.485500488043
 21
835.3027528134699
 31
0.0
  0
LINE
  5
712
330
6AF
100
AcDbEntity
  8
0
  6
Continuous
 62
     7
370
    15
100
AcDbLine
 10
2095.485500488043
 20
835.3027528134699
 30
0.0
 11
2094.247264284253
 21
835.3027528134699
 31
0.0
  0
SPLINE
  5
713
330
6AF
100
AcDbEntity
  8
0
  6
Continuous
 62
     7
370
    15
100
AcDbSpline
210
0.0
220
0.0
230
1.0
 70
     8
 71
     3
 72
    10
 73
     6
 74
     0
 42
0.0000000001
 43
0.0000000001
 40
0.0
 40
0.0
 40
0.0
 40
0.0
 40
0.5
 40
0.5
 40
1.0
 40
1.0
 40
1.0
 40
1.0
 10
2094.247263575903
 20
835.3027582550552
 30
0.0
 10
2094.171056740703
 20
835.3027582550552
 30
0.0
 10
2094.096566266541
 20
835.3037214898439
 30
0.0
 10
2093.982533592499
 20
835.3072038624656
 30
0.0
 10
2093.945247583608
 20
835.3096740717209
 30
0.0
 10
2093.937893302451
 20
835.3123233758196
 30
0.0
  0
SPLINE
  5
714
330
6AF
100
AcDbEntity
  8
0
  6
Continuous
 62
     7
370
    15
100
AcDbSpline
210
0.0
220
0.0
230
1.0
 70
     8
 71
     3
 72
     8
 73
     4
 74
     0
 42
0.0000000001
 43
0.0000000001
 40
0.0
 40
0.0
 40
0.0
 40
0.0
 40
0.0006674565865733
 40
0.0006674565865733
 40
0.0006674565865733
 40
0.0006674565865733
 10
2098.447166108599
 20
836.2931931342908
 30
0.0
 10
2098.468662062634
 20
836.2854648273403
 30
0.0
 10
2098.490061270443
 20
836.2777361920105
 30
0.0
 10
2098.511371519312
 20
836.2700072586813
 30
0.0
  0
LINE
  5
715
330
6AF
100
AcDbEntity
  8
0
  6
Continuous
 62
     7
370
    15
100
AcDbLine
 10
2098.511371258259
 20
836.2700169888849
 30
0.0
 11
2098.503866660952
 21
836.2608676759119
 31
0.0
  0
LINE
  5
716
330
6AF
100
AcDbEntity
  8
0
  6
Continuous
 62
     7
370
    15
100
AcDbLine
 10
2098.503866660952
 20
836.2608676759119
 30
0.0
 11
2096.877525988579
 21
836.2608676759119
 31
0.0
  0
LINE
  5
717
330
6AF
100
AcDbEntity
  8
0
  6
Continuous
 62
     7
370
    15
100
AcDbLine
 10
2096.877525988579
 20
836.2608676759119
 30
0.0
 11
2096.899559218049
 21
836.302769741189
 31
0.0
  0
LINE
  5
718
330
6AF
100
AcDbEntity
  8
0
  6
Continuous
 62
     7
370
    15
100
AcDbLine
 10
2096.899559218049
 20
836.302769741189
 30
0.0
 11
2098.137795421838
 21
836.302769741189
 31
0.0
  0
SPLINE
  5
719
330
6AF
100
AcDbEntity
  8
0
  6
Continuous
 62
     7
370
    15
100
AcDbSpline
210
0.0
220
0.0
230
1.0
 70
     8
 71
     3
 72
    12
 73
     8
 74
     0
 42
0.0000000001
 43
0.0000000001
 40
0.0
 40
0.0
 40
0.0
 40
0.0
 40
0.2361373222875354
 40
0.4723661504630638
 40
0.7053116773309788
 40
0.9324274290145069
 40
0.9999999999999998
 40
0.9999999999999998
 40
0.9999999999999998
 40
0.9999999999999998
 10
2098.137795421838
 20
836.302769741189
 30
0.0
 10
2098.173464568001
 20
836.3026485484375
 30
0.0
 10
2098.244816682523
 20
836.3024061159713
 30
0.0
 10
2098.339534676931
 20
836.3004770890126
 30
0.0
 10
2098.40980830746
 20
836.2977405291186
 30
0.0
 10
2098.440165363866
 20
836.2950697109237
 30
0.0
 10
2098.445860072798
 20
836.2935513570262
 30
0.0
 10
2098.447165879965
 20
836.2932031957026
 30
0.0
  0
LINE
  5
71A
330
6AF
100
AcDbEntity
  8
0
  6
Continuous
 62
     7
370
    15
100
AcDbLine
 10
2084.573687482238
 20
870.2699964848871
 30
0.0
 11
2084.637892860532
 21
870.2931826917048
 31
0.0
  0
SPLINE
  5
71B
330
6AF
100
AcDbEntity
  8
0
  6
Continuous
 62
     7
370
    15
100
AcDbSpline
210
0.0
220
0.0
230
1.0
 70
     8
 71
     3
 72
    12
 73
     8
 74
     0
 42
0.0000000001
 43
0.0000000001
 40
0.0
 40
0.0
 40
0.0
 40
0.0
 40
0.221527453176214
 40
0.4430169170582855
 40
0.6677462274009322
 40
0.8981011502968009
 40
1.0
 40
1.0
 40
1.0
 40
1.0
 10
2084.637892860532
 20
870.2931826917048
 30
0.0
 10
2084.644446464165
 20
870.2943325453132
 30
0.0
 10
2084.657552547568
 20
870.2966320553441
 30
0.0
 10
2084.717601089855
 20
870.2996043510504
 30
0.0
 10
2084.800358857345
 20
870.3017005318532
 30
0.0
 10
2084.881947199244
 20
870.3026444369159
 30
0.0
 10
2084.931933139607
 20
870.3027246397871
 30
0.0
 10
2084.947263318658
 20
870.3027492371912
 30
0.0
  0
LINE
  5
71C
330
6AF
100
AcDbEntity
  8
0
  6
Continuous
 62
     7
370
    15
100
AcDbLine
 10
2084.947263318658
 20
870.3027492371912
 30
0.0
 11
2086.18550045377
 21
870.3027492371912
 31
0.0
  0
LINE
  5
71D
330
6AF
100
AcDbEntity
  8
0
  6
Continuous
 62
     7
370
    15
100
AcDbLine
 10
2086.20753368324
 20
870.2608471719141
 30
0.0
 11
2086.18550045377
 21
870.3027492371912
 31
0.0
  0
LINE
  5
71E
330
6AF
100
AcDbEntity
  8
0
  6
Continuous
 62
     7
370
    15
100
AcDbLine
 10
2086.20753368324
 20
870.2608471719141
 30
0.0
 11
2084.581193010866
 21
870.2608471719141
 31
0.0
  0
LINE
  5
71F
330
6AF
100
AcDbEntity
  8
0
  6
Continuous
 62
     7
370
    15
100
AcDbLine
 10
2084.581193010866
 20
870.2608471719141
 30
0.0
 11
2084.573687482238
 21
870.2699964848871
 31
0.0
  0
SPLINE
  5
720
330
6AF
100
AcDbEntity
  8
0
  6
Continuous
 62
     7
370
    15
100
AcDbSpline
210
0.0
220
0.0
230
1.0
 70
     8
 71
     3
 72
     8
 73
     4
 74
     0
 42
0.0000000001
 43
0.0000000001
 40
0.0000000000000134
 40
0.0000000000000134
 40
0.0000000000000134
 40
0.0000000000000134
 40
0.0006674565865992
 40
0.0006674565865992
 40
0.0006674565865992
 40
0.0006674565865992
 10
2089.211371519313
 20
869.33550925143
 30
0.0
 10
2089.190061270444
 20
869.3277803181004
 30
0.0
 10
2089.168662062634
 20
869.3200516827705
 30
0.0
 10
2089.147166108598
 20
869.3123233758196
 30
0.0
  0
SPLINE
  5
721
330
6AF
100
AcDbEntity
  8
0
  6
Continuous
 62
     7
370
    15
100
AcDbSpline
210
0.0
220
0.0
230
1.0
 70
     8
 71
     3
 72
    10
 73
     6
 74
     0
 42
0.0000000001
 43
0.0000000001
 40
0.0
 40
0.0
 40
0.0
 40
0.0
 40
0.5
 40
0.5
 40
1.0
 40
1.0
 40
1.0
 40
1.0
 10
2089.147166108597
 20
869.3123233758196
 30
0.0
 10
2089.139817255771
 20
869.309676027221
 30
0.0
 10
2089.102331052365
 20
869.3071994596826
 30
0.0
 10
2088.988892494988
 20
869.3037321430823
 30
0.0
 10
2088.91394959764
 20
869.3027582550552
 30
0.0
 10
2088.837795835145
 20
869.3027582550552
 30
0.0
  0
LINE
  5
722
330
6AF
100
AcDbEntity
  8
0
  6
Continuous
 62
     7
370
    15
100
AcDbLine
 10
2088.837795387566
 20
869.3027621117945
 30
0.0
 11
2087.599559183776
 21
869.3027621117945
 31
0.0
  0
LINE
  5
723
330
6AF
100
AcDbEntity
  8
0
  6
Continuous
 62
     7
370
    15
100
AcDbLine
 10
2087.599559183776
 20
869.3027621117945
 30
0.0
 11
2087.577525954306
 21
869.3446641770716
 31
0.0
  0
LINE
  5
724
330
6AF
100
AcDbEntity
  8
0
  6
Continuous
 62
     7
370
    15
100
AcDbLine
 10
2087.577525954306
 20
869.3446641770716
 30
0.0
 11
2089.203865695357
 21
869.3446641770716
 31
0.0
  0
LINE
  5
725
330
6AF
100
AcDbEntity
  8
0
  6
Continuous
 62
     7
370
    15
100
AcDbLine
 10
2089.203865695357
 20
869.3446641770716
 30
0.0
 11
2089.211371223986
 21
869.3355148640986
 31
0.0
  0
LINE
  5
726
330
6AF
100
AcDbEntity
  8
0
  6
Continuous
 62
     7
370
    15
100
AcDbLine
 10
2093.873688447833
 20
870.2699964848871
 30
0.0
 11
2093.937893826127
 21
870.2931826917048
 31
0.0
  0
SPLINE
  5
727
330
6AF
100
AcDbEntity
  8
0
  6
Continuous
 62
     7
370
    15
100
AcDbSpline
210
0.0
220
0.0
230
1.0
 70
     8
 71
     3
 72
    12
 73
     8
 74
     0
 42
0.0000000001
 43
0.0000000001
 40
0.0
 40
0.0
 40
0.0
 40
0.0
 40
0.2215258914989396
 40
0.4430160506451615
 40
0.6677448800783444
 40
0.8980993100262207
 40
0.9999999999999998
 40
0.9999999999999998
 40
0.9999999999999998
 40
0.9999999999999998
 10
2093.937893826127
 20
870.2931826917048
 30
0.0
 10
2093.944446604876
 20
870.2943325482165
 30
0.0
 10
2093.957551105406
 20
870.2966320757669
 30
0.0
 10
2094.017601357904
 20
870.2996043401626
 30
0.0
 10
2094.100358784952
 20
870.3017005337892
 30
0.0
 10
2094.181947545529
 20
870.3026444405818
 30
0.0
 10
2094.231933795541
 20
870.3027246403838
 30
0.0
 10
2094.247264284253
 20
870.3027492371912
 30
0.0
  0
LINE
  5
728
330
6AF
100
AcDbEntity
  8
0
  6
Continuous
 62
     7
370
    15
100
AcDbLine
 10
2094.247264284253
 20
870.3027492371912
 30
0.0
 11
2095.485500488043
 21
870.3027492371912
 31
0.0
  0
LINE
  5
729
330
6AF
100
AcDbEntity
  8
0
  6
Continuous
 62
     7
370
    15
100
AcDbLine
 10
2095.507533717513
 20
870.2608471719141
 30
0.0
 11
2095.485500488043
 21
870.3027492371912
 31
0.0
  0
LINE
  5
72A
330
6AF
100
AcDbEntity
  8
0
  6
Continuous
 62
     7
370
    15
100
AcDbLine
 10
2095.507533717513
 20
870.2608471719141
 30
0.0
 11
2093.881193045139
 21
870.2608471719141
 31
0.0
  0
LINE
  5
72B
330
6AF
100
AcDbEntity
  8
0
  6
Continuous
 62
     7
370
    15
100
AcDbLine
 10
2093.881193045139
 20
870.2608471719141
 30
0.0
 11
2093.873688447833
 21
870.2699964848871
 31
0.0
  0
SPLINE
  5
72C
330
6AF
100
AcDbEntity
  8
0
  6
Continuous
 62
     7
370
    15
100
AcDbSpline
210
0.0
220
0.0
230
1.0
 70
     8
 71
     3
 72
     8
 73
     4
 74
     0
 42
0.0000000001
 43
0.0000000001
 40
0.0000000000000134
 40
0.0000000000000134
 40
0.0000000000000134
 40
0.0000000000000134
 40
0.0006674565865992
 40
0.0006674565865992
 40
0.0006674565865992
 40
0.0006674565865992
 10
2098.511371519313
 20
869.33550925143
 30
0.0
 10
2098.490061270444
 20
869.3277803181004
 30
0.0
 10
2098.468662062634
 20
869.3200516827705
 30
0.0
 10
2098.447166108598
 20
869.3123233758196
 30
0.0
  0
SPLINE
  5
72D
330
6AF
100
AcDbEntity
  8
0
  6
Continuous
 62
     7
370
    15
100
AcDbSpline
210
0.0
220
0.0
230
1.0
 70
     8
 71
     3
 72
    10
 73
     6
 74
     0
 42
0.0000000001
 43
0.0000000001
 40
0.0
 40
0.0
 40
0.0
 40
0.0
 40
0.5
 40
0.5
 40
1.0
 40
1.0
 40
1.0
 40
1.0
 10
2098.447166108597
 20
869.3123233758196
 30
0.0
 10
2098.439817255771
 20
869.309676027221
 30
0.0
 10
2098.402331052364
 20
869.3071994596826
 30
0.0
 10
2098.288892494989
 20
869.3037321430821
 30
0.0
 10
2098.21394959764
 20
869.3027582550552
 30
0.0
 10
2098.137795835144
 20
869.3027582550552
 30
0.0
  0
LINE
  5
72E
330
6AF
100
AcDbEntity
  8
0
  6
Continuous
 62
     7
370
    15
100
AcDbLine
 10
2098.137795421838
 20
869.3027621117945
 30
0.0
 11
2096.899559218049
 21
869.3027621117945
 31
0.0
  0
LINE
  5
72F
330
6AF
100
AcDbEntity
  8
0
  6
Continuous
 62
     7
370
    15
100
AcDbLine
 10
2096.899559218049
 20
869.3027621117945
 30
0.0
 11
2096.877525988579
 21
869.3446641770716
 31
0.0
  0
LINE
  5
730
330
6AF
100
AcDbEntity
  8
0
  6
Continuous
 62
     7
370
    15
100
AcDbLine
 10
2096.877525988579
 20
869.3446641770716
 30
0.0
 11
2098.503866660952
 21
869.3446641770716
 31
0.0
  0
LINE
  5
731
330
6AF
100
AcDbEntity
  8
0
  6
Continuous
 62
     7
370
    15
100
AcDbLine
 10
2098.503866660952
 20
869.3446641770716
 30
0.0
 11
2098.511371258259
 21
869.3355148640986
 31
0.0
  0
SPLINE
  5
732
330
6AF
100
AcDbEntity
  8
0
  6
Continuous
 62
     7
370
    15
100
AcDbSpline
210
0.0
220
0.0
230
1.0
 70
     8
 71
     3
 72
     8
 73
     4
 74
     0
 42
0.0000000001
 43
0.0000000001
 40
0.0000000000000132
 40
0.0000000000000132
 40
0.0000000000000132
 40
0.0000000000000132
 40
0.0006674565865983
 40
0.0006674565865983
 40
0.0006674565865983
 40
0.0006674565865983
 10
2084.573687891738
 20
853.2700072586804
 30
0.0
 10
2084.594998140608
 20
853.27773619201
 30
0.0
 10
2084.616397348417
 20
853.2854648273401
 30
0.0
 10
2084.637893302454
 20
853.2931931342908
 30
0.0
  0
SPLINE
  5
733
330
6AF
100
AcDbEntity
  8
0
  6
Continuous
 62
     7
370
    15
100
AcDbSpline
210
0.0
220
0.0
230
1.0
 70
     8
 71
     3
 72
    10
 73
     6
 74
     0
 42
0.0000000001
 43
0.0000000001
 40
0.0
 40
0.0
 40
0.0
 40
0.0
 40
0.5
 40
0.5
 40
1.0
 40
1.0
 40
1.0
 40
1.0
 10
2084.637893302452
 20
853.2931931342908
 30
0.0
 10
2084.645242155278
 20
853.2958404828894
 30
0.0
 10
2084.682728358684
 20
853.298317050428
 30
0.0
 10
2084.79616691606
 20
853.3017843670281
 30
0.0
 10
2084.871109813409
 20
853.3027582550554
 30
0.0
 10
2084.947263575904
 20
853.3027582550554
 30
0.0
  0
LINE
  5
734
330
6AF
100
AcDbEntity
  8
0
  6
Continuous
 62
     7
370
    15
100
AcDbLine
 10
2084.947263318658
 20
853.3027594891901
 30
0.0
 11
2086.18550045377
 21
853.3027594891901
 31
0.0
  0
LINE
  5
735
330
6AF
100
AcDbEntity
  8
0
  6
Continuous
 62
     7
370
    15
100
AcDbLine
 10
2086.20753368324
 20
853.260857423913
 30
0.0
 11
2086.18550045377
 21
853.3027594891901
 31
0.0
  0
LINE
  5
736
330
6AF
100
AcDbEntity
  8
0
  6
Continuous
 62
     7
370
    15
100
AcDbLine
 10
2086.20753368324
 20
853.260857423913
 30
0.0
 11
2084.581193010866
 21
853.260857423913
 31
0.0
  0
LINE
  5
737
330
6AF
100
AcDbEntity
  8
0
  6
Continuous
 62
     7
370
    15
100
AcDbLine
 10
2084.581193010866
 20
853.260857423913
 30
0.0
 11
2084.573687482238
 21
853.270006736886
 31
0.0
  0
SPLINE
  5
738
330
6AF
100
AcDbEntity
  8
0
  6
Continuous
 62
     7
370
    15
100
AcDbSpline
210
0.0
220
0.0
230
1.0
 70
     8
 71
     3
 72
     8
 73
     4
 74
     0
 42
0.0000000001
 43
0.0000000001
 40
0.0000000000000132
 40
0.0000000000000132
 40
0.0000000000000132
 40
0.0000000000000132
 40
0.0006674565865983
 40
0.0006674565865983
 40
0.0006674565865983
 40
0.0006674565865983
 10
2093.873687891738
 20
853.2700072586804
 30
0.0
 10
2093.894998140608
 20
853.27773619201
 30
0.0
 10
2093.916397348417
 20
853.2854648273401
 30
0.0
 10
2093.937893302454
 20
853.2931931342908
 30
0.0
  0
SPLINE
  5
739
330
6AF
100
AcDbEntity
  8
0
  6
Continuous
 62
     7
370
    15
100
AcDbSpline
210
0.0
220
0.0
230
1.0
 70
     8
 71
     3
 72
    10
 73
     6
 74
     0
 42
0.0000000001
 43
0.0000000001
 40
0.0
 40
0.0
 40
0.0
 40
0.0
 40
0.5
 40
0.5
 40
1.0
 40
1.0
 40
1.0
 40
1.0
 10
2093.937893302451
 20
853.2931931342908
 30
0.0
 10
2093.945242155278
 20
853.2958404828894
 30
0.0
 10
2093.982728358684
 20
853.298317050428
 30
0.0
 10
2094.09616691606
 20
853.3017843670281
 30
0.0
 10
2094.171109813409
 20
853.3027582550554
 30
0.0
 10
2094.247263575903
 20
853.3027582550554
 30
0.0
  0
LINE
  5
73A
330
6AF
100
AcDbEntity
  8
0
  6
Continuous
 62
     7
370
    15
100
AcDbLine
 10
2094.247264284253
 20
853.3027594891901
 30
0.0
 11
2095.485500488043
 21
853.3027594891901
 31
0.0
  0
LINE
  5
73B
330
6AF
100
AcDbEntity
  8
0
  6
Continuous
 62
     7
370
    15
100
AcDbLine
 10
2095.507533717513
 20
853.260857423913
 30
0.0
 11
2095.485500488043
 21
853.3027594891901
 31
0.0
  0
LINE
  5
73C
330
6AF
100
AcDbEntity
  8
0
  6
Continuous
 62
     7
370
    15
100
AcDbLine
 10
2095.507533717513
 20
853.260857423913
 30
0.0
 11
2093.881193045139
 21
853.260857423913
 31
0.0
  0
LINE
  5
73D
330
6AF
100
AcDbEntity
  8
0
  6
Continuous
 62
     7
370
    15
100
AcDbLine
 10
2093.881193045139
 20
853.260857423913
 30
0.0
 11
2093.873688447833
 21
853.270006736886
 31
0.0
  0
LINE
  5
73E
330
6AF
100
AcDbEntity
  8
0
  6
Continuous
 62
     7
370
    15
100
AcDbLine
 10
2098.511371258259
 20
852.3354953137751
 30
0.0
 11
2098.447165879965
 21
852.3123091069574
 31
0.0
  0
SPLINE
  5
73F
330
6AF
100
AcDbEntity
  8
0
  6
Continuous
 62
     7
370
    15
100
AcDbSpline
210
0.0
220
0.0
230
1.0
 70
     8
 71
     3
 72
    12
 73
     8
 74
     0
 42
0.0000000001
 43
0.0000000001
 40
0.0
 40
0.0
 40
0.0
 40
0.0
 40
0.2215252622450417
 40
0.4430135806607852
 40
0.6677442832078661
 40
0.8980992308186646
 40
1.0
 40
1.0
 40
1.0
 40
1.0
 10
2098.447165879965
 20
852.3123091069574
 30
0.0
 10
2098.44061217046
 20
852.3111711045922
 30
0.0
 10
2098.427505844414
 20
852.3088952896467
 30
0.0
 10
2098.367458383498
 20
852.3059240275234
 30
0.0
 10
2098.2847011066
 20
852.303787145759
 30
0.0
 10
2098.203112227247
 20
852.3028287281359
 30
0.0
 10
2098.153125914246
 20
852.3027855930552
 30
0.0
 10
2098.137795421838
 20
852.3027723637934
 30
0.0
  0
LINE
  5
740
330
6AF
100
AcDbEntity
  8
0
  6
Continuous
 62
     7
370
    15
100
AcDbLine
 10
2098.137795421838
 20
852.3027723637934
 30
0.0
 11
2096.899559218049
 21
852.3027723637934
 31
0.0
  0
LINE
  5
741
330
6AF
100
AcDbEntity
  8
0
  6
Continuous
 62
     7
370
    15
100
AcDbLine
 10
2096.899559218049
 20
852.3027723637934
 30
0.0
 11
2096.877525988579
 21
852.3446744290705
 31
0.0
  0
LINE
  5
742
330
6AF
100
AcDbEntity
  8
0
  6
Continuous
 62
     7
370
    15
100
AcDbLine
 10
2096.877525988579
 20
852.3446744290705
 30
0.0
 11
2098.503866660952
 21
852.3446744290705
 31
0.0
  0
LINE
  5
743
330
6AF
100
AcDbEntity
  8
0
  6
Continuous
 62
     7
370
    15
100
AcDbLine
 10
2098.503866660952
 20
852.3446744290705
 30
0.0
 11
2098.511371258259
 21
852.3354953137751
 31
0.0
  0
SPLINE
  5
744
330
6AF
100
AcDbEntity
  8
0
  6
Continuous
 62
     7
370
    15
100
AcDbSpline
210
0.0
220
0.0
230
1.0
 70
     8
 71
     3
 72
     8
 73
     4
 74
     0
 42
0.0000000001
 43
0.0000000001
 40
0.000000000000013
 40
0.000000000000013
 40
0.000000000000013
 40
0.000000000000013
 40
0.0006674565865984
 40
0.0006674565865984
 40
0.0006674565865984
 40
0.0006674565865984
 10
2084.573687891734
 20
836.2700072586804
 30
0.0
 10
2084.594998140604
 20
836.27773619201
 30
0.0
 10
2084.616397348413
 20
836.2854648273401
 30
0.0
 10
2084.63789330245
 20
836.2931931342908
 30
0.0
  0
SPLINE
  5
745
330
6AF
100
AcDbEntity
  8
0
  6
Continuous
 62
     7
370
    15
100
AcDbSpline
210
0.0
220
0.0
230
1.0
 70
     8
 71
     3
 72
    12
 73
     8
 74
     0
 42
0.0000000001
 43
0.0000000001
 40
0.0
 40
0.0
 40
0.0
 40
0.0
 40
0.2215275710180122
 40
0.4430152526767956
 40
0.6677460506581335
 40
0.8981010960915838
 40
1.0
 40
1.0
 40
1.0
 40
1.0
 10
2084.637892860532
 20
836.2932031957026
 30
0.0
 10
2084.644446383221
 20
836.2943573042175
 30
0.0
 10
2084.657552248541
 20
836.2966653134332
 30
0.0
 10
2084.71760178998
 20
836.2995734884249
 30
0.0
 10
2084.800358434427
 20
836.3017355685748
 30
0.0
 10
2084.881947220917
 20
836.3026635251351
 30
0.0
 10
2084.931933144694
 20
836.3027448114911
 30
0.0
 10
2084.947263318658
 20
836.302769741189
 30
0.0
  0
LINE
  5
746
330
6AF
100
AcDbEntity
  8
0
  6
Continuous
 62
     7
370
    15
100
AcDbLine
 10
2084.947263318658
 20
836.302769741189
 30
0.0
 11
2086.18550045377
 21
836.302769741189
 31
0.0
  0
LINE
  5
747
330
6AF
100
AcDbEntity
  8
0
  6
Continuous
 62
     7
370
    15
100
AcDbLine
 10
2086.20753368324
 20
836.2608676759119
 30
0.0
 11
2086.18550045377
 21
836.302769741189
 31
0.0
  0
LINE
  5
748
330
6AF
100
AcDbEntity
  8
0
  6
Continuous
 62
     7
370
    15
100
AcDbLine
 10
2086.20753368324
 20
836.2608676759119
 30
0.0
 11
2084.581193010866
 21
836.2608676759119
 31
0.0
  0
LINE
  5
749
330
6AF
100
AcDbEntity
  8
0
  6
Continuous
 62
     7
370
    15
100
AcDbLine
 10
2084.581193010866
 20
836.2608676759119
 30
0.0
 11
2084.573687482238
 21
836.2700169888849
 31
0.0
  0
LINE
  5
74A
330
6AF
100
AcDbEntity
  8
0
  6
Continuous
 62
     7
370
    15
100
AcDbLine
 10
2089.211371223986
 20
852.3354953137751
 30
0.0
 11
2089.147165845692
 21
852.3123091069574
 31
0.0
  0
SPLINE
  5
74B
330
6AF
100
AcDbEntity
  8
0
  6
Continuous
 62
     7
370
    15
100
AcDbSpline
210
0.0
220
0.0
230
1.0
 70
     8
 71
     3
 72
    12
 73
     8
 74
     0
 42
0.0000000001
 43
0.0000000001
 40
0.0
 40
0.0
 40
0.0
 40
0.0
 40
0.2215245798771208
 40
0.4430139290024699
 40
0.6677444910020098
 40
0.8980992945478407
 40
1.0
 40
1.0
 40
1.0
 40
1.0
 10
2089.147165845692
 20
852.3123091069574
 30
0.0
 10
2089.14061258126
 20
852.3111711023195
 30
0.0
 10
2089.127507094614
 20
852.3088952740293
 30
0.0
 10
2089.067458181084
 20
852.3059240378522
 30
0.0
 10
2088.984701160381
 20
852.3037871438811
 30
0.0
 10
2088.903112184398
 20
852.3028287283187
 30
0.0
 10
2088.853125877959
 20
852.3027855930981
 30
0.0
 10
2088.837795387566
 20
852.3027723637934
 30
0.0
  0
LINE
  5
74C
330
6AF
100
AcDbEntity
  8
0
  6
Continuous
 62
     7
370
    15
100
AcDbLine
 10
2088.837795387566
 20
852.3027723637934
 30
0.0
 11
2087.599559183776
 21
852.3027723637934
 31
0.0
  0
LINE
  5
74D
330
6AF
100
AcDbEntity
  8
0
  6
Continuous
 62
     7
370
    15
100
AcDbLine
 10
2087.599559183776
 20
852.3027723637934
 30
0.0
 11
2087.577525954306
 21
852.3446744290705
 31
0.0
  0
LINE
  5
74E
330
6AF
100
AcDbEntity
  8
0
  6
Continuous
 62
     7
370
    15
100
AcDbLine
 10
2087.577525954306
 20
852.3446744290705
 30
0.0
 11
2089.203865695357
 21
852.3446744290705
 31
0.0
  0
LINE
  5
74F
330
6AF
100
AcDbEntity
  8
0
  6
Continuous
 62
     7
370
    15
100
AcDbLine
 10
2089.203865695357
 20
852.3446744290705
 30
0.0
 11
2089.211371223986
 21
852.3354953137751
 31
0.0
  0
SPLINE
  5
750
330
6AF
100
AcDbEntity
  8
0
  6
Continuous
 62
     7
370
    15
100
AcDbSpline
210
0.0
220
0.0
230
1.0
 70
     8
 71
     3
 72
     8
 73
     4
 74
     0
 42
0.0000000001
 43
0.0000000001
 40
0.0000000000000134
 40
0.0000000000000134
 40
0.0000000000000134
 40
0.0000000000000134
 40
0.0006674565865991
 40
0.0006674565865991
 40
0.0006674565865991
 40
0.0006674565865991
 10
2098.511371519315
 20
835.33550925143
 30
0.0
 10
2098.490061270445
 20
835.3277803181004
 30
0.0
 10
2098.468662062635
 20
835.3200516827705
 30
0.0
 10
2098.447166108599
 20
835.3123233758196
 30
0.0
  0
SPLINE
  5
751
330
6AF
100
AcDbEntity
  8
0
  6
Continuous
 62
     7
370
    15
100
AcDbSpline
210
0.0
220
0.0
230
1.0
 70
     8
 71
     3
 72
    10
 73
     6
 74
     0
 42
0.0000000001
 43
0.0000000001
 40
0.0
 40
0.0
 40
0.0
 40
0.0
 40
0.5
 40
0.5
 40
1.0
 40
1.0
 40
1.0
 40
1.0
 10
2098.447166108597
 20
835.3123233758196
 30
0.0
 10
2098.439817255771
 20
835.309676027221
 30
0.0
 10
2098.402331052364
 20
835.3071994596826
 30
0.0
 10
2098.288892494989
 20
835.3037321430823
 30
0.0
 10
2098.21394959764
 20
835.3027582550552
 30
0.0
 10
2098.137795835144
 20
835.3027582550552
 30
0.0
  0
LINE
  5
752
330
6AF
100
AcDbEntity
  8
0
  6
Continuous
 62
     7
370
    15
100
AcDbLine
 10
2098.137795421838
 20
835.3027528134699
 30
0.0
 11
2096.899559218049
 21
835.3027528134699
 31
0.0
  0
LINE
  5
753
330
6AF
100
AcDbEntity
  8
0
  6
Continuous
 62
     7
370
    15
100
AcDbLine
 10
2096.899559218049
 20
835.3027528134699
 30
0.0
 11
2096.877525988579
 21
835.344654878747
 31
0.0
  0
LINE
  5
754
330
6AF
100
AcDbEntity
  8
0
  6
Continuous
 62
     7
370
    15
100
AcDbLine
 10
2096.877525988579
 20
835.344654878747
 30
0.0
 11
2098.503866660952
 21
835.344654878747
 31
0.0
  0
LINE
  5
755
330
6AF
100
AcDbEntity
  8
0
  6
Continuous
 62
     7
370
    15
100
AcDbLine
 10
2098.503866660952
 20
835.344654878747
 30
0.0
 11
2098.511371258259
 21
835.335505565774
 31
0.0
  0
SPLINE
  5
756
330
6AF
100
AcDbEntity
  8
0
  6
Continuous
 62
     7
370
    15
100
AcDbSpline
210
0.0
220
0.0
230
1.0
 70
     8
 71
     3
 72
     8
 73
     4
 74
     0
 42
0.0000000001
 43
0.0000000001
 40
0.000000000000013
 40
0.000000000000013
 40
0.000000000000013
 40
0.000000000000013
 40
0.0006674565865984
 40
0.0006674565865984
 40
0.0006674565865984
 40
0.0006674565865984
 10
2093.873687891735
 20
836.2700072586804
 30
0.0
 10
2093.894998140604
 20
836.27773619201
 30
0.0
 10
2093.916397348413
 20
836.2854648273401
 30
0.0
 10
2093.93789330245
 20
836.2931931342908
 30
0.0
  0
SPLINE
  5
757
330
6AF
100
AcDbEntity
  8
0
  6
Continuous
 62
     7
370
    15
100
AcDbSpline
210
0.0
220
0.0
230
1.0
 70
     8
 71
     3
 72
    12
 73
     8
 74
     0
 42
0.0000000001
 43
0.0000000001
 40
0.0
 40
0.0
 40
0.0
 40
0.0
 40
0.221526009337433
 40
0.4430143862723594
 40
0.6677447033385401
 40
0.8980992558211628
 40
1.0
 40
1.0
 40
1.0
 40
1.0
 10
2093.937893826127
 20
836.2932031957026
 30
0.0
 10
2093.944446523932
 20
836.2943573070666
 30
0.0
 10
2093.957550806385
 20
836.2966653337368
 30
0.0
 10
2094.017602058032
 20
836.2995734775212
 30
0.0
 10
2094.100358362035
 20
836.301735570475
 30
0.0
 10
2094.181947567204
 20
836.302663528771
 30
0.0
 10
2094.231933800628
 20
836.3027448120773
 30
0.0
 10
2094.247264284253
 20
836.302769741189
 30
0.0
  0
LINE
  5
758
330
6AF
100
AcDbEntity
  8
0
  6
Continuous
 62
     7
370
    15
100
AcDbLine
 10
2094.247264284253
 20
836.302769741189
 30
0.0
 11
2095.485500488043
 21
836.302769741189
 31
0.0
  0
LINE
  5
759
330
6AF
100
AcDbEntity
  8
0
  6
Continuous
 62
     7
370
    15
100
AcDbLine
 10
2095.507533717513
 20
836.2608676759119
 30
0.0
 11
2095.485500488043
 21
836.302769741189
 31
0.0
  0
LINE
  5
75A
330
6AF
100
AcDbEntity
  8
0
  6
Continuous
 62
     7
370
    15
100
AcDbLine
 10
2095.507533717513
 20
836.2608676759119
 30
0.0
 11
2093.881193045139
 21
836.2608676759119
 31
0.0
  0
LINE
  5
75B
330
6AF
100
AcDbEntity
  8
0
  6
Continuous
 62
     7
370
    15
100
AcDbLine
 10
2093.881193045139
 20
836.2608676759119
 30
0.0
 11
2093.873688447833
 21
836.2700169888849
 31
0.0
  0
SPLINE
  5
75C
330
6AF
100
AcDbEntity
  8
0
  6
Continuous
 62
     7
370
    15
100
AcDbSpline
210
0.0
220
0.0
230
1.0
 70
     8
 71
     3
 72
     8
 73
     4
 74
     0
 42
0.0000000001
 43
0.0000000001
 40
0.0000000000000134
 40
0.0000000000000134
 40
0.0000000000000134
 40
0.0000000000000134
 40
0.0006674565865991
 40
0.0006674565865991
 40
0.0006674565865991
 40
0.0006674565865991
 10
2089.211371519314
 20
835.33550925143
 30
0.0
 10
2089.190061270445
 20
835.3277803181004
 30
0.0
 10
2089.168662062635
 20
835.3200516827705
 30
0.0
 10
2089.147166108598
 20
835.3123233758196
 30
0.0
  0
SPLINE
  5
75D
330
6AF
100
AcDbEntity
  8
0
  6
Continuous
 62
     7
370
    15
100
AcDbSpline
210
0.0
220
0.0
230
1.0
 70
     8
 71
     3
 72
    10
 73
     6
 74
     0
 42
0.0000000001
 43
0.0000000001
 40
0.0
 40
0.0
 40
0.0
 40
0.0
 40
0.5
 40
0.5
 40
1.0
 40
1.0
 40
1.0
 40
1.0
 10
2089.147166108597
 20
835.3123233758196
 30
0.0
 10
2089.139817255771
 20
835.309676027221
 30
0.0
 10
2089.102331052365
 20
835.3071994596826
 30
0.0
 10
2088.988892494989
 20
835.3037321430823
 30
0.0
 10
2088.91394959764
 20
835.3027582550552
 30
0.0
 10
2088.837795835145
 20
835.3027582550552
 30
0.0
  0
LINE
  5
75E
330
6AF
100
AcDbEntity
  8
0
  6
Continuous
 62
     7
370
    15
100
AcDbLine
 10
2088.837795387566
 20
835.3027528134699
 30
0.0
 11
2087.599559183776
 21
835.3027528134699
 31
0.0
  0
LINE
  5
75F
330
6AF
100
AcDbEntity
  8
0
  6
Continuous
 62
     7
370
    15
100
AcDbLine
 10
2087.599559183776
 20
835.3027528134699
 30
0.0
 11
2087.577525954306
 21
835.344654878747
 31
0.0
  0
LINE
  5
760
330
6AF
100
AcDbEntity
  8
0
  6
Continuous
 62
     7
370
    15
100
AcDbLine
 10
2087.577525954306
 20
835.344654878747
 30
0.0
 11
2089.203865695357
 21
835.344654878747
 31
0.0
  0
LINE
  5
761
330
6AF
100
AcDbEntity
  8
0
  6
Continuous
 62
     7
370
    15
100
AcDbLine
 10
2089.203865695357
 20
835.344654878747
 30
0.0
 11
2089.211371223986
 21
835.335505565774
 31
0.0
  0
ARC
  5
762
330
6AF
100
AcDbEntity
  8
0
  6
Continuous
 62
     7
370
    15
100
AcDbCircle
 10
2086.892529705524
 20
852.8027582550553
 30
0.0
 40
0.8659623649733068
100
AcDbArc
 50
35.26733902067796
 51
57.05023247212724
  0
LINE
  5
763
330
6AF
100
AcDbEntity
  8
0
  6
Continuous
 62
     7
370
    15
100
AcDbLine
 10
2087.363529447078
 20
854.568195900094
 30
0.0
 11
2087.363529447078
 21
853.5294359532709
 31
0.0
  0
ARC
  5
764
330
6AF
100
AcDbEntity
  8
0
  6
Continuous
 62
     7
370
    15
100
AcDbCircle
 10
2086.892529705524
 20
852.8027582550553
 30
0.0
 40
1.827199999998042
100
AcDbArc
 50
75.06213092518001
 51
104.9378690748342
  0
LINE
  5
765
330
6AF
100
AcDbEntity
  8
0
  6
Continuous
 62
     7
370
    15
100
AcDbLine
 10
2086.421529259145
 20
853.5294359532709
 30
0.0
 11
2086.421529259145
 21
854.568195900094
 31
0.0
  0
ARC
  5
766
330
6AF
100
AcDbEntity
  8
0
  6
Continuous
 62
     7
370
    15
100
AcDbCircle
 10
2086.892529705524
 20
852.8027582550553
 30
0.0
 40
0.8659623649732553
100
AcDbArc
 50
122.9497675279377
 51
144.732660979322
  0
SPLINE
  5
767
330
6AF
100
AcDbEntity
  8
0
  6
Continuous
 62
     7
370
    15
100
AcDbSpline
210
0.0
220
0.0
230
1.0
 70
     8
 71
     3
 72
    10
 73
     6
 74
     0
 42
0.0000000001
 43
0.0000000001
 40
0.0
 40
0.0
 40
0.0
 40
0.0
 40
0.5000000000000004
 40
0.5000000000000004
 40
1.0
 40
1.0
 40
1.0
 40
1.0
 10
2086.892529705524
 20
854.8112552839425
 30
0.0
 10
2086.446896910463
 20
854.8112552839425
 30
0.0
 10
2086.013869152068
 20
854.6630282717149
 30
0.0
 10
2085.309559985928
 20
854.1168570983399
 30
0.0
 10
2085.058200457724
 20
853.7343617725175
 30
0.0
 10
2084.947263575904
 20
853.3027582550554
 30
0.0
  0
SPLINE
  5
768
330
6AF
100
AcDbEntity
  8
0
  6
Continuous
 62
     7
370
    15
100
AcDbSpline
210
0.0
220
0.0
230
1.0
 70
     8
 71
     3
 72
    10
 73
     6
 74
     0
 42
0.0000000001
 43
0.0000000001
 40
0.0
 40
0.0
 40
0.0
 40
0.0
 40
0.5
 40
0.5
 40
1.0
 40
1.0
 40
1.0
 40
1.0
 10
2088.837795835145
 20
853.3027582550554
 30
0.0
 10
2088.726858953324
 20
853.7343617725175
 30
0.0
 10
2088.475499425121
 20
854.1168570983399
 30
0.0
 10
2087.771190258981
 20
854.6630282717149
 30
0.0
 10
2087.338162500585
 20
854.8112552839425
 30
0.0
 10
2086.892529705524
 20
854.8112552839425
 30
0.0
  0
ARC
  5
769
330
6AF
100
AcDbEntity
  8
0
  6
Continuous
 62
     7
370
    15
100
AcDbCircle
 10
2086.892529705524
 20
835.8027582550553
 30
0.0
 40
0.86596236497275
100
AcDbArc
 50
35.26733902070675
 51
57.05023247210921
  0
LINE
  5
76A
330
6AF
100
AcDbEntity
  8
0
  6
Continuous
 62
     7
370
    15
100
AcDbLine
 10
2087.363529447078
 20
837.5682061520929
 30
0.0
 11
2087.363529447078
 21
836.5294164029474
 31
0.0
  0
ARC
  5
76B
330
6AF
100
AcDbEntity
  8
0
  6
Continuous
 62
     7
370
    15
100
AcDbCircle
 10
2086.892529705524
 20
835.8027582550553
 30
0.0
 40
1.827199999997493
100
AcDbArc
 50
75.06213092518001
 51
104.9378690748468
  0
LINE
  5
76C
330
6AF
100
AcDbEntity
  8
0
  6
Continuous
 62
     7
370
    15
100
AcDbLine
 10
2086.421529259145
 20
836.5294164029474
 30
0.0
 11
2086.421529259145
 21
837.5682061520929
 31
0.0
  0
ARC
  5
76D
330
6AF
100
AcDbEntity
  8
0
  6
Continuous
 62
     7
370
    15
100
AcDbCircle
 10
2086.892529705524
 20
835.8027582550553
 30
0.0
 40
0.8659623649726949
100
AcDbArc
 50
122.9497675279667
 51
144.7326609792986
  0
SPLINE
  5
76E
330
6AF
100
AcDbEntity
  8
0
  6
Continuous
 62
     7
370
    15
100
AcDbSpline
210
0.0
220
0.0
230
1.0
 70
     8
 71
     3
 72
    10
 73
     6
 74
     0
 42
0.0000000001
 43
0.0000000001
 40
0.0
 40
0.0
 40
0.0
 40
0.0
 40
0.5000000000000004
 40
0.5000000000000004
 40
1.0
 40
1.0
 40
1.0
 40
1.0
 10
2086.892529705524
 20
837.8112552839425
 30
0.0
 10
2086.446896910463
 20
837.8112552839425
 30
0.0
 10
2086.013869152068
 20
837.6630282717149
 30
0.0
 10
2085.309559985928
 20
837.11685709834
 30
0.0
 10
2085.058200457724
 20
836.7343617725175
 30
0.0
 10
2084.947263575904
 20
836.3027582550554
 30
0.0
  0
SPLINE
  5
76F
330
6AF
100
AcDbEntity
  8
0
  6
Continuous
 62
     7
370
    15
100
AcDbSpline
210
0.0
220
0.0
230
1.0
 70
     8
 71
     3
 72
    10
 73
     6
 74
     0
 42
0.0000000001
 43
0.0000000001
 40
0.0
 40
0.0
 40
0.0
 40
0.0
 40
0.5
 40
0.5
 40
1.0
 40
1.0
 40
1.0
 40
1.0
 10
2088.837795835145
 20
836.3027582550554
 30
0.0
 10
2088.726858953324
 20
836.7343617725175
 30
0.0
 10
2088.475499425121
 20
837.11685709834
 30
0.0
 10
2087.771190258981
 20
837.6630282717149
 30
0.0
 10
2087.338162500585
 20
837.8112552839425
 30
0.0
 10
2086.892529705524
 20
837.8112552839425
 30
0.0
  0
ARC
  5
770
330
6AF
100
AcDbEntity
  8
0
  6
Continuous
 62
     7
370
    15
100
AcDbCircle
 10
2096.192529705524
 20
852.8027582550553
 30
0.0
 40
0.8659623649732836
100
AcDbArc
 50
35.26733902067796
 51
57.05023247212724
  0
LINE
  5
771
330
6AF
100
AcDbEntity
  8
0
  6
Continuous
 62
     7
370
    15
100
AcDbLine
 10
2096.663530412674
 20
854.568195900094
 30
0.0
 11
2096.663530412674
 21
853.5294359532709
 31
0.0
  0
ARC
  5
772
330
6AF
100
AcDbEntity
  8
0
  6
Continuous
 62
     7
370
    15
100
AcDbCircle
 10
2096.192529705524
 20
852.8027582550553
 30
0.0
 40
1.827199999998027
100
AcDbArc
 50
75.06213092518001
 51
104.9378690748342
  0
LINE
  5
773
330
6AF
100
AcDbEntity
  8
0
  6
Continuous
 62
     7
370
    15
100
AcDbLine
 10
2095.721529293418
 20
853.5294359532709
 30
0.0
 11
2095.721529293418
 21
854.568195900094
 31
0.0
  0
ARC
  5
774
330
6AF
100
AcDbEntity
  8
0
  6
Continuous
 62
     7
370
    15
100
AcDbCircle
 10
2096.192529705524
 20
852.8027582550553
 30
0.0
 40
0.865962364973271
100
AcDbArc
 50
122.9497675279487
 51
144.732660979322
  0
SPLINE
  5
775
330
6AF
100
AcDbEntity
  8
0
  6
Continuous
 62
     7
370
    15
100
AcDbSpline
210
0.0
220
0.0
230
1.0
 70
     8
 71
     3
 72
    10
 73
     6
 74
     0
 42
0.0000000001
 43
0.0000000001
 40
0.0
 40
0.0
 40
0.0
 40
0.0
 40
0.5000000000000004
 40
0.5000000000000004
 40
1.0
 40
1.0
 40
1.0
 40
1.0
 10
2096.192529705524
 20
854.8112552839425
 30
0.0
 10
2095.746896910463
 20
854.8112552839425
 30
0.0
 10
2095.313869152068
 20
854.6630282717149
 30
0.0
 10
2094.609559985928
 20
854.1168570983399
 30
0.0
 10
2094.358200457724
 20
853.7343617725175
 30
0.0
 10
2094.247263575903
 20
853.3027582550554
 30
0.0
  0
SPLINE
  5
776
330
6AF
100
AcDbEntity
  8
0
  6
Continuous
 62
     7
370
    15
100
AcDbSpline
210
0.0
220
0.0
230
1.0
 70
     8
 71
     3
 72
    10
 73
     6
 74
     0
 42
0.0000000001
 43
0.0000000001
 40
0.0
 40
0.0
 40
0.0
 40
0.0
 40
0.5
 40
0.5
 40
1.0
 40
1.0
 40
1.0
 40
1.0
 10
2098.137795835144
 20
853.3027582550554
 30
0.0
 10
2098.026858953324
 20
853.7343617725175
 30
0.0
 10
2097.775499425121
 20
854.1168570983399
 30
0.0
 10
2097.07119025898
 20
854.6630282717149
 30
0.0
 10
2096.638162500585
 20
854.8112552839425
 30
0.0
 10
2096.192529705524
 20
854.8112552839425
 30
0.0
  0
ARC
  5
777
330
6AF
100
AcDbEntity
  8
0
  6
Continuous
 62
     7
370
    15
100
AcDbCircle
 10
2096.192529705524
 20
835.8027582550553
 30
0.0
 40
0.8659623649727269
100
AcDbArc
 50
35.26733902070675
 51
57.05023247210921
  0
LINE
  5
778
330
6AF
100
AcDbEntity
  8
0
  6
Continuous
 62
     7
370
    15
100
AcDbLine
 10
2096.663530412674
 20
837.5682061520929
 30
0.0
 11
2096.663530412674
 21
836.5294164029474
 31
0.0
  0
ARC
  5
779
330
6AF
100
AcDbEntity
  8
0
  6
Continuous
 62
     7
370
    15
100
AcDbCircle
 10
2096.192529705524
 20
835.8027582550553
 30
0.0
 40
1.827199999997478
100
AcDbArc
 50
75.06213092518001
 51
104.9378690748468
  0
LINE
  5
77A
330
6AF
100
AcDbEntity
  8
0
  6
Continuous
 62
     7
370
    15
100
AcDbLine
 10
2095.721529293418
 20
836.5294164029474
 30
0.0
 11
2095.721529293418
 21
837.5682061520929
 31
0.0
  0
ARC
  5
77B
330
6AF
100
AcDbEntity
  8
0
  6
Continuous
 62
     7
370
    15
100
AcDbCircle
 10
2096.192529705524
 20
835.8027582550553
 30
0.0
 40
0.8659623649727171
100
AcDbArc
 50
122.9497675279667
 51
144.7326609792986
  0
SPLINE
  5
77C
330
6AF
100
AcDbEntity
  8
0
  6
Continuous
 62
     7
370
    15
100
AcDbSpline
210
0.0
220
0.0
230
1.0
 70
     8
 71
     3
 72
    10
 73
     6
 74
     0
 42
0.0000000001
 43
0.0000000001
 40
0.0
 40
0.0
 40
0.0
 40
0.0
 40
0.5000000000000004
 40
0.5000000000000004
 40
1.0
 40
1.0
 40
1.0
 40
1.0
 10
2096.192529705524
 20
837.8112552839425
 30
0.0
 10
2095.746896910463
 20
837.8112552839425
 30
0.0
 10
2095.313869152068
 20
837.6630282717149
 30
0.0
 10
2094.609559985928
 20
837.11685709834
 30
0.0
 10
2094.358200457724
 20
836.7343617725175
 30
0.0
 10
2094.247263575903
 20
836.3027582550554
 30
0.0
  0
SPLINE
  5
77D
330
6AF
100
AcDbEntity
  8
0
  6
Continuous
 62
     7
370
    15
100
AcDbSpline
210
0.0
220
0.0
230
1.0
 70
     8
 71
     3
 72
    10
 73
     6
 74
     0
 42
0.0000000001
 43
0.0000000001
 40
0.0
 40
0.0
 40
0.0
 40
0.0
 40
0.5
 40
0.5
 40
1.0
 40
1.0
 40
1.0
 40
1.0
 10
2098.137795835144
 20
836.3027582550554
 30
0.0
 10
2098.026858953324
 20
836.7343617725175
 30
0.0
 10
2097.775499425121
 20
837.11685709834
 30
0.0
 10
2097.07119025898
 20
837.6630282717149
 30
0.0
 10
2096.638162500585
 20
837.8112552839425
 30
0.0
 10
2096.192529705524
 20
837.8112552839425
 30
0.0
  0
ARC
  5
77E
330
6AF
100
AcDbEntity
  8
0
  6
Continuous
 62
     7
370
    15
100
AcDbCircle
 10
2086.892529705524
 20
869.8027582550553
 30
0.0
 40
0.8659623649737982
100
AcDbArc
 50
35.26733902064916
 51
57.05023247215619
  0
LINE
  5
77F
330
6AF
100
AcDbEntity
  8
0
  6
Continuous
 62
     7
370
    15
100
AcDbLine
 10
2087.363529447078
 20
871.5682154504175
 30
0.0
 11
2087.363529447078
 21
870.529425701272
 31
0.0
  0
ARC
  5
780
330
6AF
100
AcDbEntity
  8
0
  6
Continuous
 62
     7
370
    15
100
AcDbCircle
 10
2086.892529705524
 20
869.8027582550553
 30
0.0
 40
1.827199999998564
100
AcDbArc
 50
75.06213092519259
 51
104.9378690748342
  0
LINE
  5
781
330
6AF
100
AcDbEntity
  8
0
  6
Continuous
 62
     7
370
    15
100
AcDbLine
 10
2086.421529259145
 20
870.529425701272
 30
0.0
 11
2086.421529259145
 21
871.5682154504175
 31
0.0
  0
ARC
  5
782
330
6AF
100
AcDbEntity
  8
0
  6
Continuous
 62
     7
370
    15
100
AcDbCircle
 10
2086.892529705524
 20
869.8027582550553
 30
0.0
 40
0.8659623649738039
100
AcDbArc
 50
122.9497675279197
 51
144.7326609793508
  0
SPLINE
  5
783
330
6AF
100
AcDbEntity
  8
0
  6
Continuous
 62
     7
370
    15
100
AcDbSpline
210
0.0
220
0.0
230
1.0
 70
     8
 71
     3
 72
    10
 73
     6
 74
     0
 42
0.0000000001
 43
0.0000000001
 40
0.0
 40
0.0
 40
0.0
 40
0.0
 40
0.5000000000000004
 40
0.5000000000000004
 40
1.0
 40
1.0
 40
1.0
 40
1.0
 10
2086.892529705524
 20
871.8112552839425
 30
0.0
 10
2086.446896910463
 20
871.8112552839425
 30
0.0
 10
2086.013869152068
 20
871.6630282717149
 30
0.0
 10
2085.309559985928
 20
871.1168570983399
 30
0.0
 10
2085.058200457724
 20
870.7343617725175
 30
0.0
 10
2084.947263575904
 20
870.3027582550554
 30
0.0
  0
SPLINE
  5
784
330
6AF
100
AcDbEntity
  8
0
  6
Continuous
 62
     7
370
    15
100
AcDbSpline
210
0.0
220
0.0
230
1.0
 70
     8
 71
     3
 72
    10
 73
     6
 74
     0
 42
0.0000000001
 43
0.0000000001
 40
0.0
 40
0.0
 40
0.0
 40
0.0
 40
0.5
 40
0.5
 40
1.0
 40
1.0
 40
1.0
 40
1.0
 10
2088.837795835145
 20
870.3027582550554
 30
0.0
 10
2088.726858953324
 20
870.7343617725175
 30
0.0
 10
2088.475499425121
 20
871.1168570983399
 30
0.0
 10
2087.771190258981
 20
871.6630282717149
 30
0.0
 10
2087.338162500585
 20
871.8112552839425
 30
0.0
 10
2086.892529705524
 20
871.8112552839425
 30
0.0
  0
ARC
  5
785
330
6AF
100
AcDbEntity
  8
0
  6
Continuous
 62
     7
370
    15
100
AcDbCircle
 10
2096.192529705524
 20
869.8027582550553
 30
0.0
 40
1.827199999999054
100
AcDbArc
 50
255.0621309251263
 51
284.9378690747931
  0
LINE
  5
786
330
6AF
100
AcDbEntity
  8
0
  6
Continuous
 62
     7
370
    15
100
AcDbLine
 10
2096.663530412674
 20
869.0760856477137
 30
0.0
 11
2096.663530412674
 21
868.0372958985682
 31
0.0
  0
ARC
  5
787
330
6AF
100
AcDbEntity
  8
0
  6
Continuous
 62
     7
370
    15
100
AcDbCircle
 10
2096.192529705524
 20
869.8027582550553
 30
0.0
 40
0.8659623649738716
100
AcDbArc
 50
302.9497675278113
 51
324.7326609793327
  0
SPLINE
  5
788
330
6AF
100
AcDbEntity
  8
0
  6
Continuous
 62
     7
370
    15
100
AcDbSpline
210
0.0
220
0.0
230
1.0
 70
     8
 71
     3
 72
    14
 73
    10
 74
     0
 42
0.0000000001
 43
0.0000000001
 40
0.0
 40
0.0
 40
0.0
 40
0.0
 40
0.2500000000000001
 40
0.2500000000000001
 40
0.5
 40
0.5
 40
0.75
 40
0.75
 40
1.0
 40
1.0
 40
1.0
 40
1.0
 10
2094.247263575903
 20
869.3027582550552
 30
0.0
 10
2094.358200457724
 20
868.8711547375929
 30
0.0
 10
2094.609559985928
 20
868.4886594117706
 30
0.0
 10
2095.313869152068
 20
867.9424882383957
 30
0.0
 10
2095.746896910463
 20
867.7942612261682
 30
0.0
 10
2096.638162500585
 20
867.7942612261682
 30
0.0
 10
2097.07119025898
 20
867.9424882383957
 30
0.0
 10
2097.775499425121
 20
868.4886594117706
 30
0.0
 10
2098.026858953324
 20
868.8711547375929
 30
0.0
 10
2098.137795835144
 20
869.3027582550552
 30
0.0
  0
ARC
  5
789
330
6AF
100
AcDbEntity
  8
0
  6
Continuous
 62
     7
370
    15
100
AcDbCircle
 10
2096.192529705524
 20
869.8027582550553
 30
0.0
 40
0.8659623649738582
100
AcDbArc
 50
215.2673390206673
 51
237.0502324720008
  0
LINE
  5
78A
330
6AF
100
AcDbEntity
  8
0
  6
Continuous
 62
     7
370
    15
100
AcDbLine
 10
2095.721529293418
 20
868.0372958985682
 30
0.0
 11
2095.721529293418
 21
869.0760856477137
 31
0.0
  0
ARC
  5
78B
330
6AF
100
AcDbEntity
  8
0
  6
Continuous
 62
     7
370
    15
100
AcDbCircle
 10
2096.192529705524
 20
869.8027582550553
 30
0.0
 40
0.8659623649737982
100
AcDbArc
 50
35.26733902064916
 51
57.05023247215619
  0
LINE
  5
78C
330
6AF
100
AcDbEntity
  8
0
  6
Continuous
 62
     7
370
    15
100
AcDbLine
 10
2096.663530412674
 20
871.5682154504175
 30
0.0
 11
2096.663530412674
 21
870.529425701272
 31
0.0
  0
ARC
  5
78D
330
6AF
100
AcDbEntity
  8
0
  6
Continuous
 62
     7
370
    15
100
AcDbCircle
 10
2096.192529705524
 20
869.8027582550553
 30
0.0
 40
1.827199999998549
100
AcDbArc
 50
75.06213092519259
 51
104.9378690748342
  0
LINE
  5
78E
330
6AF
100
AcDbEntity
  8
0
  6
Continuous
 62
     7
370
    15
100
AcDbLine
 10
2095.721529293418
 20
870.529425701272
 30
0.0
 11
2095.721529293418
 21
871.5682154504175
 31
0.0
  0
ARC
  5
78F
330
6AF
100
AcDbEntity
  8
0
  6
Continuous
 62
     7
370
    15
100
AcDbCircle
 10
2096.192529705524
 20
869.8027582550553
 30
0.0
 40
0.8659623649738213
100
AcDbArc
 50
122.9497675279197
 51
144.7326609793508
  0
SPLINE
  5
790
330
6AF
100
AcDbEntity
  8
0
  6
Continuous
 62
     7
370
    15
100
AcDbSpline
210
0.0
220
0.0
230
1.0
 70
     8
 71
     3
 72
    10
 73
     6
 74
     0
 42
0.0000000001
 43
0.0000000001
 40
0.0
 40
0.0
 40
0.0
 40
0.0
 40
0.5000000000000004
 40
0.5000000000000004
 40
1.0
 40
1.0
 40
1.0
 40
1.0
 10
2096.192529705524
 20
871.8112552839425
 30
0.0
 10
2095.746896910463
 20
871.8112552839425
 30
0.0
 10
2095.313869152068
 20
871.6630282717149
 30
0.0
 10
2094.609559985928
 20
871.1168570983399
 30
0.0
 10
2094.358200457724
 20
870.7343617725175
 30
0.0
 10
2094.247263575903
 20
870.3027582550554
 30
0.0
  0
SPLINE
  5
791
330
6AF
100
AcDbEntity
  8
0
  6
Continuous
 62
     7
370
    15
100
AcDbSpline
210
0.0
220
0.0
230
1.0
 70
     8
 71
     3
 72
    10
 73
     6
 74
     0
 42
0.0000000001
 43
0.0000000001
 40
0.0
 40
0.0
 40
0.0
 40
0.0
 40
0.5
 40
0.5
 40
1.0
 40
1.0
 40
1.0
 40
1.0
 10
2098.137795835144
 20
870.3027582550554
 30
0.0
 10
2098.026858953324
 20
870.7343617725175
 30
0.0
 10
2097.775499425121
 20
871.1168570983399
 30
0.0
 10
2097.07119025898
 20
871.6630282717149
 30
0.0
 10
2096.638162500585
 20
871.8112552839425
 30
0.0
 10
2096.192529705524
 20
871.8112552839425
 30
0.0
  0
ARC
  5
792
330
6AF
100
AcDbEntity
  8
0
  6
Continuous
 62
     7
370
    15
100
AcDbCircle
 10
2086.892529705524
 20
869.8027582550553
 30
0.0
 40
1.827199999999054
100
AcDbArc
 50
255.0621309251263
 51
284.9378690747931
  0
LINE
  5
793
330
6AF
100
AcDbEntity
  8
0
  6
Continuous
 62
     7
370
    15
100
AcDbLine
 10
2087.363529447078
 20
869.0760856477137
 30
0.0
 11
2087.363529447078
 21
868.0372958985682
 31
0.0
  0
ARC
  5
794
330
6AF
100
AcDbEntity
  8
0
  6
Continuous
 62
     7
370
    15
100
AcDbCircle
 10
2086.892529705524
 20
869.8027582550553
 30
0.0
 40
0.8659623649738716
100
AcDbArc
 50
302.9497675278113
 51
324.7326609793327
  0
SPLINE
  5
795
330
6AF
100
AcDbEntity
  8
0
  6
Continuous
 62
     7
370
    15
100
AcDbSpline
210
0.0
220
0.0
230
1.0
 70
     8
 71
     3
 72
    14
 73
    10
 74
     0
 42
0.0000000001
 43
0.0000000001
 40
0.0
 40
0.0
 40
0.0
 40
0.0
 40
0.2500000000000001
 40
0.2500000000000001
 40
0.5
 40
0.5
 40
0.75
 40
0.75
 40
1.0
 40
1.0
 40
1.0
 40
1.0
 10
2084.947263575904
 20
869.3027582550552
 30
0.0
 10
2085.058200457725
 20
868.8711547375929
 30
0.0
 10
2085.309559985928
 20
868.4886594117706
 30
0.0
 10
2086.013869152068
 20
867.9424882383957
 30
0.0
 10
2086.446896910463
 20
867.7942612261682
 30
0.0
 10
2087.338162500585
 20
867.7942612261682
 30
0.0
 10
2087.77119025898
 20
867.9424882383957
 30
0.0
 10
2088.475499425121
 20
868.4886594117706
 30
0.0
 10
2088.726858953324
 20
868.8711547375929
 30
0.0
 10
2088.837795835145
 20
869.3027582550552
 30
0.0
  0
ARC
  5
796
330
6AF
100
AcDbEntity
  8
0
  6
Continuous
 62
     7
370
    15
100
AcDbCircle
 10
2086.892529705524
 20
869.8027582550553
 30
0.0
 40
0.8659623649738582
100
AcDbArc
 50
215.2673390206726
 51
237.0502324720008
  0
LINE
  5
797
330
6AF
100
AcDbEntity
  8
0
  6
Continuous
 62
     7
370
    15
100
AcDbLine
 10
2086.421529259145
 20
868.0372958985682
 30
0.0
 11
2086.421529259145
 21
869.0760856477137
 31
0.0
  0
ARC
  5
798
330
6AF
100
AcDbEntity
  8
0
  6
Continuous
 62
     7
370
    15
100
AcDbCircle
 10
2096.192529705524
 20
852.8027582550553
 30
0.0
 40
1.827199999998505
100
AcDbArc
 50
255.0621309251263
 51
284.9378690747931
  0
LINE
  5
799
330
6AF
100
AcDbEntity
  8
0
  6
Continuous
 62
     7
370
    15
100
AcDbLine
 10
2096.663530412674
 20
852.0760958997126
 30
0.0
 11
2096.663530412674
 21
851.0373061505671
 31
0.0
  0
ARC
  5
79A
330
6AF
100
AcDbEntity
  8
0
  6
Continuous
 62
     7
370
    15
100
AcDbCircle
 10
2096.192529705524
 20
852.8027582550553
 30
0.0
 40
0.8659623649733029
100
AcDbArc
 50
302.9497675278438
 51
324.7326609793092
  0
SPLINE
  5
79B
330
6AF
100
AcDbEntity
  8
0
  6
Continuous
 62
     7
370
    15
100
AcDbSpline
210
0.0
220
0.0
230
1.0
 70
     8
 71
     3
 72
    14
 73
    10
 74
     0
 42
0.0000000001
 43
0.0000000001
 40
0.0
 40
0.0
 40
0.0
 40
0.0
 40
0.2500000000000001
 40
0.2500000000000001
 40
0.5
 40
0.5
 40
0.75
 40
0.75
 40
1.0
 40
1.0
 40
1.0
 40
1.0
 10
2094.247263575903
 20
852.3027582550552
 30
0.0
 10
2094.358200457724
 20
851.8711547375929
 30
0.0
 10
2094.609559985928
 20
851.4886594117706
 30
0.0
 10
2095.313869152068
 20
850.9424882383957
 30
0.0
 10
2095.746896910463
 20
850.7942612261683
 30
0.0
 10
2096.638162500585
 20
850.7942612261683
 30
0.0
 10
2097.07119025898
 20
850.9424882383957
 30
0.0
 10
2097.775499425121
 20
851.4886594117706
 30
0.0
 10
2098.026858953324
 20
851.8711547375929
 30
0.0
 10
2098.137795835144
 20
852.3027582550552
 30
0.0
  0
ARC
  5
79C
330
6AF
100
AcDbEntity
  8
0
  6
Continuous
 62
     7
370
    15
100
AcDbCircle
 10
2096.192529705524
 20
852.8027582550553
 30
0.0
 40
0.8659623649733029
100
AcDbArc
 50
215.2673390206961
 51
237.0502324719719
  0
LINE
  5
79D
330
6AF
100
AcDbEntity
  8
0
  6
Continuous
 62
     7
370
    15
100
AcDbLine
 10
2095.721529293418
 20
851.0373061505671
 30
0.0
 11
2095.721529293418
 21
852.0760958997126
 31
0.0
  0
ARC
  5
79E
330
6AF
100
AcDbEntity
  8
0
  6
Continuous
 62
     7
370
    15
100
AcDbCircle
 10
2086.892529705524
 20
852.8027582550553
 30
0.0
 40
1.827199999998505
100
AcDbArc
 50
255.0621309251263
 51
284.9378690747931
  0
LINE
  5
79F
330
6AF
100
AcDbEntity
  8
0
  6
Continuous
 62
     7
370
    15
100
AcDbLine
 10
2087.363529447078
 20
852.0760958997126
 30
0.0
 11
2087.363529447078
 21
851.0373061505671
 31
0.0
  0
ARC
  5
7A0
330
6AF
100
AcDbEntity
  8
0
  6
Continuous
 62
     7
370
    15
100
AcDbCircle
 10
2086.892529705524
 20
852.8027582550553
 30
0.0
 40
0.8659623649733029
100
AcDbArc
 50
302.9497675278438
 51
324.7326609793092
  0
SPLINE
  5
7A1
330
6AF
100
AcDbEntity
  8
0
  6
Continuous
 62
     7
370
    15
100
AcDbSpline
210
0.0
220
0.0
230
1.0
 70
     8
 71
     3
 72
    14
 73
    10
 74
     0
 42
0.0000000001
 43
0.0000000001
 40
0.0
 40
0.0
 40
0.0
 40
0.0
 40
0.2500000000000001
 40
0.2500000000000001
 40
0.5
 40
0.5
 40
0.75
 40
0.75
 40
1.0
 40
1.0
 40
1.0
 40
1.0
 10
2084.947263575904
 20
852.3027582550552
 30
0.0
 10
2085.058200457725
 20
851.8711547375929
 30
0.0
 10
2085.309559985928
 20
851.4886594117706
 30
0.0
 10
2086.013869152068
 20
850.9424882383957
 30
0.0
 10
2086.446896910463
 20
850.7942612261683
 30
0.0
 10
2087.338162500585
 20
850.7942612261683
 30
0.0
 10
2087.77119025898
 20
850.9424882383957
 30
0.0
 10
2088.475499425121
 20
851.4886594117706
 30
0.0
 10
2088.726858953324
 20
851.8711547375929
 30
0.0
 10
2088.837795835145
 20
852.3027582550552
 30
0.0
  0
ARC
  5
7A2
330
6AF
100
AcDbEntity
  8
0
  6
Continuous
 62
     7
370
    15
100
AcDbCircle
 10
2086.892529705524
 20
852.8027582550553
 30
0.0
 40
0.8659623649733029
100
AcDbArc
 50
215.2673390206961
 51
237.0502324719719
  0
LINE
  5
7A3
330
6AF
100
AcDbEntity
  8
0
  6
Continuous
 62
     7
370
    15
100
AcDbLine
 10
2086.421529259145
 20
851.0373061505671
 30
0.0
 11
2086.421529259145
 21
852.0760958997126
 31
0.0
  0
ARC
  5
7A4
330
6AF
100
AcDbEntity
  8
0
  6
Continuous
 62
     7
370
    15
100
AcDbCircle
 10
2096.192529705524
 20
835.8027582550553
 30
0.0
 40
1.827199999997984
100
AcDbArc
 50
255.0621309251246
 51
284.9378690747931
  0
LINE
  5
7A5
330
6AF
100
AcDbEntity
  8
0
  6
Continuous
 62
     7
370
    15
100
AcDbLine
 10
2096.663530412674
 20
835.0760763493891
 30
0.0
 11
2096.663530412674
 21
834.037316402566
 31
0.0
  0
ARC
  5
7A6
330
6AF
100
AcDbEntity
  8
0
  6
Continuous
 62
     7
370
    15
100
AcDbCircle
 10
2096.192529705524
 20
835.8027582550553
 30
0.0
 40
0.8659623649727743
100
AcDbArc
 50
302.9497675278583
 51
324.7326609792804
  0
SPLINE
  5
7A7
330
6AF
100
AcDbEntity
  8
0
  6
Continuous
 62
     7
370
    15
100
AcDbSpline
210
0.0
220
0.0
230
1.0
 70
     8
 71
     3
 72
    14
 73
    10
 74
     0
 42
0.0000000001
 43
0.0000000001
 40
0.0
 40
0.0
 40
0.0
 40
0.0
 40
0.2500000000000001
 40
0.2500000000000001
 40
0.5
 40
0.5
 40
0.75
 40
0.75
 40
1.0
 40
1.0
 40
1.0
 40
1.0
 10
2094.247263575903
 20
835.3027582550552
 30
0.0
 10
2094.358200457724
 20
834.8711547375929
 30
0.0
 10
2094.609559985928
 20
834.4886594117706
 30
0.0
 10
2095.313869152068
 20
833.9424882383957
 30
0.0
 10
2095.746896910463
 20
833.7942612261683
 30
0.0
 10
2096.638162500585
 20
833.7942612261683
 30
0.0
 10
2097.07119025898
 20
833.9424882383957
 30
0.0
 10
2097.775499425121
 20
834.4886594117706
 30
0.0
 10
2098.026858953324
 20
834.8711547375929
 30
0.0
 10
2098.137795835144
 20
835.3027582550552
 30
0.0
  0
ARC
  5
7A8
330
6AF
100
AcDbEntity
  8
0
  6
Continuous
 62
     7
370
    15
100
AcDbCircle
 10
2096.192529705524
 20
835.8027582550553
 30
0.0
 40
0.8659623649727377
100
AcDbArc
 50
215.2673390207196
 51
237.0502324719539
  0
LINE
  5
7A9
330
6AF
100
AcDbEntity
  8
0
  6
Continuous
 62
     7
370
    15
100
AcDbLine
 10
2095.721529293418
 20
834.037316402566
 30
0.0
 11
2095.721529293418
 21
835.0760763493891
 31
0.0
  0
ARC
  5
7AA
330
6AF
100
AcDbEntity
  8
0
  6
Continuous
 62
     7
370
    15
100
AcDbCircle
 10
2086.892529705524
 20
835.8027582550553
 30
0.0
 40
1.827199999997984
100
AcDbArc
 50
255.0621309251246
 51
284.9378690747931
  0
LINE
  5
7AB
330
6AF
100
AcDbEntity
  8
0
  6
Continuous
 62
     7
370
    15
100
AcDbLine
 10
2087.363529447078
 20
835.0760763493891
 30
0.0
 11
2087.363529447078
 21
834.037316402566
 31
0.0
  0
ARC
  5
7AC
330
6AF
100
AcDbEntity
  8
0
  6
Continuous
 62
     7
370
    15
100
AcDbCircle
 10
2086.892529705524
 20
835.8027582550553
 30
0.0
 40
0.8659623649727743
100
AcDbArc
 50
302.9497675278583
 51
324.7326609792857
  0
SPLINE
  5
7AD
330
6AF
100
AcDbEntity
  8
0
  6
Continuous
 62
     7
370
    15
100
AcDbSpline
210
0.0
220
0.0
230
1.0
 70
     8
 71
     3
 72
    14
 73
    10
 74
     0
 42
0.0000000001
 43
0.0000000001
 40
0.0
 40
0.0
 40
0.0
 40
0.0
 40
0.2500000000000001
 40
0.2500000000000001
 40
0.5
 40
0.5
 40
0.75
 40
0.75
 40
1.0
 40
1.0
 40
1.0
 40
1.0
 10
2084.947263575904
 20
835.3027582550552
 30
0.0
 10
2085.058200457725
 20
834.8711547375929
 30
0.0
 10
2085.309559985928
 20
834.4886594117706
 30
0.0
 10
2086.013869152068
 20
833.9424882383957
 30
0.0
 10
2086.446896910463
 20
833.7942612261683
 30
0.0
 10
2087.338162500585
 20
833.7942612261683
 30
0.0
 10
2087.77119025898
 20
833.9424882383957
 30
0.0
 10
2088.475499425121
 20
834.4886594117706
 30
0.0
 10
2088.726858953324
 20
834.8711547375929
 30
0.0
 10
2088.837795835145
 20
835.3027582550552
 30
0.0
  0
ARC
  5
7AE
330
6AF
100
AcDbEntity
  8
0
  6
Continuous
 62
     7
370
    15
100
AcDbCircle
 10
2086.892529705524
 20
835.8027582550553
 30
0.0
 40
0.8659623649727253
100
AcDbArc
 50
215.2673390207196
 51
237.0502324719539
  0
LINE
  5
7AF
330
6AF
100
AcDbEntity
  8
0
  6
Continuous
 62
     7
370
    15
100
AcDbLine
 10
2086.421529259145
 20
834.037316402566
 30
0.0
 11
2086.421529259145
 21
835.0760763493891
 31
0.0
  0
ARC
  5
7B0
330
6AF
100
AcDbEntity
  8
0
  6
Continuous
 62
     7
370
    15
100
AcDbCircle
 10
2086.892529705524
 20
852.8027582550553
 30
0.0
 40
2.307360327478187
100
AcDbArc
 50
12.27196904421325
 51
167.7280309557931
  0
ARC
  5
7B1
330
6AF
100
AcDbEntity
  8
0
  6
Continuous
 62
     7
370
    15
100
AcDbCircle
 10
2086.892529705524
 20
835.8027582550553
 30
0.0
 40
2.307360327481187
100
AcDbArc
 50
12.27196904419416
 51
167.7280309558058
  0
ARC
  5
7B2
330
6AF
100
AcDbEntity
  8
0
  6
Continuous
 62
     7
370
    15
100
AcDbCircle
 10
2096.192529705524
 20
852.8027582550553
 30
0.0
 40
2.307360327478187
100
AcDbArc
 50
12.27196904421325
 51
167.7280309557931
  0
ARC
  5
7B3
330
6AF
100
AcDbEntity
  8
0
  6
Continuous
 62
     7
370
    15
100
AcDbCircle
 10
2096.192529705524
 20
835.8027582550553
 30
0.0
 40
2.307360327481159
100
AcDbArc
 50
12.27196904419416
 51
167.7280309558058
  0
ARC
  5
7B4
330
6AF
100
AcDbEntity
  8
0
  6
Continuous
 62
     7
370
    15
100
AcDbCircle
 10
2086.892529705524
 20
869.8027582550553
 30
0.0
 40
2.307360327480143
100
AcDbArc
 50
12.27196904420052
 51
167.7280309557995
  0
ARC
  5
7B5
330
6AF
100
AcDbEntity
  8
0
  6
Continuous
 62
     7
370
    15
100
AcDbCircle
 10
2096.192529705524
 20
869.8027582550553
 30
0.0
 40
2.307360327480191
100
AcDbArc
 50
192.2719690442005
 51
347.7280309557931
  0
ARC
  5
7B6
330
6AF
100
AcDbEntity
  8
0
  6
Continuous
 62
     7
370
    15
100
AcDbCircle
 10
2096.192529705524
 20
869.8027582550553
 30
0.0
 40
2.307360327480143
100
AcDbArc
 50
12.27196904420052
 51
167.7280309557995
  0
ARC
  5
7B7
330
6AF
100
AcDbEntity
  8
0
  6
Continuous
 62
     7
370
    15
100
AcDbCircle
 10
2086.892529705524
 20
869.8027582550553
 30
0.0
 40
2.307360327480164
100
AcDbArc
 50
192.2719690442005
 51
347.7280309557931
  0
ARC
  5
7B8
330
6AF
100
AcDbEntity
  8
0
  6
Continuous
 62
     7
370
    15
100
AcDbCircle
 10
2096.192529705524
 20
852.8027582550553
 30
0.0
 40
2.30736032747818
100
AcDbArc
 50
192.2719690442196
 51
347.7280309557868
  0
ARC
  5
7B9
330
6AF
100
AcDbEntity
  8
0
  6
Continuous
 62
     7
370
    15
100
AcDbCircle
 10
2086.892529705524
 20
852.8027582550553
 30
0.0
 40
2.30736032747818
100
AcDbArc
 50
192.2719690442196
 51
347.7280309557868
  0
ARC
  5
7BA
330
6AF
100
AcDbEntity
  8
0
  6
Continuous
 62
     7
370
    15
100
AcDbCircle
 10
2096.192529705524
 20
835.8027582550553
 30
0.0
 40
2.30736032748118
100
AcDbArc
 50
192.2719690442005
 51
347.7280309557995
  0
ARC
  5
7BB
330
6AF
100
AcDbEntity
  8
0
  6
Continuous
 62
     7
370
    15
100
AcDbCircle
 10
2086.892529705524
 20
835.8027582550553
 30
0.0
 40
2.307360327481152
100
AcDbArc
 50
192.2719690442005
 51
347.7280309557995
  0
LINE
  5
7BC
330
6AF
100
AcDbEntity
  8
0
  6
Continuous
 62
     7
370
    15
100
AcDbLine
 10
2086.421529259145
 20
869.0760856477137
 30
0.0
 11
2086.463435049712
 21
869.0992420522089
 31
0.0
  0
LINE
  5
7BD
330
6AF
100
AcDbEntity
  8
0
  6
Continuous
 62
     7
370
    15
100
AcDbLine
 10
2086.463435049712
 20
869.0992420522089
 30
0.0
 11
2086.463435049712
 21
868.0698102322931
 31
0.0
  0
LINE
  5
7BE
330
6AF
100
AcDbEntity
  8
0
  6
Continuous
 62
     7
370
    15
100
AcDbLine
 10
2086.421529259145
 20
868.0372958985682
 30
0.0
 11
2086.463435049712
 21
868.0698102322931
 31
0.0
  0
LINE
  5
7BF
330
6AF
100
AcDbEntity
  8
0
  6
Continuous
 62
     7
370
    15
100
AcDbLine
 10
2087.363529447078
 20
868.0372958985682
 30
0.0
 11
2087.321624587834
 21
868.0698102322931
 31
0.0
  0
ARC
  5
7C0
330
6AF
100
AcDbEntity
  8
0
  6
Continuous
 62
     7
370
    15
100
AcDbCircle
 10
2086.892529705524
 20
869.8027582550553
 30
0.0
 40
1.785295076609715
100
AcDbArc
 50
256.0928211147155
 51
283.907178885218
  0
LINE
  5
7C1
330
6AF
100
AcDbEntity
  8
0
  6
Continuous
 62
     7
370
    15
100
AcDbLine
 10
2096.663530412674
 20
868.0372958985682
 30
0.0
 11
2096.621624622106
 21
868.0698102322931
 31
0.0
  0
LINE
  5
7C2
330
6AF
100
AcDbEntity
  8
0
  6
Continuous
 62
     7
370
    15
100
AcDbLine
 10
2095.721529293418
 20
868.0372958985682
 30
0.0
 11
2095.763435083985
 21
868.0698102322931
 31
0.0
  0
ARC
  5
7C3
330
6AF
100
AcDbEntity
  8
0
  6
Continuous
 62
     7
370
    15
100
AcDbCircle
 10
2096.192529705524
 20
869.8027582550553
 30
0.0
 40
1.785295076609708
100
AcDbArc
 50
256.0928211147155
 51
283.907178885218
  0
LINE
  5
7C4
330
6AF
100
AcDbEntity
  8
0
  6
Continuous
 62
     7
370
    15
100
AcDbLine
 10
2096.621624622106
 20
868.0698102322931
 30
0.0
 11
2096.621624622106
 21
869.0992420522089
 31
0.0
  0
LINE
  5
7C5
330
6AF
100
AcDbEntity
  8
0
  6
Continuous
 62
     7
370
    15
100
AcDbLine
 10
2096.663530412674
 20
869.0760856477137
 30
0.0
 11
2096.621624622106
 21
869.0992420522089
 31
0.0
  0
LINE
  5
7C6
330
6AF
100
AcDbEntity
  8
0
  6
Continuous
 62
     7
370
    15
100
AcDbLine
 10
2087.321624587834
 20
868.0698102322931
 30
0.0
 11
2087.321624587834
 21
869.0992420522089
 31
0.0
  0
LINE
  5
7C7
330
6AF
100
AcDbEntity
  8
0
  6
Continuous
 62
     7
370
    15
100
AcDbLine
 10
2087.363529447078
 20
869.0760856477137
 30
0.0
 11
2087.321624587834
 21
869.0992420522089
 31
0.0
  0
ARC
  5
7C8
330
6AF
100
AcDbEntity
  8
0
  6
Continuous
 62
     7
370
    15
100
AcDbCircle
 10
2096.192529705524
 20
869.8027582550553
 30
0.0
 40
0.8240574415809646
100
AcDbArc
 50
301.3798992297466
 51
326.2271438428786
  0
LINE
  5
7C9
330
6AF
100
AcDbEntity
  8
0
  6
Continuous
 62
     7
370
    15
100
AcDbLine
 10
2095.721529293418
 20
869.0760856477137
 30
0.0
 11
2095.763435083985
 21
869.0992420522089
 31
0.0
  0
LINE
  5
7CA
330
6AF
100
AcDbEntity
  8
0
  6
Continuous
 62
     7
370
    15
100
AcDbLine
 10
2095.763435083985
 20
869.0992420522089
 30
0.0
 11
2095.763435083985
 21
868.0698102322931
 31
0.0
  0
ARC
  5
7CB
330
6AF
100
AcDbEntity
  8
0
  6
Continuous
 62
     7
370
    15
100
AcDbCircle
 10
2086.892529705524
 20
869.8027582550553
 30
0.0
 40
0.8240574415809646
100
AcDbArc
 50
301.3798992297466
 51
326.2271438428786
  0
LINE
  5
7CC
330
6AF
100
AcDbEntity
  8
0
  6
Continuous
 62
     7
370
    15
100
AcDbLine
 10
2096.663530412674
 20
851.0373061505671
 30
0.0
 11
2096.621624622106
 21
851.0697906819697
 31
0.0
  0
LINE
  5
7CD
330
6AF
100
AcDbEntity
  8
0
  6
Continuous
 62
     7
370
    15
100
AcDbLine
 10
2096.621624622106
 20
851.0697906819697
 30
0.0
 11
2096.621624622106
 21
852.0992225018854
 31
0.0
  0
LINE
  5
7CE
330
6AF
100
AcDbEntity
  8
0
  6
Continuous
 62
     7
370
    15
100
AcDbLine
 10
2096.663530412674
 20
852.0760958997126
 30
0.0
 11
2096.621624622106
 21
852.0992225018854
 31
0.0
  0
LINE
  5
7CF
330
6AF
100
AcDbEntity
  8
0
  6
Continuous
 62
     7
370
    15
100
AcDbLine
 10
2087.363529447078
 20
852.0760958997126
 30
0.0
 11
2087.321624587834
 21
852.0992225018854
 31
0.0
  0
ARC
  5
7D0
330
6AF
100
AcDbEntity
  8
0
  6
Continuous
 62
     7
370
    15
100
AcDbCircle
 10
2086.892529705524
 20
852.8027582550553
 30
0.0
 40
0.8240574415804132
100
AcDbArc
 50
301.3798992297757
 51
326.2271438428551
  0
LINE
  5
7D1
330
6AF
100
AcDbEntity
  8
0
  6
Continuous
 62
     7
370
    15
100
AcDbLine
 10
2087.363529447078
 20
851.0373061505671
 30
0.0
 11
2087.321624587834
 21
851.0697906819697
 31
0.0
  0
LINE
  5
7D2
330
6AF
100
AcDbEntity
  8
0
  6
Continuous
 62
     7
370
    15
100
AcDbLine
 10
2086.421529259145
 20
851.0373061505671
 30
0.0
 11
2086.463435049712
 21
851.0697906819697
 31
0.0
  0
ARC
  5
7D3
330
6AF
100
AcDbEntity
  8
0
  6
Continuous
 62
     7
370
    15
100
AcDbCircle
 10
2086.892529705524
 20
852.8027582550553
 30
0.0
 40
1.785295076609108
100
AcDbArc
 50
256.0928211147155
 51
283.907178885218
  0
LINE
  5
7D4
330
6AF
100
AcDbEntity
  8
0
  6
Continuous
 62
     7
370
    15
100
AcDbLine
 10
2087.321624587834
 20
851.0697906819697
 30
0.0
 11
2087.321624587834
 21
852.0992225018854
 31
0.0
  0
LINE
  5
7D5
330
6AF
100
AcDbEntity
  8
0
  6
Continuous
 62
     7
370
    15
100
AcDbLine
 10
2086.421529259145
 20
852.0760958997126
 30
0.0
 11
2086.463435049712
 21
852.0992225018854
 31
0.0
  0
LINE
  5
7D6
330
6AF
100
AcDbEntity
  8
0
  6
Continuous
 62
     7
370
    15
100
AcDbLine
 10
2086.463435049712
 20
852.0992225018854
 30
0.0
 11
2086.463435049712
 21
851.0697906819697
 31
0.0
  0
LINE
  5
7D7
330
6AF
100
AcDbEntity
  8
0
  6
Continuous
 62
     7
370
    15
100
AcDbLine
 10
2095.721529293418
 20
851.0373061505671
 30
0.0
 11
2095.763435083985
 21
851.0697906819697
 31
0.0
  0
ARC
  5
7D8
330
6AF
100
AcDbEntity
  8
0
  6
Continuous
 62
     7
370
    15
100
AcDbCircle
 10
2096.192529705524
 20
852.8027582550553
 30
0.0
 40
1.785295076609101
100
AcDbArc
 50
256.0928211147155
 51
283.907178885218
  0
LINE
  5
7D9
330
6AF
100
AcDbEntity
  8
0
  6
Continuous
 62
     7
370
    15
100
AcDbLine
 10
2095.721529293418
 20
852.0760958997126
 30
0.0
 11
2095.763435083985
 21
852.0992225018854
 31
0.0
  0
LINE
  5
7DA
330
6AF
100
AcDbEntity
  8
0
  6
Continuous
 62
     7
370
    15
100
AcDbLine
 10
2095.763435083985
 20
852.0992225018854
 30
0.0
 11
2095.763435083985
 21
851.0697906819697
 31
0.0
  0
ARC
  5
7DB
330
6AF
100
AcDbEntity
  8
0
  6
Continuous
 62
     7
370
    15
100
AcDbCircle
 10
2096.192529705524
 20
852.8027582550553
 30
0.0
 40
0.8240574415804132
100
AcDbArc
 50
301.3798992297757
 51
326.2271438428551
  0
LINE
  5
7DC
330
6AF
100
AcDbEntity
  8
0
  6
Continuous
 62
     7
370
    15
100
AcDbLine
 10
2087.363529447078
 20
835.0760763493891
 30
0.0
 11
2087.321624587834
 21
835.0992327538843
 31
0.0
  0
ARC
  5
7DD
330
6AF
100
AcDbEntity
  8
0
  6
Continuous
 62
     7
370
    15
100
AcDbCircle
 10
2086.892529705524
 20
835.8027582550553
 30
0.0
 40
0.824057441579862
100
AcDbArc
 50
301.3798992297936
 51
326.2271438428316
  0
LINE
  5
7DE
330
6AF
100
AcDbEntity
  8
0
  6
Continuous
 62
     7
370
    15
100
AcDbLine
 10
2096.663530412674
 20
835.0760763493891
 30
0.0
 11
2096.621624622106
 21
835.0992327538843
 31
0.0
  0
ARC
  5
7DF
330
6AF
100
AcDbEntity
  8
0
  6
Continuous
 62
     7
370
    15
100
AcDbCircle
 10
2096.192529705524
 20
835.8027582550553
 30
0.0
 40
0.824057441579862
100
AcDbArc
 50
301.3798992297936
 51
326.2271438428316
  0
LINE
  5
7E0
330
6AF
100
AcDbEntity
  8
0
  6
Continuous
 62
     7
370
    15
100
AcDbLine
 10
2096.663530412674
 20
834.037316402566
 30
0.0
 11
2096.621624622106
 21
834.0698009339686
 31
0.0
  0
LINE
  5
7E1
330
6AF
100
AcDbEntity
  8
0
  6
Continuous
 62
     7
370
    15
100
AcDbLine
 10
2096.621624622106
 20
834.0698009339686
 30
0.0
 11
2096.621624622106
 21
835.0992327538843
 31
0.0
  0
LINE
  5
7E2
330
6AF
100
AcDbEntity
  8
0
  6
Continuous
 62
     7
370
    15
100
AcDbLine
 10
2087.363529447078
 20
834.037316402566
 30
0.0
 11
2087.321624587834
 21
834.0698009339686
 31
0.0
  0
LINE
  5
7E3
330
6AF
100
AcDbEntity
  8
0
  6
Continuous
 62
     7
370
    15
100
AcDbLine
 10
2086.421529259145
 20
834.037316402566
 30
0.0
 11
2086.463435049712
 21
834.0698009339686
 31
0.0
  0
ARC
  5
7E4
330
6AF
100
AcDbEntity
  8
0
  6
Continuous
 62
     7
370
    15
100
AcDbCircle
 10
2086.892529705524
 20
835.8027582550553
 30
0.0
 40
1.785295076608584
100
AcDbArc
 50
256.0928211147014
 51
283.9071788852307
  0
LINE
  5
7E5
330
6AF
100
AcDbEntity
  8
0
  6
Continuous
 62
     7
370
    15
100
AcDbLine
 10
2087.321624587834
 20
834.0698009339686
 30
0.0
 11
2087.321624587834
 21
835.0992327538843
 31
0.0
  0
LINE
  5
7E6
330
6AF
100
AcDbEntity
  8
0
  6
Continuous
 62
     7
370
    15
100
AcDbLine
 10
2095.721529293418
 20
835.0760763493891
 30
0.0
 11
2095.763435083985
 21
835.0992327538843
 31
0.0
  0
LINE
  5
7E7
330
6AF
100
AcDbEntity
  8
0
  6
Continuous
 62
     7
370
    15
100
AcDbLine
 10
2095.763435083985
 20
835.0992327538843
 30
0.0
 11
2095.763435083985
 21
834.0698009339686
 31
0.0
  0
LINE
  5
7E8
330
6AF
100
AcDbEntity
  8
0
  6
Continuous
 62
     7
370
    15
100
AcDbLine
 10
2095.721529293418
 20
834.037316402566
 30
0.0
 11
2095.763435083985
 21
834.0698009339686
 31
0.0
  0
LINE
  5
7E9
330
6AF
100
AcDbEntity
  8
0
  6
Continuous
 62
     7
370
    15
100
AcDbLine
 10
2086.421529259145
 20
835.0760763493891
 30
0.0
 11
2086.463435049712
 21
835.0992327538843
 31
0.0
  0
LINE
  5
7EA
330
6AF
100
AcDbEntity
  8
0
  6
Continuous
 62
     7
370
    15
100
AcDbLine
 10
2086.463435049712
 20
835.0992327538843
 30
0.0
 11
2086.463435049712
 21
834.0698009339686
 31
0.0
  0
ARC
  5
7EB
330
6AF
100
AcDbEntity
  8
0
  6
Continuous
 62
     7
370
    15
100
AcDbCircle
 10
2096.192529705524
 20
835.8027582550553
 30
0.0
 40
1.785295076608577
100
AcDbArc
 50
256.0928211147014
 51
283.9071788852307
  0
LINE
  5
7EC
330
6AF
100
AcDbEntity
  8
0
  6
Continuous
 62
     7
370
    15
100
AcDbLine
 10
2095.763435083985
 20
871.5357309190149
 30
0.0
 11
2095.721529293418
 21
871.5682154504175
 31
0.0
  0
LINE
  5
7ED
330
6AF
100
AcDbEntity
  8
0
  6
Continuous
 62
     7
370
    15
100
AcDbLine
 10
2095.763435083985
 20
871.5357309190149
 30
0.0
 11
2095.763435083985
 21
870.5062692967768
 31
0.0
  0
LINE
  5
7EE
330
6AF
100
AcDbEntity
  8
0
  6
Continuous
 62
     7
370
    15
100
AcDbLine
 10
2095.763435083985
 20
870.5062692967768
 30
0.0
 11
2095.721529293418
 21
870.529425701272
 31
0.0
  0
ARC
  5
7EF
330
6AF
100
AcDbEntity
  8
0
  6
Continuous
 62
     7
370
    15
100
AcDbCircle
 10
2096.192529705524
 20
869.8027582550553
 30
0.0
 40
0.8240574415811298
100
AcDbArc
 50
121.3798992298661
 51
146.2271438428894
  0
LINE
  5
7F0
330
6AF
100
AcDbEntity
  8
0
  6
Continuous
 62
     7
370
    15
100
AcDbLine
 10
2086.463435049712
 20
870.5062692967768
 30
0.0
 11
2086.421529259145
 21
870.529425701272
 31
0.0
  0
ARC
  5
7F1
330
6AF
100
AcDbEntity
  8
0
  6
Continuous
 62
     7
370
    15
100
AcDbCircle
 10
2086.892529705524
 20
869.8027582550553
 30
0.0
 40
0.8240574415811062
100
AcDbArc
 50
121.3798992298661
 51
146.2271438428894
  0
LINE
  5
7F2
330
6AF
100
AcDbEntity
  8
0
  6
Continuous
 62
     7
370
    15
100
AcDbLine
 10
2087.321624587834
 20
870.5062692967768
 30
0.0
 11
2087.363529447078
 21
870.529425701272
 31
0.0
  0
LINE
  5
7F3
330
6AF
100
AcDbEntity
  8
0
  6
Continuous
 62
     7
370
    15
100
AcDbLine
 10
2087.321624587834
 20
870.5062692967768
 30
0.0
 11
2087.321624587834
 21
871.5357309190149
 31
0.0
  0
LINE
  5
7F4
330
6AF
100
AcDbEntity
  8
0
  6
Continuous
 62
     7
370
    15
100
AcDbLine
 10
2087.321624587834
 20
871.5357309190149
 30
0.0
 11
2087.363529447078
 21
871.5682154504175
 31
0.0
  0
ARC
  5
7F5
330
6AF
100
AcDbEntity
  8
0
  6
Continuous
 62
     7
370
    15
100
AcDbCircle
 10
2096.192529705524
 20
869.8027582550553
 30
0.0
 40
0.8240574415811071
100
AcDbArc
 50
33.77285615710335
 51
58.62010077020642
  0
LINE
  5
7F6
330
6AF
100
AcDbEntity
  8
0
  6
Continuous
 62
     7
370
    15
100
AcDbLine
 10
2096.621624622106
 20
870.5062692967768
 30
0.0
 11
2096.663530412674
 21
870.529425701272
 31
0.0
  0
ARC
  5
7F7
330
6AF
100
AcDbEntity
  8
0
  6
Continuous
 62
     7
370
    15
100
AcDbCircle
 10
2086.892529705524
 20
869.8027582550553
 30
0.0
 40
0.8240574415809883
100
AcDbArc
 50
213.7728561571214
 51
238.6201007700545
  0
ARC
  5
7F8
330
6AF
100
AcDbEntity
  8
0
  6
Continuous
 62
     7
370
    15
100
AcDbCircle
 10
2086.892529705524
 20
869.8027582550553
 30
0.0
 40
1.785295076609416
100
AcDbArc
 50
76.09282111478195
 51
103.9071788852575
  0
LINE
  5
7F9
330
6AF
100
AcDbEntity
  8
0
  6
Continuous
 62
     7
370
    15
100
AcDbLine
 10
2086.463435049712
 20
871.5357309190149
 30
0.0
 11
2086.421529259145
 21
871.5682154504175
 31
0.0
  0
ARC
  5
7FA
330
6AF
100
AcDbEntity
  8
0
  6
Continuous
 62
     7
370
    15
100
AcDbCircle
 10
2086.892529705524
 20
869.8027582550553
 30
0.0
 40
0.8240574415811071
100
AcDbArc
 50
33.77285615710335
 51
58.62010077020642
  0
LINE
  5
7FB
330
6AF
100
AcDbEntity
  8
0
  6
Continuous
 62
     7
370
    15
100
AcDbLine
 10
2096.621624622106
 20
870.5062692967768
 30
0.0
 11
2096.621624622106
 21
871.5357309190149
 31
0.0
  0
LINE
  5
7FC
330
6AF
100
AcDbEntity
  8
0
  6
Continuous
 62
     7
370
    15
100
AcDbLine
 10
2096.621624622106
 20
871.5357309190149
 30
0.0
 11
2096.663530412674
 21
871.5682154504175
 31
0.0
  0
LINE
  5
7FD
330
6AF
100
AcDbEntity
  8
0
  6
Continuous
 62
     7
370
    15
100
AcDbLine
 10
2086.463435049712
 20
871.5357309190149
 30
0.0
 11
2086.463435049712
 21
870.5062692967768
 31
0.0
  0
ARC
  5
7FE
330
6AF
100
AcDbEntity
  8
0
  6
Continuous
 62
     7
370
    15
100
AcDbCircle
 10
2096.192529705524
 20
869.8027582550553
 30
0.0
 40
1.785295076609423
100
AcDbArc
 50
76.09282111478195
 51
103.9071788852575
  0
ARC
  5
7FF
330
6AF
100
AcDbEntity
  8
0
  6
Continuous
 62
     7
370
    15
100
AcDbCircle
 10
2096.192529705524
 20
869.8027582550553
 30
0.0
 40
0.8240574415809883
100
AcDbArc
 50
213.7728561571214
 51
238.6201007700545
  0
LINE
  5
800
330
6AF
100
AcDbEntity
  8
0
  6
Continuous
 62
     7
370
    15
100
AcDbLine
 10
2086.463435049712
 20
854.5357113686915
 30
0.0
 11
2086.421529259145
 21
854.568195900094
 31
0.0
  0
LINE
  5
801
330
6AF
100
AcDbEntity
  8
0
  6
Continuous
 62
     7
370
    15
100
AcDbLine
 10
2086.463435049712
 20
854.5357113686915
 30
0.0
 11
2086.463435049712
 21
853.5062795487757
 31
0.0
  0
LINE
  5
802
330
6AF
100
AcDbEntity
  8
0
  6
Continuous
 62
     7
370
    15
100
AcDbLine
 10
2086.463435049712
 20
853.5062795487757
 30
0.0
 11
2086.421529259145
 21
853.5294359532709
 31
0.0
  0
LINE
  5
803
330
6AF
100
AcDbEntity
  8
0
  6
Continuous
 62
     7
370
    15
100
AcDbLine
 10
2087.321624587834
 20
853.5062795487757
 30
0.0
 11
2087.363529447078
 21
853.5294359532709
 31
0.0
  0
LINE
  5
804
330
6AF
100
AcDbEntity
  8
0
  6
Continuous
 62
     7
370
    15
100
AcDbLine
 10
2087.321624587834
 20
853.5062795487757
 30
0.0
 11
2087.321624587834
 21
854.5357113686915
 31
0.0
  0
LINE
  5
805
330
6AF
100
AcDbEntity
  8
0
  6
Continuous
 62
     7
370
    15
100
AcDbLine
 10
2087.321624587834
 20
854.5357113686915
 30
0.0
 11
2087.363529447078
 21
854.568195900094
 31
0.0
  0
ARC
  5
806
330
6AF
100
AcDbEntity
  8
0
  6
Continuous
 62
     7
370
    15
100
AcDbCircle
 10
2096.192529705524
 20
852.8027582550553
 30
0.0
 40
0.8240574415804132
100
AcDbArc
 50
213.7728561571449
 51
238.6201007700255
  0
LINE
  5
807
330
6AF
100
AcDbEntity
  8
0
  6
Continuous
 62
     7
370
    15
100
AcDbLine
 10
2096.621624622106
 20
854.5357113686915
 30
0.0
 11
2096.663530412674
 21
854.568195900094
 31
0.0
  0
ARC
  5
808
330
6AF
100
AcDbEntity
  8
0
  6
Continuous
 62
     7
370
    15
100
AcDbCircle
 10
2096.192529705524
 20
852.8027582550553
 30
0.0
 40
1.785295076608899
100
AcDbArc
 50
76.09282111476931
 51
103.9071788852591
  0
LINE
  5
809
330
6AF
100
AcDbEntity
  8
0
  6
Continuous
 62
     7
370
    15
100
AcDbLine
 10
2095.763435083985
 20
854.5357113686915
 30
0.0
 11
2095.721529293418
 21
854.568195900094
 31
0.0
  0
LINE
  5
80A
330
6AF
100
AcDbEntity
  8
0
  6
Continuous
 62
     7
370
    15
100
AcDbLine
 10
2095.763435083985
 20
854.5357113686915
 30
0.0
 11
2095.763435083985
 21
853.5062795487757
 31
0.0
  0
LINE
  5
80B
330
6AF
100
AcDbEntity
  8
0
  6
Continuous
 62
     7
370
    15
100
AcDbLine
 10
2095.763435083985
 20
853.5062795487757
 30
0.0
 11
2095.721529293418
 21
853.5294359532709
 31
0.0
  0
ARC
  5
80C
330
6AF
100
AcDbEntity
  8
0
  6
Continuous
 62
     7
370
    15
100
AcDbCircle
 10
2086.892529705524
 20
852.8027582550553
 30
0.0
 40
1.785295076608892
100
AcDbArc
 50
76.09282111476931
 51
103.9071788852575
  0
ARC
  5
80D
330
6AF
100
AcDbEntity
  8
0
  6
Continuous
 62
     7
370
    15
100
AcDbCircle
 10
2096.192529705524
 20
852.8027582550553
 30
0.0
 40
0.8240574415805975
100
AcDbArc
 50
33.77285615713949
 51
58.6201007701808
  0
LINE
  5
80E
330
6AF
100
AcDbEntity
  8
0
  6
Continuous
 62
     7
370
    15
100
AcDbLine
 10
2096.621624622106
 20
853.5062795487757
 30
0.0
 11
2096.663530412674
 21
853.5294359532709
 31
0.0
  0
ARC
  5
80F
330
6AF
100
AcDbEntity
  8
0
  6
Continuous
 62
     7
370
    15
100
AcDbCircle
 10
2086.892529705524
 20
852.8027582550553
 30
0.0
 40
0.8240574415805975
100
AcDbArc
 50
33.77285615713949
 51
58.6201007701808
  0
LINE
  5
810
330
6AF
100
AcDbEntity
  8
0
  6
Continuous
 62
     7
370
    15
100
AcDbLine
 10
2096.621624622106
 20
853.5062795487757
 30
0.0
 11
2096.621624622106
 21
854.5357113686915
 31
0.0
  0
ARC
  5
811
330
6AF
100
AcDbEntity
  8
0
  6
Continuous
 62
     7
370
    15
100
AcDbCircle
 10
2086.892529705524
 20
852.8027582550553
 30
0.0
 40
0.8240574415804132
100
AcDbArc
 50
213.7728561571449
 51
238.6201007700255
  0
ARC
  5
812
330
6AF
100
AcDbEntity
  8
0
  6
Continuous
 62
     7
370
    15
100
AcDbCircle
 10
2086.892529705524
 20
852.8027582550553
 30
0.0
 40
0.8240574415805786
100
AcDbArc
 50
121.379899229884
 51
146.2271438428605
  0
ARC
  5
813
330
6AF
100
AcDbEntity
  8
0
  6
Continuous
 62
     7
370
    15
100
AcDbCircle
 10
2096.192529705524
 20
852.8027582550553
 30
0.0
 40
0.8240574415805552
100
AcDbArc
 50
121.379899229884
 51
146.2271438428605
  0
ARC
  5
814
330
6AF
100
AcDbEntity
  8
0
  6
Continuous
 62
     7
370
    15
100
AcDbCircle
 10
2096.192529705524
 20
835.8027582550553
 30
0.0
 40
0.8240574415800152
100
AcDbArc
 50
33.77285615716297
 51
58.62010077016289
  0
LINE
  5
815
330
6AF
100
AcDbEntity
  8
0
  6
Continuous
 62
     7
370
    15
100
AcDbLine
 10
2096.621624622106
 20
836.5062898007746
 30
0.0
 11
2096.663530412674
 21
836.5294164029474
 31
0.0
  0
ARC
  5
816
330
6AF
100
AcDbEntity
  8
0
  6
Continuous
 62
     7
370
    15
100
AcDbCircle
 10
2086.892529705524
 20
835.8027582550553
 30
0.0
 40
0.8240574415798851
100
AcDbArc
 50
213.7728561571684
 51
238.6201007700075
  0
LINE
  5
817
330
6AF
100
AcDbEntity
  8
0
  6
Continuous
 62
     7
370
    15
100
AcDbLine
 10
2087.321624587834
 20
837.5357216206904
 30
0.0
 11
2087.363529447078
 21
837.5682061520929
 31
0.0
  0
ARC
  5
818
330
6AF
100
AcDbEntity
  8
0
  6
Continuous
 62
     7
370
    15
100
AcDbCircle
 10
2086.892529705524
 20
835.8027582550553
 30
0.0
 40
1.785295076608354
100
AcDbArc
 50
76.09282111476931
 51
103.9071788852717
  0
LINE
  5
819
330
6AF
100
AcDbEntity
  8
0
  6
Continuous
 62
     7
370
    15
100
AcDbLine
 10
2086.463435049712
 20
837.5357216206904
 30
0.0
 11
2086.421529259145
 21
837.5682061520929
 31
0.0
  0
LINE
  5
81A
330
6AF
100
AcDbEntity
  8
0
  6
Continuous
 62
     7
370
    15
100
AcDbLine
 10
2096.621624622106
 20
836.5062898007746
 30
0.0
 11
2096.621624622106
 21
837.5357216206904
 31
0.0
  0
LINE
  5
81B
330
6AF
100
AcDbEntity
  8
0
  6
Continuous
 62
     7
370
    15
100
AcDbLine
 10
2096.621624622106
 20
837.5357216206904
 30
0.0
 11
2096.663530412674
 21
837.5682061520929
 31
0.0
  0
LINE
  5
81C
330
6AF
100
AcDbEntity
  8
0
  6
Continuous
 62
     7
370
    15
100
AcDbLine
 10
2095.763435083985
 20
837.5357216206904
 30
0.0
 11
2095.721529293418
 21
837.5682061520929
 31
0.0
  0
LINE
  5
81D
330
6AF
100
AcDbEntity
  8
0
  6
Continuous
 62
     7
370
    15
100
AcDbLine
 10
2095.763435083985
 20
837.5357216206904
 30
0.0
 11
2095.763435083985
 21
836.5062898007746
 31
0.0
  0
LINE
  5
81E
330
6AF
100
AcDbEntity
  8
0
  6
Continuous
 62
     7
370
    15
100
AcDbLine
 10
2095.763435083985
 20
836.5062898007746
 30
0.0
 11
2095.721529293418
 21
836.5294164029474
 31
0.0
  0
ARC
  5
81F
330
6AF
100
AcDbEntity
  8
0
  6
Continuous
 62
     7
370
    15
100
AcDbCircle
 10
2096.192529705524
 20
835.8027582550553
 30
0.0
 40
1.785295076608361
100
AcDbArc
 50
76.09282111476931
 51
103.9071788852717
  0
LINE
  5
820
330
6AF
100
AcDbEntity
  8
0
  6
Continuous
 62
     7
370
    15
100
AcDbLine
 10
2086.463435049712
 20
836.5062898007746
 30
0.0
 11
2086.421529259145
 21
836.5294164029474
 31
0.0
  0
ARC
  5
821
330
6AF
100
AcDbEntity
  8
0
  6
Continuous
 62
     7
370
    15
100
AcDbCircle
 10
2086.892529705524
 20
835.8027582550553
 30
0.0
 40
0.8240574415799882
100
AcDbArc
 50
121.3798992299097
 51
146.227143842837
  0
ARC
  5
822
330
6AF
100
AcDbEntity
  8
0
  6
Continuous
 62
     7
370
    15
100
AcDbCircle
 10
2096.192529705524
 20
835.8027582550553
 30
0.0
 40
0.8240574415800116
100
AcDbArc
 50
121.3798992299097
 51
146.227143842837
  0
LINE
  5
823
330
6AF
100
AcDbEntity
  8
0
  6
Continuous
 62
     7
370
    15
100
AcDbLine
 10
2086.463435049712
 20
837.5357216206904
 30
0.0
 11
2086.463435049712
 21
836.5062898007746
 31
0.0
  0
ARC
  5
824
330
6AF
100
AcDbEntity
  8
0
  6
Continuous
 62
     7
370
    15
100
AcDbCircle
 10
2096.192529705524
 20
835.8027582550553
 30
0.0
 40
0.8240574415798851
100
AcDbArc
 50
213.7728561571684
 51
238.6201007700075
  0
LINE
  5
825
330
6AF
100
AcDbEntity
  8
0
  6
Continuous
 62
     7
370
    15
100
AcDbLine
 10
2087.321624587834
 20
836.5062898007746
 30
0.0
 11
2087.363529447078
 21
836.5294164029474
 31
0.0
  0
LINE
  5
826
330
6AF
100
AcDbEntity
  8
0
  6
Continuous
 62
     7
370
    15
100
AcDbLine
 10
2087.321624587834
 20
836.5062898007746
 30
0.0
 11
2087.321624587834
 21
837.5357216206904
 31
0.0
  0
ARC
  5
827
330
6AF
100
AcDbEntity
  8
0
  6
Continuous
 62
     7
370
    15
100
AcDbCircle
 10
2086.892529705524
 20
835.8027582550553
 30
0.0
 40
0.8240574415800152
100
AcDbArc
 50
33.77285615716297
 51
58.62010077016289
  0
CIRCLE
  5
828
330
6AF
100
AcDbEntity
  8
0
  6
Continuous
 62
     7
370
    15
100
AcDbCircle
 10
2086.892529705524
 20
869.8027582550553
 30
0.0
 40
2.475698476978749
  0
ARC
  5
829
330
6AF
100
AcDbEntity
  8
0
  6
Continuous
 62
     7
370
    15
100
AcDbCircle
 10
2086.892529705524
 20
869.8027582550553
 30
0.0
 40
2.365449003627656
100
AcDbArc
 50
348.6073968023633
 51
11.39260319764947
  0
ARC
  5
82A
330
6AF
100
AcDbEntity
  8
0
  6
Continuous
 62
     7
370
    15
100
AcDbCircle
 10
2086.892529705524
 20
869.8027582550553
 30
0.0
 40
2.36544900362765
100
AcDbArc
 50
168.6073968023697
 51
191.3926031976558
  0
CIRCLE
  5
82B
330
6AF
100
AcDbEntity
  8
0
  6
Continuous
 62
     7
370
    15
100
AcDbCircle
 10
2096.192529705524
 20
869.8027582550553
 30
0.0
 40
2.475698476978749
  0
ARC
  5
82C
330
6AF
100
AcDbEntity
  8
0
  6
Continuous
 62
     7
370
    15
100
AcDbCircle
 10
2096.192529705524
 20
869.8027582550553
 30
0.0
 40
2.365449003627656
100
AcDbArc
 50
348.6073968023633
 51
11.39260319764947
  0
ARC
  5
82D
330
6AF
100
AcDbEntity
  8
0
  6
Continuous
 62
     7
370
    15
100
AcDbCircle
 10
2096.192529705524
 20
869.8027582550553
 30
0.0
 40
2.365449003627622
100
AcDbArc
 50
168.6073968023697
 51
191.3926031976558
  0
CIRCLE
  5
82E
330
6AF
100
AcDbEntity
  8
0
  6
Continuous
 62
     7
370
    15
100
AcDbCircle
 10
2086.892529705524
 20
835.8027582550553
 30
0.0
 40
2.475698476978763
  0
ARC
  5
82F
330
6AF
100
AcDbEntity
  8
0
  6
Continuous
 62
     7
370
    15
100
AcDbCircle
 10
2086.892529705524
 20
835.8027582550553
 30
0.0
 40
2.365449003628698
100
AcDbArc
 50
348.6073968023697
 51
11.39260319764947
  0
ARC
  5
830
330
6AF
100
AcDbEntity
  8
0
  6
Continuous
 62
     7
370
    15
100
AcDbCircle
 10
2086.892529705524
 20
835.8027582550553
 30
0.0
 40
2.365449003628656
100
AcDbArc
 50
168.6073968023697
 51
191.3926031976558
  0
CIRCLE
  5
831
330
6AF
100
AcDbEntity
  8
0
  6
Continuous
 62
     7
370
    15
100
AcDbCircle
 10
2096.192529705524
 20
835.8027582550553
 30
0.0
 40
2.475698476978763
  0
ARC
  5
832
330
6AF
100
AcDbEntity
  8
0
  6
Continuous
 62
     7
370
    15
100
AcDbCircle
 10
2096.192529705524
 20
835.8027582550553
 30
0.0
 40
2.365449003628698
100
AcDbArc
 50
348.6073968023697
 51
11.39260319764947
  0
ARC
  5
833
330
6AF
100
AcDbEntity
  8
0
  6
Continuous
 62
     7
370
    15
100
AcDbCircle
 10
2096.192529705524
 20
835.8027582550553
 30
0.0
 40
2.365449003628656
100
AcDbArc
 50
168.6073968023697
 51
191.3926031976558
  0
CIRCLE
  5
834
330
6AF
100
AcDbEntity
  8
0
  6
Continuous
 62
     7
370
    15
100
AcDbCircle
 10
2096.192529705524
 20
852.8027582550553
 30
0.0
 40
2.475698476978777
  0
ARC
  5
835
330
6AF
100
AcDbEntity
  8
0
  6
Continuous
 62
     7
370
    15
100
AcDbCircle
 10
2096.192529705524
 20
852.8027582550553
 30
0.0
 40
2.365449003624619
100
AcDbArc
 50
348.6073968023505
 51
11.39260319765585
  0
ARC
  5
836
330
6AF
100
AcDbEntity
  8
0
  6
Continuous
 62
     7
370
    15
100
AcDbCircle
 10
2096.192529705524
 20
852.8027582550553
 30
0.0
 40
2.365449003624608
100
AcDbArc
 50
168.6073968023505
 51
191.3926031976622
  0
CIRCLE
  5
837
330
6AF
100
AcDbEntity
  8
0
  6
Continuous
 62
     7
370
    15
100
AcDbCircle
 10
2086.892529705524
 20
852.8027582550553
 30
0.0
 40
2.475698476978777
  0
ARC
  5
838
330
6AF
100
AcDbEntity
  8
0
  6
Continuous
 62
     7
370
    15
100
AcDbCircle
 10
2086.892529705524
 20
852.8027582550553
 30
0.0
 40
2.365449003624619
100
AcDbArc
 50
348.6073968023505
 51
11.39260319765585
  0
ARC
  5
839
330
6AF
100
AcDbEntity
  8
0
  6
Continuous
 62
     7
370
    15
100
AcDbCircle
 10
2086.892529705524
 20
852.8027582550553
 30
0.0
 40
2.365449003624636
100
AcDbArc
 50
168.6073968023505
 51
191.3926031976622
  0
ARC
  5
83A
330
6AF
100
AcDbEntity
  8
0
  6
Continuous
 62
     7
370
    15
100
AcDbCircle
 10
2096.192529705524
 20
869.8027582550553
 30
0.0
 40
2.356295076610054
100
AcDbArc
 50
168.7895483632244
 51
191.210451636782
  0
ARC
  5
83B
330
6AF
100
AcDbEntity
  8
0
  6
Continuous
 62
     7
370
    15
100
AcDbCircle
 10
2086.892529705524
 20
869.8027582550553
 30
0.0
 40
2.356295076610054
100
AcDbArc
 50
348.7895483632244
 51
11.21045163677561
  0
ARC
  5
83C
330
6AF
100
AcDbEntity
  8
0
  6
Continuous
 62
     7
370
    15
100
AcDbCircle
 10
2096.192529705524
 20
869.8027582550553
 30
0.0
 40
2.356295076610038
100
AcDbArc
 50
348.7895483632244
 51
11.21045163677561
  0
ARC
  5
83D
330
6AF
100
AcDbEntity
  8
0
  6
Continuous
 62
     7
370
    15
100
AcDbCircle
 10
2086.892529705524
 20
869.8027582550553
 30
0.0
 40
2.356295076610054
100
AcDbArc
 50
168.7895483632244
 51
191.210451636782
  0
ARC
  5
83E
330
6AF
100
AcDbEntity
  8
0
  6
Continuous
 62
     7
370
    15
100
AcDbCircle
 10
2096.192529705524
 20
852.8027582550553
 30
0.0
 40
2.356295076609519
100
AcDbArc
 50
168.7895483632244
 51
191.210451636782
  0
ARC
  5
83F
330
6AF
100
AcDbEntity
  8
0
  6
Continuous
 62
     7
370
    15
100
AcDbCircle
 10
2096.192529705524
 20
835.8027582550553
 30
0.0
 40
2.356295076608934
100
AcDbArc
 50
348.789548363218
 51
11.210451636782
  0
ARC
  5
840
330
6AF
100
AcDbEntity
  8
0
  6
Continuous
 62
     7
370
    15
100
AcDbCircle
 10
2086.892529705524
 20
852.8027582550553
 30
0.0
 40
2.356295076609491
100
AcDbArc
 50
168.7895483632244
 51
191.210451636782
  0
ARC
  5
841
330
6AF
100
AcDbEntity
  8
0
  6
Continuous
 62
     7
370
    15
100
AcDbCircle
 10
2086.892529705524
 20
835.8027582550553
 30
0.0
 40
2.356295076608934
100
AcDbArc
 50
168.789548363218
 51
191.210451636782
  0
ARC
  5
842
330
6AF
100
AcDbEntity
  8
0
  6
Continuous
 62
     7
370
    15
100
AcDbCircle
 10
2086.892529705524
 20
835.8027582550553
 30
0.0
 40
2.356295076608934
100
AcDbArc
 50
348.789548363218
 51
11.210451636782
  0
ARC
  5
843
330
6AF
100
AcDbEntity
  8
0
  6
Continuous
 62
     7
370
    15
100
AcDbCircle
 10
2086.892529705524
 20
852.8027582550553
 30
0.0
 40
2.356295076609514
100
AcDbArc
 50
348.789548363218
 51
11.21045163677561
  0
ARC
  5
844
330
6AF
100
AcDbEntity
  8
0
  6
Continuous
 62
     7
370
    15
100
AcDbCircle
 10
2096.192529705524
 20
852.8027582550553
 30
0.0
 40
2.356295076609491
100
AcDbArc
 50
348.789548363218
 51
11.21045163677561
  0
ARC
  5
845
330
6AF
100
AcDbEntity
  8
0
  6
Continuous
 62
     7
370
    15
100
AcDbCircle
 10
2096.192529705524
 20
835.8027582550553
 30
0.0
 40
2.356295076608934
100
AcDbArc
 50
168.789548363218
 51
191.210451636782
  0
CIRCLE
  5
846
330
6AF
100
AcDbEntity
  8
0
  6
Continuous
 62
     7
370
    15
100
AcDbCircle
 10
2091.542529705524
 20
861.3027582550554
 30
0.0
 40
2.600000000000022
  0
CIRCLE
  5
847
330
6AF
100
AcDbEntity
  8
0
  6
Continuous
 62
     7
370
    15
100
AcDbCircle
 10
2091.542529705524
 20
844.3027582550552
 30
0.0
 40
2.600000000000022
  0
INSERT
  5
848
330
6AF
100
AcDbEntity
  8
0
  6
Continuous
 62
     7
370
     0
100
AcDbBlockReference
  2
SW_CENTERMARKSYMBOL_0
 10
2086.892529705524
 20
869.8027582550542
 30
0.0
  0
INSERT
  5
849
330
6AF
100
AcDbEntity
  8
0
  6
Continuous
 62
     7
370
     0
100
AcDbBlockReference
  2
SW_CENTERMARKSYMBOL_1
 10
2096.192529705524
 20
835.8027582550541
 30
0.0
  0
INSERT
  5
84A
330
6AF
100
AcDbEntity
  8
0
  6
Continuous
 62
     7
370
     0
100
AcDbBlockReference
  2
SW_CENTERMARKSYMBOL_2
 10
2096.192529705524
 20
869.8027582550542
 30
0.0
  0
INSERT
  5
84B
330
6AF
100
AcDbEntity
  8
0
  6
Continuous
 62
     7
370
     0
100
AcDbBlockReference
  2
SW_CENTERMARKSYMBOL_3
 10
2096.192529705524
 20
852.802758255054
 30
0.0
  0
INSERT
  5
84C
330
6AF
100
AcDbEntity
  8
0
  6
Continuous
 62
     7
370
     0
100
AcDbBlockReference
  2
SW_CENTERMARKSYMBOL_4
 10
2086.892529705524
 20
852.802758255054
 30
0.0
  0
INSERT
  5
84D
330
6AF
100
AcDbEntity
  8
0
  6
Continuous
 62
     7
370
     0
100
AcDbBlockReference
  2
SW_CENTERMARKSYMBOL_5
 10
2086.892529705524
 20
835.8027582550541
 30
0.0
  0
INSERT
  5
84E
330
6AF
100
AcDbEntity
  8
0
  6
Continuous
 62
     7
370
     0
100
AcDbBlockReference
  2
SW_CENTERMARKSYMBOL_6
 10
2091.542529705524
 20
844.3027582550541
 30
0.0
  0
INSERT
  5
84F
330
6AF
100
AcDbEntity
  8
0
  6
Continuous
 62
     7
370
     0
100
AcDbBlockReference
  2
SW_CENTERMARKSYMBOL_7
 10
2091.542529705524
 20
861.3027582550541
 30
0.0
  0
ENDBLK
  5
6B1
330
6AF
100
AcDbEntity
  8
0
100
AcDbBlockEnd
  0
BLOCK
  5
852
330
851
100
AcDbEntity
  8
0
100
AcDbBlockBegin
  2
4
 70
     0
 10
0.0
 20
0.0
 30
0.0
  3
4
  1

  0
LINE
  5
854
330
851
100
AcDbEntity
  8
0
  6
Continuous
 62
     7
370
    15
100
AcDbLine
 10
2169.342358510693
 20
887.982957705803
 30
0.0
 11
2132.926364505795
 21
909.0054635682115
 31
0.0
  0
LINE
  5
855
330
851
100
AcDbEntity
  8
0
  6
Continuous
 62
     7
370
    15
100
AcDbLine
 10
2133.987028144153
 20
909.6178711790349
 30
0.0
 11
2132.926364505795
 21
909.0054635682115
 31
0.0
  0
LINE
  5
856
330
851
100
AcDbEntity
  8
0
  6
Continuous
 62
     7
370
    15
100
AcDbLine
 10
2169.34237563285
 20
889.2076635172955
 30
0.0
 11
2133.987028144153
 21
909.6178711790349
 31
0.0
  0
LINE
  5
857
330
851
100
AcDbEntity
  8
0
  6
Continuous
 62
     7
370
    15
100
AcDbLine
 10
2169.34237563285
 20
889.2076635172955
 30
0.0
 11
2169.342358510693
 21
887.982957705803
 31
0.0
  0
LINE
  5
858
330
851
100
AcDbEntity
  8
0
  6
Continuous
 62
     7
370
    15
100
AcDbLine
 10
2190.555561472137
 20
900.2290791094214
 30
0.0
 11
2169.342358510693
 21
887.982957705803
 31
0.0
  0
LINE
  5
859
330
851
100
AcDbEntity
  8
0
  6
Continuous
 62
     7
370
    15
100
AcDbLine
 10
2189.494918660249
 20
900.8414789742882
 30
0.0
 11
2169.34237563285
 21
889.2076635172955
 31
0.0
  0
LINE
  5
85A
330
851
100
AcDbEntity
  8
0
  6
Continuous
 62
     7
370
    15
100
AcDbLine
 10
2189.494918660249
 20
900.8414789742882
 30
0.0
 11
2190.555561472137
 21
900.2290791094214
 31
0.0
  0
LINE
  5
85B
330
851
100
AcDbEntity
  8
0
  6
Continuous
 62
     7
370
    15
100
AcDbLine
 10
2169.342358510693
 20
868.7942523253793
 30
0.0
 11
2132.926364505795
 21
889.8167581877878
 31
0.0
  0
LINE
  5
85C
330
851
100
AcDbEntity
  8
0
  6
Continuous
 62
     7
370
    15
100
AcDbLine
 10
2132.926364505795
 20
909.0054635682115
 30
0.0
 11
2132.926364505795
 21
889.8167581877878
 31
0.0
  0
LINE
  5
85D
330
851
100
AcDbEntity
  8
0
  6
Continuous
 62
     7
370
    15
100
AcDbLine
 10
2169.342358510693
 20
887.982957705803
 30
0.0
 11
2169.342358510693
 21
868.7942523253793
 31
0.0
  0
LWPOLYLINE
  5
85E
330
851
100
AcDbEntity
  8
0
  6
Continuous
 62
     7
370
    15
100
AcDbPolyline
 90
       29
 70
   128
 43
0.0
 10
2141.765085474136
 20
892.4844761586284
 10
2141.745929731488
 20
892.1548471582156
 10
2141.69404696097
 20
891.8487103484105
 10
2141.610090438737
 20
891.5698255190463
 10
2141.495113835999
 20
891.3216726471819
 10
2141.350507998758
 20
891.1073910541404
 10
2141.178106314924
 20
890.9295725694867
 10
2140.980037200348
 20
890.7904683630953
 10
2140.758766245665
 20
890.6917699357897
 10
2140.517032996031
 20
890.634767289694
 10
2140.257872024537
 20
890.6200934146767
 10
2139.984465418247
 20
890.6480041248546
 10
2139.700248145314
 20
890.7180982181348
 10
2139.408739467588
 20
890.8295364737089
 10
2139.113542940618
 20
890.9808956431772
 10
2138.818367487072
 20
891.1703509636206
 10
2138.526858809346
 20
891.3954814632811
 10
2138.242620462989
 20
891.6535498138834
 10
2137.969234930123
 20
891.9412954867052
 10
2137.710073958629
 20
892.2551902503132
 10
2137.468340708995
 20
892.5912921656417
 10
2137.247069754313
 20
892.9454645993061
 10
2137.049000639736
 20
893.3132545376755
 10
2136.876598955902
 20
893.6901237695693
 10
2136.731993118661
 20
894.071363708481
 10
2136.6169954425
 20
894.4522779056496
 10
2136.533038920266
 20
894.8280968722839
 10
2136.481156149749
 20
895.1941362538658
 10
2136.462000407101
 20
895.5458820039719
  0
LINE
  5
85F
330
851
100
AcDbEntity
  8
0
  6
Continuous
 62
     7
370
    15
100
AcDbLine
 10
2141.800235945793
 20
896.9420817444259
 30
0.0
 11
2141.765085474136
 21
892.4844761586284
 31
0.0
  0
LINE
  5
860
330
851
100
AcDbEntity
  8
0
  6
Continuous
 62
     7
370
    15
100
AcDbLine
 10
2136.426849935443
 20
900.0440714604938
 30
0.0
 11
2141.800235945793
 21
896.9420817444259
 31
0.0
  0
LINE
  5
861
330
851
100
AcDbEntity
  8
0
  6
Continuous
 62
     7
370
    15
100
AcDbLine
 10
2136.462000407101
 20
895.5458820039719
 30
0.0
 11
2136.426849935443
 21
900.0440714604938
 31
0.0
  0
LINE
  5
862
330
851
100
AcDbEntity
  8
0
  6
Continuous
 62
     7
370
    15
100
AcDbLine
 10
2160.503637542352
 20
881.6669403073719
 30
0.0
 11
2160.468487070693
 21
886.1651297638939
 31
0.0
  0
LWPOLYLINE
  5
863
330
851
100
AcDbEntity
  8
0
  6
Continuous
 62
     7
370
    15
100
AcDbPolyline
 90
       29
 70
   128
 43
0.0
 10
2165.806722609386
 20
878.6055344620285
 10
2165.787566866738
 20
878.2759054616157
 10
2165.735684096221
 20
877.9697686518106
 10
2165.651727573988
 20
877.6908838224464
 10
2165.536729897826
 20
877.4427431160111
 10
2165.392145134009
 20
877.2284493575405
 10
2165.219743450175
 20
877.0506308728869
 10
2165.021674335598
 20
876.9115266664952
 10
2164.800382307491
 20
876.8128404046187
 10
2164.558670131282
 20
876.7558255930941
 10
2164.299509159788
 20
876.7411517180768
 10
2164.026102553498
 20
876.7690624282547
 10
2163.741885280565
 20
876.8391565215349
 10
2163.450376602839
 20
876.950594777109
 10
2163.155180075869
 20
877.1019539465772
 10
2162.860004622323
 20
877.2914092670207
 10
2162.568474871173
 20
877.5165519321101
 10
2162.28425759824
 20
877.7746081172836
 10
2162.010872065374
 20
878.0623537901053
 10
2161.751690020456
 20
878.3762607191421
 10
2161.509977844247
 20
878.7123504690418
 10
2161.288706889564
 20
879.0665229027062
 10
2161.090637774987
 20
879.4343128410757
 10
2160.918215017729
 20
879.8111942383982
 10
2160.773630253912
 20
880.1924220118811
 10
2160.65863257775
 20
880.5733362090498
 10
2160.574676055517
 20
880.949155175684
 10
2160.522793285
 20
881.3151945572657
 10
2160.503637542352
 20
881.6669403073719
  0
LINE
  5
864
330
851
100
AcDbEntity
  8
0
  6
Continuous
 62
     7
370
    15
100
AcDbLine
 10
2165.841873081045
 20
883.063140047826
 30
0.0
 11
2165.806722609386
 21
878.6055344620285
 31
0.0
  0
LINE
  5
865
330
851
100
AcDbEntity
  8
0
  6
Continuous
 62
     7
370
    15
100
AcDbLine
 10
2160.468487070693
 20
886.1651297638939
 30
0.0
 11
2165.841873081045
 21
883.063140047826
 31
0.0
  0
LWPOLYLINE
  5
866
330
851
100
AcDbEntity
  8
0
  6
Continuous
 62
     7
370
    15
100
AcDbPolyline
 90
       29
 70
   128
 43
0.0
 10
2153.785914578473
 20
885.544999227614
 10
2153.766758835825
 20
885.2153702272012
 10
2153.714876065308
 20
884.9092334173962
 10
2153.630919543074
 20
884.6303485880319
 10
2153.515921866912
 20
884.3822078815964
 10
2153.371316029671
 20
884.1679262885548
 10
2153.198914345838
 20
883.9901078039012
 10
2153.000845231261
 20
883.8510035975097
 10
2152.779574276578
 20
883.7523051702042
 10
2152.537862100368
 20
883.6952903586796
 10
2152.27868005545
 20
883.6806286490912
 10
2152.005294522585
 20
883.7085271938402
 10
2151.721056176227
 20
883.7786334525493
 10
2151.429547498501
 20
883.8900717081234
 10
2151.134372044956
 20
884.0414187121627
 10
2150.839175517985
 20
884.2308861980351
 10
2150.54766684026
 20
884.4560166976956
 10
2150.263449567327
 20
884.7140728828689
 10
2149.990042961036
 20
885.0018307211199
 10
2149.730881989543
 20
885.3157254847277
 10
2149.489148739909
 20
885.6518274000562
 10
2149.267877785227
 20
886.0059998337206
 10
2149.069808670649
 20
886.37378977209
 10
2148.897406986816
 20
886.7506590039837
 10
2148.752801149575
 20
887.1318989428955
 10
2148.637824546837
 20
887.5128009746354
 10
2148.553868024603
 20
887.8886199412695
 10
2148.501985254086
 20
888.2546593228513
 10
2148.482829511438
 20
888.6064050729574
  0
LINE
  5
867
330
851
100
AcDbEntity
  8
0
  6
Continuous
 62
     7
370
    15
100
AcDbLine
 10
2153.821065050131
 20
890.0026048134114
 30
0.0
 11
2153.785914578473
 21
885.544999227614
 31
0.0
  0
LINE
  5
868
330
851
100
AcDbEntity
  8
0
  6
Continuous
 62
     7
370
    15
100
AcDbLine
 10
2148.44767903978
 20
893.1045945294794
 30
0.0
 11
2153.821065050131
 21
890.0026048134114
 31
0.0
  0
LINE
  5
869
330
851
100
AcDbEntity
  8
0
  6
Continuous
 62
     7
370
    15
100
AcDbLine
 10
2148.482829511438
 20
888.6064050729574
 30
0.0
 11
2148.44767903978
 21
893.1045945294794
 31
0.0
  0
LINE
  5
86A
330
851
100
AcDbEntity
  8
0
  6
Continuous
 62
     7
370
    15
100
AcDbLine
 10
2190.555561472137
 20
881.0403737289977
 30
0.0
 11
2169.342358510693
 21
868.7942523253793
 31
0.0
  0
LINE
  5
86B
330
851
100
AcDbEntity
  8
0
  6
Continuous
 62
     7
370
    15
100
AcDbLine
 10
2190.555561472137
 20
900.2290791094214
 30
0.0
 11
2190.555561472137
 21
881.0403737289977
 31
0.0
  0
LINE
  5
86C
330
851
100
AcDbEntity
  8
0
  6
Continuous
 62
     7
370
    15
100
AcDbLine
 10
2133.987028144153
 20
909.6178711790349
 30
0.0
 11
2154.139571171552
 21
921.2516866360275
 31
0.0
  0
LINE
  5
86D
330
851
100
AcDbEntity
  8
0
  6
Continuous
 62
     7
370
    15
100
AcDbLine
 10
2154.139571171552
 20
921.2516866360275
 30
0.0
 11
2189.494918660249
 21
900.8414789742882
 31
0.0
  0
LWPOLYLINE
  5
86E
330
851
100
AcDbEntity
  8
0
  6
Continuous
 62
     7
370
    15
100
AcDbPolyline
 90
       61
 70
   128
 43
0.0
 10
2152.796065548148
 20
907.0053666177933
 10
2153.11888538305
 20
906.8375665763131
 10
2153.470308440111
 20
906.6901717607514
 10
2153.846500673208
 20
906.5647887680592
 10
2154.243343544985
 20
906.4627869693239
 10
2154.656470905356
 20
906.3852954684129
 10
2155.081363821906
 20
906.3331605229723
 10
2155.513363750786
 20
906.30695314782
 10
2155.947762098765
 20
906.3069478254449
 10
2156.379754125112
 20
906.3331688867046
 10
2156.804661529642
 20
906.3853000304487
 10
2157.217784938746
 20
906.4627938123775
 10
2157.614630444701
 20
906.5647834456839
 10
2157.990812141085
 20
906.6901725210907
 10
2158.34223717378
 20
906.8375715185187
 10
2158.665054374504
 20
907.0053654772843
 10
2158.95571287127
 20
907.1917235003425
 10
2159.21104308936
 20
907.3945968534369
 10
2159.428246873162
 20
907.6117619242708
 10
2159.604917242496
 20
907.8408559584554
 10
2159.739154955004
 20
908.0793470261058
 10
2159.829458529205
 20
908.3246408495149
 10
2159.874880319554
 20
908.5740249182135
 10
2159.874870441386
 20
908.824797366482
 10
2159.829473017184
 20
909.0741856170467
 10
2159.739162857537
 20
909.3194710767235
 10
2159.604929096297
 20
909.5579644253918
 10
2159.428238312083
 20
909.7870573190673
 10
2159.211043747905
 20
910.0042277122765
 10
2158.955721432349
 20
910.2071003050314
 10
2158.665051740326
 20
910.3934602289379
 10
2158.342231905424
 20
910.5612602704182
 10
2157.990808189818
 20
910.7086547058102
 10
2157.614617273811
 20
910.8340384588418
 10
2157.217794816913
 20
910.9360277119785
 10
2156.804667456542
 20
911.0135192128895
 10
2156.379753466568
 20
911.0656663237589
 10
2155.947753537687
 20
911.0918736989113
 10
2155.513355848253
 20
911.0918794014562
 10
2155.081363163362
 20
911.0656579600266
 10
2154.656455758832
 20
911.0135268162826
 10
2154.243332349728
 20
910.9360330343537
 10
2153.846507917197
 20
910.8340312356183
 10
2153.470305147389
 20
910.7086543256405
 10
2153.118880114693
 20
910.5612553282126
 10
2152.796063572514
 20
910.3934617496165
 10
2152.505404417203
 20
910.2071033463888
 10
2152.250074199113
 20
910.0042299932944
 10
2152.032891488737
 20
909.7870527570316
 10
2151.856200045977
 20
909.5579708882761
 10
2151.72196233347
 20
909.3194798206255
 10
2151.631658759269
 20
909.0741859972164
 10
2151.586237627464
 20
908.8248023086876
 10
2151.586246847088
 20
908.5740294802493
 10
2151.63164427129
 20
908.3246412296846
 10
2151.72197550436
 20
908.0793436045789
 10
2151.856209265601
 20
907.8408502559106
 10
2152.032879634935
 20
907.6117699078336
 10
2152.250072882024
 20
907.3945987542852
 10
2152.505395856125
 20
907.1917265416997
 10
2152.796065548148
 20
907.0053666177933
  0
LWPOLYLINE
  5
86F
330
851
100
AcDbEntity
  8
0
  6
Continuous
 62
     7
370
    15
100
AcDbPolyline
 90
       61
 70
   128
 43
0.0
 10
2164.816873579061
 20
900.0659018522078
 10
2165.139693413963
 20
899.8981018107276
 10
2165.491116471025
 20
899.7507069951659
 10
2165.867308704121
 20
899.6253240024737
 10
2166.264151575898
 20
899.5233222037384
 10
2166.677278936269
 20
899.4458307028274
 10
2167.102171852819
 20
899.3936957573868
 10
2167.5341717817
 20
899.3674883822345
 10
2167.968570129679
 20
899.3674830598594
 10
2168.40058322945
 20
899.3936919556903
 10
2168.825469560555
 20
899.4458352648633
 10
2169.238592969659
 20
899.523329046792
 10
2169.635438475614
 20
899.6253186800984
 10
2170.011620171998
 20
899.7507077555054
 10
2170.363045204694
 20
899.898106752933
 10
2170.685862405417
 20
900.0659007116988
 10
2170.976520902184
 20
900.252258734757
 10
2171.231851120274
 20
900.4551320878514
 10
2171.449054904075
 20
900.6722971586853
 10
2171.625725273409
 20
900.9013911928699
 10
2171.759962985917
 20
901.1398822605203
 10
2171.850287633542
 20
901.3851639185006
 10
2171.895688350467
 20
901.6345601526278
 10
2171.895678472299
 20
901.8853326008965
 10
2171.850281048097
 20
902.1347208514612
 10
2171.759970888451
 20
902.380006311138
 10
2171.62573712721
 20
902.6184996598063
 10
2171.449046342996
 20
902.8475925534818
 10
2171.231851778819
 20
903.064762946691
 10
2170.976529463262
 20
903.267635539446
 10
2170.685859771239
 20
903.4539954633524
 10
2170.363061009762
 20
903.6217833394038
 10
2170.011637294155
 20
903.7691777747959
 10
2169.635446378148
 20
903.8945615278274
 10
2169.238602847826
 20
903.9965629463932
 10
2168.825475487456
 20
904.074054447304
 10
2168.400582570905
 20
904.1261893927446
 10
2167.968561568601
 20
904.1524089333258
 10
2167.53418495259
 20
904.1524024704417
 10
2167.102171194275
 20
904.1261931944411
 10
2166.677284863169
 20
904.0740498852683
 10
2166.264140380642
 20
903.9965682687682
 10
2165.86731594811
 20
903.894566470033
 10
2165.491113178302
 20
903.769189560055
 10
2165.139688145607
 20
903.6217905626271
 10
2164.816892676851
 20
903.4539848186023
 10
2164.526212448117
 20
903.2676385808033
 10
2164.270882230026
 20
903.0647652277089
 10
2164.05369951965
 20
902.8475879914461
 10
2163.877008076891
 20
902.6185061226906
 10
2163.742791437808
 20
902.3800028896111
 10
2163.652466790182
 20
902.1347212316308
 10
2163.607066731802
 20
901.8853253776732
 10
2163.607054878001
 20
901.6345647146637
 10
2163.652473375627
 20
901.3851642986702
 10
2163.742783535274
 20
901.1398788389934
 10
2163.877017296514
 20
900.9013854903251
 10
2164.053708739273
 20
900.6722929768192
 10
2164.270901986361
 20
900.4551218232709
 10
2164.526224960463
 20
900.2522496106854
 10
2164.816873579061
 20
900.0659018522078
  0
LWPOLYLINE
  5
870
330
851
100
AcDbEntity
  8
0
  6
Continuous
 62
     7
370
    15
100
AcDbPolyline
 90
       52
 70
   128
 43
0.0
 10
2174.928507739227
 20
898.963747070962
 10
2175.205264361429
 20
898.8225425578489
 10
2175.509993978697
 20
898.7020363814567
 10
2175.838069657318
 20
898.6040586784911
 10
2176.184498312831
 20
898.5301065570432
 10
2176.544064272734
 20
898.4812809884262
 10
2176.911289763809
 20
898.4583369895693
 10
2177.280594938441
 20
898.4616300190978
 10
2177.646419046803
 20
898.4910886051167
 10
2178.003200021982
 20
898.5462755525261
 10
2178.345528579389
 20
898.6263552484301
 10
2178.668219998112
 20
898.7301107697716
 10
2178.966370755745
 20
898.8559765779223
 10
2179.235477724942
 20
899.0020343368167
 10
2179.471436197786
 20
899.1660847650161
 10
2179.670704521912
 20
899.3456210238329
 10
2179.830215855547
 20
899.5379480906024
 10
2179.947606023906
 20
899.7401196505185
 10
2180.021058102693
 20
899.9490916851753
 10
2180.049464420045
 20
900.1616943400119
 10
2180.032408775833
 20
900.3746946523047
 10
2179.970133514435
 20
900.5848748661165
 10
2179.863595830295
 20
900.789040605944
 10
2179.714399608561
 20
900.9841031834465
 10
2179.524823742504
 20
901.1670959447425
 10
2179.297716766392
 20
901.3352594284102
 10
2179.03653274617
 20
901.4860377538774
 10
2178.745233485598
 20
901.6171438205159
 10
2178.428246379403
 20
901.7265836384988
 10
2178.090351472896
 20
901.8127127839953
 10
2177.736687718146
 20
901.8742156799234
 10
2177.372605460007
 20
901.9101664230952
 10
2177.003638118709
 20
901.9200124369206
 10
2176.635359614964
 20
901.9036138189678
 10
2176.273370211272
 20
901.8612108364568
 10
2175.923160851739
 20
901.7934429347432
 10
2175.590025575663
 20
901.7013468364687
 10
2175.27900488271
 20
901.5863238469719
 10
2174.994851488595
 20
901.4500957546079
 10
2174.741823542104
 20
901.2947557734824
 10
2174.52379394349
 20
901.1226370047518
 10
2174.344064634916
 20
900.9363512139275
 10
2174.205347502665
 20
900.7387291442407
 10
2174.109750547708
 20
900.5327638713641
 10
2174.058721250874
 20
900.3215781088217
 10
2174.05303801177
 20
900.1083706040686
 10
2174.092761416492
 20
899.8963880059349
 10
2174.177338946197
 20
899.6888149955987
 10
2174.305441658067
 20
899.4888259896566
 10
2174.475162407209
 20
899.2994319317547
 10
2174.683907845349
 20
899.1235152681976
 10
2174.928507739227
 20
898.963747070962
  0
LWPOLYLINE
  5
871
330
851
100
AcDbEntity
  8
0
  6
Continuous
 62
     7
370
    15
100
AcDbPolyline
 90
       52
 70
   128
 43
0.0
 10
2144.310777514707
 20
909.0463910335959
 10
2144.587554551789
 20
908.9051739748844
 10
2144.892284169056
 20
908.7846677984922
 10
2145.220339432797
 20
908.6867026411251
 10
2145.566789161735
 20
908.6127383542484
 10
2145.926333389669
 20
908.5639245708906
 10
2146.293558880745
 20
908.5409805720336
 10
2146.6628851288
 20
908.5442614361333
 10
2147.028710554252
 20
908.5737207824916
 10
2147.385470456006
 20
908.6289198953297
 10
2147.727799013413
 20
908.7089995912338
 10
2148.050489773591
 20
908.8127547324056
 10
2148.348640531224
 20
908.9386205405562
 10
2148.617746841878
 20
909.0846779192812
 10
2148.853705973266
 20
909.2487287276501
 10
2149.052974955937
 20
909.4282653666368
 10
2149.212507362995
 20
909.6205802679772
 10
2149.329875799386
 20
909.8227636131525
 10
2149.403328536717
 20
910.031736027979
 10
2149.431755268949
 20
910.2443261372171
 10
2149.414700283281
 20
910.4573268296794
 10
2149.352424363339
 20
910.6675066633217
 10
2149.245886349927
 20
910.8716722130642
 10
2149.096690457465
 20
911.0667349806517
 10
2148.907094176528
 20
911.249740287546
 10
2148.679987200416
 20
911.417903771214
 10
2148.418803180194
 20
911.5686820966812
 10
2148.127524993046
 20
911.6997759978907
 10
2147.810516154883
 20
911.8092276011328
 10
2147.472620919104
 20
911.8953565565444
 10
2147.118957493626
 20
911.9568596425574
 10
2146.754875894032
 20
911.9928107658987
 10
2146.385907894188
 20
912.0026563995546
 10
2146.017630048989
 20
911.9862581617713
 10
2145.655639986752
 20
911.943854799091
 10
2145.305431285763
 20
911.8760872775471
 10
2144.972296009687
 20
911.7839911792726
 10
2144.661274658191
 20
911.668967809606
 10
2144.37712060553
 20
911.5327393370723
 10
2144.124114391008
 20
911.3773875706876
 10
2143.906084792394
 20
911.205268801957
 10
2143.72633506894
 20
911.0189955567312
 10
2143.58761793669
 20
910.8213734870444
 10
2143.492020981733
 20
910.6154082141678
 10
2143.440990367809
 20
910.4042216912862
 10
2143.435307128706
 20
910.191014186533
 10
2143.475051606851
 20
909.9790194229704
 10
2143.559608721676
 20
909.7714589582327
 10
2143.687732506971
 20
909.5714577868616
 10
2143.857431524144
 20
909.3820755142191
 10
2144.066176962285
 20
909.206158850662
 10
2144.310777514707
 20
909.0463910335959
  0
LWPOLYLINE
  5
872
330
851
100
AcDbEntity
  8
0
  6
Continuous
 62
     7
370
    15
100
AcDbPolyline
 90
       52
 70
   128
 43
0.0
 10
2168.352414649957
 20
895.1674493369962
 10
2168.629170613615
 20
895.0262444437134
 10
2168.933900230884
 20
894.9057382673212
 10
2169.261976568048
 20
894.8077609445252
 10
2169.608405223562
 20
894.7338088230774
 10
2169.96797052492
 20
894.6849828742907
 10
2170.335196015996
 20
894.662038875434
 10
2170.704501190627
 20
894.6653319049623
 10
2171.070326616078
 20
894.6947912513206
 10
2171.427107591258
 20
894.7499781987298
 10
2171.769436148664
 20
894.8300578946339
 10
2172.092126908843
 20
894.9338130358057
 10
2172.390277666476
 20
895.0596788439563
 10
2172.659383977129
 20
895.2057362226812
 10
2172.895343108517
 20
895.3697870310502
 10
2173.094612091187
 20
895.549323670037
 10
2173.254123424822
 20
895.7416507368062
 10
2173.371512934637
 20
895.9438219165527
 10
2173.444965671968
 20
896.1527943313791
 10
2173.473371330775
 20
896.365396606046
 10
2173.456316345108
 20
896.5783972985084
 10
2173.394040425166
 20
896.7885771321506
 10
2173.287502411753
 20
896.9927426818934
 10
2173.138306519292
 20
897.1878054494807
 10
2172.948731311779
 20
897.3707985909461
 10
2172.721624335667
 20
897.538962074614
 10
2172.460440315445
 20
897.6897404000812
 10
2172.169141054873
 20
897.8208464667195
 10
2171.852153290134
 20
897.9302859045329
 10
2171.514258054355
 20
898.0164148599447
 10
2171.160594628876
 20
898.0779179459576
 10
2170.796513029282
 20
898.113869069299
 10
2170.427545029439
 20
898.1237147029546
 10
2170.05926718424
 20
898.1073164651714
 10
2169.697277122002
 20
898.0649131024911
 10
2169.347068421013
 20
897.9971455809472
 10
2169.013933144938
 20
897.9050494826726
 10
2168.702911793441
 20
897.7900261130061
 10
2168.418757740781
 20
897.6537976404724
 10
2168.165730452834
 20
897.4984580395167
 10
2167.947700854221
 20
897.326339270786
 10
2167.767972204191
 20
897.1400538601313
 10
2167.629255071941
 20
896.9424317904445
 10
2167.533658116984
 20
896.7364665175679
 10
2167.48262750306
 20
896.5252799946863
 10
2167.476944263956
 20
896.3120724899329
 10
2167.516667668678
 20
896.1000898917994
 10
2167.601245856927
 20
895.8925172616329
 10
2167.729348568798
 20
895.6925282556905
 10
2167.899068659395
 20
895.5031338176192
 10
2168.107814097536
 20
895.327217154062
 10
2168.352414649957
 20
895.1674493369962
  0
LWPOLYLINE
  5
873
330
851
100
AcDbEntity
  8
0
  6
Continuous
 62
     7
370
    15
100
AcDbPolyline
 90
       52
 70
   128
 43
0.0
 10
2156.331606619044
 20
902.1069141025817
 10
2156.608362582702
 20
901.9657092092989
 10
2156.91309219997
 20
901.8452030329067
 10
2157.241168537135
 20
901.7472257101108
 10
2157.587597192648
 20
901.6732735886629
 10
2157.947141420582
 20
901.6244598053051
 10
2158.314366911658
 20
901.6015158064483
 10
2158.683693159714
 20
901.6047966705478
 10
2159.049518585165
 20
901.6342560169061
 10
2159.406299560344
 20
901.6894429643153
 10
2159.748628117751
 20
901.7695226602192
 10
2160.071318877929
 20
901.8732778013911
 10
2160.369469635563
 20
901.999143609542
 10
2160.638554872791
 20
902.1452131536955
 10
2160.874535077604
 20
902.3092517966357
 10
2161.07378298685
 20
902.4888006010511
 10
2161.233315393909
 20
902.6811155023917
 10
2161.350704903723
 20
902.8832866821382
 10
2161.424157641055
 20
903.0922590969646
 10
2161.452563299862
 20
903.3048613716314
 10
2161.435508314195
 20
903.5178620640939
 10
2161.373232394253
 20
903.7280418977362
 10
2161.26669438084
 20
903.9322074474787
 10
2161.117498488379
 20
904.1272702150662
 10
2160.927923280866
 20
904.3102633565316
 10
2160.700816304754
 20
904.4784268401995
 10
2160.439632284532
 20
904.6292051656667
 10
2160.14833302396
 20
904.7603112323052
 10
2159.831324185796
 20
904.8697628355473
 10
2159.493428950017
 20
904.9558917909589
 10
2159.139765524539
 20
905.0173948769721
 10
2158.775704998369
 20
905.0533338348843
 10
2158.406715925101
 20
905.0631916339691
 10
2158.038459153326
 20
905.0467812307569
 10
2157.676469091089
 20
905.0043778680764
 10
2157.326239316676
 20
904.9366225119616
 10
2156.993104040601
 20
904.8445264136871
 10
2156.682103762528
 20
904.7294908785916
 10
2156.397928636443
 20
904.5932745714868
 10
2156.144922421921
 20
904.437922805102
 10
2155.926892823307
 20
904.2658040363715
 10
2155.747164173278
 20
904.0795186257168
 10
2155.608447041027
 20
903.8818965560301
 10
2155.512850086071
 20
903.6759312831534
 10
2155.461819472147
 20
903.4647447602718
 10
2155.456115159619
 20
903.2515494209475
 10
2155.495859637765
 20
903.0395546573849
 10
2155.580437826014
 20
902.8319820272184
 10
2155.708540537885
 20
902.6319930212762
 10
2155.878260628482
 20
902.4425985832049
 10
2156.086984993198
 20
902.2666940850765
 10
2156.331606619044
 20
902.1069141025817
  0
LWPOLYLINE
  5
874
330
851
100
AcDbEntity
  8
0
  6
Continuous
 62
     7
370
    15
100
AcDbPolyline
 90
       52
 70
   128
 43
0.0
 10
2162.907699708314
 20
905.9032118365474
 10
2163.184456330516
 20
905.7620073234344
 10
2163.489185947784
 20
905.6415011470422
 10
2163.817261626404
 20
905.5435234440766
 10
2164.163690281917
 20
905.4695713226287
 10
2164.523235168396
 20
905.4207579194406
 10
2164.890460659472
 20
905.3978139205836
 10
2165.259786907528
 20
905.4010947846833
 10
2165.62561101589
 20
905.4305533707022
 10
2165.982391991069
 20
905.4857403181115
 10
2166.324720548475
 20
905.5658200140156
 10
2166.647411967199
 20
905.6695755353571
 10
2166.945562724832
 20
905.7954413435076
 10
2167.214648620605
 20
905.941511267831
 10
2167.450628166873
 20
906.1055495306016
 10
2167.649875417575
 20
906.2850979548475
 10
2167.809407824634
 20
906.4774128561879
 10
2167.926797992993
 20
906.679584416104
 10
2168.00025007178
 20
906.8885564507608
 10
2168.028656389132
 20
907.1011591055974
 10
2168.01160074492
 20
907.3141594178901
 10
2167.949325483522
 20
907.524339631702
 10
2167.842787799382
 20
907.7285053715295
 10
2167.693591577648
 20
907.923567949032
 10
2167.504015711591
 20
908.1065607103278
 10
2167.276908735479
 20
908.2747241939957
 10
2167.015724715257
 20
908.4255025194629
 10
2166.724425454685
 20
908.5566085861014
 10
2166.407417275065
 20
908.6660605695131
 10
2166.069522368559
 20
908.7521897150097
 10
2165.715858613808
 20
908.8136926109379
 10
2165.351797429094
 20
908.8496311886807
 10
2164.982809014371
 20
908.8594893679349
 10
2164.614551584051
 20
908.8430785845533
 10
2164.252562180359
 20
908.8006756020424
 10
2163.902331747401
 20
908.7329198657577
 10
2163.569196471326
 20
908.6408237674831
 10
2163.258196851797
 20
908.5257886125575
 10
2162.974022384257
 20
908.3895726856223
 10
2162.721015511191
 20
908.2342205390679
 10
2162.502985912577
 20
908.0621017703373
 10
2162.323256604002
 20
907.875815979513
 10
2162.184539471752
 20
907.6781939098262
 10
2162.088942516795
 20
907.4722286369496
 10
2162.037913219961
 20
907.2610428744074
 10
2162.032208907433
 20
907.0478475350828
 10
2162.071953385578
 20
906.8358527715204
 10
2162.156530915283
 20
906.6282797611842
 10
2162.284633627154
 20
906.4282907552419
 10
2162.454354376296
 20
906.2388966973403
 10
2162.663078741012
 20
906.062992199212
 10
2162.907699708314
 20
905.9032118365474
  0
LWPOLYLINE
  5
875
330
851
100
AcDbEntity
  8
0
  6
Continuous
 62
     7
370
    15
100
AcDbPolyline
 90
       52
 70
   128
 43
0.0
 10
2150.886870603976
 20
912.8426887675619
 10
2151.163648299602
 20
912.7014720890199
 10
2151.46837791687
 20
912.5809659126277
 10
2151.796432522067
 20
912.483000375091
 10
2152.142882251004
 20
912.4090360882142
 10
2152.502427137483
 20
912.3602226850261
 10
2152.869652628559
 20
912.3372786861692
 10
2153.238978876614
 20
912.3405595502688
 10
2153.604802984977
 20
912.3700181362877
 10
2153.961562886731
 20
912.425217249126
 10
2154.303891444138
 20
912.5052969450299
 10
2154.626582862861
 20
912.6090524663714
 10
2154.924733620494
 20
912.7349182745222
 10
2155.193840589692
 20
912.8809760334165
 10
2155.429799062535
 20
913.0450264616159
 10
2155.629067386661
 20
913.2245627204328
 10
2155.78859979372
 20
913.4168776217734
 10
2155.905968888656
 20
913.6190613471184
 10
2155.979420967442
 20
913.8280333817752
 10
2156.007848358219
 20
914.0406238711827
 10
2155.990792714006
 20
914.2536241834758
 10
2155.928517452609
 20
914.4638043972875
 10
2155.821979768468
 20
914.667970137115
 10
2155.672783546735
 20
914.8630327146175
 10
2155.483186607253
 20
915.0460376413423
 10
2155.256079631141
 20
915.21420112501
 10
2154.994895610919
 20
915.3649794504772
 10
2154.703617423771
 20
915.4960733516869
 10
2154.386609244152
 20
915.6055253350986
 10
2154.048714337645
 20
915.6916544805952
 10
2153.695050582895
 20
915.7531573765234
 10
2153.330968324756
 20
915.7891081196948
 10
2152.962000983457
 20
915.7989541335204
 10
2152.593722479714
 20
915.7825555155675
 10
2152.231733076021
 20
915.7401525330568
 10
2151.881523716487
 20
915.6723846313433
 10
2151.548388440412
 20
915.5802885330686
 10
2151.23736774746
 20
915.4652655435718
 10
2150.953214353344
 20
915.3290374512078
 10
2150.700207480277
 20
915.1736853046534
 10
2150.482177881664
 20
915.0015665359228
 10
2150.302427499665
 20
914.8152929105274
 10
2150.163710367415
 20
914.6176708408406
 10
2150.068113412458
 20
914.411705567964
 10
2150.017084115623
 20
914.2005198054217
 10
2150.01140087652
 20
913.9873123006685
 10
2150.051145354665
 20
913.7753175371059
 10
2150.135701810945
 20
913.5677566921986
 10
2150.26382559624
 20
913.3677555208276
 10
2150.433525271958
 20
913.1783736283548
 10
2150.642270710099
 20
913.0024569647975
 10
2150.886870603976
 20
912.8426887675619
  0
ARC
  5
876
330
851
100
AcDbEntity
  8
0
  6
Continuous
 62
     7
370
    15
100
AcDbCircle
 10
2171.047487273744
 20
884.7838791608479
 30
0.0
 40
5.709171302736477
100
AcDbArc
 50
195.8007063179276
 51
204.1263706573086
  0
LWPOLYLINE
  5
877
330
851
100
AcDbEntity
  8
0
  6
Continuous
 62
     7
370
    15
100
AcDbPolyline
 90
       26
 70
   128
 43
0.0
 10
2171.652890892908
 20
900.9434017980529
 10
2171.62573712721
 20
900.9854147265004
 10
2171.449046342996
 20
901.2145076201759
 10
2171.231851778819
 20
901.4316780133849
 10
2170.976529463262
 20
901.63455060614
 10
2170.685859771239
 20
901.8209105300465
 10
2170.363061009762
 20
901.9886984060979
 10
2170.011637294155
 20
902.1360928414898
 10
2169.635446378148
 20
902.2614765945215
 10
2169.238602847826
 20
902.3634780130871
 10
2168.825475487456
 20
902.4409695139981
 10
2168.400582570905
 20
902.4931044594387
 10
2167.968561568601
 20
902.5193240000197
 10
2167.53418495259
 20
902.5193175371358
 10
2167.102171194275
 20
902.4931082611351
 10
2166.677284863169
 20
902.4409649519622
 10
2166.264140380642
 20
902.3634833354622
 10
2165.86731594811
 20
902.2614815367269
 10
2165.491113178302
 20
902.1361046267491
 10
2165.139688145607
 20
901.9887056293212
 10
2164.816892676851
 20
901.8208998852962
 10
2164.526212448117
 20
901.6345536474972
 10
2164.270882230026
 20
901.4316802944028
 10
2164.05369951965
 20
901.21450305814
 10
2163.877008076891
 20
900.9854211893845
 10
2163.849858921005
 20
900.9433979963564
  0
LINE
  5
878
330
851
100
AcDbEntity
  8
0
  6
Continuous
 62
     7
370
    15
100
AcDbLine
 10
2190.555561472137
 20
881.0403737289977
 30
0.0
 11
2189.494918660249
 21
880.427953810182
 31
0.0
  0
LINE
  5
879
330
851
100
AcDbEntity
  8
0
  6
Continuous
 62
     7
370
    15
100
AcDbLine
 10
2169.34237563285
 20
868.7941383531892
 30
0.0
 11
2189.494918660249
 21
880.427953810182
 31
0.0
  0
LINE
  5
87A
330
851
100
AcDbEntity
  8
0
  6
Continuous
 62
     7
370
    15
100
AcDbLine
 10
2169.342358510693
 20
868.7942523253793
 30
0.0
 11
2169.34237563285
 21
868.7941383531892
 31
0.0
  0
LINE
  5
87B
330
851
100
AcDbEntity
  8
0
  6
Continuous
 62
     7
370
    15
100
AcDbLine
 10
2133.987028144153
 20
889.2043460149286
 30
0.0
 11
2169.34237563285
 21
868.7941383531892
 31
0.0
  0
LINE
  5
87C
330
851
100
AcDbEntity
  8
0
  6
Continuous
 62
     7
370
    15
100
AcDbLine
 10
2132.926364505795
 20
889.8167581877878
 30
0.0
 11
2133.987028144153
 21
889.2043460149286
 31
0.0
  0
LINE
  5
87D
330
851
100
AcDbEntity
  8
0
  6
Continuous
 62
     7
370
    15
100
AcDbLine
 10
2168.797378027478
 20
902.3804427036521
 30
0.0
 11
2171.54798672842
 21
900.7925500998426
 31
0.0
  0
LINE
  5
87E
330
851
100
AcDbEntity
  8
0
  6
Continuous
 62
     7
370
    15
100
AcDbLine
 10
2164.89364208799
 20
901.7765933933363
 30
0.0
 11
2168.797378027478
 21
902.3804427036521
 31
0.0
  0
LINE
  5
87F
330
851
100
AcDbEntity
  8
0
  6
Continuous
 62
     7
370
    15
100
AcDbLine
 10
2164.277549334626
 20
900.4492291514132
 30
0.0
 11
2164.89364208799
 21
901.7765933933363
 31
0.0
  0
LINE
  5
880
330
851
100
AcDbEntity
  8
0
  6
Continuous
 62
     7
370
    15
100
AcDbLine
 10
2164.89364208799
 20
901.7765933933363
 30
0.0
 11
2164.89364208799
 21
900.0227104506882
 31
0.0
  0
LINE
  5
881
330
851
100
AcDbEntity
  8
0
  6
Continuous
 62
     7
370
    15
100
AcDbLine
 10
2168.797378027478
 20
902.3804427036521
 30
0.0
 11
2168.797378027478
 21
899.441551730602
 31
0.0
  0
ARC
  5
882
330
851
100
AcDbEntity
  8
0
  6
Continuous
 62
     7
370
    15
100
AcDbCircle
 10
2159.023503594701
 20
891.7221903731263
 30
0.0
 40
5.705801549433461
100
AcDbArc
 50
195.7982434782166
 51
204.1288334970353
  0
LWPOLYLINE
  5
883
330
851
100
AcDbEntity
  8
0
  6
Continuous
 62
     7
370
    15
100
AcDbPolyline
 90
       26
 70
   128
 43
0.0
 10
2159.632082861995
 20
907.8828665636383
 10
2159.604929096297
 20
907.9248794920859
 10
2159.428238312083
 20
908.1539723857613
 10
2159.211043747905
 20
908.3711427789705
 10
2158.955721432349
 20
908.5740153717255
 10
2158.665051740326
 20
908.760375295632
 10
2158.342231905424
 20
908.9281753371121
 10
2157.990808189818
 20
909.0755697725041
 10
2157.614617273811
 20
909.2009535255359
 10
2157.217794816913
 20
909.3029427786726
 10
2156.804667456542
 20
909.3804342795836
 10
2156.379753466568
 20
909.4325813904529
 10
2155.947753537687
 20
909.4587887656052
 10
2155.513355848253
 20
909.4587944681501
 10
2155.081363163362
 20
909.4325730267206
 10
2154.656455758832
 20
909.3804418829765
 10
2154.243332349728
 20
909.3029481010477
 10
2153.846507917197
 20
909.2009463023124
 10
2153.470305147389
 20
909.0755693923346
 10
2153.118880114693
 20
908.9281703949067
 10
2152.796063572514
 20
908.7603768163106
 10
2152.505404417203
 20
908.5740184130827
 10
2152.250074199113
 20
908.3711450599883
 10
2152.032891488737
 20
908.1539678237255
 10
2151.856200045977
 20
907.92488595497
 10
2151.829050890091
 20
907.8828627619419
  0
LINE
  5
884
330
851
100
AcDbEntity
  8
0
  6
Continuous
 62
     7
370
    15
100
AcDbLine
 10
2156.776569996564
 20
909.3199074692376
 30
0.0
 11
2159.527178697507
 21
907.7320148654282
 31
0.0
  0
LINE
  5
885
330
851
100
AcDbEntity
  8
0
  6
Continuous
 62
     7
370
    15
100
AcDbLine
 10
2152.872812983652
 20
908.7160703243506
 30
0.0
 11
2156.776569996564
 21
909.3199074692376
 31
0.0
  0
LINE
  5
886
330
851
100
AcDbEntity
  8
0
  6
Continuous
 62
     7
370
    15
100
AcDbLine
 10
2152.256720230288
 20
907.3887060824276
 30
0.0
 11
2152.872812983652
 21
908.7160703243506
 31
0.0
  0
LINE
  5
887
330
851
100
AcDbEntity
  8
0
  6
Continuous
 62
     7
370
    15
100
AcDbLine
 10
2152.872812983652
 20
908.7160703243506
 30
0.0
 11
2152.872812983652
 21
906.9621873817025
 31
0.0
  0
LINE
  5
888
330
851
100
AcDbEntity
  8
0
  6
Continuous
 62
     7
370
    15
100
AcDbLine
 10
2156.776569996564
 20
906.3810164961875
 30
0.0
 11
2156.776569996564
 21
909.3199074692376
 31
0.0
  0
ARC
  5
889
330
851
100
AcDbEntity
  8
0
  6
Continuous
 62
     7
370
    15
100
AcDbCircle
 10
2147.005856605895
 20
898.6629277051942
 30
0.0
 40
5.709206620457536
100
AcDbArc
 50
195.8017204179639
 51
204.1275206173116
  0
LINE
  5
88A
330
851
100
AcDbEntity
  8
0
  6
Continuous
 62
     8
370
    15
100
AcDbLine
 10
2160.503637542352
 20
881.6669403073719
 30
0.0
 11
2164.382035323351
 21
883.9058916889225
 31
0.0
  0
LINE
  5
88B
330
851
100
AcDbEntity
  8
0
  6
Continuous
 62
     8
370
    15
100
AcDbLine
 10
2148.482829511438
 20
888.6064050729574
 30
0.0
 11
2152.361227292438
 21
890.845356454508
 31
0.0
  0
LINE
  5
88C
330
851
100
AcDbEntity
  8
0
  6
Continuous
 62
     8
370
    15
100
AcDbLine
 10
2136.462000407101
 20
895.5458820039719
 30
0.0
 11
2140.3403981881
 21
897.7848333855224
 31
0.0
  0
ENDBLK
  5
853
330
851
100
AcDbEntity
  8
0
100
AcDbBlockEnd
  0
ENDSEC
  0
SECTION
  2
ENTITIES
  0
INSERT
  5
664
330
1F
100
AcDbEntity
  8
0
100
AcDbBlockReference
  2
1
 10
0.0
 20
0.0
 30
0.0
  0
INSERT
  5
6AE
330
1F
100
AcDbEntity
  8
0
100
AcDbBlockReference
  2
2
 10
0.0
 20
0.0
 30
0.0
  0
INSERT
  5
850
330
1F
100
AcDbEntity
  8
0
100
AcDbBlockReference
  2
3
 10
0.0
 20
0.0
 30
0.0
  0
INSERT
  5
88D
330
1F
100
AcDbEntity
  8
0
100
AcDbBlockReference
  2
4
 10
0.0
 20
0.0
 30
0.0
  0
ENDSEC
  0
SECTION
  2
OBJECTS
  0
DICTIONARY
  5
C
330
0
100
AcDbDictionary
281
     1
  3
ACAD_COLOR
350
6B
  3
ACAD_GROUP
350
D
  3
ACAD_LAYOUT
350
1A
  3
ACAD_MATERIAL
350
6A
  3
ACAD_MLEADERSTYLE
350
12D
  3
ACAD_MLINESTYLE
350
17
  3
ACAD_PLOTSETTINGS
350
19
  3
ACAD_PLOTSTYLENAME
350
E
  3
ACAD_SCALELIST
350
10C
  3
ACAD_TABLESTYLE
350
7E
  3
ACAD_VISUALSTYLE
350
EF
  3
ACDB_RECOMPOSE_DATA
350
15D
  3
AcDbVariableDictionary
350
5E
  3
DWGPROPS
350
89B
  0
DICTIONARY
  5
13C
330
10
100
AcDbDictionary
280
     1
281
     1
  3
ADSK_XREC_LAYER_RECONCILED
360
88E
  0
DICTIONARY
  5
6B
102
{ACAD_REACTORS
330
C
102
}
330
C
100
AcDbDictionary
281
     1
  0
DICTIONARY
  5
D
102
{ACAD_REACTORS
330
C
102
}
330
C
100
AcDbDictionary
281
     1
  0
DICTIONARY
  5
1A
102
{ACAD_REACTORS
330
C
102
}
330
C
100
AcDbDictionary
281
     1
  3
Layout1
350
D3
  3
Layout2
350
D7
  3
Model
350
22
  0
DICTIONARY
  5
6A
102
{ACAD_REACTORS
330
C
102
}
330
C
100
AcDbDictionary
281
     1
  3
ByBlock
350
ED
  3
ByLayer
350
EC
  3
Global
350
EE
  0
DICTIONARY
  5
12D
102
{ACAD_REACTORS
330
C
102
}
330
C
100
AcDbDictionary
281
     1
  3
Annotative
350
13B
  3
Standard
350
12E
  0
DICTIONARY
  5
17
102
{ACAD_REACTORS
330
C
102
}
330
C
100
AcDbDictionary
281
     1
  3
Standard
350
18
  0
DICTIONARY
  5
19
102
{ACAD_REACTORS
330
C
102
}
330
C
100
AcDbDictionary
281
     1
  0
ACDBDICTIONARYWDFLT
  5
E
102
{ACAD_REACTORS
330
C
102
}
330
C
100
AcDbDictionary
281
     1
  3
Normal
350
F
100
AcDbDictionaryWithDefault
340
F
  0
DICTIONARY
  5
10C
102
{ACAD_REACTORS
330
C
102
}
330
C
100
AcDbDictionary
281
     1
  3
A0
350
10D
  3
A1
350
188
  3
A2
350
189
  3
A3
350
18A
  3
A4
350
18B
  3
A5
350
18C
  3
A6
350
18D
  3
A7
350
18E
  3
A8
350
18F
  3
A9
350
190
  3
B0
350
191
  3
B1
350
192
  3
B2
350
193
  3
B3
350
194
  3
B4
350
195
  3
B5
350
196
  3
B6
350
197
  3
B7
350
198
  3
B8
350
199
  3
B9
350
19A
  3
C0
350
19B
  3
C1
350
19C
  3
C2
350
19D
  3
C3
350
19E
  3
C4
350
19F
  3
C5
350
1A0
  3
C6
350
1A1
  3
C7
350
1A2
  3
C8
350
1A3
  3
C9
350
1A4
  3
D0
350
1A5
  3
D1
350
1A6
  3
D2
350
1A7
  0
DICTIONARY
  5
7E
102
{ACAD_REACTORS
330
C
102
}
330
C
100
AcDbDictionary
281
     1
  3
Standard
350
7F
  0
DICTIONARY
  5
EF
102
{ACAD_REACTORS
330
C
102
}
330
C
100
AcDbDictionary
281
     1
  3
2dWireframe
350
F5
  3
3D Hidden
350
F7
  3
3dWireframe
350
F6
  3
Basic
350
F4
  3
Brighten
350
FB
  3
ColorChange
350
FF
  3
Conceptual
350
F8
  3
Dim
350
FA
  3
Facepattern
350
FE
  3
Flat
350
F0
  3
FlatWithEdges
350
F1
  3
Gouraud
350
F2
  3
GouraudWithEdges
350
F3
  3
Linepattern
350
FD
  3
Realistic
350
F9
  3
Thicken
350
FC
  0
XRECORD
  5
15D
102
{ACAD_REACTORS
330
C
102
}
330
C
100
AcDbXrecord
280
     1
 90
        1
330
7F
  0
DICTIONARY
  5
5E
102
{ACAD_REACTORS
330
C
102
}
330
C
100
AcDbDictionary
281
     1
  3
CANNOSCALE
350
146
  3
CMLEADERSTYLE
350
145
  3
CTABLESTYLE
350
84
  3
DIMASSOC
350
5F
  3
HIDETEXT
350
63
  3
INDEXCTL
350
897
  3
LIGHTINGUNITS
350
895
  3
MSLTSCALE
350
894
  3
PSOLHEIGHT
350
899
  3
PSOLWIDTH
350
898
  3
SORTENTS
350
896
  0
XRECORD
  5
89B
102
{ACAD_REACTORS
330
C
102
}
330
C
100
AcDbXrecord
280
     1
  1
DWGPROPS COOKIE
  2

  3

  4

  6

  7

  8
orhan kara
  9

300
=
301
=
302
=
303
=
304
=
305
=
306
=
307
=
308
=
309
=
 40
0.0002455092592593
 41
2459083.612897558
 42
2459083.678274213
  1

 90
        0
  0
XRECORD
  5
88E
102
{ACAD_REACTORS
330
13C
102
}
330
13C
100
AcDbXrecord
280
     1
290
     1
  0
LAYOUT
  5
D3
102
{ACAD_XDICTIONARY
360
89F
102
}
102
{ACAD_REACTORS
330
1A
102
}
330
1A
100
AcDbPlotSettings
  1

  2
C:\Documents and Settings\basas\Application Data\Autodesk\AutoCAD 2005\R16.1\enu\plotters\Default Windows System Printer.pc3
  4

  6

 40
0.0
 41
0.0
 42
0.0
 43
0.0
 44
0.0
 45
0.0
 46
0.0
 47
0.0
 48
0.0
 49
0.0
140
0.0
141
0.0
142
1.0
143
1.0
 70
   688
 72
     0
 73
     0
 74
     5
  7

 75
    16
147
1.0
148
0.0
149
0.0
100
AcDbLayout
  1
Layout1
 70
     1
 71
     1
 10
0.0
 20
0.0
 11
12.0
 21
9.0
 12
0.0
 22
0.0
 32
0.0
 14
0.0
 24
0.0
 34
0.0
 15
0.0
 25
0.0
 35
0.0
146
0.0
 13
0.0
 23
0.0
 33
0.0
 16
1.0
 26
0.0
 36
0.0
 17
0.0
 27
1.0
 37
0.0
 76
     0
330
D2
  0
LAYOUT
  5
D7
102
{ACAD_XDICTIONARY
360
8A1
102
}
102
{ACAD_REACTORS
330
1A
102
}
330
1A
100
AcDbPlotSettings
  1

  2
C:\Documents and Settings\basas\Application Data\Autodesk\AutoCAD 2005\R16.1\enu\plotters\Default Windows System Printer.pc3
  4

  6

 40
0.0
 41
0.0
 42
0.0
 43
0.0
 44
0.0
 45
0.0
 46
0.0
 47
0.0
 48
0.0
 49
0.0
140
0.0
141
0.0
142
1.0
143
1.0
 70
   688
 72
     0
 73
     0
 74
     5
  7

 75
    16
147
1.0
148
0.0
149
0.0
100
AcDbLayout
  1
Layout2
 70
     1
 71
     2
 10
0.0
 20
0.0
 11
12.0
 21
9.0
 12
0.0
 22
0.0
 32
0.0
 14
0.0
 24
0.0
 34
0.0
 15
0.0
 25
0.0
 35
0.0
146
0.0
 13
0.0
 23
0.0
 33
0.0
 16
1.0
 26
0.0
 36
0.0
 17
0.0
 27
1.0
 37
0.0
 76
     0
330
D6
  0
LAYOUT
  5
22
102
{ACAD_XDICTIONARY
360
89C
102
}
102
{ACAD_REACTORS
330
1A
102
}
330
1A
100
AcDbPlotSettings
  1

  2
none_device
  4
ISO_A4_(210.00_x_297.00_MM)
  6

 40
7.5
 41
20.0
 42
7.5
 43
20.0
 44
210.0
 45
297.0
 46
11.54999923706054
 47
-13.65000009536743
 48
0.0
 49
0.0
140
0.0
141
0.0
142
1.0
143
8.704084754739808
 70
 11952
 72
     1
 73
     0
 74
     0
  7

 75
     0
147
0.1148885871608098
148
0.0
149
0.0
100
AcDbLayout
  1
Model
 70
     1
 71
     0
 10
0.0
 20
0.0
 11
12.0
 21
9.0
 12
0.0
 22
0.0
 32
0.0
 14
0.0
 24
0.0
 34
0.0
 15
0.0
 25
0.0
 35
0.0
146
0.0
 13
0.0
 23
0.0
 33
0.0
 16
1.0
 26
0.0
 36
0.0
 17
0.0
 27
1.0
 37
0.0
 76
     0
330
1F
331
EA
1001
ACAD_PSEXT
1000
None
1000
None
1000
Not applicable
1000
The layout will not be plotted unless a new plotter configuration name is selected.
1070
     0
  0
MATERIAL
  5
ED
102
{ACAD_XDICTIONARY
360
8A5
102
}
102
{ACAD_REACTORS
330
6A
102
}
330
6A
100
AcDbMaterial
  1
ByBlock
  0
MATERIAL
  5
EC
102
{ACAD_XDICTIONARY
360
8A3
102
}
102
{ACAD_REACTORS
330
6A
102
}
330
6A
100
AcDbMaterial
  1
ByLayer
  0
MATERIAL
  5
EE
102
{ACAD_XDICTIONARY
360
173
102
}
102
{ACAD_REACTORS
330
6A
102
}
330
6A
100
AcDbMaterial
  1
Global
 43
0.0007999999797903
 43
0.0
 43
0.0
 43
0.0
 43
0.0
 43
0.0007999999797903
 43
0.0
 43
0.0
 43
0.0
 43
0.0
 43
1.0
 43
0.0
 43
0.0
 43
0.0
 43
0.0
 43
1.0
 49
0.0007999999797903
 49
0.0
 49
0.0
 49
0.0
 49
0.0
 49
0.0007999999797903
 49
0.0
 49
0.0
 49
0.0
 49
0.0
 49
1.0
 49
0.0
 49
0.0
 49
0.0
 49
0.0
 49
1.0
142
0.0007999999797903
142
0.0
142
0.0
142
0.0
142
0.0
142
0.0007999999797903
142
0.0
142
0.0
142
0.0
142
0.0
142
1.0
142
0.0
142
0.0
142
0.0
142
0.0
142
1.0
144
0.0007999999797903
144
0.0
144
0.0
144
0.0
144
0.0
144
0.0007999999797903
144
0.0
144
0.0
144
0.0
144
0.0
144
1.0
144
0.0
144
0.0
144
0.0
144
0.0
144
1.0
1001
ACAD
1070
    -1
1070
     3
1070
     0
1000

1071
        0
1070
     0
  0
MLEADERSTYLE
  5
13B
102
{ACAD_REACTORS
330
12D
102
}
330
12D
100
AcDbMLeaderStyle
170
     2
171
     1
172
     0
 90
        2
 40
0.0
 41
0.0
173
     1
 91
-1056964608
340
14
 92
       -2
290
     1
 42
2.0
291
     1
 43
8.0
  3
Standard
 44
4.0
300

342
11
174
     1
178
     1
175
     1
176
     0
 93
-1056964608
 45
4.0
292
     0
297
     0
 46
4.0
 94
-1056964608
 47
1.0
 49
1.0
140
1.0
293
     1
141
0.0
294
     1
177
     0
142
1.0
295
     0
296
     1
143
3.75
1001
ACAD_MLEADERVER
1070
     2
  0
MLEADERSTYLE
  5
12E
102
{ACAD_REACTORS
330
12D
102
}
330
12D
100
AcDbMLeaderStyle
170
     2
171
     1
172
     0
 90
        2
 40
0.0
 41
0.0
173
     1
 91
-1056964608
340
14
 92
       -2
290
     1
 42
2.0
291
     1
 43
8.0
  3
Standard
 44
4.0
300

342
11
174
     1
178
     1
175
     1
176
     0
 93
-1056964608
 45
4.0
292
     0
297
     0
 46
4.0
 94
-1056964608
 47
1.0
 49
1.0
140
1.0
293
     1
141
0.0
294
     1
177
     0
142
1.0
295
     0
296
     0
143
3.75
1001
ACAD_MLEADERVER
1070
     2
  0
MLINESTYLE
  5
18
102
{ACAD_REACTORS
330
17
102
}
330
17
100
AcDbMlineStyle
  2
STANDARD
 70
     0
  3

 62
   256
 51
90.0
 52
90.0
 71
     2
 49
0.5
 62
   256
  6
BYLAYER
 49
-0.5
 62
   256
  6
BYLAYER
  0
ACDBPLACEHOLDER
  5
F
102
{ACAD_REACTORS
330
E
102
}
330
E
  0
SCALE
  5
10D
102
{ACAD_REACTORS
330
10C
102
}
330
10C
100
AcDbScale
 70
     0
300
1:1
140
1.0
141
1.0
290
     1
  0
SCALE
  5
188
102
{ACAD_REACTORS
330
10C
102
}
330
10C
100
AcDbScale
 70
     0
300
1:2
140
1.0
141
2.0
290
     0
  0
SCALE
  5
189
102
{ACAD_REACTORS
330
10C
102
}
330
10C
100
AcDbScale
 70
     0
300
1:4
140
1.0
141
4.0
290
     0
  0
SCALE
  5
18A
102
{ACAD_REACTORS
330
10C
102
}
330
10C
100
AcDbScale
 70
     0
300
1:5
140
1.0
141
5.0
290
     0
  0
SCALE
  5
18B
102
{ACAD_REACTORS
330
10C
102
}
330
10C
100
AcDbScale
 70
     0
300
1:8
140
1.0
141
8.0
290
     0
  0
SCALE
  5
18C
102
{ACAD_REACTORS
330
10C
102
}
330
10C
100
AcDbScale
 70
     0
300
1:10
140
1.0
141
10.0
290
     0
  0
SCALE
  5
18D
102
{ACAD_REACTORS
330
10C
102
}
330
10C
100
AcDbScale
 70
     0
300
1:16
140
1.0
141
16.0
290
     0
  0
SCALE
  5
18E
102
{ACAD_REACTORS
330
10C
102
}
330
10C
100
AcDbScale
 70
     0
300
1:20
140
1.0
141
20.0
290
     0
  0
SCALE
  5
18F
102
{ACAD_REACTORS
330
10C
102
}
330
10C
100
AcDbScale
 70
     0
300
1:30
140
1.0
141
30.0
290
     0
  0
SCALE
  5
190
102
{ACAD_REACTORS
330
10C
102
}
330
10C
100
AcDbScale
 70
     0
300
1:40
140
1.0
141
40.0
290
     0
  0
SCALE
  5
191
102
{ACAD_REACTORS
330
10C
102
}
330
10C
100
AcDbScale
 70
     0
300
1:50
140
1.0
141
50.0
290
     0
  0
SCALE
  5
192
102
{ACAD_REACTORS
330
10C
102
}
330
10C
100
AcDbScale
 70
     0
300
1:100
140
1.0
141
100.0
290
     0
  0
SCALE
  5
193
102
{ACAD_REACTORS
330
10C
102
}
330
10C
100
AcDbScale
 70
     0
300
2:1
140
2.0
141
1.0
290
     0
  0
SCALE
  5
194
102
{ACAD_REACTORS
330
10C
102
}
330
10C
100
AcDbScale
 70
     0
300
4:1
140
4.0
141
1.0
290
     0
  0
SCALE
  5
195
102
{ACAD_REACTORS
330
10C
102
}
330
10C
100
AcDbScale
 70
     0
300
8:1
140
8.0
141
1.0
290
     0
  0
SCALE
  5
196
102
{ACAD_REACTORS
330
10C
102
}
330
10C
100
AcDbScale
 70
     0
300
10:1
140
10.0
141
1.0
290
     0
  0
SCALE
  5
197
102
{ACAD_REACTORS
330
10C
102
}
330
10C
100
AcDbScale
 70
     0
300
100:1
140
100.0
141
1.0
290
     0
  0
SCALE
  5
198
102
{ACAD_REACTORS
330
10C
102
}
330
10C
100
AcDbScale
 70
     0
300
1/128" = 1'-0"
140
0.0078125
141
12.0
290
     0
  0
SCALE
  5
199
102
{ACAD_REACTORS
330
10C
102
}
330
10C
100
AcDbScale
 70
     0
300
1/64" = 1'-0"
140
0.015625
141
12.0
290
     0
  0
SCALE
  5
19A
102
{ACAD_REACTORS
330
10C
102
}
330
10C
100
AcDbScale
 70
     0
300
1/32" = 1'-0"
140
0.03125
141
12.0
290
     0
  0
SCALE
  5
19B
102
{ACAD_REACTORS
330
10C
102
}
330
10C
100
AcDbScale
 70
     0
300
1/16" = 1'-0"
140
0.0625
141
12.0
290
     0
  0
SCALE
  5
19C
102
{ACAD_REACTORS
330
10C
102
}
330
10C
100
AcDbScale
 70
     0
300
3/32" = 1'-0"
140
0.09375
141
12.0
290
     0
  0
SCALE
  5
19D
102
{ACAD_REACTORS
330
10C
102
}
330
10C
100
AcDbScale
 70
     0
300
1/8" = 1'-0"
140
0.125
141
12.0
290
     0
  0
SCALE
  5
19E
102
{ACAD_REACTORS
330
10C
102
}
330
10C
100
AcDbScale
 70
     0
300
3/16" = 1'-0"
140
0.1875
141
12.0
290
     0
  0
SCALE
  5
19F
102
{ACAD_REACTORS
330
10C
102
}
330
10C
100
AcDbScale
 70
     0
300
1/4" = 1'-0"
140
0.25
141
12.0
290
     0
  0
SCALE
  5
1A0
102
{ACAD_REACTORS
330
10C
102
}
330
10C
100
AcDbScale
 70
     0
300
3/8" = 1'-0"
140
0.375
141
12.0
290
     0
  0
SCALE
  5
1A1
102
{ACAD_REACTORS
330
10C
102
}
330
10C
100
AcDbScale
 70
     0
300
1/2" = 1'-0"
140
0.5
141
12.0
290
     0
  0
SCALE
  5
1A2
102
{ACAD_REACTORS
330
10C
102
}
330
10C
100
AcDbScale
 70
     0
300
3/4" = 1'-0"
140
0.75
141
12.0
290
     0
  0
SCALE
  5
1A3
102
{ACAD_REACTORS
330
10C
102
}
330
10C
100
AcDbScale
 70
     0
300
1" = 1'-0"
140
1.0
141
12.0
290
     0
  0
SCALE
  5
1A4
102
{ACAD_REACTORS
330
10C
102
}
330
10C
100
AcDbScale
 70
     0
300
1-1/2" = 1'-0"
140
1.5
141
12.0
290
     0
  0
SCALE
  5
1A5
102
{ACAD_REACTORS
330
10C
102
}
330
10C
100
AcDbScale
 70
     0
300
3" = 1'-0"
140
3.0
141
12.0
290
     0
  0
SCALE
  5
1A6
102
{ACAD_REACTORS
330
10C
102
}
330
10C
100
AcDbScale
 70
     0
300
6" = 1'-0"
140
6.0
141
12.0
290
     0
  0
SCALE
  5
1A7
102
{ACAD_REACTORS
330
10C
102
}
330
10C
100
AcDbScale
 70
     0
300
1'-0" = 1'-0"
140
12.0
141
12.0
290
     0
  0
TABLESTYLE
  5
7F
102
{ACAD_XDICTIONARY
360
162
102
}
102
{ACAD_REACTORS
330
7E
102
}
330
7E
100
AcDbTableStyle
  3
Standard
 70
     0
 71
     0
 40
1.5
 41
1.5
280
     0
281
     0
  7
Standard
140
4.5
170
     2
 62
     0
 63
     7
283
     0
274
    -2
284
     1
 64
     0
275
    -2
285
     1
 65
     0
276
    -2
286
     1
 66
     0
277
    -2
287
     1
 67
     0
278
    -2
288
     1
 68
     0
279
    -2
289
     1
 69
     0
  7
Standard
140
6.0
170
     5
 62
     0
 63
     7
283
     0
274
    -2
284
     1
 64
     0
275
    -2
285
     1
 65
     0
276
    -2
286
     1
 66
     0
277
    -2
287
     1
 67
     0
278
    -2
288
     1
 68
     0
279
    -2
289
     1
 69
     0
  7
Standard
140
4.5
170
     5
 62
     0
 63
     7
283
     0
274
    -2
284
     1
 64
     0
275
    -2
285
     1
 65
     0
276
    -2
286
     1
 66
     0
277
    -2
287
     1
 67
     0
278
    -2
288
     1
 68
     0
279
    -2
289
     1
 69
     0
  0
VISUALSTYLE
  5
F5
102
{ACAD_REACTORS
330
EF
102
}
330
EF
100
AcDbVisualStyle
  2
2dWireframe
 70
     4
 71
     0
 72
     2
 73
     1
 90
        0
 40
-0.6
 41
-30.0
 62
     5
 63
     7
 74
     1
 91
        4
 64
     7
 65
   257
 75
     1
175
     1
 42
1.0
 92
        0
 66
   257
 43
1.0
 76
     1
 77
     6
 78
     2
 67
     7
 79
     5
170
     0
171
     0
290
     0
174
     0
 93
        1
 44
0.0
173
     0
291
     0
 45
0.0
1001
ACAD
1000
AcDbSavedByObjectVersion
1070
     0
  0
VISUALSTYLE
  5
F7
102
{ACAD_REACTORS
330
EF
102
}
330
EF
100
AcDbVisualStyle
  2
3D Hidden
 70
     6
 71
     1
 72
     2
 73
     2
 90
        0
 40
-0.6
 41
-30.0
 62
     5
 63
     7
 74
     2
 91
        2
 64
     7
 65
   257
 75
     2
175
     1
 42
40.0
 92
        0
 66
   257
 43
1.0
 76
     1
 77
     6
 78
     2
 67
     7
 79
     3
170
     0
171
     0
290
     0
174
     0
 93
        1
 44
0.0
173
     0
291
     0
 45
0.0
1001
ACAD
1000
AcDbSavedByObjectVersion
1070
     0
  0
VISUALSTYLE
  5
F6
102
{ACAD_REACTORS
330
EF
102
}
330
EF
100
AcDbVisualStyle
  2
3dWireframe
 70
     5
 71
     0
 72
     2
 73
     1
 90
        0
 40
-0.6
 41
-30.0
 62
     5
 63
     7
 74
     1
 91
        4
 64
     7
 65
   257
 75
     1
175
     1
 42
1.0
 92
        0
 66
   257
 43
1.0
 76
     1
 77
     6
 78
     2
 67
     7
 79
     5
170
     0
171
     0
290
     0
174
     0
 93
        1
 44
0.0
173
     0
291
     0
 45
0.0
1001
ACAD
1000
AcDbSavedByObjectVersion
1070
     0
  0
VISUALSTYLE
  5
F4
102
{ACAD_REACTORS
330
EF
102
}
330
EF
100
AcDbVisualStyle
  2
Basic
 70
     7
 71
     1
 72
     0
 73
     1
 90
        0
 40
-0.6
 41
-30.0
 62
     5
 63
     7
 74
     0
 91
        4
 64
     7
 65
   257
 75
     1
175
     1
 42
1.0
 92
        8
 66
     7
 43
1.0
 76
     1
 77
     6
 78
     2
 67
     7
 79
     5
170
     0
171
     0
290
     0
174
     0
 93
        1
 44
0.0
173
     0
291
     1
 45
0.0
1001
ACAD
1000
AcDbSavedByObjectVersion
1070
     0
  0
VISUALSTYLE
  5
FB
102
{ACAD_REACTORS
330
EF
102
}
330
EF
100
AcDbVisualStyle
  2
Brighten
 70
    12
 71
     2
 72
     2
 73
     1
 90
        0
 40
-0.6
 41
-30.0
 62
     5
 63
     7
 74
     1
 91
        4
 64
     7
 65
   257
 75
     1
175
     1
 42
1.0
 92
        8
 66
     7
 43
1.0
 76
     1
 77
     6
 78
     2
 67
     7
 79
     5
170
     0
171
     0
290
     0
174
     0
 93
        1
 44
50.0
173
     0
291
     1
 45
0.0
1001
ACAD
1000
AcDbSavedByObjectVersion
1070
     0
  0
VISUALSTYLE
  5
FF
102
{ACAD_REACTORS
330
EF
102
}
330
EF
100
AcDbVisualStyle
  2
ColorChange
 70
    16
 71
     2
 72
     2
 73
     3
 90
        0
 40
-0.6
 41
-30.0
 62
     5
 63
     8
 74
     1
 91
        4
 64
     7
 65
   257
 75
     1
175
     1
 42
1.0
 92
        8
 66
     8
 43
1.0
 76
     1
 77
     6
 78
     2
 67
     7
 79
     5
170
     0
171
     0
290
     0
174
     0
 93
        1
 44
0.0
173
     0
291
     1
 45
0.0
1001
ACAD
1000
AcDbSavedByObjectVersion
1070
     0
  0
VISUALSTYLE
  5
F8
102
{ACAD_REACTORS
330
EF
102
}
330
EF
100
AcDbVisualStyle
  2
Conceptual
 70
     9
 71
     3
 72
     2
 73
     1
 90
        0
 40
-0.6
 41
-30.0
 62
     5
 63
     7
 74
     2
 91
        2
 64
     7
 65
   257
 75
     1
175
     1
 42
40.0
 92
        8
 66
     7
 43
1.0
 76
     1
 77
     6
 78
     2
 67
     7
 79
     3
170
     0
171
     0
290
     0
174
     0
 93
        1
 44
0.0
173
     0
291
     0
 45
0.0
1001
ACAD
1000
AcDbSavedByObjectVersion
1070
     0
  0
VISUALSTYLE
  5
FA
102
{ACAD_REACTORS
330
EF
102
}
330
EF
100
AcDbVisualStyle
  2
Dim
 70
    11
 71
     2
 72
     2
 73
     1
 90
        0
 40
-0.6
 41
-30.0
 62
     5
 63
     7
 74
     1
 91
        4
 64
     7
 65
   257
 75
     1
175
     1
 42
1.0
 92
        8
 66
     7
 43
1.0
 76
     1
 77
     6
 78
     2
 67
     7
 79
     5
170
     0
171
     0
290
     0
174
     0
 93
        1
 44
-50.0
173
     0
291
     1
 45
0.0
1001
ACAD
1000
AcDbSavedByObjectVersion
1070
     0
  0
VISUALSTYLE
  5
FE
102
{ACAD_REACTORS
330
EF
102
}
330
EF
100
AcDbVisualStyle
  2
Facepattern
 70
    15
 71
     2
 72
     2
 73
     1
 90
        0
 40
-0.6
 41
-30.0
 62
     5
 63
     7
 74
     1
 91
        4
 64
     7
 65
   257
 75
     1
175
     1
 42
1.0
 92
        8
 66
     7
 43
1.0
 76
     1
 77
     6
 78
     2
 67
     7
 79
     5
170
     0
171
     0
290
     0
174
     0
 93
        1
 44
0.0
173
     0
291
     1
 45
0.0
1001
ACAD
1000
AcDbSavedByObjectVersion
1070
     0
  0
VISUALSTYLE
  5
F0
102
{ACAD_REACTORS
330
EF
102
}
330
EF
100
AcDbVisualStyle
  2
Flat
 70
     0
 71
     2
 72
     1
 73
     1
 90
        2
 40
-0.6
 41
30.0
 62
     5
 63
     7
 74
     0
 91
        4
 64
     7
 65
   257
 75
     1
175
     1
 42
1.0
 92
        8
 66
     7
 43
1.0
 76
     1
 77
     6
 78
     2
 67
     7
 79
     5
170
     0
171
     0
290
     0
174
     0
 93
        1
 44
0.0
173
     0
291
     1
 45
0.0
1001
ACAD
1000
AcDbSavedByObjectVersion
1070
     0
  0
VISUALSTYLE
  5
F1
102
{ACAD_REACTORS
330
EF
102
}
330
EF
100
AcDbVisualStyle
  2
FlatWithEdges
 70
     1
 71
     2
 72
     1
 73
     1
 90
        2
 40
-0.6
 41
30.0
 62
     5
 63
     7
 74
     1
 91
        4
 64
     7
 65
   257
 75
     1
175
     1
 42
1.0
 92
        0
 66
   257
 43
1.0
 76
     1
 77
     6
 78
     2
 67
     7
 79
     5
170
     0
171
     0
290
     0
174
     0
 93
        1
 44
0.0
173
     0
291
     1
 45
0.0
1001
ACAD
1000
AcDbSavedByObjectVersion
1070
     0
  0
VISUALSTYLE
  5
F2
102
{ACAD_REACTORS
330
EF
102
}
330
EF
100
AcDbVisualStyle
  2
Gouraud
 70
     2
 71
     2
 72
     2
 73
     1
 90
        2
 40
-0.6
 41
30.0
 62
     5
 63
     7
 74
     0
 91
        4
 64
     7
 65
   257
 75
     1
175
     1
 42
1.0
 92
        0
 66
     7
 43
1.0
 76
     1
 77
     6
 78
     2
 67
     7
 79
     5
170
     0
171
     0
290
     0
174
     0
 93
        1
 44
0.0
173
     0
291
     1
 45
0.0
1001
ACAD
1000
AcDbSavedByObjectVersion
1070
     0
  0
VISUALSTYLE
  5
F3
102
{ACAD_REACTORS
330
EF
102
}
330
EF
100
AcDbVisualStyle
  2
GouraudWithEdges
 70
     3
 71
     2
 72
     2
 73
     1
 90
        2
 40
-0.6
 41
30.0
 62
     5
 63
     7
 74
     1
 91
        4
 64
     7
 65
   257
 75
     1
175
     1
 42
1.0
 92
        0
 66
   257
 43
1.0
 76
     1
 77
     6
 78
     2
 67
     7
 79
     5
170
     0
171
     0
290
     0
174
     0
 93
        1
 44
0.0
173
     0
291
     1
 45
0.0
1001
ACAD
1000
AcDbSavedByObjectVersion
1070
     0
  0
VISUALSTYLE
  5
FD
102
{ACAD_REACTORS
330
EF
102
}
330
EF
100
AcDbVisualStyle
  2
Linepattern
 70
    14
 71
     2
 72
     2
 73
     1
 90
        0
 40
-0.6
 41
-30.0
 62
     5
 63
     7
 74
     1
 91
        4
 64
     7
 65
   257
 75
     7
175
     7
 42
1.0
 92
        8
 66
     7
 43
1.0
 76
     1
 77
     6
 78
     2
 67
     7
 79
     5
170
     0
171
     0
290
     0
174
     0
 93
        1
 44
0.0
173
     0
291
     1
 45
0.0
1001
ACAD
1000
AcDbSavedByObjectVersion
1070
     0
  0
VISUALSTYLE
  5
F9
102
{ACAD_REACTORS
330
EF
102
}
330
EF
100
AcDbVisualStyle
  2
Realistic
 70
     8
 71
     2
 72
     2
 73
     1
 90
        0
 40
-0.6
 41
-30.0
 62
     5
 63
     7
 74
     1
 91
        0
 64
     7
 65
   257
 75
     1
175
     1
 42
1.0
 92
        8
 66
     8
 43
1.0
 76
     1
 77
     6
 78
     2
 67
     7
 79
     5
170
     0
171
     0
290
     0
174
     0
 93
       13
 44
0.0
173
     0
291
     0
 45
0.0
1001
ACAD
1000
AcDbSavedByObjectVersion
1070
     0
  0
VISUALSTYLE
  5
FC
102
{ACAD_REACTORS
330
EF
102
}
330
EF
100
AcDbVisualStyle
  2
Thicken
 70
    13
 71
     2
 72
     2
 73
     1
 90
        0
 40
-0.6
 41
-30.0
 62
     5
 63
     7
 74
     1
 91
        4
 64
     7
 65
   257
 75
     1
175
     1
 42
1.0
 92
       12
 66
     7
 43
1.0
 76
     1
 77
     6
 78
     2
 67
     7
 79
     5
170
     0
171
     0
290
     0
174
     0
 93
        1
 44
0.0
173
     0
291
     1
 45
0.0
1001
ACAD
1000
AcDbSavedByObjectVersion
1070
     0
  0
DICTIONARYVAR
  5
146
102
{ACAD_REACTORS
330
5E
102
}
330
5E
100
DictionaryVariables
280
     0
  1
1:1
  0
DICTIONARYVAR
  5
145
102
{ACAD_REACTORS
330
5E
102
}
330
5E
100
DictionaryVariables
280
     0
  1
STANDARD
  0
DICTIONARYVAR
  5
84
102
{ACAD_REACTORS
330
5E
102
}
330
5E
100
DictionaryVariables
280
     0
  1
STANDARD
  0
DICTIONARYVAR
  5
5F
102
{ACAD_REACTORS
330
5E
102
}
330
5E
100
DictionaryVariables
280
     0
  1
2
  0
DICTIONARYVAR
  5
63
102
{ACAD_REACTORS
330
5E
102
}
330
5E
100
DictionaryVariables
280
     0
  1
1
  0
DICTIONARYVAR
  5
897
102
{ACAD_REACTORS
330
5E
102
}
330
5E
100
DictionaryVariables
280
     0
  1
0
  0
DICTIONARYVAR
  5
895
102
{ACAD_REACTORS
330
5E
102
}
330
5E
100
DictionaryVariables
280
     0
  1
2
  0
DICTIONARYVAR
  5
894
102
{ACAD_REACTORS
330
5E
102
}
330
5E
100
DictionaryVariables
280
     0
  1
1
  0
DICTIONARYVAR
  5
899
102
{ACAD_REACTORS
330
5E
102
}
330
5E
100
DictionaryVariables
280
     0
  1
80.000000
  0
DICTIONARYVAR
  5
898
102
{ACAD_REACTORS
330
5E
102
}
330
5E
100
DictionaryVariables
280
     0
  1
5.000000
  0
DICTIONARYVAR
  5
896
102
{ACAD_REACTORS
330
5E
102
}
330
5E
100
DictionaryVariables
280
     0
  1
127
  0
DICTIONARY
  5
89F
330
D3
100
AcDbDictionary
280
     1
281
     1
  3
ACAD_XREC_ROUNDTRIP
360
8A0
  0
DICTIONARY
  5
8A1
330
D7
100
AcDbDictionary
280
     1
281
     1
  3
ACAD_XREC_ROUNDTRIP
360
8A2
  0
DICTIONARY
  5
89C
330
22
100
AcDbDictionary
280
     1
281
     1
  3
ACAD_XREC_ROUNDTRIP
360
89D
  0
DICTIONARY
  5
8A5
330
ED
100
AcDbDictionary
280
     1
281
     1
  3
ACAD_XREC_ROUNDTRIP
360
8A6
  0
DICTIONARY
  5
8A3
330
EC
100
AcDbDictionary
280
     1
281
     1
  3
ACAD_XREC_ROUNDTRIP
360
8A4
  0
DICTIONARY
  5
173
330
EE
100
AcDbDictionary
280
     1
281
     1
  3
ACAD_XREC_ROUNDTRIP
360
8A7
  3
BUMPTILE
360
175
  3
DIFFUSETILE
360
174
  3
OPACITYTILE
360
176
  3
REFLECTIONTILE
360
177
  0
DICTIONARY
  5
162
330
7F
100
AcDbDictionary
280
     1
281
     1
  3
ACAD_ROUNDTRIP_2008_TABLESTYLE_CELLSTYLEMAP
360
89A
  3
ACAD_XREC_ROUNDTRIP
360
89E
  0
XRECORD
  5
8A0
102
{ACAD_REACTORS
330
89F
102
}
330
89F
100
AcDbXrecord
280
     1
102
SHADEPLOT
 70
     0
102
SHADEPLOTRESLEVEL
 70
     2
102
SHADEPLOTCUSTOMDPI
 70
   300
  0
XRECORD
  5
8A2
102
{ACAD_REACTORS
330
8A1
102
}
330
8A1
100
AcDbXrecord
280
     1
102
SHADEPLOT
 70
     0
102
SHADEPLOTRESLEVEL
 70
     2
102
SHADEPLOTCUSTOMDPI
 70
   300
  0
XRECORD
  5
89D
102
{ACAD_REACTORS
330
89C
102
}
330
89C
100
AcDbXrecord
280
     1
102
SHADEPLOT
 70
     0
102
SHADEPLOTRESLEVEL
 70
     2
102
SHADEPLOTCUSTOMDPI
 70
   300
  0
XRECORD
  5
8A6
102
{ACAD_REACTORS
330
8A5
102
}
330
8A5
100
AcDbXrecord
280
     1
102
MATERIAL
148
0.0
149
0.0
149
0.0
 93
        0
 94
       63
282
     0
 72
     1
 77
     1
171
     1
175
     1
179
     1
273
     0
  0
XRECORD
  5
8A4
102
{ACAD_REACTORS
330
8A3
102
}
330
8A3
100
AcDbXrecord
280
     1
102
MATERIAL
148
0.0
149
0.0
149
0.0
 93
        0
 94
       63
282
     0
 72
     1
 77
     1
171
     1
175
     1
179
     1
273
     0
  0
XRECORD
  5
8A7
102
{ACAD_REACTORS
330
173
102
}
330
173
100
AcDbXrecord
280
     1
102
MATERIAL
148
0.0
149
0.0
149
0.0
 93
        0
 94
       63
282
     0
 72
     1
 77
     1
171
     1
175
     1
179
     1
273
     0
  0
XRECORD
  5
175
102
{ACAD_REACTORS
330
173
102
}
330
173
100
AcDbXrecord
280
     1
270
     1
271
     1
  0
XRECORD
  5
174
102
{ACAD_REACTORS
330
173
102
}
330
173
100
AcDbXrecord
280
     1
270
     1
271
     1
  0
XRECORD
  5
176
102
{ACAD_REACTORS
330
173
102
}
330
173
100
AcDbXrecord
280
     1
270
     1
271
     1
  0
XRECORD
  5
177
102
{ACAD_REACTORS
330
173
102
}
330
173
100
AcDbXrecord
280
     1
270
     1
271
     1
  0
CELLSTYLEMAP
  5
89A
102
{ACAD_REACTORS
330
162
102
}
330
162
100
AcDbCellStyleMap
 90
        3
300
CELLSTYLE
  1
TABLEFORMAT_BEGIN
 90
        5
170
     1
 91
        0
 92
    32768
 62
   257
 93
        1
300
CONTENTFORMAT
  1
CONTENTFORMAT_BEGIN
 90
        0
 91
        0
 92
      512
 93
        0
300

 40
0.0
140
1.0
 94
        5
 62
     0
340
11
144
6.0
309
CONTENTFORMAT_END
171
     1
301
MARGIN
  1
CELLMARGIN_BEGIN
 40
1.5
 40
1.5
 40
1.5
 40
1.5
 40
4.5
 40
4.5
309
CELLMARGIN_END
 94
        6
 95
        1
302
GRIDFORMAT
  1
GRIDFORMAT_BEGIN
 90
        0
 91
        1
 62
     0
 92
       -2
340
14
 93
        0
 40
1.125
309
GRIDFORMAT_END
 95
        2
302
GRIDFORMAT
  1
GRIDFORMAT_BEGIN
 90
        0
 91
        1
 62
     0
 92
       -2
340
14
 93
        0
 40
1.125
309
GRIDFORMAT_END
 95
        4
302
GRIDFORMAT
  1
GRIDFORMAT_BEGIN
 90
        0
 91
        1
 62
     0
 92
       -2
340
14
 93
        0
 40
1.125
309
GRIDFORMAT_END
 95
        8
302
GRIDFORMAT
  1
GRIDFORMAT_BEGIN
 90
        0
 91
        1
 62
     0
 92
       -2
340
14
 93
        0
 40
1.125
309
GRIDFORMAT_END
 95
       16
302
GRIDFORMAT
  1
GRIDFORMAT_BEGIN
 90
        0
 91
        1
 62
     0
 92
       -2
340
14
 93
        0
 40
1.125
309
GRIDFORMAT_END
 95
       32
302
GRIDFORMAT
  1
GRIDFORMAT_BEGIN
 90
        0
 91
        1
 62
     0
 92
       -2
340
14
 93
        0
 40
1.125
309
GRIDFORMAT_END
309
TABLEFORMAT_END
  1
CELLSTYLE_BEGIN
 90
        1
 91
        1
300
_TITLE
309
CELLSTYLE_END
300
CELLSTYLE
  1
TABLEFORMAT_BEGIN
 90
        5
170
     1
 91
        0
 92
        0
 62
   257
 93
        1
300
CONTENTFORMAT
  1
CONTENTFORMAT_BEGIN
 90
        0
 91
        0
 92
      512
 93
        0
300

 40
0.0
140
1.0
 94
        5
 62
     0
340
11
144
4.5
309
CONTENTFORMAT_END
171
     1
301
MARGIN
  1
CELLMARGIN_BEGIN
 40
1.5
 40
1.5
 40
1.5
 40
1.5
 40
4.5
 40
4.5
309
CELLMARGIN_END
 94
        6
 95
        1
302
GRIDFORMAT
  1
GRIDFORMAT_BEGIN
 90
        0
 91
        1
 62
     0
 92
       -2
340
14
 93
        0
 40
1.125
309
GRIDFORMAT_END
 95
        2
302
GRIDFORMAT
  1
GRIDFORMAT_BEGIN
 90
        0
 91
        1
 62
     0
 92
       -2
340
14
 93
        0
 40
1.125
309
GRIDFORMAT_END
 95
        4
302
GRIDFORMAT
  1
GRIDFORMAT_BEGIN
 90
        0
 91
        1
 62
     0
 92
       -2
340
14
 93
        0
 40
1.125
309
GRIDFORMAT_END
 95
        8
302
GRIDFORMAT
  1
GRIDFORMAT_BEGIN
 90
        0
 91
        1
 62
     0
 92
       -2
340
14
 93
        0
 40
1.125
309
GRIDFORMAT_END
 95
       16
302
GRIDFORMAT
  1
GRIDFORMAT_BEGIN
 90
        0
 91
        1
 62
     0
 92
       -2
340
14
 93
        0
 40
1.125
309
GRIDFORMAT_END
 95
       32
302
GRIDFORMAT
  1
GRIDFORMAT_BEGIN
 90
        0
 91
        1
 62
     0
 92
       -2
340
14
 93
        0
 40
1.125
309
GRIDFORMAT_END
309
TABLEFORMAT_END
  1
CELLSTYLE_BEGIN
 90
        2
 91
        1
300
_HEADER
309
CELLSTYLE_END
300
CELLSTYLE
  1
TABLEFORMAT_BEGIN
 90
        5
170
     1
 91
        0
 92
        0
 62
   257
 93
        1
300
CONTENTFORMAT
  1
CONTENTFORMAT_BEGIN
 90
        0
 91
        0
 92
      512
 93
        0
300

 40
0.0
140
1.0
 94
        2
 62
     0
340
11
144
4.5
309
CONTENTFORMAT_END
171
     1
301
MARGIN
  1
CELLMARGIN_BEGIN
 40
1.5
 40
1.5
 40
1.5
 40
1.5
 40
4.5
 40
4.5
309
CELLMARGIN_END
 94
        6
 95
        1
302
GRIDFORMAT
  1
GRIDFORMAT_BEGIN
 90
        0
 91
        1
 62
     0
 92
       -2
340
14
 93
        0
 40
1.125
309
GRIDFORMAT_END
 95
        2
302
GRIDFORMAT
  1
GRIDFORMAT_BEGIN
 90
        0
 91
        1
 62
     0
 92
       -2
340
14
 93
        0
 40
1.125
309
GRIDFORMAT_END
 95
        4
302
GRIDFORMAT
  1
GRIDFORMAT_BEGIN
 90
        0
 91
        1
 62
     0
 92
       -2
340
14
 93
        0
 40
1.125
309
GRIDFORMAT_END
 95
        8
302
GRIDFORMAT
  1
GRIDFORMAT_BEGIN
 90
        0
 91
        1
 62
     0
 92
       -2
340
14
 93
        0
 40
1.125
309
GRIDFORMAT_END
 95
       16
302
GRIDFORMAT
  1
GRIDFORMAT_BEGIN
 90
        0
 91
        1
 62
     0
 92
       -2
340
14
 93
        0
 40
1.125
309
GRIDFORMAT_END
 95
       32
302
GRIDFORMAT
  1
GRIDFORMAT_BEGIN
 90
        0
 91
        1
 62
     0
 92
       -2
340
14
 93
        0
 40
1.125
309
GRIDFORMAT_END
309
TABLEFORMAT_END
  1
CELLSTYLE_BEGIN
 90
        3
 91
        2
300
_DATA
309
CELLSTYLE_END
  0
XRECORD
  5
89E
102
{ACAD_REACTORS
330
162
102
}
330
162
100
AcDbXrecord
280
     1
102
ACAD_ROUNDTRIP_PRE2007_TABLESTYLE
 90
      512
 91
        0
  1

 92
      512
 93
        0
  2

 94
      512
 95
        0
  3

  0
ENDSEC
  0
EOF
