  0
SECTION
  2
HEADER
  9
$ACADVER
  1
AC1015
  9
$ACADMAINTVER
 70
    20
  9
$DWGCODEPAGE
  3
ANSI_1254
  9
$INSBASE
 10
0.0
 20
0.0
 30
0.0
  9
$EXTMIN
 10
2038.684721951691
 20
959.4850629422428
 30
0.0
  9
$EXTMAX
 10
2215.756483091497
 20
1051.485555082018
 30
0.0
  9
$LIMMIN
 10
0.0
 20
0.0
  9
$LIMMAX
 10
420.0
 20
297.0
  9
$ORTHOMODE
 70
     0
  9
$REGENMODE
 70
     1
  9
$FILLMODE
 70
     1
  9
$QTEXTMODE
 70
     0
  9
$MIRRTEXT
 70
     0
  9
$LTSCALE
 40
1.0
  9
$ATTMODE
 70
     1
  9
$TEXTSIZE
 40
2.5
  9
$TRACEWID
 40
1.0
  9
$TEXTSTYLE
  7
Standard
  9
$CLAYER
  8
0
  9
$CELTYPE
  6
ByLayer
  9
$CECOLOR
 62
   256
  9
$CELTSCALE
 40
1.0
  9
$DISPSILH
 70
     0
  9
$DIMSCALE
 40
1.0
  9
$DIMASZ
 40
2.5
  9
$DIMEXO
 40
0.625
  9
$DIMDLI
 40
3.75
  9
$DIMRND
 40
0.0
  9
$DIMDLE
 40
0.0
  9
$DIMEXE
 40
1.25
  9
$DIMTP
 40
0.0
  9
$DIMTM
 40
0.0
  9
$DIMTXT
 40
2.5
  9
$DIMCEN
 40
2.5
  9
$DIMTSZ
 40
0.0
  9
$DIMTOL
 70
     0
  9
$DIMLIM
 70
     0
  9
$DIMTIH
 70
     0
  9
$DIMTOH
 70
     0
  9
$DIMSE1
 70
     0
  9
$DIMSE2
 70
     0
  9
$DIMTAD
 70
     1
  9
$DIMZIN
 70
     8
  9
$DIMBLK
  1

  9
$DIMASO
 70
     1
  9
$DIMSHO
 70
     1
  9
$DIMPOST
  1

  9
$DIMAPOST
  1

  9
$DIMALT
 70
     0
  9
$DIMALTD
 70
     3
  9
$DIMALTF
 40
0.03937007874016
  9
$DIMLFAC
 40
1.0
  9
$DIMTOFL
 70
     1
  9
$DIMTVP
 40
0.0
  9
$DIMTIX
 70
     0
  9
$DIMSOXD
 70
     0
  9
$DIMSAH
 70
     0
  9
$DIMBLK1
  1

  9
$DIMBLK2
  1

  9
$DIMSTYLE
  2
ISO-25
  9
$DIMCLRD
 70
     0
  9
$DIMCLRE
 70
     0
  9
$DIMCLRT
 70
     0
  9
$DIMTFAC
 40
1.0
  9
$DIMGAP
 40
0.625
  9
$DIMJUST
 70
     0
  9
$DIMSD1
 70
     0
  9
$DIMSD2
 70
     0
  9
$DIMTOLJ
 70
     0
  9
$DIMTZIN
 70
     8
  9
$DIMALTZ
 70
     0
  9
$DIMALTTZ
 70
     0
  9
$DIMUPT
 70
     0
  9
$DIMDEC
 70
     2
  9
$DIMTDEC
 70
     2
  9
$DIMALTU
 70
     2
  9
$DIMALTTD
 70
     3
  9
$DIMTXSTY
  7
Standard
  9
$DIMAUNIT
 70
     0
  9
$DIMADEC
 70
     0
  9
$DIMALTRND
 40
0.0
  9
$DIMAZIN
 70
     0
  9
$DIMDSEP
 70
    44
  9
$DIMATFIT
 70
     3
  9
$DIMFRAC
 70
     0
  9
$DIMLDRBLK
  1

  9
$DIMLUNIT
 70
     2
  9
$DIMLWD
 70
    -2
  9
$DIMLWE
 70
    -2
  9
$DIMTMOVE
 70
     0
  9
$LUNITS
 70
     2
  9
$LUPREC
 70
     4
  9
$SKETCHINC
 40
1.0
  9
$FILLETRAD
 40
0.0
  9
$AUNITS
 70
     0
  9
$AUPREC
 70
     0
  9
$MENU
  1
.
  9
$ELEVATION
 40
0.0
  9
$PELEVATION
 40
0.0
  9
$THICKNESS
 40
0.0
  9
$LIMCHECK
 70
     0
  9
$CHAMFERA
 40
0.0
  9
$CHAMFERB
 40
0.0
  9
$CHAMFERC
 40
0.0
  9
$CHAMFERD
 40
0.0
  9
$SKPOLY
 70
     0
  9
$TDCREATE
 40
2459083.608514572
  9
$TDUCREATE
 40
2459083.483514572
  9
$TDUPDATE
 40
2459083.678063507
  9
$TDUUPDATE
 40
2459083.553063507
  9
$TDINDWG
 40
0.0003555787
  9
$TDUSRTIMER
 40
0.0003555787
  9
$USRTIMER
 70
     1
  9
$ANGBASE
 50
0.0
  9
$ANGDIR
 70
     0
  9
$PDMODE
 70
     0
  9
$PDSIZE
 40
0.0
  9
$PLINEWID
 40
0.0
  9
$SPLFRAME
 70
     0
  9
$SPLINETYPE
 70
     6
  9
$SPLINESEGS
 70
     8
  9
$HANDSEED
  5
692
  9
$SURFTAB1
 70
     6
  9
$SURFTAB2
 70
     6
  9
$SURFTYPE
 70
     6
  9
$SURFU
 70
     6
  9
$SURFV
 70
     6
  9
$UCSBASE
  2

  9
$UCSNAME
  2

  9
$UCSORG
 10
0.0
 20
0.0
 30
0.0
  9
$UCSXDIR
 10
1.0
 20
0.0
 30
0.0
  9
$UCSYDIR
 10
0.0
 20
1.0
 30
0.0
  9
$UCSORTHOREF
  2

  9
$UCSORTHOVIEW
 70
     0
  9
$UCSORGTOP
 10
0.0
 20
0.0
 30
0.0
  9
$UCSORGBOTTOM
 10
0.0
 20
0.0
 30
0.0
  9
$UCSORGLEFT
 10
0.0
 20
0.0
 30
0.0
  9
$UCSORGRIGHT
 10
0.0
 20
0.0
 30
0.0
  9
$UCSORGFRONT
 10
0.0
 20
0.0
 30
0.0
  9
$UCSORGBACK
 10
0.0
 20
0.0
 30
0.0
  9
$PUCSBASE
  2

  9
$PUCSNAME
  2

  9
$PUCSORG
 10
0.0
 20
0.0
 30
0.0
  9
$PUCSXDIR
 10
1.0
 20
0.0
 30
0.0
  9
$PUCSYDIR
 10
0.0
 20
1.0
 30
0.0
  9
$PUCSORTHOREF
  2

  9
$PUCSORTHOVIEW
 70
     0
  9
$PUCSORGTOP
 10
0.0
 20
0.0
 30
0.0
  9
$PUCSORGBOTTOM
 10
0.0
 20
0.0
 30
0.0
  9
$PUCSORGLEFT
 10
0.0
 20
0.0
 30
0.0
  9
$PUCSORGRIGHT
 10
0.0
 20
0.0
 30
0.0
  9
$PUCSORGFRONT
 10
0.0
 20
0.0
 30
0.0
  9
$PUCSORGBACK
 10
0.0
 20
0.0
 30
0.0
  9
$USERI1
 70
     0
  9
$USERI2
 70
     0
  9
$USERI3
 70
     0
  9
$USERI4
 70
     0
  9
$USERI5
 70
     0
  9
$USERR1
 40
0.0
  9
$USERR2
 40
0.0
  9
$USERR3
 40
0.0
  9
$USERR4
 40
0.0
  9
$USERR5
 40
0.0
  9
$WORLDVIEW
 70
     1
  9
$SHADEDGE
 70
     3
  9
$SHADEDIF
 70
    70
  9
$TILEMODE
 70
     1
  9
$MAXACTVP
 70
    64
  9
$PINSBASE
 10
0.0
 20
0.0
 30
0.0
  9
$PLIMCHECK
 70
     0
  9
$PEXTMIN
 10
0.0
 20
0.0
 30
0.0
  9
$PEXTMAX
 10
0.0
 20
0.0
 30
0.0
  9
$PLIMMIN
 10
0.0
 20
0.0
  9
$PLIMMAX
 10
12.0
 20
9.0
  9
$UNITMODE
 70
     0
  9
$VISRETAIN
 70
     1
  9
$PLINEGEN
 70
     0
  9
$PSLTSCALE
 70
     1
  9
$TREEDEPTH
 70
  3020
  9
$CMLSTYLE
  2
Standard
  9
$CMLJUST
 70
     0
  9
$CMLSCALE
 40
20.0
  9
$PROXYGRAPHICS
 70
     1
  9
$MEASUREMENT
 70
     1
  9
$CELWEIGHT
370
    -1
  9
$ENDCAPS
280
     0
  9
$JOINSTYLE
280
     0
  9
$LWDISPLAY
290
     0
  9
$INSUNITS
 70
     4
  9
$HYPERLINKBASE
  1

  9
$STYLESHEET
  1

  9
$XEDIT
290
     1
  9
$CEPSNTYPE
380
     0
  9
$PSTYLEMODE
290
     1
  9
$FINGERPRINTGUID
  2
{DF848372-0766-440A-8E55-F311AB2B53A5}
  9
$VERSIONGUID
  2
{A7ED3A54-AFF3-4970-82D9-ECA6EE7EB594}
  9
$EXTNAMES
290
     1
  9
$PSVPSCALE
 40
0.0
  9
$OLESTARTUP
290
     0
  0
ENDSEC
  0
SECTION
  2
CLASSES
  0
CLASS
  1
ACDBDICTIONARYWDFLT
  2
AcDbDictionaryWithDefault
  3
ObjectDBX Classes
 90
        0
280
     0
281
     0
  0
CLASS
  1
ACDBPLACEHOLDER
  2
AcDbPlaceHolder
  3
ObjectDBX Classes
 90
        0
280
     0
281
     0
  0
CLASS
  1
LAYOUT
  2
AcDbLayout
  3
ObjectDBX Classes
 90
        0
280
     0
281
     0
  0
CLASS
  1
DICTIONARYVAR
  2
AcDbDictionaryVar
  3
ObjectDBX Classes
 90
        0
280
     0
281
     0
  0
CLASS
  1
TABLESTYLE
  2
AcDbTableStyle
  3
ObjectDBX Classes
 90
     4095
280
     0
281
     0
  0
CLASS
  1
MATERIAL
  2
AcDbMaterial
  3
ObjectDBX Classes
 90
     1153
280
     0
281
     0
  0
CLASS
  1
VISUALSTYLE
  2
AcDbVisualStyle
  3
ObjectDBX Classes
 90
     4095
280
     0
281
     0
  0
CLASS
  1
SCALE
  2
AcDbScale
  3
ObjectDBX Classes
 90
     1153
280
     0
281
     0
  0
CLASS
  1
MLEADERSTYLE
  2
AcDbMLeaderStyle
  3
ACDB_MLEADERSTYLE_CLASS
 90
     4095
280
     0
281
     0
  0
CLASS
  1
CELLSTYLEMAP
  2
AcDbCellStyleMap
  3
ObjectDBX Classes
 90
     1152
280
     0
281
     0
  0
ENDSEC
  0
SECTION
  2
TABLES
  0
TABLE
  2
VPORT
  5
8
330
0
100
AcDbSymbolTable
 70
     1
  0
VPORT
  5
EA
330
8
100
AcDbSymbolTableRecord
100
AcDbViewportTableRecord
  2
*Active
 70
     0
 10
0.0
 20
0.0
 11
1.0
 21
1.0
 12
2149.867785680387
 22
993.0122426652971
 13
0.0
 23
0.0
 14
10.0
 24
10.0
 15
10.0
 25
10.0
 16
0.0
 26
0.0
 36
1.0
 17
0.0
 27
0.0
 37
0.0
 40
165.3355254973555
 41
1.903110047846889
 42
50.0
 43
0.0
 44
0.0
 50
0.0
 51
0.0
 71
     0
 72
  1000
 73
     1
 74
     3
 75
     0
 76
     0
 77
     0
 78
     0
281
     0
 65
     1
110
0.0
120
0.0
130
0.0
111
1.0
121
0.0
131
0.0
112
0.0
122
1.0
132
0.0
 79
     0
146
0.0
  0
ENDTAB
  0
TABLE
  2
LTYPE
  5
5
330
0
100
AcDbSymbolTable
 70
     1
  0
LTYPE
  5
14
330
5
100
AcDbSymbolTableRecord
100
AcDbLinetypeTableRecord
  2
ByBlock
 70
     0
  3

 72
    65
 73
     0
 40
0.0
  0
LTYPE
  5
15
330
5
100
AcDbSymbolTableRecord
100
AcDbLinetypeTableRecord
  2
ByLayer
 70
     0
  3

 72
    65
 73
     0
 40
0.0
  0
LTYPE
  5
16
330
5
100
AcDbSymbolTableRecord
100
AcDbLinetypeTableRecord
  2
Continuous
 70
     0
  3
Solid line
 72
    65
 73
     0
 40
0.0
  0
ENDTAB
  0
TABLE
  2
LAYER
  5
2
330
0
100
AcDbSymbolTable
 70
     1
  0
LAYER
  5
10
102
{ACAD_XDICTIONARY
360
13C
102
}
330
2
100
AcDbSymbolTableRecord
100
AcDbLayerTableRecord
  2
0
 70
     0
 62
     7
  6
Continuous
370
    -3
390
F
  0
ENDTAB
  0
TABLE
  2
STYLE
  5
3
330
0
100
AcDbSymbolTable
 70
     2
  0
STYLE
  5
11
330
3
100
AcDbSymbolTableRecord
100
AcDbTextStyleTableRecord
  2
Standard
 70
     0
 40
0.0
 41
1.0
 50
0.0
 71
     0
 42
2.5
  3
txt
  4

  0
STYLE
  5
132
330
3
100
AcDbSymbolTableRecord
100
AcDbTextStyleTableRecord
  2
Annotative
 70
     0
 40
0.0
 41
1.0
 50
0.0
 71
     0
 42
2.5
  3
txt.shx
  4

1001
AcadAnnotative
1000
AnnotativeData
1002
{
1070
     1
1070
     1
1002
}
  0
ENDTAB
  0
TABLE
  2
VIEW
  5
6
330
0
100
AcDbSymbolTable
 70
     0
  0
ENDTAB
  0
TABLE
  2
UCS
  5
7
330
0
100
AcDbSymbolTable
 70
     0
  0
ENDTAB
  0
TABLE
  2
APPID
  5
9
330
0
100
AcDbSymbolTable
 70
     7
  0
APPID
  5
12
330
9
100
AcDbSymbolTableRecord
100
AcDbRegAppTableRecord
  2
ACAD
 70
     0
  0
APPID
  5
9E
330
9
100
AcDbSymbolTableRecord
100
AcDbRegAppTableRecord
  2
ACAD_PSEXT
 70
     0
  0
APPID
  5
133
330
9
100
AcDbSymbolTableRecord
100
AcDbRegAppTableRecord
  2
AcadAnnoPO
 70
     0
  0
APPID
  5
134
330
9
100
AcDbSymbolTableRecord
100
AcDbRegAppTableRecord
  2
AcadAnnotative
 70
     0
  0
APPID
  5
135
330
9
100
AcDbSymbolTableRecord
100
AcDbRegAppTableRecord
  2
ACAD_DSTYLE_DIMJAG
 70
     0
  0
APPID
  5
136
330
9
100
AcDbSymbolTableRecord
100
AcDbRegAppTableRecord
  2
ACAD_DSTYLE_DIMTALN
 70
     0
  0
APPID
  5
165
330
9
100
AcDbSymbolTableRecord
100
AcDbRegAppTableRecord
  2
ACAD_MLEADERVER
 70
     0
  0
ENDTAB
  0
TABLE
  2
DIMSTYLE
  5
A
330
0
100
AcDbSymbolTable
 70
     2
100
AcDbDimStyleTable
 71
     2
340
27
340
137
  0
DIMSTYLE
105
27
330
A
100
AcDbSymbolTableRecord
100
AcDbDimStyleTableRecord
  2
ISO-25
 70
     0
 41
2.5
 42
0.625
 43
3.75
 44
1.25
 73
     0
 74
     0
 77
     1
 78
     8
140
2.5
141
2.5
143
0.03937007874016
147
0.625
171
     3
172
     1
271
     2
272
     2
274
     3
278
    44
283
     0
284
     8
340
11
  0
DIMSTYLE
105
137
330
A
100
AcDbSymbolTableRecord
100
AcDbDimStyleTableRecord
  2
Annotative
 70
     0
 40
0.0
 41
2.5
 42
0.625
 43
3.75
 44
1.25
 73
     0
 74
     0
 77
     1
 78
     8
140
2.5
141
2.5
143
0.03937007874016
147
0.625
171
     3
172
     1
271
     2
272
     2
274
     3
278
    44
283
     0
284
     8
340
11
1001
AcadAnnotative
1000
AnnotativeData
1002
{
1070
     1
1070
     1
1002
}
1001
ACAD_DSTYLE_DIMJAG
1070
   388
1040
1.5
1001
ACAD_DSTYLE_DIMTALN
1070
   392
1070
     0
  0
ENDTAB
  0
TABLE
  2
BLOCK_RECORD
  5
1
330
0
100
AcDbSymbolTable
 70
    10
  0
BLOCK_RECORD
  5
1F
330
1
100
AcDbSymbolTableRecord
100
AcDbBlockTableRecord
  2
*Model_Space
340
22
  0
BLOCK_RECORD
  5
D2
330
1
100
AcDbSymbolTableRecord
100
AcDbBlockTableRecord
  2
*Paper_Space
340
D3
  0
BLOCK_RECORD
  5
D6
330
1
100
AcDbSymbolTableRecord
100
AcDbBlockTableRecord
  2
*Paper_Space0
340
D7
  0
BLOCK_RECORD
  5
1AD
330
1
100
AcDbSymbolTableRecord
100
AcDbBlockTableRecord
  2
SW_CENTERMARKSYMBOL_0
340
0
102
{BLKREFS
331
643
102
}
  0
BLOCK_RECORD
  5
1B8
330
1
100
AcDbSymbolTableRecord
100
AcDbBlockTableRecord
  2
SW_CENTERMARKSYMBOL_1
340
0
102
{BLKREFS
331
644
102
}
  0
BLOCK_RECORD
  5
1C3
330
1
100
AcDbSymbolTableRecord
100
AcDbBlockTableRecord
  2
SW_CENTERMARKSYMBOL_2
340
0
102
{BLKREFS
331
645
102
}
  0
BLOCK_RECORD
  5
1CE
330
1
100
AcDbSymbolTableRecord
100
AcDbBlockTableRecord
  2
SW_CENTERMARKSYMBOL_3
340
0
102
{BLKREFS
331
646
102
}
  0
BLOCK_RECORD
  5
1D9
330
1
100
AcDbSymbolTableRecord
100
AcDbBlockTableRecord
  2
SW_CENTERMARKSYMBOL_4
340
0
102
{BLKREFS
331
647
102
}
  0
BLOCK_RECORD
  5
4E8
330
1
100
AcDbSymbolTableRecord
100
AcDbBlockTableRecord
  2
1
340
0
310
2800000020000000200000000100080000000000000400000000000000000000000000000000000000000000000080000080000000808000800000008000800080800000C0C0C000C0DCC000F0CAA6000020400000206000002080000020A0000020C0000020E00000400000004020000040400000406000004080000040A0
310
000040C0000040E00000600000006020000060400000606000006080000060A0000060C0000060E00000800000008020000080400000806000008080000080A0000080C0000080E00000A0000000A0200000A0400000A0600000A0800000A0A00000A0C00000A0E00000C0000000C0200000C0400000C0600000C0800000C0
310
A00000C0C00000C0E00000E0000000E0200000E0400000E0600000E0800000E0A00000E0C00000E0E00040000000400020004000400040006000400080004000A0004000C0004000E00040200000402020004020400040206000402080004020A0004020C0004020E000404000004040200040404000404060004040800040
310
40A0004040C0004040E00040600000406020004060400040606000406080004060A0004060C0004060E00040800000408020004080400040806000408080004080A0004080C0004080E00040A0000040A0200040A0400040A0600040A0800040A0A00040A0C00040A0E00040C0000040C0200040C0400040C0600040C08000
310
40C0A00040C0C00040C0E00040E0000040E0200040E0400040E0600040E0800040E0A00040E0C00040E0E00080000000800020008000400080006000800080008000A0008000C0008000E00080200000802020008020400080206000802080008020A0008020C0008020E00080400000804020008040400080406000804080
310
008040A0008040C0008040E00080600000806020008060400080606000806080008060A0008060C0008060E00080800000808020008080400080806000808080008080A0008080C0008080E00080A0000080A0200080A0400080A0600080A0800080A0A00080A0C00080A0E00080C0000080C0200080C0400080C0600080C0
310
800080C0A00080C0C00080C0E00080E0000080E0200080E0400080E0600080E0800080E0A00080E0C00080E0E000C0000000C0002000C0004000C0006000C0008000C000A000C000C000C000E000C0200000C0202000C0204000C0206000C0208000C020A000C020C000C020E000C0400000C0402000C0404000C0406000C0
310
408000C040A000C040C000C040E000C0600000C0602000C0604000C0606000C0608000C060A000C060C000C060E000C0800000C0802000C0804000C0806000C0808000C080A000C080C000C080E000C0A00000C0A02000C0A04000C0A06000C0A08000C0A0A000C0A0C000C0A0E000C0C00000C0C02000C0C04000C0C06000
310
C0C08000C0C0A000F0FBFF00A4A0A000808080000000FF0000FF000000FFFF00FF000000FF00FF00FFFF0000FFFFFF0000000000000000000000000000000000000000000000000000000000000000000000000000000000000000000000000000000000000000000000000000000000000000000000000000000000000000
310
000000000000000000000000000000000000000000000000000000000000000000000000000000000000000000000000000000FFFFFFFFFFFFFFFFFFFFFFFFFFFFFFFFFFFFFFFFFFFFFFFFFFFFFFFF000000FFFFFFFFFFFFFFFFFFFFFFFFFFFFFFFFFFFFFFFFFFFFFFFFFFFFFFFFFFFF0000FF000000000000000000000000
310
00000000000000000000000000000000FF0000FF00000000000000000000000000000000000000000000000000000000FF0000FF00000000000000000000000000000000000000000000000000000000FF0000FF00000000000000000000000000000000000000000000000000000000FF0000FF0000000000000000000000
310
0000000000000000000000000000000000FF0000FF00000000000000000000000000000000000000000000000000000000FF0000FF00000000000000000000000000000000000000000000000000000000FF0000FF00000000000000000000000000000000000000000000000000000000FF0000FF00000000000000000000
310
000000000000000000000000000000000000FF0000FF00000000000000000000000000000000000000000000000000000000FF0000FF00000000000000000000000000000000000000000000000000000000FF0000FF00000000000000000000000000000000000000000000000000000000FF0000FF000000000000000000
310
00000000000000000000000000000000000000FF0000FF00000000000000000000000000000000000000000000000000000000FF0000FF00000000000000000000000000000000000000000000000000000000FF0000FF00000000000000000000000000000000000000000000000000000000FF0000FF0000000000000000
310
0000000000000000000000000000000000000000FF0000FF00000000000000000000000000000000000000000000000000000000FF0000FF00000000000000000000000000000000000000000000000000000000FF0000FF00000000000000000000000000000000000000000000000000000000FF0000FFFFFFFFFFFFFFFF
310
FFFFFFFFFFFFFFFFFFFFFFFFFFFFFFFFFFFFFFFFFFFF000000FFFFFFFFFFFFFFFFFFFFFFFFFFFFFFFFFFFFFFFFFFFFFFFFFFFFFFFF0000000000000000000000000000000000000000000000000000000000000000000000000000000000000000000000000000000000000000000000000000000000000000000000000000
310
0000000000000000000000000000000000000000000000000000000000000000000000000000000000000000000000000000000000000000
102
{BLKREFS
331
4F5
102
}
1001
ACAD
1000
DesignCenter Data
1002
{
1070
     1
1070
     4
1002
}
  0
BLOCK_RECORD
  5
4F6
330
1
100
AcDbSymbolTableRecord
100
AcDbBlockTableRecord
  2
2
340
0
310
2800000020000000200000000100080000000000000400000000000000000000000000000000000000000000000080000080000000808000800000008000800080800000C0C0C000C0DCC000F0CAA6000020400000206000002080000020A0000020C0000020E00000400000004020000040400000406000004080000040A0
310
000040C0000040E00000600000006020000060400000606000006080000060A0000060C0000060E00000800000008020000080400000806000008080000080A0000080C0000080E00000A0000000A0200000A0400000A0600000A0800000A0A00000A0C00000A0E00000C0000000C0200000C0400000C0600000C0800000C0
310
A00000C0C00000C0E00000E0000000E0200000E0400000E0600000E0800000E0A00000E0C00000E0E00040000000400020004000400040006000400080004000A0004000C0004000E00040200000402020004020400040206000402080004020A0004020C0004020E000404000004040200040404000404060004040800040
310
40A0004040C0004040E00040600000406020004060400040606000406080004060A0004060C0004060E00040800000408020004080400040806000408080004080A0004080C0004080E00040A0000040A0200040A0400040A0600040A0800040A0A00040A0C00040A0E00040C0000040C0200040C0400040C0600040C08000
310
40C0A00040C0C00040C0E00040E0000040E0200040E0400040E0600040E0800040E0A00040E0C00040E0E00080000000800020008000400080006000800080008000A0008000C0008000E00080200000802020008020400080206000802080008020A0008020C0008020E00080400000804020008040400080406000804080
310
008040A0008040C0008040E00080600000806020008060400080606000806080008060A0008060C0008060E00080800000808020008080400080806000808080008080A0008080C0008080E00080A0000080A0200080A0400080A0600080A0800080A0A00080A0C00080A0E00080C0000080C0200080C0400080C0600080C0
310
800080C0A00080C0C00080C0E00080E0000080E0200080E0400080E0600080E0800080E0A00080E0C00080E0E000C0000000C0002000C0004000C0006000C0008000C000A000C000C000C000E000C0200000C0202000C0204000C0206000C0208000C020A000C020C000C020E000C0400000C0402000C0404000C0406000C0
310
408000C040A000C040C000C040E000C0600000C0602000C0604000C0606000C0608000C060A000C060C000C060E000C0800000C0802000C0804000C0806000C0808000C080A000C080C000C080E000C0A00000C0A02000C0A04000C0A06000C0A08000C0A0A000C0A0C000C0A0E000C0C00000C0C02000C0C04000C0C06000
310
C0C08000C0C0A000F0FBFF00A4A0A000808080000000FF0000FF000000FFFF00FF000000FF00FF00FFFF0000FFFFFF0000000000000000000000000000000000000000000000000000000000000000000000000000000000000000000000000000000000000000000000000000000000000000000000000000000000000000
310
0000000000000000000000000000000000000000000000000000000000000000000000000000000000000000000000000000000000000000000000000000000000000000000000000000000000000000000000FFFFFFFFFFFFFFFFFFFFFFFFFFFFFFFFFFFFFFFFFFFFFFFFFFFFFFFF000000FFFFFFFFFFFFFFFFFFFFFFFFFF
310
FFFFFFFFFFFFFFFFFFFFFFFFFFFFFFFFFF0000FF00000000000000000000000000000000000000000000000000000000FF0000FF00000000000000000000000000000000000000000000000000000000FF0000FF00000000000000000000000000000000000000000000000000000000FF0000FF0000000000000000000000
310
0000000000000000000000000000000000FF0000FF00000000000000000000000000000000000000000000000000000000FF0000FF00000000000000000000000000000000000000000000000000000000FF0000FF00000000000000000000000000000000000000000000000000000000FF0000FF000000FFFFFFFFFFFFFF
310
FF000000000000FFFFFFFFFFFFFFFF000000FF0000FF000000FFFF00000000FFFF000000000000FFFF00000000FFFF000000FF0000FF000000FFFFFFFFFFFFFFFF000000000000FFFFFFFFFFFFFFFF000000FF0000FF000000FFFFFFFFFFFFFFFF000000000000FFFFFFFFFFFF00FF000000FF0000FF000000FFFFFFFFFFFF
310
FFFF000000000000FFFFFFFFFFFFFFFF000000FF0000FF00000000000000000000000000000000000000000000000000000000FF0000FF00000000000000000000000000000000000000000000000000000000FF0000FF00000000000000000000000000000000000000000000000000000000FF0000FF0000000000000000
310
0000000000000000000000000000000000000000FF0000FF00000000000000000000000000000000000000000000000000000000FF0000FF00000000000000000000000000000000000000000000000000000000FF0000FFFFFFFFFFFFFFFFFFFFFFFFFFFFFFFFFFFFFFFFFFFFFFFFFFFFFFFFFFFF000000FFFFFFFFFFFFFF
310
FFFFFFFFFFFFFFFFFFFFFFFFFFFFFFFFFFFFFFFFFF00000000000000000000000000000000000000000000000000000000000000000000000000000000000000000000000000000000000000000000000000000000000000000000000000000000000000000000000000000000000000000000000000000000000000000000
310
0000000000000000000000000000000000000000000000000000000000000000000000000000000000000000000000000000000000000000
102
{BLKREFS
331
52B
102
}
1001
ACAD
1000
DesignCenter Data
1002
{
1070
     1
1070
     4
1002
}
  0
BLOCK_RECORD
  5
52C
330
1
100
AcDbSymbolTableRecord
100
AcDbBlockTableRecord
  2
3
340
0
310
2800000020000000200000000100080000000000000400000000000000000000000000000000000000000000000080000080000000808000800000008000800080800000C0C0C000C0DCC000F0CAA6000020400000206000002080000020A0000020C0000020E00000400000004020000040400000406000004080000040A0
310
000040C0000040E00000600000006020000060400000606000006080000060A0000060C0000060E00000800000008020000080400000806000008080000080A0000080C0000080E00000A0000000A0200000A0400000A0600000A0800000A0A00000A0C00000A0E00000C0000000C0200000C0400000C0600000C0800000C0
310
A00000C0C00000C0E00000E0000000E0200000E0400000E0600000E0800000E0A00000E0C00000E0E00040000000400020004000400040006000400080004000A0004000C0004000E00040200000402020004020400040206000402080004020A0004020C0004020E000404000004040200040404000404060004040800040
310
40A0004040C0004040E00040600000406020004060400040606000406080004060A0004060C0004060E00040800000408020004080400040806000408080004080A0004080C0004080E00040A0000040A0200040A0400040A0600040A0800040A0A00040A0C00040A0E00040C0000040C0200040C0400040C0600040C08000
310
40C0A00040C0C00040C0E00040E0000040E0200040E0400040E0600040E0800040E0A00040E0C00040E0E00080000000800020008000400080006000800080008000A0008000C0008000E00080200000802020008020400080206000802080008020A0008020C0008020E00080400000804020008040400080406000804080
310
008040A0008040C0008040E00080600000806020008060400080606000806080008060A0008060C0008060E00080800000808020008080400080806000808080008080A0008080C0008080E00080A0000080A0200080A0400080A0600080A0800080A0A00080A0C00080A0E00080C0000080C0200080C0400080C0600080C0
310
800080C0A00080C0C00080C0E00080E0000080E0200080E0400080E0600080E0800080E0A00080E0C00080E0E000C0000000C0002000C0004000C0006000C0008000C000A000C000C000C000E000C0200000C0202000C0204000C0206000C0208000C020A000C020C000C020E000C0400000C0402000C0404000C0406000C0
310
408000C040A000C040C000C040E000C0600000C0602000C0604000C0606000C0608000C060A000C060C000C060E000C0800000C0802000C0804000C0806000C0808000C080A000C080C000C080E000C0A00000C0A02000C0A04000C0A06000C0A08000C0A0A000C0A0C000C0A0E000C0C00000C0C02000C0C04000C0C06000
310
C0C08000C0C0A000F0FBFF00A4A0A000808080000000FF0000FF000000FFFF00FF000000FF00FF00FFFF0000FFFFFF000000000000000000000000000000000000000000000000000000000000000000000000FFFFFFFFFFFFFFFFFFFFFFFFFFFFFFFFFFFFFFFFFFFFFFFFFFFF000000000000FFFFFFFFFFFFFFFFFFFFFFFF
310
FFFFFFFFFFFFFFFFFFFFFFFFFFFF000000000000FFFF00000000000000000000000000000000000000000000FFFF000000000000FFFF00000000000000FF000000000000FF00000000000000FFFF000000000000FFFF00000000000000000000000000000000000000000000FFFF000000000000FFFF0000000000FF00FF00
310
00000000FFFF00000000000000FFFF000000000000FFFF0000000000FFFFFFFF00000000FFFFFFFF0000000000FFFF000000000000FFFF0000FFFF00FFFFFFFFFFFFFFFFFFFFFFFFFFFFFF0000FFFF000000000000FFFF0000000000FFFFFFFF00000000FFFFFFFF0000000000FFFF000000000000FFFF0000000000FFFFFF
310
FF0000FF00FFFFFFFF0000000000FFFF000000000000FFFF0000000000FF00FF000000FF00FFFF00000000000000FFFF000000000000FFFF0000000000000000000000FF00000000000000000000FFFF000000000000FFFF00000000000000FF00FFFFFFFF00FF00000000000000FFFF000000000000FFFF00000000000000
310
00FFFFFFFF00FF0000000000000000FFFF000000000000FFFF00000000000000FFFFFF00FFFFFFFF00000000000000FFFF000000000000FFFF0000000000FFFF00FFFFFFFFFFFF00FFFF0000000000FFFF000000000000FFFF0000000000000000FFFFFFFF00FF0000000000000000FFFF000000000000FFFF000000000000
310
00FF00FFFFFFFF00FF00000000000000FFFF000000000000FFFF0000000000000000000000FF00000000000000000000FFFF000000000000FFFF0000000000FF00FF000000FF00FFFF00000000000000FFFF000000000000FFFF0000000000FFFFFFFF0000FF00FFFFFFFF0000000000FFFF000000000000FFFF0000000000
310
FFFFFFFF00000000FFFFFFFF0000000000FFFF000000000000FFFF0000FFFF00FFFFFFFFFFFFFFFFFFFFFFFFFFFFFF0000FFFF000000000000FFFF0000000000FFFFFFFF00000000FFFFFFFF0000000000FFFF000000000000FFFF0000000000FFFFFF0000000000FFFF00000000000000FFFF000000000000FFFF00000000
310
000000000000000000000000000000000000FFFF000000000000FFFF00000000000000FF000000000000FF00000000000000FFFF000000000000FFFF00000000000000000000000000000000000000000000FFFF000000000000FFFFFFFFFFFFFFFFFFFFFFFFFFFFFFFFFFFFFFFFFFFFFFFFFFFF000000000000FFFFFFFFFF
310
FFFFFFFFFFFFFFFFFFFFFFFFFFFFFFFFFFFFFFFFFF0000000000000000000000000000000000000000000000000000000000000000000000
102
{BLKREFS
331
648
102
}
1001
ACAD
1000
DesignCenter Data
1002
{
1070
     1
1070
     4
1002
}
  0
BLOCK_RECORD
  5
649
330
1
100
AcDbSymbolTableRecord
100
AcDbBlockTableRecord
  2
4
340
0
310
2800000020000000200000000100080000000000000400000000000000000000000000000000000000000000000080000080000000808000800000008000800080800000C0C0C000C0DCC000F0CAA6000020400000206000002080000020A0000020C0000020E00000400000004020000040400000406000004080000040A0
310
000040C0000040E00000600000006020000060400000606000006080000060A0000060C0000060E00000800000008020000080400000806000008080000080A0000080C0000080E00000A0000000A0200000A0400000A0600000A0800000A0A00000A0C00000A0E00000C0000000C0200000C0400000C0600000C0800000C0
310
A00000C0C00000C0E00000E0000000E0200000E0400000E0600000E0800000E0A00000E0C00000E0E00040000000400020004000400040006000400080004000A0004000C0004000E00040200000402020004020400040206000402080004020A0004020C0004020E000404000004040200040404000404060004040800040
310
40A0004040C0004040E00040600000406020004060400040606000406080004060A0004060C0004060E00040800000408020004080400040806000408080004080A0004080C0004080E00040A0000040A0200040A0400040A0600040A0800040A0A00040A0C00040A0E00040C0000040C0200040C0400040C0600040C08000
310
40C0A00040C0C00040C0E00040E0000040E0200040E0400040E0600040E0800040E0A00040E0C00040E0E00080000000800020008000400080006000800080008000A0008000C0008000E00080200000802020008020400080206000802080008020A0008020C0008020E00080400000804020008040400080406000804080
310
008040A0008040C0008040E00080600000806020008060400080606000806080008060A0008060C0008060E00080800000808020008080400080806000808080008080A0008080C0008080E00080A0000080A0200080A0400080A0600080A0800080A0A00080A0C00080A0E00080C0000080C0200080C0400080C0600080C0
310
800080C0A00080C0C00080C0E00080E0000080E0200080E0400080E0600080E0800080E0A00080E0C00080E0E000C0000000C0002000C0004000C0006000C0008000C000A000C000C000C000E000C0200000C0202000C0204000C0206000C0208000C020A000C020C000C020E000C0400000C0402000C0404000C0406000C0
310
408000C040A000C040C000C040E000C0600000C0602000C0604000C0606000C0608000C060A000C060C000C060E000C0800000C0802000C0804000C0806000C0808000C080A000C080C000C080E000C0A00000C0A02000C0A04000C0A06000C0A08000C0A0A000C0A0C000C0A0E000C0C00000C0C02000C0C04000C0C06000
310
C0C08000C0C0A000F0FBFF00A4A0A000808080000000FF0000FF000000FFFF00FF000000FF00FF00FFFF0000FFFFFF0000000000000000000000000000000000000000000000000000000000000000000000000000000000000000000000000000000000000000000000000000000000000000000000000000000000000000
310
FF0000000000000000000000000000000000000000000000000000000000FFFFFFFFFF00000000000000000000000000000000000000000000000000FFFF0000FF0000FFFF000000000000000000000000000000000000000000FFFF00000000FF00000000FFFF0000000000000000000000000000000000FFFF0000000000
310
00FF00FFFF000000FFFF00000000000000000000000000FFFF0000000000000000FF00FFFFFF000000FFFFFF000000000000000000FFFF00000000000000000000FF00FF00FFFF00000000FFFFFF0000000000FFFF000000000000000000000000FF00FF0000FF000000000000FFFFFF000000FF0000000000000000000000
310
0000FF00FF00A4FF0000000000000000FFFF0000FF00000000000000000000000000FF0000FFFFFF000000FFFFFF000000FF0000FF00000000000000000000000000FF00000000FF000000FF0000FF0000FF0000FF00000000000000000000000000FF0000000000000000FF0000FF0000FF0000FF00000000000000000000
310
00FFFFFFFFFF000000000000FF0000FF0000FF0000FF000000000000000000FFFFFFFF00FFFFFFFF00000000FFA4A4FF0000FF0000FF00000000000000FFFFFFFF0000000000FFFFFF00000000FFFFFF0000FF0000FF000000000000FFFFFF0000FFFFFF00000000FFFFFF00000000FF0000FF0000FF00000000FFFFFF0000
310
00FFFF00FFFF0000000000FFFFFF0000000000FF0000FF0000FFFFFF0000000000FFFFFFFFFF000000000000FFFFFF00000000FF0000FFFFFFFF000000FFFFFFFF0000FFFFFFFF00000000000000FFFFFF0000FF0000FFFF0000000000FF0000FFFFFFFFFF00FFFF0000000000000000FFFFFFFF00000000FFFF000000FFFF
310
FFFF00FFFFFFFFFFFFFFFFFFFFFF0000000000FFFF000000000000FFFF000000000000FFFFFFFFFFFFFFFF0000FF000000FFFF00000000000000000000FFFF00000000000000FFFFFFFFFFFFFF0000FFFF0000000000000000000000000000FF0000000000FFFF0000FF000000FFFF00000000000000000000000000000000
310
00FFFF00000000FFFFFFFF00FFFF000000000000000000000000000000000000000000FFFF0000000000FFFF00000000000000000000000000000000000000000000000000FFFF00FFFF0000000000000000000000000000000000000000000000000000000000FF0000000000000000000000000000000000000000000000
310
0000000000000000000000000000000000000000000000000000000000000000000000000000000000000000000000000000000000000000
102
{BLKREFS
331
677
102
}
1001
ACAD
1000
DesignCenter Data
1002
{
1070
     1
1070
     4
1002
}
  0
ENDTAB
  0
ENDSEC
  0
SECTION
  2
BLOCKS
  0
BLOCK
  5
20
330
1F
100
AcDbEntity
  8
0
100
AcDbBlockBegin
  2
*Model_Space
 70
     0
 10
0.0
 20
0.0
 30
0.0
  3
*Model_Space
  1

  0
ENDBLK
  5
21
330
1F
100
AcDbEntity
  8
0
100
AcDbBlockEnd
  0
BLOCK
  5
D4
330
D2
100
AcDbEntity
 67
     1
  8
0
100
AcDbBlockBegin
  2
*Paper_Space
 70
     0
 10
0.0
 20
0.0
 30
0.0
  3
*Paper_Space
  1

  0
ENDBLK
  5
D5
330
D2
100
AcDbEntity
 67
     1
  8
0
100
AcDbBlockEnd
  0
BLOCK
  5
D8
330
D6
100
AcDbEntity
 67
     1
  8
0
100
AcDbBlockBegin
  2
*Paper_Space0
 70
     0
 10
0.0
 20
0.0
 30
0.0
  3
*Paper_Space0
  1

  0
ENDBLK
  5
D9
330
D6
100
AcDbEntity
 67
     1
  8
0
100
AcDbBlockEnd
  0
BLOCK
  5
1AE
330
1AD
100
AcDbEntity
  8
0
100
AcDbBlockBegin
  2
SW_CENTERMARKSYMBOL_0
 70
     0
 10
0.0
 20
0.0
 30
0.0
  3
SW_CENTERMARKSYMBOL_0
  1

  0
LINE
  5
1AF
330
1AD
100
AcDbEntity
  8
0
  6
Continuous
 62
     0
370
     0
100
AcDbLine
 10
0.0
 20
0.0
 30
0.0
 11
0.0
 21
2.500000000000002
 31
0.0
  0
LINE
  5
1B0
330
1AD
100
AcDbEntity
  8
0
  6
Continuous
 62
     0
370
     0
100
AcDbLine
 10
0.0
 20
0.0
 30
0.0
 11
-2.500000000000002
 21
0.0
 31
0.0
  0
LINE
  5
1B1
330
1AD
100
AcDbEntity
  8
0
  6
Continuous
 62
     0
370
     0
100
AcDbLine
 10
0.0
 20
0.0
 30
0.0
 11
0.0
 21
-2.500000000000002
 31
0.0
  0
LINE
  5
1B2
330
1AD
100
AcDbEntity
  8
0
  6
Continuous
 62
     0
370
     0
100
AcDbLine
 10
0.0
 20
0.0
 30
0.0
 11
2.500000000000002
 21
0.0
 31
0.0
  0
LINE
  5
1B3
330
1AD
100
AcDbEntity
  8
0
  6
Continuous
 62
     0
370
     0
100
AcDbLine
 10
0.0
 20
5.000000000000004
 30
0.0
 11
0.0
 21
5.499999999999976
 31
0.0
  0
LINE
  5
1B4
330
1AD
100
AcDbEntity
  8
0
  6
Continuous
 62
     0
370
     0
100
AcDbLine
 10
-5.000000000000004
 20
0.0
 30
0.0
 11
-5.500000000000005
 21
0.0
 31
0.0
  0
LINE
  5
1B5
330
1AD
100
AcDbEntity
  8
0
  6
Continuous
 62
     0
370
     0
100
AcDbLine
 10
0.0
 20
-5.000000000000004
 30
0.0
 11
0.0
 21
-5.500000000000005
 31
0.0
  0
LINE
  5
1B6
330
1AD
100
AcDbEntity
  8
0
  6
Continuous
 62
     0
370
     0
100
AcDbLine
 10
5.000000000000004
 20
0.0
 30
0.0
 11
5.499999999999976
 21
0.0
 31
0.0
  0
ENDBLK
  5
1B7
330
1AD
100
AcDbEntity
  8
0
100
AcDbBlockEnd
  0
BLOCK
  5
1B9
330
1B8
100
AcDbEntity
  8
0
100
AcDbBlockBegin
  2
SW_CENTERMARKSYMBOL_1
 70
     0
 10
0.0
 20
0.0
 30
0.0
  3
SW_CENTERMARKSYMBOL_1
  1

  0
LINE
  5
1BA
330
1B8
100
AcDbEntity
  8
0
  6
Continuous
 62
     0
370
     0
100
AcDbLine
 10
0.0
 20
0.0
 30
0.0
 11
0.0
 21
2.500000000000002
 31
0.0
  0
LINE
  5
1BB
330
1B8
100
AcDbEntity
  8
0
  6
Continuous
 62
     0
370
     0
100
AcDbLine
 10
0.0
 20
0.0
 30
0.0
 11
-2.500000000000002
 21
0.0
 31
0.0
  0
LINE
  5
1BC
330
1B8
100
AcDbEntity
  8
0
  6
Continuous
 62
     0
370
     0
100
AcDbLine
 10
0.0
 20
0.0
 30
0.0
 11
0.0
 21
-2.500000000000002
 31
0.0
  0
LINE
  5
1BD
330
1B8
100
AcDbEntity
  8
0
  6
Continuous
 62
     0
370
     0
100
AcDbLine
 10
0.0
 20
0.0
 30
0.0
 11
2.500000000000002
 21
0.0
 31
0.0
  0
LINE
  5
1BE
330
1B8
100
AcDbEntity
  8
0
  6
Continuous
 62
     0
370
     0
100
AcDbLine
 10
0.0
 20
5.000000000000004
 30
0.0
 11
0.0
 21
5.500000000000005
 31
0.0
  0
LINE
  5
1BF
330
1B8
100
AcDbEntity
  8
0
  6
Continuous
 62
     0
370
     0
100
AcDbLine
 10
-5.000000000000004
 20
0.0
 30
0.0
 11
-5.500000000000005
 21
0.0
 31
0.0
  0
LINE
  5
1C0
330
1B8
100
AcDbEntity
  8
0
  6
Continuous
 62
     0
370
     0
100
AcDbLine
 10
0.0
 20
-4.999999999999976
 30
0.0
 11
0.0
 21
-5.499999999999976
 31
0.0
  0
LINE
  5
1C1
330
1B8
100
AcDbEntity
  8
0
  6
Continuous
 62
     0
370
     0
100
AcDbLine
 10
5.000000000000004
 20
0.0
 30
0.0
 11
5.499999999999976
 21
0.0
 31
0.0
  0
ENDBLK
  5
1C2
330
1B8
100
AcDbEntity
  8
0
100
AcDbBlockEnd
  0
BLOCK
  5
1C4
330
1C3
100
AcDbEntity
  8
0
100
AcDbBlockBegin
  2
SW_CENTERMARKSYMBOL_2
 70
     0
 10
0.0
 20
0.0
 30
0.0
  3
SW_CENTERMARKSYMBOL_2
  1

  0
LINE
  5
1C5
330
1C3
100
AcDbEntity
  8
0
  6
Continuous
 62
     0
370
     0
100
AcDbLine
 10
0.0
 20
0.0
 30
0.0
 11
0.0
 21
2.499999999999974
 31
0.0
  0
LINE
  5
1C6
330
1C3
100
AcDbEntity
  8
0
  6
Continuous
 62
     0
370
     0
100
AcDbLine
 10
0.0
 20
0.0
 30
0.0
 11
-2.500000000000002
 21
0.0
 31
0.0
  0
LINE
  5
1C7
330
1C3
100
AcDbEntity
  8
0
  6
Continuous
 62
     0
370
     0
100
AcDbLine
 10
0.0
 20
0.0
 30
0.0
 11
0.0
 21
-2.500000000000002
 31
0.0
  0
LINE
  5
1C8
330
1C3
100
AcDbEntity
  8
0
  6
Continuous
 62
     0
370
     0
100
AcDbLine
 10
0.0
 20
0.0
 30
0.0
 11
2.500000000000002
 21
0.0
 31
0.0
  0
LINE
  5
1C9
330
1C3
100
AcDbEntity
  8
0
  6
Continuous
 62
     0
370
     0
100
AcDbLine
 10
0.0
 20
4.999999999999976
 30
0.0
 11
0.0
 21
5.499999999999976
 31
0.0
  0
LINE
  5
1CA
330
1C3
100
AcDbEntity
  8
0
  6
Continuous
 62
     0
370
     0
100
AcDbLine
 10
-5.000000000000004
 20
0.0
 30
0.0
 11
-5.500000000000005
 21
0.0
 31
0.0
  0
LINE
  5
1CB
330
1C3
100
AcDbEntity
  8
0
  6
Continuous
 62
     0
370
     0
100
AcDbLine
 10
0.0
 20
-5.000000000000004
 30
0.0
 11
0.0
 21
-5.500000000000005
 31
0.0
  0
LINE
  5
1CC
330
1C3
100
AcDbEntity
  8
0
  6
Continuous
 62
     0
370
     0
100
AcDbLine
 10
4.999999999999976
 20
0.0
 30
0.0
 11
5.499999999999976
 21
0.0
 31
0.0
  0
ENDBLK
  5
1CD
330
1C3
100
AcDbEntity
  8
0
100
AcDbBlockEnd
  0
BLOCK
  5
1CF
330
1CE
100
AcDbEntity
  8
0
100
AcDbBlockBegin
  2
SW_CENTERMARKSYMBOL_3
 70
     0
 10
0.0
 20
0.0
 30
0.0
  3
SW_CENTERMARKSYMBOL_3
  1

  0
LINE
  5
1D0
330
1CE
100
AcDbEntity
  8
0
  6
Continuous
 62
     0
370
     0
100
AcDbLine
 10
0.0
 20
0.0
 30
0.0
 11
0.0
 21
2.500000000000002
 31
0.0
  0
LINE
  5
1D1
330
1CE
100
AcDbEntity
  8
0
  6
Continuous
 62
     0
370
     0
100
AcDbLine
 10
0.0
 20
0.0
 30
0.0
 11
-2.500000000000002
 21
0.0
 31
0.0
  0
LINE
  5
1D2
330
1CE
100
AcDbEntity
  8
0
  6
Continuous
 62
     0
370
     0
100
AcDbLine
 10
0.0
 20
0.0
 30
0.0
 11
0.0
 21
-2.500000000000002
 31
0.0
  0
LINE
  5
1D3
330
1CE
100
AcDbEntity
  8
0
  6
Continuous
 62
     0
370
     0
100
AcDbLine
 10
0.0
 20
0.0
 30
0.0
 11
2.500000000000002
 21
0.0
 31
0.0
  0
LINE
  5
1D4
330
1CE
100
AcDbEntity
  8
0
  6
Continuous
 62
     0
370
     0
100
AcDbLine
 10
0.0
 20
5.000000000000004
 30
0.0
 11
0.0
 21
5.500000000000005
 31
0.0
  0
LINE
  5
1D5
330
1CE
100
AcDbEntity
  8
0
  6
Continuous
 62
     0
370
     0
100
AcDbLine
 10
-5.000000000000004
 20
0.0
 30
0.0
 11
-5.500000000000005
 21
0.0
 31
0.0
  0
LINE
  5
1D6
330
1CE
100
AcDbEntity
  8
0
  6
Continuous
 62
     0
370
     0
100
AcDbLine
 10
0.0
 20
-5.000000000000004
 30
0.0
 11
0.0
 21
-5.500000000000005
 31
0.0
  0
LINE
  5
1D7
330
1CE
100
AcDbEntity
  8
0
  6
Continuous
 62
     0
370
     0
100
AcDbLine
 10
4.999999999999976
 20
0.0
 30
0.0
 11
5.499999999999976
 21
0.0
 31
0.0
  0
ENDBLK
  5
1D8
330
1CE
100
AcDbEntity
  8
0
100
AcDbBlockEnd
  0
BLOCK
  5
1DA
330
1D9
100
AcDbEntity
  8
0
100
AcDbBlockBegin
  2
SW_CENTERMARKSYMBOL_4
 70
     0
 10
0.0
 20
0.0
 30
0.0
  3
SW_CENTERMARKSYMBOL_4
  1

  0
LINE
  5
1DB
330
1D9
100
AcDbEntity
  8
0
  6
Continuous
 62
     0
370
     0
100
AcDbLine
 10
0.0
 20
0.0
 30
0.0
 11
0.0
 21
2.500000000000002
 31
0.0
  0
LINE
  5
1DC
330
1D9
100
AcDbEntity
  8
0
  6
Continuous
 62
     0
370
     0
100
AcDbLine
 10
0.0
 20
0.0
 30
0.0
 11
-2.500000000000002
 21
0.0
 31
0.0
  0
LINE
  5
1DD
330
1D9
100
AcDbEntity
  8
0
  6
Continuous
 62
     0
370
     0
100
AcDbLine
 10
0.0
 20
0.0
 30
0.0
 11
0.0
 21
-2.500000000000002
 31
0.0
  0
LINE
  5
1DE
330
1D9
100
AcDbEntity
  8
0
  6
Continuous
 62
     0
370
     0
100
AcDbLine
 10
0.0
 20
0.0
 30
0.0
 11
2.500000000000002
 21
0.0
 31
0.0
  0
LINE
  5
1DF
330
1D9
100
AcDbEntity
  8
0
  6
Continuous
 62
     0
370
     0
100
AcDbLine
 10
0.0
 20
4.999999999999976
 30
0.0
 11
0.0
 21
6.649999999999989
 31
0.0
  0
LINE
  5
1E0
330
1D9
100
AcDbEntity
  8
0
  6
Continuous
 62
     0
370
     0
100
AcDbLine
 10
-5.000000000000004
 20
0.0
 30
0.0
 11
-6.650000000000017
 21
0.0
 31
0.0
  0
LINE
  5
1E1
330
1D9
100
AcDbEntity
  8
0
  6
Continuous
 62
     0
370
     0
100
AcDbLine
 10
0.0
 20
-5.000000000000004
 30
0.0
 11
0.0
 21
-6.650000000000017
 31
0.0
  0
LINE
  5
1E2
330
1D9
100
AcDbEntity
  8
0
  6
Continuous
 62
     0
370
     0
100
AcDbLine
 10
5.000000000000004
 20
0.0
 30
0.0
 11
6.649999999999989
 21
0.0
 31
0.0
  0
ENDBLK
  5
1E3
330
1D9
100
AcDbEntity
  8
0
100
AcDbBlockEnd
  0
BLOCK
  5
4E9
330
4E8
100
AcDbEntity
  8
0
100
AcDbBlockBegin
  2
1
 70
     0
 10
0.0
 20
0.0
 30
0.0
  3
1
  1

  0
LINE
  5
4EB
330
4E8
100
AcDbEntity
  8
0
  6
Continuous
 62
     7
370
    15
100
AcDbLine
 10
2126.546107476562
 20
1015.796878749994
 30
0.0
 11
2096.546108147114
 21
1015.796878749994
 31
0.0
  0
LINE
  5
4EC
330
4E8
100
AcDbEntity
  8
0
  6
Continuous
 62
     7
370
    15
100
AcDbLine
 10
2125.796107470042
 20
1015.046878743475
 30
0.0
 11
2126.546107476562
 21
1015.796878749994
 31
0.0
  0
LINE
  5
4ED
330
4E8
100
AcDbEntity
  8
0
  6
Continuous
 62
     7
370
    15
100
AcDbLine
 10
2125.796107470042
 20
1015.046878743475
 30
0.0
 11
2097.296107804387
 21
1015.046878743475
 31
0.0
  0
LINE
  5
4EE
330
4E8
100
AcDbEntity
  8
0
  6
Continuous
 62
     7
370
    15
100
AcDbLine
 10
2097.296107804387
 20
1015.046878743475
 30
0.0
 11
2096.546108147114
 21
1015.796878749994
 31
0.0
  0
LINE
  5
4EF
330
4E8
100
AcDbEntity
  8
0
  6
Continuous
 62
     7
370
    15
100
AcDbLine
 10
2096.546108147114
 20
1038.796878445452
 30
0.0
 11
2126.546107476562
 21
1038.796878445452
 31
0.0
  0
LINE
  5
4F0
330
4E8
100
AcDbEntity
  8
0
  6
Continuous
 62
     7
370
    15
100
AcDbLine
 10
2097.296107804387
 20
1039.546878102725
 30
0.0
 11
2096.546108147114
 21
1038.796878445452
 31
0.0
  0
LINE
  5
4F1
330
4E8
100
AcDbEntity
  8
0
  6
Continuous
 62
     7
370
    15
100
AcDbLine
 10
2097.296107804387
 20
1039.546878102725
 30
0.0
 11
2125.796107470042
 21
1039.546878102725
 31
0.0
  0
LINE
  5
4F2
330
4E8
100
AcDbEntity
  8
0
  6
Continuous
 62
     7
370
    15
100
AcDbLine
 10
2125.796107470042
 20
1039.546878102725
 30
0.0
 11
2126.546107476562
 21
1038.796878445452
 31
0.0
  0
LINE
  5
4F3
330
4E8
100
AcDbEntity
  8
0
  6
Continuous
 62
     7
370
    15
100
AcDbLine
 10
2126.546107476562
 20
1038.796878445452
 30
0.0
 11
2126.546107476562
 21
1015.796878749994
 31
0.0
  0
LINE
  5
4F4
330
4E8
100
AcDbEntity
  8
0
  6
Continuous
 62
     7
370
    15
100
AcDbLine
 10
2096.546108147114
 20
1038.796878445452
 30
0.0
 11
2096.546108147114
 21
1015.796878749994
 31
0.0
  0
ENDBLK
  5
4EA
330
4E8
100
AcDbEntity
  8
0
100
AcDbBlockEnd
  0
BLOCK
  5
4F7
330
4F6
100
AcDbEntity
  8
0
100
AcDbBlockBegin
  2
2
 70
     0
 10
0.0
 20
0.0
 30
0.0
  3
2
  1

  0
LINE
  5
4F9
330
4F6
100
AcDbEntity
  8
0
  6
Continuous
 62
     7
370
    15
100
AcDbLine
 10
2072.684723799435
 20
1015.796878749994
 30
0.0
 11
2038.684721951691
 21
1015.796878749994
 31
0.0
  0
LINE
  5
4FA
330
4F6
100
AcDbEntity
  8
0
  6
Continuous
 62
     7
370
    15
100
AcDbLine
 10
2038.684721951691
 20
1038.796878445452
 30
0.0
 11
2038.684721951691
 21
1015.796878749994
 31
0.0
  0
LINE
  5
4FB
330
4F6
100
AcDbEntity
  8
0
  6
Continuous
 62
     7
370
    15
100
AcDbLine
 10
2038.684721951691
 20
1038.796878445452
 30
0.0
 11
2072.684723799435
 21
1038.796878445452
 31
0.0
  0
LINE
  5
4FC
330
4F6
100
AcDbEntity
  8
0
  6
Continuous
 62
     7
370
    15
100
AcDbLine
 10
2072.684723799435
 20
1015.796878749994
 30
0.0
 11
2072.684723799435
 21
1038.796878445452
 31
0.0
  0
ARC
  5
4FD
330
4F6
100
AcDbEntity
  8
0
  6
Continuous
 62
     7
370
    15
100
AcDbCircle
 10
2064.184723799435
 20
1025.346878743475
 30
0.0
 40
3.75
100
AcDbArc
 50
180.0
 51
0.0
  0
LINE
  5
4FE
330
4F6
100
AcDbEntity
  8
0
  6
Continuous
 62
     7
370
    15
100
AcDbLine
 10
2067.934723952172
 20
1025.34687894166
 30
0.0
 11
2067.934723952172
 21
1030.796878996795
 31
0.0
  0
LINE
  5
4FF
330
4F6
100
AcDbEntity
  8
0
  6
Continuous
 62
     7
370
    15
100
AcDbLine
 10
2067.934723952172
 20
1030.796878996795
 30
0.0
 11
2060.43472411981
 21
1030.796878996795
 31
0.0
  0
LINE
  5
500
330
4F6
100
AcDbEntity
  8
0
  6
Continuous
 62
     7
370
    15
100
AcDbLine
 10
2060.43472411981
 20
1030.796878996795
 30
0.0
 11
2060.43472411981
 21
1025.34687894166
 31
0.0
  0
ARC
  5
501
330
4F6
100
AcDbEntity
  8
0
  6
Continuous
 62
     7
370
    15
100
AcDbCircle
 10
2047.184723799436
 20
1025.346878743475
 30
0.0
 40
3.75
100
AcDbArc
 50
180.0
 51
0.0
  0
LINE
  5
502
330
4F6
100
AcDbEntity
  8
0
  6
Continuous
 62
     7
370
    15
100
AcDbLine
 10
2050.934724425284
 20
1025.34687894166
 30
0.0
 11
2050.934724425284
 21
1030.796878996795
 31
0.0
  0
LINE
  5
503
330
4F6
100
AcDbEntity
  8
0
  6
Continuous
 62
     7
370
    15
100
AcDbLine
 10
2050.934724425284
 20
1030.796878996795
 30
0.0
 11
2043.434724127261
 21
1030.796878996795
 31
0.0
  0
LINE
  5
504
330
4F6
100
AcDbEntity
  8
0
  6
Continuous
 62
     7
370
    15
100
AcDbLine
 10
2043.434724127261
 20
1030.796878996795
 30
0.0
 11
2043.434724127261
 21
1025.34687894166
 31
0.0
  0
LINE
  5
505
330
4F6
100
AcDbEntity
  8
0
  6
Continuous
 62
     7
370
    15
100
AcDbLine
 10
2072.684723799435
 20
1015.796878749994
 30
0.0
 11
2071.934723792916
 21
1015.046878743475
 31
0.0
  0
LINE
  5
506
330
4F6
100
AcDbEntity
  8
0
  6
Continuous
 62
     7
370
    15
100
AcDbLine
 10
2071.934723792916
 20
1015.046878743475
 30
0.0
 11
2039.43472347161
 21
1015.046878743475
 31
0.0
  0
LINE
  5
507
330
4F6
100
AcDbEntity
  8
0
  6
Continuous
 62
     7
370
    15
100
AcDbLine
 10
2039.43472347161
 20
1015.046878743475
 30
0.0
 11
2038.684721951691
 21
1015.796878749994
 31
0.0
  0
LINE
  5
508
330
4F6
100
AcDbEntity
  8
0
  6
Continuous
 62
     7
370
    15
100
AcDbLine
 10
2039.43472347161
 20
1039.546878102725
 30
0.0
 11
2071.934723792916
 21
1039.546878102725
 31
0.0
  0
LINE
  5
509
330
4F6
100
AcDbEntity
  8
0
  6
Continuous
 62
     7
370
    15
100
AcDbLine
 10
2072.684723799435
 20
1038.796878445452
 30
0.0
 11
2071.934723792916
 21
1039.546878102725
 31
0.0
  0
LINE
  5
50A
330
4F6
100
AcDbEntity
  8
0
  6
Continuous
 62
     7
370
    15
100
AcDbLine
 10
2039.43472347161
 20
1039.546878102725
 30
0.0
 11
2038.684721951691
 21
1038.796878445452
 31
0.0
  0
LINE
  5
50B
330
4F6
100
AcDbEntity
  8
0
  6
Continuous
 62
     7
370
    15
100
AcDbLine
 10
2060.884723355381
 20
1029.146879937058
 30
0.0
 11
2066.484723621366
 21
1029.146879937058
 31
0.0
  0
LINE
  5
50C
330
4F6
100
AcDbEntity
  8
0
  6
Continuous
 62
     7
370
    15
100
AcDbLine
 10
2060.884723355381
 20
1029.946880440717
 30
0.0
 11
2060.884723355381
 21
1029.146879937058
 31
0.0
  0
LINE
  5
50D
330
4F6
100
AcDbEntity
  8
0
  6
Continuous
 62
     7
370
    15
100
AcDbLine
 10
2066.584723917154
 20
1029.946880440717
 30
0.0
 11
2060.884723355381
 21
1029.946880440717
 31
0.0
  0
ARC
  5
50E
330
4F6
100
AcDbEntity
  8
0
  6
Continuous
 62
     7
370
    15
100
AcDbCircle
 10
2066.584723799435
 20
1028.746880049348
 30
0.0
 40
1.199999999999903
100
AcDbArc
 50
0.0
 51
89.99999999994789
  0
LINE
  5
50F
330
4F6
100
AcDbEntity
  8
0
  6
Continuous
 62
     7
370
    15
100
AcDbLine
 10
2067.784723741321
 20
1025.34687894166
 30
0.0
 11
2067.784723741321
 21
1028.746879685228
 31
0.0
  0
LINE
  5
510
330
4F6
100
AcDbEntity
  8
0
  6
Continuous
 62
     7
370
    15
100
AcDbLine
 10
2060.584723865
 20
1028.046879943018
 30
0.0
 11
2060.584723865
 21
1025.34687894166
 31
0.0
  0
ARC
  5
511
330
4F6
100
AcDbEntity
  8
0
  6
Continuous
 62
     7
370
    15
100
AcDbCircle
 10
2061.584723799436
 20
1028.046880049347
 30
0.0
 40
1.0
100
AcDbArc
 50
90.00000000011725
 51
180.0
  0
LINE
  5
512
330
4F6
100
AcDbEntity
  8
0
  6
Continuous
 62
     7
370
    15
100
AcDbLine
 10
2066.484723621366
 20
1029.046880106931
 30
0.0
 11
2061.584724028913
 21
1029.046880106931
 31
0.0
  0
LINE
  5
513
330
4F6
100
AcDbEntity
  8
0
  6
Continuous
 62
     7
370
    15
100
AcDbLine
 10
2066.484723621366
 20
1029.146879937058
 30
0.0
 11
2066.484723621366
 21
1029.046880106931
 31
0.0
  0
LINE
  5
514
330
4F6
100
AcDbEntity
  8
0
  6
Continuous
 62
     7
370
    15
100
AcDbLine
 10
2066.634723832218
 20
1028.146879773145
 30
0.0
 11
2061.98472334942
 21
1028.146879773145
 31
0.0
  0
ARC
  5
515
330
4F6
100
AcDbEntity
  8
0
  6
Continuous
 62
     7
370
    15
100
AcDbCircle
 10
2061.984723799435
 20
1027.546880049348
 30
0.0
 40
0.5999999999999659
100
AcDbArc
 50
90.0
 51
180.0
  0
LINE
  5
516
330
4F6
100
AcDbEntity
  8
0
  6
Continuous
 62
     7
370
    15
100
AcDbLine
 10
2061.384723437337
 20
1027.546879861062
 30
0.0
 11
2061.384723437337
 21
1025.34687894166
 31
0.0
  0
ARC
  5
517
330
4F6
100
AcDbEntity
  8
0
  6
Continuous
 62
     7
370
    15
100
AcDbCircle
 10
2064.184723799435
 20
1025.346878743475
 30
0.0
 40
2.800000000000011
100
AcDbArc
 50
180.0
 51
0.0000074820943846
  0
LINE
  5
518
330
4F6
100
AcDbEntity
  8
0
  6
Continuous
 62
     7
370
    15
100
AcDbLine
 10
2066.984723703323
 20
1025.34687894166
 30
0.0
 11
2066.984723703323
 21
1027.796880367702
 31
0.0
  0
ARC
  5
519
330
4F6
100
AcDbEntity
  8
0
  6
Continuous
 62
     7
370
    15
100
AcDbCircle
 10
2066.634723799435
 20
1027.796880049347
 30
0.0
 40
0.3499999999999943
100
AcDbArc
 50
0.0
 51
90.0
  0
ARC
  5
51A
330
4F6
100
AcDbEntity
  8
0
  6
Continuous
 62
     7
370
    15
100
AcDbCircle
 10
2064.184723799435
 20
1025.346878743475
 30
0.0
 40
3.599999999999965
100
AcDbArc
 50
179.9999946556422
 51
0.0
  0
LINE
  5
51B
330
4F6
100
AcDbEntity
  8
0
  6
Continuous
 62
     7
370
    15
100
AcDbLine
 10
2049.484724094478
 20
1028.946880276804
 30
0.0
 11
2044.584723105041
 21
1028.946880276804
 31
0.0
  0
LINE
  5
51C
330
4F6
100
AcDbEntity
  8
0
  6
Continuous
 62
     7
370
    15
100
AcDbLine
 10
2049.484724094478
 20
1029.146879937058
 30
0.0
 11
2049.484724094478
 21
1028.946880276804
 31
0.0
  0
LINE
  5
51D
330
4F6
100
AcDbEntity
  8
0
  6
Continuous
 62
     7
370
    15
100
AcDbLine
 10
2043.884724294154
 20
1029.146879937058
 30
0.0
 11
2049.484724094478
 21
1029.146879937058
 31
0.0
  0
LINE
  5
51E
330
4F6
100
AcDbEntity
  8
0
  6
Continuous
 62
     7
370
    15
100
AcDbLine
 10
2043.884724294154
 20
1029.946880440717
 30
0.0
 11
2043.884724294154
 21
1029.146879937058
 31
0.0
  0
LINE
  5
51F
330
4F6
100
AcDbEntity
  8
0
  6
Continuous
 62
     7
370
    15
100
AcDbLine
 10
2049.584723924605
 20
1029.946880440717
 30
0.0
 11
2043.884724294154
 21
1029.946880440717
 31
0.0
  0
ARC
  5
520
330
4F6
100
AcDbEntity
  8
0
  6
Continuous
 62
     7
370
    15
100
AcDbCircle
 10
2049.584723799435
 20
1028.746880049348
 30
0.0
 40
1.199999999999874
100
AcDbArc
 50
0.0
 51
89.99999999994789
  0
ARC
  5
521
330
4F6
100
AcDbEntity
  8
0
  6
Continuous
 62
     7
370
    15
100
AcDbCircle
 10
2047.184723799436
 20
1025.346878743475
 30
0.0
 40
3.599999999999994
100
AcDbArc
 50
179.9999946556422
 51
0.0
  0
LINE
  5
522
330
4F6
100
AcDbEntity
  8
0
  6
Continuous
 62
     7
370
    15
100
AcDbLine
 10
2043.584722941128
 20
1027.946880112892
 30
0.0
 11
2043.584722941128
 21
1025.34687894166
 31
0.0
  0
ARC
  5
523
330
4F6
100
AcDbEntity
  8
0
  6
Continuous
 62
     7
370
    15
100
AcDbCircle
 10
2044.584723799436
 20
1027.946880049348
 30
0.0
 40
1.0
100
AcDbArc
 50
90.0
 51
179.9999999999935
  0
LINE
  5
524
330
4F6
100
AcDbEntity
  8
0
  6
Continuous
 62
     7
370
    15
100
AcDbLine
 10
2049.634722908346
 20
1028.146879773145
 30
0.0
 11
2044.984724288193
 21
1028.146879773145
 31
0.0
  0
ARC
  5
525
330
4F6
100
AcDbEntity
  8
0
  6
Continuous
 62
     7
370
    15
100
AcDbCircle
 10
2044.984723799435
 20
1027.546880049348
 30
0.0
 40
0.5999999999999659
100
AcDbArc
 50
90.0
 51
180.0
  0
LINE
  5
526
330
4F6
100
AcDbEntity
  8
0
  6
Continuous
 62
     7
370
    15
100
AcDbLine
 10
2044.384723444788
 20
1027.546879861062
 30
0.0
 11
2044.384723444788
 21
1025.34687894166
 31
0.0
  0
ARC
  5
527
330
4F6
100
AcDbEntity
  8
0
  6
Continuous
 62
     7
370
    15
100
AcDbCircle
 10
2047.184723799436
 20
1025.346878743475
 30
0.0
 40
2.800000000000035
100
AcDbArc
 50
180.0
 51
0.0000074820943846
  0
LINE
  5
528
330
4F6
100
AcDbEntity
  8
0
  6
Continuous
 62
     7
370
    15
100
AcDbLine
 10
2049.984723245112
 20
1025.34687894166
 30
0.0
 11
2049.984723245112
 21
1027.796880367702
 31
0.0
  0
ARC
  5
529
330
4F6
100
AcDbEntity
  8
0
  6
Continuous
 62
     7
370
    15
100
AcDbCircle
 10
2049.634723799435
 20
1027.796880049347
 30
0.0
 40
0.3500000000000227
100
AcDbArc
 50
0.0
 51
90.0
  0
LINE
  5
52A
330
4F6
100
AcDbEntity
  8
0
  6
Continuous
 62
     7
370
    15
100
AcDbLine
 10
2050.784723748771
 20
1025.34687894166
 30
0.0
 11
2050.784723748771
 21
1028.746879685228
 31
0.0
  0
ENDBLK
  5
4F8
330
4F6
100
AcDbEntity
  8
0
100
AcDbBlockEnd
  0
BLOCK
  5
52D
330
52C
100
AcDbEntity
  8
0
100
AcDbBlockBegin
  2
3
 70
     0
 10
0.0
 20
0.0
 30
0.0
  3
3
  1

  0
LINE
  5
52F
330
52C
100
AcDbEntity
  8
0
  6
Continuous
 62
     7
370
    15
100
AcDbLine
 10
2125.796107470042
 20
960.2350644621612
 30
0.0
 11
2125.796107470042
 21
992.7350647834675
 31
0.0
  0
LINE
  5
530
330
52C
100
AcDbEntity
  8
0
  6
Continuous
 62
     7
370
    15
100
AcDbLine
 10
2126.546107476562
 20
993.4850647899867
 30
0.0
 11
2125.796107470042
 21
992.7350647834675
 31
0.0
  0
LINE
  5
531
330
52C
100
AcDbEntity
  8
0
  6
Continuous
 62
     7
370
    15
100
AcDbLine
 10
2126.546107476562
 20
959.4850629422428
 30
0.0
 11
2126.546107476562
 21
993.4850647899867
 31
0.0
  0
LINE
  5
532
330
52C
100
AcDbEntity
  8
0
  6
Continuous
 62
     7
370
    15
100
AcDbLine
 10
2125.796107470042
 20
960.2350644621612
 30
0.0
 11
2126.546107476562
 21
959.4850629422428
 31
0.0
  0
LINE
  5
533
330
52C
100
AcDbEntity
  8
0
  6
Continuous
 62
     7
370
    15
100
AcDbLine
 10
2096.546108147114
 20
993.4850647899867
 30
0.0
 11
2096.546108147114
 21
959.4850629422428
 31
0.0
  0
LINE
  5
534
330
52C
100
AcDbEntity
  8
0
  6
Continuous
 62
     7
370
    15
100
AcDbLine
 10
2097.296107804387
 20
992.7350647834675
 30
0.0
 11
2096.546108147114
 21
993.4850647899867
 31
0.0
  0
LINE
  5
535
330
52C
100
AcDbEntity
  8
0
  6
Continuous
 62
     7
370
    15
100
AcDbLine
 10
2097.296107804387
 20
992.7350647834675
 30
0.0
 11
2097.296107804387
 21
960.2350644621612
 31
0.0
  0
LINE
  5
536
330
52C
100
AcDbEntity
  8
0
  6
Continuous
 62
     7
370
    15
100
AcDbLine
 10
2097.296107804387
 20
960.2350644621612
 30
0.0
 11
2096.546108147114
 21
959.4850629422428
 31
0.0
  0
LINE
  5
537
330
52C
100
AcDbEntity
  8
0
  6
Continuous
 62
     7
370
    15
100
AcDbLine
 10
2126.546107476562
 20
993.4850647899867
 30
0.0
 11
2096.546108147114
 21
993.4850647899867
 31
0.0
  0
LINE
  5
538
330
52C
100
AcDbEntity
  8
0
  6
Continuous
 62
     7
370
    15
100
AcDbLine
 10
2125.796107470042
 20
992.7350647834675
 30
0.0
 11
2097.296107804387
 21
992.7350647834675
 31
0.0
  0
LINE
  5
539
330
52C
100
AcDbEntity
  8
0
  6
Continuous
 62
     7
370
    15
100
AcDbLine
 10
2097.296107804387
 20
960.2350644621612
 30
0.0
 11
2125.796107470042
 21
960.2350644621612
 31
0.0
  0
CIRCLE
  5
53A
330
52C
100
AcDbEntity
  8
0
  6
Continuous
 62
     7
370
    15
100
AcDbCircle
 10
2116.196107476562
 20
967.9850647899867
 30
0.0
 40
3.0
  0
CIRCLE
  5
53B
330
52C
100
AcDbEntity
  8
0
  6
Continuous
 62
     7
370
    15
100
AcDbCircle
 10
2106.896107476562
 20
967.9850647899867
 30
0.0
 40
3.0
  0
CIRCLE
  5
53C
330
52C
100
AcDbEntity
  8
0
  6
Continuous
 62
     7
370
    15
100
AcDbCircle
 10
2106.896107476562
 20
984.9850647899868
 30
0.0
 40
2.999999999999971
  0
CIRCLE
  5
53D
330
52C
100
AcDbEntity
  8
0
  6
Continuous
 62
     7
370
    15
100
AcDbCircle
 10
2116.196107476562
 20
984.9850647899868
 30
0.0
 40
3.0
  0
CIRCLE
  5
53E
330
52C
100
AcDbEntity
  8
0
  6
Continuous
 62
     7
370
    15
100
AcDbCircle
 10
2111.546107476562
 20
976.4850647899868
 30
0.0
 40
4.149999999999977
  0
LINE
  5
53F
330
52C
100
AcDbEntity
  8
0
  6
Continuous
 62
     7
370
    15
100
AcDbLine
 10
2096.546108147114
 20
959.4850629422428
 30
0.0
 11
2126.546107476562
 21
959.4850629422428
 31
0.0
  0
LINE
  5
540
330
52C
100
AcDbEntity
  8
0
  6
Continuous
 62
     7
370
    15
100
AcDbLine
 10
2115.04610745421
 20
978.5057907778384
 30
0.0
 11
2115.04610745421
 21
974.4643397483589
 31
0.0
  0
LINE
  5
541
330
52C
100
AcDbEntity
  8
0
  6
Continuous
 62
     7
370
    15
100
AcDbLine
 10
2108.046107238143
 20
974.4643397483589
 30
0.0
 11
2108.046107238143
 21
978.5057907778384
 31
0.0
  0
LINE
  5
542
330
52C
100
AcDbEntity
  8
0
  6
Continuous
 62
     7
370
    15
100
AcDbLine
 10
2111.546107811838
 20
972.4436137679578
 30
0.0
 11
2108.046107238143
 21
974.4643397483589
 31
0.0
  0
LINE
  5
543
330
52C
100
AcDbEntity
  8
0
  6
Continuous
 62
     7
370
    15
100
AcDbLine
 10
2115.04610745421
 20
974.4643397483589
 30
0.0
 11
2111.546107811838
 21
972.4436137679578
 31
0.0
  0
LINE
  5
544
330
52C
100
AcDbEntity
  8
0
  6
Continuous
 62
     7
370
    15
100
AcDbLine
 10
2108.046107238143
 20
978.5057907778384
 30
0.0
 11
2111.546107811838
 21
980.5265167582394
 31
0.0
  0
LINE
  5
545
330
52C
100
AcDbEntity
  8
0
  6
Continuous
 62
     7
370
    15
100
AcDbLine
 10
2111.546107811838
 20
980.5265167582394
 30
0.0
 11
2115.04610745421
 21
978.5057907778384
 31
0.0
  0
SPLINE
  5
546
330
52C
100
AcDbEntity
  8
0
  6
Continuous
 62
     7
370
    15
100
AcDbSpline
210
0.0
220
0.0
230
1.0
 70
     8
 71
     3
 72
    10
 73
     6
 74
     0
 42
0.0000000001
 43
0.0000000001
 40
0.0
 40
0.0
 40
0.0
 40
0.0
 40
0.5
 40
0.5
 40
1.0
 40
1.0
 40
1.0
 40
1.0
 10
2115.696107476562
 20
986.9303309196071
 30
0.0
 10
2115.696107476562
 20
987.0065377548062
 30
0.0
 10
2115.69707071135
 20
987.0810282289667
 30
0.0
 10
2115.700553083973
 20
987.1950609030088
 30
0.0
 10
2115.703023293227
 20
987.2323469118978
 30
0.0
 10
2115.705672597326
 20
987.239701193058
 30
0.0
  0
SPLINE
  5
547
330
52C
100
AcDbEntity
  8
0
  6
Continuous
 62
     7
370
    15
100
AcDbSpline
210
0.0
220
0.0
230
1.0
 70
     8
 71
     3
 72
     8
 73
     4
 74
     0
 42
0.0000000001
 43
0.0000000001
 40
0.0000000000000044
 40
0.0000000000000044
 40
0.0000000000000044
 40
0.0000000000000044
 40
0.0006674565865846
 40
0.0006674565865846
 40
0.0006674565865846
 40
0.0006674565865846
 10
2115.705672597326
 20
987.2397011930608
 30
0.0
 10
2115.713400904277
 20
987.2611971470968
 30
0.0
 10
2115.721129539606
 20
987.2825963549061
 30
0.0
 10
2115.728858472936
 20
987.3039066037751
 30
0.0
  0
LINE
  5
548
330
52C
100
AcDbEntity
  8
0
  6
Continuous
 62
     7
370
    15
100
AcDbLine
 10
2115.728858171015
 20
987.3039066645862
 30
0.0
 11
2115.738012140601
 21
987.2964011359574
 31
0.0
  0
LINE
  5
549
330
52C
100
AcDbEntity
  8
0
  6
Continuous
 62
     7
370
    15
100
AcDbLine
 10
2115.738012140601
 20
987.2964011359574
 30
0.0
 11
2115.738012140601
 21
985.6700604635836
 31
0.0
  0
SPLINE
  5
54A
330
52C
100
AcDbEntity
  8
0
  6
Continuous
 62
     7
370
    15
100
AcDbSpline
210
0.0
220
0.0
230
1.0
 70
     8
 71
     3
 72
     8
 73
     4
 74
     0
 42
0.0000000001
 43
0.0000000001
 40
0.0000000000000075
 40
0.0000000000000075
 40
0.0000000000000075
 40
0.0000000000000075
 40
0.0012009335949178
 40
0.0012009335949178
 40
0.0012009335949178
 40
0.0012009335949178
 10
2115.738012399952
 20
985.6700608248718
 30
0.0
 10
2115.724044168383
 20
985.6775234185194
 30
0.0
 10
2115.710075857052
 20
985.6848642533424
 30
0.0
 10
2115.696107476562
 20
985.6920943633003
 30
0.0
  0
LINE
  5
54B
330
52C
100
AcDbEntity
  8
0
  6
Continuous
 62
     7
370
    15
100
AcDbLine
 10
2115.696107281356
 20
985.6920941587151
 30
0.0
 11
2115.696107281356
 21
986.9303308281661
 31
0.0
  0
ARC
  5
54C
330
52C
100
AcDbEntity
  8
0
  6
Continuous
 62
     7
370
    15
100
AcDbCircle
 10
2116.196107476562
 20
984.9850647899867
 30
0.0
 40
2.307360327481398
100
AcDbArc
 50
102.2719690442069
 51
257.7280309558058
  0
SPLINE
  5
54D
330
52C
100
AcDbEntity
  8
0
  6
Continuous
 62
     7
370
    15
100
AcDbSpline
210
0.0
220
0.0
230
1.0
 70
     8
 71
     3
 72
    21
 73
    17
 74
     0
 42
0.0000000001
 43
0.0000000001
 40
0.0
 40
0.0
 40
0.0
 40
0.0
 40
0.0405701521715524
 40
0.0811400626193858
 40
0.1217111440359501
 40
0.2430140596924422
 40
0.3075891932120148
 40
0.3716486082559487
 40
0.4999687411858006
 40
0.6284877090032551
 40
0.6924972634398633
 40
0.7569238653179739
 40
0.8328788174512592
 40
0.8987110818955333
 40
0.9544187625074194
 40
1.0
 40
1.0
 40
1.0
 40
1.0
 10
2114.187610447675
 20
984.9850647899867
 30
0.0
 10
2114.18817447332
 20
985.0208799244201
 30
0.0
 10
2114.189302521249
 20
985.0925099798946
 30
0.0
 10
2114.198205141544
 20
985.1996558824069
 30
0.0
 10
2114.221620925485
 20
985.3768475227932
 30
0.0
 10
2114.269942826176
 20
985.5719142668611
 30
0.0
 10
2114.348197793612
 20
985.7783926449624
 30
0.0
 10
2114.446351403328
 20
985.9831588389646
 30
0.0
 10
2114.601556541712
 20
986.2218143054702
 30
0.0
 10
2114.794085463325
 20
986.4314733955882
 30
0.0
 10
2114.967943871182
 20
986.5775188846182
 30
0.0
 10
2115.115618355412
 20
986.6815276127388
 30
0.0
 10
2115.273653201906
 20
986.7725132667878
 30
0.0
 10
2115.432470990993
 20
986.84484593372
 30
0.0
 10
2115.57111135308
 20
986.8957912617103
 30
0.0
 10
2115.657314857552
 20
986.9196115168591
 30
0.0
 10
2115.696107476562
 20
986.9303309196071
 30
0.0
  0
SPLINE
  5
54E
330
52C
100
AcDbEntity
  8
0
  6
Continuous
 62
     7
370
    15
100
AcDbSpline
210
0.0
220
0.0
230
1.0
 70
     8
 71
     3
 72
    21
 73
    17
 74
     0
 42
0.0000000001
 43
0.0000000001
 40
0.0
 40
0.0
 40
0.0
 40
0.0
 40
0.0405701543487632
 40
0.081140066973793
 40
0.121711150567616
 40
0.243014072734668
 40
0.3075892097189329
 40
0.3716486282005257
 40
0.4999687680184229
 40
0.6284877427317223
 40
0.6924973006040382
 40
0.7569239059410316
 40
0.8329345851982141
 40
0.8987854318791672
 40
0.9544745291192887
 40
0.9999999999999998
 40
0.9999999999999998
 40
0.9999999999999998
 40
0.9999999999999998
 10
2115.696107476562
 20
983.0397986603664
 30
0.0
 10
2115.661560273295
 20
983.0492608337857
 30
0.0
 10
2115.592466072598
 20
983.0681851242474
 30
0.0
 10
2115.490909544506
 20
983.1034806292748
 30
0.0
 10
2115.325125378667
 20
983.1702697505274
 30
0.0
 10
2115.148229035376
 20
983.2656307722071
 30
0.0
 10
2114.967731924133
 20
983.3928233560797
 30
0.0
 10
2114.793846709471
 20
983.5388619036796
 30
0.0
 10
2114.601341657473
 20
983.7485923787903
 30
0.0
 10
2114.446211594271
 20
983.9872531855656
 30
0.0
 10
2114.348044593684
 20
984.1919951587611
 30
0.0
 10
2114.284055215137
 20
984.3609587843188
 30
0.0
 10
2114.235264265571
 20
984.5367342112826
 30
0.0
 10
2114.204751265346
 20
984.7086100308651
 30
0.0
 10
2114.18994130324
 20
984.8555203026391
 30
0.0
 10
2114.188333585667
 20
984.9448741656239
 30
0.0
 10
2114.187610447675
 20
984.9850647899868
 30
0.0
  0
SPLINE
  5
54F
330
52C
100
AcDbEntity
  8
0
  6
Continuous
 62
     7
370
    15
100
AcDbSpline
210
0.0
220
0.0
230
1.0
 70
     8
 71
     3
 72
    10
 73
     6
 74
     0
 42
0.0000000001
 43
0.0000000001
 40
0.0
 40
0.0
 40
0.0
 40
0.0
 40
0.5
 40
0.5
 40
1.0
 40
1.0
 40
1.0
 40
1.0
 10
2115.705672597326
 20
982.7304283869155
 30
0.0
 10
2115.703025248727
 20
982.7377772397452
 30
0.0
 10
2115.700548681189
 20
982.7752634431497
 30
0.0
 10
2115.697081364589
 20
982.8887020005252
 30
0.0
 10
2115.696107476562
 20
982.9636448978725
 30
0.0
 10
2115.696107476562
 20
983.0397986603664
 30
0.0
  0
SPLINE
  5
550
330
52C
100
AcDbEntity
  8
0
  6
Continuous
 62
     7
370
    15
100
AcDbSpline
210
0.0
220
0.0
230
1.0
 70
     8
 71
     3
 72
    10
 73
     6
 74
     0
 42
0.0000000001
 43
0.0000000001
 40
0.0
 40
0.0
 40
0.0
 40
0.0
 40
0.5
 40
0.5
 40
1.0
 40
1.0
 40
1.0
 40
1.0
 10
2116.696107476562
 20
983.0397986603664
 30
0.0
 10
2116.696107476562
 20
982.9635918251671
 30
0.0
 10
2116.695144241774
 20
982.8891013510068
 30
0.0
 10
2116.691661869152
 20
982.7750686769647
 30
0.0
 10
2116.689191659897
 20
982.7377826680757
 30
0.0
 10
2116.686542355798
 20
982.7304283869155
 30
0.0
  0
SPLINE
  5
551
330
52C
100
AcDbEntity
  8
0
  6
Continuous
 62
     7
370
    15
100
AcDbSpline
210
0.0
220
0.0
230
1.0
 70
     8
 71
     3
 72
    30
 73
    26
 74
     0
 42
0.0000000001
 43
0.0000000001
 40
0.0
 40
0.0
 40
0.0
 40
0.0
 40
0.0251855552846775
 40
0.0503706729621537
 40
0.07555579063963
 40
0.1007413459243074
 40
0.1502674209125953
 40
0.2196343773543369
 40
0.2872661166608473
 40
0.3548001647802044
 40
0.3913124106380747
 40
0.4274632722392325
 40
0.4999452724587733
 40
0.5364574804380956
 40
0.5726083377809938
 40
0.645090304153606
 40
0.6790880746692315
 40
0.7127894537699991
 40
0.7803235436100067
 40
0.8398256671230996
 40
0.8694705381174877
 40
0.8992757335513449
 40
0.9405939360630288
 40
0.9741696342747919
 40
1.0
 40
1.0
 40
1.0
 40
1.0
 10
2116.696107476562
 20
986.930330919607
 30
0.0
 10
2116.738951472949
 20
986.918417600534
 30
0.0
 10
2116.824638721293
 20
986.8945911693858
 30
0.0
 10
2116.949816871492
 20
986.8481797019374
 30
0.0
 10
2117.071844888309
 20
986.7941930914426
 30
0.0
 10
2117.22803817121
 20
986.7121233128525
 30
0.0
 10
2117.441084098723
 20
986.5719204334995
 30
0.0
 10
2117.685553189561
 20
986.3485862596505
 30
0.0
 10
2117.90583059794
 20
986.0602010630199
 30
0.0
 10
2118.043852384473
 20
985.7884777712909
 30
0.0
 10
2118.125552077302
 20
985.5545638778174
 30
0.0
 10
2118.186647028607
 20
985.305423747215
 30
0.0
 10
2118.210621319715
 20
985.0484940124259
 30
0.0
 10
2118.198586861997
 20
984.7922960166886
 30
0.0
 10
2118.162150359939
 20
984.5383695832961
 30
0.0
 10
2118.089664867621
 20
984.2953609762385
 30
0.0
 10
2117.987139912635
 20
984.0699239690222
 30
0.0
 10
2117.869237098076
 20
983.8620420354176
 30
0.0
 10
2117.695970310725
 20
983.6353345716707
 30
0.0
 10
2117.493506999691
 20
983.4452592625281
 30
0.0
 10
2117.324239163544
 20
983.3207193499672
 30
0.0
 10
2117.173014449153
 20
983.2267435524151
 30
0.0
 10
2117.007238730032
 20
983.1443212540015
 30
0.0
 10
2116.841074685179
 20
983.0802327975423
 30
0.0
 10
2116.740038880442
 20
983.052051972186
 30
0.0
 10
2116.696107476562
 20
983.0397986603664
 30
0.0
  0
SPLINE
  5
552
330
52C
100
AcDbEntity
  8
0
  6
Continuous
 62
     7
370
    15
100
AcDbSpline
210
0.0
220
0.0
230
1.0
 70
     8
 71
     3
 72
    10
 73
     6
 74
     0
 42
0.0000000001
 43
0.0000000001
 40
0.0
 40
0.0
 40
0.0
 40
0.0
 40
0.5
 40
0.5
 40
1.0
 40
1.0
 40
1.0
 40
1.0
 10
2116.686542355798
 20
987.239701193058
 30
0.0
 10
2116.689189704397
 20
987.2323523402283
 30
0.0
 10
2116.691666271934
 20
987.1948661368238
 30
0.0
 10
2116.695133588535
 20
987.0814275794483
 30
0.0
 10
2116.696107476562
 20
987.006484682101
 30
0.0
 10
2116.696107476562
 20
986.9303309196073
 30
0.0
  0
ARC
  5
553
330
52C
100
AcDbEntity
  8
0
  6
Continuous
 62
     7
370
    15
100
AcDbCircle
 10
2116.196107476562
 20
984.9850647899867
 30
0.0
 40
2.307360327481418
100
AcDbArc
 50
282.2719690442069
 51
77.72803095579312
  0
SPLINE
  5
554
330
52C
100
AcDbEntity
  8
0
  6
Continuous
 62
     7
370
    15
100
AcDbSpline
210
0.0
220
0.0
230
1.0
 70
     8
 71
     3
 72
    10
 73
     6
 74
     0
 42
0.0000000001
 43
0.0000000001
 40
0.0
 40
0.0
 40
0.0
 40
0.0
 40
0.5
 40
0.5
 40
1.0
 40
1.0
 40
1.0
 40
1.0
 10
2106.396107476562
 20
986.9303309196071
 30
0.0
 10
2106.396107476562
 20
987.0065377548062
 30
0.0
 10
2106.39707071135
 20
987.0810282289665
 30
0.0
 10
2106.400553083972
 20
987.1950609030085
 30
0.0
 10
2106.403023293228
 20
987.2323469118978
 30
0.0
 10
2106.405672597326
 20
987.239701193058
 30
0.0
  0
SPLINE
  5
555
330
52C
100
AcDbEntity
  8
0
  6
Continuous
 62
     7
370
    15
100
AcDbSpline
210
0.0
220
0.0
230
1.0
 70
     8
 71
     3
 72
     8
 73
     4
 74
     0
 42
0.0000000001
 43
0.0000000001
 40
0.0000000000000049
 40
0.0000000000000049
 40
0.0000000000000049
 40
0.0000000000000049
 40
0.0006674565865843
 40
0.0006674565865843
 40
0.0006674565865843
 40
0.0006674565865843
 10
2106.405672597326
 20
987.2397011930491
 30
0.0
 10
2106.413400904276
 20
987.2611971470858
 30
0.0
 10
2106.421129539606
 20
987.2825963548958
 30
0.0
 10
2106.428858472936
 20
987.3039066037657
 30
0.0
  0
LINE
  5
556
330
52C
100
AcDbEntity
  8
0
  6
Continuous
 62
     7
370
    15
100
AcDbLine
 10
2106.428858136743
 20
987.3039066645862
 30
0.0
 11
2106.438013037651
 21
987.2964011359574
 31
0.0
  0
LINE
  5
557
330
52C
100
AcDbEntity
  8
0
  6
Continuous
 62
     7
370
    15
100
AcDbLine
 10
2106.438013037651
 20
987.2964011359574
 30
0.0
 11
2106.438013037651
 21
985.6700604635836
 31
0.0
  0
SPLINE
  5
558
330
52C
100
AcDbEntity
  8
0
  6
Continuous
 62
     7
370
    15
100
AcDbSpline
210
0.0
220
0.0
230
1.0
 70
     8
 71
     3
 72
     8
 73
     4
 74
     0
 42
0.0000000001
 43
0.0000000001
 40
0.0000000000000075
 40
0.0000000000000075
 40
0.0000000000000075
 40
0.0000000000000075
 40
0.0012009335949178
 40
0.0012009335949178
 40
0.0012009335949178
 40
0.0012009335949178
 10
2106.438012399951
 20
985.6700608248718
 30
0.0
 10
2106.424044168383
 20
985.677523418521
 30
0.0
 10
2106.410075857052
 20
985.6848642533453
 30
0.0
 10
2106.396107476562
 20
985.6920943633047
 30
0.0
  0
LINE
  5
559
330
52C
100
AcDbEntity
  8
0
  6
Continuous
 62
     7
370
    15
100
AcDbLine
 10
2106.396107247084
 20
985.6920941587151
 30
0.0
 11
2106.396107247084
 21
986.9303308281661
 31
0.0
  0
ARC
  5
55A
330
52C
100
AcDbEntity
  8
0
  6
Continuous
 62
     7
370
    15
100
AcDbCircle
 10
2106.896107476562
 20
984.9850647899867
 30
0.0
 40
2.307360327474476
100
AcDbArc
 50
102.2719690442337
 51
257.7280309557394
  0
SPLINE
  5
55B
330
52C
100
AcDbEntity
  8
0
  6
Continuous
 62
     7
370
    15
100
AcDbSpline
210
0.0
220
0.0
230
1.0
 70
     8
 71
     3
 72
    21
 73
    17
 74
     0
 42
0.0000000001
 43
0.0000000001
 40
0.0
 40
0.0
 40
0.0
 40
0.0
 40
0.0405701520873104
 40
0.0811400604533321
 40
0.1217111401083943
 40
0.2430140563068072
 40
0.3075891901156092
 40
0.3716486054461916
 40
0.4999687389493727
 40
0.6284877073414133
 40
0.6924972620643585
 40
0.7569238642307747
 40
0.8328788166516872
 40
0.8987110813730293
 40
0.9544187622514359
 40
1.0
 40
1.0
 40
1.0
 40
1.0
 10
2104.887610447675
 20
984.9850647899868
 30
0.0
 10
2104.888174517691
 20
985.020879923303
 30
0.0
 10
2104.889302654334
 20
985.0925099747795
 30
0.0
 10
2104.898205280731
 20
985.1996558684882
 30
0.0
 10
2104.9216208009
 20
985.3768475418922
 30
0.0
 10
2104.9699428498
 20
985.571914263569
 30
0.0
 10
2105.048197789134
 20
985.7783926455871
 30
0.0
 10
2105.146351405913
 20
985.9831588386049
 30
0.0
 10
2105.301556540812
 20
986.221814305596
 30
0.0
 10
2105.494085463436
 20
986.4314733955726
 30
0.0
 10
2105.667943871161
 20
986.5775188846209
 30
0.0
 10
2105.81561835538
 20
986.6815276127113
 30
0.0
 10
2105.973653201811
 20
986.7725132667359
 30
0.0
 10
2106.132470990852
 20
986.8448459336613
 30
0.0
 10
2106.271111352977
 20
986.8957912616792
 30
0.0
 10
2106.357314857508
 20
986.9196115168461
 30
0.0
 10
2106.396107476562
 20
986.9303309196071
 30
0.0
  0
SPLINE
  5
55C
330
52C
100
AcDbEntity
  8
0
  6
Continuous
 62
     7
370
    15
100
AcDbSpline
210
0.0
220
0.0
230
1.0
 70
     8
 71
     3
 72
    21
 73
    17
 74
     0
 42
0.0000000001
 43
0.0000000001
 40
0.0
 40
0.0
 40
0.0
 40
0.0
 40
0.0405701521715276
 40
0.0811400626193369
 40
0.1217111440358758
 40
0.2430140596927443
 40
0.3075891932119386
 40
0.3716486082558001
 40
0.4999687411864232
 40
0.628487709003871
 40
0.6924972634406057
 40
0.7569238653189402
 40
0.832878819135044
 40
0.8987110841405494
 40
0.9544187641913692
 40
1.0
 40
1.0
 40
1.0
 40
1.0
 10
2106.396107476562
 20
983.0397986603664
 30
0.0
 10
2106.361560273295
 20
983.0492608337857
 30
0.0
 10
2106.292466072598
 20
983.0681851242474
 30
0.0
 10
2106.190909544507
 20
983.1034806292754
 30
0.0
 10
2106.025125378666
 20
983.1702697505251
 30
0.0
 10
2105.848229035384
 20
983.2656307722302
 30
0.0
 10
2105.667731924118
 20
983.3928233560394
 30
0.0
 10
2105.49384670955
 20
983.538861903901
 30
0.0
 10
2105.301341656822
 20
983.7485923770042
 30
0.0
 10
2105.146211596141
 20
983.9872531907118
 30
0.0
 10
2105.04804459045
 20
984.1919951498764
 30
0.0
 10
2104.984072668614
 20
984.3609127705418
 30
0.0
 10
2104.935292965613
 20
984.5366225973977
 30
0.0
 10
2104.904773930106
 20
984.7084471993275
 30
0.0
 10
2104.889945907742
 20
984.855405376218
 30
0.0
 10
2104.888335259046
 20
984.9448249165565
 30
0.0
 10
2104.887610447675
 20
984.9850647899867
 30
0.0
  0
SPLINE
  5
55D
330
52C
100
AcDbEntity
  8
0
  6
Continuous
 62
     7
370
    15
100
AcDbSpline
210
0.0
220
0.0
230
1.0
 70
     8
 71
     3
 72
    10
 73
     6
 74
     0
 42
0.0000000001
 43
0.0000000001
 40
0.0
 40
0.0
 40
0.0
 40
0.0
 40
0.5
 40
0.5
 40
1.0
 40
1.0
 40
1.0
 40
1.0
 10
2106.405672597326
 20
982.7304283869155
 30
0.0
 10
2106.403025248727
 20
982.7377772397452
 30
0.0
 10
2106.400548681189
 20
982.7752634431506
 30
0.0
 10
2106.397081364589
 20
982.8887020005261
 30
0.0
 10
2106.396107476562
 20
982.9636448978728
 30
0.0
 10
2106.396107476562
 20
983.0397986603664
 30
0.0
  0
SPLINE
  5
55E
330
52C
100
AcDbEntity
  8
0
  6
Continuous
 62
     7
370
    15
100
AcDbSpline
210
0.0
220
0.0
230
1.0
 70
     8
 71
     3
 72
    10
 73
     6
 74
     0
 42
0.0000000001
 43
0.0000000001
 40
0.0
 40
0.0
 40
0.0
 40
0.0
 40
0.5
 40
0.5
 40
1.0
 40
1.0
 40
1.0
 40
1.0
 10
2107.396107476562
 20
983.0397986603664
 30
0.0
 10
2107.396107476562
 20
982.9635918251675
 30
0.0
 10
2107.395144241773
 20
982.8891013510071
 30
0.0
 10
2107.391661869152
 20
982.775068676965
 30
0.0
 10
2107.389191659897
 20
982.7377826680757
 30
0.0
 10
2107.386542355798
 20
982.7304283869155
 30
0.0
  0
SPLINE
  5
55F
330
52C
100
AcDbEntity
  8
0
  6
Continuous
 62
     7
370
    15
100
AcDbSpline
210
0.0
220
0.0
230
1.0
 70
     8
 71
     3
 72
    30
 73
    26
 74
     0
 42
0.0000000001
 43
0.0000000001
 40
0.0
 40
0.0
 40
0.0
 40
0.0
 40
0.0251855552846435
 40
0.0503706729620853
 40
0.0755557906395273
 40
0.1007413459241712
 40
0.1502674216993208
 40
0.219634377355725
 40
0.2872661166625907
 40
0.3548001647814462
 40
0.3913124106395807
 40
0.4274632722408008
 40
0.4999452724597718
 40
0.5364574804391903
 40
0.5726083377820837
 40
0.6450903041544401
 40
0.6790880746704761
 40
0.7127894537713527
 40
0.7803235436106438
 40
0.8398256671237421
 40
0.8694705381180677
 40
0.8992757335518163
 40
0.9405939364763542
 40
0.9741696346880914
 40
1.0
 40
1.0
 40
1.0
 40
1.0
 10
2107.396107476562
 20
986.930330919607
 30
0.0
 10
2107.438951472948
 20
986.918417600534
 30
0.0
 10
2107.524638721293
 20
986.8945911693856
 30
0.0
 10
2107.649816871492
 20
986.8481797019374
 30
0.0
 10
2107.771844888309
 20
986.7941930914426
 30
0.0
 10
2107.928038172439
 20
986.7121233122066
 30
0.0
 10
2108.141084099836
 20
986.5719204326163
 30
0.0
 10
2108.385553190401
 20
986.3485862585443
 30
0.0
 10
2108.605830597943
 20
986.0602010630197
 30
0.0
 10
2108.743852384474
 20
985.7884777712898
 30
0.0
 10
2108.825552077302
 20
985.5545638778156
 30
0.0
 10
2108.886647028606
 20
985.3054237472134
 30
0.0
 10
2108.910621319714
 20
985.0484940124248
 30
0.0
 10
2108.898586861997
 20
984.7922960166879
 30
0.0
 10
2108.86215035994
 20
984.5383695832953
 30
0.0
 10
2108.789664867621
 20
984.2953609762373
 30
0.0
 10
2108.687139912633
 20
984.0699239690209
 30
0.0
 10
2108.569237098075
 20
983.8620420354164
 30
0.0
 10
2108.395970310724
 20
983.6353345716698
 30
0.0
 10
2108.193506999691
 20
983.4452592625281
 30
0.0
 10
2108.024239163544
 20
983.3207193499671
 30
0.0
 10
2107.873014448533
 20
983.2267435520309
 30
0.0
 10
2107.707238728707
 20
983.1443212533756
 30
0.0
 10
2107.541074683783
 20
983.080232797106
 30
0.0
 10
2107.440038879742
 20
983.0520519719764
 30
0.0
 10
2107.396107476562
 20
983.0397986603664
 30
0.0
  0
SPLINE
  5
560
330
52C
100
AcDbEntity
  8
0
  6
Continuous
 62
     7
370
    15
100
AcDbSpline
210
0.0
220
0.0
230
1.0
 70
     8
 71
     3
 72
    10
 73
     6
 74
     0
 42
0.0000000001
 43
0.0000000001
 40
0.0
 40
0.0
 40
0.0
 40
0.0
 40
0.5
 40
0.5
 40
1.0
 40
1.0
 40
1.0
 40
1.0
 10
2107.386542355798
 20
987.239701193058
 30
0.0
 10
2107.389189704397
 20
987.2323523402283
 30
0.0
 10
2107.391666271935
 20
987.1948661368227
 30
0.0
 10
2107.395133588535
 20
987.0814275794472
 30
0.0
 10
2107.396107476562
 20
987.0064846821005
 30
0.0
 10
2107.396107476562
 20
986.9303309196073
 30
0.0
  0
ARC
  5
561
330
52C
100
AcDbEntity
  8
0
  6
Continuous
 62
     7
370
    15
100
AcDbCircle
 10
2106.896107476562
 20
984.9850647899867
 30
0.0
 40
2.307360327474448
100
AcDbArc
 50
282.2719690442465
 51
77.72803095573943
  0
SPLINE
  5
562
330
52C
100
AcDbEntity
  8
0
  6
Continuous
 62
     7
370
    15
100
AcDbSpline
210
0.0
220
0.0
230
1.0
 70
     8
 71
     3
 72
     8
 73
     4
 74
     0
 42
0.0000000001
 43
0.0000000001
 40
0.0000000000000044
 40
0.0000000000000044
 40
0.0000000000000044
 40
0.0000000000000044
 40
0.0006674565865846
 40
0.0006674565865846
 40
0.0006674565865846
 40
0.0006674565865846
 10
2116.686542355798
 20
982.7304283869127
 30
0.0
 10
2116.678814048848
 20
982.7089324328767
 30
0.0
 10
2116.671085413518
 20
982.6875332250674
 30
0.0
 10
2116.663356480188
 20
982.6662229761984
 30
0.0
  0
LINE
  5
563
330
52C
100
AcDbEntity
  8
0
  6
Continuous
 62
     7
370
    15
100
AcDbLine
 10
2116.66335655561
 20
982.6662229228379
 30
0.0
 11
2116.654202586024
 21
982.6737284514667
 31
0.0
  0
LINE
  5
564
330
52C
100
AcDbEntity
  8
0
  6
Continuous
 62
     7
370
    15
100
AcDbLine
 10
2116.654202586024
 20
982.6737284514667
 30
0.0
 11
2116.654202586024
 21
984.3000691238405
 31
0.0
  0
SPLINE
  5
565
330
52C
100
AcDbEntity
  8
0
  6
Continuous
 62
     7
370
    15
100
AcDbSpline
210
0.0
220
0.0
230
1.0
 70
     8
 71
     3
 72
     8
 73
     4
 74
     0
 42
0.0000000001
 43
0.0000000001
 40
0.0000000000000019
 40
0.0000000000000019
 40
0.0000000000000019
 40
0.0000000000000019
 40
0.0012009335949097
 40
0.0012009335949097
 40
0.0012009335949097
 40
0.0012009335949097
 10
2116.696107476562
 20
984.2780352166732
 30
0.0
 10
2116.682139096072
 20
984.285265326631
 30
0.0
 10
2116.668170784741
 20
984.2926061614541
 30
0.0
 10
2116.654202553172
 20
984.3000687551018
 30
0.0
  0
LINE
  5
566
330
52C
100
AcDbEntity
  8
0
  6
Continuous
 62
     7
370
    15
100
AcDbLine
 10
2116.696107445269
 20
984.2780349630476
 30
0.0
 11
2116.696107445269
 21
983.0397987592579
 31
0.0
  0
SPLINE
  5
567
330
52C
100
AcDbEntity
  8
0
  6
Continuous
 62
     7
370
    15
100
AcDbSpline
210
0.0
220
0.0
230
1.0
 70
     8
 71
     3
 72
     8
 73
     4
 74
     0
 42
0.0000000001
 43
0.0000000001
 40
0.0000000000000049
 40
0.0000000000000049
 40
0.0000000000000049
 40
0.0000000000000049
 40
0.0006674565865843
 40
0.0006674565865843
 40
0.0006674565865843
 40
0.0006674565865843
 10
2107.386542355798
 20
982.7304283869246
 30
0.0
 10
2107.378814048848
 20
982.7089324328877
 30
0.0
 10
2107.371085413518
 20
982.6875332250777
 30
0.0
 10
2107.363356480188
 20
982.6662229762078
 30
0.0
  0
LINE
  5
568
330
52C
100
AcDbEntity
  8
0
  6
Continuous
 62
     7
370
    15
100
AcDbLine
 10
2107.363356521338
 20
982.6662229228379
 30
0.0
 11
2107.354203483074
 21
982.6737284514667
 31
0.0
  0
LINE
  5
569
330
52C
100
AcDbEntity
  8
0
  6
Continuous
 62
     7
370
    15
100
AcDbLine
 10
2107.354203483074
 20
982.6737284514667
 30
0.0
 11
2107.354203483074
 21
984.3000691238405
 31
0.0
  0
SPLINE
  5
56A
330
52C
100
AcDbEntity
  8
0
  6
Continuous
 62
     7
370
    15
100
AcDbSpline
210
0.0
220
0.0
230
1.0
 70
     8
 71
     3
 72
     8
 73
     4
 74
     0
 42
0.0000000001
 43
0.0000000001
 40
0.0000000000000019
 40
0.0000000000000019
 40
0.0000000000000019
 40
0.0000000000000019
 40
0.0012009335949098
 40
0.0012009335949098
 40
0.0012009335949098
 40
0.0012009335949098
 10
2107.396107476562
 20
984.2780352166689
 30
0.0
 10
2107.382139096072
 20
984.2852653266282
 30
0.0
 10
2107.368170784741
 20
984.2926061614525
 30
0.0
 10
2107.354202553173
 20
984.3000687551018
 30
0.0
  0
LINE
  5
56B
330
52C
100
AcDbEntity
  8
0
  6
Continuous
 62
     7
370
    15
100
AcDbLine
 10
2107.396107410997
 20
984.2780349630476
 30
0.0
 11
2107.396107410997
 21
983.0397987592579
 31
0.0
  0
SPLINE
  5
56C
330
52C
100
AcDbEntity
  8
0
  6
Continuous
 62
     7
370
    15
100
AcDbSpline
210
0.0
220
0.0
230
1.0
 70
     8
 71
     3
 72
    10
 73
     6
 74
     0
 42
0.0000000001
 43
0.0000000001
 40
0.0
 40
0.0
 40
0.0
 40
0.0
 40
0.5
 40
0.5
 40
1.0
 40
1.0
 40
1.0
 40
1.0
 10
2116.696107476562
 20
966.0397986603664
 30
0.0
 10
2116.696107476562
 20
965.9635918251671
 30
0.0
 10
2116.695144241774
 20
965.8891013510068
 30
0.0
 10
2116.691661869152
 20
965.7750686769647
 30
0.0
 10
2116.689191659897
 20
965.7377826680757
 30
0.0
 10
2116.686542355798
 20
965.7304283869155
 30
0.0
  0
SPLINE
  5
56D
330
52C
100
AcDbEntity
  8
0
  6
Continuous
 62
     7
370
    15
100
AcDbSpline
210
0.0
220
0.0
230
1.0
 70
     8
 71
     3
 72
    30
 73
    26
 74
     0
 42
0.0000000001
 43
0.0000000001
 40
0.0
 40
0.0
 40
0.0
 40
0.0
 40
0.0251855552846609
 40
0.0503706729621203
 40
0.0755557906395795
 40
0.1007413459242405
 40
0.1502674214517886
 40
0.2196343773553455
 40
0.2872661166623232
 40
0.3548001647811429
 40
0.3913124106393918
 40
0.4274632722406641
 40
0.4999452724595904
 40
0.5364574804390056
 40
0.572608337781918
 40
0.6450903041543318
 40
0.6790880746700611
 40
0.7127894537708483
 40
0.7803235436106379
 40
0.8398256671238762
 40
0.8694705381181989
 40
0.8992757335519021
 40
0.9405939366665039
 40
0.9741696348782728
 40
1.0
 40
1.0
 40
1.0
 40
1.0
 10
2116.696107476562
 20
969.9303309196071
 30
0.0
 10
2116.738951472949
 20
969.918417600534
 30
0.0
 10
2116.824638721293
 20
969.8945911693856
 30
0.0
 10
2116.949816871492
 20
969.8481797019374
 30
0.0
 10
2117.071844888309
 20
969.7941930914426
 30
0.0
 10
2117.228038172052
 20
969.7121233124097
 30
0.0
 10
2117.441084099486
 20
969.5719204328941
 30
0.0
 10
2117.685553190137
 20
969.3485862588923
 30
0.0
 10
2117.905830597942
 20
969.0602010630191
 30
0.0
 10
2118.043852384474
 20
968.7884777712895
 30
0.0
 10
2118.125552077302
 20
968.5545638778155
 30
0.0
 10
2118.186647028606
 20
968.3054237472132
 30
0.0
 10
2118.210621319715
 20
968.0484940124246
 30
0.0
 10
2118.198586861997
 20
967.7922960166879
 30
0.0
 10
2118.162150359939
 20
967.5383695832955
 30
0.0
 10
2118.089664867621
 20
967.295360976238
 30
0.0
 10
2117.987139912634
 20
967.0699239690218
 30
0.0
 10
2117.869237098075
 20
966.8620420354173
 30
0.0
 10
2117.695970310724
 20
966.6353345716704
 30
0.0
 10
2117.493506999691
 20
966.4452592625277
 30
0.0
 10
2117.324239163544
 20
966.3207193499665
 30
0.0
 10
2117.173014448248
 20
966.226743551854
 30
0.0
 10
2117.007238728097
 20
966.1443212530876
 30
0.0
 10
2116.841074683141
 20
966.0802327969051
 30
0.0
 10
2116.74003887942
 20
966.0520519718799
 30
0.0
 10
2116.696107476562
 20
966.0397986603664
 30
0.0
  0
SPLINE
  5
56E
330
52C
100
AcDbEntity
  8
0
  6
Continuous
 62
     7
370
    15
100
AcDbSpline
210
0.0
220
0.0
230
1.0
 70
     8
 71
     3
 72
    10
 73
     6
 74
     0
 42
0.0000000001
 43
0.0000000001
 40
0.0
 40
0.0
 40
0.0
 40
0.0
 40
0.5
 40
0.5
 40
1.0
 40
1.0
 40
1.0
 40
1.0
 10
2116.686542355798
 20
970.239701193058
 30
0.0
 10
2116.689189704397
 20
970.2323523402283
 30
0.0
 10
2116.691666271934
 20
970.1948661368238
 30
0.0
 10
2116.695133588535
 20
970.0814275794481
 30
0.0
 10
2116.696107476562
 20
970.006484682101
 30
0.0
 10
2116.696107476562
 20
969.9303309196073
 30
0.0
  0
ARC
  5
56F
330
52C
100
AcDbEntity
  8
0
  6
Continuous
 62
     7
370
    15
100
AcDbCircle
 10
2116.196107476562
 20
967.9850647899867
 30
0.0
 40
2.307360327481418
100
AcDbArc
 50
282.2719690442069
 51
77.72803095579312
  0
ARC
  5
570
330
52C
100
AcDbEntity
  8
0
  6
Continuous
 62
     7
370
    15
100
AcDbCircle
 10
2116.196107476562
 20
967.9850647899867
 30
0.0
 40
2.307360327481398
100
AcDbArc
 50
102.2719690442069
 51
257.7280309558058
  0
SPLINE
  5
571
330
52C
100
AcDbEntity
  8
0
  6
Continuous
 62
     7
370
    15
100
AcDbSpline
210
0.0
220
0.0
230
1.0
 70
     8
 71
     3
 72
    10
 73
     6
 74
     0
 42
0.0000000001
 43
0.0000000001
 40
0.0
 40
0.0
 40
0.0
 40
0.0
 40
0.5
 40
0.5
 40
1.0
 40
1.0
 40
1.0
 40
1.0
 10
2115.696107476562
 20
969.9303309196071
 30
0.0
 10
2115.696107476562
 20
970.0065377548064
 30
0.0
 10
2115.69707071135
 20
970.0810282289667
 30
0.0
 10
2115.700553083973
 20
970.1950609030088
 30
0.0
 10
2115.703023293227
 20
970.2323469118978
 30
0.0
 10
2115.705672597326
 20
970.239701193058
 30
0.0
  0
SPLINE
  5
572
330
52C
100
AcDbEntity
  8
0
  6
Continuous
 62
     7
370
    15
100
AcDbSpline
210
0.0
220
0.0
230
1.0
 70
     8
 71
     3
 72
    21
 73
    17
 74
     0
 42
0.0000000001
 43
0.0000000001
 40
0.0
 40
0.0
 40
0.0
 40
0.0
 40
0.0405701521715427
 40
0.0811400626193657
 40
0.1217111440359204
 40
0.2430140596923834
 40
0.3075891932118676
 40
0.3716486082557616
 40
0.4999687411856772
 40
0.6284877090030057
 40
0.6924972634396235
 40
0.7569238653177918
 40
0.8328788171342733
 40
0.8987110814728916
 40
0.9544187621904038
 40
1.0
 40
1.0
 40
1.0
 40
1.0
 10
2114.187610447675
 20
967.9850647899867
 30
0.0
 10
2114.18817447332
 20
968.0208799244201
 30
0.0
 10
2114.189302521249
 20
968.0925099798946
 30
0.0
 10
2114.198205141544
 20
968.1996558824069
 30
0.0
 10
2114.221620925485
 20
968.3768475227932
 30
0.0
 10
2114.269942826176
 20
968.5719142668611
 30
0.0
 10
2114.348197793611
 20
968.7783926449622
 30
0.0
 10
2114.446351403328
 20
968.9831588389642
 30
0.0
 10
2114.601556541712
 20
969.22181430547
 30
0.0
 10
2114.794085463325
 20
969.4314733955883
 30
0.0
 10
2114.967943871182
 20
969.5775188846182
 30
0.0
 10
2115.115618355183
 20
969.6815276125775
 30
0.0
 10
2115.273653201333
 20
969.7725132664711
 30
0.0
 10
2115.432470990129
 20
969.8448459333638
 30
0.0
 10
2115.571111352454
 20
969.8957912615215
 30
0.0
 10
2115.657314857283
 20
969.9196115167801
 30
0.0
 10
2115.696107476562
 20
969.9303309196071
 30
0.0
  0
SPLINE
  5
573
330
52C
100
AcDbEntity
  8
0
  6
Continuous
 62
     7
370
    15
100
AcDbSpline
210
0.0
220
0.0
230
1.0
 70
     8
 71
     3
 72
    21
 73
    17
 74
     0
 42
0.0000000001
 43
0.0000000001
 40
0.0
 40
0.0
 40
0.0
 40
0.0
 40
0.0405701543487514
 40
0.0811400669737713
 40
0.1217111505675835
 40
0.2430140727345984
 40
0.3075892097188454
 40
0.3716486282004214
 40
0.4999687680182818
 40
0.6284877427316484
 40
0.6924973006039214
 40
0.7569239059408229
 40
0.8329345848301699
 40
0.8987854313884467
 40
0.9544745287512061
 40
1.0
 40
1.0
 40
1.0
 40
1.0
 10
2115.696107476562
 20
966.0397986603664
 30
0.0
 10
2115.661560273295
 20
966.0492608337857
 30
0.0
 10
2115.592466072598
 20
966.0681851242475
 30
0.0
 10
2115.490909544506
 20
966.1034806292748
 30
0.0
 10
2115.325125378667
 20
966.1702697505274
 30
0.0
 10
2115.148229035376
 20
966.2656307722071
 30
0.0
 10
2114.967731924133
 20
966.3928233560797
 30
0.0
 10
2114.793846709471
 20
966.5388619036797
 30
0.0
 10
2114.601341657473
 20
966.7485923787904
 30
0.0
 10
2114.446211594271
 20
966.9872531855657
 30
0.0
 10
2114.348044593684
 20
967.1919951587613
 30
0.0
 10
2114.284055215252
 20
967.3609587840152
 30
0.0
 10
2114.235264265761
 20
967.536734210546
 30
0.0
 10
2114.204751265497
 20
967.7086100297904
 30
0.0
 10
2114.189941303271
 20
967.8555203018806
 30
0.0
 10
2114.188333585678
 20
967.9448741652988
 30
0.0
 10
2114.187610447675
 20
967.9850647899867
 30
0.0
  0
SPLINE
  5
574
330
52C
100
AcDbEntity
  8
0
  6
Continuous
 62
     7
370
    15
100
AcDbSpline
210
0.0
220
0.0
230
1.0
 70
     8
 71
     3
 72
    10
 73
     6
 74
     0
 42
0.0000000001
 43
0.0000000001
 40
0.0
 40
0.0
 40
0.0
 40
0.0
 40
0.5
 40
0.5
 40
1.0
 40
1.0
 40
1.0
 40
1.0
 10
2115.705672597326
 20
965.7304283869155
 30
0.0
 10
2115.703025248727
 20
965.7377772397452
 30
0.0
 10
2115.700548681189
 20
965.7752634431497
 30
0.0
 10
2115.697081364589
 20
965.8887020005252
 30
0.0
 10
2115.696107476562
 20
965.9636448978725
 30
0.0
 10
2115.696107476562
 20
966.0397986603664
 30
0.0
  0
SPLINE
  5
575
330
52C
100
AcDbEntity
  8
0
  6
Continuous
 62
     7
370
    15
100
AcDbSpline
210
0.0
220
0.0
230
1.0
 70
     8
 71
     3
 72
     8
 73
     4
 74
     0
 42
0.0000000001
 43
0.0000000001
 40
0.0000000000000044
 40
0.0000000000000044
 40
0.0000000000000044
 40
0.0000000000000044
 40
0.0006674565865846
 40
0.0006674565865846
 40
0.0006674565865846
 40
0.0006674565865846
 10
2115.705672597326
 20
970.2397011930608
 30
0.0
 10
2115.713400904277
 20
970.261197147097
 30
0.0
 10
2115.721129539606
 20
970.2825963549061
 30
0.0
 10
2115.728858472936
 20
970.3039066037751
 30
0.0
  0
LINE
  5
576
330
52C
100
AcDbEntity
  8
0
  6
Continuous
 62
     7
370
    15
100
AcDbLine
 10
2115.728858171015
 20
970.3039057407142
 30
0.0
 11
2115.738012140601
 21
970.296401143408
 31
0.0
  0
LINE
  5
577
330
52C
100
AcDbEntity
  8
0
  6
Continuous
 62
     7
370
    15
100
AcDbLine
 10
2115.738012140601
 20
970.296401143408
 30
0.0
 11
2115.738012140601
 21
968.6700604710342
 31
0.0
  0
SPLINE
  5
578
330
52C
100
AcDbEntity
  8
0
  6
Continuous
 62
     7
370
    15
100
AcDbSpline
210
0.0
220
0.0
230
1.0
 70
     8
 71
     3
 72
     8
 73
     4
 74
     0
 42
0.0000000001
 43
0.0000000001
 40
0.0000000000000075
 40
0.0000000000000075
 40
0.0000000000000075
 40
0.0000000000000075
 40
0.0012009335949178
 40
0.0012009335949178
 40
0.0012009335949178
 40
0.0012009335949178
 10
2115.738012399952
 20
968.6700608248726
 30
0.0
 10
2115.724044168383
 20
968.6775234185201
 30
0.0
 10
2115.710075857052
 20
968.6848642533432
 30
0.0
 10
2115.696107476562
 20
968.692094363301
 30
0.0
  0
LINE
  5
579
330
52C
100
AcDbEntity
  8
0
  6
Continuous
 62
     7
370
    15
100
AcDbLine
 10
2115.696107281356
 20
968.6920937005044
 30
0.0
 11
2115.696107281356
 21
969.9303317669393
 31
0.0
  0
SPLINE
  5
57A
330
52C
100
AcDbEntity
  8
0
  6
Continuous
 62
     7
370
    15
100
AcDbSpline
210
0.0
220
0.0
230
1.0
 70
     8
 71
     3
 72
    10
 73
     6
 74
     0
 42
0.0000000001
 43
0.0000000001
 40
0.0
 40
0.0
 40
0.0
 40
0.0
 40
0.5
 40
0.5
 40
1.0
 40
1.0
 40
1.0
 40
1.0
 10
2106.396107476562
 20
969.9303309196071
 30
0.0
 10
2106.396107476562
 20
970.0065377548062
 30
0.0
 10
2106.39707071135
 20
970.0810282289664
 30
0.0
 10
2106.400553083972
 20
970.1950609030085
 30
0.0
 10
2106.403023293228
 20
970.2323469118978
 30
0.0
 10
2106.405672597326
 20
970.239701193058
 30
0.0
  0
SPLINE
  5
57B
330
52C
100
AcDbEntity
  8
0
  6
Continuous
 62
     7
370
    15
100
AcDbSpline
210
0.0
220
0.0
230
1.0
 70
     8
 71
     3
 72
     8
 73
     4
 74
     0
 42
0.0000000001
 43
0.0000000001
 40
0.0000000000000049
 40
0.0000000000000049
 40
0.0000000000000049
 40
0.0000000000000049
 40
0.0006674565865843
 40
0.0006674565865843
 40
0.0006674565865843
 40
0.0006674565865843
 10
2106.405672597326
 20
970.2397011930491
 30
0.0
 10
2106.413400904276
 20
970.2611971470858
 30
0.0
 10
2106.421129539606
 20
970.2825963548958
 30
0.0
 10
2106.428858472936
 20
970.3039066037659
 30
0.0
  0
LINE
  5
57C
330
52C
100
AcDbEntity
  8
0
  6
Continuous
 62
     7
370
    15
100
AcDbLine
 10
2106.428858136743
 20
970.3039057407142
 30
0.0
 11
2106.438013037651
 21
970.296401143408
 31
0.0
  0
LINE
  5
57D
330
52C
100
AcDbEntity
  8
0
  6
Continuous
 62
     7
370
    15
100
AcDbLine
 10
2106.438013037651
 20
970.296401143408
 30
0.0
 11
2106.438013037651
 21
968.6700604710342
 31
0.0
  0
SPLINE
  5
57E
330
52C
100
AcDbEntity
  8
0
  6
Continuous
 62
     7
370
    15
100
AcDbSpline
210
0.0
220
0.0
230
1.0
 70
     8
 71
     3
 72
     8
 73
     4
 74
     0
 42
0.0000000001
 43
0.0000000001
 40
0.0000000000000075
 40
0.0000000000000075
 40
0.0000000000000075
 40
0.0000000000000075
 40
0.0012009335949178
 40
0.0012009335949178
 40
0.0012009335949178
 40
0.0012009335949178
 10
2106.438012399951
 20
968.6700608248726
 30
0.0
 10
2106.424044168383
 20
968.6775234185217
 30
0.0
 10
2106.410075857052
 20
968.684864253346
 30
0.0
 10
2106.396107476562
 20
968.6920943633053
 30
0.0
  0
LINE
  5
57F
330
52C
100
AcDbEntity
  8
0
  6
Continuous
 62
     7
370
    15
100
AcDbLine
 10
2106.396107247084
 20
968.6920937005044
 30
0.0
 11
2106.396107247084
 21
969.9303317669393
 31
0.0
  0
ARC
  5
580
330
52C
100
AcDbEntity
  8
0
  6
Continuous
 62
     7
370
    15
100
AcDbCircle
 10
2106.896107476562
 20
967.9850647899867
 30
0.0
 40
2.307360327474449
100
AcDbArc
 50
102.2719690442337
 51
257.7280309557394
  0
SPLINE
  5
581
330
52C
100
AcDbEntity
  8
0
  6
Continuous
 62
     7
370
    15
100
AcDbSpline
210
0.0
220
0.0
230
1.0
 70
     8
 71
     3
 72
    21
 73
    17
 74
     0
 42
0.0000000001
 43
0.0000000001
 40
0.0
 40
0.0
 40
0.0
 40
0.0
 40
0.0405701520872804
 40
0.0811400604532713
 40
0.1217111401083034
 40
0.2430140563066226
 40
0.3075891901155233
 40
0.3716486054461057
 40
0.4999687389490003
 40
0.6284877073411311
 40
0.69249726206398
 40
0.7569238642302012
 40
0.832878815650109
 40
0.8987110800376083
 40
0.9544187612497594
 40
1.0
 40
1.0
 40
1.0
 40
1.0
 10
2104.887610447675
 20
967.9850647899867
 30
0.0
 10
2104.888174517691
 20
968.020879923303
 30
0.0
 10
2104.889302654334
 20
968.0925099747796
 30
0.0
 10
2104.898205280731
 20
968.1996558684883
 30
0.0
 10
2104.9216208009
 20
968.3768475418922
 30
0.0
 10
2104.9699428498
 20
968.571914263569
 30
0.0
 10
2105.048197789134
 20
968.7783926455873
 30
0.0
 10
2105.146351405913
 20
968.9831588386052
 30
0.0
 10
2105.301556540812
 20
969.2218143055963
 30
0.0
 10
2105.494085463436
 20
969.4314733955728
 30
0.0
 10
2105.667943871161
 20
969.577518884621
 30
0.0
 10
2105.815618354658
 20
969.6815276122023
 30
0.0
 10
2105.973653199998
 20
969.7725132657355
 30
0.0
 10
2106.132470988121
 20
969.844845932536
 30
0.0
 10
2106.271111350999
 20
969.8957912610827
 30
0.0
 10
2106.357314856658
 20
969.9196115165959
 30
0.0
 10
2106.396107476562
 20
969.9303309196071
 30
0.0
  0
SPLINE
  5
582
330
52C
100
AcDbEntity
  8
0
  6
Continuous
 62
     7
370
    15
100
AcDbSpline
210
0.0
220
0.0
230
1.0
 70
     8
 71
     3
 72
    21
 73
    17
 74
     0
 42
0.0000000001
 43
0.0000000001
 40
0.0
 40
0.0
 40
0.0
 40
0.0
 40
0.0405701521715274
 40
0.0811400626193369
 40
0.1217111440358765
 40
0.2430140596927432
 40
0.3075891932119357
 40
0.3716486082557979
 40
0.4999687411864214
 40
0.6284877090039711
 40
0.6924972634406805
 40
0.7569238653189418
 40
0.8328788191348721
 40
0.8987110841403199
 40
0.9544187641911962
 40
1.0
 40
1.0
 40
1.0
 40
1.0
 10
2106.396107476562
 20
966.0397986603664
 30
0.0
 10
2106.361560273295
 20
966.0492608337857
 30
0.0
 10
2106.292466072598
 20
966.0681851242474
 30
0.0
 10
2106.190909544507
 20
966.1034806292754
 30
0.0
 10
2106.025125378666
 20
966.1702697505251
 30
0.0
 10
2105.848229035384
 20
966.2656307722302
 30
0.0
 10
2105.667731924118
 20
966.3928233560394
 30
0.0
 10
2105.49384670955
 20
966.538861903901
 30
0.0
 10
2105.301341656822
 20
966.7485923770042
 30
0.0
 10
2105.146211596141
 20
966.9872531907119
 30
0.0
 10
2105.04804459045
 20
967.1919951498765
 30
0.0
 10
2104.984072668614
 20
967.3609127705416
 30
0.0
 10
2104.935292965613
 20
967.5366225973974
 30
0.0
 10
2104.904773930106
 20
967.7084471993268
 30
0.0
 10
2104.889945907742
 20
967.8554053762177
 30
0.0
 10
2104.888335259046
 20
967.9448249165563
 30
0.0
 10
2104.887610447675
 20
967.9850647899867
 30
0.0
  0
SPLINE
  5
583
330
52C
100
AcDbEntity
  8
0
  6
Continuous
 62
     7
370
    15
100
AcDbSpline
210
0.0
220
0.0
230
1.0
 70
     8
 71
     3
 72
    10
 73
     6
 74
     0
 42
0.0000000001
 43
0.0000000001
 40
0.0
 40
0.0
 40
0.0
 40
0.0
 40
0.5
 40
0.5
 40
1.0
 40
1.0
 40
1.0
 40
1.0
 10
2106.405672597326
 20
965.7304283869155
 30
0.0
 10
2106.403025248727
 20
965.7377772397451
 30
0.0
 10
2106.400548681189
 20
965.7752634431506
 30
0.0
 10
2106.397081364589
 20
965.8887020005261
 30
0.0
 10
2106.396107476562
 20
965.9636448978728
 30
0.0
 10
2106.396107476562
 20
966.0397986603664
 30
0.0
  0
SPLINE
  5
584
330
52C
100
AcDbEntity
  8
0
  6
Continuous
 62
     7
370
    15
100
AcDbSpline
210
0.0
220
0.0
230
1.0
 70
     8
 71
     3
 72
     8
 73
     4
 74
     0
 42
0.0000000001
 43
0.0000000001
 40
0.0000000000000044
 40
0.0000000000000044
 40
0.0000000000000044
 40
0.0000000000000044
 40
0.0006674565865845
 40
0.0006674565865845
 40
0.0006674565865845
 40
0.0006674565865845
 10
2116.686542355798
 20
965.7304283869127
 30
0.0
 10
2116.678814048848
 20
965.7089324328767
 30
0.0
 10
2116.671085413518
 20
965.6875332250674
 30
0.0
 10
2116.663356480188
 20
965.6662229761984
 30
0.0
  0
LINE
  5
585
330
52C
100
AcDbEntity
  8
0
  6
Continuous
 62
     7
370
    15
100
AcDbLine
 10
2116.66335655561
 20
965.6662229302884
 30
0.0
 11
2116.654202586024
 21
965.6737293902398
 31
0.0
  0
LINE
  5
586
330
52C
100
AcDbEntity
  8
0
  6
Continuous
 62
     7
370
    15
100
AcDbLine
 10
2116.654202586024
 20
965.6737293902398
 30
0.0
 11
2116.654202586024
 21
967.3000681999685
 31
0.0
  0
SPLINE
  5
587
330
52C
100
AcDbEntity
  8
0
  6
Continuous
 62
     7
370
    15
100
AcDbSpline
210
0.0
220
0.0
230
1.0
 70
     8
 71
     3
 72
     8
 73
     4
 74
     0
 42
0.0000000001
 43
0.0000000001
 40
0.0000000000000019
 40
0.0000000000000019
 40
0.0000000000000019
 40
0.0000000000000019
 40
0.0012009335949097
 40
0.0012009335949097
 40
0.0012009335949097
 40
0.0012009335949097
 10
2116.696107476562
 20
967.2780352166725
 30
0.0
 10
2116.682139096072
 20
967.2852653266303
 30
0.0
 10
2116.668170784741
 20
967.2926061614534
 30
0.0
 10
2116.654202553172
 20
967.3000687551011
 30
0.0
  0
LINE
  5
588
330
52C
100
AcDbEntity
  8
0
  6
Continuous
 62
     7
370
    15
100
AcDbLine
 10
2116.696107445269
 20
967.2780349704982
 30
0.0
 11
2116.696107445269
 21
966.0397987667085
 31
0.0
  0
SPLINE
  5
589
330
52C
100
AcDbEntity
  8
0
  6
Continuous
 62
     7
370
    15
100
AcDbSpline
210
0.0
220
0.0
230
1.0
 70
     8
 71
     3
 72
    10
 73
     6
 74
     0
 42
0.0000000001
 43
0.0000000001
 40
0.0
 40
0.0
 40
0.0
 40
0.0
 40
0.5
 40
0.5
 40
1.0
 40
1.0
 40
1.0
 40
1.0
 10
2107.396107476562
 20
966.0397986603664
 30
0.0
 10
2107.396107476562
 20
965.9635918251675
 30
0.0
 10
2107.395144241773
 20
965.889101351007
 30
0.0
 10
2107.391661869152
 20
965.775068676965
 30
0.0
 10
2107.389191659897
 20
965.7377826680757
 30
0.0
 10
2107.386542355798
 20
965.7304283869155
 30
0.0
  0
SPLINE
  5
58A
330
52C
100
AcDbEntity
  8
0
  6
Continuous
 62
     7
370
    15
100
AcDbSpline
210
0.0
220
0.0
230
1.0
 70
     8
 71
     3
 72
    30
 73
    26
 74
     0
 42
0.0000000001
 43
0.0000000001
 40
0.0
 40
0.0
 40
0.0
 40
0.0
 40
0.0251855552846856
 40
0.0503706729621695
 40
0.0755557906396536
 40
0.1007413459243397
 40
0.1502674209110016
 40
0.2196343773544036
 40
0.2872661166604902
 40
0.354800164780348
 40
0.3913124106386764
 40
0.4274632722399968
 40
0.4999452724589628
 40
0.5364574804388143
 40
0.5726083377818976
 40
0.6450903041538419
 40
0.6790880746694036
 40
0.71278945377016
 40
0.7803235436102587
 40
0.839825667123007
 40
0.8694705381174969
 40
0.8992757335516472
 40
0.9405939364761131
 40
0.9741696346879066
 40
1.0
 40
1.0
 40
1.0
 40
1.0
 10
2107.396107476562
 20
969.9303309196071
 30
0.0
 10
2107.438951472948
 20
969.918417600534
 30
0.0
 10
2107.524638721293
 20
969.8945911693856
 30
0.0
 10
2107.649816871492
 20
969.8481797019374
 30
0.0
 10
2107.771844888309
 20
969.7941930914426
 30
0.0
 10
2107.928038171207
 20
969.7121233128537
 30
0.0
 10
2108.141084098721
 20
969.5719204335015
 30
0.0
 10
2108.385553189558
 20
969.3485862596531
 30
0.0
 10
2108.605830597941
 20
969.0602010630213
 30
0.0
 10
2108.743852384473
 20
968.7884777712909
 30
0.0
 10
2108.825552077303
 20
968.5545638778155
 30
0.0
 10
2108.886647028607
 20
968.3054237472132
 30
0.0
 10
2108.910621319715
 20
968.0484940124239
 30
0.0
 10
2108.898586861996
 20
967.7922960166865
 30
0.0
 10
2108.862150359939
 20
967.5383695832939
 30
0.0
 10
2108.789664867621
 20
967.2953609762373
 30
0.0
 10
2108.687139912634
 20
967.0699239690229
 30
0.0
 10
2108.569237098075
 20
966.8620420354185
 30
0.0
 10
2108.395970310725
 20
966.6353345716713
 30
0.0
 10
2108.193506999692
 20
966.4452592625282
 30
0.0
 10
2108.024239163545
 20
966.3207193499676
 30
0.0
 10
2107.873014448534
 20
966.2267435520314
 30
0.0
 10
2107.707238728707
 20
966.1443212533759
 30
0.0
 10
2107.541074683784
 20
966.080232797106
 30
0.0
 10
2107.440038879742
 20
966.0520519719765
 30
0.0
 10
2107.396107476562
 20
966.0397986603664
 30
0.0
  0
SPLINE
  5
58B
330
52C
100
AcDbEntity
  8
0
  6
Continuous
 62
     7
370
    15
100
AcDbSpline
210
0.0
220
0.0
230
1.0
 70
     8
 71
     3
 72
    10
 73
     6
 74
     0
 42
0.0000000001
 43
0.0000000001
 40
0.0
 40
0.0
 40
0.0
 40
0.0
 40
0.5
 40
0.5
 40
1.0
 40
1.0
 40
1.0
 40
1.0
 10
2107.386542355798
 20
970.239701193058
 30
0.0
 10
2107.389189704397
 20
970.2323523402283
 30
0.0
 10
2107.391666271935
 20
970.1948661368227
 30
0.0
 10
2107.395133588535
 20
970.0814275794472
 30
0.0
 10
2107.396107476562
 20
970.0064846821007
 30
0.0
 10
2107.396107476562
 20
969.9303309196073
 30
0.0
  0
ARC
  5
58C
330
52C
100
AcDbEntity
  8
0
  6
Continuous
 62
     7
370
    15
100
AcDbCircle
 10
2106.896107476562
 20
967.9850647899867
 30
0.0
 40
2.307360327474448
100
AcDbArc
 50
282.2719690442465
 51
77.72803095573943
  0
SPLINE
  5
58D
330
52C
100
AcDbEntity
  8
0
  6
Continuous
 62
     7
370
    15
100
AcDbSpline
210
0.0
220
0.0
230
1.0
 70
     8
 71
     3
 72
     8
 73
     4
 74
     0
 42
0.0000000001
 43
0.0000000001
 40
0.0000000000000049
 40
0.0000000000000049
 40
0.0000000000000049
 40
0.0000000000000049
 40
0.0006674565865843
 40
0.0006674565865843
 40
0.0006674565865843
 40
0.0006674565865843
 10
2107.386542355798
 20
965.7304283869246
 30
0.0
 10
2107.378814048848
 20
965.7089324328877
 30
0.0
 10
2107.371085413518
 20
965.6875332250777
 30
0.0
 10
2107.363356480188
 20
965.6662229762078
 30
0.0
  0
LINE
  5
58E
330
52C
100
AcDbEntity
  8
0
  6
Continuous
 62
     7
370
    15
100
AcDbLine
 10
2107.363356521338
 20
965.6662229302884
 30
0.0
 11
2107.354203483074
 21
965.6737293902398
 31
0.0
  0
LINE
  5
58F
330
52C
100
AcDbEntity
  8
0
  6
Continuous
 62
     7
370
    15
100
AcDbLine
 10
2107.354203483074
 20
965.6737293902398
 30
0.0
 11
2107.354203483074
 21
967.3000681999685
 31
0.0
  0
SPLINE
  5
590
330
52C
100
AcDbEntity
  8
0
  6
Continuous
 62
     7
370
    15
100
AcDbSpline
210
0.0
220
0.0
230
1.0
 70
     8
 71
     3
 72
     8
 73
     4
 74
     0
 42
0.0000000001
 43
0.0000000001
 40
0.0000000000000019
 40
0.0000000000000019
 40
0.0000000000000019
 40
0.0000000000000019
 40
0.0012009335949098
 40
0.0012009335949098
 40
0.0012009335949098
 40
0.0012009335949098
 10
2107.396107476562
 20
967.2780352166682
 30
0.0
 10
2107.382139096072
 20
967.2852653266275
 30
0.0
 10
2107.368170784741
 20
967.2926061614518
 30
0.0
 10
2107.354202553173
 20
967.3000687551011
 30
0.0
  0
LINE
  5
591
330
52C
100
AcDbEntity
  8
0
  6
Continuous
 62
     7
370
    15
100
AcDbLine
 10
2107.396107410997
 20
967.2780349704982
 30
0.0
 11
2107.396107410997
 21
966.0397987667085
 31
0.0
  0
LINE
  5
592
330
52C
100
AcDbEntity
  8
0
  6
Continuous
 62
     7
370
    15
100
AcDbLine
 10
2116.654202586024
 20
987.2964011359574
 30
0.0
 11
2116.66335655561
 21
987.3039066645862
 31
0.0
  0
SPLINE
  5
593
330
52C
100
AcDbEntity
  8
0
  6
Continuous
 62
     7
370
    15
100
AcDbSpline
210
0.0
220
0.0
230
1.0
 70
     8
 71
     3
 72
     8
 73
     4
 74
     0
 42
0.0000000001
 43
0.0000000001
 40
0.0000000000000061
 40
0.0000000000000061
 40
0.0000000000000061
 40
0.0000000000000061
 40
0.0006674565865954
 40
0.0006674565865954
 40
0.0006674565865954
 40
0.0006674565865954
 10
2116.663356480188
 20
987.303906603776
 30
0.0
 10
2116.671085413517
 20
987.2825963549066
 30
0.0
 10
2116.678814048848
 20
987.2611971470972
 30
0.0
 10
2116.686542355798
 20
987.2397011930608
 30
0.0
  0
LINE
  5
594
330
52C
100
AcDbEntity
  8
0
  6
Continuous
 62
     7
370
    15
100
AcDbLine
 10
2116.696107445269
 20
986.9303308281661
 30
0.0
 11
2116.696107445269
 21
985.6920941587151
 31
0.0
  0
SPLINE
  5
595
330
52C
100
AcDbEntity
  8
0
  6
Continuous
 62
     7
370
    15
100
AcDbSpline
210
0.0
220
0.0
230
1.0
 70
     8
 71
     3
 72
     8
 73
     4
 74
     0
 42
0.0000000001
 43
0.0000000001
 40
0.0000000000000038
 40
0.0000000000000038
 40
0.0000000000000038
 40
0.0000000000000038
 40
0.001200933594908
 40
0.001200933594908
 40
0.001200933594908
 40
0.001200933594908
 10
2116.696107476562
 20
985.6920943633001
 30
0.0
 10
2116.682139096072
 20
985.6848642533423
 30
0.0
 10
2116.668170784741
 20
985.6775234185194
 30
0.0
 10
2116.654202553172
 20
985.6700608248715
 30
0.0
  0
LINE
  5
596
330
52C
100
AcDbEntity
  8
0
  6
Continuous
 62
     7
370
    15
100
AcDbLine
 10
2116.654202586024
 20
985.6700604635836
 30
0.0
 11
2116.654202586024
 21
987.2964011359574
 31
0.0
  0
LINE
  5
597
330
52C
100
AcDbEntity
  8
0
  6
Continuous
 62
     7
370
    15
100
AcDbLine
 10
2107.354203483074
 20
987.2964011359574
 30
0.0
 11
2107.363356521338
 21
987.3039066645862
 31
0.0
  0
SPLINE
  5
598
330
52C
100
AcDbEntity
  8
0
  6
Continuous
 62
     7
370
    15
100
AcDbSpline
210
0.0
220
0.0
230
1.0
 70
     8
 71
     3
 72
     8
 73
     4
 74
     0
 42
0.0000000001
 43
0.0000000001
 40
0.000000000000006
 40
0.000000000000006
 40
0.000000000000006
 40
0.000000000000006
 40
0.0006674565865954
 40
0.0006674565865954
 40
0.0006674565865954
 40
0.0006674565865954
 10
2107.363356480188
 20
987.3039066037666
 30
0.0
 10
2107.371085413518
 20
987.2825963548963
 30
0.0
 10
2107.378814048848
 20
987.261197147086
 30
0.0
 10
2107.386542355798
 20
987.2397011930489
 30
0.0
  0
LINE
  5
599
330
52C
100
AcDbEntity
  8
0
  6
Continuous
 62
     7
370
    15
100
AcDbLine
 10
2107.396107410997
 20
986.9303308281661
 30
0.0
 11
2107.396107410997
 21
985.6920941587151
 31
0.0
  0
SPLINE
  5
59A
330
52C
100
AcDbEntity
  8
0
  6
Continuous
 62
     7
370
    15
100
AcDbSpline
210
0.0
220
0.0
230
1.0
 70
     8
 71
     3
 72
     8
 73
     4
 74
     0
 42
0.0000000001
 43
0.0000000001
 40
0.0000000000000039
 40
0.0000000000000039
 40
0.0000000000000039
 40
0.0000000000000039
 40
0.001200933594908
 40
0.001200933594908
 40
0.001200933594908
 40
0.001200933594908
 10
2107.396107476562
 20
985.6920943633044
 30
0.0
 10
2107.382139096072
 20
985.6848642533453
 30
0.0
 10
2107.368170784741
 20
985.6775234185208
 30
0.0
 10
2107.354202553173
 20
985.6700608248715
 30
0.0
  0
LINE
  5
59B
330
52C
100
AcDbEntity
  8
0
  6
Continuous
 62
     7
370
    15
100
AcDbLine
 10
2107.354203483074
 20
985.6700604635836
 30
0.0
 11
2107.354203483074
 21
987.2964011359574
 31
0.0
  0
LINE
  5
59C
330
52C
100
AcDbEntity
  8
0
  6
Continuous
 62
     7
370
    15
100
AcDbLine
 10
2115.738012140601
 20
982.6737284514667
 30
0.0
 11
2115.728858171015
 21
982.6662229228379
 31
0.0
  0
SPLINE
  5
59D
330
52C
100
AcDbEntity
  8
0
  6
Continuous
 62
     7
370
    15
100
AcDbSpline
210
0.0
220
0.0
230
1.0
 70
     8
 71
     3
 72
     8
 73
     4
 74
     0
 42
0.0000000001
 43
0.0000000001
 40
0.000000000000006
 40
0.000000000000006
 40
0.000000000000006
 40
0.000000000000006
 40
0.0006674565865951
 40
0.0006674565865951
 40
0.0006674565865951
 40
0.0006674565865951
 10
2115.728858472936
 20
982.6662229761975
 30
0.0
 10
2115.721129539606
 20
982.6875332250667
 30
0.0
 10
2115.713400904277
 20
982.7089324328763
 30
0.0
 10
2115.705672597326
 20
982.7304283869125
 30
0.0
  0
LINE
  5
59E
330
52C
100
AcDbEntity
  8
0
  6
Continuous
 62
     7
370
    15
100
AcDbLine
 10
2115.696107281356
 20
983.0397987592579
 30
0.0
 11
2115.696107281356
 21
984.2780349630476
 31
0.0
  0
SPLINE
  5
59F
330
52C
100
AcDbEntity
  8
0
  6
Continuous
 62
     7
370
    15
100
AcDbSpline
210
0.0
220
0.0
230
1.0
 70
     8
 71
     3
 72
     8
 73
     4
 74
     0
 42
0.0000000001
 43
0.0000000001
 40
0.0000000000000053
 40
0.0000000000000053
 40
0.0000000000000053
 40
0.0000000000000053
 40
0.001200933594915
 40
0.001200933594915
 40
0.001200933594915
 40
0.001200933594915
 10
2115.738012399952
 20
984.3000687551016
 30
0.0
 10
2115.724044168383
 20
984.2926061614539
 30
0.0
 10
2115.710075857052
 20
984.2852653266309
 30
0.0
 10
2115.696107476562
 20
984.2780352166732
 30
0.0
  0
LINE
  5
5A0
330
52C
100
AcDbEntity
  8
0
  6
Continuous
 62
     7
370
    15
100
AcDbLine
 10
2115.738012140601
 20
984.3000691238405
 30
0.0
 11
2115.738012140601
 21
982.6737284514667
 31
0.0
  0
LINE
  5
5A1
330
52C
100
AcDbEntity
  8
0
  6
Continuous
 62
     7
370
    15
100
AcDbLine
 10
2106.438013037651
 20
982.6737284514667
 30
0.0
 11
2106.428858136743
 21
982.6662229228379
 31
0.0
  0
SPLINE
  5
5A2
330
52C
100
AcDbEntity
  8
0
  6
Continuous
 62
     7
370
    15
100
AcDbSpline
210
0.0
220
0.0
230
1.0
 70
     8
 71
     3
 72
     8
 73
     4
 74
     0
 42
0.0000000001
 43
0.0000000001
 40
0.0000000000000058
 40
0.0000000000000058
 40
0.0000000000000058
 40
0.0000000000000058
 40
0.0006674565865951
 40
0.0006674565865951
 40
0.0006674565865951
 40
0.0006674565865951
 10
2106.428858472936
 20
982.6662229762067
 30
0.0
 10
2106.421129539607
 20
982.687533225077
 30
0.0
 10
2106.413400904276
 20
982.7089324328873
 30
0.0
 10
2106.405672597326
 20
982.7304283869244
 30
0.0
  0
LINE
  5
5A3
330
52C
100
AcDbEntity
  8
0
  6
Continuous
 62
     7
370
    15
100
AcDbLine
 10
2106.396107247084
 20
983.0397987592579
 30
0.0
 11
2106.396107247084
 21
984.2780349630476
 31
0.0
  0
SPLINE
  5
5A4
330
52C
100
AcDbEntity
  8
0
  6
Continuous
 62
     7
370
    15
100
AcDbSpline
210
0.0
220
0.0
230
1.0
 70
     8
 71
     3
 72
     8
 73
     4
 74
     0
 42
0.0000000001
 43
0.0000000001
 40
0.0000000000000053
 40
0.0000000000000053
 40
0.0000000000000053
 40
0.0000000000000053
 40
0.0012009335949151
 40
0.0012009335949151
 40
0.0012009335949151
 40
0.0012009335949151
 10
2106.438012399951
 20
984.3000687551016
 30
0.0
 10
2106.424044168383
 20
984.2926061614525
 30
0.0
 10
2106.410075857052
 20
984.285265326628
 30
0.0
 10
2106.396107476562
 20
984.2780352166688
 30
0.0
  0
LINE
  5
5A5
330
52C
100
AcDbEntity
  8
0
  6
Continuous
 62
     7
370
    15
100
AcDbLine
 10
2106.438013037651
 20
984.3000691238405
 30
0.0
 11
2106.438013037651
 21
982.6737284514667
 31
0.0
  0
LINE
  5
5A6
330
52C
100
AcDbEntity
  8
0
  6
Continuous
 62
     7
370
    15
100
AcDbLine
 10
2116.654202586024
 20
970.296401143408
 30
0.0
 11
2116.66335655561
 21
970.3039057407142
 31
0.0
  0
SPLINE
  5
5A7
330
52C
100
AcDbEntity
  8
0
  6
Continuous
 62
     7
370
    15
100
AcDbSpline
210
0.0
220
0.0
230
1.0
 70
     8
 71
     3
 72
     8
 73
     4
 74
     0
 42
0.0000000001
 43
0.0000000001
 40
0.0000000000000061
 40
0.0000000000000061
 40
0.0000000000000061
 40
0.0000000000000061
 40
0.0006674565865954
 40
0.0006674565865954
 40
0.0006674565865954
 40
0.0006674565865954
 10
2116.663356480188
 20
970.303906603776
 30
0.0
 10
2116.671085413517
 20
970.2825963549067
 30
0.0
 10
2116.678814048848
 20
970.2611971470972
 30
0.0
 10
2116.686542355798
 20
970.2397011930608
 30
0.0
  0
LINE
  5
5A8
330
52C
100
AcDbEntity
  8
0
  6
Continuous
 62
     7
370
    15
100
AcDbLine
 10
2116.696107445269
 20
969.9303317669393
 30
0.0
 11
2116.696107445269
 21
968.6920937005044
 31
0.0
  0
SPLINE
  5
5A9
330
52C
100
AcDbEntity
  8
0
  6
Continuous
 62
     7
370
    15
100
AcDbSpline
210
0.0
220
0.0
230
1.0
 70
     8
 71
     3
 72
     8
 73
     4
 74
     0
 42
0.0000000001
 43
0.0000000001
 40
0.0000000000000038
 40
0.0000000000000038
 40
0.0000000000000038
 40
0.0000000000000038
 40
0.001200933594908
 40
0.001200933594908
 40
0.001200933594908
 40
0.001200933594908
 10
2116.696107476562
 20
968.6920943633008
 30
0.0
 10
2116.682139096072
 20
968.684864253343
 30
0.0
 10
2116.668170784741
 20
968.6775234185201
 30
0.0
 10
2116.654202553172
 20
968.6700608248722
 30
0.0
  0
LINE
  5
5AA
330
52C
100
AcDbEntity
  8
0
  6
Continuous
 62
     7
370
    15
100
AcDbLine
 10
2116.654202586024
 20
968.6700604710342
 30
0.0
 11
2116.654202586024
 21
970.296401143408
 31
0.0
  0
LINE
  5
5AB
330
52C
100
AcDbEntity
  8
0
  6
Continuous
 62
     7
370
    15
100
AcDbLine
 10
2107.354203483074
 20
970.296401143408
 30
0.0
 11
2107.363356521338
 21
970.3039057407142
 31
0.0
  0
SPLINE
  5
5AC
330
52C
100
AcDbEntity
  8
0
  6
Continuous
 62
     7
370
    15
100
AcDbSpline
210
0.0
220
0.0
230
1.0
 70
     8
 71
     3
 72
     8
 73
     4
 74
     0
 42
0.0000000001
 43
0.0000000001
 40
0.000000000000006
 40
0.000000000000006
 40
0.000000000000006
 40
0.000000000000006
 40
0.0006674565865954
 40
0.0006674565865954
 40
0.0006674565865954
 40
0.0006674565865954
 10
2107.363356480188
 20
970.3039066037666
 30
0.0
 10
2107.371085413518
 20
970.2825963548963
 30
0.0
 10
2107.378814048848
 20
970.261197147086
 30
0.0
 10
2107.386542355798
 20
970.2397011930489
 30
0.0
  0
LINE
  5
5AD
330
52C
100
AcDbEntity
  8
0
  6
Continuous
 62
     7
370
    15
100
AcDbLine
 10
2107.396107410997
 20
969.9303317669393
 30
0.0
 11
2107.396107410997
 21
968.6920937005044
 31
0.0
  0
SPLINE
  5
5AE
330
52C
100
AcDbEntity
  8
0
  6
Continuous
 62
     7
370
    15
100
AcDbSpline
210
0.0
220
0.0
230
1.0
 70
     8
 71
     3
 72
     8
 73
     4
 74
     0
 42
0.0000000001
 43
0.0000000001
 40
0.0000000000000039
 40
0.0000000000000039
 40
0.0000000000000039
 40
0.0000000000000039
 40
0.001200933594908
 40
0.001200933594908
 40
0.001200933594908
 40
0.001200933594908
 10
2107.396107476562
 20
968.6920943633051
 30
0.0
 10
2107.382139096072
 20
968.684864253346
 30
0.0
 10
2107.368170784741
 20
968.6775234185216
 30
0.0
 10
2107.354202553173
 20
968.6700608248722
 30
0.0
  0
LINE
  5
5AF
330
52C
100
AcDbEntity
  8
0
  6
Continuous
 62
     7
370
    15
100
AcDbLine
 10
2107.354203483074
 20
968.6700604710342
 30
0.0
 11
2107.354203483074
 21
970.296401143408
 31
0.0
  0
LINE
  5
5B0
330
52C
100
AcDbEntity
  8
0
  6
Continuous
 62
     7
370
    15
100
AcDbLine
 10
2106.438013037651
 20
965.6737293902398
 30
0.0
 11
2106.428858136743
 21
965.6662229302884
 31
0.0
  0
SPLINE
  5
5B1
330
52C
100
AcDbEntity
  8
0
  6
Continuous
 62
     7
370
    15
100
AcDbSpline
210
0.0
220
0.0
230
1.0
 70
     8
 71
     3
 72
     8
 73
     4
 74
     0
 42
0.0000000001
 43
0.0000000001
 40
0.0000000000000058
 40
0.0000000000000058
 40
0.0000000000000058
 40
0.0000000000000058
 40
0.0006674565865951
 40
0.0006674565865951
 40
0.0006674565865951
 40
0.0006674565865951
 10
2106.428858472936
 20
965.6662229762067
 30
0.0
 10
2106.421129539607
 20
965.687533225077
 30
0.0
 10
2106.413400904276
 20
965.7089324328874
 30
0.0
 10
2106.405672597326
 20
965.7304283869244
 30
0.0
  0
LINE
  5
5B2
330
52C
100
AcDbEntity
  8
0
  6
Continuous
 62
     7
370
    15
100
AcDbLine
 10
2106.396107247084
 20
966.0397987667085
 30
0.0
 11
2106.396107247084
 21
967.2780349704982
 31
0.0
  0
SPLINE
  5
5B3
330
52C
100
AcDbEntity
  8
0
  6
Continuous
 62
     7
370
    15
100
AcDbSpline
210
0.0
220
0.0
230
1.0
 70
     8
 71
     3
 72
     8
 73
     4
 74
     0
 42
0.0000000001
 43
0.0000000001
 40
0.0000000000000053
 40
0.0000000000000053
 40
0.0000000000000053
 40
0.0000000000000053
 40
0.0012009335949151
 40
0.0012009335949151
 40
0.0012009335949151
 40
0.0012009335949151
 10
2106.438012399951
 20
967.3000687551009
 30
0.0
 10
2106.424044168383
 20
967.2926061614518
 30
0.0
 10
2106.410075857052
 20
967.2852653266273
 30
0.0
 10
2106.396107476562
 20
967.2780352166681
 30
0.0
  0
LINE
  5
5B4
330
52C
100
AcDbEntity
  8
0
  6
Continuous
 62
     7
370
    15
100
AcDbLine
 10
2106.438013037651
 20
967.3000681999685
 30
0.0
 11
2106.438013037651
 21
965.6737293902398
 31
0.0
  0
LINE
  5
5B5
330
52C
100
AcDbEntity
  8
0
  6
Continuous
 62
     7
370
    15
100
AcDbLine
 10
2115.738012140601
 20
965.6737293902398
 30
0.0
 11
2115.728858171015
 21
965.6662229302884
 31
0.0
  0
SPLINE
  5
5B6
330
52C
100
AcDbEntity
  8
0
  6
Continuous
 62
     7
370
    15
100
AcDbSpline
210
0.0
220
0.0
230
1.0
 70
     8
 71
     3
 72
     8
 73
     4
 74
     0
 42
0.0000000001
 43
0.0000000001
 40
0.000000000000006
 40
0.000000000000006
 40
0.000000000000006
 40
0.000000000000006
 40
0.0006674565865951
 40
0.0006674565865951
 40
0.0006674565865951
 40
0.0006674565865951
 10
2115.728858472936
 20
965.6662229761973
 30
0.0
 10
2115.721129539606
 20
965.6875332250667
 30
0.0
 10
2115.713400904277
 20
965.7089324328763
 30
0.0
 10
2115.705672597326
 20
965.7304283869125
 30
0.0
  0
LINE
  5
5B7
330
52C
100
AcDbEntity
  8
0
  6
Continuous
 62
     7
370
    15
100
AcDbLine
 10
2115.696107281356
 20
966.0397987667085
 30
0.0
 11
2115.696107281356
 21
967.2780349704982
 31
0.0
  0
SPLINE
  5
5B8
330
52C
100
AcDbEntity
  8
0
  6
Continuous
 62
     7
370
    15
100
AcDbSpline
210
0.0
220
0.0
230
1.0
 70
     8
 71
     3
 72
     8
 73
     4
 74
     0
 42
0.0000000001
 43
0.0000000001
 40
0.0000000000000053
 40
0.0000000000000053
 40
0.0000000000000053
 40
0.0000000000000053
 40
0.001200933594915
 40
0.001200933594915
 40
0.001200933594915
 40
0.001200933594915
 10
2115.738012399952
 20
967.3000687551009
 30
0.0
 10
2115.724044168383
 20
967.2926061614532
 30
0.0
 10
2115.710075857052
 20
967.2852653266302
 30
0.0
 10
2115.696107476562
 20
967.2780352166725
 30
0.0
  0
LINE
  5
5B9
330
52C
100
AcDbEntity
  8
0
  6
Continuous
 62
     7
370
    15
100
AcDbLine
 10
2115.738012140601
 20
967.3000681999685
 30
0.0
 11
2115.738012140601
 21
965.6737293902398
 31
0.0
  0
LINE
  5
5BA
330
52C
100
AcDbEntity
  8
0
  6
Continuous
 62
     7
370
    15
100
AcDbLine
 10
2114.430655969291
 20
985.4560648876788
 30
0.0
 11
2115.469437336534
 21
985.4560648876788
 31
0.0
  0
ARC
  5
5BB
330
52C
100
AcDbEntity
  8
0
  6
Continuous
 62
     7
370
    15
100
AcDbCircle
 10
2116.196107476562
 20
984.9850647899867
 30
0.0
 40
1.827199999998419
100
AcDbArc
 50
165.0621309251863
 51
194.9378690748422
  0
LINE
  5
5BC
330
52C
100
AcDbEntity
  8
0
  6
Continuous
 62
     7
370
    15
100
AcDbLine
 10
2115.469437336534
 20
984.5140646997453
 30
0.0
 11
2114.430655969291
 21
984.5140646997453
 31
0.0
  0
ARC
  5
5BD
330
52C
100
AcDbEntity
  8
0
  6
Continuous
 62
     7
370
    15
100
AcDbCircle
 10
2116.196107476562
 20
984.9850647899867
 30
0.0
 40
0.8659623649675751
100
AcDbArc
 50
212.949767528189
 51
234.7326609790563
  0
ARC
  5
5BE
330
52C
100
AcDbEntity
  8
0
  6
Continuous
 62
     7
370
    15
100
AcDbCircle
 10
2116.196107476562
 20
984.9850647899867
 30
0.0
 40
0.8659623649676149
100
AcDbArc
 50
125.2673390209437
 51
147.0502324718744
  0
LINE
  5
5BF
330
52C
100
AcDbEntity
  8
0
  6
Continuous
 62
     7
370
    15
100
AcDbLine
 10
2105.130655935019
 20
985.4560648876788
 30
0.0
 11
2106.169436370938
 21
985.4560648876788
 31
0.0
  0
ARC
  5
5C0
330
52C
100
AcDbEntity
  8
0
  6
Continuous
 62
     7
370
    15
100
AcDbCircle
 10
2106.896107476562
 20
984.9850647899867
 30
0.0
 40
1.827200000004735
100
AcDbArc
 50
165.06213092524
 51
194.9378690747851
  0
LINE
  5
5C1
330
52C
100
AcDbEntity
  8
0
  6
Continuous
 62
     7
370
    15
100
AcDbLine
 10
2106.169436370938
 20
984.5140646997453
 30
0.0
 11
2105.130655935019
 21
984.5140646997453
 31
0.0
  0
ARC
  5
5C2
330
52C
100
AcDbEntity
  8
0
  6
Continuous
 62
     7
370
    15
100
AcDbCircle
 10
2106.896107476562
 20
984.9850647899867
 30
0.0
 40
0.8659623649711488
100
AcDbArc
 50
212.9497675280426
 51
234.732660979219
  0
ARC
  5
5C3
330
52C
100
AcDbEntity
  8
0
  6
Continuous
 62
     7
370
    15
100
AcDbCircle
 10
2106.896107476562
 20
984.9850647899867
 30
0.0
 40
0.8659623649711685
100
AcDbArc
 50
125.2673390207809
 51
147.0502324720278
  0
ARC
  5
5C4
330
52C
100
AcDbEntity
  8
0
  6
Continuous
 62
     7
370
    15
100
AcDbCircle
 10
2106.896107476562
 20
984.9850647899867
 30
0.0
 40
0.8659623649711512
100
AcDbArc
 50
32.94976752793775
 51
54.7326609792009
  0
ARC
  5
5C5
330
52C
100
AcDbEntity
  8
0
  6
Continuous
 62
     7
370
    15
100
AcDbCircle
 10
2106.896107476562
 20
984.9850647899867
 30
0.0
 40
0.8659623649711408
100
AcDbArc
 50
305.2673390207991
 51
327.0502324718689
  0
LINE
  5
5C6
330
52C
100
AcDbEntity
  8
0
  6
Continuous
 62
     7
370
    15
100
AcDbLine
 10
2108.661558723062
 20
984.5140646997453
 30
0.0
 11
2107.622778287142
 21
984.5140646997453
 31
0.0
  0
ARC
  5
5C7
330
52C
100
AcDbEntity
  8
0
  6
Continuous
 62
     7
370
    15
100
AcDbCircle
 10
2106.896107476562
 20
984.9850647899867
 30
0.0
 40
1.827200000001185
100
AcDbArc
 50
345.0621309251452
 51
14.93786907477258
  0
LINE
  5
5C8
330
52C
100
AcDbEntity
  8
0
  6
Continuous
 62
     7
370
    15
100
AcDbLine
 10
2107.622778287142
 20
985.4560648876788
 30
0.0
 11
2108.661558723062
 21
985.4560648876788
 31
0.0
  0
ARC
  5
5C9
330
52C
100
AcDbEntity
  8
0
  6
Continuous
 62
     7
370
    15
100
AcDbCircle
 10
2116.196107476562
 20
984.9850647899867
 30
0.0
 40
0.8659623649675975
100
AcDbArc
 50
32.94976752808959
 51
54.73266097903812
  0
ARC
  5
5CA
330
52C
100
AcDbEntity
  8
0
  6
Continuous
 62
     7
370
    15
100
AcDbCircle
 10
2116.196107476562
 20
984.9850647899867
 30
0.0
 40
0.8659623649675904
100
AcDbArc
 50
305.2673390209725
 51
327.0502324717171
  0
LINE
  5
5CB
330
52C
100
AcDbEntity
  8
0
  6
Continuous
 62
     7
370
    15
100
AcDbLine
 10
2117.961558757334
 20
984.5140646997453
 30
0.0
 11
2116.922777390092
 21
984.5140646997453
 31
0.0
  0
ARC
  5
5CC
330
52C
100
AcDbEntity
  8
0
  6
Continuous
 62
     7
370
    15
100
AcDbCircle
 10
2116.196107476562
 20
984.9850647899867
 30
0.0
 40
1.827199999999235
100
AcDbArc
 50
345.0621309251326
 51
14.93786907479482
  0
LINE
  5
5CD
330
52C
100
AcDbEntity
  8
0
  6
Continuous
 62
     7
370
    15
100
AcDbLine
 10
2116.922777390092
 20
985.4560648876788
 30
0.0
 11
2117.961558757334
 21
985.4560648876788
 31
0.0
  0
SPLINE
  5
5CE
330
52C
100
AcDbEntity
  8
0
  6
Continuous
 62
     7
370
    15
100
AcDbSpline
210
0.0
220
0.0
230
1.0
 70
     8
 71
     3
 72
     8
 73
     4
 74
     0
 42
0.0000000001
 43
0.0000000001
 40
0.0000000000000064
 40
0.0000000000000064
 40
0.0000000000000064
 40
0.0000000000000064
 40
0.0012011709340926
 40
0.0012011709340926
 40
0.0012011709340926
 40
0.0012011709340926
 10
2114.463145871161
 20
985.4141598665957
 30
0.0
 10
2114.452214475771
 20
985.4281280781458
 30
0.0
 10
2114.441386390788
 20
985.4420963885852
 30
0.0
 10
2114.430656021552
 20
985.4560647899855
 30
0.0
  0
SPLINE
  5
5CF
330
52C
100
AcDbEntity
  8
0
  6
Continuous
 62
     7
370
    15
100
AcDbSpline
210
0.0
220
0.0
230
1.0
 70
     8
 71
     3
 72
     8
 73
     4
 74
     0
 42
0.0000000001
 43
0.0000000001
 40
0.0000000000000053
 40
0.0000000000000053
 40
0.0000000000000053
 40
0.0000000000000053
 40
0.0012009544990716
 40
0.0012009544990716
 40
0.0012009544990716
 40
0.0012009544990716
 10
2115.492582009892
 20
985.4141598665957
 30
0.0
 10
2115.4847401873
 20
985.4281280883524
 30
0.0
 10
2115.477029259864
 20
985.4420964002255
 30
0.0
 10
2115.469437112819
 20
985.4560647899855
 30
0.0
  0
LINE
  5
5D0
330
52C
100
AcDbEntity
  8
0
  6
Continuous
 62
     7
370
    15
100
AcDbLine
 10
2115.492581633835
 20
985.4141600284339
 30
0.0
 11
2114.463146088629
 21
985.4141600284339
 31
0.0
  0
SPLINE
  5
5D1
330
52C
100
AcDbEntity
  8
0
  6
Continuous
 62
     7
370
    15
100
AcDbSpline
210
0.0
220
0.0
230
1.0
 70
     8
 71
     3
 72
     8
 73
     4
 74
     0
 42
0.0000000001
 43
0.0000000001
 40
0.0000000000000019
 40
0.0000000000000019
 40
0.0000000000000019
 40
0.0000000000000019
 40
0.0012009544990663
 40
0.0012009544990663
 40
0.0012009544990663
 40
0.0012009544990663
 10
2107.622777840309
 20
985.456064789985
 30
0.0
 10
2107.615185693263
 20
985.4420964002249
 30
0.0
 10
2107.607474765826
 20
985.4281280883519
 30
0.0
 10
2107.599632943232
 20
985.4141598665954
 30
0.0
  0
SPLINE
  5
5D2
330
52C
100
AcDbEntity
  8
0
  6
Continuous
 62
     7
370
    15
100
AcDbSpline
210
0.0
220
0.0
230
1.0
 70
     8
 71
     3
 72
     8
 73
     4
 74
     0
 42
0.0000000001
 43
0.0000000001
 40
0.0000000000000023
 40
0.0000000000000023
 40
0.0000000000000023
 40
0.0000000000000023
 40
0.001201170934088
 40
0.001201170934088
 40
0.001201170934088
 40
0.001201170934088
 10
2108.661558931574
 20
985.456064789985
 30
0.0
 10
2108.650828562339
 20
985.4420963885846
 30
0.0
 10
2108.640000477357
 20
985.4281280781453
 30
0.0
 10
2108.629069081967
 20
985.414159866595
 30
0.0
  0
LINE
  5
5D3
330
52C
100
AcDbEntity
  8
0
  6
Continuous
 62
     7
370
    15
100
AcDbLine
 10
2108.629068603724
 20
985.4141600284339
 30
0.0
 11
2107.599633058518
 21
985.4141600284339
 31
0.0
  0
SPLINE
  5
5D4
330
52C
100
AcDbEntity
  8
0
  6
Continuous
 62
     7
370
    15
100
AcDbSpline
210
0.0
220
0.0
230
1.0
 70
     8
 71
     3
 72
     8
 73
     4
 74
     0
 42
0.0000000001
 43
0.0000000001
 40
0.0000000000000064
 40
0.0000000000000064
 40
0.0000000000000064
 40
0.0000000000000064
 40
0.0012011709340926
 40
0.0012011709340926
 40
0.0012011709340926
 40
0.0012011709340926
 10
2105.163145871157
 20
985.4141598665957
 30
0.0
 10
2105.152214475765
 20
985.4281280781458
 30
0.0
 10
2105.141386390782
 20
985.4420963885852
 30
0.0
 10
2105.130656021546
 20
985.4560647899855
 30
0.0
  0
SPLINE
  5
5D5
330
52C
100
AcDbEntity
  8
0
  6
Continuous
 62
     7
370
    15
100
AcDbSpline
210
0.0
220
0.0
230
1.0
 70
     8
 71
     3
 72
     8
 73
     4
 74
     0
 42
0.0000000001
 43
0.0000000001
 40
0.0000000000000053
 40
0.0000000000000053
 40
0.0000000000000053
 40
0.0000000000000053
 40
0.0012009544990717
 40
0.0012009544990717
 40
0.0012009544990717
 40
0.0012009544990717
 10
2106.192582009892
 20
985.4141598665957
 30
0.0
 10
2106.184740187298
 20
985.4281280883524
 30
0.0
 10
2106.17702925986
 20
985.4420964002255
 30
0.0
 10
2106.169437112815
 20
985.4560647899855
 30
0.0
  0
LINE
  5
5D6
330
52C
100
AcDbEntity
  8
0
  6
Continuous
 62
     7
370
    15
100
AcDbLine
 10
2106.192581599563
 20
985.4141600284339
 30
0.0
 11
2105.163146054357
 21
985.4141600284339
 31
0.0
  0
ARC
  5
5D7
330
52C
100
AcDbEntity
  8
0
  6
Continuous
 62
     7
370
    15
100
AcDbCircle
 10
2106.896107476562
 20
984.9850647899867
 30
0.0
 40
0.8240574415799827
100
AcDbArc
 50
123.7728561571684
 51
148.6201007701428
  0
SPLINE
  5
5D8
330
52C
100
AcDbEntity
  8
0
  6
Continuous
 62
     7
370
    15
100
AcDbSpline
210
0.0
220
0.0
230
1.0
 70
     8
 71
     3
 72
     8
 73
     4
 74
     0
 42
0.0000000001
 43
0.0000000001
 40
0.0000000000000064
 40
0.0000000000000064
 40
0.0000000000000064
 40
0.0000000000000064
 40
0.0012009544990722
 40
0.0012009544990722
 40
0.0012009544990722
 40
0.0012009544990722
 10
2115.492582009892
 20
984.5559697133769
 30
0.0
 10
2115.4847401873
 20
984.5420014916202
 30
0.0
 10
2115.477029259864
 20
984.5280331797473
 30
0.0
 10
2115.469437112821
 20
984.5140647899871
 30
0.0
  0
ARC
  5
5D9
330
52C
100
AcDbEntity
  8
0
  6
Continuous
 62
     7
370
    15
100
AcDbCircle
 10
2116.196107476562
 20
984.9850647899867
 30
0.0
 40
0.8240574415799489
100
AcDbArc
 50
211.3798992299276
 51
236.2271438428172
  0
ARC
  5
5DA
330
52C
100
AcDbEntity
  8
0
  6
Continuous
 62
     7
370
    15
100
AcDbCircle
 10
2116.196107476562
 20
984.9850647899867
 30
0.0
 40
0.8240574415799827
100
AcDbArc
 50
123.7728561571684
 51
148.6201007701428
  0
SPLINE
  5
5DB
330
52C
100
AcDbEntity
  8
0
  6
Continuous
 62
     7
370
    15
100
AcDbSpline
210
0.0
220
0.0
230
1.0
 70
     8
 71
     3
 72
     8
 73
     4
 74
     0
 42
0.0000000001
 43
0.0000000001
 40
0.0000000000000019
 40
0.0000000000000019
 40
0.0000000000000019
 40
0.0000000000000019
 40
0.0012009544990663
 40
0.0012009544990663
 40
0.0012009544990663
 40
0.0012009544990663
 10
2116.922777840304
 20
985.456064789985
 30
0.0
 10
2116.91518569326
 20
985.4420964002249
 30
0.0
 10
2116.907474765824
 20
985.4281280883519
 30
0.0
 10
2116.899632943232
 20
985.4141598665954
 30
0.0
  0
SPLINE
  5
5DC
330
52C
100
AcDbEntity
  8
0
  6
Continuous
 62
     7
370
    15
100
AcDbSpline
210
0.0
220
0.0
230
1.0
 70
     8
 71
     3
 72
     8
 73
     4
 74
     0
 42
0.0000000001
 43
0.0000000001
 40
0.0000000000000023
 40
0.0000000000000023
 40
0.0000000000000023
 40
0.0000000000000023
 40
0.001201170934054
 40
0.001201170934054
 40
0.001201170934054
 40
0.001201170934054
 10
2117.961558931572
 20
985.456064789985
 30
0.0
 10
2117.950828562336
 20
985.4420963885848
 30
0.0
 10
2117.940000477351
 20
985.4281280781457
 30
0.0
 10
2117.92906908196
 20
985.4141598665956
 30
0.0
  0
LINE
  5
5DD
330
52C
100
AcDbEntity
  8
0
  6
Continuous
 62
     7
370
    15
100
AcDbLine
 10
2117.929068637996
 20
985.4141600284339
 30
0.0
 11
2116.89963309279
 21
985.4141600284339
 31
0.0
  0
SPLINE
  5
5DE
330
52C
100
AcDbEntity
  8
0
  6
Continuous
 62
     7
370
    15
100
AcDbSpline
210
0.0
220
0.0
230
1.0
 70
     8
 71
     3
 72
     8
 73
     4
 74
     0
 42
0.0000000001
 43
0.0000000001
 40
0.0000000000000053
 40
0.0000000000000053
 40
0.0000000000000053
 40
0.0000000000000053
 40
0.001201170934092
 40
0.001201170934092
 40
0.001201170934092
 40
0.001201170934092
 10
2114.463145871161
 20
984.5559697133769
 30
0.0
 10
2114.452214475771
 20
984.5420015018266
 30
0.0
 10
2114.441386390788
 20
984.5280331913874
 30
0.0
 10
2114.430656021553
 20
984.5140647899871
 30
0.0
  0
ARC
  5
5DF
330
52C
100
AcDbEntity
  8
0
  6
Continuous
 62
     7
370
    15
100
AcDbCircle
 10
2116.196107476562
 20
984.9850647899867
 30
0.0
 40
1.785295076609243
100
AcDbArc
 50
166.0928211147677
 51
193.9071788852638
  0
ARC
  5
5E0
330
52C
100
AcDbEntity
  8
0
  6
Continuous
 62
     7
370
    15
100
AcDbCircle
 10
2116.196107476562
 20
984.9850647899867
 30
0.0
 40
0.824057441579983
100
AcDbArc
 50
31.37989922981704
 51
56.22714384281355
  0
ARC
  5
5E1
330
52C
100
AcDbEntity
  8
0
  6
Continuous
 62
     7
370
    15
100
AcDbCircle
 10
2106.896107476562
 20
984.9850647899867
 30
0.0
 40
0.824057441579983
100
AcDbArc
 50
31.37989922981704
 51
56.22714384281355
  0
SPLINE
  5
5E2
330
52C
100
AcDbEntity
  8
0
  6
Continuous
 62
     7
370
    15
100
AcDbSpline
210
0.0
220
0.0
230
1.0
 70
     8
 71
     3
 72
     8
 73
     4
 74
     0
 42
0.0000000001
 43
0.0000000001
 40
0.0000000000000023
 40
0.0000000000000023
 40
0.0000000000000023
 40
0.0000000000000023
 40
0.0012009544990676
 40
0.0012009544990676
 40
0.0012009544990676
 40
0.0012009544990676
 10
2116.922777840303
 20
984.514064789986
 30
0.0
 10
2116.915185693259
 20
984.5280331797463
 30
0.0
 10
2116.907474765823
 20
984.5420014916191
 30
0.0
 10
2116.89963294323
 20
984.555969713376
 30
0.0
  0
ARC
  5
5E3
330
52C
100
AcDbEntity
  8
0
  6
Continuous
 62
     7
370
    15
100
AcDbCircle
 10
2116.196107476562
 20
984.9850647899867
 30
0.0
 40
0.8240574415799571
100
AcDbArc
 50
303.7728561571864
 51
328.6201007699909
  0
SPLINE
  5
5E4
330
52C
100
AcDbEntity
  8
0
  6
Continuous
 62
     7
370
    15
100
AcDbSpline
210
0.0
220
0.0
230
1.0
 70
     8
 71
     3
 72
     8
 73
     4
 74
     0
 42
0.0000000001
 43
0.0000000001
 40
0.0000000000000023
 40
0.0000000000000023
 40
0.0000000000000023
 40
0.0000000000000023
 40
0.0012009544990677
 40
0.0012009544990677
 40
0.0012009544990677
 40
0.0012009544990677
 10
2107.622777840307
 20
984.514064789986
 30
0.0
 10
2107.615185693262
 20
984.5280331797463
 30
0.0
 10
2107.607474765824
 20
984.5420014916191
 30
0.0
 10
2107.59963294323
 20
984.555969713376
 30
0.0
  0
ARC
  5
5E5
330
52C
100
AcDbEntity
  8
0
  6
Continuous
 62
     7
370
    15
100
AcDbCircle
 10
2106.896107476562
 20
984.9850647899867
 30
0.0
 40
0.8240574415799571
100
AcDbArc
 50
303.7728561571864
 51
328.6201007699909
  0
LINE
  5
5E6
330
52C
100
AcDbEntity
  8
0
  6
Continuous
 62
     7
370
    15
100
AcDbLine
 10
2114.463146088629
 20
984.5559695589901
 30
0.0
 11
2115.492581633835
 21
984.5559695589901
 31
0.0
  0
SPLINE
  5
5E7
330
52C
100
AcDbEntity
  8
0
  6
Continuous
 62
     7
370
    15
100
AcDbSpline
210
0.0
220
0.0
230
1.0
 70
     8
 71
     3
 72
     8
 73
     4
 74
     0
 42
0.0000000001
 43
0.0000000001
 40
0.0000000000000064
 40
0.0000000000000064
 40
0.0000000000000064
 40
0.0000000000000064
 40
0.0012009544990723
 40
0.0012009544990723
 40
0.0012009544990723
 40
0.0012009544990723
 10
2106.192582009893
 20
984.5559697133769
 30
0.0
 10
2106.184740187299
 20
984.5420014916202
 30
0.0
 10
2106.177029259861
 20
984.5280331797473
 30
0.0
 10
2106.169437112816
 20
984.5140647899871
 30
0.0
  0
ARC
  5
5E8
330
52C
100
AcDbEntity
  8
0
  6
Continuous
 62
     7
370
    15
100
AcDbCircle
 10
2106.896107476562
 20
984.9850647899867
 30
0.0
 40
0.8240574415799489
100
AcDbArc
 50
211.3798992299276
 51
236.2271438428172
  0
SPLINE
  5
5E9
330
52C
100
AcDbEntity
  8
0
  6
Continuous
 62
     7
370
    15
100
AcDbSpline
210
0.0
220
0.0
230
1.0
 70
     8
 71
     3
 72
     8
 73
     4
 74
     0
 42
0.0000000001
 43
0.0000000001
 40
0.0000000000000053
 40
0.0000000000000053
 40
0.0000000000000053
 40
0.0000000000000053
 40
0.001201170934092
 40
0.001201170934092
 40
0.001201170934092
 40
0.001201170934092
 10
2105.163145871157
 20
984.5559697133769
 30
0.0
 10
2105.152214475766
 20
984.5420015018266
 30
0.0
 10
2105.141386390782
 20
984.5280331913874
 30
0.0
 10
2105.130656021546
 20
984.5140647899871
 30
0.0
  0
ARC
  5
5EA
330
52C
100
AcDbEntity
  8
0
  6
Continuous
 62
     7
370
    15
100
AcDbCircle
 10
2106.896107476562
 20
984.9850647899867
 30
0.0
 40
1.785295076613574
100
AcDbArc
 50
166.0928211148025
 51
193.9071788852323
  0
LINE
  5
5EB
330
52C
100
AcDbEntity
  8
0
  6
Continuous
 62
     7
370
    15
100
AcDbLine
 10
2105.163146054357
 20
984.5559695589901
 30
0.0
 11
2106.192581599563
 21
984.5559695589901
 31
0.0
  0
ARC
  5
5EC
330
52C
100
AcDbEntity
  8
0
  6
Continuous
 62
     7
370
    15
100
AcDbCircle
 10
2116.196107476562
 20
967.9850647899867
 30
0.0
 40
0.8659623649681222
100
AcDbArc
 50
32.9497675280661
 51
54.73266097906004
  0
ARC
  5
5ED
330
52C
100
AcDbEntity
  8
0
  6
Continuous
 62
     7
370
    15
100
AcDbCircle
 10
2116.196107476562
 20
967.9850647899867
 30
0.0
 40
0.8659623649681474
100
AcDbArc
 50
305.2673390209437
 51
327.0502324717406
  0
LINE
  5
5EE
330
52C
100
AcDbEntity
  8
0
  6
Continuous
 62
     7
370
    15
100
AcDbLine
 10
2117.961558757334
 20
967.5140656385185
 30
0.0
 11
2116.922777390092
 21
967.5140656385185
 31
0.0
  0
ARC
  5
5EF
330
52C
100
AcDbEntity
  8
0
  6
Continuous
 62
     7
370
    15
100
AcDbCircle
 10
2116.196107476562
 20
967.9850647899867
 30
0.0
 40
1.827199999999243
100
AcDbArc
 50
345.0621309251326
 51
14.93786907479482
  0
LINE
  5
5F0
330
52C
100
AcDbEntity
  8
0
  6
Continuous
 62
     7
370
    15
100
AcDbLine
 10
2116.922777390092
 20
968.4560648951293
 30
0.0
 11
2117.961558757334
 21
968.4560648951293
 31
0.0
  0
LINE
  5
5F1
330
52C
100
AcDbEntity
  8
0
  6
Continuous
 62
     7
370
    15
100
AcDbLine
 10
2114.430655969291
 20
968.4560648951293
 30
0.0
 11
2115.469437336534
 21
968.4560648951293
 31
0.0
  0
ARC
  5
5F2
330
52C
100
AcDbEntity
  8
0
  6
Continuous
 62
     7
370
    15
100
AcDbCircle
 10
2116.196107476562
 20
967.9850647899867
 30
0.0
 40
1.827199999998419
100
AcDbArc
 50
165.0621309251863
 51
194.9378690748422
  0
LINE
  5
5F3
330
52C
100
AcDbEntity
  8
0
  6
Continuous
 62
     7
370
    15
100
AcDbLine
 10
2115.469437336534
 20
967.5140656385185
 30
0.0
 11
2114.430655969291
 21
967.5140656385185
 31
0.0
  0
ARC
  5
5F4
330
52C
100
AcDbEntity
  8
0
  6
Continuous
 62
     7
370
    15
100
AcDbCircle
 10
2116.196107476562
 20
967.9850647899867
 30
0.0
 40
0.8659623649681321
100
AcDbArc
 50
212.9497675281655
 51
234.7326609790744
  0
ARC
  5
5F5
330
52C
100
AcDbEntity
  8
0
  6
Continuous
 62
     7
370
    15
100
AcDbCircle
 10
2116.196107476562
 20
967.9850647899867
 30
0.0
 40
0.8659623649681321
100
AcDbArc
 50
125.2673390209255
 51
147.0502324718978
  0
LINE
  5
5F6
330
52C
100
AcDbEntity
  8
0
  6
Continuous
 62
     7
370
    15
100
AcDbLine
 10
2105.130655935019
 20
968.4560648951293
 30
0.0
 11
2106.169436370938
 21
968.4560648951293
 31
0.0
  0
ARC
  5
5F7
330
52C
100
AcDbEntity
  8
0
  6
Continuous
 62
     7
370
    15
100
AcDbCircle
 10
2106.896107476562
 20
967.9850647899867
 30
0.0
 40
1.827200000004735
100
AcDbArc
 50
165.06213092524
 51
194.9378690747851
  0
LINE
  5
5F8
330
52C
100
AcDbEntity
  8
0
  6
Continuous
 62
     7
370
    15
100
AcDbLine
 10
2106.169436370938
 20
967.5140656385185
 30
0.0
 11
2105.130655935019
 21
967.5140656385185
 31
0.0
  0
ARC
  5
5F9
330
52C
100
AcDbEntity
  8
0
  6
Continuous
 62
     7
370
    15
100
AcDbCircle
 10
2106.896107476562
 20
967.9850647899867
 30
0.0
 40
0.8659623649717056
100
AcDbArc
 50
212.9497675280137
 51
234.7326609792478
  0
ARC
  5
5FA
330
52C
100
AcDbEntity
  8
0
  6
Continuous
 62
     7
370
    15
100
AcDbCircle
 10
2106.896107476562
 20
967.9850647899867
 30
0.0
 40
0.8659623649716778
100
AcDbArc
 50
125.2673390207521
 51
147.0502324720513
  0
ARC
  5
5FB
330
52C
100
AcDbEntity
  8
0
  6
Continuous
 62
     7
370
    15
100
AcDbCircle
 10
2106.896107476562
 20
967.9850647899867
 30
0.0
 40
0.8659623649716998
100
AcDbArc
 50
32.94976752791427
 51
54.73266097922969
  0
ARC
  5
5FC
330
52C
100
AcDbEntity
  8
0
  6
Continuous
 62
     7
370
    15
100
AcDbCircle
 10
2106.896107476562
 20
967.9850647899867
 30
0.0
 40
0.8659623649716781
100
AcDbArc
 50
305.267339020781
 51
327.0502324718924
  0
LINE
  5
5FD
330
52C
100
AcDbEntity
  8
0
  6
Continuous
 62
     7
370
    15
100
AcDbLine
 10
2108.661558723062
 20
967.5140656385185
 30
0.0
 11
2107.622778287142
 21
967.5140656385185
 31
0.0
  0
ARC
  5
5FE
330
52C
100
AcDbEntity
  8
0
  6
Continuous
 62
     7
370
    15
100
AcDbCircle
 10
2106.896107476562
 20
967.9850647899867
 30
0.0
 40
1.827200000001193
100
AcDbArc
 50
345.0621309251452
 51
14.93786907477258
  0
LINE
  5
5FF
330
52C
100
AcDbEntity
  8
0
  6
Continuous
 62
     7
370
    15
100
AcDbLine
 10
2107.622778287142
 20
968.4560648951293
 30
0.0
 11
2108.661558723062
 21
968.4560648951293
 31
0.0
  0
SPLINE
  5
600
330
52C
100
AcDbEntity
  8
0
  6
Continuous
 62
     7
370
    15
100
AcDbSpline
210
0.0
220
0.0
230
1.0
 70
     8
 71
     3
 72
     8
 73
     4
 74
     0
 42
0.0000000001
 43
0.0000000001
 40
0.0000000000000064
 40
0.0000000000000064
 40
0.0000000000000064
 40
0.0000000000000064
 40
0.0012011709340926
 40
0.0012011709340926
 40
0.0012011709340926
 40
0.0012011709340926
 10
2114.463145871161
 20
968.4141598665958
 30
0.0
 10
2114.452214475771
 20
968.4281280781458
 30
0.0
 10
2114.441386390788
 20
968.4420963885852
 30
0.0
 10
2114.430656021552
 20
968.4560647899855
 30
0.0
  0
SPLINE
  5
601
330
52C
100
AcDbEntity
  8
0
  6
Continuous
 62
     7
370
    15
100
AcDbSpline
210
0.0
220
0.0
230
1.0
 70
     8
 71
     3
 72
     8
 73
     4
 74
     0
 42
0.0000000001
 43
0.0000000001
 40
0.0000000000000053
 40
0.0000000000000053
 40
0.0000000000000053
 40
0.0000000000000053
 40
0.0012009544990716
 40
0.0012009544990716
 40
0.0012009544990716
 40
0.0012009544990716
 10
2115.492582009892
 20
968.4141598665958
 30
0.0
 10
2115.484740187299
 20
968.4281280883524
 30
0.0
 10
2115.477029259863
 20
968.4420964002255
 30
0.0
 10
2115.469437112819
 20
968.4560647899855
 30
0.0
  0
LINE
  5
602
330
52C
100
AcDbEntity
  8
0
  6
Continuous
 62
     7
370
    15
100
AcDbLine
 10
2115.492581633835
 20
968.4141591045619
 30
0.0
 11
2114.463146088629
 21
968.4141591045619
 31
0.0
  0
SPLINE
  5
603
330
52C
100
AcDbEntity
  8
0
  6
Continuous
 62
     7
370
    15
100
AcDbSpline
210
0.0
220
0.0
230
1.0
 70
     8
 71
     3
 72
     8
 73
     4
 74
     0
 42
0.0000000001
 43
0.0000000001
 40
0.0000000000000019
 40
0.0000000000000019
 40
0.0000000000000019
 40
0.0000000000000019
 40
0.0012009544990663
 40
0.0012009544990663
 40
0.0012009544990663
 40
0.0012009544990663
 10
2116.922777840305
 20
968.456064789985
 30
0.0
 10
2116.915185693261
 20
968.4420964002249
 30
0.0
 10
2116.907474765825
 20
968.4281280883519
 30
0.0
 10
2116.899632943233
 20
968.4141598665954
 30
0.0
  0
ARC
  5
604
330
52C
100
AcDbEntity
  8
0
  6
Continuous
 62
     7
370
    15
100
AcDbCircle
 10
2116.196107476562
 20
967.9850647899867
 30
0.0
 40
0.8240574415805021
100
AcDbArc
 50
31.37989922979357
 51
56.22714384283161
  0
SPLINE
  5
605
330
52C
100
AcDbEntity
  8
0
  6
Continuous
 62
     7
370
    15
100
AcDbSpline
210
0.0
220
0.0
230
1.0
 70
     8
 71
     3
 72
     8
 73
     4
 74
     0
 42
0.0000000001
 43
0.0000000001
 40
0.0000000000000023
 40
0.0000000000000023
 40
0.0000000000000023
 40
0.0000000000000023
 40
0.001201170934054
 40
0.001201170934054
 40
0.001201170934054
 40
0.001201170934054
 10
2117.961558931572
 20
968.456064789985
 30
0.0
 10
2117.950828562336
 20
968.4420963885848
 30
0.0
 10
2117.940000477351
 20
968.4281280781457
 30
0.0
 10
2117.92906908196
 20
968.4141598665956
 30
0.0
  0
LINE
  5
606
330
52C
100
AcDbEntity
  8
0
  6
Continuous
 62
     7
370
    15
100
AcDbLine
 10
2117.929068637996
 20
968.4141591045619
 30
0.0
 11
2116.89963309279
 21
968.4141591045619
 31
0.0
  0
SPLINE
  5
607
330
52C
100
AcDbEntity
  8
0
  6
Continuous
 62
     7
370
    15
100
AcDbSpline
210
0.0
220
0.0
230
1.0
 70
     8
 71
     3
 72
     8
 73
     4
 74
     0
 42
0.0000000001
 43
0.0000000001
 40
0.0000000000000019
 40
0.0000000000000019
 40
0.0000000000000019
 40
0.0000000000000019
 40
0.0012009544990663
 40
0.0012009544990663
 40
0.0012009544990663
 40
0.0012009544990663
 10
2107.622777840309
 20
968.456064789985
 30
0.0
 10
2107.615185693264
 20
968.4420964002249
 30
0.0
 10
2107.607474765826
 20
968.4281280883519
 30
0.0
 10
2107.599632943232
 20
968.4141598665954
 30
0.0
  0
ARC
  5
608
330
52C
100
AcDbEntity
  8
0
  6
Continuous
 62
     7
370
    15
100
AcDbCircle
 10
2106.896107476562
 20
967.9850647899867
 30
0.0
 40
0.8240574415805264
100
AcDbArc
 50
31.37989922979357
 51
56.22714384283161
  0
SPLINE
  5
609
330
52C
100
AcDbEntity
  8
0
  6
Continuous
 62
     7
370
    15
100
AcDbSpline
210
0.0
220
0.0
230
1.0
 70
     8
 71
     3
 72
     8
 73
     4
 74
     0
 42
0.0000000001
 43
0.0000000001
 40
0.0000000000000023
 40
0.0000000000000023
 40
0.0000000000000023
 40
0.0000000000000023
 40
0.001201170934088
 40
0.001201170934088
 40
0.001201170934088
 40
0.001201170934088
 10
2108.661558931574
 20
968.456064789985
 30
0.0
 10
2108.650828562339
 20
968.4420963885846
 30
0.0
 10
2108.640000477357
 20
968.4281280781453
 30
0.0
 10
2108.629069081967
 20
968.414159866595
 30
0.0
  0
LINE
  5
60A
330
52C
100
AcDbEntity
  8
0
  6
Continuous
 62
     7
370
    15
100
AcDbLine
 10
2108.629068603724
 20
968.4141591045619
 30
0.0
 11
2107.599633058518
 21
968.4141591045619
 31
0.0
  0
SPLINE
  5
60B
330
52C
100
AcDbEntity
  8
0
  6
Continuous
 62
     7
370
    15
100
AcDbSpline
210
0.0
220
0.0
230
1.0
 70
     8
 71
     3
 72
     8
 73
     4
 74
     0
 42
0.0000000001
 43
0.0000000001
 40
0.0000000000000053
 40
0.0000000000000053
 40
0.0000000000000053
 40
0.0000000000000053
 40
0.001201170934092
 40
0.001201170934092
 40
0.001201170934092
 40
0.001201170934092
 10
2114.463145871161
 20
967.5559697133769
 30
0.0
 10
2114.452214475771
 20
967.5420015018266
 30
0.0
 10
2114.441386390788
 20
967.5280331913874
 30
0.0
 10
2114.430656021553
 20
967.5140647899871
 30
0.0
  0
ARC
  5
60C
330
52C
100
AcDbEntity
  8
0
  6
Continuous
 62
     7
370
    15
100
AcDbCircle
 10
2116.196107476562
 20
967.9850647899867
 30
0.0
 40
1.785295076609243
100
AcDbArc
 50
166.0928211147677
 51
193.9071788852638
  0
SPLINE
  5
60D
330
52C
100
AcDbEntity
  8
0
  6
Continuous
 62
     7
370
    15
100
AcDbSpline
210
0.0
220
0.0
230
1.0
 70
     8
 71
     3
 72
     8
 73
     4
 74
     0
 42
0.0000000001
 43
0.0000000001
 40
0.0000000000000053
 40
0.0000000000000053
 40
0.0000000000000053
 40
0.0000000000000053
 40
0.0012009544990717
 40
0.0012009544990717
 40
0.0012009544990717
 40
0.0012009544990717
 10
2106.192582009891
 20
968.4141598665958
 30
0.0
 10
2106.184740187297
 20
968.4281280883524
 30
0.0
 10
2106.17702925986
 20
968.4420964002255
 30
0.0
 10
2106.169437112815
 20
968.4560647899855
 30
0.0
  0
ARC
  5
60E
330
52C
100
AcDbEntity
  8
0
  6
Continuous
 62
     7
370
    15
100
AcDbCircle
 10
2106.896107476562
 20
967.9850647899867
 30
0.0
 40
0.8240574415805069
100
AcDbArc
 50
123.7728561571395
 51
148.6201007701663
  0
ARC
  5
60F
330
52C
100
AcDbEntity
  8
0
  6
Continuous
 62
     7
370
    15
100
AcDbCircle
 10
2116.196107476562
 20
967.9850647899867
 30
0.0
 40
0.8240574415805069
100
AcDbArc
 50
123.7728561571395
 51
148.6201007701663
  0
SPLINE
  5
610
330
52C
100
AcDbEntity
  8
0
  6
Continuous
 62
     7
370
    15
100
AcDbSpline
210
0.0
220
0.0
230
1.0
 70
     8
 71
     3
 72
     8
 73
     4
 74
     0
 42
0.0000000001
 43
0.0000000001
 40
0.0000000000000064
 40
0.0000000000000064
 40
0.0000000000000064
 40
0.0000000000000064
 40
0.0012011709340926
 40
0.0012011709340926
 40
0.0012011709340926
 40
0.0012011709340926
 10
2105.163145871157
 20
968.4141598665958
 30
0.0
 10
2105.152214475765
 20
968.4281280781458
 30
0.0
 10
2105.141386390782
 20
968.4420963885852
 30
0.0
 10
2105.130656021546
 20
968.4560647899855
 30
0.0
  0
LINE
  5
611
330
52C
100
AcDbEntity
  8
0
  6
Continuous
 62
     7
370
    15
100
AcDbLine
 10
2106.192581599563
 20
968.4141591045619
 30
0.0
 11
2105.163146054357
 21
968.4141591045619
 31
0.0
  0
SPLINE
  5
612
330
52C
100
AcDbEntity
  8
0
  6
Continuous
 62
     7
370
    15
100
AcDbSpline
210
0.0
220
0.0
230
1.0
 70
     8
 71
     3
 72
     8
 73
     4
 74
     0
 42
0.0000000001
 43
0.0000000001
 40
0.0000000000000023
 40
0.0000000000000023
 40
0.0000000000000023
 40
0.0000000000000023
 40
0.0012009544990677
 40
0.0012009544990677
 40
0.0012009544990677
 40
0.0012009544990677
 10
2107.622777840308
 20
967.514064789986
 30
0.0
 10
2107.615185693263
 20
967.5280331797463
 30
0.0
 10
2107.607474765825
 20
967.5420014916191
 30
0.0
 10
2107.599632943231
 20
967.5559697133758
 30
0.0
  0
ARC
  5
613
330
52C
100
AcDbEntity
  8
0
  6
Continuous
 62
     7
370
    15
100
AcDbCircle
 10
2106.896107476562
 20
967.9850647899867
 30
0.0
 40
0.8240574415805005
100
AcDbArc
 50
303.7728561571684
 51
328.6201007700143
  0
SPLINE
  5
614
330
52C
100
AcDbEntity
  8
0
  6
Continuous
 62
     7
370
    15
100
AcDbSpline
210
0.0
220
0.0
230
1.0
 70
     8
 71
     3
 72
     8
 73
     4
 74
     0
 42
0.0000000001
 43
0.0000000001
 40
0.0000000000000064
 40
0.0000000000000064
 40
0.0000000000000064
 40
0.0000000000000064
 40
0.0012009544990723
 40
0.0012009544990723
 40
0.0012009544990723
 40
0.0012009544990723
 10
2106.192582009892
 20
967.5559697133769
 30
0.0
 10
2106.184740187298
 20
967.5420014916202
 30
0.0
 10
2106.17702925986
 20
967.5280331797473
 30
0.0
 10
2106.169437112815
 20
967.5140647899871
 30
0.0
  0
ARC
  5
615
330
52C
100
AcDbEntity
  8
0
  6
Continuous
 62
     7
370
    15
100
AcDbCircle
 10
2106.896107476562
 20
967.9850647899867
 30
0.0
 40
0.8240574415804925
100
AcDbArc
 50
211.3798992299041
 51
236.2271438428461
  0
SPLINE
  5
616
330
52C
100
AcDbEntity
  8
0
  6
Continuous
 62
     7
370
    15
100
AcDbSpline
210
0.0
220
0.0
230
1.0
 70
     8
 71
     3
 72
     8
 73
     4
 74
     0
 42
0.0000000001
 43
0.0000000001
 40
0.0000000000000064
 40
0.0000000000000064
 40
0.0000000000000064
 40
0.0000000000000064
 40
0.0012009544990722
 40
0.0012009544990722
 40
0.0012009544990722
 40
0.0012009544990722
 10
2115.492582009892
 20
967.5559697133769
 30
0.0
 10
2115.4847401873
 20
967.5420014916202
 30
0.0
 10
2115.477029259864
 20
967.5280331797473
 30
0.0
 10
2115.469437112819
 20
967.5140647899871
 30
0.0
  0
LINE
  5
617
330
52C
100
AcDbEntity
  8
0
  6
Continuous
 62
     7
370
    15
100
AcDbLine
 10
2114.463146088629
 20
967.5559695664407
 30
0.0
 11
2115.492581633835
 21
967.5559695664407
 31
0.0
  0
ARC
  5
618
330
52C
100
AcDbEntity
  8
0
  6
Continuous
 62
     7
370
    15
100
AcDbCircle
 10
2116.196107476562
 20
967.9850647899867
 30
0.0
 40
0.8240574415804925
100
AcDbArc
 50
211.3798992299041
 51
236.2271438428461
  0
SPLINE
  5
619
330
52C
100
AcDbEntity
  8
0
  6
Continuous
 62
     7
370
    15
100
AcDbSpline
210
0.0
220
0.0
230
1.0
 70
     8
 71
     3
 72
     8
 73
     4
 74
     0
 42
0.0000000001
 43
0.0000000001
 40
0.0000000000000023
 40
0.0000000000000023
 40
0.0000000000000023
 40
0.0000000000000023
 40
0.0012009544990676
 40
0.0012009544990676
 40
0.0012009544990676
 40
0.0012009544990676
 10
2116.922777840303
 20
967.514064789986
 30
0.0
 10
2116.915185693259
 20
967.5280331797463
 30
0.0
 10
2116.907474765823
 20
967.5420014916191
 30
0.0
 10
2116.899632943231
 20
967.5559697133758
 30
0.0
  0
ARC
  5
61A
330
52C
100
AcDbEntity
  8
0
  6
Continuous
 62
     7
370
    15
100
AcDbCircle
 10
2116.196107476562
 20
967.9850647899867
 30
0.0
 40
0.8240574415805005
100
AcDbArc
 50
303.7728561571684
 51
328.6201007700143
  0
SPLINE
  5
61B
330
52C
100
AcDbEntity
  8
0
  6
Continuous
 62
     7
370
    15
100
AcDbSpline
210
0.0
220
0.0
230
1.0
 70
     8
 71
     3
 72
     8
 73
     4
 74
     0
 42
0.0000000001
 43
0.0000000001
 40
0.0000000000000053
 40
0.0000000000000053
 40
0.0000000000000053
 40
0.0000000000000053
 40
0.001201170934092
 40
0.001201170934092
 40
0.001201170934092
 40
0.001201170934092
 10
2105.163145871157
 20
967.5559697133769
 30
0.0
 10
2105.152214475766
 20
967.5420015018266
 30
0.0
 10
2105.141386390782
 20
967.5280331913874
 30
0.0
 10
2105.130656021546
 20
967.5140647899871
 30
0.0
  0
ARC
  5
61C
330
52C
100
AcDbEntity
  8
0
  6
Continuous
 62
     7
370
    15
100
AcDbCircle
 10
2106.896107476562
 20
967.9850647899867
 30
0.0
 40
1.785295076613574
100
AcDbArc
 50
166.0928211148025
 51
193.9071788852323
  0
LINE
  5
61D
330
52C
100
AcDbEntity
  8
0
  6
Continuous
 62
     7
370
    15
100
AcDbLine
 10
2105.163146054357
 20
967.5559695664407
 30
0.0
 11
2106.192581599563
 21
967.5559695664407
 31
0.0
  0
SPLINE
  5
61E
330
52C
100
AcDbEntity
  8
0
  6
Continuous
 62
     7
370
    15
100
AcDbSpline
210
0.0
220
0.0
230
1.0
 70
     8
 71
     3
 72
     8
 73
     4
 74
     0
 42
0.0000000001
 43
0.0000000001
 40
0.000000000000001
 40
0.000000000000001
 40
0.000000000000001
 40
0.000000000000001
 40
0.0012011709340867
 40
0.0012011709340867
 40
0.0012011709340867
 40
0.0012011709340867
 10
2117.961558931572
 20
984.514064789986
 30
0.0
 10
2117.950828562335
 20
984.5280331913862
 30
0.0
 10
2117.94000047735
 20
984.5420015018255
 30
0.0
 10
2117.929069081959
 20
984.5559697133756
 30
0.0
  0
ARC
  5
61F
330
52C
100
AcDbEntity
  8
0
  6
Continuous
 62
     7
370
    15
100
AcDbCircle
 10
2116.196107476562
 20
984.9850647899867
 30
0.0
 40
1.785295076607225
100
AcDbArc
 50
346.0928211146824
 51
13.90717888523858
  0
LINE
  5
620
330
52C
100
AcDbEntity
  8
0
  6
Continuous
 62
     7
370
    15
100
AcDbLine
 10
2116.89963309279
 20
984.5559695589901
 30
0.0
 11
2117.929068637996
 21
984.5559695589901
 31
0.0
  0
SPLINE
  5
621
330
52C
100
AcDbEntity
  8
0
  6
Continuous
 62
     7
370
    15
100
AcDbSpline
210
0.0
220
0.0
230
1.0
 70
     8
 71
     3
 72
     8
 73
     4
 74
     0
 42
0.0000000001
 43
0.0000000001
 40
0.000000000000001
 40
0.000000000000001
 40
0.000000000000001
 40
0.000000000000001
 40
0.0012011709340866
 40
0.0012011709340866
 40
0.0012011709340866
 40
0.0012011709340866
 10
2108.661558931574
 20
984.514064789986
 30
0.0
 10
2108.650828562339
 20
984.5280331913862
 30
0.0
 10
2108.640000477356
 20
984.5420015018255
 30
0.0
 10
2108.629069081967
 20
984.5559697133756
 30
0.0
  0
ARC
  5
622
330
52C
100
AcDbEntity
  8
0
  6
Continuous
 62
     7
370
    15
100
AcDbCircle
 10
2106.896107476562
 20
984.9850647899867
 30
0.0
 40
1.785295076613565
100
AcDbArc
 50
346.0928211147424
 51
13.90717888517854
  0
LINE
  5
623
330
52C
100
AcDbEntity
  8
0
  6
Continuous
 62
     7
370
    15
100
AcDbLine
 10
2107.599633058518
 20
984.5559695589901
 30
0.0
 11
2108.629068603724
 21
984.5559695589901
 31
0.0
  0
SPLINE
  5
624
330
52C
100
AcDbEntity
  8
0
  6
Continuous
 62
     7
370
    15
100
AcDbSpline
210
0.0
220
0.0
230
1.0
 70
     8
 71
     3
 72
     8
 73
     4
 74
     0
 42
0.0000000001
 43
0.0000000001
 40
0.000000000000001
 40
0.000000000000001
 40
0.000000000000001
 40
0.000000000000001
 40
0.0012011709340867
 40
0.0012011709340867
 40
0.0012011709340867
 40
0.0012011709340867
 10
2117.961558931572
 20
967.514064789986
 30
0.0
 10
2117.950828562335
 20
967.5280331913864
 30
0.0
 10
2117.94000047735
 20
967.5420015018255
 30
0.0
 10
2117.929069081959
 20
967.5559697133758
 30
0.0
  0
ARC
  5
625
330
52C
100
AcDbEntity
  8
0
  6
Continuous
 62
     7
370
    15
100
AcDbCircle
 10
2116.196107476562
 20
967.9850647899867
 30
0.0
 40
1.785295076607218
100
AcDbArc
 50
346.0928211146761
 51
13.90717888523858
  0
LINE
  5
626
330
52C
100
AcDbEntity
  8
0
  6
Continuous
 62
     7
370
    15
100
AcDbLine
 10
2116.89963309279
 20
967.5559695664407
 30
0.0
 11
2117.929068637996
 21
967.5559695664407
 31
0.0
  0
SPLINE
  5
627
330
52C
100
AcDbEntity
  8
0
  6
Continuous
 62
     7
370
    15
100
AcDbSpline
210
0.0
220
0.0
230
1.0
 70
     8
 71
     3
 72
     8
 73
     4
 74
     0
 42
0.0000000001
 43
0.0000000001
 40
0.000000000000001
 40
0.000000000000001
 40
0.000000000000001
 40
0.000000000000001
 40
0.0012011709340866
 40
0.0012011709340866
 40
0.0012011709340866
 40
0.0012011709340866
 10
2108.661558931574
 20
967.514064789986
 30
0.0
 10
2108.650828562339
 20
967.5280331913864
 30
0.0
 10
2108.640000477356
 20
967.5420015018255
 30
0.0
 10
2108.629069081967
 20
967.5559697133758
 30
0.0
  0
ARC
  5
628
330
52C
100
AcDbEntity
  8
0
  6
Continuous
 62
     7
370
    15
100
AcDbCircle
 10
2106.896107476562
 20
967.9850647899867
 30
0.0
 40
1.785295076613572
100
AcDbArc
 50
346.0928211147361
 51
13.90717888517854
  0
LINE
  5
629
330
52C
100
AcDbEntity
  8
0
  6
Continuous
 62
     7
370
    15
100
AcDbLine
 10
2107.599633058518
 20
967.5559695664407
 30
0.0
 11
2108.629068603724
 21
967.5559695664407
 31
0.0
  0
CIRCLE
  5
62A
330
52C
100
AcDbEntity
  8
0
  6
Continuous
 62
     7
370
    15
100
AcDbCircle
 10
2116.196107476562
 20
984.9850647899867
 30
0.0
 40
2.475698476978749
  0
ARC
  5
62B
330
52C
100
AcDbEntity
  8
0
  6
Continuous
 62
     7
370
    15
100
AcDbCircle
 10
2116.196107476562
 20
984.9850647899867
 30
0.0
 40
2.365449003624803
100
AcDbArc
 50
78.607396802325
 51
101.3926031976622
  0
ARC
  5
62C
330
52C
100
AcDbEntity
  8
0
  6
Continuous
 62
     7
370
    15
100
AcDbCircle
 10
2116.196107476562
 20
984.9850647899867
 30
0.0
 40
2.365449003624764
100
AcDbArc
 50
258.6073968023377
 51
281.3926031976622
  0
CIRCLE
  5
62D
330
52C
100
AcDbEntity
  8
0
  6
Continuous
 62
     7
370
    15
100
AcDbCircle
 10
2116.196107476562
 20
967.9850647899867
 30
0.0
 40
2.475698476978749
  0
ARC
  5
62E
330
52C
100
AcDbEntity
  8
0
  6
Continuous
 62
     7
370
    15
100
AcDbCircle
 10
2116.196107476562
 20
967.9850647899867
 30
0.0
 40
2.365449003624775
100
AcDbArc
 50
78.607396802325
 51
101.3926031976622
  0
ARC
  5
62F
330
52C
100
AcDbEntity
  8
0
  6
Continuous
 62
     7
370
    15
100
AcDbCircle
 10
2116.196107476562
 20
967.9850647899867
 30
0.0
 40
2.365449003624792
100
AcDbArc
 50
258.6073968023377
 51
281.3926031976622
  0
CIRCLE
  5
630
330
52C
100
AcDbEntity
  8
0
  6
Continuous
 62
     7
370
    15
100
AcDbCircle
 10
2106.896107476562
 20
984.9850647899867
 30
0.0
 40
2.475700296875629
  0
ARC
  5
631
330
52C
100
AcDbEntity
  8
0
  6
Continuous
 62
     7
370
    15
100
AcDbCircle
 10
2106.896107476562
 20
984.9850647899867
 30
0.0
 40
2.365449003621884
100
AcDbArc
 50
78.60739680232372
 51
101.3926031976891
  0
ARC
  5
632
330
52C
100
AcDbEntity
  8
0
  6
Continuous
 62
     7
370
    15
100
AcDbCircle
 10
2106.896107476562
 20
984.9850647899867
 30
0.0
 40
2.365449003621928
100
AcDbArc
 50
258.6073968023377
 51
281.3926031977018
  0
CIRCLE
  5
633
330
52C
100
AcDbEntity
  8
0
  6
Continuous
 62
     7
370
    15
100
AcDbCircle
 10
2106.896107476562
 20
967.9850647899867
 30
0.0
 40
2.475700296875629
  0
ARC
  5
634
330
52C
100
AcDbEntity
  8
0
  6
Continuous
 62
     7
370
    15
100
AcDbCircle
 10
2106.896107476562
 20
967.9850647899867
 30
0.0
 40
2.365449003621911
100
AcDbArc
 50
78.60739680232372
 51
101.3926031976891
  0
ARC
  5
635
330
52C
100
AcDbEntity
  8
0
  6
Continuous
 62
     7
370
    15
100
AcDbCircle
 10
2106.896107476562
 20
967.9850647899867
 30
0.0
 40
2.3654490036219
100
AcDbArc
 50
258.6073968023377
 51
281.3926031977018
  0
ARC
  5
636
330
52C
100
AcDbEntity
  8
0
  6
Continuous
 62
     7
370
    15
100
AcDbCircle
 10
2116.196107476562
 20
984.9850647899867
 30
0.0
 40
2.356295076606809
100
AcDbArc
 50
78.78954836320523
 51
101.2104516367948
  0
ARC
  5
637
330
52C
100
AcDbEntity
  8
0
  6
Continuous
 62
     7
370
    15
100
AcDbCircle
 10
2116.196107476562
 20
984.9850647899867
 30
0.0
 40
2.356295076606837
100
AcDbArc
 50
258.7895483632052
 51
281.2104516367948
  0
ARC
  5
638
330
52C
100
AcDbEntity
  8
0
  6
Continuous
 62
     7
370
    15
100
AcDbCircle
 10
2116.196107476562
 20
967.9850647899867
 30
0.0
 40
2.356295076606809
100
AcDbArc
 50
78.78954836320523
 51
101.2104516367948
  0
ARC
  5
639
330
52C
100
AcDbEntity
  8
0
  6
Continuous
 62
     7
370
    15
100
AcDbCircle
 10
2116.196107476562
 20
967.9850647899867
 30
0.0
 40
2.356295076606837
100
AcDbArc
 50
258.7895483632052
 51
281.2104516367948
  0
ARC
  5
63A
330
52C
100
AcDbEntity
  8
0
  6
Continuous
 62
     7
370
    15
100
AcDbCircle
 10
2106.896107476562
 20
984.9850647899867
 30
0.0
 40
2.356295076612296
100
AcDbArc
 50
78.78954836323204
 51
101.2104516367679
  0
ARC
  5
63B
330
52C
100
AcDbEntity
  8
0
  6
Continuous
 62
     7
370
    15
100
AcDbCircle
 10
2106.896107476562
 20
984.9850647899867
 30
0.0
 40
2.356295076612296
100
AcDbArc
 50
258.789548363232
 51
281.210451636768
  0
ARC
  5
63C
330
52C
100
AcDbEntity
  8
0
  6
Continuous
 62
     7
370
    15
100
AcDbCircle
 10
2106.896107476562
 20
967.9850647899867
 30
0.0
 40
2.35629507661229
100
AcDbArc
 50
78.78954836323204
 51
101.2104516367679
  0
ARC
  5
63D
330
52C
100
AcDbEntity
  8
0
  6
Continuous
 62
     7
370
    15
100
AcDbCircle
 10
2106.896107476562
 20
967.9850647899867
 30
0.0
 40
2.356295076612296
100
AcDbArc
 50
258.789548363232
 51
281.210451636768
  0
CIRCLE
  5
63E
330
52C
100
AcDbEntity
  8
0
  6
Continuous
 62
     7
370
    15
100
AcDbCircle
 10
2111.546107476562
 20
976.4850647899868
 30
0.0
 40
2.599999999999965
  0
LINE
  5
63F
330
52C
100
AcDbEntity
  8
0
  6
Continuous
 62
     7
370
    15
100
AcDbLine
 10
2104.396106919258
 20
986.6433773044111
 30
0.0
 11
2104.396106919258
 21
983.326752283013
 31
0.0
  0
LINE
  5
640
330
52C
100
AcDbEntity
  8
0
  6
Continuous
 62
     7
370
    15
100
AcDbLine
 10
2118.696107773095
 20
986.6433773044111
 30
0.0
 11
2118.696107773095
 21
983.326752283013
 31
0.0
  0
LINE
  5
641
330
52C
100
AcDbEntity
  8
0
  6
Continuous
 62
     7
370
    15
100
AcDbLine
 10
2104.396106919258
 20
969.6433763805391
 30
0.0
 11
2104.396106919258
 21
966.3267522904636
 31
0.0
  0
LINE
  5
642
330
52C
100
AcDbEntity
  8
0
  6
Continuous
 62
     7
370
    15
100
AcDbLine
 10
2118.696107773095
 20
969.6433763805391
 30
0.0
 11
2118.696107773095
 21
966.3267522904636
 31
0.0
  0
INSERT
  5
643
330
52C
100
AcDbEntity
  8
0
  6
Continuous
 62
     7
370
     0
100
AcDbBlockReference
  2
SW_CENTERMARKSYMBOL_0
 10
2106.896107476562
 20
967.9850647899867
 30
0.0
  0
INSERT
  5
644
330
52C
100
AcDbEntity
  8
0
  6
Continuous
 62
     7
370
     0
100
AcDbBlockReference
  2
SW_CENTERMARKSYMBOL_1
 10
2106.896107476562
 20
984.9850647899867
 30
0.0
  0
INSERT
  5
645
330
52C
100
AcDbEntity
  8
0
  6
Continuous
 62
     7
370
     0
100
AcDbBlockReference
  2
SW_CENTERMARKSYMBOL_2
 10
2116.196107476562
 20
984.9850647899867
 30
0.0
  0
INSERT
  5
646
330
52C
100
AcDbEntity
  8
0
  6
Continuous
 62
     7
370
     0
100
AcDbBlockReference
  2
SW_CENTERMARKSYMBOL_3
 10
2116.196107476562
 20
967.9850647899867
 30
0.0
  0
INSERT
  5
647
330
52C
100
AcDbEntity
  8
0
  6
Continuous
 62
     7
370
     0
100
AcDbBlockReference
  2
SW_CENTERMARKSYMBOL_4
 10
2111.546107476562
 20
976.4850647899868
 30
0.0
  0
ENDBLK
  5
52E
330
52C
100
AcDbEntity
  8
0
100
AcDbBlockEnd
  0
BLOCK
  5
64A
330
649
100
AcDbEntity
  8
0
100
AcDbBlockBegin
  2
4
 70
     0
 10
0.0
 20
0.0
 30
0.0
  3
4
  1

  0
LINE
  5
64C
330
649
100
AcDbEntity
  8
0
  6
Continuous
 62
     7
370
    15
100
AcDbLine
 10
2191.714852294737
 20
1026.585107676748
 30
0.0
 11
2214.695822910497
 21
1039.851739625025
 31
0.0
  0
LINE
  5
64D
330
649
100
AcDbEntity
  8
0
  6
Continuous
 62
     7
370
    15
100
AcDbLine
 10
2215.756483091497
 20
1039.239334295961
 30
0.0
 11
2214.695822910497
 21
1039.851739625025
 31
0.0
  0
LINE
  5
64E
330
649
100
AcDbEntity
  8
0
  6
Continuous
 62
     7
370
    15
100
AcDbLine
 10
2191.714851224602
 20
1025.360395640719
 30
0.0
 11
2215.756483091497
 21
1039.239334295961
 31
0.0
  0
LINE
  5
64F
330
649
100
AcDbEntity
  8
0
  6
Continuous
 62
     7
370
    15
100
AcDbLine
 10
2191.714852294737
 20
1026.585107676748
 30
0.0
 11
2191.714851224602
 21
1025.360395640719
 31
0.0
  0
LINE
  5
650
330
649
100
AcDbEntity
  8
0
  6
Continuous
 62
     7
370
    15
100
AcDbLine
 10
2170.501648263158
 20
1037.606517044337
 30
0.0
 11
2191.714851224602
 21
1025.360395640719
 31
0.0
  0
LINE
  5
651
330
649
100
AcDbEntity
  8
0
  6
Continuous
 62
     7
370
    15
100
AcDbLine
 10
2171.562309267338
 20
1038.21892313374
 30
0.0
 11
2170.501648263158
 21
1037.606517044337
 31
0.0
  0
LINE
  5
652
330
649
100
AcDbEntity
  8
0
  6
Continuous
 62
     7
370
    15
100
AcDbLine
 10
2171.562309267338
 20
1038.21892313374
 30
0.0
 11
2191.714852294737
 21
1026.585107676748
 31
0.0
  0
LINE
  5
653
330
649
100
AcDbEntity
  8
0
  6
Continuous
 62
     7
370
    15
100
AcDbLine
 10
2215.756483091497
 20
1020.458895871261
 30
0.0
 11
2191.714851224602
 21
1006.579957216018
 31
0.0
  0
LINE
  5
654
330
649
100
AcDbEntity
  8
0
  6
Continuous
 62
     7
370
    15
100
AcDbLine
 10
2191.714851224602
 20
1025.360395640719
 30
0.0
 11
2191.714851224602
 21
1006.579957216018
 31
0.0
  0
LINE
  5
655
330
649
100
AcDbEntity
  8
0
  6
Continuous
 62
     7
370
    15
100
AcDbLine
 10
2215.756483091497
 20
1020.458895871261
 30
0.0
 11
2215.756483091497
 21
1039.239334295961
 31
0.0
  0
LWPOLYLINE
  5
656
330
649
100
AcDbEntity
  8
0
  6
Continuous
 62
     7
370
    15
100
AcDbPolyline
 90
       33
 70
   128
 43
0.0
 10
2207.094425248501
 20
1023.256361227137
 10
2207.107193767966
 20
1022.963601207717
 10
2207.145375519995
 20
1022.688401694167
 10
2207.20860435384
 20
1022.433415215408
 10
2207.296269798742
 20
1022.201096222704
 10
2207.407528259188
 20
1021.993681696806
 10
2207.541308941807
 20
1021.813170234669
 10
2207.696321757907
 20
1021.661298474358
 10
2207.871075762724
 20
1021.539531207301
 10
2208.063886399404
 20
1021.449039324186
 10
2208.272897230981
 20
1021.390695250145
 10
2208.496096403983
 20
1021.365060775801
 10
2208.731332453501
 20
1021.37238249301
 10
2208.976341962063
 20
1021.412590271339
 10
2209.228764047606
 20
1021.48529649624
 10
2209.486168022352
 20
1021.589801389702
 10
2209.746075124773
 20
1021.725097951216
 10
2210.005982885739
 20
1021.889884122895
 10
2210.263386860486
 20
1022.082571532759
 10
2210.515808946028
 20
1022.301305644343
 10
2210.760818125318
 20
1022.543979633204
 10
2210.996054833381
 20
1022.808256057817
 10
2211.219253347838
 20
1023.091590431834
 10
2211.428264837959
 20
1023.391253655569
 10
2211.62107547464
 20
1023.704359961315
 10
2211.795828820912
 20
1024.027893527438
 10
2211.950842295557
 20
1024.358739655821
 10
2212.084622319631
 20
1024.693710626168
 10
2212.195881109349
 20
1025.029581626312
 10
2212.283546554252
 20
1025.36311698725
 10
2212.346775058824
 20
1025.691105733581
 10
2212.384957469397
 20
1026.010389339844
 10
2212.397725988862
 20
1026.317891578042
  0
LINE
  5
657
330
649
100
AcDbEntity
  8
0
  6
Continuous
 62
     7
370
    15
100
AcDbLine
 10
2212.397725988862
 20
1026.317891578042
 30
0.0
 11
2212.397725988862
 21
1030.768039047838
 31
0.0
  0
LINE
  5
658
330
649
100
AcDbEntity
  8
0
  6
Continuous
 62
     7
370
    15
100
AcDbLine
 10
2212.397725988862
 20
1030.768039047838
 30
0.0
 11
2207.094425248501
 21
1027.706508696933
 31
0.0
  0
LINE
  5
659
330
649
100
AcDbEntity
  8
0
  6
Continuous
 62
     7
370
    15
100
AcDbLine
 10
2207.094425248501
 20
1027.706508696933
 30
0.0
 11
2207.094425248501
 21
1023.256361227137
 31
0.0
  0
LWPOLYLINE
  5
65A
330
649
100
AcDbEntity
  8
0
  6
Continuous
 62
     7
370
    15
100
AcDbPolyline
 90
       33
 70
   128
 43
0.0
 10
2195.073609973599
 20
1016.316892279685
 10
2195.086377834519
 20
1016.024131880096
 10
2195.124560245092
 20
1015.748932746715
 10
2195.187788420392
 20
1015.493945887786
 10
2195.275455182384
 20
1015.261627655422
 10
2195.386713642829
 20
1015.054213129524
 10
2195.520493008359
 20
1014.873700907048
 10
2195.675506483004
 20
1014.721829526907
 10
2195.850260487821
 20
1014.600062259849
 10
2196.043070465957
 20
1014.509569996565
 10
2196.252081956078
 20
1014.451226302693
 10
2196.47528112908
 20
1014.42559182835
 10
2196.710517178598
 20
1014.432913545559
 10
2196.955526028615
 20
1014.473120943717
 10
2197.207948772703
 20
1014.545827548788
 10
2197.46535274745
 20
1014.650332442251
 10
2197.725260508415
 20
1014.785629383934
 10
2197.985166952292
 20
1014.950414795274
 10
2198.242570927037
 20
1015.143102205137
 10
2198.494993671125
 20
1015.361836696892
 10
2198.740002521143
 20
1015.604510495667
 10
2198.97523988775
 20
1015.86878730045
 10
2199.198437743663
 20
1016.152121294298
 10
2199.407449233784
 20
1016.451784518033
 10
2199.600260529009
 20
1016.764891203948
 10
2199.775013216736
 20
1017.088424389902
 10
2199.930026691382
 20
1017.419270518284
 10
2200.063807374
 20
1017.754241868802
 10
2200.175065834446
 20
1018.090112678861
 10
2200.262731279349
 20
1018.423648039798
 10
2200.325959454649
 20
1018.751636596044
 10
2200.364141865222
 20
1019.070920202308
 10
2200.376911043232
 20
1019.378422820675
  0
LINE
  5
65B
330
649
100
AcDbEntity
  8
0
  6
Continuous
 62
     7
370
    15
100
AcDbLine
 10
2200.376911043232
 20
1019.378422820675
 30
0.0
 11
2200.376911043232
 21
1023.828570290471
 31
0.0
  0
LINE
  5
65C
330
649
100
AcDbEntity
  8
0
  6
Continuous
 62
     7
370
    15
100
AcDbLine
 10
2200.376911043232
 20
1023.828570290471
 30
0.0
 11
2195.073609973599
 21
1020.767039749482
 31
0.0
  0
LINE
  5
65D
330
649
100
AcDbEntity
  8
0
  6
Continuous
 62
     7
370
    15
100
AcDbLine
 10
2195.073609973599
 20
1020.767039749482
 30
0.0
 11
2195.073609973599
 21
1016.316892279685
 31
0.0
  0
LINE
  5
65E
330
649
100
AcDbEntity
  8
0
  6
Continuous
 62
     7
370
    15
100
AcDbLine
 10
2191.714851224602
 20
1006.579957216018
 30
0.0
 11
2170.501648263158
 21
1018.826078619636
 31
0.0
  0
LINE
  5
65F
330
649
100
AcDbEntity
  8
0
  6
Continuous
 62
     7
370
    15
100
AcDbLine
 10
2170.501648263158
 20
1037.606517044337
 30
0.0
 11
2170.501648263158
 21
1018.826078619636
 31
0.0
  0
LINE
  5
660
330
649
100
AcDbEntity
  8
0
  6
Continuous
 62
     7
370
    15
100
AcDbLine
 10
2194.543279883099
 20
1051.485555082018
 30
0.0
 11
2171.562309267338
 21
1038.21892313374
 31
0.0
  0
LINE
  5
661
330
649
100
AcDbEntity
  8
0
  6
Continuous
 62
     7
370
    15
100
AcDbLine
 10
2214.695822910497
 20
1039.851739625025
 30
0.0
 11
2194.543279883099
 21
1051.485555082018
 31
0.0
  0
LWPOLYLINE
  5
662
330
649
100
AcDbEntity
  8
0
  6
Continuous
 62
     7
370
    15
100
AcDbPolyline
 90
       58
 70
   128
 43
0.0
 10
2192.528024617237
 20
1034.892060026968
 10
2192.281787581713
 20
1035.019345008431
 10
2192.012789272359
 20
1035.130219966851
 10
2191.724294752847
 20
1035.223338341321
 10
2191.419806821413
 20
1035.297570647803
 10
2191.103021229838
 20
1035.352015123881
 10
2190.777781902413
 20
1035.38601141487
 10
2190.448040764732
 20
1035.399147036697
 10
2190.117797157592
 20
1035.391261937938
 10
2189.791058324322
 20
1035.362451541177
 10
2189.471794629763
 20
1035.313066743001
 10
2189.163878974166
 20
1035.243706310614
 10
2188.871049914702
 20
1035.155212319795
 10
2188.596860957536
 20
1035.048658369643
 10
2188.344641703702
 20
1034.925338557654
 10
2188.117452409526
 20
1034.786749611749
 10
2187.918052376498
 20
1034.634574162809
 10
2187.748860438596
 20
1034.470659455176
 10
2187.61193191323
 20
1034.296994156299
 10
2187.508926991102
 20
1034.115687067242
 10
2187.441098223869
 20
1033.92893937029
 10
2187.409267475076
 20
1033.739016876572
 10
2187.413821968893
 20
1033.548226455537
 10
2187.454705729038
 20
1033.358882960199
 10
2187.53142221295
 20
1033.173284896276
 10
2187.643042214331
 20
1032.993685529296
 10
2187.788208472948
 20
1032.822264371878
 10
2187.965159382244
 20
1032.661102852867
 10
2188.171747428576
 20
1032.512156945124
 10
2188.405464874459
 20
1032.377234735515
 10
2188.663474710152
 20
1032.257973994904
 10
2188.942645556521
 20
1032.155822029156
 10
2189.239587226437
 20
1032.072019712016
 10
2189.550696164354
 20
1032.007582856796
 10
2189.872196276062
 20
1031.963295373319
 10
2190.200184368263
 20
1031.939693680964
 10
2190.530679539405
 20
1031.937064047478
 10
2190.859669936347
 20
1031.955439927793
 10
2191.183161486648
 20
1031.994596641643
 10
2191.497228935767
 20
1032.054059927386
 10
2191.798058323186
 20
1032.133107272599
 10
2192.081998019609
 20
1032.230779509249
 10
2192.345602190898
 20
1032.345890698106
 10
2192.58567129856
 20
1032.47704428595
 10
2192.799290295332
 20
1032.622647552025
 10
2192.983867150029
 20
1032.780933467787
 10
2193.137159847875
 20
1032.949980085557
 10
2193.257308659179
 20
1033.127736009892
 10
2193.342854907855
 20
1033.312043017676
 10
2193.392762044847
 20
1033.500664951014
 10
2193.406420257943
 20
1033.691310907581
 10
2193.383666228104
 20
1033.881666414533
 10
2193.324777202565
 20
1034.069422701572
 10
2193.230465726489
 20
1034.252299511124
 10
2193.101877667316
 20
1034.428076652419
 10
2192.940574434075
 20
1034.594620993538
 10
2192.748512562499
 20
1034.7499104121
 10
2192.528024617237
 20
1034.892060026968
  0
LWPOLYLINE
  5
663
330
649
100
AcDbEntity
  8
0
  6
Continuous
 62
     7
370
    15
100
AcDbPolyline
 90
       58
 70
   128
 43
0.0
 10
2185.951932186512
 20
1038.688357380764
 10
2185.705694492444
 20
1038.815642742397
 10
2185.43669618309
 20
1038.926517700818
 10
2185.148201005032
 20
1039.019636455456
 10
2184.843713732144
 20
1039.093868381768
 10
2184.526927482024
 20
1039.148313238017
 10
2184.201689471688
 20
1039.182308768666
 10
2183.871947016919
 20
1039.195445150832
 10
2183.541704068323
 20
1039.187559671904
 10
2183.214965893598
 20
1039.158748894973
 10
2182.895702199039
 20
1039.109364096797
 10
2182.587786543441
 20
1039.04000366441
 10
2182.294956825433
 20
1038.951510053761
 10
2182.020767868267
 20
1038.844956103609
 10
2181.768547955887
 20
1038.721636671789
 10
2181.541359320257
 20
1038.583047345714
 10
2181.341958628685
 20
1038.430872276945
 10
2181.172768007872
 20
1038.266956808972
 10
2181.035838165415
 20
1038.093292270435
 10
2180.932833901833
 20
1037.911984801208
 10
2180.8650051346
 20
1037.725237104256
 10
2180.833173727262
 20
1037.535314990707
 10
2180.837728221079
 20
1037.344524569673
 10
2180.878611981224
 20
1037.155181074335
 10
2180.955329782226
 20
1036.969582250072
 10
2181.066949125062
 20
1036.789983263262
 10
2181.212114725135
 20
1036.618562486014
 10
2181.389065634429
 20
1036.457400967002
 10
2181.595654997851
 20
1036.30845429892
 10
2181.829372443734
 20
1036.173532089311
 10
2182.087382279428
 20
1036.0542713487
 10
2182.366552467252
 20
1035.952119763122
 10
2182.663494137168
 20
1035.868317445982
 10
2182.974603733629
 20
1035.803880210592
 10
2183.296103845338
 20
1035.759592727115
 10
2183.624091937538
 20
1035.73599103476
 10
2183.954586450136
 20
1035.733361781445
 10
2184.283576847078
 20
1035.751737661759
 10
2184.607068397379
 20
1035.790894375609
 10
2184.921136175769
 20
1035.850357471267
 10
2185.221964575372
 20
1035.929405386735
 10
2185.505905259612
 20
1036.02707705313
 10
2185.769508772356
 20
1036.142188622156
 10
2186.009578538564
 20
1036.273341829831
 10
2186.223197206063
 20
1036.418945285991
 10
2186.40777406076
 20
1036.577231201753
 10
2186.56106741715
 20
1036.746277439353
 10
2186.681216228453
 20
1036.924033363688
 10
2186.76676247713
 20
1037.108340371472
 10
2186.816668297034
 20
1037.296963065149
 10
2186.830327827218
 20
1037.487608261377
 10
2186.807572480289
 20
1037.677964528668
 10
2186.748684113297
 20
1037.865720435538
 10
2186.654372637219
 20
1038.04859724509
 10
2186.52578523659
 20
1038.224374006215
 10
2186.364481344805
 20
1038.390918727504
 10
2186.17241947323
 20
1038.546208146065
 10
2185.951932186512
 20
1038.688357380764
  0
LWPOLYLINE
  5
664
330
649
100
AcDbEntity
  8
0
  6
Continuous
 62
     7
370
    15
100
AcDbPolyline
 90
       58
 70
   128
 43
0.0
 10
2197.97274811996
 20
1045.627826708386
 10
2197.726510096619
 20
1045.755111879933
 10
2197.457511128721
 20
1045.865986458184
 10
2197.169016279936
 20
1045.959105402908
 10
2196.864529007047
 20
1046.03333732922
 10
2196.547742756927
 20
1046.087782185468
 10
2196.222505405136
 20
1046.121778096288
 10
2195.892761962549
 20
1046.1349139082
 10
2195.562518684681
 20
1046.127028239186
 10
2195.235781827045
 20
1046.098218222594
 10
2194.916517803214
 20
1046.048833234334
 10
2194.608601818345
 20
1045.979472611862
 10
2194.315771771063
 20
1045.890978811128
 10
2194.04158314317
 20
1045.78442505106
 10
2193.78936323079
 20
1045.661105619241
 10
2193.562175253704
 20
1045.522516673336
 10
2193.362773903587
 20
1045.370341224396
 10
2193.193583282774
 20
1045.206425756423
 10
2193.056653440319
 20
1045.032761217886
 10
2192.95364983528
 20
1044.851454128829
 10
2192.885820409503
 20
1044.664706051708
 10
2192.85398966071
 20
1044.474784318328
 10
2192.858543495983
 20
1044.283993517124
 10
2192.899427256127
 20
1044.094650021786
 10
2192.976145057129
 20
1043.909051197524
 10
2193.08776374142
 20
1043.729451830544
 10
2193.232929341493
 20
1043.558031053295
 10
2193.409880250788
 20
1043.396869534284
 10
2193.616469614209
 20
1043.247922866202
 10
2193.850187060093
 20
1043.113000656593
 10
2194.108196895786
 20
1042.993739915982
 10
2194.38736708361
 20
1042.891588330404
 10
2194.684308753526
 20
1042.807786013264
 10
2194.995419008532
 20
1042.743349158044
 10
2195.31691912024
 20
1042.699061674567
 10
2195.644907212441
 20
1042.675459982212
 10
2195.975402383584
 20
1042.672831109066
 10
2196.304392121981
 20
1042.691206609211
 10
2196.627884330826
 20
1042.73036370323
 10
2196.941951450672
 20
1042.789826418719
 10
2197.242779850275
 20
1042.868874334186
 10
2197.526720534515
 20
1042.966546000582
 10
2197.790324705803
 20
1043.081657949778
 10
2198.030393813466
 20
1043.212810777283
 10
2198.244012480966
 20
1043.358414233443
 10
2198.428589006391
 20
1043.51669995912
 10
2198.581882692053
 20
1043.685746386805
 10
2198.702031832629
 20
1043.863502501225
 10
2198.787578410577
 20
1044.047809699093
 10
2198.837482913392
 20
1044.236431632431
 10
2198.851142772849
 20
1044.427077018744
 10
2198.828388413737
 20
1044.61743385629
 10
2198.7694993882
 20
1044.80518938299
 10
2198.675187912122
 20
1044.988066192542
 10
2198.546600511494
 20
1045.163842953667
 10
2198.385296290436
 20
1045.33038748487
 10
2198.193235077406
 20
1045.485677283602
 10
2197.97274811996
 20
1045.627826708386
  0
LWPOLYLINE
  5
665
330
649
100
AcDbEntity
  8
0
  6
Continuous
 62
     7
370
    15
100
AcDbPolyline
 90
       58
 70
   128
 43
0.0
 10
2204.548840550685
 20
1041.83152935459
 10
2204.302603185888
 20
1041.958814145967
 10
2204.03360421799
 20
1042.069688724218
 10
2203.74511002775
 20
1042.162807288773
 10
2203.440622096316
 20
1042.237039595254
 10
2203.123836504741
 20
1042.291484071333
 10
2202.798597835861
 20
1042.325480742491
 10
2202.468855710363
 20
1042.338615794064
 10
2202.13861177395
 20
1042.33073050522
 10
2201.81187425777
 20
1042.301920868798
 10
2201.492610233939
 20
1042.252535880537
 10
2201.184694249069
 20
1042.183175258065
 10
2200.891864860333
 20
1042.094681077162
 10
2200.617676232439
 20
1041.988127317095
 10
2200.365456978604
 20
1041.864807505105
 10
2200.138268342973
 20
1041.72621893937
 10
2199.938867651401
 20
1041.574043110261
 10
2199.7696757135
 20
1041.410128402627
 10
2199.632747188132
 20
1041.236463103751
 10
2199.52974292455
 20
1041.055156394863
 10
2199.461913498772
 20
1040.868408317741
 10
2199.430083408524
 20
1040.678486204193
 10
2199.434637243796
 20
1040.487695402989
 10
2199.475521003941
 20
1040.298351907651
 10
2199.552237487854
 20
1040.112753843728
 10
2199.66385683069
 20
1039.933154096579
 10
2199.809023089307
 20
1039.76173293916
 10
2199.985973998602
 20
1039.600571420149
 10
2200.192562044934
 20
1039.451625512405
 10
2200.426279490817
 20
1039.316703302797
 10
2200.684289326511
 20
1039.197442562186
 10
2200.963460172879
 20
1039.095290596438
 10
2201.260401842796
 20
1039.011488279298
 10
2201.571511439257
 20
1038.947051804248
 10
2201.893011550965
 20
1038.902764320771
 10
2202.220999643166
 20
1038.879162628415
 10
2202.551495472853
 20
1038.8765333751
 10
2202.880485211251
 20
1038.894908875245
 10
2203.203977420095
 20
1038.934065969264
 10
2203.518044210669
 20
1038.993528874838
 10
2203.818873598089
 20
1039.072576220051
 10
2204.102813294512
 20
1039.170248456701
 10
2204.366418124346
 20
1039.285360025727
 10
2204.606486573464
 20
1039.416513233402
 10
2204.820105570235
 20
1039.562116499477
 10
2205.00468209566
 20
1039.720402225154
 10
2205.157975122778
 20
1039.889449033009
 10
2205.278124263354
 20
1040.067205147429
 10
2205.363670841302
 20
1040.251512345298
 10
2205.413576661206
 20
1040.440133518296
 10
2205.427235203574
 20
1040.630779664947
 10
2205.404482161551
 20
1040.821135742154
 10
2205.345592477469
 20
1041.008891649024
 10
2205.251281001392
 20
1041.191768458576
 10
2205.122692942218
 20
1041.367545599871
 10
2204.961389379706
 20
1041.534089750905
 10
2204.769328166675
 20
1041.689379549636
 10
2204.548840550685
 20
1041.83152935459
  0
LWPOLYLINE
  5
666
330
649
100
AcDbEntity
  8
0
  6
Continuous
 62
     7
370
    15
100
AcDbPolyline
 90
       69
 70
   128
 43
0.0
 10
2196.063559761233
 20
1040.72937837504
 10
2195.78028025568
 20
1040.87845886284
 10
2195.474382380455
 20
1041.011814013141
 10
2195.148474630355
 20
1041.128307498853
 10
2194.805338697381
 20
1041.226943275487
 10
2194.447900494783
 20
1041.306881548281
 10
2194.079211059267
 20
1041.367439912708
 10
2193.702415599402
 20
1041.408101338041
 10
2193.320727812386
 20
1041.428519109558
 10
2192.937404859358
 20
1041.428519109558
 10
2192.555717730887
 20
1041.408100957871
 10
2192.178920953932
 20
1041.367440292877
 10
2191.81023217696
 20
1041.306881548281
 10
2191.452793974363
 20
1041.226943275487
 10
2191.109658041389
 20
1041.128307498854
 10
2190.783749632745
 20
1041.011814393311
 10
2190.47785175752
 20
1040.87845924301
 10
2190.194572251966
 20
1040.72937799487
 10
2189.936329291517
 20
1040.565844977568
 10
2189.705326366095
 20
1040.389253893047
 10
2189.503532523781
 20
1040.201110973471
 10
2189.332671834096
 20
1040.003022815791
 10
2189.194199680402
 20
1039.796678133601
 10
2189.089297491548
 20
1039.583838633071
 10
2189.018863522241
 20
1039.366318483782
 10
2188.983494413807
 20
1039.145975194655
 10
2188.983494413807
 20
1038.924687564111
 10
2189.018863522241
 20
1038.704344274984
 10
2189.089298808637
 20
1038.486824886034
 10
2189.194199680402
 20
1038.273984625164
 10
2189.332671834096
 20
1038.067639942975
 10
2189.503532523781
 20
1037.869551785294
 10
2189.705326366095
 20
1037.681408865719
 10
2189.936330608605
 20
1037.504818541537
 10
2190.19457291051
 20
1037.341284383726
 10
2190.477852416064
 20
1037.192204656265
 10
2190.783749632745
 20
1037.058848365455
 10
2191.109657382845
 20
1036.942355640082
 10
2191.452793974363
 20
1036.843719483278
 10
2191.810231518416
 20
1036.763781590655
 10
2192.178921612477
 20
1036.703223606398
 10
2192.555717730887
 20
1036.662561800894
 10
2192.937404859358
 20
1036.642143649208
 10
2193.320727153842
 20
1036.642144029377
 10
2193.702414940857
 20
1036.662561800894
 10
2194.079210400722
 20
1036.703223226228
 10
2194.447900494783
 20
1036.763781210485
 10
2194.805338697381
 20
1036.843719483278
 10
2195.14847397181
 20
1036.942355640082
 10
2195.474382380455
 20
1037.058848745624
 10
2195.78028025568
 20
1037.192203895926
 10
2196.063558444145
 20
1037.341284383726
 10
2196.321802721683
 20
1037.504818161368
 10
2196.552805647105
 20
1037.681409245888
 10
2196.754599489418
 20
1037.869552165464
 10
2196.925460837648
 20
1038.067639942975
 10
2197.063932991341
 20
1038.273984625164
 10
2197.168833863107
 20
1038.486824886034
 10
2197.239269149503
 20
1038.704344274984
 10
2197.274637599393
 20
1038.924687944281
 10
2197.274638257938
 20
1039.145975194655
 10
2197.239269808048
 20
1039.366318863952
 10
2197.168833863107
 20
1039.583838633071
 10
2197.063932332797
 20
1039.796678513771
 10
2196.925460837648
 20
1040.003022815791
 10
2196.754599489418
 20
1040.201111353641
 10
2196.552805647105
 20
1040.389253512878
 10
2196.321802063138
 20
1040.565844977568
 10
2196.063559761233
 20
1040.72937837504
  0
ARC
  5
667
330
649
100
AcDbEntity
  8
0
  6
Continuous
 62
     7
370
    15
100
AcDbCircle
 10
2189.905296399908
 20
1022.442451013316
 30
0.0
 40
5.632735631344246
100
AcDbArc
 50
336.5703944493702
 51
344.2444608931572
  0
ARC
  5
668
330
649
100
AcDbEntity
  8
0
  6
Continuous
 62
     7
370
    15
100
AcDbCircle
 10
2193.211301263815
 20
1034.250215901811
 30
0.0
 40
5.623156611922424
100
AcDbArc
 50
59.52021021230276
 51
135.1093599100975
  0
ARC
  5
669
330
649
100
AcDbEntity
  8
0
  6
Continuous
 62
     7
370
    15
100
AcDbCircle
 10
2194.756433573507
 20
1036.684233470146
 30
0.0
 40
2.743471193321965
100
AcDbArc
 50
34.01080369507869
 51
61.54621429701287
  0
LINE
  5
66A
330
649
100
AcDbEntity
  8
0
  6
Continuous
 62
     7
370
    15
100
AcDbLine
 10
2191.714852294737
 20
1006.579858308745
 30
0.0
 11
2191.714851224602
 21
1006.579957216018
 31
0.0
  0
LINE
  5
66B
330
649
100
AcDbEntity
  8
0
  6
Continuous
 62
     7
370
    15
100
AcDbLine
 10
2191.714852294737
 20
1006.579858308745
 30
0.0
 11
2171.562309267338
 21
1018.213673765738
 31
0.0
  0
LINE
  5
66C
330
649
100
AcDbEntity
  8
0
  6
Continuous
 62
     7
370
    15
100
AcDbLine
 10
2171.562309267338
 20
1018.213673765738
 30
0.0
 11
2170.501648263158
 21
1018.826078619636
 31
0.0
  0
LINE
  5
66D
330
649
100
AcDbEntity
  8
0
  6
Continuous
 62
     7
370
    15
100
AcDbLine
 10
2215.756483091497
 20
1020.458895871261
 30
0.0
 11
2214.695822910497
 21
1019.846490257023
 31
0.0
  0
LINE
  5
66E
330
649
100
AcDbEntity
  8
0
  6
Continuous
 62
     7
370
    15
100
AcDbLine
 10
2214.695822910497
 20
1019.846490257023
 30
0.0
 11
2191.714852294737
 21
1006.579858308745
 31
0.0
  0
LINE
  5
66F
330
649
100
AcDbEntity
  8
0
  6
Continuous
 62
     7
370
    15
100
AcDbLine
 10
2195.986804423195
 20
1039.051988091024
 30
0.0
 11
2196.602901127826
 21
1037.724626890459
 31
0.0
  0
LINE
  5
670
330
649
100
AcDbEntity
  8
0
  6
Continuous
 62
     7
370
    15
100
AcDbLine
 10
2192.083061239717
 20
1039.655833979814
 30
0.0
 11
2195.986804423195
 21
1039.051988091024
 31
0.0
  0
LINE
  5
671
330
649
100
AcDbEntity
  8
0
  6
Continuous
 62
     7
370
    15
100
AcDbLine
 10
2189.332445294786
 20
1038.067937194138
 30
0.0
 11
2192.083061239717
 21
1039.655833979814
 31
0.0
  0
LINE
  5
672
330
649
100
AcDbEntity
  8
0
  6
Continuous
 62
     7
370
    15
100
AcDbLine
 10
2195.986804423195
 20
1039.051988091024
 30
0.0
 11
2195.986804423195
 21
1037.298105148377
 31
0.0
  0
LINE
  5
673
330
649
100
AcDbEntity
  8
0
  6
Continuous
 62
     7
370
    15
100
AcDbLine
 10
2192.083061239717
 20
1039.655833979814
 30
0.0
 11
2192.083061239717
 21
1036.71693692306
 31
0.0
  0
ARC
  5
674
330
649
100
AcDbEntity
  8
0
  6
Continuous
 62
     7
370
    15
100
AcDbCircle
 10
2201.925862161564
 20
1029.382009386563
 30
0.0
 40
5.633000582826642
100
AcDbArc
 50
336.5705751967457
 51
344.244280145785
  0
LINE
  5
675
330
649
100
AcDbEntity
  8
0
  6
Continuous
 62
     8
370
    15
100
AcDbLine
 10
2196.522552770952
 20
1021.603496489237
 30
0.0
 11
2200.376911043232
 21
1019.378422820675
 31
0.0
  0
LINE
  5
676
330
649
100
AcDbEntity
  8
0
  6
Continuous
 62
     8
370
    15
100
AcDbLine
 10
2208.543367716583
 20
1028.542965246604
 30
0.0
 11
2212.397725988862
 21
1026.317891578042
 31
0.0
  0
ENDBLK
  5
64B
330
649
100
AcDbEntity
  8
0
100
AcDbBlockEnd
  0
ENDSEC
  0
SECTION
  2
ENTITIES
  0
INSERT
  5
4F5
330
1F
100
AcDbEntity
  8
0
100
AcDbBlockReference
  2
1
 10
0.0
 20
0.0
 30
0.0
  0
INSERT
  5
52B
330
1F
100
AcDbEntity
  8
0
100
AcDbBlockReference
  2
2
 10
0.0
 20
0.0
 30
0.0
  0
INSERT
  5
648
330
1F
100
AcDbEntity
  8
0
100
AcDbBlockReference
  2
3
 10
0.0
 20
0.0
 30
0.0
  0
INSERT
  5
677
330
1F
100
AcDbEntity
  8
0
100
AcDbBlockReference
  2
4
 10
0.0
 20
0.0
 30
0.0
  0
ENDSEC
  0
SECTION
  2
OBJECTS
  0
DICTIONARY
  5
C
330
0
100
AcDbDictionary
281
     1
  3
ACAD_COLOR
350
6B
  3
ACAD_GROUP
350
D
  3
ACAD_LAYOUT
350
1A
  3
ACAD_MATERIAL
350
6A
  3
ACAD_MLEADERSTYLE
350
12D
  3
ACAD_MLINESTYLE
350
17
  3
ACAD_PLOTSETTINGS
350
19
  3
ACAD_PLOTSTYLENAME
350
E
  3
ACAD_SCALELIST
350
10C
  3
ACAD_TABLESTYLE
350
7E
  3
ACAD_VISUALSTYLE
350
EF
  3
ACDB_RECOMPOSE_DATA
350
15D
  3
AcDbVariableDictionary
350
5E
  3
DWGPROPS
350
685
  0
DICTIONARY
  5
13C
330
10
100
AcDbDictionary
280
     1
281
     1
  3
ADSK_XREC_LAYER_RECONCILED
360
678
  0
DICTIONARY
  5
6B
102
{ACAD_REACTORS
330
C
102
}
330
C
100
AcDbDictionary
281
     1
  0
DICTIONARY
  5
D
102
{ACAD_REACTORS
330
C
102
}
330
C
100
AcDbDictionary
281
     1
  0
DICTIONARY
  5
1A
102
{ACAD_REACTORS
330
C
102
}
330
C
100
AcDbDictionary
281
     1
  3
Layout1
350
D3
  3
Layout2
350
D7
  3
Model
350
22
  0
DICTIONARY
  5
6A
102
{ACAD_REACTORS
330
C
102
}
330
C
100
AcDbDictionary
281
     1
  3
ByBlock
350
ED
  3
ByLayer
350
EC
  3
Global
350
EE
  0
DICTIONARY
  5
12D
102
{ACAD_REACTORS
330
C
102
}
330
C
100
AcDbDictionary
281
     1
  3
Annotative
350
13B
  3
Standard
350
12E
  0
DICTIONARY
  5
17
102
{ACAD_REACTORS
330
C
102
}
330
C
100
AcDbDictionary
281
     1
  3
Standard
350
18
  0
DICTIONARY
  5
19
102
{ACAD_REACTORS
330
C
102
}
330
C
100
AcDbDictionary
281
     1
  0
ACDBDICTIONARYWDFLT
  5
E
102
{ACAD_REACTORS
330
C
102
}
330
C
100
AcDbDictionary
281
     1
  3
Normal
350
F
100
AcDbDictionaryWithDefault
340
F
  0
DICTIONARY
  5
10C
102
{ACAD_REACTORS
330
C
102
}
330
C
100
AcDbDictionary
281
     1
  3
A0
350
10D
  3
A1
350
188
  3
A2
350
189
  3
A3
350
18A
  3
A4
350
18B
  3
A5
350
18C
  3
A6
350
18D
  3
A7
350
18E
  3
A8
350
18F
  3
A9
350
190
  3
B0
350
191
  3
B1
350
192
  3
B2
350
193
  3
B3
350
194
  3
B4
350
195
  3
B5
350
196
  3
B6
350
197
  3
B7
350
198
  3
B8
350
199
  3
B9
350
19A
  3
C0
350
19B
  3
C1
350
19C
  3
C2
350
19D
  3
C3
350
19E
  3
C4
350
19F
  3
C5
350
1A0
  3
C6
350
1A1
  3
C7
350
1A2
  3
C8
350
1A3
  3
C9
350
1A4
  3
D0
350
1A5
  3
D1
350
1A6
  3
D2
350
1A7
  0
DICTIONARY
  5
7E
102
{ACAD_REACTORS
330
C
102
}
330
C
100
AcDbDictionary
281
     1
  3
Standard
350
7F
  0
DICTIONARY
  5
EF
102
{ACAD_REACTORS
330
C
102
}
330
C
100
AcDbDictionary
281
     1
  3
2dWireframe
350
F5
  3
3D Hidden
350
F7
  3
3dWireframe
350
F6
  3
Basic
350
F4
  3
Brighten
350
FB
  3
ColorChange
350
FF
  3
Conceptual
350
F8
  3
Dim
350
FA
  3
Facepattern
350
FE
  3
Flat
350
F0
  3
FlatWithEdges
350
F1
  3
Gouraud
350
F2
  3
GouraudWithEdges
350
F3
  3
Linepattern
350
FD
  3
Realistic
350
F9
  3
Thicken
350
FC
  0
XRECORD
  5
15D
102
{ACAD_REACTORS
330
C
102
}
330
C
100
AcDbXrecord
280
     1
 90
        1
330
7F
  0
DICTIONARY
  5
5E
102
{ACAD_REACTORS
330
C
102
}
330
C
100
AcDbDictionary
281
     1
  3
CANNOSCALE
350
146
  3
CMLEADERSTYLE
350
145
  3
CTABLESTYLE
350
84
  3
DIMASSOC
350
5F
  3
HIDETEXT
350
63
  3
INDEXCTL
350
681
  3
LIGHTINGUNITS
350
67F
  3
MSLTSCALE
350
67E
  3
PSOLHEIGHT
350
683
  3
PSOLWIDTH
350
682
  3
SORTENTS
350
680
  0
XRECORD
  5
685
102
{ACAD_REACTORS
330
C
102
}
330
C
100
AcDbXrecord
280
     1
  1
DWGPROPS COOKIE
  2

  3

  4

  6

  7

  8
orhan kara
  9

300
=
301
=
302
=
303
=
304
=
305
=
306
=
307
=
308
=
309
=
 40
0.0003555439814815
 41
2459083.608514572
 42
2459083.678063507
  1

 90
        0
  0
XRECORD
  5
678
102
{ACAD_REACTORS
330
13C
102
}
330
13C
100
AcDbXrecord
280
     1
290
     1
  0
LAYOUT
  5
D3
102
{ACAD_XDICTIONARY
360
689
102
}
102
{ACAD_REACTORS
330
1A
102
}
330
1A
100
AcDbPlotSettings
  1

  2
C:\Documents and Settings\basas\Application Data\Autodesk\AutoCAD 2005\R16.1\enu\plotters\Default Windows System Printer.pc3
  4

  6

 40
0.0
 41
0.0
 42
0.0
 43
0.0
 44
0.0
 45
0.0
 46
0.0
 47
0.0
 48
0.0
 49
0.0
140
0.0
141
0.0
142
1.0
143
1.0
 70
   688
 72
     0
 73
     0
 74
     5
  7

 75
    16
147
1.0
148
0.0
149
0.0
100
AcDbLayout
  1
Layout1
 70
     1
 71
     1
 10
0.0
 20
0.0
 11
12.0
 21
9.0
 12
0.0
 22
0.0
 32
0.0
 14
0.0
 24
0.0
 34
0.0
 15
0.0
 25
0.0
 35
0.0
146
0.0
 13
0.0
 23
0.0
 33
0.0
 16
1.0
 26
0.0
 36
0.0
 17
0.0
 27
1.0
 37
0.0
 76
     0
330
D2
  0
LAYOUT
  5
D7
102
{ACAD_XDICTIONARY
360
68B
102
}
102
{ACAD_REACTORS
330
1A
102
}
330
1A
100
AcDbPlotSettings
  1

  2
C:\Documents and Settings\basas\Application Data\Autodesk\AutoCAD 2005\R16.1\enu\plotters\Default Windows System Printer.pc3
  4

  6

 40
0.0
 41
0.0
 42
0.0
 43
0.0
 44
0.0
 45
0.0
 46
0.0
 47
0.0
 48
0.0
 49
0.0
140
0.0
141
0.0
142
1.0
143
1.0
 70
   688
 72
     0
 73
     0
 74
     5
  7

 75
    16
147
1.0
148
0.0
149
0.0
100
AcDbLayout
  1
Layout2
 70
     1
 71
     2
 10
0.0
 20
0.0
 11
12.0
 21
9.0
 12
0.0
 22
0.0
 32
0.0
 14
0.0
 24
0.0
 34
0.0
 15
0.0
 25
0.0
 35
0.0
146
0.0
 13
0.0
 23
0.0
 33
0.0
 16
1.0
 26
0.0
 36
0.0
 17
0.0
 27
1.0
 37
0.0
 76
     0
330
D6
  0
LAYOUT
  5
22
102
{ACAD_XDICTIONARY
360
686
102
}
102
{ACAD_REACTORS
330
1A
102
}
330
1A
100
AcDbPlotSettings
  1

  2
none_device
  4
ISO_A4_(210.00_x_297.00_MM)
  6

 40
7.5
 41
20.0
 42
7.5
 43
20.0
 44
210.0
 45
297.0
 46
11.54999923706054
 47
-13.65000009536743
 48
0.0
 49
0.0
140
0.0
141
0.0
142
1.0
143
8.704084754739808
 70
 11952
 72
     1
 73
     0
 74
     0
  7

 75
     0
147
0.1148885871608098
148
0.0
149
0.0
100
AcDbLayout
  1
Model
 70
     1
 71
     0
 10
0.0
 20
0.0
 11
12.0
 21
9.0
 12
0.0
 22
0.0
 32
0.0
 14
0.0
 24
0.0
 34
0.0
 15
0.0
 25
0.0
 35
0.0
146
0.0
 13
0.0
 23
0.0
 33
0.0
 16
1.0
 26
0.0
 36
0.0
 17
0.0
 27
1.0
 37
0.0
 76
     0
330
1F
331
EA
1001
ACAD_PSEXT
1000
None
1000
None
1000
Not applicable
1000
The layout will not be plotted unless a new plotter configuration name is selected.
1070
     0
  0
MATERIAL
  5
ED
102
{ACAD_XDICTIONARY
360
68F
102
}
102
{ACAD_REACTORS
330
6A
102
}
330
6A
100
AcDbMaterial
  1
ByBlock
  0
MATERIAL
  5
EC
102
{ACAD_XDICTIONARY
360
68D
102
}
102
{ACAD_REACTORS
330
6A
102
}
330
6A
100
AcDbMaterial
  1
ByLayer
  0
MATERIAL
  5
EE
102
{ACAD_XDICTIONARY
360
173
102
}
102
{ACAD_REACTORS
330
6A
102
}
330
6A
100
AcDbMaterial
  1
Global
 43
0.0007999999797903
 43
0.0
 43
0.0
 43
0.0
 43
0.0
 43
0.0007999999797903
 43
0.0
 43
0.0
 43
0.0
 43
0.0
 43
1.0
 43
0.0
 43
0.0
 43
0.0
 43
0.0
 43
1.0
 49
0.0007999999797903
 49
0.0
 49
0.0
 49
0.0
 49
0.0
 49
0.0007999999797903
 49
0.0
 49
0.0
 49
0.0
 49
0.0
 49
1.0
 49
0.0
 49
0.0
 49
0.0
 49
0.0
 49
1.0
142
0.0007999999797903
142
0.0
142
0.0
142
0.0
142
0.0
142
0.0007999999797903
142
0.0
142
0.0
142
0.0
142
0.0
142
1.0
142
0.0
142
0.0
142
0.0
142
0.0
142
1.0
144
0.0007999999797903
144
0.0
144
0.0
144
0.0
144
0.0
144
0.0007999999797903
144
0.0
144
0.0
144
0.0
144
0.0
144
1.0
144
0.0
144
0.0
144
0.0
144
0.0
144
1.0
1001
ACAD
1070
    -1
1070
     3
1070
     0
1000

1071
        0
1070
     0
  0
MLEADERSTYLE
  5
13B
102
{ACAD_REACTORS
330
12D
102
}
330
12D
100
AcDbMLeaderStyle
170
     2
171
     1
172
     0
 90
        2
 40
0.0
 41
0.0
173
     1
 91
-1056964608
340
14
 92
       -2
290
     1
 42
2.0
291
     1
 43
8.0
  3
Standard
 44
4.0
300

342
11
174
     1
178
     1
175
     1
176
     0
 93
-1056964608
 45
4.0
292
     0
297
     0
 46
4.0
 94
-1056964608
 47
1.0
 49
1.0
140
1.0
293
     1
141
0.0
294
     1
177
     0
142
1.0
295
     0
296
     1
143
3.75
1001
ACAD_MLEADERVER
1070
     2
  0
MLEADERSTYLE
  5
12E
102
{ACAD_REACTORS
330
12D
102
}
330
12D
100
AcDbMLeaderStyle
170
     2
171
     1
172
     0
 90
        2
 40
0.0
 41
0.0
173
     1
 91
-1056964608
340
14
 92
       -2
290
     1
 42
2.0
291
     1
 43
8.0
  3
Standard
 44
4.0
300

342
11
174
     1
178
     1
175
     1
176
     0
 93
-1056964608
 45
4.0
292
     0
297
     0
 46
4.0
 94
-1056964608
 47
1.0
 49
1.0
140
1.0
293
     1
141
0.0
294
     1
177
     0
142
1.0
295
     0
296
     0
143
3.75
1001
ACAD_MLEADERVER
1070
     2
  0
MLINESTYLE
  5
18
102
{ACAD_REACTORS
330
17
102
}
330
17
100
AcDbMlineStyle
  2
STANDARD
 70
     0
  3

 62
   256
 51
90.0
 52
90.0
 71
     2
 49
0.5
 62
   256
  6
BYLAYER
 49
-0.5
 62
   256
  6
BYLAYER
  0
ACDBPLACEHOLDER
  5
F
102
{ACAD_REACTORS
330
E
102
}
330
E
  0
SCALE
  5
10D
102
{ACAD_REACTORS
330
10C
102
}
330
10C
100
AcDbScale
 70
     0
300
1:1
140
1.0
141
1.0
290
     1
  0
SCALE
  5
188
102
{ACAD_REACTORS
330
10C
102
}
330
10C
100
AcDbScale
 70
     0
300
1:2
140
1.0
141
2.0
290
     0
  0
SCALE
  5
189
102
{ACAD_REACTORS
330
10C
102
}
330
10C
100
AcDbScale
 70
     0
300
1:4
140
1.0
141
4.0
290
     0
  0
SCALE
  5
18A
102
{ACAD_REACTORS
330
10C
102
}
330
10C
100
AcDbScale
 70
     0
300
1:5
140
1.0
141
5.0
290
     0
  0
SCALE
  5
18B
102
{ACAD_REACTORS
330
10C
102
}
330
10C
100
AcDbScale
 70
     0
300
1:8
140
1.0
141
8.0
290
     0
  0
SCALE
  5
18C
102
{ACAD_REACTORS
330
10C
102
}
330
10C
100
AcDbScale
 70
     0
300
1:10
140
1.0
141
10.0
290
     0
  0
SCALE
  5
18D
102
{ACAD_REACTORS
330
10C
102
}
330
10C
100
AcDbScale
 70
     0
300
1:16
140
1.0
141
16.0
290
     0
  0
SCALE
  5
18E
102
{ACAD_REACTORS
330
10C
102
}
330
10C
100
AcDbScale
 70
     0
300
1:20
140
1.0
141
20.0
290
     0
  0
SCALE
  5
18F
102
{ACAD_REACTORS
330
10C
102
}
330
10C
100
AcDbScale
 70
     0
300
1:30
140
1.0
141
30.0
290
     0
  0
SCALE
  5
190
102
{ACAD_REACTORS
330
10C
102
}
330
10C
100
AcDbScale
 70
     0
300
1:40
140
1.0
141
40.0
290
     0
  0
SCALE
  5
191
102
{ACAD_REACTORS
330
10C
102
}
330
10C
100
AcDbScale
 70
     0
300
1:50
140
1.0
141
50.0
290
     0
  0
SCALE
  5
192
102
{ACAD_REACTORS
330
10C
102
}
330
10C
100
AcDbScale
 70
     0
300
1:100
140
1.0
141
100.0
290
     0
  0
SCALE
  5
193
102
{ACAD_REACTORS
330
10C
102
}
330
10C
100
AcDbScale
 70
     0
300
2:1
140
2.0
141
1.0
290
     0
  0
SCALE
  5
194
102
{ACAD_REACTORS
330
10C
102
}
330
10C
100
AcDbScale
 70
     0
300
4:1
140
4.0
141
1.0
290
     0
  0
SCALE
  5
195
102
{ACAD_REACTORS
330
10C
102
}
330
10C
100
AcDbScale
 70
     0
300
8:1
140
8.0
141
1.0
290
     0
  0
SCALE
  5
196
102
{ACAD_REACTORS
330
10C
102
}
330
10C
100
AcDbScale
 70
     0
300
10:1
140
10.0
141
1.0
290
     0
  0
SCALE
  5
197
102
{ACAD_REACTORS
330
10C
102
}
330
10C
100
AcDbScale
 70
     0
300
100:1
140
100.0
141
1.0
290
     0
  0
SCALE
  5
198
102
{ACAD_REACTORS
330
10C
102
}
330
10C
100
AcDbScale
 70
     0
300
1/128" = 1'-0"
140
0.0078125
141
12.0
290
     0
  0
SCALE
  5
199
102
{ACAD_REACTORS
330
10C
102
}
330
10C
100
AcDbScale
 70
     0
300
1/64" = 1'-0"
140
0.015625
141
12.0
290
     0
  0
SCALE
  5
19A
102
{ACAD_REACTORS
330
10C
102
}
330
10C
100
AcDbScale
 70
     0
300
1/32" = 1'-0"
140
0.03125
141
12.0
290
     0
  0
SCALE
  5
19B
102
{ACAD_REACTORS
330
10C
102
}
330
10C
100
AcDbScale
 70
     0
300
1/16" = 1'-0"
140
0.0625
141
12.0
290
     0
  0
SCALE
  5
19C
102
{ACAD_REACTORS
330
10C
102
}
330
10C
100
AcDbScale
 70
     0
300
3/32" = 1'-0"
140
0.09375
141
12.0
290
     0
  0
SCALE
  5
19D
102
{ACAD_REACTORS
330
10C
102
}
330
10C
100
AcDbScale
 70
     0
300
1/8" = 1'-0"
140
0.125
141
12.0
290
     0
  0
SCALE
  5
19E
102
{ACAD_REACTORS
330
10C
102
}
330
10C
100
AcDbScale
 70
     0
300
3/16" = 1'-0"
140
0.1875
141
12.0
290
     0
  0
SCALE
  5
19F
102
{ACAD_REACTORS
330
10C
102
}
330
10C
100
AcDbScale
 70
     0
300
1/4" = 1'-0"
140
0.25
141
12.0
290
     0
  0
SCALE
  5
1A0
102
{ACAD_REACTORS
330
10C
102
}
330
10C
100
AcDbScale
 70
     0
300
3/8" = 1'-0"
140
0.375
141
12.0
290
     0
  0
SCALE
  5
1A1
102
{ACAD_REACTORS
330
10C
102
}
330
10C
100
AcDbScale
 70
     0
300
1/2" = 1'-0"
140
0.5
141
12.0
290
     0
  0
SCALE
  5
1A2
102
{ACAD_REACTORS
330
10C
102
}
330
10C
100
AcDbScale
 70
     0
300
3/4" = 1'-0"
140
0.75
141
12.0
290
     0
  0
SCALE
  5
1A3
102
{ACAD_REACTORS
330
10C
102
}
330
10C
100
AcDbScale
 70
     0
300
1" = 1'-0"
140
1.0
141
12.0
290
     0
  0
SCALE
  5
1A4
102
{ACAD_REACTORS
330
10C
102
}
330
10C
100
AcDbScale
 70
     0
300
1-1/2" = 1'-0"
140
1.5
141
12.0
290
     0
  0
SCALE
  5
1A5
102
{ACAD_REACTORS
330
10C
102
}
330
10C
100
AcDbScale
 70
     0
300
3" = 1'-0"
140
3.0
141
12.0
290
     0
  0
SCALE
  5
1A6
102
{ACAD_REACTORS
330
10C
102
}
330
10C
100
AcDbScale
 70
     0
300
6" = 1'-0"
140
6.0
141
12.0
290
     0
  0
SCALE
  5
1A7
102
{ACAD_REACTORS
330
10C
102
}
330
10C
100
AcDbScale
 70
     0
300
1'-0" = 1'-0"
140
12.0
141
12.0
290
     0
  0
TABLESTYLE
  5
7F
102
{ACAD_XDICTIONARY
360
162
102
}
102
{ACAD_REACTORS
330
7E
102
}
330
7E
100
AcDbTableStyle
  3
Standard
 70
     0
 71
     0
 40
1.5
 41
1.5
280
     0
281
     0
  7
Standard
140
4.5
170
     2
 62
     0
 63
     7
283
     0
274
    -2
284
     1
 64
     0
275
    -2
285
     1
 65
     0
276
    -2
286
     1
 66
     0
277
    -2
287
     1
 67
     0
278
    -2
288
     1
 68
     0
279
    -2
289
     1
 69
     0
  7
Standard
140
6.0
170
     5
 62
     0
 63
     7
283
     0
274
    -2
284
     1
 64
     0
275
    -2
285
     1
 65
     0
276
    -2
286
     1
 66
     0
277
    -2
287
     1
 67
     0
278
    -2
288
     1
 68
     0
279
    -2
289
     1
 69
     0
  7
Standard
140
4.5
170
     5
 62
     0
 63
     7
283
     0
274
    -2
284
     1
 64
     0
275
    -2
285
     1
 65
     0
276
    -2
286
     1
 66
     0
277
    -2
287
     1
 67
     0
278
    -2
288
     1
 68
     0
279
    -2
289
     1
 69
     0
  0
VISUALSTYLE
  5
F5
102
{ACAD_REACTORS
330
EF
102
}
330
EF
100
AcDbVisualStyle
  2
2dWireframe
 70
     4
 71
     0
 72
     2
 73
     1
 90
        0
 40
-0.6
 41
-30.0
 62
     5
 63
     7
 74
     1
 91
        4
 64
     7
 65
   257
 75
     1
175
     1
 42
1.0
 92
        0
 66
   257
 43
1.0
 76
     1
 77
     6
 78
     2
 67
     7
 79
     5
170
     0
171
     0
290
     0
174
     0
 93
        1
 44
0.0
173
     0
291
     0
 45
0.0
1001
ACAD
1000
AcDbSavedByObjectVersion
1070
     0
  0
VISUALSTYLE
  5
F7
102
{ACAD_REACTORS
330
EF
102
}
330
EF
100
AcDbVisualStyle
  2
3D Hidden
 70
     6
 71
     1
 72
     2
 73
     2
 90
        0
 40
-0.6
 41
-30.0
 62
     5
 63
     7
 74
     2
 91
        2
 64
     7
 65
   257
 75
     2
175
     1
 42
40.0
 92
        0
 66
   257
 43
1.0
 76
     1
 77
     6
 78
     2
 67
     7
 79
     3
170
     0
171
     0
290
     0
174
     0
 93
        1
 44
0.0
173
     0
291
     0
 45
0.0
1001
ACAD
1000
AcDbSavedByObjectVersion
1070
     0
  0
VISUALSTYLE
  5
F6
102
{ACAD_REACTORS
330
EF
102
}
330
EF
100
AcDbVisualStyle
  2
3dWireframe
 70
     5
 71
     0
 72
     2
 73
     1
 90
        0
 40
-0.6
 41
-30.0
 62
     5
 63
     7
 74
     1
 91
        4
 64
     7
 65
   257
 75
     1
175
     1
 42
1.0
 92
        0
 66
   257
 43
1.0
 76
     1
 77
     6
 78
     2
 67
     7
 79
     5
170
     0
171
     0
290
     0
174
     0
 93
        1
 44
0.0
173
     0
291
     0
 45
0.0
1001
ACAD
1000
AcDbSavedByObjectVersion
1070
     0
  0
VISUALSTYLE
  5
F4
102
{ACAD_REACTORS
330
EF
102
}
330
EF
100
AcDbVisualStyle
  2
Basic
 70
     7
 71
     1
 72
     0
 73
     1
 90
        0
 40
-0.6
 41
-30.0
 62
     5
 63
     7
 74
     0
 91
        4
 64
     7
 65
   257
 75
     1
175
     1
 42
1.0
 92
        8
 66
     7
 43
1.0
 76
     1
 77
     6
 78
     2
 67
     7
 79
     5
170
     0
171
     0
290
     0
174
     0
 93
        1
 44
0.0
173
     0
291
     1
 45
0.0
1001
ACAD
1000
AcDbSavedByObjectVersion
1070
     0
  0
VISUALSTYLE
  5
FB
102
{ACAD_REACTORS
330
EF
102
}
330
EF
100
AcDbVisualStyle
  2
Brighten
 70
    12
 71
     2
 72
     2
 73
     1
 90
        0
 40
-0.6
 41
-30.0
 62
     5
 63
     7
 74
     1
 91
        4
 64
     7
 65
   257
 75
     1
175
     1
 42
1.0
 92
        8
 66
     7
 43
1.0
 76
     1
 77
     6
 78
     2
 67
     7
 79
     5
170
     0
171
     0
290
     0
174
     0
 93
        1
 44
50.0
173
     0
291
     1
 45
0.0
1001
ACAD
1000
AcDbSavedByObjectVersion
1070
     0
  0
VISUALSTYLE
  5
FF
102
{ACAD_REACTORS
330
EF
102
}
330
EF
100
AcDbVisualStyle
  2
ColorChange
 70
    16
 71
     2
 72
     2
 73
     3
 90
        0
 40
-0.6
 41
-30.0
 62
     5
 63
     8
 74
     1
 91
        4
 64
     7
 65
   257
 75
     1
175
     1
 42
1.0
 92
        8
 66
     8
 43
1.0
 76
     1
 77
     6
 78
     2
 67
     7
 79
     5
170
     0
171
     0
290
     0
174
     0
 93
        1
 44
0.0
173
     0
291
     1
 45
0.0
1001
ACAD
1000
AcDbSavedByObjectVersion
1070
     0
  0
VISUALSTYLE
  5
F8
102
{ACAD_REACTORS
330
EF
102
}
330
EF
100
AcDbVisualStyle
  2
Conceptual
 70
     9
 71
     3
 72
     2
 73
     1
 90
        0
 40
-0.6
 41
-30.0
 62
     5
 63
     7
 74
     2
 91
        2
 64
     7
 65
   257
 75
     1
175
     1
 42
40.0
 92
        8
 66
     7
 43
1.0
 76
     1
 77
     6
 78
     2
 67
     7
 79
     3
170
     0
171
     0
290
     0
174
     0
 93
        1
 44
0.0
173
     0
291
     0
 45
0.0
1001
ACAD
1000
AcDbSavedByObjectVersion
1070
     0
  0
VISUALSTYLE
  5
FA
102
{ACAD_REACTORS
330
EF
102
}
330
EF
100
AcDbVisualStyle
  2
Dim
 70
    11
 71
     2
 72
     2
 73
     1
 90
        0
 40
-0.6
 41
-30.0
 62
     5
 63
     7
 74
     1
 91
        4
 64
     7
 65
   257
 75
     1
175
     1
 42
1.0
 92
        8
 66
     7
 43
1.0
 76
     1
 77
     6
 78
     2
 67
     7
 79
     5
170
     0
171
     0
290
     0
174
     0
 93
        1
 44
-50.0
173
     0
291
     1
 45
0.0
1001
ACAD
1000
AcDbSavedByObjectVersion
1070
     0
  0
VISUALSTYLE
  5
FE
102
{ACAD_REACTORS
330
EF
102
}
330
EF
100
AcDbVisualStyle
  2
Facepattern
 70
    15
 71
     2
 72
     2
 73
     1
 90
        0
 40
-0.6
 41
-30.0
 62
     5
 63
     7
 74
     1
 91
        4
 64
     7
 65
   257
 75
     1
175
     1
 42
1.0
 92
        8
 66
     7
 43
1.0
 76
     1
 77
     6
 78
     2
 67
     7
 79
     5
170
     0
171
     0
290
     0
174
     0
 93
        1
 44
0.0
173
     0
291
     1
 45
0.0
1001
ACAD
1000
AcDbSavedByObjectVersion
1070
     0
  0
VISUALSTYLE
  5
F0
102
{ACAD_REACTORS
330
EF
102
}
330
EF
100
AcDbVisualStyle
  2
Flat
 70
     0
 71
     2
 72
     1
 73
     1
 90
        2
 40
-0.6
 41
30.0
 62
     5
 63
     7
 74
     0
 91
        4
 64
     7
 65
   257
 75
     1
175
     1
 42
1.0
 92
        8
 66
     7
 43
1.0
 76
     1
 77
     6
 78
     2
 67
     7
 79
     5
170
     0
171
     0
290
     0
174
     0
 93
        1
 44
0.0
173
     0
291
     1
 45
0.0
1001
ACAD
1000
AcDbSavedByObjectVersion
1070
     0
  0
VISUALSTYLE
  5
F1
102
{ACAD_REACTORS
330
EF
102
}
330
EF
100
AcDbVisualStyle
  2
FlatWithEdges
 70
     1
 71
     2
 72
     1
 73
     1
 90
        2
 40
-0.6
 41
30.0
 62
     5
 63
     7
 74
     1
 91
        4
 64
     7
 65
   257
 75
     1
175
     1
 42
1.0
 92
        0
 66
   257
 43
1.0
 76
     1
 77
     6
 78
     2
 67
     7
 79
     5
170
     0
171
     0
290
     0
174
     0
 93
        1
 44
0.0
173
     0
291
     1
 45
0.0
1001
ACAD
1000
AcDbSavedByObjectVersion
1070
     0
  0
VISUALSTYLE
  5
F2
102
{ACAD_REACTORS
330
EF
102
}
330
EF
100
AcDbVisualStyle
  2
Gouraud
 70
     2
 71
     2
 72
     2
 73
     1
 90
        2
 40
-0.6
 41
30.0
 62
     5
 63
     7
 74
     0
 91
        4
 64
     7
 65
   257
 75
     1
175
     1
 42
1.0
 92
        0
 66
     7
 43
1.0
 76
     1
 77
     6
 78
     2
 67
     7
 79
     5
170
     0
171
     0
290
     0
174
     0
 93
        1
 44
0.0
173
     0
291
     1
 45
0.0
1001
ACAD
1000
AcDbSavedByObjectVersion
1070
     0
  0
VISUALSTYLE
  5
F3
102
{ACAD_REACTORS
330
EF
102
}
330
EF
100
AcDbVisualStyle
  2
GouraudWithEdges
 70
     3
 71
     2
 72
     2
 73
     1
 90
        2
 40
-0.6
 41
30.0
 62
     5
 63
     7
 74
     1
 91
        4
 64
     7
 65
   257
 75
     1
175
     1
 42
1.0
 92
        0
 66
   257
 43
1.0
 76
     1
 77
     6
 78
     2
 67
     7
 79
     5
170
     0
171
     0
290
     0
174
     0
 93
        1
 44
0.0
173
     0
291
     1
 45
0.0
1001
ACAD
1000
AcDbSavedByObjectVersion
1070
     0
  0
VISUALSTYLE
  5
FD
102
{ACAD_REACTORS
330
EF
102
}
330
EF
100
AcDbVisualStyle
  2
Linepattern
 70
    14
 71
     2
 72
     2
 73
     1
 90
        0
 40
-0.6
 41
-30.0
 62
     5
 63
     7
 74
     1
 91
        4
 64
     7
 65
   257
 75
     7
175
     7
 42
1.0
 92
        8
 66
     7
 43
1.0
 76
     1
 77
     6
 78
     2
 67
     7
 79
     5
170
     0
171
     0
290
     0
174
     0
 93
        1
 44
0.0
173
     0
291
     1
 45
0.0
1001
ACAD
1000
AcDbSavedByObjectVersion
1070
     0
  0
VISUALSTYLE
  5
F9
102
{ACAD_REACTORS
330
EF
102
}
330
EF
100
AcDbVisualStyle
  2
Realistic
 70
     8
 71
     2
 72
     2
 73
     1
 90
        0
 40
-0.6
 41
-30.0
 62
     5
 63
     7
 74
     1
 91
        0
 64
     7
 65
   257
 75
     1
175
     1
 42
1.0
 92
        8
 66
     8
 43
1.0
 76
     1
 77
     6
 78
     2
 67
     7
 79
     5
170
     0
171
     0
290
     0
174
     0
 93
       13
 44
0.0
173
     0
291
     0
 45
0.0
1001
ACAD
1000
AcDbSavedByObjectVersion
1070
     0
  0
VISUALSTYLE
  5
FC
102
{ACAD_REACTORS
330
EF
102
}
330
EF
100
AcDbVisualStyle
  2
Thicken
 70
    13
 71
     2
 72
     2
 73
     1
 90
        0
 40
-0.6
 41
-30.0
 62
     5
 63
     7
 74
     1
 91
        4
 64
     7
 65
   257
 75
     1
175
     1
 42
1.0
 92
       12
 66
     7
 43
1.0
 76
     1
 77
     6
 78
     2
 67
     7
 79
     5
170
     0
171
     0
290
     0
174
     0
 93
        1
 44
0.0
173
     0
291
     1
 45
0.0
1001
ACAD
1000
AcDbSavedByObjectVersion
1070
     0
  0
DICTIONARYVAR
  5
146
102
{ACAD_REACTORS
330
5E
102
}
330
5E
100
DictionaryVariables
280
     0
  1
1:1
  0
DICTIONARYVAR
  5
145
102
{ACAD_REACTORS
330
5E
102
}
330
5E
100
DictionaryVariables
280
     0
  1
STANDARD
  0
DICTIONARYVAR
  5
84
102
{ACAD_REACTORS
330
5E
102
}
330
5E
100
DictionaryVariables
280
     0
  1
STANDARD
  0
DICTIONARYVAR
  5
5F
102
{ACAD_REACTORS
330
5E
102
}
330
5E
100
DictionaryVariables
280
     0
  1
2
  0
DICTIONARYVAR
  5
63
102
{ACAD_REACTORS
330
5E
102
}
330
5E
100
DictionaryVariables
280
     0
  1
1
  0
DICTIONARYVAR
  5
681
102
{ACAD_REACTORS
330
5E
102
}
330
5E
100
DictionaryVariables
280
     0
  1
0
  0
DICTIONARYVAR
  5
67F
102
{ACAD_REACTORS
330
5E
102
}
330
5E
100
DictionaryVariables
280
     0
  1
2
  0
DICTIONARYVAR
  5
67E
102
{ACAD_REACTORS
330
5E
102
}
330
5E
100
DictionaryVariables
280
     0
  1
1
  0
DICTIONARYVAR
  5
683
102
{ACAD_REACTORS
330
5E
102
}
330
5E
100
DictionaryVariables
280
     0
  1
80.000000
  0
DICTIONARYVAR
  5
682
102
{ACAD_REACTORS
330
5E
102
}
330
5E
100
DictionaryVariables
280
     0
  1
5.000000
  0
DICTIONARYVAR
  5
680
102
{ACAD_REACTORS
330
5E
102
}
330
5E
100
DictionaryVariables
280
     0
  1
127
  0
DICTIONARY
  5
689
330
D3
100
AcDbDictionary
280
     1
281
     1
  3
ACAD_XREC_ROUNDTRIP
360
68A
  0
DICTIONARY
  5
68B
330
D7
100
AcDbDictionary
280
     1
281
     1
  3
ACAD_XREC_ROUNDTRIP
360
68C
  0
DICTIONARY
  5
686
330
22
100
AcDbDictionary
280
     1
281
     1
  3
ACAD_XREC_ROUNDTRIP
360
687
  0
DICTIONARY
  5
68F
330
ED
100
AcDbDictionary
280
     1
281
     1
  3
ACAD_XREC_ROUNDTRIP
360
690
  0
DICTIONARY
  5
68D
330
EC
100
AcDbDictionary
280
     1
281
     1
  3
ACAD_XREC_ROUNDTRIP
360
68E
  0
DICTIONARY
  5
173
330
EE
100
AcDbDictionary
280
     1
281
     1
  3
ACAD_XREC_ROUNDTRIP
360
691
  3
BUMPTILE
360
175
  3
DIFFUSETILE
360
174
  3
OPACITYTILE
360
176
  3
REFLECTIONTILE
360
177
  0
DICTIONARY
  5
162
330
7F
100
AcDbDictionary
280
     1
281
     1
  3
ACAD_ROUNDTRIP_2008_TABLESTYLE_CELLSTYLEMAP
360
684
  3
ACAD_XREC_ROUNDTRIP
360
688
  0
XRECORD
  5
68A
102
{ACAD_REACTORS
330
689
102
}
330
689
100
AcDbXrecord
280
     1
102
SHADEPLOT
 70
     0
102
SHADEPLOTRESLEVEL
 70
     2
102
SHADEPLOTCUSTOMDPI
 70
   300
  0
XRECORD
  5
68C
102
{ACAD_REACTORS
330
68B
102
}
330
68B
100
AcDbXrecord
280
     1
102
SHADEPLOT
 70
     0
102
SHADEPLOTRESLEVEL
 70
     2
102
SHADEPLOTCUSTOMDPI
 70
   300
  0
XRECORD
  5
687
102
{ACAD_REACTORS
330
686
102
}
330
686
100
AcDbXrecord
280
     1
102
SHADEPLOT
 70
     0
102
SHADEPLOTRESLEVEL
 70
     2
102
SHADEPLOTCUSTOMDPI
 70
   300
  0
XRECORD
  5
690
102
{ACAD_REACTORS
330
68F
102
}
330
68F
100
AcDbXrecord
280
     1
102
MATERIAL
148
0.0
149
0.0
149
0.0
 93
        0
 94
       63
282
     0
 72
     1
 77
     1
171
     1
175
     1
179
     1
273
     0
  0
XRECORD
  5
68E
102
{ACAD_REACTORS
330
68D
102
}
330
68D
100
AcDbXrecord
280
     1
102
MATERIAL
148
0.0
149
0.0
149
0.0
 93
        0
 94
       63
282
     0
 72
     1
 77
     1
171
     1
175
     1
179
     1
273
     0
  0
XRECORD
  5
691
102
{ACAD_REACTORS
330
173
102
}
330
173
100
AcDbXrecord
280
     1
102
MATERIAL
148
0.0
149
0.0
149
0.0
 93
        0
 94
       63
282
     0
 72
     1
 77
     1
171
     1
175
     1
179
     1
273
     0
  0
XRECORD
  5
175
102
{ACAD_REACTORS
330
173
102
}
330
173
100
AcDbXrecord
280
     1
270
     1
271
     1
  0
XRECORD
  5
174
102
{ACAD_REACTORS
330
173
102
}
330
173
100
AcDbXrecord
280
     1
270
     1
271
     1
  0
XRECORD
  5
176
102
{ACAD_REACTORS
330
173
102
}
330
173
100
AcDbXrecord
280
     1
270
     1
271
     1
  0
XRECORD
  5
177
102
{ACAD_REACTORS
330
173
102
}
330
173
100
AcDbXrecord
280
     1
270
     1
271
     1
  0
CELLSTYLEMAP
  5
684
102
{ACAD_REACTORS
330
162
102
}
330
162
100
AcDbCellStyleMap
 90
        3
300
CELLSTYLE
  1
TABLEFORMAT_BEGIN
 90
        5
170
     1
 91
        0
 92
    32768
 62
   257
 93
        1
300
CONTENTFORMAT
  1
CONTENTFORMAT_BEGIN
 90
        0
 91
        0
 92
      512
 93
        0
300

 40
0.0
140
1.0
 94
        5
 62
     0
340
11
144
6.0
309
CONTENTFORMAT_END
171
     1
301
MARGIN
  1
CELLMARGIN_BEGIN
 40
1.5
 40
1.5
 40
1.5
 40
1.5
 40
4.5
 40
4.5
309
CELLMARGIN_END
 94
        6
 95
        1
302
GRIDFORMAT
  1
GRIDFORMAT_BEGIN
 90
        0
 91
        1
 62
     0
 92
       -2
340
14
 93
        0
 40
1.125
309
GRIDFORMAT_END
 95
        2
302
GRIDFORMAT
  1
GRIDFORMAT_BEGIN
 90
        0
 91
        1
 62
     0
 92
       -2
340
14
 93
        0
 40
1.125
309
GRIDFORMAT_END
 95
        4
302
GRIDFORMAT
  1
GRIDFORMAT_BEGIN
 90
        0
 91
        1
 62
     0
 92
       -2
340
14
 93
        0
 40
1.125
309
GRIDFORMAT_END
 95
        8
302
GRIDFORMAT
  1
GRIDFORMAT_BEGIN
 90
        0
 91
        1
 62
     0
 92
       -2
340
14
 93
        0
 40
1.125
309
GRIDFORMAT_END
 95
       16
302
GRIDFORMAT
  1
GRIDFORMAT_BEGIN
 90
        0
 91
        1
 62
     0
 92
       -2
340
14
 93
        0
 40
1.125
309
GRIDFORMAT_END
 95
       32
302
GRIDFORMAT
  1
GRIDFORMAT_BEGIN
 90
        0
 91
        1
 62
     0
 92
       -2
340
14
 93
        0
 40
1.125
309
GRIDFORMAT_END
309
TABLEFORMAT_END
  1
CELLSTYLE_BEGIN
 90
        1
 91
        1
300
_TITLE
309
CELLSTYLE_END
300
CELLSTYLE
  1
TABLEFORMAT_BEGIN
 90
        5
170
     1
 91
        0
 92
        0
 62
   257
 93
        1
300
CONTENTFORMAT
  1
CONTENTFORMAT_BEGIN
 90
        0
 91
        0
 92
      512
 93
        0
300

 40
0.0
140
1.0
 94
        5
 62
     0
340
11
144
4.5
309
CONTENTFORMAT_END
171
     1
301
MARGIN
  1
CELLMARGIN_BEGIN
 40
1.5
 40
1.5
 40
1.5
 40
1.5
 40
4.5
 40
4.5
309
CELLMARGIN_END
 94
        6
 95
        1
302
GRIDFORMAT
  1
GRIDFORMAT_BEGIN
 90
        0
 91
        1
 62
     0
 92
       -2
340
14
 93
        0
 40
1.125
309
GRIDFORMAT_END
 95
        2
302
GRIDFORMAT
  1
GRIDFORMAT_BEGIN
 90
        0
 91
        1
 62
     0
 92
       -2
340
14
 93
        0
 40
1.125
309
GRIDFORMAT_END
 95
        4
302
GRIDFORMAT
  1
GRIDFORMAT_BEGIN
 90
        0
 91
        1
 62
     0
 92
       -2
340
14
 93
        0
 40
1.125
309
GRIDFORMAT_END
 95
        8
302
GRIDFORMAT
  1
GRIDFORMAT_BEGIN
 90
        0
 91
        1
 62
     0
 92
       -2
340
14
 93
        0
 40
1.125
309
GRIDFORMAT_END
 95
       16
302
GRIDFORMAT
  1
GRIDFORMAT_BEGIN
 90
        0
 91
        1
 62
     0
 92
       -2
340
14
 93
        0
 40
1.125
309
GRIDFORMAT_END
 95
       32
302
GRIDFORMAT
  1
GRIDFORMAT_BEGIN
 90
        0
 91
        1
 62
     0
 92
       -2
340
14
 93
        0
 40
1.125
309
GRIDFORMAT_END
309
TABLEFORMAT_END
  1
CELLSTYLE_BEGIN
 90
        2
 91
        1
300
_HEADER
309
CELLSTYLE_END
300
CELLSTYLE
  1
TABLEFORMAT_BEGIN
 90
        5
170
     1
 91
        0
 92
        0
 62
   257
 93
        1
300
CONTENTFORMAT
  1
CONTENTFORMAT_BEGIN
 90
        0
 91
        0
 92
      512
 93
        0
300

 40
0.0
140
1.0
 94
        2
 62
     0
340
11
144
4.5
309
CONTENTFORMAT_END
171
     1
301
MARGIN
  1
CELLMARGIN_BEGIN
 40
1.5
 40
1.5
 40
1.5
 40
1.5
 40
4.5
 40
4.5
309
CELLMARGIN_END
 94
        6
 95
        1
302
GRIDFORMAT
  1
GRIDFORMAT_BEGIN
 90
        0
 91
        1
 62
     0
 92
       -2
340
14
 93
        0
 40
1.125
309
GRIDFORMAT_END
 95
        2
302
GRIDFORMAT
  1
GRIDFORMAT_BEGIN
 90
        0
 91
        1
 62
     0
 92
       -2
340
14
 93
        0
 40
1.125
309
GRIDFORMAT_END
 95
        4
302
GRIDFORMAT
  1
GRIDFORMAT_BEGIN
 90
        0
 91
        1
 62
     0
 92
       -2
340
14
 93
        0
 40
1.125
309
GRIDFORMAT_END
 95
        8
302
GRIDFORMAT
  1
GRIDFORMAT_BEGIN
 90
        0
 91
        1
 62
     0
 92
       -2
340
14
 93
        0
 40
1.125
309
GRIDFORMAT_END
 95
       16
302
GRIDFORMAT
  1
GRIDFORMAT_BEGIN
 90
        0
 91
        1
 62
     0
 92
       -2
340
14
 93
        0
 40
1.125
309
GRIDFORMAT_END
 95
       32
302
GRIDFORMAT
  1
GRIDFORMAT_BEGIN
 90
        0
 91
        1
 62
     0
 92
       -2
340
14
 93
        0
 40
1.125
309
GRIDFORMAT_END
309
TABLEFORMAT_END
  1
CELLSTYLE_BEGIN
 90
        3
 91
        2
300
_DATA
309
CELLSTYLE_END
  0
XRECORD
  5
688
102
{ACAD_REACTORS
330
162
102
}
330
162
100
AcDbXrecord
280
     1
102
ACAD_ROUNDTRIP_PRE2007_TABLESTYLE
 90
      512
 91
        0
  1

 92
      512
 93
        0
  2

 94
      512
 95
        0
  3

  0
ENDSEC
  0
EOF
