  0
SECTION
  2
HEADER
  9
$ACADVER
  1
AC1015
  9
$ACADMAINTVER
 70
    20
  9
$DWGCODEPAGE
  3
ANSI_1254
  9
$INSBASE
 10
0.0
 20
0.0
 30
0.0
  9
$EXTMIN
 10
2186.810946760399
 20
964.6784886757988
 30
0.0
  9
$EXTMAX
 10
2355.44515408855
 20
1054.816045861571
 30
0.0
  9
$LIMMIN
 10
0.0
 20
0.0
  9
$LIMMAX
 10
420.0
 20
297.0
  9
$ORTHOMODE
 70
     0
  9
$REGENMODE
 70
     1
  9
$FILLMODE
 70
     1
  9
$QTEXTMODE
 70
     0
  9
$MIRRTEXT
 70
     0
  9
$LTSCALE
 40
1.0
  9
$ATTMODE
 70
     1
  9
$TEXTSIZE
 40
2.5
  9
$TRACEWID
 40
1.0
  9
$TEXTSTYLE
  7
Standard
  9
$CLAYER
  8
0
  9
$CELTYPE
  6
ByLayer
  9
$CECOLOR
 62
   256
  9
$CELTSCALE
 40
1.0
  9
$DISPSILH
 70
     0
  9
$DIMSCALE
 40
1.0
  9
$DIMASZ
 40
2.5
  9
$DIMEXO
 40
0.625
  9
$DIMDLI
 40
3.75
  9
$DIMRND
 40
0.0
  9
$DIMDLE
 40
0.0
  9
$DIMEXE
 40
1.25
  9
$DIMTP
 40
0.0
  9
$DIMTM
 40
0.0
  9
$DIMTXT
 40
2.5
  9
$DIMCEN
 40
2.5
  9
$DIMTSZ
 40
0.0
  9
$DIMTOL
 70
     0
  9
$DIMLIM
 70
     0
  9
$DIMTIH
 70
     0
  9
$DIMTOH
 70
     0
  9
$DIMSE1
 70
     0
  9
$DIMSE2
 70
     0
  9
$DIMTAD
 70
     1
  9
$DIMZIN
 70
     8
  9
$DIMBLK
  1

  9
$DIMASO
 70
     1
  9
$DIMSHO
 70
     1
  9
$DIMPOST
  1

  9
$DIMAPOST
  1

  9
$DIMALT
 70
     0
  9
$DIMALTD
 70
     3
  9
$DIMALTF
 40
0.03937007874016
  9
$DIMLFAC
 40
1.0
  9
$DIMTOFL
 70
     1
  9
$DIMTVP
 40
0.0
  9
$DIMTIX
 70
     0
  9
$DIMSOXD
 70
     0
  9
$DIMSAH
 70
     0
  9
$DIMBLK1
  1

  9
$DIMBLK2
  1

  9
$DIMSTYLE
  2
ISO-25
  9
$DIMCLRD
 70
     0
  9
$DIMCLRE
 70
     0
  9
$DIMCLRT
 70
     0
  9
$DIMTFAC
 40
1.0
  9
$DIMGAP
 40
0.625
  9
$DIMJUST
 70
     0
  9
$DIMSD1
 70
     0
  9
$DIMSD2
 70
     0
  9
$DIMTOLJ
 70
     0
  9
$DIMTZIN
 70
     8
  9
$DIMALTZ
 70
     0
  9
$DIMALTTZ
 70
     0
  9
$DIMUPT
 70
     0
  9
$DIMDEC
 70
     2
  9
$DIMTDEC
 70
     2
  9
$DIMALTU
 70
     2
  9
$DIMALTTD
 70
     3
  9
$DIMTXSTY
  7
Standard
  9
$DIMAUNIT
 70
     0
  9
$DIMADEC
 70
     0
  9
$DIMALTRND
 40
0.0
  9
$DIMAZIN
 70
     0
  9
$DIMDSEP
 70
    44
  9
$DIMATFIT
 70
     3
  9
$DIMFRAC
 70
     0
  9
$DIMLDRBLK
  1

  9
$DIMLUNIT
 70
     2
  9
$DIMLWD
 70
    -2
  9
$DIMLWE
 70
    -2
  9
$DIMTMOVE
 70
     0
  9
$LUNITS
 70
     2
  9
$LUPREC
 70
     4
  9
$SKETCHINC
 40
1.0
  9
$FILLETRAD
 40
0.0
  9
$AUNITS
 70
     0
  9
$AUPREC
 70
     0
  9
$MENU
  1
.
  9
$ELEVATION
 40
0.0
  9
$PELEVATION
 40
0.0
  9
$THICKNESS
 40
0.0
  9
$LIMCHECK
 70
     0
  9
$CHAMFERA
 40
0.0
  9
$CHAMFERB
 40
0.0
  9
$CHAMFERC
 40
0.0
  9
$CHAMFERD
 40
0.0
  9
$SKPOLY
 70
     0
  9
$TDCREATE
 40
2459083.585084607
  9
$TDUCREATE
 40
2459083.460084606
  9
$TDUPDATE
 40
2459083.677797246
  9
$TDUUPDATE
 40
2459083.552797245
  9
$TDINDWG
 40
0.0018829861
  9
$TDUSRTIMER
 40
0.0018829861
  9
$USRTIMER
 70
     1
  9
$ANGBASE
 50
0.0
  9
$ANGDIR
 70
     0
  9
$PDMODE
 70
     0
  9
$PDSIZE
 40
0.0
  9
$PLINEWID
 40
0.0
  9
$SPLFRAME
 70
     0
  9
$SPLINETYPE
 70
     6
  9
$SPLINESEGS
 70
     8
  9
$HANDSEED
  5
54E
  9
$SURFTAB1
 70
     6
  9
$SURFTAB2
 70
     6
  9
$SURFTYPE
 70
     6
  9
$SURFU
 70
     6
  9
$SURFV
 70
     6
  9
$UCSBASE
  2

  9
$UCSNAME
  2

  9
$UCSORG
 10
0.0
 20
0.0
 30
0.0
  9
$UCSXDIR
 10
1.0
 20
0.0
 30
0.0
  9
$UCSYDIR
 10
0.0
 20
1.0
 30
0.0
  9
$UCSORTHOREF
  2

  9
$UCSORTHOVIEW
 70
     0
  9
$UCSORGTOP
 10
0.0
 20
0.0
 30
0.0
  9
$UCSORGBOTTOM
 10
0.0
 20
0.0
 30
0.0
  9
$UCSORGLEFT
 10
0.0
 20
0.0
 30
0.0
  9
$UCSORGRIGHT
 10
0.0
 20
0.0
 30
0.0
  9
$UCSORGFRONT
 10
0.0
 20
0.0
 30
0.0
  9
$UCSORGBACK
 10
0.0
 20
0.0
 30
0.0
  9
$PUCSBASE
  2

  9
$PUCSNAME
  2

  9
$PUCSORG
 10
0.0
 20
0.0
 30
0.0
  9
$PUCSXDIR
 10
1.0
 20
0.0
 30
0.0
  9
$PUCSYDIR
 10
0.0
 20
1.0
 30
0.0
  9
$PUCSORTHOREF
  2

  9
$PUCSORTHOVIEW
 70
     0
  9
$PUCSORGTOP
 10
0.0
 20
0.0
 30
0.0
  9
$PUCSORGBOTTOM
 10
0.0
 20
0.0
 30
0.0
  9
$PUCSORGLEFT
 10
0.0
 20
0.0
 30
0.0
  9
$PUCSORGRIGHT
 10
0.0
 20
0.0
 30
0.0
  9
$PUCSORGFRONT
 10
0.0
 20
0.0
 30
0.0
  9
$PUCSORGBACK
 10
0.0
 20
0.0
 30
0.0
  9
$USERI1
 70
     0
  9
$USERI2
 70
     0
  9
$USERI3
 70
     0
  9
$USERI4
 70
     0
  9
$USERI5
 70
     0
  9
$USERR1
 40
0.0
  9
$USERR2
 40
0.0
  9
$USERR3
 40
0.0
  9
$USERR4
 40
0.0
  9
$USERR5
 40
0.0
  9
$WORLDVIEW
 70
     1
  9
$SHADEDGE
 70
     3
  9
$SHADEDIF
 70
    70
  9
$TILEMODE
 70
     1
  9
$MAXACTVP
 70
    64
  9
$PINSBASE
 10
0.0
 20
0.0
 30
0.0
  9
$PLIMCHECK
 70
     0
  9
$PEXTMIN
 10
0.0
 20
0.0
 30
0.0
  9
$PEXTMAX
 10
0.0
 20
0.0
 30
0.0
  9
$PLIMMIN
 10
0.0
 20
0.0
  9
$PLIMMAX
 10
12.0
 20
9.0
  9
$UNITMODE
 70
     0
  9
$VISRETAIN
 70
     1
  9
$PLINEGEN
 70
     0
  9
$PSLTSCALE
 70
     1
  9
$TREEDEPTH
 70
  3020
  9
$CMLSTYLE
  2
Standard
  9
$CMLJUST
 70
     0
  9
$CMLSCALE
 40
20.0
  9
$PROXYGRAPHICS
 70
     1
  9
$MEASUREMENT
 70
     1
  9
$CELWEIGHT
370
    -1
  9
$ENDCAPS
280
     0
  9
$JOINSTYLE
280
     0
  9
$LWDISPLAY
290
     0
  9
$INSUNITS
 70
     4
  9
$HYPERLINKBASE
  1

  9
$STYLESHEET
  1

  9
$XEDIT
290
     1
  9
$CEPSNTYPE
380
     0
  9
$PSTYLEMODE
290
     1
  9
$FINGERPRINTGUID
  2
{9741D176-6846-4FDF-9133-E0119262D7E4}
  9
$VERSIONGUID
  2
{039C58C4-44EF-4108-9C98-D9C37C309ECD}
  9
$EXTNAMES
290
     1
  9
$PSVPSCALE
 40
0.0
  9
$OLESTARTUP
290
     0
  0
ENDSEC
  0
SECTION
  2
CLASSES
  0
CLASS
  1
ACDBDICTIONARYWDFLT
  2
AcDbDictionaryWithDefault
  3
ObjectDBX Classes
 90
        0
280
     0
281
     0
  0
CLASS
  1
ACDBPLACEHOLDER
  2
AcDbPlaceHolder
  3
ObjectDBX Classes
 90
        0
280
     0
281
     0
  0
CLASS
  1
LAYOUT
  2
AcDbLayout
  3
ObjectDBX Classes
 90
        0
280
     0
281
     0
  0
CLASS
  1
DICTIONARYVAR
  2
AcDbDictionaryVar
  3
ObjectDBX Classes
 90
        0
280
     0
281
     0
  0
CLASS
  1
TABLESTYLE
  2
AcDbTableStyle
  3
ObjectDBX Classes
 90
     4095
280
     0
281
     0
  0
CLASS
  1
MATERIAL
  2
AcDbMaterial
  3
ObjectDBX Classes
 90
     1153
280
     0
281
     0
  0
CLASS
  1
VISUALSTYLE
  2
AcDbVisualStyle
  3
ObjectDBX Classes
 90
     4095
280
     0
281
     0
  0
CLASS
  1
SCALE
  2
AcDbScale
  3
ObjectDBX Classes
 90
     1153
280
     0
281
     0
  0
CLASS
  1
MLEADERSTYLE
  2
AcDbMLeaderStyle
  3
ACDB_MLEADERSTYLE_CLASS
 90
     4095
280
     0
281
     0
  0
CLASS
  1
CELLSTYLEMAP
  2
AcDbCellStyleMap
  3
ObjectDBX Classes
 90
     1152
280
     0
281
     0
  0
ENDSEC
  0
SECTION
  2
TABLES
  0
TABLE
  2
VPORT
  5
8
330
0
100
AcDbSymbolTable
 70
     1
  0
VPORT
  5
EA
330
8
100
AcDbSymbolTableRecord
100
AcDbViewportTableRecord
  2
*Active
 70
     0
 10
0.0
 20
0.0
 11
1.0
 21
1.0
 12
2291.701186057
 22
1007.409397488815
 13
0.0
 23
0.0
 14
10.0
 24
10.0
 15
10.0
 25
10.0
 16
0.0
 26
0.0
 36
1.0
 17
0.0
 27
0.0
 37
0.0
 40
181.598503539187
 41
1.903110047846889
 42
50.0
 43
0.0
 44
0.0
 50
0.0
 51
0.0
 71
     0
 72
  1000
 73
     1
 74
     3
 75
     0
 76
     0
 77
     0
 78
     0
281
     0
 65
     1
110
0.0
120
0.0
130
0.0
111
1.0
121
0.0
131
0.0
112
0.0
122
1.0
132
0.0
 79
     0
146
0.0
  0
ENDTAB
  0
TABLE
  2
LTYPE
  5
5
330
0
100
AcDbSymbolTable
 70
     1
  0
LTYPE
  5
14
330
5
100
AcDbSymbolTableRecord
100
AcDbLinetypeTableRecord
  2
ByBlock
 70
     0
  3

 72
    65
 73
     0
 40
0.0
  0
LTYPE
  5
15
330
5
100
AcDbSymbolTableRecord
100
AcDbLinetypeTableRecord
  2
ByLayer
 70
     0
  3

 72
    65
 73
     0
 40
0.0
  0
LTYPE
  5
16
330
5
100
AcDbSymbolTableRecord
100
AcDbLinetypeTableRecord
  2
Continuous
 70
     0
  3
Solid line
 72
    65
 73
     0
 40
0.0
  0
ENDTAB
  0
TABLE
  2
LAYER
  5
2
330
0
100
AcDbSymbolTable
 70
     1
  0
LAYER
  5
10
102
{ACAD_XDICTIONARY
360
13C
102
}
330
2
100
AcDbSymbolTableRecord
100
AcDbLayerTableRecord
  2
0
 70
     0
 62
     7
  6
Continuous
370
    -3
390
F
  0
ENDTAB
  0
TABLE
  2
STYLE
  5
3
330
0
100
AcDbSymbolTable
 70
     2
  0
STYLE
  5
11
330
3
100
AcDbSymbolTableRecord
100
AcDbTextStyleTableRecord
  2
Standard
 70
     0
 40
0.0
 41
1.0
 50
0.0
 71
     0
 42
2.5
  3
txt
  4

  0
STYLE
  5
132
330
3
100
AcDbSymbolTableRecord
100
AcDbTextStyleTableRecord
  2
Annotative
 70
     0
 40
0.0
 41
1.0
 50
0.0
 71
     0
 42
2.5
  3
txt.shx
  4

1001
AcadAnnotative
1000
AnnotativeData
1002
{
1070
     1
1070
     1
1002
}
  0
ENDTAB
  0
TABLE
  2
VIEW
  5
6
330
0
100
AcDbSymbolTable
 70
     0
  0
ENDTAB
  0
TABLE
  2
UCS
  5
7
330
0
100
AcDbSymbolTable
 70
     0
  0
ENDTAB
  0
TABLE
  2
APPID
  5
9
330
0
100
AcDbSymbolTable
 70
     7
  0
APPID
  5
12
330
9
100
AcDbSymbolTableRecord
100
AcDbRegAppTableRecord
  2
ACAD
 70
     0
  0
APPID
  5
9E
330
9
100
AcDbSymbolTableRecord
100
AcDbRegAppTableRecord
  2
ACAD_PSEXT
 70
     0
  0
APPID
  5
133
330
9
100
AcDbSymbolTableRecord
100
AcDbRegAppTableRecord
  2
AcadAnnoPO
 70
     0
  0
APPID
  5
134
330
9
100
AcDbSymbolTableRecord
100
AcDbRegAppTableRecord
  2
AcadAnnotative
 70
     0
  0
APPID
  5
135
330
9
100
AcDbSymbolTableRecord
100
AcDbRegAppTableRecord
  2
ACAD_DSTYLE_DIMJAG
 70
     0
  0
APPID
  5
136
330
9
100
AcDbSymbolTableRecord
100
AcDbRegAppTableRecord
  2
ACAD_DSTYLE_DIMTALN
 70
     0
  0
APPID
  5
165
330
9
100
AcDbSymbolTableRecord
100
AcDbRegAppTableRecord
  2
ACAD_MLEADERVER
 70
     0
  0
ENDTAB
  0
TABLE
  2
DIMSTYLE
  5
A
330
0
100
AcDbSymbolTable
 70
     2
100
AcDbDimStyleTable
 71
     2
340
27
340
137
  0
DIMSTYLE
105
27
330
A
100
AcDbSymbolTableRecord
100
AcDbDimStyleTableRecord
  2
ISO-25
 70
     0
 41
2.5
 42
0.625
 43
3.75
 44
1.25
 73
     0
 74
     0
 77
     1
 78
     8
140
2.5
141
2.5
143
0.03937007874016
147
0.625
171
     3
172
     1
271
     2
272
     2
274
     3
278
    44
283
     0
284
     8
340
11
  0
DIMSTYLE
105
137
330
A
100
AcDbSymbolTableRecord
100
AcDbDimStyleTableRecord
  2
Annotative
 70
     0
 40
0.0
 41
2.5
 42
0.625
 43
3.75
 44
1.25
 73
     0
 74
     0
 77
     1
 78
     8
140
2.5
141
2.5
143
0.03937007874016
147
0.625
171
     3
172
     1
271
     2
272
     2
274
     3
278
    44
283
     0
284
     8
340
11
1001
AcadAnnotative
1000
AnnotativeData
1002
{
1070
     1
1070
     1
1002
}
1001
ACAD_DSTYLE_DIMJAG
1070
   388
1040
1.5
1001
ACAD_DSTYLE_DIMTALN
1070
   392
1070
     0
  0
ENDTAB
  0
TABLE
  2
BLOCK_RECORD
  5
1
330
0
100
AcDbSymbolTable
 70
    13
  0
BLOCK_RECORD
  5
1F
330
1
100
AcDbSymbolTableRecord
100
AcDbBlockTableRecord
  2
*Model_Space
340
22
  0
BLOCK_RECORD
  5
D2
330
1
100
AcDbSymbolTableRecord
100
AcDbBlockTableRecord
  2
*Paper_Space
340
D3
  0
BLOCK_RECORD
  5
D6
330
1
100
AcDbSymbolTableRecord
100
AcDbBlockTableRecord
  2
*Paper_Space0
340
D7
  0
BLOCK_RECORD
  5
1AD
330
1
100
AcDbSymbolTableRecord
100
AcDbBlockTableRecord
  2
SW_CENTERMARKSYMBOL_0
340
0
102
{BLKREFS
331
4DA
102
}
  0
BLOCK_RECORD
  5
1B8
330
1
100
AcDbSymbolTableRecord
100
AcDbBlockTableRecord
  2
SW_CENTERMARKSYMBOL_1
340
0
102
{BLKREFS
331
4DB
102
}
  0
BLOCK_RECORD
  5
1C3
330
1
100
AcDbSymbolTableRecord
100
AcDbBlockTableRecord
  2
SW_CENTERMARKSYMBOL_2
340
0
102
{BLKREFS
331
4DC
102
}
  0
BLOCK_RECORD
  5
1CE
330
1
100
AcDbSymbolTableRecord
100
AcDbBlockTableRecord
  2
SW_CENTERMARKSYMBOL_3
340
0
102
{BLKREFS
331
4DD
102
}
  0
BLOCK_RECORD
  5
1D9
330
1
100
AcDbSymbolTableRecord
100
AcDbBlockTableRecord
  2
SW_CENTERMARKSYMBOL_4
340
0
102
{BLKREFS
331
4DE
102
}
  0
BLOCK_RECORD
  5
1E4
330
1
100
AcDbSymbolTableRecord
100
AcDbBlockTableRecord
  2
SW_CENTERMARKSYMBOL_5
340
0
102
{BLKREFS
331
4DF
102
}
  0
BLOCK_RECORD
  5
1EF
330
1
100
AcDbSymbolTableRecord
100
AcDbBlockTableRecord
  2
SW_CENTERMARKSYMBOL_6
340
0
102
{BLKREFS
331
4E0
102
}
  0
BLOCK_RECORD
  5
1FA
330
1
100
AcDbSymbolTableRecord
100
AcDbBlockTableRecord
  2
SW_CENTERMARKSYMBOL_7
340
0
102
{BLKREFS
331
4E1
102
}
  0
BLOCK_RECORD
  5
41B
330
1
100
AcDbSymbolTableRecord
100
AcDbBlockTableRecord
  2
1
340
0
310
2800000020000000200000000100080000000000000400000000000000000000000000000000000000000000000080000080000000808000800000008000800080800000C0C0C000C0DCC000F0CAA6000020400000206000002080000020A0000020C0000020E00000400000004020000040400000406000004080000040A0
310
000040C0000040E00000600000006020000060400000606000006080000060A0000060C0000060E00000800000008020000080400000806000008080000080A0000080C0000080E00000A0000000A0200000A0400000A0600000A0800000A0A00000A0C00000A0E00000C0000000C0200000C0400000C0600000C0800000C0
310
A00000C0C00000C0E00000E0000000E0200000E0400000E0600000E0800000E0A00000E0C00000E0E00040000000400020004000400040006000400080004000A0004000C0004000E00040200000402020004020400040206000402080004020A0004020C0004020E000404000004040200040404000404060004040800040
310
40A0004040C0004040E00040600000406020004060400040606000406080004060A0004060C0004060E00040800000408020004080400040806000408080004080A0004080C0004080E00040A0000040A0200040A0400040A0600040A0800040A0A00040A0C00040A0E00040C0000040C0200040C0400040C0600040C08000
310
40C0A00040C0C00040C0E00040E0000040E0200040E0400040E0600040E0800040E0A00040E0C00040E0E00080000000800020008000400080006000800080008000A0008000C0008000E00080200000802020008020400080206000802080008020A0008020C0008020E00080400000804020008040400080406000804080
310
008040A0008040C0008040E00080600000806020008060400080606000806080008060A0008060C0008060E00080800000808020008080400080806000808080008080A0008080C0008080E00080A0000080A0200080A0400080A0600080A0800080A0A00080A0C00080A0E00080C0000080C0200080C0400080C0600080C0
310
800080C0A00080C0C00080C0E00080E0000080E0200080E0400080E0600080E0800080E0A00080E0C00080E0E000C0000000C0002000C0004000C0006000C0008000C000A000C000C000C000E000C0200000C0202000C0204000C0206000C0208000C020A000C020C000C020E000C0400000C0402000C0404000C0406000C0
310
408000C040A000C040C000C040E000C0600000C0602000C0604000C0606000C0608000C060A000C060C000C060E000C0800000C0802000C0804000C0806000C0808000C080A000C080C000C080E000C0A00000C0A02000C0A04000C0A06000C0A08000C0A0A000C0A0C000C0A0E000C0C00000C0C02000C0C04000C0C06000
310
C0C08000C0C0A000F0FBFF00A4A0A000808080000000FF0000FF000000FFFF00FF000000FF00FF00FFFF0000FFFFFF0000000000000000000000000000000000000000000000000000000000000000000000000000000000000000000000000000000000000000000000000000000000000000000000000000000000000000
310
0000000000000000000000000000000000000000000000000000000000000000000000000000000000000000000000000000FFFFFFFFFFFFFFFFFFFFFFFFFFFFFFFFFFFFFFFFFFFFFFFFFFFFFFFFFFFF0000FF00000000000000000000000000000000000000000000000000000000FF0000FF000000000000000000000000
310
00000000000000000000000000000000FF0000FF00000000000000000000000000000000000000000000000000000000FF0000FF00000000000000000000000000000000000000000000000000000000FF0000FF00000000000000000000000000000000000000000000000000000000FF0000FF0000000000000000000000
310
0000000000000000000000000000000000FF0000FF00000000000000000000000000000000000000000000000000000000FF0000FF00000000000000000000000000000000000000000000000000000000FF0000FF00000000000000000000000000000000000000000000000000000000FF0000FF00000000000000000000
310
000000000000000000000000000000000000FF0000FF00000000000000000000000000000000000000000000000000000000FF0000FF00000000000000000000000000000000000000000000000000000000FF0000FF00000000000000000000000000000000000000000000000000000000FF0000FF000000000000000000
310
00000000000000000000000000000000000000FF0000FF00000000000000000000000000000000000000000000000000000000FF0000FF00000000000000000000000000000000000000000000000000000000FF0000FF00000000000000000000000000000000000000000000000000000000FF0000FF0000000000000000
310
0000000000000000000000000000000000000000FF0000FF00000000000000000000000000000000000000000000000000000000FF0000FF00000000000000000000000000000000000000000000000000000000FF0000FF00000000000000000000000000000000000000000000000000000000FF0000FF00000000000000
310
000000000000000000000000000000000000000000FF0000FFFFFFFFFFFFFFFFFFFFFFFFFFFFFFFFFFFFFFFFFFFFFFFFFFFFFFFFFFFF00000000000000000000000000000000000000000000000000000000000000000000000000000000000000000000000000000000000000000000000000000000000000000000000000
310
0000000000000000000000000000000000000000000000000000000000000000000000000000000000000000000000000000000000000000
102
{BLKREFS
331
428
102
}
1001
ACAD
1000
DesignCenter Data
1002
{
1070
     1
1070
     4
1002
}
  0
BLOCK_RECORD
  5
429
330
1
100
AcDbSymbolTableRecord
100
AcDbBlockTableRecord
  2
2
340
0
310
2800000020000000200000000100080000000000000400000000000000000000000000000000000000000000000080000080000000808000800000008000800080800000C0C0C000C0DCC000F0CAA6000020400000206000002080000020A0000020C0000020E00000400000004020000040400000406000004080000040A0
310
000040C0000040E00000600000006020000060400000606000006080000060A0000060C0000060E00000800000008020000080400000806000008080000080A0000080C0000080E00000A0000000A0200000A0400000A0600000A0800000A0A00000A0C00000A0E00000C0000000C0200000C0400000C0600000C0800000C0
310
A00000C0C00000C0E00000E0000000E0200000E0400000E0600000E0800000E0A00000E0C00000E0E00040000000400020004000400040006000400080004000A0004000C0004000E00040200000402020004020400040206000402080004020A0004020C0004020E000404000004040200040404000404060004040800040
310
40A0004040C0004040E00040600000406020004060400040606000406080004060A0004060C0004060E00040800000408020004080400040806000408080004080A0004080C0004080E00040A0000040A0200040A0400040A0600040A0800040A0A00040A0C00040A0E00040C0000040C0200040C0400040C0600040C08000
310
40C0A00040C0C00040C0E00040E0000040E0200040E0400040E0600040E0800040E0A00040E0C00040E0E00080000000800020008000400080006000800080008000A0008000C0008000E00080200000802020008020400080206000802080008020A0008020C0008020E00080400000804020008040400080406000804080
310
008040A0008040C0008040E00080600000806020008060400080606000806080008060A0008060C0008060E00080800000808020008080400080806000808080008080A0008080C0008080E00080A0000080A0200080A0400080A0600080A0800080A0A00080A0C00080A0E00080C0000080C0200080C0400080C0600080C0
310
800080C0A00080C0C00080C0E00080E0000080E0200080E0400080E0600080E0800080E0A00080E0C00080E0E000C0000000C0002000C0004000C0006000C0008000C000A000C000C000C000E000C0200000C0202000C0204000C0206000C0208000C020A000C020C000C020E000C0400000C0402000C0404000C0406000C0
310
408000C040A000C040C000C040E000C0600000C0602000C0604000C0606000C0608000C060A000C060C000C060E000C0800000C0802000C0804000C0806000C0808000C080A000C080C000C080E000C0A00000C0A02000C0A04000C0A06000C0A08000C0A0A000C0A0C000C0A0E000C0C00000C0C02000C0C04000C0C06000
310
C0C08000C0C0A000F0FBFF00A4A0A000808080000000FF0000FF000000FFFF00FF000000FF00FF00FFFF0000FFFFFF0000000000000000000000000000000000000000000000000000000000000000000000000000000000000000000000000000000000000000000000000000000000000000000000000000000000000000
310
00000000000000000000000000000000000000000000000000000000000000000000000000000000000000000000000000000000000000000000000000000000000000000000000000000000000000000000000000000000000000000000000000000000000000000000000000000000000000000000000000000000000000
310
0000000000000000000000000000000000000000000000000000000000000000000000000000000000000000000000000000000000000000000000000000000000000000000000000000000000000000000000FFFFFFFFFFFFFFFFFFFFFFFFFFFFFFFFFFFFFFFFFFFFFFFFFFFFFFFFFFFF0000FF0000000000000000000000
310
0000000000000000000000000000000000FF0000FF00000000000000000000000000000000000000000000000000000000FF0000FF00000000000000000000000000000000000000000000000000000000FF0000FF00000000000000000000000000000000000000000000000000000000FF0000FF0000FFFFFFFFFF000000
310
00FFFFFFFFFFFF00000000FFFFFFFFFF0000FF0000FF0000FF000000FF00000000FFFF0000FFFF00000000FF000000FF0000FF0000FF0000FFFFFFFFFF00000000FFFFFFFFFFFF00000000FFFFFFFFFF0000FF0000FF0000FFFFFFFFFF00000000FFFFFFFFFFFF00000000FFFFFFFFFF0000FF0000FF000000000000000000
310
00000000000000000000000000000000000000FF0000FF00000000000000000000000000000000000000000000000000000000FF0000FF00000000000000000000000000000000000000000000000000000000FF0000FF00000000000000000000000000000000000000000000000000000000FF0000FFFFFFFFFFFFFFFFFF
310
FFFFFFFFFFFFFFFFFFFFFFFFFFFFFFFFFFFFFFFFFF00000000000000000000000000000000000000000000000000000000000000000000000000000000000000000000000000000000000000000000000000000000000000000000000000000000000000000000000000000000000000000000000000000000000000000000
310
00000000000000000000000000000000000000000000000000000000000000000000000000000000000000000000000000000000000000000000000000000000000000000000000000000000000000000000000000000000000000000000000000000000000000000000000000000000000000000000000000000000000000
310
0000000000000000000000000000000000000000000000000000000000000000000000000000000000000000000000000000000000000000
102
{BLKREFS
331
472
102
}
1001
ACAD
1000
DesignCenter Data
1002
{
1070
     1
1070
     4
1002
}
  0
BLOCK_RECORD
  5
473
330
1
100
AcDbSymbolTableRecord
100
AcDbBlockTableRecord
  2
3
340
0
310
2800000020000000200000000100080000000000000400000000000000000000000000000000000000000000000080000080000000808000800000008000800080800000C0C0C000C0DCC000F0CAA6000020400000206000002080000020A0000020C0000020E00000400000004020000040400000406000004080000040A0
310
000040C0000040E00000600000006020000060400000606000006080000060A0000060C0000060E00000800000008020000080400000806000008080000080A0000080C0000080E00000A0000000A0200000A0400000A0600000A0800000A0A00000A0C00000A0E00000C0000000C0200000C0400000C0600000C0800000C0
310
A00000C0C00000C0E00000E0000000E0200000E0400000E0600000E0800000E0A00000E0C00000E0E00040000000400020004000400040006000400080004000A0004000C0004000E00040200000402020004020400040206000402080004020A0004020C0004020E000404000004040200040404000404060004040800040
310
40A0004040C0004040E00040600000406020004060400040606000406080004060A0004060C0004060E00040800000408020004080400040806000408080004080A0004080C0004080E00040A0000040A0200040A0400040A0600040A0800040A0A00040A0C00040A0E00040C0000040C0200040C0400040C0600040C08000
310
40C0A00040C0C00040C0E00040E0000040E0200040E0400040E0600040E0800040E0A00040E0C00040E0E00080000000800020008000400080006000800080008000A0008000C0008000E00080200000802020008020400080206000802080008020A0008020C0008020E00080400000804020008040400080406000804080
310
008040A0008040C0008040E00080600000806020008060400080606000806080008060A0008060C0008060E00080800000808020008080400080806000808080008080A0008080C0008080E00080A0000080A0200080A0400080A0600080A0800080A0A00080A0C00080A0E00080C0000080C0200080C0400080C0600080C0
310
800080C0A00080C0C00080C0E00080E0000080E0200080E0400080E0600080E0800080E0A00080E0C00080E0E000C0000000C0002000C0004000C0006000C0008000C000A000C000C000C000E000C0200000C0202000C0204000C0206000C0208000C020A000C020C000C020E000C0400000C0402000C0404000C0406000C0
310
408000C040A000C040C000C040E000C0600000C0602000C0604000C0606000C0608000C060A000C060C000C060E000C0800000C0802000C0804000C0806000C0808000C080A000C080C000C080E000C0A00000C0A02000C0A04000C0A06000C0A08000C0A0A000C0A0C000C0A0E000C0C00000C0C02000C0C04000C0C06000
310
C0C08000C0C0A000F0FBFF00A4A0A000808080000000FF0000FF000000FFFF00FF000000FF00FF00FFFF0000FFFFFF0000000000000000000000000000000000000000000000000000000000000000000000000000000000FFFFFFFFFFFFFFFFFFFFFFFFFFFFFFFF00000000000000000000000000000000FFFFFFFFFFFFFF
310
FFFFFFFFFFFFFFFFFF00000000000000000000000000000000FF0000000000000000000000000000FF00000000000000000000000000000000FF0000FFFF0000000000FFFF000000FF00000000000000000000000000000000FF0000FFFFFF00000000FFFFFF0000FF00000000000000000000000000000000FFFF00FFFFFF
310
FFFFFFFFFFFFFFFFFFFF00000000000000000000000000000000FF0000FFFFFF0000FF00FFFFFF0000FF00000000000000000000000000000000FF0000FFFF0000FF0000FFFF000000FF00000000000000000000000000000000FF0000000000FFFFFFFF0000000000FF00000000000000000000000000000000FF000000FF
310
FFFFFFFFFFFFFF000000FF00000000000000000000000000000000FF0000FFFFFFFFFFFFFFFFFFFF0000FF00000000000000000000000000000000FF000000FFFFFFFFFFFFFFFF000000FF00000000000000000000000000000000FF0000000000FFFFFF000000000000FF00000000000000000000000000000000FF0000FF
310
FFFF0000FF00FFFF000000FF00000000000000000000000000000000FF0000FFFFFFFF00FF00FFFFFFFF00FF00000000000000000000000000000000FFFF00FFFFFFFFFFFFFFFFFFFF00FFFF00000000000000000000000000000000FF0000FFFFFF0000FF00FFFF000000FF00000000000000000000000000000000FF0000
310
00000000FFFF000000000000FF00000000000000000000000000000000FF000000FFFFFFFFFFFFFFFF000000FF00000000000000000000000000000000FF0000FFFFFFFFFFFFFFFFFFFF0000FF00000000000000000000000000000000FF000000FFFFFFFFFFFFFFFF000000FF00000000000000000000000000000000FF00
310
00000000FFFFFFFF0000000000FF00000000000000000000000000000000FF0000FFFF0000FF0000FFFF000000FF00000000000000000000000000000000FF0000FFFFFF0000FF00FFFFFF0000FF00000000000000000000000000000000FFFF00FFFFFFFFFFFFFFFFFFFFFFFFFF00000000000000000000000000000000FF
310
0000FFFFFF00000000FFFFFF0000FF00000000000000000000000000000000FF0000FFFF0000000000FFFF000000FF00000000000000000000000000000000FF0000000000000000000000000000FF00000000000000000000000000000000FFFFFFFFFFFFFFFFFFFFFFFFFFFFFFFF00000000000000000000000000000000
310
FFFFFFFFFFFFFFFFFFFFFFFFFFFFFFFF00000000000000000000000000000000000000000000000000000000000000000000000000000000
102
{BLKREFS
331
4E2
102
}
1001
ACAD
1000
DesignCenter Data
1002
{
1070
     1
1070
     4
1002
}
  0
BLOCK_RECORD
  5
4E3
330
1
100
AcDbSymbolTableRecord
100
AcDbBlockTableRecord
  2
4
340
0
310
2800000020000000200000000100080000000000000400000000000000000000000000000000000000000000000080000080000000808000800000008000800080800000C0C0C000C0DCC000F0CAA6000020400000206000002080000020A0000020C0000020E00000400000004020000040400000406000004080000040A0
310
000040C0000040E00000600000006020000060400000606000006080000060A0000060C0000060E00000800000008020000080400000806000008080000080A0000080C0000080E00000A0000000A0200000A0400000A0600000A0800000A0A00000A0C00000A0E00000C0000000C0200000C0400000C0600000C0800000C0
310
A00000C0C00000C0E00000E0000000E0200000E0400000E0600000E0800000E0A00000E0C00000E0E00040000000400020004000400040006000400080004000A0004000C0004000E00040200000402020004020400040206000402080004020A0004020C0004020E000404000004040200040404000404060004040800040
310
40A0004040C0004040E00040600000406020004060400040606000406080004060A0004060C0004060E00040800000408020004080400040806000408080004080A0004080C0004080E00040A0000040A0200040A0400040A0600040A0800040A0A00040A0C00040A0E00040C0000040C0200040C0400040C0600040C08000
310
40C0A00040C0C00040C0E00040E0000040E0200040E0400040E0600040E0800040E0A00040E0C00040E0E00080000000800020008000400080006000800080008000A0008000C0008000E00080200000802020008020400080206000802080008020A0008020C0008020E00080400000804020008040400080406000804080
310
008040A0008040C0008040E00080600000806020008060400080606000806080008060A0008060C0008060E00080800000808020008080400080806000808080008080A0008080C0008080E00080A0000080A0200080A0400080A0600080A0800080A0A00080A0C00080A0E00080C0000080C0200080C0400080C0600080C0
310
800080C0A00080C0C00080C0E00080E0000080E0200080E0400080E0600080E0800080E0A00080E0C00080E0E000C0000000C0002000C0004000C0006000C0008000C000A000C000C000C000E000C0200000C0202000C0204000C0206000C0208000C020A000C020C000C020E000C0400000C0402000C0404000C0406000C0
310
408000C040A000C040C000C040E000C0600000C0602000C0604000C0606000C0608000C060A000C060C000C060E000C0800000C0802000C0804000C0806000C0808000C080A000C080C000C080E000C0A00000C0A02000C0A04000C0A06000C0A08000C0A0A000C0A0C000C0A0E000C0C00000C0C02000C0C04000C0C06000
310
C0C08000C0C0A000F0FBFF00A4A0A000808080000000FF0000FF000000FFFF00FF000000FF00FF00FFFF0000FFFFFF0000000000000000000000000000000000000000000000000000000000000000000000000000000000000000000000000000000000000000000000000000000000000000000000000000000000000000
310
00000000000000000000000000000000000000000000000000000000FF0000000000000000000000000000000000000000000000000000000000FFFFFFFFFF00000000000000000000000000000000000000000000000000FFFF0000FF0000FFFF000000000000000000000000000000000000000000FFFF00000000FF00FF
310
FF00FFFF0000000000000000000000000000000000FFFFFF0000000000FF00FF00FF0000FFFF0000000000000000000000000000FFFF00000000000000FF00FF00FFFF000000FFFF0000000000000000000000FF000000000000000000FF00FFFF00FF00000000FFFFFF000000000000000000FF000000000000000000FF00
310
FFFFA4FF0000FFFFFF00FFFFFF00000000000000FF000000000000000000FF000000FFFF0000FF00FFFF0000FFFFFF0000000000FF000000000000000000FF00000000000000FFFF00FF00000000FFFFFF000000FF00000000000000FFFF00FFFF0000000000FFFF00FF000000FF0000FFFF0000FF0000000000FFFF000000
310
0000FFFF00000000FFFFFF0000FF00FFFF00FF0000FF00000000FFFF0000FFFFFFFF0000FFFF00000000FF0000FF0000FF00FF0000FF0000FFFF00000000FF00FFFF000000FFFFFF0000000000FFFF00FF00FF0000FFFFFFFF00FFFFFFFFFFFFFFFF0000000000FFFFFF000000FFFFA4FF00FF0000FFFF000000FF0000FFFF
310
FFFFFFFFFFFFFFFFFFFFFFFFFF000000FFFF00FF00000000FFFF00FFFFFFFFFFFFFFFFFFFFFF0000FF0000FFFFFFFF00000000FF000000000000FFFF00000000FFFFFFFF00FFFFFFFF00000000FF00FFFF0000FF0000000000000000FFFF000000FFFFFFFF00FFFFFFFF00000000FFFF00FFFFFF00000000000000000000FF
310
FF00FFFFFFFFFFFFFFFFFFFFFFFFFFFF00FFFF00FF000000000000000000000000FF00FFFF00FFFFFFFFFFFFFF0000FF000000FF0000000000000000000000000000FFFF00000000FFFFFFFF00FFFFFF00FFFF0000000000000000000000000000000000FFFF0000FF0000FF000000FFFF0000000000000000000000000000
310
00000000000000FFFFFFFFFFFF00FFFF00000000000000000000000000000000000000000000000000FFFF00FFFF0000000000000000000000000000000000000000000000000000000000FF000000000000000000000000000000000000000000000000000000000000000000000000000000000000000000000000000000
310
0000000000000000000000000000000000000000000000000000000000000000000000000000000000000000000000000000000000000000
102
{BLKREFS
331
533
102
}
1001
ACAD
1000
DesignCenter Data
1002
{
1070
     1
1070
     4
1002
}
  0
ENDTAB
  0
ENDSEC
  0
SECTION
  2
BLOCKS
  0
BLOCK
  5
20
330
1F
100
AcDbEntity
  8
0
100
AcDbBlockBegin
  2
*Model_Space
 70
     0
 10
0.0
 20
0.0
 30
0.0
  3
*Model_Space
  1

  0
ENDBLK
  5
21
330
1F
100
AcDbEntity
  8
0
100
AcDbBlockEnd
  0
BLOCK
  5
D4
330
D2
100
AcDbEntity
 67
     1
  8
0
100
AcDbBlockBegin
  2
*Paper_Space
 70
     0
 10
0.0
 20
0.0
 30
0.0
  3
*Paper_Space
  1

  0
ENDBLK
  5
D5
330
D2
100
AcDbEntity
 67
     1
  8
0
100
AcDbBlockEnd
  0
BLOCK
  5
D8
330
D6
100
AcDbEntity
 67
     1
  8
0
100
AcDbBlockBegin
  2
*Paper_Space0
 70
     0
 10
0.0
 20
0.0
 30
0.0
  3
*Paper_Space0
  1

  0
ENDBLK
  5
D9
330
D6
100
AcDbEntity
 67
     1
  8
0
100
AcDbBlockEnd
  0
BLOCK
  5
1AE
330
1AD
100
AcDbEntity
  8
0
100
AcDbBlockBegin
  2
SW_CENTERMARKSYMBOL_0
 70
     0
 10
0.0
 20
0.0
 30
0.0
  3
SW_CENTERMARKSYMBOL_0
  1

  0
LINE
  5
1AF
330
1AD
100
AcDbEntity
  8
0
  6
Continuous
 62
     0
370
     0
100
AcDbLine
 10
0.0
 20
0.0
 30
0.0
 11
0.0
 21
2.500000000000002
 31
0.0
  0
LINE
  5
1B0
330
1AD
100
AcDbEntity
  8
0
  6
Continuous
 62
     0
370
     0
100
AcDbLine
 10
0.0
 20
0.0
 30
0.0
 11
-2.500000000000002
 21
0.0
 31
0.0
  0
LINE
  5
1B1
330
1AD
100
AcDbEntity
  8
0
  6
Continuous
 62
     0
370
     0
100
AcDbLine
 10
0.0
 20
0.0
 30
0.0
 11
0.0
 21
-2.499999999999988
 31
0.0
  0
LINE
  5
1B2
330
1AD
100
AcDbEntity
  8
0
  6
Continuous
 62
     0
370
     0
100
AcDbLine
 10
0.0
 20
0.0
 30
0.0
 11
2.500000000000002
 21
0.0
 31
0.0
  0
LINE
  5
1B3
330
1AD
100
AcDbEntity
  8
0
  6
Continuous
 62
     0
370
     0
100
AcDbLine
 10
0.0
 20
5.000000000000004
 30
0.0
 11
0.0
 21
5.250000000000004
 31
0.0
  0
LINE
  5
1B4
330
1AD
100
AcDbEntity
  8
0
  6
Continuous
 62
     0
370
     0
100
AcDbLine
 10
-5.000000000000004
 20
0.0
 30
0.0
 11
-5.250000000000004
 21
0.0
 31
0.0
  0
LINE
  5
1B5
330
1AD
100
AcDbEntity
  8
0
  6
Continuous
 62
     0
370
     0
100
AcDbLine
 10
0.0
 20
-4.99999999999999
 30
0.0
 11
0.0
 21
-5.249999999999991
 31
0.0
  0
LINE
  5
1B6
330
1AD
100
AcDbEntity
  8
0
  6
Continuous
 62
     0
370
     0
100
AcDbLine
 10
5.000000000000004
 20
0.0
 30
0.0
 11
5.250000000000004
 21
0.0
 31
0.0
  0
ENDBLK
  5
1B7
330
1AD
100
AcDbEntity
  8
0
100
AcDbBlockEnd
  0
BLOCK
  5
1B9
330
1B8
100
AcDbEntity
  8
0
100
AcDbBlockBegin
  2
SW_CENTERMARKSYMBOL_1
 70
     0
 10
0.0
 20
0.0
 30
0.0
  3
SW_CENTERMARKSYMBOL_1
  1

  0
LINE
  5
1BA
330
1B8
100
AcDbEntity
  8
0
  6
Continuous
 62
     0
370
     0
100
AcDbLine
 10
0.0
 20
0.0
 30
0.0
 11
0.0
 21
2.500000000000002
 31
0.0
  0
LINE
  5
1BB
330
1B8
100
AcDbEntity
  8
0
  6
Continuous
 62
     0
370
     0
100
AcDbLine
 10
0.0
 20
0.0
 30
0.0
 11
-2.500000000000002
 21
0.0
 31
0.0
  0
LINE
  5
1BC
330
1B8
100
AcDbEntity
  8
0
  6
Continuous
 62
     0
370
     0
100
AcDbLine
 10
0.0
 20
0.0
 30
0.0
 11
0.0
 21
-2.500000000000002
 31
0.0
  0
LINE
  5
1BD
330
1B8
100
AcDbEntity
  8
0
  6
Continuous
 62
     0
370
     0
100
AcDbLine
 10
0.0
 20
0.0
 30
0.0
 11
2.500000000000002
 21
0.0
 31
0.0
  0
LINE
  5
1BE
330
1B8
100
AcDbEntity
  8
0
  6
Continuous
 62
     0
370
     0
100
AcDbLine
 10
0.0
 20
4.99999999999999
 30
0.0
 11
0.0
 21
5.249999999999991
 31
0.0
  0
LINE
  5
1BF
330
1B8
100
AcDbEntity
  8
0
  6
Continuous
 62
     0
370
     0
100
AcDbLine
 10
-5.000000000000004
 20
0.0
 30
0.0
 11
-5.249999999999976
 21
0.0
 31
0.0
  0
LINE
  5
1C0
330
1B8
100
AcDbEntity
  8
0
  6
Continuous
 62
     0
370
     0
100
AcDbLine
 10
0.0
 20
-5.000000000000004
 30
0.0
 11
0.0
 21
-5.250000000000004
 31
0.0
  0
LINE
  5
1C1
330
1B8
100
AcDbEntity
  8
0
  6
Continuous
 62
     0
370
     0
100
AcDbLine
 10
5.000000000000004
 20
0.0
 30
0.0
 11
5.250000000000004
 21
0.0
 31
0.0
  0
ENDBLK
  5
1C2
330
1B8
100
AcDbEntity
  8
0
100
AcDbBlockEnd
  0
BLOCK
  5
1C4
330
1C3
100
AcDbEntity
  8
0
100
AcDbBlockBegin
  2
SW_CENTERMARKSYMBOL_2
 70
     0
 10
0.0
 20
0.0
 30
0.0
  3
SW_CENTERMARKSYMBOL_2
  1

  0
LINE
  5
1C5
330
1C3
100
AcDbEntity
  8
0
  6
Continuous
 62
     0
370
     0
100
AcDbLine
 10
0.0
 20
0.0
 30
0.0
 11
0.0
 21
2.500000000000002
 31
0.0
  0
LINE
  5
1C6
330
1C3
100
AcDbEntity
  8
0
  6
Continuous
 62
     0
370
     0
100
AcDbLine
 10
0.0
 20
0.0
 30
0.0
 11
-2.499999999999974
 21
0.0
 31
0.0
  0
LINE
  5
1C7
330
1C3
100
AcDbEntity
  8
0
  6
Continuous
 62
     0
370
     0
100
AcDbLine
 10
0.0
 20
0.0
 30
0.0
 11
0.0
 21
-2.500000000000002
 31
0.0
  0
LINE
  5
1C8
330
1C3
100
AcDbEntity
  8
0
  6
Continuous
 62
     0
370
     0
100
AcDbLine
 10
0.0
 20
0.0
 30
0.0
 11
2.500000000000002
 21
0.0
 31
0.0
  0
LINE
  5
1C9
330
1C3
100
AcDbEntity
  8
0
  6
Continuous
 62
     0
370
     0
100
AcDbLine
 10
0.0
 20
5.000000000000004
 30
0.0
 11
0.0
 21
5.249999999999991
 31
0.0
  0
LINE
  5
1CA
330
1C3
100
AcDbEntity
  8
0
  6
Continuous
 62
     0
370
     0
100
AcDbLine
 10
-4.999999999999976
 20
0.0
 30
0.0
 11
-5.249999999999976
 21
0.0
 31
0.0
  0
LINE
  5
1CB
330
1C3
100
AcDbEntity
  8
0
  6
Continuous
 62
     0
370
     0
100
AcDbLine
 10
0.0
 20
-5.000000000000004
 30
0.0
 11
0.0
 21
-5.249999999999991
 31
0.0
  0
LINE
  5
1CC
330
1C3
100
AcDbEntity
  8
0
  6
Continuous
 62
     0
370
     0
100
AcDbLine
 10
5.000000000000004
 20
0.0
 30
0.0
 11
5.250000000000004
 21
0.0
 31
0.0
  0
ENDBLK
  5
1CD
330
1C3
100
AcDbEntity
  8
0
100
AcDbBlockEnd
  0
BLOCK
  5
1CF
330
1CE
100
AcDbEntity
  8
0
100
AcDbBlockBegin
  2
SW_CENTERMARKSYMBOL_3
 70
     0
 10
0.0
 20
0.0
 30
0.0
  3
SW_CENTERMARKSYMBOL_3
  1

  0
LINE
  5
1D0
330
1CE
100
AcDbEntity
  8
0
  6
Continuous
 62
     0
370
     0
100
AcDbLine
 10
0.0
 20
0.0
 30
0.0
 11
0.0
 21
2.499999999999988
 31
0.0
  0
LINE
  5
1D1
330
1CE
100
AcDbEntity
  8
0
  6
Continuous
 62
     0
370
     0
100
AcDbLine
 10
0.0
 20
0.0
 30
0.0
 11
-2.500000000000002
 21
0.0
 31
0.0
  0
LINE
  5
1D2
330
1CE
100
AcDbEntity
  8
0
  6
Continuous
 62
     0
370
     0
100
AcDbLine
 10
0.0
 20
0.0
 30
0.0
 11
0.0
 21
-2.500000000000002
 31
0.0
  0
LINE
  5
1D3
330
1CE
100
AcDbEntity
  8
0
  6
Continuous
 62
     0
370
     0
100
AcDbLine
 10
0.0
 20
0.0
 30
0.0
 11
2.500000000000002
 21
0.0
 31
0.0
  0
LINE
  5
1D4
330
1CE
100
AcDbEntity
  8
0
  6
Continuous
 62
     0
370
     0
100
AcDbLine
 10
0.0
 20
5.000000000000004
 30
0.0
 11
0.0
 21
6.000000000000005
 31
0.0
  0
LINE
  5
1D5
330
1CE
100
AcDbEntity
  8
0
  6
Continuous
 62
     0
370
     0
100
AcDbLine
 10
-5.000000000000004
 20
0.0
 30
0.0
 11
-6.000000000000005
 21
0.0
 31
0.0
  0
LINE
  5
1D6
330
1CE
100
AcDbEntity
  8
0
  6
Continuous
 62
     0
370
     0
100
AcDbLine
 10
0.0
 20
-5.000000000000004
 30
0.0
 11
0.0
 21
-6.000000000000005
 31
0.0
  0
LINE
  5
1D7
330
1CE
100
AcDbEntity
  8
0
  6
Continuous
 62
     0
370
     0
100
AcDbLine
 10
5.000000000000004
 20
0.0
 30
0.0
 11
6.000000000000005
 21
0.0
 31
0.0
  0
ENDBLK
  5
1D8
330
1CE
100
AcDbEntity
  8
0
100
AcDbBlockEnd
  0
BLOCK
  5
1DA
330
1D9
100
AcDbEntity
  8
0
100
AcDbBlockBegin
  2
SW_CENTERMARKSYMBOL_4
 70
     0
 10
0.0
 20
0.0
 30
0.0
  3
SW_CENTERMARKSYMBOL_4
  1

  0
LINE
  5
1DB
330
1D9
100
AcDbEntity
  8
0
  6
Continuous
 62
     0
370
     0
100
AcDbLine
 10
0.0
 20
0.0
 30
0.0
 11
0.0
 21
2.500000000000002
 31
0.0
  0
LINE
  5
1DC
330
1D9
100
AcDbEntity
  8
0
  6
Continuous
 62
     0
370
     0
100
AcDbLine
 10
0.0
 20
0.0
 30
0.0
 11
-2.500000000000002
 21
0.0
 31
0.0
  0
LINE
  5
1DD
330
1D9
100
AcDbEntity
  8
0
  6
Continuous
 62
     0
370
     0
100
AcDbLine
 10
0.0
 20
0.0
 30
0.0
 11
0.0
 21
-2.500000000000002
 31
0.0
  0
LINE
  5
1DE
330
1D9
100
AcDbEntity
  8
0
  6
Continuous
 62
     0
370
     0
100
AcDbLine
 10
0.0
 20
0.0
 30
0.0
 11
2.500000000000002
 21
0.0
 31
0.0
  0
LINE
  5
1DF
330
1D9
100
AcDbEntity
  8
0
  6
Continuous
 62
     0
370
     0
100
AcDbLine
 10
0.0
 20
5.000000000000004
 30
0.0
 11
0.0
 21
6.000000000000005
 31
0.0
  0
LINE
  5
1E0
330
1D9
100
AcDbEntity
  8
0
  6
Continuous
 62
     0
370
     0
100
AcDbLine
 10
-5.000000000000004
 20
0.0
 30
0.0
 11
-6.000000000000005
 21
0.0
 31
0.0
  0
LINE
  5
1E1
330
1D9
100
AcDbEntity
  8
0
  6
Continuous
 62
     0
370
     0
100
AcDbLine
 10
0.0
 20
-5.000000000000004
 30
0.0
 11
0.0
 21
-5.999999999999991
 31
0.0
  0
LINE
  5
1E2
330
1D9
100
AcDbEntity
  8
0
  6
Continuous
 62
     0
370
     0
100
AcDbLine
 10
5.000000000000004
 20
0.0
 30
0.0
 11
6.000000000000005
 21
0.0
 31
0.0
  0
ENDBLK
  5
1E3
330
1D9
100
AcDbEntity
  8
0
100
AcDbBlockEnd
  0
BLOCK
  5
1E5
330
1E4
100
AcDbEntity
  8
0
100
AcDbBlockBegin
  2
SW_CENTERMARKSYMBOL_5
 70
     0
 10
0.0
 20
0.0
 30
0.0
  3
SW_CENTERMARKSYMBOL_5
  1

  0
LINE
  5
1E6
330
1E4
100
AcDbEntity
  8
0
  6
Continuous
 62
     0
370
     0
100
AcDbLine
 10
0.0
 20
0.0
 30
0.0
 11
0.0
 21
2.500000000000002
 31
0.0
  0
LINE
  5
1E7
330
1E4
100
AcDbEntity
  8
0
  6
Continuous
 62
     0
370
     0
100
AcDbLine
 10
0.0
 20
0.0
 30
0.0
 11
-2.500000000000002
 21
0.0
 31
0.0
  0
LINE
  5
1E8
330
1E4
100
AcDbEntity
  8
0
  6
Continuous
 62
     0
370
     0
100
AcDbLine
 10
0.0
 20
0.0
 30
0.0
 11
0.0
 21
-2.499999999999988
 31
0.0
  0
LINE
  5
1E9
330
1E4
100
AcDbEntity
  8
0
  6
Continuous
 62
     0
370
     0
100
AcDbLine
 10
0.0
 20
0.0
 30
0.0
 11
2.500000000000002
 21
0.0
 31
0.0
  0
LINE
  5
1EA
330
1E4
100
AcDbEntity
  8
0
  6
Continuous
 62
     0
370
     0
100
AcDbLine
 10
0.0
 20
5.000000000000004
 30
0.0
 11
0.0
 21
5.250000000000004
 31
0.0
  0
LINE
  5
1EB
330
1E4
100
AcDbEntity
  8
0
  6
Continuous
 62
     0
370
     0
100
AcDbLine
 10
-5.000000000000004
 20
0.0
 30
0.0
 11
-5.250000000000004
 21
0.0
 31
0.0
  0
LINE
  5
1EC
330
1E4
100
AcDbEntity
  8
0
  6
Continuous
 62
     0
370
     0
100
AcDbLine
 10
0.0
 20
-4.99999999999999
 30
0.0
 11
0.0
 21
-5.249999999999991
 31
0.0
  0
LINE
  5
1ED
330
1E4
100
AcDbEntity
  8
0
  6
Continuous
 62
     0
370
     0
100
AcDbLine
 10
5.000000000000004
 20
0.0
 30
0.0
 11
5.250000000000004
 21
0.0
 31
0.0
  0
ENDBLK
  5
1EE
330
1E4
100
AcDbEntity
  8
0
100
AcDbBlockEnd
  0
BLOCK
  5
1F0
330
1EF
100
AcDbEntity
  8
0
100
AcDbBlockBegin
  2
SW_CENTERMARKSYMBOL_6
 70
     0
 10
0.0
 20
0.0
 30
0.0
  3
SW_CENTERMARKSYMBOL_6
  1

  0
LINE
  5
1F1
330
1EF
100
AcDbEntity
  8
0
  6
Continuous
 62
     0
370
     0
100
AcDbLine
 10
0.0
 20
0.0
 30
0.0
 11
0.0
 21
2.500000000000002
 31
0.0
  0
LINE
  5
1F2
330
1EF
100
AcDbEntity
  8
0
  6
Continuous
 62
     0
370
     0
100
AcDbLine
 10
0.0
 20
0.0
 30
0.0
 11
-2.500000000000002
 21
0.0
 31
0.0
  0
LINE
  5
1F3
330
1EF
100
AcDbEntity
  8
0
  6
Continuous
 62
     0
370
     0
100
AcDbLine
 10
0.0
 20
0.0
 30
0.0
 11
0.0
 21
-2.500000000000002
 31
0.0
  0
LINE
  5
1F4
330
1EF
100
AcDbEntity
  8
0
  6
Continuous
 62
     0
370
     0
100
AcDbLine
 10
0.0
 20
0.0
 30
0.0
 11
2.500000000000002
 21
0.0
 31
0.0
  0
LINE
  5
1F5
330
1EF
100
AcDbEntity
  8
0
  6
Continuous
 62
     0
370
     0
100
AcDbLine
 10
0.0
 20
4.99999999999999
 30
0.0
 11
0.0
 21
5.249999999999991
 31
0.0
  0
LINE
  5
1F6
330
1EF
100
AcDbEntity
  8
0
  6
Continuous
 62
     0
370
     0
100
AcDbLine
 10
-5.000000000000004
 20
0.0
 30
0.0
 11
-5.250000000000004
 21
0.0
 31
0.0
  0
LINE
  5
1F7
330
1EF
100
AcDbEntity
  8
0
  6
Continuous
 62
     0
370
     0
100
AcDbLine
 10
0.0
 20
-5.000000000000004
 30
0.0
 11
0.0
 21
-5.250000000000004
 31
0.0
  0
LINE
  5
1F8
330
1EF
100
AcDbEntity
  8
0
  6
Continuous
 62
     0
370
     0
100
AcDbLine
 10
5.000000000000004
 20
0.0
 30
0.0
 11
5.250000000000004
 21
0.0
 31
0.0
  0
ENDBLK
  5
1F9
330
1EF
100
AcDbEntity
  8
0
100
AcDbBlockEnd
  0
BLOCK
  5
1FB
330
1FA
100
AcDbEntity
  8
0
100
AcDbBlockBegin
  2
SW_CENTERMARKSYMBOL_7
 70
     0
 10
0.0
 20
0.0
 30
0.0
  3
SW_CENTERMARKSYMBOL_7
  1

  0
LINE
  5
1FC
330
1FA
100
AcDbEntity
  8
0
  6
Continuous
 62
     0
370
     0
100
AcDbLine
 10
0.0
 20
0.0
 30
0.0
 11
0.0
 21
2.500000000000002
 31
0.0
  0
LINE
  5
1FD
330
1FA
100
AcDbEntity
  8
0
  6
Continuous
 62
     0
370
     0
100
AcDbLine
 10
0.0
 20
0.0
 30
0.0
 11
-2.500000000000002
 21
0.0
 31
0.0
  0
LINE
  5
1FE
330
1FA
100
AcDbEntity
  8
0
  6
Continuous
 62
     0
370
     0
100
AcDbLine
 10
0.0
 20
0.0
 30
0.0
 11
0.0
 21
-2.500000000000002
 31
0.0
  0
LINE
  5
1FF
330
1FA
100
AcDbEntity
  8
0
  6
Continuous
 62
     0
370
     0
100
AcDbLine
 10
0.0
 20
0.0
 30
0.0
 11
2.500000000000002
 21
0.0
 31
0.0
  0
LINE
  5
200
330
1FA
100
AcDbEntity
  8
0
  6
Continuous
 62
     0
370
     0
100
AcDbLine
 10
0.0
 20
5.000000000000004
 30
0.0
 11
0.0
 21
5.249999999999991
 31
0.0
  0
LINE
  5
201
330
1FA
100
AcDbEntity
  8
0
  6
Continuous
 62
     0
370
     0
100
AcDbLine
 10
-5.000000000000004
 20
0.0
 30
0.0
 11
-5.250000000000004
 21
0.0
 31
0.0
  0
LINE
  5
202
330
1FA
100
AcDbEntity
  8
0
  6
Continuous
 62
     0
370
     0
100
AcDbLine
 10
0.0
 20
-5.000000000000004
 30
0.0
 11
0.0
 21
-5.249999999999991
 31
0.0
  0
LINE
  5
203
330
1FA
100
AcDbEntity
  8
0
  6
Continuous
 62
     0
370
     0
100
AcDbLine
 10
5.000000000000004
 20
0.0
 30
0.0
 11
5.250000000000004
 21
0.0
 31
0.0
  0
ENDBLK
  5
204
330
1FA
100
AcDbEntity
  8
0
100
AcDbBlockEnd
  0
BLOCK
  5
41C
330
41B
100
AcDbEntity
  8
0
100
AcDbBlockBegin
  2
1
 70
     0
 10
0.0
 20
0.0
 30
0.0
  3
1
  1

  0
LINE
  5
41E
330
41B
100
AcDbEntity
  8
0
  6
Continuous
 62
     7
370
    15
100
AcDbLine
 10
2256.721951699984
 20
1041.715491998058
 30
0.0
 11
2257.221951699984
 21
1042.215491998058
 31
0.0
  0
LINE
  5
41F
330
41B
100
AcDbEntity
  8
0
  6
Continuous
 62
     7
370
    15
100
AcDbLine
 10
2257.221951699984
 20
1042.215491998058
 30
0.0
 11
2278.221951699984
 21
1042.215491998058
 31
0.0
  0
LINE
  5
420
330
41B
100
AcDbEntity
  8
0
  6
Continuous
 62
     7
370
    15
100
AcDbLine
 10
2278.221951699984
 20
1042.215491998058
 30
0.0
 11
2278.721951699984
 21
1041.715491998058
 31
0.0
  0
LINE
  5
421
330
41B
100
AcDbEntity
  8
0
  6
Continuous
 62
     7
370
    15
100
AcDbLine
 10
2256.721951699984
 20
1041.715491998058
 30
0.0
 11
2278.721951699984
 21
1041.715491998058
 31
0.0
  0
LINE
  5
422
330
41B
100
AcDbEntity
  8
0
  6
Continuous
 62
     7
370
    15
100
AcDbLine
 10
2278.721951699984
 20
1024.215491998058
 30
0.0
 11
2256.721951699984
 21
1024.215491998058
 31
0.0
  0
LINE
  5
423
330
41B
100
AcDbEntity
  8
0
  6
Continuous
 62
     7
370
    15
100
AcDbLine
 10
2278.721951699984
 20
1041.715491998058
 30
0.0
 11
2278.721951699984
 21
1024.215491998058
 31
0.0
  0
LINE
  5
424
330
41B
100
AcDbEntity
  8
0
  6
Continuous
 62
     7
370
    15
100
AcDbLine
 10
2256.721951699984
 20
1024.215491998058
 30
0.0
 11
2256.721951699984
 21
1041.715491998058
 31
0.0
  0
LINE
  5
425
330
41B
100
AcDbEntity
  8
0
  6
Continuous
 62
     7
370
    15
100
AcDbLine
 10
2278.221951699984
 20
1023.715491998058
 30
0.0
 11
2257.221951699984
 21
1023.715491998058
 31
0.0
  0
LINE
  5
426
330
41B
100
AcDbEntity
  8
0
  6
Continuous
 62
     7
370
    15
100
AcDbLine
 10
2256.721951699984
 20
1024.215491998058
 30
0.0
 11
2257.221951699984
 21
1023.715491998058
 31
0.0
  0
LINE
  5
427
330
41B
100
AcDbEntity
  8
0
  6
Continuous
 62
     7
370
    15
100
AcDbLine
 10
2278.221951699984
 20
1023.715491998058
 30
0.0
 11
2278.721951699984
 21
1024.215491998058
 31
0.0
  0
ENDBLK
  5
41D
330
41B
100
AcDbEntity
  8
0
100
AcDbBlockEnd
  0
BLOCK
  5
42A
330
429
100
AcDbEntity
  8
0
100
AcDbBlockBegin
  2
2
 70
     0
 10
0.0
 20
0.0
 30
0.0
  3
2
  1

  0
LINE
  5
42C
330
429
100
AcDbEntity
  8
0
  6
Continuous
 62
     7
370
    15
100
AcDbLine
 10
2196.560946760399
 20
1031.215491998058
 30
0.0
 11
2196.560946760399
 21
1035.665491998058
 31
0.0
  0
LINE
  5
42D
330
429
100
AcDbEntity
  8
0
  6
Continuous
 62
     7
370
    15
100
AcDbLine
 10
2196.560946760399
 20
1035.665491998058
 30
0.0
 11
2190.060946760399
 21
1035.665491998058
 31
0.0
  0
LINE
  5
42E
330
429
100
AcDbEntity
  8
0
  6
Continuous
 62
     7
370
    15
100
AcDbLine
 10
2190.060946760399
 20
1035.665491998058
 30
0.0
 11
2190.060946760399
 21
1031.215491998058
 31
0.0
  0
ARC
  5
42F
330
429
100
AcDbEntity
  8
0
  6
Continuous
 62
     7
370
    15
100
AcDbCircle
 10
2193.310946760399
 20
1031.215491998058
 30
0.0
 40
3.25
100
AcDbArc
 50
180.0
 51
0.0
  0
LINE
  5
430
330
429
100
AcDbEntity
  8
0
  6
Continuous
 62
     7
370
    15
100
AcDbLine
 10
2210.060946760399
 20
1031.215491998058
 30
0.0
 11
2210.060946760399
 21
1035.665491998058
 31
0.0
  0
LINE
  5
431
330
429
100
AcDbEntity
  8
0
  6
Continuous
 62
     7
370
    15
100
AcDbLine
 10
2210.060946760399
 20
1035.665491998058
 30
0.0
 11
2203.560946760399
 21
1035.665491998058
 31
0.0
  0
LINE
  5
432
330
429
100
AcDbEntity
  8
0
  6
Continuous
 62
     7
370
    15
100
AcDbLine
 10
2203.560946760399
 20
1035.665491998058
 30
0.0
 11
2203.560946760399
 21
1031.215491998058
 31
0.0
  0
ARC
  5
433
330
429
100
AcDbEntity
  8
0
  6
Continuous
 62
     7
370
    15
100
AcDbCircle
 10
2206.810946760399
 20
1031.215491998058
 30
0.0
 40
3.25
100
AcDbArc
 50
180.0
 51
0.0
  0
LINE
  5
434
330
429
100
AcDbEntity
  8
0
  6
Continuous
 62
     7
370
    15
100
AcDbLine
 10
2223.560946760399
 20
1031.215491998058
 30
0.0
 11
2223.560946760399
 21
1035.665491998058
 31
0.0
  0
LINE
  5
435
330
429
100
AcDbEntity
  8
0
  6
Continuous
 62
     7
370
    15
100
AcDbLine
 10
2223.560946760399
 20
1035.665491998058
 30
0.0
 11
2217.060946760399
 21
1035.665491998058
 31
0.0
  0
LINE
  5
436
330
429
100
AcDbEntity
  8
0
  6
Continuous
 62
     7
370
    15
100
AcDbLine
 10
2217.060946760399
 20
1035.665491998058
 30
0.0
 11
2217.060946760399
 21
1031.215491998058
 31
0.0
  0
ARC
  5
437
330
429
100
AcDbEntity
  8
0
  6
Continuous
 62
     7
370
    15
100
AcDbCircle
 10
2220.310946760399
 20
1031.215491998058
 30
0.0
 40
3.25
100
AcDbArc
 50
180.0
 51
0.0
  0
LINE
  5
438
330
429
100
AcDbEntity
  8
0
  6
Continuous
 62
     7
370
    15
100
AcDbLine
 10
2186.810946760399
 20
1041.715491998058
 30
0.0
 11
2186.810946760399
 21
1024.215491998058
 31
0.0
  0
LINE
  5
439
330
429
100
AcDbEntity
  8
0
  6
Continuous
 62
     7
370
    15
100
AcDbLine
 10
2186.810946760399
 20
1041.715491998058
 30
0.0
 11
2226.810946760399
 21
1041.715491998058
 31
0.0
  0
LINE
  5
43A
330
429
100
AcDbEntity
  8
0
  6
Continuous
 62
     7
370
    15
100
AcDbLine
 10
2226.810946760399
 20
1041.715491998058
 30
0.0
 11
2226.810946760399
 21
1024.215491998058
 31
0.0
  0
LINE
  5
43B
330
429
100
AcDbEntity
  8
0
  6
Continuous
 62
     7
370
    15
100
AcDbLine
 10
2226.810946760399
 20
1024.215491998058
 30
0.0
 11
2186.810946760399
 21
1024.215491998058
 31
0.0
  0
LINE
  5
43C
330
429
100
AcDbEntity
  8
0
  6
Continuous
 62
     7
370
    15
100
AcDbLine
 10
2226.310946760399
 20
1023.715491998058
 30
0.0
 11
2187.310946760399
 21
1023.715491998058
 31
0.0
  0
LINE
  5
43D
330
429
100
AcDbEntity
  8
0
  6
Continuous
 62
     7
370
    15
100
AcDbLine
 10
2187.310946760399
 20
1023.715491998058
 30
0.0
 11
2186.810946760399
 21
1024.215491998058
 31
0.0
  0
LINE
  5
43E
330
429
100
AcDbEntity
  8
0
  6
Continuous
 62
     7
370
    15
100
AcDbLine
 10
2226.310946760399
 20
1023.715491998058
 30
0.0
 11
2226.810946760399
 21
1024.215491998058
 31
0.0
  0
LINE
  5
43F
330
429
100
AcDbEntity
  8
0
  6
Continuous
 62
     7
370
    15
100
AcDbLine
 10
2187.310946760399
 20
1042.215491998058
 30
0.0
 11
2186.810946760399
 21
1041.715491998058
 31
0.0
  0
LINE
  5
440
330
429
100
AcDbEntity
  8
0
  6
Continuous
 62
     7
370
    15
100
AcDbLine
 10
2187.310946760399
 20
1042.215491998058
 30
0.0
 11
2226.310946760399
 21
1042.215491998058
 31
0.0
  0
LINE
  5
441
330
429
100
AcDbEntity
  8
0
  6
Continuous
 62
     7
370
    15
100
AcDbLine
 10
2226.310946760399
 20
1042.215491998058
 30
0.0
 11
2226.810946760399
 21
1041.715491998058
 31
0.0
  0
LINE
  5
442
330
429
100
AcDbEntity
  8
0
  6
Continuous
 62
     7
370
    15
100
AcDbLine
 10
2223.335946760399
 20
1031.215491998058
 30
0.0
 11
2223.335946760399
 21
1033.465493174778
 31
0.0
  0
ARC
  5
443
330
429
100
AcDbEntity
  8
0
  6
Continuous
 62
     7
370
    15
100
AcDbCircle
 10
2220.310946760399
 20
1031.215491998058
 30
0.0
 40
3.025000000000593
100
AcDbArc
 50
179.9999883756782
 51
0.0
  0
LINE
  5
444
330
429
100
AcDbEntity
  8
0
  6
Continuous
 62
     7
370
    15
100
AcDbLine
 10
2217.285946760398
 20
1034.315493174778
 30
0.0
 11
2217.285946760398
 21
1031.215492611778
 31
0.0
  0
ARC
  5
445
330
429
100
AcDbEntity
  8
0
  6
Continuous
 62
     7
370
    15
100
AcDbCircle
 10
2218.310946760398
 20
1034.315493174778
 30
0.0
 40
1.02499999999955
100
AcDbArc
 50
89.99999999997395
 51
180.0
  0
LINE
  5
446
330
429
100
AcDbEntity
  8
0
  6
Continuous
 62
     7
370
    15
100
AcDbLine
 10
2222.9859467604
 20
1035.340493174778
 30
0.0
 11
2218.310946760398
 21
1035.340493174778
 31
0.0
  0
LINE
  5
447
330
429
100
AcDbEntity
  8
0
  6
Continuous
 62
     7
370
    15
100
AcDbLine
 10
2222.9859467604
 20
1034.640493174778
 30
0.0
 11
2222.9859467604
 21
1035.340493174778
 31
0.0
  0
LINE
  5
448
330
429
100
AcDbEntity
  8
0
  6
Continuous
 62
     7
370
    15
100
AcDbLine
 10
2218.310946760398
 20
1034.640493174778
 30
0.0
 11
2222.9859467604
 21
1034.640493174778
 31
0.0
  0
LINE
  5
449
330
429
100
AcDbEntity
  8
0
  6
Continuous
 62
     7
370
    15
100
AcDbLine
 10
2218.310946760398
 20
1034.490493174779
 30
0.0
 11
2218.310946760398
 21
1034.640493174778
 31
0.0
  0
LINE
  5
44A
330
429
100
AcDbEntity
  8
0
  6
Continuous
 62
     7
370
    15
100
AcDbLine
 10
2222.310946760399
 20
1034.490493174779
 30
0.0
 11
2218.310946760398
 21
1034.490493174779
 31
0.0
  0
ARC
  5
44B
330
429
100
AcDbEntity
  8
0
  6
Continuous
 62
     7
370
    15
100
AcDbCircle
 10
2222.310946760399
 20
1033.465493174778
 30
0.0
 40
1.025000000000687
100
AcDbArc
 50
0.0
 51
90.0
  0
LINE
  5
44C
330
429
100
AcDbEntity
  8
0
  6
Continuous
 62
     7
370
    15
100
AcDbLine
 10
2222.560946760399
 20
1031.215491998058
 30
0.0
 11
2222.560946760399
 21
1033.365493174778
 31
0.0
  0
ARC
  5
44D
330
429
100
AcDbEntity
  8
0
  6
Continuous
 62
     7
370
    15
100
AcDbCircle
 10
2222.210946760398
 20
1033.365493174778
 30
0.0
 40
0.3500000000000512
100
AcDbArc
 50
0.0
 51
89.99999999992184
  0
LINE
  5
44E
330
429
100
AcDbEntity
  8
0
  6
Continuous
 62
     7
370
    15
100
AcDbLine
 10
2222.210946760399
 20
1033.715493174778
 30
0.0
 11
2218.410946760398
 21
1033.715493174778
 31
0.0
  0
ARC
  5
44F
330
429
100
AcDbEntity
  8
0
  6
Continuous
 62
     7
370
    15
100
AcDbCircle
 10
2218.410946760398
 20
1033.365493174778
 30
0.0
 40
0.3499999999999943
100
AcDbArc
 50
90.0
 51
180.0
  0
LINE
  5
450
330
429
100
AcDbEntity
  8
0
  6
Continuous
 62
     7
370
    15
100
AcDbLine
 10
2218.060946760399
 20
1033.365493174778
 30
0.0
 11
2218.060946760399
 21
1031.215492628443
 31
0.0
  0
ARC
  5
451
330
429
100
AcDbEntity
  8
0
  6
Continuous
 62
     7
370
    15
100
AcDbCircle
 10
2220.310946760399
 20
1031.215491998058
 30
0.0
 40
2.250000000000386
100
AcDbArc
 50
179.9999839473657
 51
0.0
  0
LINE
  5
452
330
429
100
AcDbEntity
  8
0
  6
Continuous
 62
     7
370
    15
100
AcDbLine
 10
2209.835946760399
 20
1031.215491998058
 30
0.0
 11
2209.835946760399
 21
1033.465493174778
 31
0.0
  0
LINE
  5
453
330
429
100
AcDbEntity
  8
0
  6
Continuous
 62
     7
370
    15
100
AcDbLine
 10
2203.785946760399
 20
1034.315493174778
 30
0.0
 11
2203.785946760398
 21
1031.215492611778
 31
0.0
  0
ARC
  5
454
330
429
100
AcDbEntity
  8
0
  6
Continuous
 62
     7
370
    15
100
AcDbCircle
 10
2204.810946760398
 20
1034.315493174778
 30
0.0
 40
1.02499999999955
100
AcDbArc
 50
89.99999999997395
 51
180.0
  0
LINE
  5
455
330
429
100
AcDbEntity
  8
0
  6
Continuous
 62
     7
370
    15
100
AcDbLine
 10
2209.4859467604
 20
1035.340493174778
 30
0.0
 11
2204.810946760398
 21
1035.340493174778
 31
0.0
  0
LINE
  5
456
330
429
100
AcDbEntity
  8
0
  6
Continuous
 62
     7
370
    15
100
AcDbLine
 10
2209.4859467604
 20
1034.640493174778
 30
0.0
 11
2209.4859467604
 21
1035.340493174778
 31
0.0
  0
LINE
  5
457
330
429
100
AcDbEntity
  8
0
  6
Continuous
 62
     7
370
    15
100
AcDbLine
 10
2204.810946760398
 20
1034.640493174778
 30
0.0
 11
2209.4859467604
 21
1034.640493174778
 31
0.0
  0
LINE
  5
458
330
429
100
AcDbEntity
  8
0
  6
Continuous
 62
     7
370
    15
100
AcDbLine
 10
2204.810946760398
 20
1034.490493174779
 30
0.0
 11
2204.810946760398
 21
1034.640493174778
 31
0.0
  0
LINE
  5
459
330
429
100
AcDbEntity
  8
0
  6
Continuous
 62
     7
370
    15
100
AcDbLine
 10
2208.810946760399
 20
1034.490493174779
 30
0.0
 11
2204.810946760398
 21
1034.490493174779
 31
0.0
  0
ARC
  5
45A
330
429
100
AcDbEntity
  8
0
  6
Continuous
 62
     7
370
    15
100
AcDbCircle
 10
2208.810946760399
 20
1033.465493174778
 30
0.0
 40
1.025000000000687
100
AcDbArc
 50
0.0
 51
90.0
  0
LINE
  5
45B
330
429
100
AcDbEntity
  8
0
  6
Continuous
 62
     7
370
    15
100
AcDbLine
 10
2209.060946760399
 20
1031.215491998058
 30
0.0
 11
2209.060946760398
 21
1033.365493174778
 31
0.0
  0
ARC
  5
45C
330
429
100
AcDbEntity
  8
0
  6
Continuous
 62
     7
370
    15
100
AcDbCircle
 10
2208.710946760399
 20
1033.365493174778
 30
0.0
 40
0.3500000000000369
100
AcDbArc
 50
0.0
 51
89.99999999992184
  0
LINE
  5
45D
330
429
100
AcDbEntity
  8
0
  6
Continuous
 62
     7
370
    15
100
AcDbLine
 10
2208.710946760399
 20
1033.715493174778
 30
0.0
 11
2204.910946760398
 21
1033.715493174778
 31
0.0
  0
ARC
  5
45E
330
429
100
AcDbEntity
  8
0
  6
Continuous
 62
     7
370
    15
100
AcDbCircle
 10
2204.910946760398
 20
1033.365493174778
 30
0.0
 40
0.3500000000000085
100
AcDbArc
 50
90.0
 51
180.0
  0
LINE
  5
45F
330
429
100
AcDbEntity
  8
0
  6
Continuous
 62
     7
370
    15
100
AcDbLine
 10
2204.560946760398
 20
1033.365493174778
 30
0.0
 11
2204.560946760398
 21
1031.215492628443
 31
0.0
  0
ARC
  5
460
330
429
100
AcDbEntity
  8
0
  6
Continuous
 62
     7
370
    15
100
AcDbCircle
 10
2206.810946760398
 20
1031.215491998058
 30
0.0
 40
2.250000000000401
100
AcDbArc
 50
179.9999839473657
 51
0.0
  0
ARC
  5
461
330
429
100
AcDbEntity
  8
0
  6
Continuous
 62
     7
370
    15
100
AcDbCircle
 10
2206.810946760398
 20
1031.215491998058
 30
0.0
 40
3.025000000000593
100
AcDbArc
 50
179.9999883756782
 51
0.0
  0
LINE
  5
462
330
429
100
AcDbEntity
  8
0
  6
Continuous
 62
     7
370
    15
100
AcDbLine
 10
2190.285946760399
 20
1034.315493174778
 30
0.0
 11
2190.285946760398
 21
1031.215492611778
 31
0.0
  0
ARC
  5
463
330
429
100
AcDbEntity
  8
0
  6
Continuous
 62
     7
370
    15
100
AcDbCircle
 10
2191.310946760398
 20
1034.315493174778
 30
0.0
 40
1.02499999999955
100
AcDbArc
 50
89.99999999997395
 51
180.0
  0
LINE
  5
464
330
429
100
AcDbEntity
  8
0
  6
Continuous
 62
     7
370
    15
100
AcDbLine
 10
2195.9859467604
 20
1035.340493174778
 30
0.0
 11
2191.310946760398
 21
1035.340493174778
 31
0.0
  0
LINE
  5
465
330
429
100
AcDbEntity
  8
0
  6
Continuous
 62
     7
370
    15
100
AcDbLine
 10
2195.9859467604
 20
1034.640493174778
 30
0.0
 11
2195.9859467604
 21
1035.340493174778
 31
0.0
  0
LINE
  5
466
330
429
100
AcDbEntity
  8
0
  6
Continuous
 62
     7
370
    15
100
AcDbLine
 10
2191.310946760398
 20
1034.640493174778
 30
0.0
 11
2195.9859467604
 21
1034.640493174778
 31
0.0
  0
LINE
  5
467
330
429
100
AcDbEntity
  8
0
  6
Continuous
 62
     7
370
    15
100
AcDbLine
 10
2191.310946760398
 20
1034.490493174779
 30
0.0
 11
2191.310946760398
 21
1034.640493174778
 31
0.0
  0
LINE
  5
468
330
429
100
AcDbEntity
  8
0
  6
Continuous
 62
     7
370
    15
100
AcDbLine
 10
2195.310946760399
 20
1034.490493174779
 30
0.0
 11
2191.310946760398
 21
1034.490493174779
 31
0.0
  0
LINE
  5
469
330
429
100
AcDbEntity
  8
0
  6
Continuous
 62
     7
370
    15
100
AcDbLine
 10
2195.560946760399
 20
1031.215491998058
 30
0.0
 11
2195.560946760398
 21
1033.365493174778
 31
0.0
  0
ARC
  5
46A
330
429
100
AcDbEntity
  8
0
  6
Continuous
 62
     7
370
    15
100
AcDbCircle
 10
2195.210946760399
 20
1033.365493174778
 30
0.0
 40
0.3500000000000512
100
AcDbArc
 50
0.0
 51
89.99999999992184
  0
LINE
  5
46B
330
429
100
AcDbEntity
  8
0
  6
Continuous
 62
     7
370
    15
100
AcDbLine
 10
2195.210946760399
 20
1033.715493174778
 30
0.0
 11
2191.410946760399
 21
1033.715493174778
 31
0.0
  0
ARC
  5
46C
330
429
100
AcDbEntity
  8
0
  6
Continuous
 62
     7
370
    15
100
AcDbCircle
 10
2191.410946760399
 20
1033.365493174778
 30
0.0
 40
0.3499999999999943
100
AcDbArc
 50
90.0
 51
180.0
  0
LINE
  5
46D
330
429
100
AcDbEntity
  8
0
  6
Continuous
 62
     7
370
    15
100
AcDbLine
 10
2191.060946760399
 20
1033.365493174778
 30
0.0
 11
2191.060946760399
 21
1031.215492628443
 31
0.0
  0
ARC
  5
46E
330
429
100
AcDbEntity
  8
0
  6
Continuous
 62
     7
370
    15
100
AcDbCircle
 10
2193.310946760399
 20
1031.215491998058
 30
0.0
 40
2.250000000000372
100
AcDbArc
 50
179.9999839473657
 51
0.0
  0
LINE
  5
46F
330
429
100
AcDbEntity
  8
0
  6
Continuous
 62
     7
370
    15
100
AcDbLine
 10
2196.335946760399
 20
1031.215491998058
 30
0.0
 11
2196.335946760399
 21
1033.465493174778
 31
0.0
  0
ARC
  5
470
330
429
100
AcDbEntity
  8
0
  6
Continuous
 62
     7
370
    15
100
AcDbCircle
 10
2195.310946760399
 20
1033.465493174778
 30
0.0
 40
1.025000000000687
100
AcDbArc
 50
0.0
 51
90.0
  0
ARC
  5
471
330
429
100
AcDbEntity
  8
0
  6
Continuous
 62
     7
370
    15
100
AcDbCircle
 10
2193.310946760399
 20
1031.215491998058
 30
0.0
 40
3.025000000000593
100
AcDbArc
 50
179.9999883756782
 51
0.0
  0
ENDBLK
  5
42B
330
429
100
AcDbEntity
  8
0
100
AcDbBlockEnd
  0
BLOCK
  5
474
330
473
100
AcDbEntity
  8
0
100
AcDbBlockBegin
  2
3
 70
     0
 10
0.0
 20
0.0
 30
0.0
  3
3
  1

  0
LINE
  5
476
330
473
100
AcDbEntity
  8
0
  6
Continuous
 62
     7
370
    15
100
AcDbLine
 10
2278.221951699984
 20
1004.178488675798
 30
0.0
 11
2278.721951699984
 21
1004.678488675799
 31
0.0
  0
LINE
  5
477
330
473
100
AcDbEntity
  8
0
  6
Continuous
 62
     7
370
    15
100
AcDbLine
 10
2278.221951699984
 20
1004.178488675798
 30
0.0
 11
2257.221951699984
 21
1004.178488675798
 31
0.0
  0
LINE
  5
478
330
473
100
AcDbEntity
  8
0
  6
Continuous
 62
     7
370
    15
100
AcDbLine
 10
2257.221951699984
 20
1004.178488675798
 30
0.0
 11
2256.721951699984
 21
1004.678488675799
 31
0.0
  0
LINE
  5
479
330
473
100
AcDbEntity
  8
0
  6
Continuous
 62
     7
370
    15
100
AcDbLine
 10
2278.721951699984
 20
1004.678488675799
 30
0.0
 11
2256.721951699984
 21
1004.678488675799
 31
0.0
  0
LINE
  5
47A
330
473
100
AcDbEntity
  8
0
  6
Continuous
 62
     7
370
    15
100
AcDbLine
 10
2278.721951699984
 20
964.6784886757988
 30
0.0
 11
2278.721951699984
 21
1004.678488675799
 31
0.0
  0
LINE
  5
47B
330
473
100
AcDbEntity
  8
0
  6
Continuous
 62
     7
370
    15
100
AcDbLine
 10
2278.221951699984
 20
965.1784886757988
 30
0.0
 11
2278.721951699984
 21
964.6784886757988
 31
0.0
  0
LINE
  5
47C
330
473
100
AcDbEntity
  8
0
  6
Continuous
 62
     7
370
    15
100
AcDbLine
 10
2278.221951699984
 20
965.1784886757988
 30
0.0
 11
2278.221951699984
 21
1004.178488675798
 31
0.0
  0
LINE
  5
47D
330
473
100
AcDbEntity
  8
0
  6
Continuous
 62
     7
370
    15
100
AcDbLine
 10
2257.221951699984
 20
1004.178488675798
 30
0.0
 11
2257.221951699984
 21
965.1784886757988
 31
0.0
  0
LINE
  5
47E
330
473
100
AcDbEntity
  8
0
  6
Continuous
 62
     7
370
    15
100
AcDbLine
 10
2256.721951699984
 20
964.6784886757988
 30
0.0
 11
2257.221951699984
 21
965.1784886757988
 31
0.0
  0
LINE
  5
47F
330
473
100
AcDbEntity
  8
0
  6
Continuous
 62
     7
370
    15
100
AcDbLine
 10
2256.721951699984
 20
1004.678488675799
 30
0.0
 11
2256.721951699984
 21
964.6784886757988
 31
0.0
  0
CIRCLE
  5
480
330
473
100
AcDbEntity
  8
0
  6
Continuous
 62
     7
370
    15
100
AcDbCircle
 10
2267.721951699984
 20
991.4284886757988
 30
0.0
 40
3.5
  0
CIRCLE
  5
481
330
473
100
AcDbEntity
  8
0
  6
Continuous
 62
     7
370
    15
100
AcDbCircle
 10
2267.721951699984
 20
977.9284886757988
 30
0.0
 40
3.5
  0
CIRCLE
  5
482
330
473
100
AcDbEntity
  8
0
  6
Continuous
 62
     7
370
    15
100
AcDbCircle
 10
2263.371951699983
 20
998.1784886757989
 30
0.0
 40
2.75
  0
CIRCLE
  5
483
330
473
100
AcDbEntity
  8
0
  6
Continuous
 62
     7
370
    15
100
AcDbCircle
 10
2272.071951699984
 20
998.1784886757989
 30
0.0
 40
2.75
  0
CIRCLE
  5
484
330
473
100
AcDbEntity
  8
0
  6
Continuous
 62
     7
370
    15
100
AcDbCircle
 10
2263.371951699984
 20
984.6784886757987
 30
0.0
 40
2.749999999999985
  0
CIRCLE
  5
485
330
473
100
AcDbEntity
  8
0
  6
Continuous
 62
     7
370
    15
100
AcDbCircle
 10
2272.071951699984
 20
984.6784886757987
 30
0.0
 40
2.749999999999985
  0
CIRCLE
  5
486
330
473
100
AcDbEntity
  8
0
  6
Continuous
 62
     7
370
    15
100
AcDbCircle
 10
2263.371951699984
 20
971.1784886757987
 30
0.0
 40
2.750000000000014
  0
CIRCLE
  5
487
330
473
100
AcDbEntity
  8
0
  6
Continuous
 62
     7
370
    15
100
AcDbCircle
 10
2272.071951699984
 20
971.1784886757987
 30
0.0
 40
2.750000000000014
  0
LINE
  5
488
330
473
100
AcDbEntity
  8
0
  6
Continuous
 62
     7
370
    15
100
AcDbLine
 10
2257.221951699984
 20
965.1784886757988
 30
0.0
 11
2278.221951699984
 21
965.1784886757988
 31
0.0
  0
LINE
  5
489
330
473
100
AcDbEntity
  8
0
  6
Continuous
 62
     7
370
    15
100
AcDbLine
 10
2256.721951699984
 20
964.6784886757988
 30
0.0
 11
2278.721951699984
 21
964.6784886757988
 31
0.0
  0
LINE
  5
48A
330
473
100
AcDbEntity
  8
0
  6
Continuous
 62
     7
370
    15
100
AcDbLine
 10
2267.721951699984
 20
987.964387060661
 30
0.0
 11
2264.721951699984
 21
989.69643786823
 31
0.0
  0
LINE
  5
48B
330
473
100
AcDbEntity
  8
0
  6
Continuous
 62
     7
370
    15
100
AcDbLine
 10
2270.721951699984
 20
989.69643786823
 30
0.0
 11
2267.721951699984
 21
987.964387060661
 31
0.0
  0
LINE
  5
48C
330
473
100
AcDbEntity
  8
0
  6
Continuous
 62
     7
370
    15
100
AcDbLine
 10
2270.721951699984
 20
993.1605394833677
 30
0.0
 11
2270.721951699984
 21
989.69643786823
 31
0.0
  0
LINE
  5
48D
330
473
100
AcDbEntity
  8
0
  6
Continuous
 62
     7
370
    15
100
AcDbLine
 10
2267.721951699984
 20
994.8925902909365
 30
0.0
 11
2270.721951699984
 21
993.1605394833677
 31
0.0
  0
LINE
  5
48E
330
473
100
AcDbEntity
  8
0
  6
Continuous
 62
     7
370
    15
100
AcDbLine
 10
2264.721951699984
 20
989.69643786823
 30
0.0
 11
2264.721951699984
 21
993.1605394833677
 31
0.0
  0
LINE
  5
48F
330
473
100
AcDbEntity
  8
0
  6
Continuous
 62
     7
370
    15
100
AcDbLine
 10
2264.721951699984
 20
993.1605394833677
 30
0.0
 11
2267.721951699984
 21
994.8925902909365
 31
0.0
  0
LINE
  5
490
330
473
100
AcDbEntity
  8
0
  6
Continuous
 62
     7
370
    15
100
AcDbLine
 10
2267.721951699984
 20
974.464387060661
 30
0.0
 11
2264.721951699984
 21
976.19643786823
 31
0.0
  0
LINE
  5
491
330
473
100
AcDbEntity
  8
0
  6
Continuous
 62
     7
370
    15
100
AcDbLine
 10
2270.721951699984
 20
976.19643786823
 30
0.0
 11
2267.721951699984
 21
974.464387060661
 31
0.0
  0
LINE
  5
492
330
473
100
AcDbEntity
  8
0
  6
Continuous
 62
     7
370
    15
100
AcDbLine
 10
2270.721951699984
 20
979.6605394833678
 30
0.0
 11
2270.721951699984
 21
976.19643786823
 31
0.0
  0
LINE
  5
493
330
473
100
AcDbEntity
  8
0
  6
Continuous
 62
     7
370
    15
100
AcDbLine
 10
2267.721951699984
 20
981.3925902909366
 30
0.0
 11
2270.721951699984
 21
979.6605394833678
 31
0.0
  0
LINE
  5
494
330
473
100
AcDbEntity
  8
0
  6
Continuous
 62
     7
370
    15
100
AcDbLine
 10
2264.721951699984
 20
979.6605394833678
 30
0.0
 11
2267.721951699984
 21
981.3925902909366
 31
0.0
  0
LINE
  5
495
330
473
100
AcDbEntity
  8
0
  6
Continuous
 62
     7
370
    15
100
AcDbLine
 10
2264.721951699984
 20
976.19643786823
 30
0.0
 11
2264.721951699984
 21
979.6605394833678
 31
0.0
  0
ARC
  5
496
330
473
100
AcDbEntity
  8
0
  6
Continuous
 62
     7
370
    15
100
AcDbCircle
 10
2272.071951699984
 20
998.1784886757989
 30
0.0
 40
1.950000000005212
100
AcDbArc
 50
104.8571655448913
 51
255.1428344551087
  0
LINE
  5
497
330
473
100
AcDbEntity
  8
0
  6
Continuous
 62
     7
370
    15
100
AcDbLine
 10
2271.571951699984
 20
996.2936809932964
 30
0.0
 11
2271.571951699984
 21
1000.063296358301
 31
0.0
  0
ARC
  5
498
330
473
100
AcDbEntity
  8
0
  6
Continuous
 62
     7
370
    15
100
AcDbCircle
 10
2263.571951699984
 20
998.1784886757989
 30
0.0
 40
1.950000000005212
100
AcDbArc
 50
104.8571655448913
 51
255.1428344551087
  0
LINE
  5
499
330
473
100
AcDbEntity
  8
0
  6
Continuous
 62
     7
370
    15
100
AcDbLine
 10
2263.071951699984
 20
996.2936809932964
 30
0.0
 11
2263.071951699984
 21
1000.063296358301
 31
0.0
  0
CIRCLE
  5
49A
330
473
100
AcDbEntity
  8
0
  6
Continuous
 62
     7
370
    15
100
AcDbCircle
 10
2263.571951699984
 20
998.1784886757989
 30
0.0
 40
2.150000000003529
  0
SPLINE
  5
49B
330
473
100
AcDbEntity
  8
0
  6
Continuous
 62
     7
370
    15
100
AcDbSpline
210
0.0
220
0.0
230
1.0
 70
    24
 71
     3
 72
     8
 73
     4
 74
     0
 42
0.0000000001
 43
0.0000000001
 40
0.0000000000000035
 40
0.0000000000000035
 40
0.0000000000000035
 40
0.0000000000000035
 40
0.0012048291357167
 40
0.0012048291357167
 40
0.0012048291357167
 40
0.0012048291357167
 10
2263.071951699984
 20
996.1859162202628
 30
0.0
 10
2263.071951699984
 20
996.2217776717917
 30
0.0
 10
2263.071951699984
 20
996.2576958269485
 30
0.0
 10
2263.071951699984
 20
996.2936809932973
 30
0.0
  0
ARC
  5
49C
330
473
100
AcDbEntity
  8
0
  6
Continuous
 62
     7
370
    15
100
AcDbCircle
 10
2263.571951699984
 20
998.1784886757989
 30
0.0
 40
2.054347826090281
100
AcDbArc
 50
255.9135142322482
 51
284.0864857677518
  0
SPLINE
  5
49D
330
473
100
AcDbEntity
  8
0
  6
Continuous
 62
     7
370
    15
100
AcDbSpline
210
0.0
220
0.0
230
1.0
 70
    24
 71
     3
 72
     8
 73
     4
 74
     0
 42
0.0000000001
 43
0.0000000001
 40
0.0000000000000114
 40
0.0000000000000114
 40
0.0000000000000114
 40
0.0000000000000114
 40
0.0012048291357281
 40
0.0012048291357281
 40
0.0012048291357281
 40
0.0012048291357281
 10
2264.071951699984
 20
996.2936809932973
 30
0.0
 10
2264.071951699984
 20
996.2576958269485
 30
0.0
 10
2264.071951699984
 20
996.2217776717917
 30
0.0
 10
2264.071951699984
 20
996.1859162202628
 30
0.0
  0
ARC
  5
49E
330
473
100
AcDbEntity
  8
0
  6
Continuous
 62
     7
370
    15
100
AcDbCircle
 10
2263.571951699984
 20
998.1784886757989
 30
0.0
 40
1.950000000005212
100
AcDbArc
 50
284.8571655448913
 51
75.14283445510868
  0
SPLINE
  5
49F
330
473
100
AcDbEntity
  8
0
  6
Continuous
 62
     7
370
    15
100
AcDbSpline
210
0.0
220
0.0
230
1.0
 70
    24
 71
     3
 72
     8
 73
     4
 74
     0
 42
0.0000000001
 43
0.0000000001
 40
0.0000000000000035
 40
0.0000000000000035
 40
0.0000000000000035
 40
0.0000000000000035
 40
0.0012048291357167
 40
0.0012048291357167
 40
0.0012048291357167
 40
0.0012048291357167
 10
2264.071951699984
 20
1000.171061131335
 30
0.0
 10
2264.071951699984
 20
1000.135199679806
 30
0.0
 10
2264.071951699984
 20
1000.099281524649
 30
0.0
 10
2264.071951699984
 20
1000.0632963583
 30
0.0
  0
ARC
  5
4A0
330
473
100
AcDbEntity
  8
0
  6
Continuous
 62
     7
370
    15
100
AcDbCircle
 10
2263.571951699984
 20
998.1784886757989
 30
0.0
 40
2.054347826090308
100
AcDbArc
 50
75.91351423224816
 51
104.0864857677518
  0
SPLINE
  5
4A1
330
473
100
AcDbEntity
  8
0
  6
Continuous
 62
     7
370
    15
100
AcDbSpline
210
0.0
220
0.0
230
1.0
 70
    24
 71
     3
 72
     8
 73
     4
 74
     0
 42
0.0000000001
 43
0.0000000001
 40
0.0000000000000114
 40
0.0000000000000114
 40
0.0000000000000114
 40
0.0000000000000114
 40
0.001204829135728
 40
0.001204829135728
 40
0.001204829135728
 40
0.001204829135728
 10
2263.071951699984
 20
1000.0632963583
 30
0.0
 10
2263.071951699984
 20
1000.099281524649
 30
0.0
 10
2263.071951699984
 20
1000.135199679806
 30
0.0
 10
2263.071951699984
 20
1000.171061131335
 30
0.0
  0
CIRCLE
  5
4A2
330
473
100
AcDbEntity
  8
0
  6
Continuous
 62
     7
370
    15
100
AcDbCircle
 10
2272.071951699984
 20
998.1784886757989
 30
0.0
 40
2.150000000003529
  0
ARC
  5
4A3
330
473
100
AcDbEntity
  8
0
  6
Continuous
 62
     7
370
    15
100
AcDbCircle
 10
2272.071951699984
 20
998.1784886757989
 30
0.0
 40
2.054347826090281
100
AcDbArc
 50
255.9135142322482
 51
284.0864857677518
  0
ARC
  5
4A4
330
473
100
AcDbEntity
  8
0
  6
Continuous
 62
     7
370
    15
100
AcDbCircle
 10
2272.071951699984
 20
998.1784886757989
 30
0.0
 40
1.950000000005212
100
AcDbArc
 50
284.8571655448913
 51
75.14283445510868
  0
ARC
  5
4A5
330
473
100
AcDbEntity
  8
0
  6
Continuous
 62
     7
370
    15
100
AcDbCircle
 10
2272.071951699984
 20
998.1784886757989
 30
0.0
 40
2.054347826090308
100
AcDbArc
 50
75.91351423224816
 51
104.0864857677518
  0
SPLINE
  5
4A6
330
473
100
AcDbEntity
  8
0
  6
Continuous
 62
     7
370
    15
100
AcDbSpline
210
0.0
220
0.0
230
1.0
 70
    24
 71
     3
 72
     8
 73
     4
 74
     0
 42
0.0000000001
 43
0.0000000001
 40
0.0000000000000035
 40
0.0000000000000035
 40
0.0000000000000035
 40
0.0000000000000035
 40
0.0012048291357167
 40
0.0012048291357167
 40
0.0012048291357167
 40
0.0012048291357167
 10
2271.571951699984
 20
996.1859162202628
 30
0.0
 10
2271.571951699984
 20
996.2217776717917
 30
0.0
 10
2271.571951699984
 20
996.2576958269485
 30
0.0
 10
2271.571951699984
 20
996.2936809932973
 30
0.0
  0
SPLINE
  5
4A7
330
473
100
AcDbEntity
  8
0
  6
Continuous
 62
     7
370
    15
100
AcDbSpline
210
0.0
220
0.0
230
1.0
 70
    24
 71
     3
 72
     8
 73
     4
 74
     0
 42
0.0000000001
 43
0.0000000001
 40
0.0000000000000114
 40
0.0000000000000114
 40
0.0000000000000114
 40
0.0000000000000114
 40
0.001204829135728
 40
0.001204829135728
 40
0.001204829135728
 40
0.001204829135728
 10
2271.571951699984
 20
1000.0632963583
 30
0.0
 10
2271.571951699984
 20
1000.099281524649
 30
0.0
 10
2271.571951699984
 20
1000.135199679806
 30
0.0
 10
2271.571951699984
 20
1000.171061131335
 30
0.0
  0
SPLINE
  5
4A8
330
473
100
AcDbEntity
  8
0
  6
Continuous
 62
     7
370
    15
100
AcDbSpline
210
0.0
220
0.0
230
1.0
 70
    24
 71
     3
 72
     8
 73
     4
 74
     0
 42
0.0000000001
 43
0.0000000001
 40
0.0000000000000114
 40
0.0000000000000114
 40
0.0000000000000114
 40
0.0000000000000114
 40
0.0012048291357281
 40
0.0012048291357281
 40
0.0012048291357281
 40
0.0012048291357281
 10
2272.571951699984
 20
996.2936809932973
 30
0.0
 10
2272.571951699984
 20
996.2576958269485
 30
0.0
 10
2272.571951699984
 20
996.2217776717917
 30
0.0
 10
2272.571951699984
 20
996.1859162202628
 30
0.0
  0
SPLINE
  5
4A9
330
473
100
AcDbEntity
  8
0
  6
Continuous
 62
     7
370
    15
100
AcDbSpline
210
0.0
220
0.0
230
1.0
 70
    24
 71
     3
 72
     8
 73
     4
 74
     0
 42
0.0000000001
 43
0.0000000001
 40
0.0000000000000035
 40
0.0000000000000035
 40
0.0000000000000035
 40
0.0000000000000035
 40
0.0012048291357167
 40
0.0012048291357167
 40
0.0012048291357167
 40
0.0012048291357167
 10
2272.571951699984
 20
1000.171061131335
 30
0.0
 10
2272.571951699984
 20
1000.135199679806
 30
0.0
 10
2272.571951699984
 20
1000.099281524649
 30
0.0
 10
2272.571951699984
 20
1000.0632963583
 30
0.0
  0
LINE
  5
4AA
330
473
100
AcDbEntity
  8
0
  6
Continuous
 62
     7
370
    15
100
AcDbLine
 10
2264.071951699984
 20
1000.063296358301
 30
0.0
 11
2264.071951699984
 21
996.2936809932964
 31
0.0
  0
LINE
  5
4AB
330
473
100
AcDbEntity
  8
0
  6
Continuous
 62
     7
370
    15
100
AcDbLine
 10
2272.571951699984
 20
1000.063296358301
 30
0.0
 11
2272.571951699984
 21
996.2936809932964
 31
0.0
  0
ARC
  5
4AC
330
473
100
AcDbEntity
  8
0
  6
Continuous
 62
     7
370
    15
100
AcDbCircle
 10
2272.071951699984
 20
984.6784886757987
 30
0.0
 40
1.949999999998633
100
AcDbArc
 50
104.857165544945
 51
255.1428344550549
  0
LINE
  5
4AD
330
473
100
AcDbEntity
  8
0
  6
Continuous
 62
     7
370
    15
100
AcDbLine
 10
2271.571951699984
 20
982.7936809933031
 30
0.0
 11
2271.571951699984
 21
986.5632963582944
 31
0.0
  0
ARC
  5
4AE
330
473
100
AcDbEntity
  8
0
  6
Continuous
 62
     7
370
    15
100
AcDbCircle
 10
2272.071951699984
 20
984.6784886757987
 30
0.0
 40
1.949999999998633
100
AcDbArc
 50
284.857165544945
 51
75.14283445505497
  0
LINE
  5
4AF
330
473
100
AcDbEntity
  8
0
  6
Continuous
 62
     7
370
    15
100
AcDbLine
 10
2272.571951699984
 20
986.5632963582944
 30
0.0
 11
2272.571951699984
 21
982.7936809933031
 31
0.0
  0
ARC
  5
4B0
330
473
100
AcDbEntity
  8
0
  6
Continuous
 62
     7
370
    15
100
AcDbCircle
 10
2263.571951699984
 20
984.6784886757987
 30
0.0
 40
1.949999999998633
100
AcDbArc
 50
284.857165544945
 51
75.14283445505497
  0
LINE
  5
4B1
330
473
100
AcDbEntity
  8
0
  6
Continuous
 62
     7
370
    15
100
AcDbLine
 10
2264.071951699984
 20
986.5632963582944
 30
0.0
 11
2264.071951699984
 21
982.7936809933031
 31
0.0
  0
CIRCLE
  5
4B2
330
473
100
AcDbEntity
  8
0
  6
Continuous
 62
     7
370
    15
100
AcDbCircle
 10
2272.071951699984
 20
984.6784886757987
 30
0.0
 40
2.150000000004055
  0
SPLINE
  5
4B3
330
473
100
AcDbEntity
  8
0
  6
Continuous
 62
     7
370
    15
100
AcDbSpline
210
0.0
220
0.0
230
1.0
 70
    24
 71
     3
 72
     8
 73
     4
 74
     0
 42
0.0000000001
 43
0.0000000001
 40
0.0000000000000033
 40
0.0000000000000033
 40
0.0000000000000033
 40
0.0000000000000033
 40
0.001204829135717
 40
0.001204829135717
 40
0.001204829135717
 40
0.001204829135717
 10
2271.571951699984
 20
982.6859162202659
 30
0.0
 10
2271.571951699984
 20
982.7217776717958
 30
0.0
 10
2271.571951699984
 20
982.757695826954
 30
0.0
 10
2271.571951699984
 20
982.7936809933042
 30
0.0
  0
ARC
  5
4B4
330
473
100
AcDbEntity
  8
0
  6
Continuous
 62
     7
370
    15
100
AcDbCircle
 10
2272.071951699984
 20
984.6784886757987
 30
0.0
 40
2.054347826087414
100
AcDbArc
 50
255.9135142322213
 51
284.0864857677787
  0
SPLINE
  5
4B5
330
473
100
AcDbEntity
  8
0
  6
Continuous
 62
     7
370
    15
100
AcDbSpline
210
0.0
220
0.0
230
1.0
 70
    24
 71
     3
 72
     8
 73
     4
 74
     0
 42
0.0000000001
 43
0.0000000001
 40
0.0000000000000111
 40
0.0000000000000111
 40
0.0000000000000111
 40
0.0000000000000111
 40
0.0012048291357281
 40
0.0012048291357281
 40
0.0012048291357281
 40
0.0012048291357281
 10
2272.571951699984
 20
982.7936809933042
 30
0.0
 10
2272.571951699984
 20
982.757695826954
 30
0.0
 10
2272.571951699984
 20
982.7217776717958
 30
0.0
 10
2272.571951699984
 20
982.6859162202659
 30
0.0
  0
SPLINE
  5
4B6
330
473
100
AcDbEntity
  8
0
  6
Continuous
 62
     7
370
    15
100
AcDbSpline
210
0.0
220
0.0
230
1.0
 70
    24
 71
     3
 72
     8
 73
     4
 74
     0
 42
0.0000000001
 43
0.0000000001
 40
0.0000000000000033
 40
0.0000000000000033
 40
0.0000000000000033
 40
0.0000000000000033
 40
0.001204829135717
 40
0.001204829135717
 40
0.001204829135717
 40
0.001204829135717
 10
2272.571951699984
 20
986.6710611313317
 30
0.0
 10
2272.571951699984
 20
986.6351996798018
 30
0.0
 10
2272.571951699984
 20
986.5992815246436
 30
0.0
 10
2272.571951699984
 20
986.5632963582934
 30
0.0
  0
ARC
  5
4B7
330
473
100
AcDbEntity
  8
0
  6
Continuous
 62
     7
370
    15
100
AcDbCircle
 10
2272.071951699984
 20
984.6784886757987
 30
0.0
 40
2.054347826087414
100
AcDbArc
 50
75.9135142322213
 51
104.0864857677787
  0
SPLINE
  5
4B8
330
473
100
AcDbEntity
  8
0
  6
Continuous
 62
     7
370
    15
100
AcDbSpline
210
0.0
220
0.0
230
1.0
 70
    24
 71
     3
 72
     8
 73
     4
 74
     0
 42
0.0000000001
 43
0.0000000001
 40
0.0000000000000111
 40
0.0000000000000111
 40
0.0000000000000111
 40
0.0000000000000111
 40
0.0012048291357281
 40
0.0012048291357281
 40
0.0012048291357281
 40
0.0012048291357281
 10
2271.571951699984
 20
986.5632963582934
 30
0.0
 10
2271.571951699984
 20
986.5992815246436
 30
0.0
 10
2271.571951699984
 20
986.6351996798018
 30
0.0
 10
2271.571951699984
 20
986.6710611313317
 30
0.0
  0
CIRCLE
  5
4B9
330
473
100
AcDbEntity
  8
0
  6
Continuous
 62
     7
370
    15
100
AcDbCircle
 10
2263.571951699984
 20
984.6784886757987
 30
0.0
 40
2.150000000004055
  0
ARC
  5
4BA
330
473
100
AcDbEntity
  8
0
  6
Continuous
 62
     7
370
    15
100
AcDbCircle
 10
2263.571951699984
 20
984.6784886757987
 30
0.0
 40
1.949999999998633
100
AcDbArc
 50
104.857165544945
 51
255.1428344550549
  0
ARC
  5
4BB
330
473
100
AcDbEntity
  8
0
  6
Continuous
 62
     7
370
    15
100
AcDbCircle
 10
2263.571951699984
 20
984.6784886757987
 30
0.0
 40
2.054347826087414
100
AcDbArc
 50
255.9135142322213
 51
284.0864857677787
  0
ARC
  5
4BC
330
473
100
AcDbEntity
  8
0
  6
Continuous
 62
     7
370
    15
100
AcDbCircle
 10
2263.571951699984
 20
984.6784886757987
 30
0.0
 40
2.054347826087414
100
AcDbArc
 50
75.9135142322213
 51
104.0864857677787
  0
SPLINE
  5
4BD
330
473
100
AcDbEntity
  8
0
  6
Continuous
 62
     7
370
    15
100
AcDbSpline
210
0.0
220
0.0
230
1.0
 70
    24
 71
     3
 72
     8
 73
     4
 74
     0
 42
0.0000000001
 43
0.0000000001
 40
0.0000000000000033
 40
0.0000000000000033
 40
0.0000000000000033
 40
0.0000000000000033
 40
0.001204829135717
 40
0.001204829135717
 40
0.001204829135717
 40
0.001204829135717
 10
2263.071951699984
 20
982.6859162202659
 30
0.0
 10
2263.071951699984
 20
982.7217776717958
 30
0.0
 10
2263.071951699984
 20
982.757695826954
 30
0.0
 10
2263.071951699984
 20
982.7936809933042
 30
0.0
  0
SPLINE
  5
4BE
330
473
100
AcDbEntity
  8
0
  6
Continuous
 62
     7
370
    15
100
AcDbSpline
210
0.0
220
0.0
230
1.0
 70
    24
 71
     3
 72
     8
 73
     4
 74
     0
 42
0.0000000001
 43
0.0000000001
 40
0.0000000000000111
 40
0.0000000000000111
 40
0.0000000000000111
 40
0.0000000000000111
 40
0.0012048291357281
 40
0.0012048291357281
 40
0.0012048291357281
 40
0.0012048291357281
 10
2263.071951699984
 20
986.5632963582934
 30
0.0
 10
2263.071951699984
 20
986.5992815246436
 30
0.0
 10
2263.071951699984
 20
986.6351996798018
 30
0.0
 10
2263.071951699984
 20
986.6710611313317
 30
0.0
  0
SPLINE
  5
4BF
330
473
100
AcDbEntity
  8
0
  6
Continuous
 62
     7
370
    15
100
AcDbSpline
210
0.0
220
0.0
230
1.0
 70
    24
 71
     3
 72
     8
 73
     4
 74
     0
 42
0.0000000001
 43
0.0000000001
 40
0.0000000000000111
 40
0.0000000000000111
 40
0.0000000000000111
 40
0.0000000000000111
 40
0.0012048291357281
 40
0.0012048291357281
 40
0.0012048291357281
 40
0.0012048291357281
 10
2264.071951699984
 20
982.7936809933042
 30
0.0
 10
2264.071951699984
 20
982.757695826954
 30
0.0
 10
2264.071951699984
 20
982.7217776717958
 30
0.0
 10
2264.071951699984
 20
982.6859162202659
 30
0.0
  0
SPLINE
  5
4C0
330
473
100
AcDbEntity
  8
0
  6
Continuous
 62
     7
370
    15
100
AcDbSpline
210
0.0
220
0.0
230
1.0
 70
    24
 71
     3
 72
     8
 73
     4
 74
     0
 42
0.0000000001
 43
0.0000000001
 40
0.0000000000000033
 40
0.0000000000000033
 40
0.0000000000000033
 40
0.0000000000000033
 40
0.001204829135717
 40
0.001204829135717
 40
0.001204829135717
 40
0.001204829135717
 10
2264.071951699984
 20
986.6710611313317
 30
0.0
 10
2264.071951699984
 20
986.6351996798018
 30
0.0
 10
2264.071951699984
 20
986.5992815246436
 30
0.0
 10
2264.071951699984
 20
986.5632963582934
 30
0.0
  0
LINE
  5
4C1
330
473
100
AcDbEntity
  8
0
  6
Continuous
 62
     7
370
    15
100
AcDbLine
 10
2263.071951699984
 20
982.7936809933031
 30
0.0
 11
2263.071951699984
 21
986.5632963582944
 31
0.0
  0
CIRCLE
  5
4C2
330
473
100
AcDbEntity
  8
0
  6
Continuous
 62
     7
370
    15
100
AcDbCircle
 10
2272.071951699984
 20
971.1784886757987
 30
0.0
 40
2.149999999997447
  0
ARC
  5
4C3
330
473
100
AcDbEntity
  8
0
  6
Continuous
 62
     7
370
    15
100
AcDbCircle
 10
2272.071951699984
 20
971.1784886757987
 30
0.0
 40
1.949999999992067
100
AcDbArc
 50
104.8571655449735
 51
255.1428344550264
  0
ARC
  5
4C4
330
473
100
AcDbEntity
  8
0
  6
Continuous
 62
     7
370
    15
100
AcDbCircle
 10
2272.071951699984
 20
971.1784886757987
 30
0.0
 40
2.054347826080839
100
AcDbArc
 50
255.9135142321929
 51
284.0864857678071
  0
SPLINE
  5
4C5
330
473
100
AcDbEntity
  8
0
  6
Continuous
 62
     7
370
    15
100
AcDbSpline
210
0.0
220
0.0
230
1.0
 70
    24
 71
     3
 72
     8
 73
     4
 74
     0
 42
0.0000000001
 43
0.0000000001
 40
0.0000000000000109
 40
0.0000000000000109
 40
0.0000000000000109
 40
0.0000000000000109
 40
0.0012048291357281
 40
0.0012048291357281
 40
0.0012048291357281
 40
0.0012048291357281
 10
2272.571951699984
 20
969.2936809933108
 30
0.0
 10
2272.571951699984
 20
969.2576958269608
 30
0.0
 10
2272.571951699984
 20
969.2217776718026
 30
0.0
 10
2272.571951699984
 20
969.1859162202726
 30
0.0
  0
ARC
  5
4C6
330
473
100
AcDbEntity
  8
0
  6
Continuous
 62
     7
370
    15
100
AcDbCircle
 10
2272.071951699984
 20
971.1784886757987
 30
0.0
 40
1.949999999992067
100
AcDbArc
 50
284.8571655449987
 51
75.14283445502645
  0
SPLINE
  5
4C7
330
473
100
AcDbEntity
  8
0
  6
Continuous
 62
     7
370
    15
100
AcDbSpline
210
0.0
220
0.0
230
1.0
 70
    24
 71
     3
 72
     8
 73
     4
 74
     0
 42
0.0000000001
 43
0.0000000001
 40
0.0000000000000028
 40
0.0000000000000028
 40
0.0000000000000028
 40
0.0000000000000028
 40
0.0012048291357172
 40
0.0012048291357172
 40
0.0012048291357172
 40
0.0012048291357172
 10
2272.571951699984
 20
973.171061131325
 30
0.0
 10
2272.571951699984
 20
973.135199679795
 30
0.0
 10
2272.571951699984
 20
973.0992815246368
 30
0.0
 10
2272.571951699984
 20
973.0632963582866
 30
0.0
  0
ARC
  5
4C8
330
473
100
AcDbEntity
  8
0
  6
Continuous
 62
     7
370
    15
100
AcDbCircle
 10
2272.071951699984
 20
971.1784886757987
 30
0.0
 40
2.054347826080867
100
AcDbArc
 50
75.91351423219285
 51
104.0864857678071
  0
SPLINE
  5
4C9
330
473
100
AcDbEntity
  8
0
  6
Continuous
 62
     7
370
    15
100
AcDbSpline
210
0.0
220
0.0
230
1.0
 70
    24
 71
     3
 72
     8
 73
     4
 74
     0
 42
0.0000000001
 43
0.0000000001
 40
0.0000000000000028
 40
0.0000000000000028
 40
0.0000000000000028
 40
0.0000000000000028
 40
0.0012048291357172
 40
0.0012048291357172
 40
0.0012048291357172
 40
0.0012048291357172
 10
2271.571951699984
 20
969.1859162202726
 30
0.0
 10
2271.571951699984
 20
969.2217776718026
 30
0.0
 10
2271.571951699984
 20
969.2576958269608
 30
0.0
 10
2271.571951699984
 20
969.2936809933108
 30
0.0
  0
SPLINE
  5
4CA
330
473
100
AcDbEntity
  8
0
  6
Continuous
 62
     7
370
    15
100
AcDbSpline
210
0.0
220
0.0
230
1.0
 70
    24
 71
     3
 72
     8
 73
     4
 74
     0
 42
0.0000000001
 43
0.0000000001
 40
0.0000000000000109
 40
0.0000000000000109
 40
0.0000000000000109
 40
0.0000000000000109
 40
0.0012048291357281
 40
0.0012048291357281
 40
0.0012048291357281
 40
0.0012048291357281
 10
2271.571951699984
 20
973.0632963582866
 30
0.0
 10
2271.571951699984
 20
973.0992815246368
 30
0.0
 10
2271.571951699984
 20
973.135199679795
 30
0.0
 10
2271.571951699984
 20
973.171061131325
 30
0.0
  0
CIRCLE
  5
4CB
330
473
100
AcDbEntity
  8
0
  6
Continuous
 62
     7
370
    15
100
AcDbCircle
 10
2263.571951699984
 20
971.1784886757987
 30
0.0
 40
2.149999999997447
  0
ARC
  5
4CC
330
473
100
AcDbEntity
  8
0
  6
Continuous
 62
     7
370
    15
100
AcDbCircle
 10
2263.571951699984
 20
971.1784886757987
 30
0.0
 40
1.949999999992067
100
AcDbArc
 50
104.8571655449735
 51
255.1428344550264
  0
ARC
  5
4CD
330
473
100
AcDbEntity
  8
0
  6
Continuous
 62
     7
370
    15
100
AcDbCircle
 10
2263.571951699984
 20
971.1784886757987
 30
0.0
 40
2.054347826080839
100
AcDbArc
 50
255.9135142321929
 51
284.0864857678071
  0
ARC
  5
4CE
330
473
100
AcDbEntity
  8
0
  6
Continuous
 62
     7
370
    15
100
AcDbCircle
 10
2263.571951699984
 20
971.1784886757987
 30
0.0
 40
1.949999999992067
100
AcDbArc
 50
284.8571655449987
 51
75.14283445502645
  0
ARC
  5
4CF
330
473
100
AcDbEntity
  8
0
  6
Continuous
 62
     7
370
    15
100
AcDbCircle
 10
2263.571951699984
 20
971.1784886757987
 30
0.0
 40
2.054347826080867
100
AcDbArc
 50
75.91351423219285
 51
104.0864857678071
  0
SPLINE
  5
4D0
330
473
100
AcDbEntity
  8
0
  6
Continuous
 62
     7
370
    15
100
AcDbSpline
210
0.0
220
0.0
230
1.0
 70
    24
 71
     3
 72
     8
 73
     4
 74
     0
 42
0.0000000001
 43
0.0000000001
 40
0.0000000000000028
 40
0.0000000000000028
 40
0.0000000000000028
 40
0.0000000000000028
 40
0.0012048291357172
 40
0.0012048291357172
 40
0.0012048291357172
 40
0.0012048291357172
 10
2263.071951699984
 20
969.1859162202726
 30
0.0
 10
2263.071951699984
 20
969.2217776718026
 30
0.0
 10
2263.071951699984
 20
969.2576958269608
 30
0.0
 10
2263.071951699984
 20
969.2936809933108
 30
0.0
  0
SPLINE
  5
4D1
330
473
100
AcDbEntity
  8
0
  6
Continuous
 62
     7
370
    15
100
AcDbSpline
210
0.0
220
0.0
230
1.0
 70
    24
 71
     3
 72
     8
 73
     4
 74
     0
 42
0.0000000001
 43
0.0000000001
 40
0.0000000000000109
 40
0.0000000000000109
 40
0.0000000000000109
 40
0.0000000000000109
 40
0.0012048291357281
 40
0.0012048291357281
 40
0.0012048291357281
 40
0.0012048291357281
 10
2263.071951699984
 20
973.0632963582866
 30
0.0
 10
2263.071951699984
 20
973.0992815246368
 30
0.0
 10
2263.071951699984
 20
973.135199679795
 30
0.0
 10
2263.071951699984
 20
973.171061131325
 30
0.0
  0
SPLINE
  5
4D2
330
473
100
AcDbEntity
  8
0
  6
Continuous
 62
     7
370
    15
100
AcDbSpline
210
0.0
220
0.0
230
1.0
 70
    24
 71
     3
 72
     8
 73
     4
 74
     0
 42
0.0000000001
 43
0.0000000001
 40
0.0000000000000109
 40
0.0000000000000109
 40
0.0000000000000109
 40
0.0000000000000109
 40
0.0012048291357281
 40
0.0012048291357281
 40
0.0012048291357281
 40
0.0012048291357281
 10
2264.071951699984
 20
969.2936809933108
 30
0.0
 10
2264.071951699984
 20
969.2576958269608
 30
0.0
 10
2264.071951699984
 20
969.2217776718026
 30
0.0
 10
2264.071951699984
 20
969.1859162202726
 30
0.0
  0
SPLINE
  5
4D3
330
473
100
AcDbEntity
  8
0
  6
Continuous
 62
     7
370
    15
100
AcDbSpline
210
0.0
220
0.0
230
1.0
 70
    24
 71
     3
 72
     8
 73
     4
 74
     0
 42
0.0000000001
 43
0.0000000001
 40
0.0000000000000028
 40
0.0000000000000028
 40
0.0000000000000028
 40
0.0000000000000028
 40
0.0012048291357172
 40
0.0012048291357172
 40
0.0012048291357172
 40
0.0012048291357172
 10
2264.071951699984
 20
973.171061131325
 30
0.0
 10
2264.071951699984
 20
973.135199679795
 30
0.0
 10
2264.071951699984
 20
973.0992815246368
 30
0.0
 10
2264.071951699984
 20
973.0632963582866
 30
0.0
  0
LINE
  5
4D4
330
473
100
AcDbEntity
  8
0
  6
Continuous
 62
     7
370
    15
100
AcDbLine
 10
2271.571951699984
 20
969.2936809933099
 30
0.0
 11
2271.571951699984
 21
973.0632963582875
 31
0.0
  0
LINE
  5
4D5
330
473
100
AcDbEntity
  8
0
  6
Continuous
 62
     7
370
    15
100
AcDbLine
 10
2272.571951699984
 20
973.0632963582875
 30
0.0
 11
2272.571951699984
 21
969.2936809933099
 31
0.0
  0
LINE
  5
4D6
330
473
100
AcDbEntity
  8
0
  6
Continuous
 62
     7
370
    15
100
AcDbLine
 10
2263.071951699984
 20
969.2936809933099
 30
0.0
 11
2263.071951699984
 21
973.0632963582875
 31
0.0
  0
LINE
  5
4D7
330
473
100
AcDbEntity
  8
0
  6
Continuous
 62
     7
370
    15
100
AcDbLine
 10
2264.071951699984
 20
973.0632963582875
 30
0.0
 11
2264.071951699984
 21
969.2936809933099
 31
0.0
  0
CIRCLE
  5
4D8
330
473
100
AcDbEntity
  8
0
  6
Continuous
 62
     7
370
    15
100
AcDbCircle
 10
2267.721951699984
 20
991.4284886757988
 30
0.0
 40
2.149999999999991
  0
CIRCLE
  5
4D9
330
473
100
AcDbEntity
  8
0
  6
Continuous
 62
     7
370
    15
100
AcDbCircle
 10
2267.721951699984
 20
977.9284886757988
 30
0.0
 40
2.149999999999991
  0
INSERT
  5
4DA
330
473
100
AcDbEntity
  8
0
  6
Continuous
 62
     7
370
     0
100
AcDbBlockReference
  2
SW_CENTERMARKSYMBOL_0
 10
2272.071951699984
 20
998.1784886757987
 30
0.0
  0
INSERT
  5
4DB
330
473
100
AcDbEntity
  8
0
  6
Continuous
 62
     7
370
     0
100
AcDbBlockReference
  2
SW_CENTERMARKSYMBOL_1
 10
2272.071951699984
 20
984.6784886757987
 30
0.0
  0
INSERT
  5
4DC
330
473
100
AcDbEntity
  8
0
  6
Continuous
 62
     7
370
     0
100
AcDbBlockReference
  2
SW_CENTERMARKSYMBOL_2
 10
2272.071951699984
 20
971.1784886757987
 30
0.0
  0
INSERT
  5
4DD
330
473
100
AcDbEntity
  8
0
  6
Continuous
 62
     7
370
     0
100
AcDbBlockReference
  2
SW_CENTERMARKSYMBOL_3
 10
2267.721951699984
 20
991.4284886757986
 30
0.0
  0
INSERT
  5
4DE
330
473
100
AcDbEntity
  8
0
  6
Continuous
 62
     7
370
     0
100
AcDbBlockReference
  2
SW_CENTERMARKSYMBOL_4
 10
2267.721951699984
 20
977.9284886757986
 30
0.0
  0
INSERT
  5
4DF
330
473
100
AcDbEntity
  8
0
  6
Continuous
 62
     7
370
     0
100
AcDbBlockReference
  2
SW_CENTERMARKSYMBOL_5
 10
2263.371951699983
 20
998.1784886757987
 30
0.0
  0
INSERT
  5
4E0
330
473
100
AcDbEntity
  8
0
  6
Continuous
 62
     7
370
     0
100
AcDbBlockReference
  2
SW_CENTERMARKSYMBOL_6
 10
2263.371951699984
 20
984.6784886757987
 30
0.0
  0
INSERT
  5
4E1
330
473
100
AcDbEntity
  8
0
  6
Continuous
 62
     7
370
     0
100
AcDbBlockReference
  2
SW_CENTERMARKSYMBOL_7
 10
2263.371951699984
 20
971.1784886757987
 30
0.0
  0
ENDBLK
  5
475
330
473
100
AcDbEntity
  8
0
100
AcDbBlockEnd
  0
BLOCK
  5
4E4
330
4E3
100
AcDbEntity
  8
0
100
AcDbBlockBegin
  2
4
 70
     0
 10
0.0
 20
0.0
 30
0.0
  3
4
  1

  0
LINE
  5
4E6
330
4E3
100
AcDbEntity
  8
0
  6
Continuous
 62
     7
370
    15
100
AcDbLine
 10
2311.604533654984
 20
1038.487817275085
 30
0.0
 11
2312.311640436171
 21
1038.896087681028
 31
0.0
  0
LINE
  5
4E7
330
4E3
100
AcDbEntity
  8
0
  6
Continuous
 62
     7
370
    15
100
AcDbLine
 10
2312.311640436171
 20
1038.896087681028
 30
0.0
 11
2327.160882841088
 21
1030.32380250689
 31
0.0
  0
LINE
  5
4E8
330
4E3
100
AcDbEntity
  8
0
  6
Continuous
 62
     7
370
    15
100
AcDbLine
 10
2327.160882841088
 20
1030.32380250689
 30
0.0
 11
2327.160882841088
 21
1029.507328045036
 31
0.0
  0
LINE
  5
4E9
330
4E3
100
AcDbEntity
  8
0
  6
Continuous
 62
     7
370
    15
100
AcDbLine
 10
2311.604533654984
 20
1038.487817275085
 30
0.0
 11
2327.160882841088
 21
1029.507328045036
 31
0.0
  0
LINE
  5
4EA
330
4E3
100
AcDbEntity
  8
0
  6
Continuous
 62
     7
370
    15
100
AcDbLine
 10
2354.738047307364
 20
1046.243760687433
 30
0.0
 11
2355.44515408855
 21
1045.83549028149
 31
0.0
  0
LINE
  5
4EB
330
4E3
100
AcDbEntity
  8
0
  6
Continuous
 62
     7
370
    15
100
AcDbLine
 10
2327.160882841088
 20
1029.507328045036
 30
0.0
 11
2355.44515408855
 21
1045.83549028149
 31
0.0
  0
LINE
  5
4EC
330
4E3
100
AcDbEntity
  8
0
  6
Continuous
 62
     7
370
    15
100
AcDbLine
 10
2327.160882841088
 20
1030.32380250689
 30
0.0
 11
2354.738047307364
 21
1046.243760687433
 31
0.0
  0
LINE
  5
4ED
330
4E3
100
AcDbEntity
  8
0
  6
Continuous
 62
     7
370
    15
100
AcDbLine
 10
2334.055173957657
 20
1024.913639065371
 30
0.0
 11
2334.055173957657
 21
1028.547245678262
 31
0.0
  0
LINE
  5
4EE
330
4E3
100
AcDbEntity
  8
0
  6
Continuous
 62
     7
370
    15
100
AcDbLine
 10
2334.055173957657
 20
1028.547245678262
 30
0.0
 11
2329.458979879944
 21
1025.893919314839
 31
0.0
  0
LINE
  5
4EF
330
4E3
100
AcDbEntity
  8
0
  6
Continuous
 62
     7
370
    15
100
AcDbLine
 10
2329.458979879944
 20
1025.893919314839
 30
0.0
 11
2329.458979879944
 21
1022.260312701947
 31
0.0
  0
LWPOLYLINE
  5
4F0
330
4E3
100
AcDbEntity
  8
0
  6
Continuous
 62
     7
370
    15
100
AcDbPolyline
 90
       31
 70
   128
 43
0.0
 10
2329.458979879944
 20
1022.260312701947
 10
2329.471569095977
 20
1021.990187093817
 10
2329.50919881399
 20
1021.737556237818
 10
2329.571456754917
 20
1021.505188010475
 10
2329.657660807732
 20
1021.295628286712
 10
2329.766866502789
 20
1021.111173046717
 10
2329.897877359643
 20
1020.953843220698
 10
2330.04925799593
 20
1020.825362547153
 10
2330.219349853719
 20
1020.727138687228
 10
2330.406289371024
 20
1020.660247802086
 10
2330.608028399373
 20
1020.625422762264
 10
2330.822356643754
 20
1020.623045118184
 10
2331.046925879071
 20
1020.653140919812
 10
2331.279275677788
 20
1020.71538043125
 10
2331.516860366889
 20
1020.809081743384
 10
2331.757076918801
 20
1020.93321824503
 10
2331.997293470712
 20
1021.0864298707
 10
2332.234878159813
 20
1021.267038001761
 10
2332.46722795853
 20
1021.473063857734
 10
2332.691797193847
 20
1021.702250176227
 10
2332.906125438229
 20
1021.952085943976
 10
2333.107864466577
 20
1022.219833908026
 10
2333.294803983882
 20
1022.502560565654
 10
2333.464895841672
 20
1022.797168304435
 10
2333.616276477958
 20
1023.100429340331
 10
2333.747287334812
 20
1023.409021081973
 10
2333.85649302987
 20
1023.719562533661
 10
2333.942697082683
 20
1024.028651338267
 10
2334.004955023611
 20
1024.332901054164
 10
2334.042584741624
 20
1024.6289782578
 10
2334.055173957657
 20
1024.913639065371
  0
LINE
  5
4F1
330
4E3
100
AcDbEntity
  8
0
  6
Continuous
 62
     7
370
    15
100
AcDbLine
 10
2343.601115503676
 20
1030.424393820174
 30
0.0
 11
2343.601115503676
 21
1034.058000433066
 31
0.0
  0
LINE
  5
4F2
330
4E3
100
AcDbEntity
  8
0
  6
Continuous
 62
     7
370
    15
100
AcDbLine
 10
2343.601115503676
 20
1034.058000433066
 30
0.0
 11
2339.004921425963
 21
1031.404674069642
 31
0.0
  0
LINE
  5
4F3
330
4E3
100
AcDbEntity
  8
0
  6
Continuous
 62
     7
370
    15
100
AcDbLine
 10
2339.004921425963
 20
1031.404674069642
 30
0.0
 11
2339.004921425963
 21
1027.77106745675
 31
0.0
  0
LWPOLYLINE
  5
4F4
330
4E3
100
AcDbEntity
  8
0
  6
Continuous
 62
     7
370
    15
100
AcDbPolyline
 90
       31
 70
   128
 43
0.0
 10
2339.004921425963
 20
1027.77106745675
 10
2339.017510641996
 20
1027.50094184862
 10
2339.055140360009
 20
1027.248310992621
 10
2339.117398300937
 20
1027.015942765278
 10
2339.20360235375
 20
1026.806383041515
 10
2339.312808048808
 20
1026.62192780152
 10
2339.443818905662
 20
1026.464597975501
 10
2339.595199541948
 20
1026.336117301957
 10
2339.765291399737
 20
1026.237893442031
 10
2339.952230917043
 20
1026.17100255689
 10
2340.153969945391
 20
1026.136177517067
 10
2340.368298189773
 20
1026.133799872987
 10
2340.592867425089
 20
1026.163895674616
 10
2340.825217223807
 20
1026.226135186053
 10
2341.062801912908
 20
1026.319836498187
 10
2341.303018464819
 20
1026.443972999834
 10
2341.543235016731
 20
1026.597184625503
 10
2341.780819705832
 20
1026.777792756564
 10
2342.013169504548
 20
1026.983818612537
 10
2342.237738739866
 20
1027.21300493103
 10
2342.452066984247
 20
1027.462840698779
 10
2342.653806012596
 20
1027.730588662829
 10
2342.8407455299
 20
1028.013315320457
 10
2343.01083738769
 20
1028.307923059238
 10
2343.162218023977
 20
1028.611184095134
 10
2343.29322888083
 20
1028.919775836776
 10
2343.402434575888
 20
1029.230317288464
 10
2343.488638628702
 20
1029.53940609307
 10
2343.55089656963
 20
1029.843655808968
 10
2343.588526287643
 20
1030.139733012603
 10
2343.601115503676
 20
1030.424393820174
  0
LINE
  5
4F5
330
4E3
100
AcDbEntity
  8
0
  6
Continuous
 62
     7
370
    15
100
AcDbLine
 10
2353.147057049694
 20
1035.935148574977
 30
0.0
 11
2353.147057049694
 21
1039.568755187869
 31
0.0
  0
LINE
  5
4F6
330
4E3
100
AcDbEntity
  8
0
  6
Continuous
 62
     7
370
    15
100
AcDbLine
 10
2353.147057049694
 20
1039.568755187869
 30
0.0
 11
2348.550862971981
 21
1036.915428824445
 31
0.0
  0
LINE
  5
4F7
330
4E3
100
AcDbEntity
  8
0
  6
Continuous
 62
     7
370
    15
100
AcDbLine
 10
2348.550862971981
 20
1036.915428824445
 30
0.0
 11
2348.550862971981
 21
1033.281822211554
 31
0.0
  0
LWPOLYLINE
  5
4F8
330
4E3
100
AcDbEntity
  8
0
  6
Continuous
 62
     7
370
    15
100
AcDbPolyline
 90
       31
 70
   128
 43
0.0
 10
2348.550862971981
 20
1033.281822211554
 10
2348.563452188014
 20
1033.011696603423
 10
2348.601081906027
 20
1032.759065747424
 10
2348.663339846954
 20
1032.526697520081
 10
2348.749543899768
 20
1032.317137796318
 10
2348.858749594826
 20
1032.132682556323
 10
2348.98976045168
 20
1031.975352730305
 10
2349.141141087967
 20
1031.84687205676
 10
2349.311232945757
 20
1031.748648196835
 10
2349.498172463061
 20
1031.681757311693
 10
2349.699911491409
 20
1031.64693227187
 10
2349.91423973579
 20
1031.64455462779
 10
2350.138808971108
 20
1031.674650429419
 10
2350.371158769826
 20
1031.736889940857
 10
2350.608743458926
 20
1031.83059125299
 10
2350.848960010837
 20
1031.954727754637
 10
2351.089176562749
 20
1032.107939380306
 10
2351.326761251849
 20
1032.288547511367
 10
2351.559111050567
 20
1032.49457336734
 10
2351.783680285884
 20
1032.723759685834
 10
2351.998008530266
 20
1032.973595453582
 10
2352.199747558614
 20
1033.241343417632
 10
2352.386687075919
 20
1033.524070075261
 10
2352.556778933708
 20
1033.818677814041
 10
2352.708159569995
 20
1034.121938849938
 10
2352.839170426849
 20
1034.430530591579
 10
2352.948376121906
 20
1034.741072043268
 10
2353.03458017472
 20
1035.050160847873
 10
2353.096838115648
 20
1035.354410563771
 10
2353.134467833661
 20
1035.650487767406
 10
2353.147057049694
 20
1035.935148574977
  0
LINE
  5
4F9
330
4E3
100
AcDbEntity
  8
0
  6
Continuous
 62
     7
370
    15
100
AcDbLine
 10
2327.160882841088
 20
1029.507328045036
 30
0.0
 11
2327.160882841088
 21
1015.217863837035
 31
0.0
  0
LINE
  5
4FA
330
4E3
100
AcDbEntity
  8
0
  6
Continuous
 62
     7
370
    15
100
AcDbLine
 10
2355.44515408855
 20
1045.83549028149
 30
0.0
 11
2355.44515408855
 21
1031.546026073489
 31
0.0
  0
LINE
  5
4FB
330
4E3
100
AcDbEntity
  8
0
  6
Continuous
 62
     7
370
    15
100
AcDbLine
 10
2355.44515408855
 20
1031.546026073489
 30
0.0
 11
2327.160882841088
 21
1015.217863837035
 31
0.0
  0
LINE
  5
4FC
330
4E3
100
AcDbEntity
  8
0
  6
Continuous
 62
     7
370
    15
100
AcDbLine
 10
2311.604533654984
 20
1024.198353067085
 30
0.0
 11
2311.604533654984
 21
1038.487817275085
 31
0.0
  0
LINE
  5
4FD
330
4E3
100
AcDbEntity
  8
0
  6
Continuous
 62
     7
370
    15
100
AcDbLine
 10
2327.160882841088
 20
1015.217863837035
 30
0.0
 11
2311.604533654984
 21
1024.198353067085
 31
0.0
  0
LWPOLYLINE
  5
4FE
330
4E3
100
AcDbEntity
  8
0
  6
Continuous
 62
     7
370
    15
100
AcDbPolyline
 90
       65
 70
   128
 43
0.0
 10
2340.772688378929
 20
1046.754015757322
 10
2340.518191139349
 20
1046.887174587772
 10
2340.242310460345
 20
1047.005291727174
 10
2339.947703223668
 20
1047.107229642906
 10
2339.637206658054
 20
1047.192006617113
 10
2339.313811015167
 20
1047.258806201192
 10
2338.980630771833
 20
1047.306985078631
 10
2338.64087463593
 20
1047.336079260503
 10
2338.297814644776
 20
1047.345808553932
 10
2337.954754653623
 20
1047.336079260503
 10
2337.61499851772
 20
1047.306985078631
 10
2337.281818274385
 20
1047.258806201192
 10
2336.958422631498
 20
1047.192006617113
 10
2336.647926065885
 20
1047.107229642906
 10
2336.353318829208
 20
1047.005291727174
 10
2336.077438150203
 20
1046.887174587772
 10
2335.822940910623
 20
1046.754015757322
 10
2335.592278058007
 20
1046.607097628153
 10
2335.387671001717
 20
1046.447835102162
 10
2335.211090219557
 20
1046.277761964536
 10
2335.064236280987
 20
1046.098516112563
 10
2334.948523469714
 20
1045.911823781782
 10
2334.865066163365
 20
1045.719482921396
 10
2334.814668101424
 20
1045.523345879033
 10
2334.797814644776
 20
1045.325301561632
 10
2334.814668101424
 20
1045.127257244231
 10
2334.865066163365
 20
1044.931120201869
 10
2334.948523469714
 20
1044.738779341482
 10
2335.064236280987
 20
1044.552087010701
 10
2335.211090219557
 20
1044.372841158728
 10
2335.387671001717
 20
1044.202768021103
 10
2335.592278058007
 20
1044.043505495112
 10
2335.822940910623
 20
1043.896587365942
 10
2336.077438150203
 20
1043.763428535492
 10
2336.353318829208
 20
1043.64531139609
 10
2336.647926065885
 20
1043.543373480359
 10
2336.958422631498
 20
1043.458596506151
 10
2337.281818274385
 20
1043.391796922072
 10
2337.61499851772
 20
1043.343618044633
 10
2337.954754653623
 20
1043.314523862761
 10
2338.297814644776
 20
1043.304794569333
 10
2338.64087463593
 20
1043.314523862761
 10
2338.980630771833
 20
1043.343618044633
 10
2339.313811015167
 20
1043.391796922072
 10
2339.637206658054
 20
1043.458596506151
 10
2339.947703223668
 20
1043.543373480359
 10
2340.242310460345
 20
1043.64531139609
 10
2340.518191139349
 20
1043.763428535492
 10
2340.772688378929
 20
1043.896587365942
 10
2341.003351231546
 20
1044.043505495112
 10
2341.207958287835
 20
1044.202768021103
 10
2341.384539069995
 20
1044.372841158728
 10
2341.531393008566
 20
1044.552087010701
 10
2341.647105819839
 20
1044.738779341482
 10
2341.730563126187
 20
1044.931120201869
 10
2341.780961188129
 20
1045.127257244231
 10
2341.797814644776
 20
1045.325301561632
 10
2341.780961188129
 20
1045.523345879033
 10
2341.730563126187
 20
1045.719482921396
 10
2341.647105819839
 20
1045.911823781782
 10
2341.531393008565
 20
1046.098516112563
 10
2341.384539069995
 20
1046.277761964536
 10
2341.207958287835
 20
1046.447835102162
 10
2341.003351231546
 20
1046.607097628153
 10
2340.772688378929
 20
1046.754015757322
  0
LWPOLYLINE
  5
4FF
330
4E3
100
AcDbEntity
  8
0
  6
Continuous
 62
     7
370
    15
100
AcDbPolyline
 90
       65
 70
   128
 43
0.0
 10
2331.226746832911
 20
1041.243261002518
 10
2330.972249593331
 20
1041.376419832969
 10
2330.696368914326
 20
1041.49453697237
 10
2330.401761677649
 20
1041.596474888102
 10
2330.091265112036
 20
1041.68125186231
 10
2329.767869469149
 20
1041.748051446389
 10
2329.434689225814
 20
1041.796230323828
 10
2329.094933089911
 20
1041.8253245057
 10
2328.751873098758
 20
1041.835053799128
 10
2328.408813107604
 20
1041.8253245057
 10
2328.069056971701
 20
1041.796230323828
 10
2327.735876728367
 20
1041.748051446389
 10
2327.41248108548
 20
1041.68125186231
 10
2327.101984519867
 20
1041.596474888102
 10
2326.807377283189
 20
1041.49453697237
 10
2326.531496604185
 20
1041.376419832969
 10
2326.276999364605
 20
1041.243261002518
 10
2326.046336511988
 20
1041.096342873349
 10
2325.841729455699
 20
1040.937080347358
 10
2325.665148673539
 20
1040.767007209733
 10
2325.518294734968
 20
1040.58776135776
 10
2325.402581923695
 20
1040.401069026979
 10
2325.319124617347
 20
1040.208728166592
 10
2325.268726555405
 20
1040.01259112423
 10
2325.251873098758
 20
1039.814546806829
 10
2325.268726555405
 20
1039.616502489428
 10
2325.319124617347
 20
1039.420365447065
 10
2325.402581923695
 20
1039.228024586679
 10
2325.518294734969
 20
1039.041332255898
 10
2325.665148673539
 20
1038.862086403925
 10
2325.841729455699
 20
1038.692013266299
 10
2326.046336511988
 20
1038.532750740308
 10
2326.276999364605
 20
1038.385832611139
 10
2326.531496604185
 20
1038.252673780689
 10
2326.80737728319
 20
1038.134556641287
 10
2327.101984519867
 20
1038.032618725555
 10
2327.41248108548
 20
1037.947841751347
 10
2327.735876728367
 20
1037.881042167269
 10
2328.069056971701
 20
1037.83286328983
 10
2328.408813107604
 20
1037.803769107958
 10
2328.751873098758
 20
1037.79403981453
 10
2329.094933089911
 20
1037.803769107958
 10
2329.434689225815
 20
1037.83286328983
 10
2329.767869469149
 20
1037.881042167269
 10
2330.091265112036
 20
1037.947841751347
 10
2330.401761677649
 20
1038.032618725555
 10
2330.696368914326
 20
1038.134556641287
 10
2330.972249593331
 20
1038.252673780689
 10
2331.226746832911
 20
1038.385832611139
 10
2331.457409685528
 20
1038.532750740308
 10
2331.662016741817
 20
1038.692013266299
 10
2331.838597523977
 20
1038.862086403925
 10
2331.985451462547
 20
1039.041332255898
 10
2332.10116427382
 20
1039.228024586679
 10
2332.184621580169
 20
1039.420365447065
 10
2332.23501964211
 20
1039.616502489428
 10
2332.251873098758
 20
1039.814546806829
 10
2332.23501964211
 20
1040.01259112423
 10
2332.184621580169
 20
1040.208728166592
 10
2332.10116427382
 20
1040.401069026979
 10
2331.985451462547
 20
1040.58776135776
 10
2331.838597523977
 20
1040.767007209733
 10
2331.662016741817
 20
1040.937080347358
 10
2331.457409685527
 20
1041.096342873349
 10
2331.226746832911
 20
1041.243261002518
  0
LWPOLYLINE
  5
500
330
4E3
100
AcDbEntity
  8
0
  6
Continuous
 62
     7
370
    15
100
AcDbPolyline
 90
       57
 70
   128
 43
0.0
 10
2341.939414567887
 20
1050.978927736004
 10
2341.709467874736
 20
1051.097556278562
 10
2341.457959130041
 20
1051.200576140533
 10
2341.188051202197
 20
1051.28669178738
 10
2340.903138340001
 20
1051.354820264879
 10
2340.606803488004
 20
1051.404104817896
 10
2340.302773228908
 20
1051.43392566458
 10
2339.994870919624
 20
1051.443907790484
 10
2339.68696861034
 20
1051.43392566458
 10
2339.382938351244
 20
1051.404104817896
 10
2339.086603499247
 20
1051.354820264879
 10
2338.80169063705
 20
1051.28669178738
 10
2338.531782709207
 20
1051.200576140533
 10
2338.280273964512
 20
1051.097556278562
 10
2338.050327271361
 20
1050.978927736004
 10
2337.844834342837
 20
1050.846182335613
 10
2337.666379371746
 20
1050.700989427819
 10
2337.517206532892
 20
1050.54517489768
 10
2337.399191761276
 20
1050.380698203319
 10
2337.313819161124
 20
1050.209627734599
 10
2337.262162342418
 20
1050.03411480192
 10
2337.244870919624
 20
1049.856366582248
 10
2337.262162342418
 20
1049.678618362576
 10
2337.313819161124
 20
1049.503105429898
 10
2337.399191761276
 20
1049.332034961177
 10
2337.517206532892
 20
1049.167558266816
 10
2337.666379371746
 20
1049.011743736677
 10
2337.844834342837
 20
1048.866550828883
 10
2338.050327271361
 20
1048.733805428492
 10
2338.280273964512
 20
1048.615176885935
 10
2338.531782709207
 20
1048.512157023963
 10
2338.80169063705
 20
1048.426041377116
 10
2339.086603499247
 20
1048.357912899617
 10
2339.382938351244
 20
1048.308628346601
 10
2339.68696861034
 20
1048.278807499916
 10
2339.994870919624
 20
1048.268825374013
 10
2340.302773228908
 20
1048.278807499916
 10
2340.606803488004
 20
1048.308628346601
 10
2340.903138340001
 20
1048.357912899617
 10
2341.188051202197
 20
1048.426041377116
 10
2341.457959130041
 20
1048.512157023963
 10
2341.709467874736
 20
1048.615176885935
 10
2341.939414567887
 20
1048.733805428492
 10
2342.144907496411
 20
1048.866550828883
 10
2342.323362467502
 20
1049.011743736677
 10
2342.472535306356
 20
1049.167558266816
 10
2342.590550077972
 20
1049.332034961177
 10
2342.675922678123
 20
1049.503105429898
 10
2342.72757949683
 20
1049.678618362576
 10
2342.744870919624
 20
1049.856366582248
 10
2342.72757949683
 20
1050.03411480192
 10
2342.675922678123
 20
1050.209627734599
 10
2342.590550077972
 20
1050.380698203319
 10
2342.472535306356
 20
1050.54517489768
 10
2342.323362467502
 20
1050.700989427819
 10
2342.144907496411
 20
1050.846182335613
 10
2341.939414567887
 20
1050.978927736004
  0
LWPOLYLINE
  5
501
330
4E3
100
AcDbEntity
  8
0
  6
Continuous
 62
     7
370
    15
100
AcDbPolyline
 90
       57
 70
   128
 43
0.0
 10
2348.09124356421
 20
1047.427552449576
 10
2347.861296871058
 20
1047.546180992133
 10
2347.609788126364
 20
1047.649200854104
 10
2347.33988019852
 20
1047.735316500951
 10
2347.054967336323
 20
1047.80344497845
 10
2346.758632484327
 20
1047.852729531467
 10
2346.454602225231
 20
1047.882550378152
 10
2346.146699915947
 20
1047.892532504055
 10
2345.838797606663
 20
1047.882550378152
 10
2345.534767347567
 20
1047.852729531467
 10
2345.23843249557
 20
1047.80344497845
 10
2344.953519633374
 20
1047.735316500951
 10
2344.68361170553
 20
1047.649200854104
 10
2344.432102960835
 20
1047.546180992133
 10
2344.202156267684
 20
1047.427552449576
 10
2343.99666333916
 20
1047.294807049184
 10
2343.818208368069
 20
1047.14961414139
 10
2343.669035529215
 20
1046.993799611252
 10
2343.551020757598
 20
1046.829322916891
 10
2343.465648157447
 20
1046.65825244817
 10
2343.41399133874
 20
1046.482739515492
 10
2343.396699915947
 20
1046.304991295819
 10
2343.41399133874
 20
1046.127243076147
 10
2343.465648157447
 20
1045.951730143469
 10
2343.551020757598
 20
1045.780659674748
 10
2343.669035529215
 20
1045.616182980387
 10
2343.818208368069
 20
1045.460368450248
 10
2343.99666333916
 20
1045.315175542454
 10
2344.202156267684
 20
1045.182430142063
 10
2344.432102960835
 20
1045.063801599506
 10
2344.68361170553
 20
1044.960781737535
 10
2344.953519633374
 20
1044.874666090687
 10
2345.23843249557
 20
1044.806537613188
 10
2345.534767347567
 20
1044.757253060172
 10
2345.838797606663
 20
1044.727432213488
 10
2346.146699915947
 20
1044.717450087584
 10
2346.454602225231
 20
1044.727432213488
 10
2346.758632484327
 20
1044.757253060172
 10
2347.054967336323
 20
1044.806537613188
 10
2347.33988019852
 20
1044.874666090687
 10
2347.609788126364
 20
1044.960781737535
 10
2347.861296871058
 20
1045.063801599506
 10
2348.09124356421
 20
1045.182430142063
 10
2348.296736492734
 20
1045.315175542454
 10
2348.475191463824
 20
1045.460368450248
 10
2348.624364302678
 20
1045.616182980387
 10
2348.742379074295
 20
1045.780659674748
 10
2348.827751674447
 20
1045.951730143469
 10
2348.879408493154
 20
1046.127243076147
 10
2348.896699915947
 20
1046.304991295819
 10
2348.879408493154
 20
1046.482739515492
 10
2348.827751674447
 20
1046.65825244817
 10
2348.742379074295
 20
1046.829322916891
 10
2348.624364302678
 20
1046.993799611252
 10
2348.475191463824
 20
1047.14961414139
 10
2348.296736492734
 20
1047.294807049184
 10
2348.09124356421
 20
1047.427552449576
  0
LWPOLYLINE
  5
502
330
4E3
100
AcDbEntity
  8
0
  6
Continuous
 62
     7
370
    15
100
AcDbPolyline
 90
       57
 70
   128
 43
0.0
 10
2332.393473021868
 20
1045.468172981201
 10
2332.163526328717
 20
1045.586801523759
 10
2331.912017584023
 20
1045.68982138573
 10
2331.642109656179
 20
1045.775937032577
 10
2331.357196793982
 20
1045.844065510076
 10
2331.060861941986
 20
1045.893350063092
 10
2330.75683168289
 20
1045.923170909777
 10
2330.448929373606
 20
1045.93315303568
 10
2330.141027064321
 20
1045.923170909777
 10
2329.836996805226
 20
1045.893350063092
 10
2329.540661953229
 20
1045.844065510076
 10
2329.255749091032
 20
1045.775937032577
 10
2328.985841163188
 20
1045.68982138573
 10
2328.734332418494
 20
1045.586801523759
 10
2328.504385725342
 20
1045.468172981201
 10
2328.298892796818
 20
1045.33542758081
 10
2328.120437825727
 20
1045.190234673016
 10
2327.971264986874
 20
1045.034420142877
 10
2327.853250215258
 20
1044.869943448516
 10
2327.767877615106
 20
1044.698872979796
 10
2327.716220796399
 20
1044.523360047117
 10
2327.698929373605
 20
1044.345611827445
 10
2327.716220796399
 20
1044.167863607772
 10
2327.767877615106
 20
1043.992350675094
 10
2327.853250215258
 20
1043.821280206374
 10
2327.971264986874
 20
1043.656803512013
 10
2328.120437825727
 20
1043.500988981874
 10
2328.298892796819
 20
1043.35579607408
 10
2328.504385725342
 20
1043.223050673689
 10
2328.734332418494
 20
1043.104422131131
 10
2328.985841163188
 20
1043.00140226916
 10
2329.255749091032
 20
1042.915286622313
 10
2329.540661953229
 20
1042.847158144814
 10
2329.836996805226
 20
1042.797873591797
 10
2330.141027064321
 20
1042.768052745113
 10
2330.448929373606
 20
1042.75807061921
 10
2330.75683168289
 20
1042.768052745113
 10
2331.060861941986
 20
1042.797873591797
 10
2331.357196793982
 20
1042.847158144814
 10
2331.642109656179
 20
1042.915286622313
 10
2331.912017584023
 20
1043.00140226916
 10
2332.163526328717
 20
1043.104422131131
 10
2332.393473021868
 20
1043.223050673689
 10
2332.598965950392
 20
1043.35579607408
 10
2332.777420921483
 20
1043.500988981874
 10
2332.926593760337
 20
1043.656803512013
 10
2333.044608531954
 20
1043.821280206374
 10
2333.129981132106
 20
1043.992350675094
 10
2333.181637950812
 20
1044.167863607772
 10
2333.198929373605
 20
1044.345611827445
 10
2333.181637950812
 20
1044.523360047117
 10
2333.129981132106
 20
1044.698872979796
 10
2333.044608531954
 20
1044.869943448516
 10
2332.926593760337
 20
1045.034420142877
 10
2332.777420921483
 20
1045.190234673016
 10
2332.598965950392
 20
1045.33542758081
 10
2332.393473021868
 20
1045.468172981201
  0
LWPOLYLINE
  5
503
330
4E3
100
AcDbEntity
  8
0
  6
Continuous
 62
     7
370
    15
100
AcDbPolyline
 90
       57
 70
   128
 43
0.0
 10
2338.545302018191
 20
1041.916797694772
 10
2338.31535532504
 20
1042.03542623733
 10
2338.063846580345
 20
1042.138446099301
 10
2337.793938652502
 20
1042.224561746148
 10
2337.509025790305
 20
1042.292690223647
 10
2337.212690938308
 20
1042.341974776664
 10
2336.908660679213
 20
1042.371795623348
 10
2336.600758369928
 20
1042.381777749251
 10
2336.292856060644
 20
1042.371795623348
 10
2335.988825801548
 20
1042.341974776664
 10
2335.692490949552
 20
1042.292690223647
 10
2335.407578087355
 20
1042.224561746148
 10
2335.137670159511
 20
1042.138446099301
 10
2334.886161414817
 20
1042.03542623733
 10
2334.656214721666
 20
1041.916797694772
 10
2334.450721793142
 20
1041.784052294381
 10
2334.272266822051
 20
1041.638859386587
 10
2334.123093983197
 20
1041.483044856448
 10
2334.00507921158
 20
1041.318568162087
 10
2333.919706611428
 20
1041.147497693367
 10
2333.868049792722
 20
1040.971984760689
 10
2333.850758369928
 20
1040.794236541016
 10
2333.868049792722
 20
1040.616488321344
 10
2333.919706611428
 20
1040.440975388666
 10
2334.00507921158
 20
1040.269904919945
 10
2334.123093983197
 20
1040.105428225584
 10
2334.272266822051
 20
1039.949613695445
 10
2334.450721793142
 20
1039.804420787651
 10
2334.656214721666
 20
1039.67167538726
 10
2334.886161414817
 20
1039.553046844702
 10
2335.137670159511
 20
1039.450026982731
 10
2335.407578087355
 20
1039.363911335884
 10
2335.692490949552
 20
1039.295782858385
 10
2335.988825801548
 20
1039.246498305369
 10
2336.292856060644
 20
1039.216677458684
 10
2336.600758369928
 20
1039.206695332781
 10
2336.908660679213
 20
1039.216677458684
 10
2337.212690938308
 20
1039.246498305369
 10
2337.509025790305
 20
1039.295782858385
 10
2337.793938652502
 20
1039.363911335884
 10
2338.063846580345
 20
1039.450026982731
 10
2338.31535532504
 20
1039.553046844702
 10
2338.545302018191
 20
1039.67167538726
 10
2338.750794946715
 20
1039.804420787651
 10
2338.929249917807
 20
1039.949613695445
 10
2339.07842275666
 20
1040.105428225584
 10
2339.196437528276
 20
1040.269904919945
 10
2339.281810128428
 20
1040.440975388666
 10
2339.333466947135
 20
1040.616488321344
 10
2339.350758369929
 20
1040.794236541016
 10
2339.333466947135
 20
1040.971984760689
 10
2339.281810128428
 20
1041.147497693367
 10
2339.196437528276
 20
1041.318568162087
 10
2339.07842275666
 20
1041.483044856448
 10
2338.929249917807
 20
1041.638859386587
 10
2338.750794946715
 20
1041.784052294381
 10
2338.545302018191
 20
1041.916797694772
  0
LWPOLYLINE
  5
504
330
4E3
100
AcDbEntity
  8
0
  6
Continuous
 62
     7
370
    15
100
AcDbPolyline
 90
       57
 70
   128
 43
0.0
 10
2322.84753147585
 20
1039.957418226398
 10
2322.617584782699
 20
1040.076046768955
 10
2322.366076038004
 20
1040.179066630926
 10
2322.09616811016
 20
1040.265182277774
 10
2321.811255247964
 20
1040.333310755272
 10
2321.514920395967
 20
1040.382595308289
 10
2321.210890136871
 20
1040.412416154974
 10
2320.902987827587
 20
1040.422398280877
 10
2320.595085518303
 20
1040.412416154974
 10
2320.291055259207
 20
1040.382595308289
 10
2319.994720407211
 20
1040.333310755272
 10
2319.709807545014
 20
1040.265182277774
 10
2319.43989961717
 20
1040.179066630926
 10
2319.188390872476
 20
1040.076046768955
 10
2318.958444179324
 20
1039.957418226398
 10
2318.7529512508
 20
1039.824672826007
 10
2318.57449627971
 20
1039.679479918213
 10
2318.425323440856
 20
1039.523665388074
 10
2318.307308669239
 20
1039.359188693713
 10
2318.221936069087
 20
1039.188118224992
 10
2318.170279250381
 20
1039.012605292314
 10
2318.152987827587
 20
1038.834857072642
 10
2318.170279250381
 20
1038.657108852969
 10
2318.221936069087
 20
1038.481595920291
 10
2318.307308669239
 20
1038.31052545157
 10
2318.425323440856
 20
1038.146048757209
 10
2318.57449627971
 20
1037.990234227071
 10
2318.7529512508
 20
1037.845041319276
 10
2318.958444179324
 20
1037.712295918885
 10
2319.188390872476
 20
1037.593667376328
 10
2319.43989961717
 20
1037.490647514357
 10
2319.709807545014
 20
1037.404531867509
 10
2319.994720407211
 20
1037.336403390011
 10
2320.291055259207
 20
1037.287118836994
 10
2320.595085518303
 20
1037.25729799031
 10
2320.902987827587
 20
1037.247315864406
 10
2321.210890136871
 20
1037.25729799031
 10
2321.514920395967
 20
1037.287118836994
 10
2321.811255247964
 20
1037.336403390011
 10
2322.09616811016
 20
1037.404531867509
 10
2322.366076038004
 20
1037.490647514357
 10
2322.617584782699
 20
1037.593667376328
 10
2322.84753147585
 20
1037.712295918885
 10
2323.053024404375
 20
1037.845041319276
 10
2323.231479375465
 20
1037.990234227071
 10
2323.380652214319
 20
1038.146048757209
 10
2323.498666985935
 20
1038.31052545157
 10
2323.584039586087
 20
1038.481595920291
 10
2323.635696404794
 20
1038.657108852969
 10
2323.652987827587
 20
1038.834857072642
 10
2323.635696404794
 20
1039.012605292314
 10
2323.584039586087
 20
1039.188118224992
 10
2323.498666985935
 20
1039.359188693713
 10
2323.380652214319
 20
1039.523665388074
 10
2323.231479375465
 20
1039.679479918213
 10
2323.053024404375
 20
1039.824672826007
 10
2322.84753147585
 20
1039.957418226398
  0
LWPOLYLINE
  5
505
330
4E3
100
AcDbEntity
  8
0
  6
Continuous
 62
     7
370
    15
100
AcDbPolyline
 90
       57
 70
   128
 43
0.0
 10
2328.999360472173
 20
1036.406042939969
 10
2328.769413779022
 20
1036.524671482526
 10
2328.517905034328
 20
1036.627691344498
 10
2328.247997106483
 20
1036.713806991345
 10
2327.963084244287
 20
1036.781935468844
 10
2327.66674939229
 20
1036.83122002186
 10
2327.362719133194
 20
1036.861040868545
 10
2327.05481682391
 20
1036.871022994448
 10
2326.746914514626
 20
1036.861040868545
 10
2326.442884255531
 20
1036.83122002186
 10
2326.146549403533
 20
1036.781935468844
 10
2325.861636541337
 20
1036.713806991345
 10
2325.591728613493
 20
1036.627691344498
 10
2325.340219868799
 20
1036.524671482526
 10
2325.110273175647
 20
1036.406042939969
 10
2324.904780247123
 20
1036.273297539578
 10
2324.726325276032
 20
1036.128104631784
 10
2324.577152437178
 20
1035.972290101645
 10
2324.459137665562
 20
1035.807813407284
 10
2324.373765065411
 20
1035.636742938564
 10
2324.322108246704
 20
1035.461230005885
 10
2324.30481682391
 20
1035.283481786213
 10
2324.322108246704
 20
1035.10573356654
 10
2324.373765065411
 20
1034.930220633862
 10
2324.459137665562
 20
1034.759150165142
 10
2324.577152437178
 20
1034.59467347078
 10
2324.726325276032
 20
1034.438858940642
 10
2324.904780247123
 20
1034.293666032848
 10
2325.110273175647
 20
1034.160920632457
 10
2325.340219868799
 20
1034.042292089899
 10
2325.591728613493
 20
1033.939272227928
 10
2325.861636541337
 20
1033.853156581081
 10
2326.146549403533
 20
1033.785028103582
 10
2326.442884255531
 20
1033.735743550565
 10
2326.746914514626
 20
1033.705922703881
 10
2327.05481682391
 20
1033.695940577977
 10
2327.362719133194
 20
1033.705922703881
 10
2327.66674939229
 20
1033.735743550565
 10
2327.963084244287
 20
1033.785028103582
 10
2328.247997106484
 20
1033.853156581081
 10
2328.517905034328
 20
1033.939272227928
 10
2328.769413779022
 20
1034.042292089899
 10
2328.999360472173
 20
1034.160920632457
 10
2329.204853400697
 20
1034.293666032848
 10
2329.383308371788
 20
1034.438858940642
 10
2329.532481210642
 20
1034.59467347078
 10
2329.650495982258
 20
1034.759150165142
 10
2329.73586858241
 20
1034.930220633862
 10
2329.787525401116
 20
1035.10573356654
 10
2329.80481682391
 20
1035.283481786213
 10
2329.787525401116
 20
1035.461230005885
 10
2329.73586858241
 20
1035.636742938564
 10
2329.650495982258
 20
1035.807813407284
 10
2329.532481210642
 20
1035.972290101645
 10
2329.383308371788
 20
1036.128104631784
 10
2329.204853400697
 20
1036.273297539578
 10
2328.999360472173
 20
1036.406042939969
  0
LINE
  5
506
330
4E3
100
AcDbEntity
  8
0
  6
Continuous
 62
     7
370
    15
100
AcDbLine
 10
2339.888804902446
 20
1054.816045861571
 30
0.0
 11
2312.311640436171
 21
1038.896087681028
 31
0.0
  0
LINE
  5
507
330
4E3
100
AcDbEntity
  8
0
  6
Continuous
 62
     7
370
    15
100
AcDbLine
 10
2354.738047307364
 20
1046.243760687433
 30
0.0
 11
2339.888804902446
 21
1054.816045861571
 31
0.0
  0
LINE
  5
508
330
4E3
100
AcDbEntity
  8
0
  6
Continuous
 62
     7
370
    15
100
AcDbLine
 10
2331.244424502441
 20
1026.352558362458
 30
0.0
 11
2331.244424502441
 21
1026.924634556015
 31
0.0
  0
ARC
  5
509
330
4E3
100
AcDbEntity
  8
0
  6
Continuous
 62
     7
370
    15
100
AcDbCircle
 10
2326.536398167006
 20
1026.584112252618
 30
0.0
 40
4.713717129738639
100
AcDbArc
 50
308.317328806892
 51
357.1843023486449
  0
LINE
  5
50A
330
4E3
100
AcDbEntity
  8
0
  6
Continuous
 62
     7
370
    15
100
AcDbLine
 10
2330.69641674702
 20
1026.036200219127
 30
0.0
 11
2330.69641674702
 21
1026.608276412683
 31
0.0
  0
ARC
  5
50B
330
4E3
100
AcDbEntity
  8
0
  6
Continuous
 62
     7
370
    15
100
AcDbCircle
 10
2327.198582348799
 20
1026.205266169171
 30
0.0
 40
3.501917870659426
100
AcDbArc
 50
310.2012364247294
 51
357.2327928145496
  0
LINE
  5
50C
330
4E3
100
AcDbEntity
  8
0
  6
Continuous
 62
     7
370
    15
100
AcDbLine
 10
2330.236797339249
 20
1026.30153285547
 30
0.0
 11
2330.236797339249
 21
1026.342943776341
 31
0.0
  0
ARC
  5
50D
330
4E3
100
AcDbEntity
  8
0
  6
Continuous
 62
     7
370
    15
100
AcDbCircle
 10
2326.78989155823
 20
1026.460244401116
 30
0.0
 40
3.450557754616618
100
AcDbArc
 50
320.6713803428723
 51
357.3636983254098
  0
ARC
  5
50E
330
4E3
100
AcDbEntity
  8
0
  6
Continuous
 62
     7
370
    15
100
AcDbCircle
 10
2328.814006110075
 20
1035.359356279857
 30
0.0
 40
4.887823116039169
100
AcDbArc
 50
60.42102567818852
 51
131.8897038190655
  0
ARC
  5
50F
330
4E3
100
AcDbEntity
  8
0
  6
Continuous
 62
     7
370
    15
100
AcDbCircle
 10
2330.05482973904
 20
1037.481955727281
 30
0.0
 40
2.429552548426185
100
AcDbArc
 50
38.60911371876377
 51
61.16039933095853
  0
LINE
  5
510
330
4E3
100
AcDbEntity
  8
0
  6
Continuous
 62
     7
370
    15
100
AcDbLine
 10
2354.738047307364
 20
1031.137755667546
 30
0.0
 11
2327.160882841088
 21
1015.217797487004
 31
0.0
  0
LINE
  5
511
330
4E3
100
AcDbEntity
  8
0
  6
Continuous
 62
     7
370
    15
100
AcDbLine
 10
2327.160882841088
 20
1015.217797487004
 30
0.0
 11
2327.160882841088
 21
1015.217863837035
 31
0.0
  0
LINE
  5
512
330
4E3
100
AcDbEntity
  8
0
  6
Continuous
 62
     7
370
    15
100
AcDbLine
 10
2354.738047307364
 20
1031.137755667546
 30
0.0
 11
2355.44515408855
 21
1031.546026073489
 31
0.0
  0
LINE
  5
513
330
4E3
100
AcDbEntity
  8
0
  6
Continuous
 62
     7
370
    15
100
AcDbLine
 10
2327.160882841088
 20
1015.217797487004
 30
0.0
 11
2312.31164043617
 21
1023.790082661142
 31
0.0
  0
LINE
  5
514
330
4E3
100
AcDbEntity
  8
0
  6
Continuous
 62
     7
370
    15
100
AcDbLine
 10
2311.604533654984
 20
1024.198353067085
 30
0.0
 11
2312.31164043617
 21
1023.790082661142
 31
0.0
  0
LINE
  5
515
330
4E3
100
AcDbEntity
  8
0
  6
Continuous
 62
     7
370
    15
100
AcDbLine
 10
2330.236797339249
 20
1026.30153285547
 30
0.0
 11
2330.69641674702
 21
1026.036200219127
 31
0.0
  0
LINE
  5
516
330
4E3
100
AcDbEntity
  8
0
  6
Continuous
 62
     7
370
    15
100
AcDbLine
 10
2331.201362841541
 20
1039.595525512446
 30
0.0
 11
2331.632410834205
 21
1038.666846805762
 31
0.0
  0
LINE
  5
517
330
4E3
100
AcDbEntity
  8
0
  6
Continuous
 62
     7
370
    15
100
AcDbLine
 10
2327.85529762659
 20
1040.113107515486
 30
0.0
 11
2331.201362841541
 21
1039.595525512446
 31
0.0
  0
LINE
  5
518
330
4E3
100
AcDbEntity
  8
0
  6
Continuous
 62
     7
370
    15
100
AcDbLine
 10
2325.673219419289
 20
1038.853420579601
 30
0.0
 11
2327.85529762659
 21
1040.113107515486
 31
0.0
  0
LINE
  5
519
330
4E3
100
AcDbEntity
  8
0
  6
Continuous
 62
     7
370
    15
100
AcDbLine
 10
2331.201362841541
 20
1039.595525512446
 30
0.0
 11
2331.201362841541
 21
1038.371327526615
 31
0.0
  0
LINE
  5
51A
330
4E3
100
AcDbEntity
  8
0
  6
Continuous
 62
     7
370
    15
100
AcDbLine
 10
2327.85529762659
 20
1040.113107515486
 30
0.0
 11
2327.85529762659
 21
1037.861457618886
 31
0.0
  0
LINE
  5
51B
330
4E3
100
AcDbEntity
  8
0
  6
Continuous
 62
     7
370
    15
100
AcDbLine
 10
2340.790366048459
 20
1031.863313117262
 30
0.0
 11
2340.790366048459
 21
1032.435389310818
 31
0.0
  0
ARC
  5
51C
330
4E3
100
AcDbEntity
  8
0
  6
Continuous
 62
     7
370
    15
100
AcDbCircle
 10
2336.082339713025
 20
1032.094867007421
 30
0.0
 40
4.71371712973852
100
AcDbArc
 50
308.317328806892
 51
357.1843023486449
  0
LINE
  5
51D
330
4E3
100
AcDbEntity
  8
0
  6
Continuous
 62
     7
370
    15
100
AcDbLine
 10
2340.242358293039
 20
1031.54695497393
 30
0.0
 11
2340.242358293039
 21
1032.119031167487
 31
0.0
  0
ARC
  5
51E
330
4E3
100
AcDbEntity
  8
0
  6
Continuous
 62
     7
370
    15
100
AcDbCircle
 10
2336.744523894818
 20
1031.716020923974
 30
0.0
 40
3.501917870659544
100
AcDbArc
 50
310.2012364247294
 51
357.2327928145496
  0
LINE
  5
51F
330
4E3
100
AcDbEntity
  8
0
  6
Continuous
 62
     7
370
    15
100
AcDbLine
 10
2339.782738885268
 20
1031.812287610273
 30
0.0
 11
2339.782738885268
 21
1031.853698531144
 31
0.0
  0
ARC
  5
520
330
4E3
100
AcDbEntity
  8
0
  6
Continuous
 62
     7
370
    15
100
AcDbCircle
 10
2336.335833104249
 20
1031.97099915592
 30
0.0
 40
3.45055775461627
100
AcDbArc
 50
320.6713803428723
 51
357.3636983254163
  0
ARC
  5
521
330
4E3
100
AcDbEntity
  8
0
  6
Continuous
 62
     7
370
    15
100
AcDbCircle
 10
2338.359947656094
 20
1040.87011103466
 30
0.0
 40
4.88782311603919
100
AcDbArc
 50
60.42102567818852
 51
131.8897038190655
  0
ARC
  5
522
330
4E3
100
AcDbEntity
  8
0
  6
Continuous
 62
     7
370
    15
100
AcDbCircle
 10
2339.600771285058
 20
1042.992710482084
 30
0.0
 40
2.429552548426637
100
AcDbArc
 50
38.60911371876888
 51
61.16039933095853
  0
LINE
  5
523
330
4E3
100
AcDbEntity
  8
0
  6
Continuous
 62
     7
370
    15
100
AcDbLine
 10
2339.782738885268
 20
1031.812287610273
 30
0.0
 11
2340.242358293039
 21
1031.54695497393
 31
0.0
  0
LINE
  5
524
330
4E3
100
AcDbEntity
  8
0
  6
Continuous
 62
     7
370
    15
100
AcDbLine
 10
2340.747304387559
 20
1045.106280267249
 30
0.0
 11
2341.178352380223
 21
1044.177601560565
 31
0.0
  0
LINE
  5
525
330
4E3
100
AcDbEntity
  8
0
  6
Continuous
 62
     7
370
    15
100
AcDbLine
 10
2337.401239172608
 20
1045.623862270289
 30
0.0
 11
2340.747304387559
 21
1045.106280267249
 31
0.0
  0
LINE
  5
526
330
4E3
100
AcDbEntity
  8
0
  6
Continuous
 62
     7
370
    15
100
AcDbLine
 10
2335.219160965307
 20
1044.364175334404
 30
0.0
 11
2337.401239172608
 21
1045.623862270289
 31
0.0
  0
LINE
  5
527
330
4E3
100
AcDbEntity
  8
0
  6
Continuous
 62
     7
370
    15
100
AcDbLine
 10
2340.747304387559
 20
1045.106280267249
 30
0.0
 11
2340.747304387559
 21
1043.882082281418
 31
0.0
  0
LINE
  5
528
330
4E3
100
AcDbEntity
  8
0
  6
Continuous
 62
     7
370
    15
100
AcDbLine
 10
2337.401239172608
 20
1045.623862270289
 30
0.0
 11
2337.401239172608
 21
1043.372212373689
 31
0.0
  0
LINE
  5
529
330
4E3
100
AcDbEntity
  8
0
  6
Continuous
 62
     7
370
    15
100
AcDbLine
 10
2350.336307594477
 20
1037.374067872065
 30
0.0
 11
2350.336307594477
 21
1037.946144065621
 31
0.0
  0
ARC
  5
52A
330
4E3
100
AcDbEntity
  8
0
  6
Continuous
 62
     7
370
    15
100
AcDbCircle
 10
2345.628281259043
 20
1037.605621762224
 30
0.0
 40
4.71371712973852
100
AcDbArc
 50
308.317328806892
 51
357.1843023486449
  0
LINE
  5
52B
330
4E3
100
AcDbEntity
  8
0
  6
Continuous
 62
     7
370
    15
100
AcDbLine
 10
2349.788299839057
 20
1037.057709728734
 30
0.0
 11
2349.788299839057
 21
1037.62978592229
 31
0.0
  0
ARC
  5
52C
330
4E3
100
AcDbEntity
  8
0
  6
Continuous
 62
     7
370
    15
100
AcDbCircle
 10
2346.290465440837
 20
1037.226775678778
 30
0.0
 40
3.501917870659107
100
AcDbArc
 50
310.2012364247294
 51
357.2327928145561
  0
LINE
  5
52D
330
4E3
100
AcDbEntity
  8
0
  6
Continuous
 62
     7
370
    15
100
AcDbLine
 10
2349.328680431286
 20
1037.323042365076
 30
0.0
 11
2349.328680431286
 21
1037.364453285948
 31
0.0
  0
ARC
  5
52E
330
4E3
100
AcDbEntity
  8
0
  6
Continuous
 62
     7
370
    15
100
AcDbCircle
 10
2345.881774650267
 20
1037.481753910723
 30
0.0
 40
3.450557754616387
100
AcDbArc
 50
320.6713803428723
 51
357.3636983254098
  0
LINE
  5
52F
330
4E3
100
AcDbEntity
  8
0
  6
Continuous
 62
     7
370
    15
100
AcDbLine
 10
2349.328680431286
 20
1037.323042365076
 30
0.0
 11
2349.788299839057
 21
1037.057709728734
 31
0.0
  0
LINE
  5
530
330
4E3
100
AcDbEntity
  8
0
  6
Continuous
 62
     8
370
    15
100
AcDbLine
 10
2334.055173957657
 20
1024.913639065371
 30
0.0
 11
2331.244424502441
 21
1026.536250187618
 31
0.0
  0
LINE
  5
531
330
4E3
100
AcDbEntity
  8
0
  6
Continuous
 62
     8
370
    15
100
AcDbLine
 10
2343.601115503676
 20
1030.424393820174
 30
0.0
 11
2340.790366048459
 21
1032.047004942422
 31
0.0
  0
LINE
  5
532
330
4E3
100
AcDbEntity
  8
0
  6
Continuous
 62
     8
370
    15
100
AcDbLine
 10
2353.147057049694
 20
1035.935148574977
 30
0.0
 11
2350.336307594477
 21
1037.557759697225
 31
0.0
  0
ENDBLK
  5
4E5
330
4E3
100
AcDbEntity
  8
0
100
AcDbBlockEnd
  0
ENDSEC
  0
SECTION
  2
ENTITIES
  0
INSERT
  5
428
330
1F
100
AcDbEntity
  8
0
100
AcDbBlockReference
  2
1
 10
0.0
 20
0.0
 30
0.0
  0
INSERT
  5
472
330
1F
100
AcDbEntity
  8
0
100
AcDbBlockReference
  2
2
 10
0.0
 20
0.0
 30
0.0
  0
INSERT
  5
4E2
330
1F
100
AcDbEntity
  8
0
100
AcDbBlockReference
  2
3
 10
0.0
 20
0.0
 30
0.0
  0
INSERT
  5
533
330
1F
100
AcDbEntity
  8
0
100
AcDbBlockReference
  2
4
 10
0.0
 20
0.0
 30
0.0
  0
ENDSEC
  0
SECTION
  2
OBJECTS
  0
DICTIONARY
  5
C
330
0
100
AcDbDictionary
281
     1
  3
ACAD_COLOR
350
6B
  3
ACAD_GROUP
350
D
  3
ACAD_LAYOUT
350
1A
  3
ACAD_MATERIAL
350
6A
  3
ACAD_MLEADERSTYLE
350
12D
  3
ACAD_MLINESTYLE
350
17
  3
ACAD_PLOTSETTINGS
350
19
  3
ACAD_PLOTSTYLENAME
350
E
  3
ACAD_SCALELIST
350
10C
  3
ACAD_TABLESTYLE
350
7E
  3
ACAD_VISUALSTYLE
350
EF
  3
ACDB_RECOMPOSE_DATA
350
15D
  3
AcDbVariableDictionary
350
5E
  3
DWGPROPS
350
541
  0
DICTIONARY
  5
13C
330
10
100
AcDbDictionary
280
     1
281
     1
  3
ADSK_XREC_LAYER_RECONCILED
360
534
  0
DICTIONARY
  5
6B
102
{ACAD_REACTORS
330
C
102
}
330
C
100
AcDbDictionary
281
     1
  0
DICTIONARY
  5
D
102
{ACAD_REACTORS
330
C
102
}
330
C
100
AcDbDictionary
281
     1
  0
DICTIONARY
  5
1A
102
{ACAD_REACTORS
330
C
102
}
330
C
100
AcDbDictionary
281
     1
  3
Layout1
350
D3
  3
Layout2
350
D7
  3
Model
350
22
  0
DICTIONARY
  5
6A
102
{ACAD_REACTORS
330
C
102
}
330
C
100
AcDbDictionary
281
     1
  3
ByBlock
350
ED
  3
ByLayer
350
EC
  3
Global
350
EE
  0
DICTIONARY
  5
12D
102
{ACAD_REACTORS
330
C
102
}
330
C
100
AcDbDictionary
281
     1
  3
Annotative
350
13B
  3
Standard
350
12E
  0
DICTIONARY
  5
17
102
{ACAD_REACTORS
330
C
102
}
330
C
100
AcDbDictionary
281
     1
  3
Standard
350
18
  0
DICTIONARY
  5
19
102
{ACAD_REACTORS
330
C
102
}
330
C
100
AcDbDictionary
281
     1
  0
ACDBDICTIONARYWDFLT
  5
E
102
{ACAD_REACTORS
330
C
102
}
330
C
100
AcDbDictionary
281
     1
  3
Normal
350
F
100
AcDbDictionaryWithDefault
340
F
  0
DICTIONARY
  5
10C
102
{ACAD_REACTORS
330
C
102
}
330
C
100
AcDbDictionary
281
     1
  3
A0
350
10D
  3
A1
350
188
  3
A2
350
189
  3
A3
350
18A
  3
A4
350
18B
  3
A5
350
18C
  3
A6
350
18D
  3
A7
350
18E
  3
A8
350
18F
  3
A9
350
190
  3
B0
350
191
  3
B1
350
192
  3
B2
350
193
  3
B3
350
194
  3
B4
350
195
  3
B5
350
196
  3
B6
350
197
  3
B7
350
198
  3
B8
350
199
  3
B9
350
19A
  3
C0
350
19B
  3
C1
350
19C
  3
C2
350
19D
  3
C3
350
19E
  3
C4
350
19F
  3
C5
350
1A0
  3
C6
350
1A1
  3
C7
350
1A2
  3
C8
350
1A3
  3
C9
350
1A4
  3
D0
350
1A5
  3
D1
350
1A6
  3
D2
350
1A7
  0
DICTIONARY
  5
7E
102
{ACAD_REACTORS
330
C
102
}
330
C
100
AcDbDictionary
281
     1
  3
Standard
350
7F
  0
DICTIONARY
  5
EF
102
{ACAD_REACTORS
330
C
102
}
330
C
100
AcDbDictionary
281
     1
  3
2dWireframe
350
F5
  3
3D Hidden
350
F7
  3
3dWireframe
350
F6
  3
Basic
350
F4
  3
Brighten
350
FB
  3
ColorChange
350
FF
  3
Conceptual
350
F8
  3
Dim
350
FA
  3
Facepattern
350
FE
  3
Flat
350
F0
  3
FlatWithEdges
350
F1
  3
Gouraud
350
F2
  3
GouraudWithEdges
350
F3
  3
Linepattern
350
FD
  3
Realistic
350
F9
  3
Thicken
350
FC
  0
XRECORD
  5
15D
102
{ACAD_REACTORS
330
C
102
}
330
C
100
AcDbXrecord
280
     1
 90
        1
330
7F
  0
DICTIONARY
  5
5E
102
{ACAD_REACTORS
330
C
102
}
330
C
100
AcDbDictionary
281
     1
  3
CANNOSCALE
350
146
  3
CMLEADERSTYLE
350
145
  3
CTABLESTYLE
350
84
  3
DIMASSOC
350
5F
  3
HIDETEXT
350
63
  3
INDEXCTL
350
53D
  3
LIGHTINGUNITS
350
53B
  3
MSLTSCALE
350
53A
  3
PSOLHEIGHT
350
53F
  3
PSOLWIDTH
350
53E
  3
SORTENTS
350
53C
  0
XRECORD
  5
541
102
{ACAD_REACTORS
330
C
102
}
330
C
100
AcDbXrecord
280
     1
  1
DWGPROPS COOKIE
  2

  3

  4

  6

  7

  8
orhan kara
  9

300
=
301
=
302
=
303
=
304
=
305
=
306
=
307
=
308
=
309
=
 40
0.0018829398148148
 41
2459083.585084607
 42
2459083.677797246
  1

 90
        0
  0
XRECORD
  5
534
102
{ACAD_REACTORS
330
13C
102
}
330
13C
100
AcDbXrecord
280
     1
290
     1
  0
LAYOUT
  5
D3
102
{ACAD_XDICTIONARY
360
545
102
}
102
{ACAD_REACTORS
330
1A
102
}
330
1A
100
AcDbPlotSettings
  1

  2
C:\Documents and Settings\basas\Application Data\Autodesk\AutoCAD 2005\R16.1\enu\plotters\Default Windows System Printer.pc3
  4

  6

 40
0.0
 41
0.0
 42
0.0
 43
0.0
 44
0.0
 45
0.0
 46
0.0
 47
0.0
 48
0.0
 49
0.0
140
0.0
141
0.0
142
1.0
143
1.0
 70
   688
 72
     0
 73
     0
 74
     5
  7

 75
    16
147
1.0
148
0.0
149
0.0
100
AcDbLayout
  1
Layout1
 70
     1
 71
     1
 10
0.0
 20
0.0
 11
12.0
 21
9.0
 12
0.0
 22
0.0
 32
0.0
 14
0.0
 24
0.0
 34
0.0
 15
0.0
 25
0.0
 35
0.0
146
0.0
 13
0.0
 23
0.0
 33
0.0
 16
1.0
 26
0.0
 36
0.0
 17
0.0
 27
1.0
 37
0.0
 76
     0
330
D2
  0
LAYOUT
  5
D7
102
{ACAD_XDICTIONARY
360
547
102
}
102
{ACAD_REACTORS
330
1A
102
}
330
1A
100
AcDbPlotSettings
  1

  2
C:\Documents and Settings\basas\Application Data\Autodesk\AutoCAD 2005\R16.1\enu\plotters\Default Windows System Printer.pc3
  4

  6

 40
0.0
 41
0.0
 42
0.0
 43
0.0
 44
0.0
 45
0.0
 46
0.0
 47
0.0
 48
0.0
 49
0.0
140
0.0
141
0.0
142
1.0
143
1.0
 70
   688
 72
     0
 73
     0
 74
     5
  7

 75
    16
147
1.0
148
0.0
149
0.0
100
AcDbLayout
  1
Layout2
 70
     1
 71
     2
 10
0.0
 20
0.0
 11
12.0
 21
9.0
 12
0.0
 22
0.0
 32
0.0
 14
0.0
 24
0.0
 34
0.0
 15
0.0
 25
0.0
 35
0.0
146
0.0
 13
0.0
 23
0.0
 33
0.0
 16
1.0
 26
0.0
 36
0.0
 17
0.0
 27
1.0
 37
0.0
 76
     0
330
D6
  0
LAYOUT
  5
22
102
{ACAD_XDICTIONARY
360
542
102
}
102
{ACAD_REACTORS
330
1A
102
}
330
1A
100
AcDbPlotSettings
  1

  2
none_device
  4
ISO_A4_(210.00_x_297.00_MM)
  6

 40
7.5
 41
20.0
 42
7.5
 43
20.0
 44
210.0
 45
297.0
 46
11.54999923706054
 47
-13.65000009536743
 48
0.0
 49
0.0
140
0.0
141
0.0
142
1.0
143
8.704084754739808
 70
 11952
 72
     1
 73
     0
 74
     0
  7

 75
     0
147
0.1148885871608098
148
0.0
149
0.0
100
AcDbLayout
  1
Model
 70
     1
 71
     0
 10
0.0
 20
0.0
 11
12.0
 21
9.0
 12
0.0
 22
0.0
 32
0.0
 14
0.0
 24
0.0
 34
0.0
 15
0.0
 25
0.0
 35
0.0
146
0.0
 13
0.0
 23
0.0
 33
0.0
 16
1.0
 26
0.0
 36
0.0
 17
0.0
 27
1.0
 37
0.0
 76
     0
330
1F
331
EA
1001
ACAD_PSEXT
1000
None
1000
None
1000
Not applicable
1000
The layout will not be plotted unless a new plotter configuration name is selected.
1070
     0
  0
MATERIAL
  5
ED
102
{ACAD_XDICTIONARY
360
54B
102
}
102
{ACAD_REACTORS
330
6A
102
}
330
6A
100
AcDbMaterial
  1
ByBlock
  0
MATERIAL
  5
EC
102
{ACAD_XDICTIONARY
360
549
102
}
102
{ACAD_REACTORS
330
6A
102
}
330
6A
100
AcDbMaterial
  1
ByLayer
  0
MATERIAL
  5
EE
102
{ACAD_XDICTIONARY
360
173
102
}
102
{ACAD_REACTORS
330
6A
102
}
330
6A
100
AcDbMaterial
  1
Global
 43
0.0007999999797903
 43
0.0
 43
0.0
 43
0.0
 43
0.0
 43
0.0007999999797903
 43
0.0
 43
0.0
 43
0.0
 43
0.0
 43
1.0
 43
0.0
 43
0.0
 43
0.0
 43
0.0
 43
1.0
 49
0.0007999999797903
 49
0.0
 49
0.0
 49
0.0
 49
0.0
 49
0.0007999999797903
 49
0.0
 49
0.0
 49
0.0
 49
0.0
 49
1.0
 49
0.0
 49
0.0
 49
0.0
 49
0.0
 49
1.0
142
0.0007999999797903
142
0.0
142
0.0
142
0.0
142
0.0
142
0.0007999999797903
142
0.0
142
0.0
142
0.0
142
0.0
142
1.0
142
0.0
142
0.0
142
0.0
142
0.0
142
1.0
144
0.0007999999797903
144
0.0
144
0.0
144
0.0
144
0.0
144
0.0007999999797903
144
0.0
144
0.0
144
0.0
144
0.0
144
1.0
144
0.0
144
0.0
144
0.0
144
0.0
144
1.0
1001
ACAD
1070
    -1
1070
     3
1070
     0
1000

1071
        0
1070
     0
  0
MLEADERSTYLE
  5
13B
102
{ACAD_REACTORS
330
12D
102
}
330
12D
100
AcDbMLeaderStyle
170
     2
171
     1
172
     0
 90
        2
 40
0.0
 41
0.0
173
     1
 91
-1056964608
340
14
 92
       -2
290
     1
 42
2.0
291
     1
 43
8.0
  3
Standard
 44
4.0
300

342
11
174
     1
178
     1
175
     1
176
     0
 93
-1056964608
 45
4.0
292
     0
297
     0
 46
4.0
 94
-1056964608
 47
1.0
 49
1.0
140
1.0
293
     1
141
0.0
294
     1
177
     0
142
1.0
295
     0
296
     1
143
3.75
1001
ACAD_MLEADERVER
1070
     2
  0
MLEADERSTYLE
  5
12E
102
{ACAD_REACTORS
330
12D
102
}
330
12D
100
AcDbMLeaderStyle
170
     2
171
     1
172
     0
 90
        2
 40
0.0
 41
0.0
173
     1
 91
-1056964608
340
14
 92
       -2
290
     1
 42
2.0
291
     1
 43
8.0
  3
Standard
 44
4.0
300

342
11
174
     1
178
     1
175
     1
176
     0
 93
-1056964608
 45
4.0
292
     0
297
     0
 46
4.0
 94
-1056964608
 47
1.0
 49
1.0
140
1.0
293
     1
141
0.0
294
     1
177
     0
142
1.0
295
     0
296
     0
143
3.75
1001
ACAD_MLEADERVER
1070
     2
  0
MLINESTYLE
  5
18
102
{ACAD_REACTORS
330
17
102
}
330
17
100
AcDbMlineStyle
  2
STANDARD
 70
     0
  3

 62
   256
 51
90.0
 52
90.0
 71
     2
 49
0.5
 62
   256
  6
BYLAYER
 49
-0.5
 62
   256
  6
BYLAYER
  0
ACDBPLACEHOLDER
  5
F
102
{ACAD_REACTORS
330
E
102
}
330
E
  0
SCALE
  5
10D
102
{ACAD_REACTORS
330
10C
102
}
330
10C
100
AcDbScale
 70
     0
300
1:1
140
1.0
141
1.0
290
     1
  0
SCALE
  5
188
102
{ACAD_REACTORS
330
10C
102
}
330
10C
100
AcDbScale
 70
     0
300
1:2
140
1.0
141
2.0
290
     0
  0
SCALE
  5
189
102
{ACAD_REACTORS
330
10C
102
}
330
10C
100
AcDbScale
 70
     0
300
1:4
140
1.0
141
4.0
290
     0
  0
SCALE
  5
18A
102
{ACAD_REACTORS
330
10C
102
}
330
10C
100
AcDbScale
 70
     0
300
1:5
140
1.0
141
5.0
290
     0
  0
SCALE
  5
18B
102
{ACAD_REACTORS
330
10C
102
}
330
10C
100
AcDbScale
 70
     0
300
1:8
140
1.0
141
8.0
290
     0
  0
SCALE
  5
18C
102
{ACAD_REACTORS
330
10C
102
}
330
10C
100
AcDbScale
 70
     0
300
1:10
140
1.0
141
10.0
290
     0
  0
SCALE
  5
18D
102
{ACAD_REACTORS
330
10C
102
}
330
10C
100
AcDbScale
 70
     0
300
1:16
140
1.0
141
16.0
290
     0
  0
SCALE
  5
18E
102
{ACAD_REACTORS
330
10C
102
}
330
10C
100
AcDbScale
 70
     0
300
1:20
140
1.0
141
20.0
290
     0
  0
SCALE
  5
18F
102
{ACAD_REACTORS
330
10C
102
}
330
10C
100
AcDbScale
 70
     0
300
1:30
140
1.0
141
30.0
290
     0
  0
SCALE
  5
190
102
{ACAD_REACTORS
330
10C
102
}
330
10C
100
AcDbScale
 70
     0
300
1:40
140
1.0
141
40.0
290
     0
  0
SCALE
  5
191
102
{ACAD_REACTORS
330
10C
102
}
330
10C
100
AcDbScale
 70
     0
300
1:50
140
1.0
141
50.0
290
     0
  0
SCALE
  5
192
102
{ACAD_REACTORS
330
10C
102
}
330
10C
100
AcDbScale
 70
     0
300
1:100
140
1.0
141
100.0
290
     0
  0
SCALE
  5
193
102
{ACAD_REACTORS
330
10C
102
}
330
10C
100
AcDbScale
 70
     0
300
2:1
140
2.0
141
1.0
290
     0
  0
SCALE
  5
194
102
{ACAD_REACTORS
330
10C
102
}
330
10C
100
AcDbScale
 70
     0
300
4:1
140
4.0
141
1.0
290
     0
  0
SCALE
  5
195
102
{ACAD_REACTORS
330
10C
102
}
330
10C
100
AcDbScale
 70
     0
300
8:1
140
8.0
141
1.0
290
     0
  0
SCALE
  5
196
102
{ACAD_REACTORS
330
10C
102
}
330
10C
100
AcDbScale
 70
     0
300
10:1
140
10.0
141
1.0
290
     0
  0
SCALE
  5
197
102
{ACAD_REACTORS
330
10C
102
}
330
10C
100
AcDbScale
 70
     0
300
100:1
140
100.0
141
1.0
290
     0
  0
SCALE
  5
198
102
{ACAD_REACTORS
330
10C
102
}
330
10C
100
AcDbScale
 70
     0
300
1/128" = 1'-0"
140
0.0078125
141
12.0
290
     0
  0
SCALE
  5
199
102
{ACAD_REACTORS
330
10C
102
}
330
10C
100
AcDbScale
 70
     0
300
1/64" = 1'-0"
140
0.015625
141
12.0
290
     0
  0
SCALE
  5
19A
102
{ACAD_REACTORS
330
10C
102
}
330
10C
100
AcDbScale
 70
     0
300
1/32" = 1'-0"
140
0.03125
141
12.0
290
     0
  0
SCALE
  5
19B
102
{ACAD_REACTORS
330
10C
102
}
330
10C
100
AcDbScale
 70
     0
300
1/16" = 1'-0"
140
0.0625
141
12.0
290
     0
  0
SCALE
  5
19C
102
{ACAD_REACTORS
330
10C
102
}
330
10C
100
AcDbScale
 70
     0
300
3/32" = 1'-0"
140
0.09375
141
12.0
290
     0
  0
SCALE
  5
19D
102
{ACAD_REACTORS
330
10C
102
}
330
10C
100
AcDbScale
 70
     0
300
1/8" = 1'-0"
140
0.125
141
12.0
290
     0
  0
SCALE
  5
19E
102
{ACAD_REACTORS
330
10C
102
}
330
10C
100
AcDbScale
 70
     0
300
3/16" = 1'-0"
140
0.1875
141
12.0
290
     0
  0
SCALE
  5
19F
102
{ACAD_REACTORS
330
10C
102
}
330
10C
100
AcDbScale
 70
     0
300
1/4" = 1'-0"
140
0.25
141
12.0
290
     0
  0
SCALE
  5
1A0
102
{ACAD_REACTORS
330
10C
102
}
330
10C
100
AcDbScale
 70
     0
300
3/8" = 1'-0"
140
0.375
141
12.0
290
     0
  0
SCALE
  5
1A1
102
{ACAD_REACTORS
330
10C
102
}
330
10C
100
AcDbScale
 70
     0
300
1/2" = 1'-0"
140
0.5
141
12.0
290
     0
  0
SCALE
  5
1A2
102
{ACAD_REACTORS
330
10C
102
}
330
10C
100
AcDbScale
 70
     0
300
3/4" = 1'-0"
140
0.75
141
12.0
290
     0
  0
SCALE
  5
1A3
102
{ACAD_REACTORS
330
10C
102
}
330
10C
100
AcDbScale
 70
     0
300
1" = 1'-0"
140
1.0
141
12.0
290
     0
  0
SCALE
  5
1A4
102
{ACAD_REACTORS
330
10C
102
}
330
10C
100
AcDbScale
 70
     0
300
1-1/2" = 1'-0"
140
1.5
141
12.0
290
     0
  0
SCALE
  5
1A5
102
{ACAD_REACTORS
330
10C
102
}
330
10C
100
AcDbScale
 70
     0
300
3" = 1'-0"
140
3.0
141
12.0
290
     0
  0
SCALE
  5
1A6
102
{ACAD_REACTORS
330
10C
102
}
330
10C
100
AcDbScale
 70
     0
300
6" = 1'-0"
140
6.0
141
12.0
290
     0
  0
SCALE
  5
1A7
102
{ACAD_REACTORS
330
10C
102
}
330
10C
100
AcDbScale
 70
     0
300
1'-0" = 1'-0"
140
12.0
141
12.0
290
     0
  0
TABLESTYLE
  5
7F
102
{ACAD_XDICTIONARY
360
162
102
}
102
{ACAD_REACTORS
330
7E
102
}
330
7E
100
AcDbTableStyle
  3
Standard
 70
     0
 71
     0
 40
1.5
 41
1.5
280
     0
281
     0
  7
Standard
140
4.5
170
     2
 62
     0
 63
     7
283
     0
274
    -2
284
     1
 64
     0
275
    -2
285
     1
 65
     0
276
    -2
286
     1
 66
     0
277
    -2
287
     1
 67
     0
278
    -2
288
     1
 68
     0
279
    -2
289
     1
 69
     0
  7
Standard
140
6.0
170
     5
 62
     0
 63
     7
283
     0
274
    -2
284
     1
 64
     0
275
    -2
285
     1
 65
     0
276
    -2
286
     1
 66
     0
277
    -2
287
     1
 67
     0
278
    -2
288
     1
 68
     0
279
    -2
289
     1
 69
     0
  7
Standard
140
4.5
170
     5
 62
     0
 63
     7
283
     0
274
    -2
284
     1
 64
     0
275
    -2
285
     1
 65
     0
276
    -2
286
     1
 66
     0
277
    -2
287
     1
 67
     0
278
    -2
288
     1
 68
     0
279
    -2
289
     1
 69
     0
  0
VISUALSTYLE
  5
F5
102
{ACAD_REACTORS
330
EF
102
}
330
EF
100
AcDbVisualStyle
  2
2dWireframe
 70
     4
 71
     0
 72
     2
 73
     1
 90
        0
 40
-0.6
 41
-30.0
 62
     5
 63
     7
 74
     1
 91
        4
 64
     7
 65
   257
 75
     1
175
     1
 42
1.0
 92
        0
 66
   257
 43
1.0
 76
     1
 77
     6
 78
     2
 67
     7
 79
     5
170
     0
171
     0
290
     0
174
     0
 93
        1
 44
0.0
173
     0
291
     0
 45
0.0
1001
ACAD
1000
AcDbSavedByObjectVersion
1070
     0
  0
VISUALSTYLE
  5
F7
102
{ACAD_REACTORS
330
EF
102
}
330
EF
100
AcDbVisualStyle
  2
3D Hidden
 70
     6
 71
     1
 72
     2
 73
     2
 90
        0
 40
-0.6
 41
-30.0
 62
     5
 63
     7
 74
     2
 91
        2
 64
     7
 65
   257
 75
     2
175
     1
 42
40.0
 92
        0
 66
   257
 43
1.0
 76
     1
 77
     6
 78
     2
 67
     7
 79
     3
170
     0
171
     0
290
     0
174
     0
 93
        1
 44
0.0
173
     0
291
     0
 45
0.0
1001
ACAD
1000
AcDbSavedByObjectVersion
1070
     0
  0
VISUALSTYLE
  5
F6
102
{ACAD_REACTORS
330
EF
102
}
330
EF
100
AcDbVisualStyle
  2
3dWireframe
 70
     5
 71
     0
 72
     2
 73
     1
 90
        0
 40
-0.6
 41
-30.0
 62
     5
 63
     7
 74
     1
 91
        4
 64
     7
 65
   257
 75
     1
175
     1
 42
1.0
 92
        0
 66
   257
 43
1.0
 76
     1
 77
     6
 78
     2
 67
     7
 79
     5
170
     0
171
     0
290
     0
174
     0
 93
        1
 44
0.0
173
     0
291
     0
 45
0.0
1001
ACAD
1000
AcDbSavedByObjectVersion
1070
     0
  0
VISUALSTYLE
  5
F4
102
{ACAD_REACTORS
330
EF
102
}
330
EF
100
AcDbVisualStyle
  2
Basic
 70
     7
 71
     1
 72
     0
 73
     1
 90
        0
 40
-0.6
 41
-30.0
 62
     5
 63
     7
 74
     0
 91
        4
 64
     7
 65
   257
 75
     1
175
     1
 42
1.0
 92
        8
 66
     7
 43
1.0
 76
     1
 77
     6
 78
     2
 67
     7
 79
     5
170
     0
171
     0
290
     0
174
     0
 93
        1
 44
0.0
173
     0
291
     1
 45
0.0
1001
ACAD
1000
AcDbSavedByObjectVersion
1070
     0
  0
VISUALSTYLE
  5
FB
102
{ACAD_REACTORS
330
EF
102
}
330
EF
100
AcDbVisualStyle
  2
Brighten
 70
    12
 71
     2
 72
     2
 73
     1
 90
        0
 40
-0.6
 41
-30.0
 62
     5
 63
     7
 74
     1
 91
        4
 64
     7
 65
   257
 75
     1
175
     1
 42
1.0
 92
        8
 66
     7
 43
1.0
 76
     1
 77
     6
 78
     2
 67
     7
 79
     5
170
     0
171
     0
290
     0
174
     0
 93
        1
 44
50.0
173
     0
291
     1
 45
0.0
1001
ACAD
1000
AcDbSavedByObjectVersion
1070
     0
  0
VISUALSTYLE
  5
FF
102
{ACAD_REACTORS
330
EF
102
}
330
EF
100
AcDbVisualStyle
  2
ColorChange
 70
    16
 71
     2
 72
     2
 73
     3
 90
        0
 40
-0.6
 41
-30.0
 62
     5
 63
     8
 74
     1
 91
        4
 64
     7
 65
   257
 75
     1
175
     1
 42
1.0
 92
        8
 66
     8
 43
1.0
 76
     1
 77
     6
 78
     2
 67
     7
 79
     5
170
     0
171
     0
290
     0
174
     0
 93
        1
 44
0.0
173
     0
291
     1
 45
0.0
1001
ACAD
1000
AcDbSavedByObjectVersion
1070
     0
  0
VISUALSTYLE
  5
F8
102
{ACAD_REACTORS
330
EF
102
}
330
EF
100
AcDbVisualStyle
  2
Conceptual
 70
     9
 71
     3
 72
     2
 73
     1
 90
        0
 40
-0.6
 41
-30.0
 62
     5
 63
     7
 74
     2
 91
        2
 64
     7
 65
   257
 75
     1
175
     1
 42
40.0
 92
        8
 66
     7
 43
1.0
 76
     1
 77
     6
 78
     2
 67
     7
 79
     3
170
     0
171
     0
290
     0
174
     0
 93
        1
 44
0.0
173
     0
291
     0
 45
0.0
1001
ACAD
1000
AcDbSavedByObjectVersion
1070
     0
  0
VISUALSTYLE
  5
FA
102
{ACAD_REACTORS
330
EF
102
}
330
EF
100
AcDbVisualStyle
  2
Dim
 70
    11
 71
     2
 72
     2
 73
     1
 90
        0
 40
-0.6
 41
-30.0
 62
     5
 63
     7
 74
     1
 91
        4
 64
     7
 65
   257
 75
     1
175
     1
 42
1.0
 92
        8
 66
     7
 43
1.0
 76
     1
 77
     6
 78
     2
 67
     7
 79
     5
170
     0
171
     0
290
     0
174
     0
 93
        1
 44
-50.0
173
     0
291
     1
 45
0.0
1001
ACAD
1000
AcDbSavedByObjectVersion
1070
     0
  0
VISUALSTYLE
  5
FE
102
{ACAD_REACTORS
330
EF
102
}
330
EF
100
AcDbVisualStyle
  2
Facepattern
 70
    15
 71
     2
 72
     2
 73
     1
 90
        0
 40
-0.6
 41
-30.0
 62
     5
 63
     7
 74
     1
 91
        4
 64
     7
 65
   257
 75
     1
175
     1
 42
1.0
 92
        8
 66
     7
 43
1.0
 76
     1
 77
     6
 78
     2
 67
     7
 79
     5
170
     0
171
     0
290
     0
174
     0
 93
        1
 44
0.0
173
     0
291
     1
 45
0.0
1001
ACAD
1000
AcDbSavedByObjectVersion
1070
     0
  0
VISUALSTYLE
  5
F0
102
{ACAD_REACTORS
330
EF
102
}
330
EF
100
AcDbVisualStyle
  2
Flat
 70
     0
 71
     2
 72
     1
 73
     1
 90
        2
 40
-0.6
 41
30.0
 62
     5
 63
     7
 74
     0
 91
        4
 64
     7
 65
   257
 75
     1
175
     1
 42
1.0
 92
        8
 66
     7
 43
1.0
 76
     1
 77
     6
 78
     2
 67
     7
 79
     5
170
     0
171
     0
290
     0
174
     0
 93
        1
 44
0.0
173
     0
291
     1
 45
0.0
1001
ACAD
1000
AcDbSavedByObjectVersion
1070
     0
  0
VISUALSTYLE
  5
F1
102
{ACAD_REACTORS
330
EF
102
}
330
EF
100
AcDbVisualStyle
  2
FlatWithEdges
 70
     1
 71
     2
 72
     1
 73
     1
 90
        2
 40
-0.6
 41
30.0
 62
     5
 63
     7
 74
     1
 91
        4
 64
     7
 65
   257
 75
     1
175
     1
 42
1.0
 92
        0
 66
   257
 43
1.0
 76
     1
 77
     6
 78
     2
 67
     7
 79
     5
170
     0
171
     0
290
     0
174
     0
 93
        1
 44
0.0
173
     0
291
     1
 45
0.0
1001
ACAD
1000
AcDbSavedByObjectVersion
1070
     0
  0
VISUALSTYLE
  5
F2
102
{ACAD_REACTORS
330
EF
102
}
330
EF
100
AcDbVisualStyle
  2
Gouraud
 70
     2
 71
     2
 72
     2
 73
     1
 90
        2
 40
-0.6
 41
30.0
 62
     5
 63
     7
 74
     0
 91
        4
 64
     7
 65
   257
 75
     1
175
     1
 42
1.0
 92
        0
 66
     7
 43
1.0
 76
     1
 77
     6
 78
     2
 67
     7
 79
     5
170
     0
171
     0
290
     0
174
     0
 93
        1
 44
0.0
173
     0
291
     1
 45
0.0
1001
ACAD
1000
AcDbSavedByObjectVersion
1070
     0
  0
VISUALSTYLE
  5
F3
102
{ACAD_REACTORS
330
EF
102
}
330
EF
100
AcDbVisualStyle
  2
GouraudWithEdges
 70
     3
 71
     2
 72
     2
 73
     1
 90
        2
 40
-0.6
 41
30.0
 62
     5
 63
     7
 74
     1
 91
        4
 64
     7
 65
   257
 75
     1
175
     1
 42
1.0
 92
        0
 66
   257
 43
1.0
 76
     1
 77
     6
 78
     2
 67
     7
 79
     5
170
     0
171
     0
290
     0
174
     0
 93
        1
 44
0.0
173
     0
291
     1
 45
0.0
1001
ACAD
1000
AcDbSavedByObjectVersion
1070
     0
  0
VISUALSTYLE
  5
FD
102
{ACAD_REACTORS
330
EF
102
}
330
EF
100
AcDbVisualStyle
  2
Linepattern
 70
    14
 71
     2
 72
     2
 73
     1
 90
        0
 40
-0.6
 41
-30.0
 62
     5
 63
     7
 74
     1
 91
        4
 64
     7
 65
   257
 75
     7
175
     7
 42
1.0
 92
        8
 66
     7
 43
1.0
 76
     1
 77
     6
 78
     2
 67
     7
 79
     5
170
     0
171
     0
290
     0
174
     0
 93
        1
 44
0.0
173
     0
291
     1
 45
0.0
1001
ACAD
1000
AcDbSavedByObjectVersion
1070
     0
  0
VISUALSTYLE
  5
F9
102
{ACAD_REACTORS
330
EF
102
}
330
EF
100
AcDbVisualStyle
  2
Realistic
 70
     8
 71
     2
 72
     2
 73
     1
 90
        0
 40
-0.6
 41
-30.0
 62
     5
 63
     7
 74
     1
 91
        0
 64
     7
 65
   257
 75
     1
175
     1
 42
1.0
 92
        8
 66
     8
 43
1.0
 76
     1
 77
     6
 78
     2
 67
     7
 79
     5
170
     0
171
     0
290
     0
174
     0
 93
       13
 44
0.0
173
     0
291
     0
 45
0.0
1001
ACAD
1000
AcDbSavedByObjectVersion
1070
     0
  0
VISUALSTYLE
  5
FC
102
{ACAD_REACTORS
330
EF
102
}
330
EF
100
AcDbVisualStyle
  2
Thicken
 70
    13
 71
     2
 72
     2
 73
     1
 90
        0
 40
-0.6
 41
-30.0
 62
     5
 63
     7
 74
     1
 91
        4
 64
     7
 65
   257
 75
     1
175
     1
 42
1.0
 92
       12
 66
     7
 43
1.0
 76
     1
 77
     6
 78
     2
 67
     7
 79
     5
170
     0
171
     0
290
     0
174
     0
 93
        1
 44
0.0
173
     0
291
     1
 45
0.0
1001
ACAD
1000
AcDbSavedByObjectVersion
1070
     0
  0
DICTIONARYVAR
  5
146
102
{ACAD_REACTORS
330
5E
102
}
330
5E
100
DictionaryVariables
280
     0
  1
1:1
  0
DICTIONARYVAR
  5
145
102
{ACAD_REACTORS
330
5E
102
}
330
5E
100
DictionaryVariables
280
     0
  1
STANDARD
  0
DICTIONARYVAR
  5
84
102
{ACAD_REACTORS
330
5E
102
}
330
5E
100
DictionaryVariables
280
     0
  1
STANDARD
  0
DICTIONARYVAR
  5
5F
102
{ACAD_REACTORS
330
5E
102
}
330
5E
100
DictionaryVariables
280
     0
  1
2
  0
DICTIONARYVAR
  5
63
102
{ACAD_REACTORS
330
5E
102
}
330
5E
100
DictionaryVariables
280
     0
  1
1
  0
DICTIONARYVAR
  5
53D
102
{ACAD_REACTORS
330
5E
102
}
330
5E
100
DictionaryVariables
280
     0
  1
0
  0
DICTIONARYVAR
  5
53B
102
{ACAD_REACTORS
330
5E
102
}
330
5E
100
DictionaryVariables
280
     0
  1
2
  0
DICTIONARYVAR
  5
53A
102
{ACAD_REACTORS
330
5E
102
}
330
5E
100
DictionaryVariables
280
     0
  1
1
  0
DICTIONARYVAR
  5
53F
102
{ACAD_REACTORS
330
5E
102
}
330
5E
100
DictionaryVariables
280
     0
  1
80.000000
  0
DICTIONARYVAR
  5
53E
102
{ACAD_REACTORS
330
5E
102
}
330
5E
100
DictionaryVariables
280
     0
  1
5.000000
  0
DICTIONARYVAR
  5
53C
102
{ACAD_REACTORS
330
5E
102
}
330
5E
100
DictionaryVariables
280
     0
  1
127
  0
DICTIONARY
  5
545
330
D3
100
AcDbDictionary
280
     1
281
     1
  3
ACAD_XREC_ROUNDTRIP
360
546
  0
DICTIONARY
  5
547
330
D7
100
AcDbDictionary
280
     1
281
     1
  3
ACAD_XREC_ROUNDTRIP
360
548
  0
DICTIONARY
  5
542
330
22
100
AcDbDictionary
280
     1
281
     1
  3
ACAD_XREC_ROUNDTRIP
360
543
  0
DICTIONARY
  5
54B
330
ED
100
AcDbDictionary
280
     1
281
     1
  3
ACAD_XREC_ROUNDTRIP
360
54C
  0
DICTIONARY
  5
549
330
EC
100
AcDbDictionary
280
     1
281
     1
  3
ACAD_XREC_ROUNDTRIP
360
54A
  0
DICTIONARY
  5
173
330
EE
100
AcDbDictionary
280
     1
281
     1
  3
ACAD_XREC_ROUNDTRIP
360
54D
  3
BUMPTILE
360
175
  3
DIFFUSETILE
360
174
  3
OPACITYTILE
360
176
  3
REFLECTIONTILE
360
177
  0
DICTIONARY
  5
162
330
7F
100
AcDbDictionary
280
     1
281
     1
  3
ACAD_ROUNDTRIP_2008_TABLESTYLE_CELLSTYLEMAP
360
540
  3
ACAD_XREC_ROUNDTRIP
360
544
  0
XRECORD
  5
546
102
{ACAD_REACTORS
330
545
102
}
330
545
100
AcDbXrecord
280
     1
102
SHADEPLOT
 70
     0
102
SHADEPLOTRESLEVEL
 70
     2
102
SHADEPLOTCUSTOMDPI
 70
   300
  0
XRECORD
  5
548
102
{ACAD_REACTORS
330
547
102
}
330
547
100
AcDbXrecord
280
     1
102
SHADEPLOT
 70
     0
102
SHADEPLOTRESLEVEL
 70
     2
102
SHADEPLOTCUSTOMDPI
 70
   300
  0
XRECORD
  5
543
102
{ACAD_REACTORS
330
542
102
}
330
542
100
AcDbXrecord
280
     1
102
SHADEPLOT
 70
     0
102
SHADEPLOTRESLEVEL
 70
     2
102
SHADEPLOTCUSTOMDPI
 70
   300
  0
XRECORD
  5
54C
102
{ACAD_REACTORS
330
54B
102
}
330
54B
100
AcDbXrecord
280
     1
102
MATERIAL
148
0.0
149
0.0
149
0.0
 93
        0
 94
       63
282
     0
 72
     1
 77
     1
171
     1
175
     1
179
     1
273
     0
  0
XRECORD
  5
54A
102
{ACAD_REACTORS
330
549
102
}
330
549
100
AcDbXrecord
280
     1
102
MATERIAL
148
0.0
149
0.0
149
0.0
 93
        0
 94
       63
282
     0
 72
     1
 77
     1
171
     1
175
     1
179
     1
273
     0
  0
XRECORD
  5
54D
102
{ACAD_REACTORS
330
173
102
}
330
173
100
AcDbXrecord
280
     1
102
MATERIAL
148
0.0
149
0.0
149
0.0
 93
        0
 94
       63
282
     0
 72
     1
 77
     1
171
     1
175
     1
179
     1
273
     0
  0
XRECORD
  5
175
102
{ACAD_REACTORS
330
173
102
}
330
173
100
AcDbXrecord
280
     1
270
     1
271
     1
  0
XRECORD
  5
174
102
{ACAD_REACTORS
330
173
102
}
330
173
100
AcDbXrecord
280
     1
270
     1
271
     1
  0
XRECORD
  5
176
102
{ACAD_REACTORS
330
173
102
}
330
173
100
AcDbXrecord
280
     1
270
     1
271
     1
  0
XRECORD
  5
177
102
{ACAD_REACTORS
330
173
102
}
330
173
100
AcDbXrecord
280
     1
270
     1
271
     1
  0
CELLSTYLEMAP
  5
540
102
{ACAD_REACTORS
330
162
102
}
330
162
100
AcDbCellStyleMap
 90
        3
300
CELLSTYLE
  1
TABLEFORMAT_BEGIN
 90
        5
170
     1
 91
        0
 92
    32768
 62
   257
 93
        1
300
CONTENTFORMAT
  1
CONTENTFORMAT_BEGIN
 90
        0
 91
        0
 92
      512
 93
        0
300

 40
0.0
140
1.0
 94
        5
 62
     0
340
11
144
6.0
309
CONTENTFORMAT_END
171
     1
301
MARGIN
  1
CELLMARGIN_BEGIN
 40
1.5
 40
1.5
 40
1.5
 40
1.5
 40
4.5
 40
4.5
309
CELLMARGIN_END
 94
        6
 95
        1
302
GRIDFORMAT
  1
GRIDFORMAT_BEGIN
 90
        0
 91
        1
 62
     0
 92
       -2
340
14
 93
        0
 40
1.125
309
GRIDFORMAT_END
 95
        2
302
GRIDFORMAT
  1
GRIDFORMAT_BEGIN
 90
        0
 91
        1
 62
     0
 92
       -2
340
14
 93
        0
 40
1.125
309
GRIDFORMAT_END
 95
        4
302
GRIDFORMAT
  1
GRIDFORMAT_BEGIN
 90
        0
 91
        1
 62
     0
 92
       -2
340
14
 93
        0
 40
1.125
309
GRIDFORMAT_END
 95
        8
302
GRIDFORMAT
  1
GRIDFORMAT_BEGIN
 90
        0
 91
        1
 62
     0
 92
       -2
340
14
 93
        0
 40
1.125
309
GRIDFORMAT_END
 95
       16
302
GRIDFORMAT
  1
GRIDFORMAT_BEGIN
 90
        0
 91
        1
 62
     0
 92
       -2
340
14
 93
        0
 40
1.125
309
GRIDFORMAT_END
 95
       32
302
GRIDFORMAT
  1
GRIDFORMAT_BEGIN
 90
        0
 91
        1
 62
     0
 92
       -2
340
14
 93
        0
 40
1.125
309
GRIDFORMAT_END
309
TABLEFORMAT_END
  1
CELLSTYLE_BEGIN
 90
        1
 91
        1
300
_TITLE
309
CELLSTYLE_END
300
CELLSTYLE
  1
TABLEFORMAT_BEGIN
 90
        5
170
     1
 91
        0
 92
        0
 62
   257
 93
        1
300
CONTENTFORMAT
  1
CONTENTFORMAT_BEGIN
 90
        0
 91
        0
 92
      512
 93
        0
300

 40
0.0
140
1.0
 94
        5
 62
     0
340
11
144
4.5
309
CONTENTFORMAT_END
171
     1
301
MARGIN
  1
CELLMARGIN_BEGIN
 40
1.5
 40
1.5
 40
1.5
 40
1.5
 40
4.5
 40
4.5
309
CELLMARGIN_END
 94
        6
 95
        1
302
GRIDFORMAT
  1
GRIDFORMAT_BEGIN
 90
        0
 91
        1
 62
     0
 92
       -2
340
14
 93
        0
 40
1.125
309
GRIDFORMAT_END
 95
        2
302
GRIDFORMAT
  1
GRIDFORMAT_BEGIN
 90
        0
 91
        1
 62
     0
 92
       -2
340
14
 93
        0
 40
1.125
309
GRIDFORMAT_END
 95
        4
302
GRIDFORMAT
  1
GRIDFORMAT_BEGIN
 90
        0
 91
        1
 62
     0
 92
       -2
340
14
 93
        0
 40
1.125
309
GRIDFORMAT_END
 95
        8
302
GRIDFORMAT
  1
GRIDFORMAT_BEGIN
 90
        0
 91
        1
 62
     0
 92
       -2
340
14
 93
        0
 40
1.125
309
GRIDFORMAT_END
 95
       16
302
GRIDFORMAT
  1
GRIDFORMAT_BEGIN
 90
        0
 91
        1
 62
     0
 92
       -2
340
14
 93
        0
 40
1.125
309
GRIDFORMAT_END
 95
       32
302
GRIDFORMAT
  1
GRIDFORMAT_BEGIN
 90
        0
 91
        1
 62
     0
 92
       -2
340
14
 93
        0
 40
1.125
309
GRIDFORMAT_END
309
TABLEFORMAT_END
  1
CELLSTYLE_BEGIN
 90
        2
 91
        1
300
_HEADER
309
CELLSTYLE_END
300
CELLSTYLE
  1
TABLEFORMAT_BEGIN
 90
        5
170
     1
 91
        0
 92
        0
 62
   257
 93
        1
300
CONTENTFORMAT
  1
CONTENTFORMAT_BEGIN
 90
        0
 91
        0
 92
      512
 93
        0
300

 40
0.0
140
1.0
 94
        2
 62
     0
340
11
144
4.5
309
CONTENTFORMAT_END
171
     1
301
MARGIN
  1
CELLMARGIN_BEGIN
 40
1.5
 40
1.5
 40
1.5
 40
1.5
 40
4.5
 40
4.5
309
CELLMARGIN_END
 94
        6
 95
        1
302
GRIDFORMAT
  1
GRIDFORMAT_BEGIN
 90
        0
 91
        1
 62
     0
 92
       -2
340
14
 93
        0
 40
1.125
309
GRIDFORMAT_END
 95
        2
302
GRIDFORMAT
  1
GRIDFORMAT_BEGIN
 90
        0
 91
        1
 62
     0
 92
       -2
340
14
 93
        0
 40
1.125
309
GRIDFORMAT_END
 95
        4
302
GRIDFORMAT
  1
GRIDFORMAT_BEGIN
 90
        0
 91
        1
 62
     0
 92
       -2
340
14
 93
        0
 40
1.125
309
GRIDFORMAT_END
 95
        8
302
GRIDFORMAT
  1
GRIDFORMAT_BEGIN
 90
        0
 91
        1
 62
     0
 92
       -2
340
14
 93
        0
 40
1.125
309
GRIDFORMAT_END
 95
       16
302
GRIDFORMAT
  1
GRIDFORMAT_BEGIN
 90
        0
 91
        1
 62
     0
 92
       -2
340
14
 93
        0
 40
1.125
309
GRIDFORMAT_END
 95
       32
302
GRIDFORMAT
  1
GRIDFORMAT_BEGIN
 90
        0
 91
        1
 62
     0
 92
       -2
340
14
 93
        0
 40
1.125
309
GRIDFORMAT_END
309
TABLEFORMAT_END
  1
CELLSTYLE_BEGIN
 90
        3
 91
        2
300
_DATA
309
CELLSTYLE_END
  0
XRECORD
  5
544
102
{ACAD_REACTORS
330
162
102
}
330
162
100
AcDbXrecord
280
     1
102
ACAD_ROUNDTRIP_PRE2007_TABLESTYLE
 90
      512
 91
        0
  1

 92
      512
 93
        0
  2

 94
      512
 95
        0
  3

  0
ENDSEC
  0
EOF
