  0
SECTION
  2
HEADER
  9
$ACADVER
  1
AC1015
  9
$ACADMAINTVER
 70
    20
  9
$DWGCODEPAGE
  3
ANSI_1254
  9
$INSBASE
 10
0.0
 20
0.0
 30
0.0
  9
$EXTMIN
 10
1500.752608330158
 20
1193.189136519174
 30
0.0
  9
$EXTMAX
 10
1636.389099614866
 20
1268.660974455809
 30
0.0
  9
$LIMMIN
 10
0.0
 20
0.0
  9
$LIMMAX
 10
420.0
 20
297.0
  9
$ORTHOMODE
 70
     0
  9
$REGENMODE
 70
     1
  9
$FILLMODE
 70
     1
  9
$QTEXTMODE
 70
     0
  9
$MIRRTEXT
 70
     0
  9
$LTSCALE
 40
1.0
  9
$ATTMODE
 70
     1
  9
$TEXTSIZE
 40
2.5
  9
$TRACEWID
 40
1.0
  9
$TEXTSTYLE
  7
Standard
  9
$CLAYER
  8
0
  9
$CELTYPE
  6
ByLayer
  9
$CECOLOR
 62
   256
  9
$CELTSCALE
 40
1.0
  9
$DISPSILH
 70
     0
  9
$DIMSCALE
 40
1.0
  9
$DIMASZ
 40
2.5
  9
$DIMEXO
 40
0.625
  9
$DIMDLI
 40
3.75
  9
$DIMRND
 40
0.0
  9
$DIMDLE
 40
0.0
  9
$DIMEXE
 40
1.25
  9
$DIMTP
 40
0.0
  9
$DIMTM
 40
0.0
  9
$DIMTXT
 40
2.5
  9
$DIMCEN
 40
2.5
  9
$DIMTSZ
 40
0.0
  9
$DIMTOL
 70
     0
  9
$DIMLIM
 70
     0
  9
$DIMTIH
 70
     0
  9
$DIMTOH
 70
     0
  9
$DIMSE1
 70
     0
  9
$DIMSE2
 70
     0
  9
$DIMTAD
 70
     1
  9
$DIMZIN
 70
     8
  9
$DIMBLK
  1

  9
$DIMASO
 70
     1
  9
$DIMSHO
 70
     1
  9
$DIMPOST
  1

  9
$DIMAPOST
  1

  9
$DIMALT
 70
     0
  9
$DIMALTD
 70
     3
  9
$DIMALTF
 40
0.03937007874016
  9
$DIMLFAC
 40
1.0
  9
$DIMTOFL
 70
     1
  9
$DIMTVP
 40
0.0
  9
$DIMTIX
 70
     0
  9
$DIMSOXD
 70
     0
  9
$DIMSAH
 70
     0
  9
$DIMBLK1
  1

  9
$DIMBLK2
  1

  9
$DIMSTYLE
  2
ISO-25
  9
$DIMCLRD
 70
     0
  9
$DIMCLRE
 70
     0
  9
$DIMCLRT
 70
     0
  9
$DIMTFAC
 40
1.0
  9
$DIMGAP
 40
0.625
  9
$DIMJUST
 70
     0
  9
$DIMSD1
 70
     0
  9
$DIMSD2
 70
     0
  9
$DIMTOLJ
 70
     0
  9
$DIMTZIN
 70
     8
  9
$DIMALTZ
 70
     0
  9
$DIMALTTZ
 70
     0
  9
$DIMUPT
 70
     0
  9
$DIMDEC
 70
     2
  9
$DIMTDEC
 70
     2
  9
$DIMALTU
 70
     2
  9
$DIMALTTD
 70
     3
  9
$DIMTXSTY
  7
Standard
  9
$DIMAUNIT
 70
     0
  9
$DIMADEC
 70
     0
  9
$DIMALTRND
 40
0.0
  9
$DIMAZIN
 70
     0
  9
$DIMDSEP
 70
    44
  9
$DIMATFIT
 70
     3
  9
$DIMFRAC
 70
     0
  9
$DIMLDRBLK
  1

  9
$DIMLUNIT
 70
     2
  9
$DIMLWD
 70
    -2
  9
$DIMLWE
 70
    -2
  9
$DIMTMOVE
 70
     0
  9
$LUNITS
 70
     2
  9
$LUPREC
 70
     4
  9
$SKETCHINC
 40
1.0
  9
$FILLETRAD
 40
0.0
  9
$AUNITS
 70
     0
  9
$AUPREC
 70
     0
  9
$MENU
  1
.
  9
$ELEVATION
 40
0.0
  9
$PELEVATION
 40
0.0
  9
$THICKNESS
 40
0.0
  9
$LIMCHECK
 70
     0
  9
$CHAMFERA
 40
0.0
  9
$CHAMFERB
 40
0.0
  9
$CHAMFERC
 40
0.0
  9
$CHAMFERD
 40
0.0
  9
$SKPOLY
 70
     0
  9
$TDCREATE
 40
2459083.574440706
  9
$TDUCREATE
 40
2459083.449440706
  9
$TDUPDATE
 40
2459083.677616261
  9
$TDUUPDATE
 40
2459083.552616262
  9
$TDINDWG
 40
0.0018813889
  9
$TDUSRTIMER
 40
0.0018813542
  9
$USRTIMER
 70
     1
  9
$ANGBASE
 50
0.0
  9
$ANGDIR
 70
     0
  9
$PDMODE
 70
     0
  9
$PDSIZE
 40
0.0
  9
$PLINEWID
 40
0.0
  9
$SPLFRAME
 70
     0
  9
$SPLINETYPE
 70
     6
  9
$SPLINESEGS
 70
     8
  9
$HANDSEED
  5
413
  9
$SURFTAB1
 70
     6
  9
$SURFTAB2
 70
     6
  9
$SURFTYPE
 70
     6
  9
$SURFU
 70
     6
  9
$SURFV
 70
     6
  9
$UCSBASE
  2

  9
$UCSNAME
  2

  9
$UCSORG
 10
0.0
 20
0.0
 30
0.0
  9
$UCSXDIR
 10
1.0
 20
0.0
 30
0.0
  9
$UCSYDIR
 10
0.0
 20
1.0
 30
0.0
  9
$UCSORTHOREF
  2

  9
$UCSORTHOVIEW
 70
     0
  9
$UCSORGTOP
 10
0.0
 20
0.0
 30
0.0
  9
$UCSORGBOTTOM
 10
0.0
 20
0.0
 30
0.0
  9
$UCSORGLEFT
 10
0.0
 20
0.0
 30
0.0
  9
$UCSORGRIGHT
 10
0.0
 20
0.0
 30
0.0
  9
$UCSORGFRONT
 10
0.0
 20
0.0
 30
0.0
  9
$UCSORGBACK
 10
0.0
 20
0.0
 30
0.0
  9
$PUCSBASE
  2

  9
$PUCSNAME
  2

  9
$PUCSORG
 10
0.0
 20
0.0
 30
0.0
  9
$PUCSXDIR
 10
1.0
 20
0.0
 30
0.0
  9
$PUCSYDIR
 10
0.0
 20
1.0
 30
0.0
  9
$PUCSORTHOREF
  2

  9
$PUCSORTHOVIEW
 70
     0
  9
$PUCSORGTOP
 10
0.0
 20
0.0
 30
0.0
  9
$PUCSORGBOTTOM
 10
0.0
 20
0.0
 30
0.0
  9
$PUCSORGLEFT
 10
0.0
 20
0.0
 30
0.0
  9
$PUCSORGRIGHT
 10
0.0
 20
0.0
 30
0.0
  9
$PUCSORGFRONT
 10
0.0
 20
0.0
 30
0.0
  9
$PUCSORGBACK
 10
0.0
 20
0.0
 30
0.0
  9
$USERI1
 70
     0
  9
$USERI2
 70
     0
  9
$USERI3
 70
     0
  9
$USERI4
 70
     0
  9
$USERI5
 70
     0
  9
$USERR1
 40
0.0
  9
$USERR2
 40
0.0
  9
$USERR3
 40
0.0
  9
$USERR4
 40
0.0
  9
$USERR5
 40
0.0
  9
$WORLDVIEW
 70
     1
  9
$SHADEDGE
 70
     3
  9
$SHADEDIF
 70
    70
  9
$TILEMODE
 70
     1
  9
$MAXACTVP
 70
    64
  9
$PINSBASE
 10
0.0
 20
0.0
 30
0.0
  9
$PLIMCHECK
 70
     0
  9
$PEXTMIN
 10
0.0
 20
0.0
 30
0.0
  9
$PEXTMAX
 10
0.0
 20
0.0
 30
0.0
  9
$PLIMMIN
 10
0.0
 20
0.0
  9
$PLIMMAX
 10
12.0
 20
9.0
  9
$UNITMODE
 70
     0
  9
$VISRETAIN
 70
     1
  9
$PLINEGEN
 70
     0
  9
$PSLTSCALE
 70
     1
  9
$TREEDEPTH
 70
  3020
  9
$CMLSTYLE
  2
Standard
  9
$CMLJUST
 70
     0
  9
$CMLSCALE
 40
20.0
  9
$PROXYGRAPHICS
 70
     1
  9
$MEASUREMENT
 70
     1
  9
$CELWEIGHT
370
    -1
  9
$ENDCAPS
280
     0
  9
$JOINSTYLE
280
     0
  9
$LWDISPLAY
290
     0
  9
$INSUNITS
 70
     4
  9
$HYPERLINKBASE
  1

  9
$STYLESHEET
  1

  9
$XEDIT
290
     1
  9
$CEPSNTYPE
380
     0
  9
$PSTYLEMODE
290
     1
  9
$FINGERPRINTGUID
  2
{8540A335-6DFA-4976-BA4D-34106FB6303F}
  9
$VERSIONGUID
  2
{777A7047-4F72-4E66-9D43-CFB50E3C3B8E}
  9
$EXTNAMES
290
     1
  9
$PSVPSCALE
 40
0.0
  9
$OLESTARTUP
290
     0
  0
ENDSEC
  0
SECTION
  2
CLASSES
  0
CLASS
  1
ACDBDICTIONARYWDFLT
  2
AcDbDictionaryWithDefault
  3
ObjectDBX Classes
 90
        0
280
     0
281
     0
  0
CLASS
  1
ACDBPLACEHOLDER
  2
AcDbPlaceHolder
  3
ObjectDBX Classes
 90
        0
280
     0
281
     0
  0
CLASS
  1
LAYOUT
  2
AcDbLayout
  3
ObjectDBX Classes
 90
        0
280
     0
281
     0
  0
CLASS
  1
DICTIONARYVAR
  2
AcDbDictionaryVar
  3
ObjectDBX Classes
 90
        0
280
     0
281
     0
  0
CLASS
  1
TABLESTYLE
  2
AcDbTableStyle
  3
ObjectDBX Classes
 90
     4095
280
     0
281
     0
  0
CLASS
  1
MATERIAL
  2
AcDbMaterial
  3
ObjectDBX Classes
 90
     1153
280
     0
281
     0
  0
CLASS
  1
VISUALSTYLE
  2
AcDbVisualStyle
  3
ObjectDBX Classes
 90
     4095
280
     0
281
     0
  0
CLASS
  1
SCALE
  2
AcDbScale
  3
ObjectDBX Classes
 90
     1153
280
     0
281
     0
  0
CLASS
  1
MLEADERSTYLE
  2
AcDbMLeaderStyle
  3
ACDB_MLEADERSTYLE_CLASS
 90
     4095
280
     0
281
     0
  0
CLASS
  1
CELLSTYLEMAP
  2
AcDbCellStyleMap
  3
ObjectDBX Classes
 90
     1152
280
     0
281
     0
  0
ENDSEC
  0
SECTION
  2
TABLES
  0
TABLE
  2
VPORT
  5
8
330
0
100
AcDbSymbolTable
 70
     1
  0
VPORT
  5
EA
330
8
100
AcDbSymbolTableRecord
100
AcDbViewportTableRecord
  2
*Active
 70
     0
 10
0.0
 20
0.0
 11
1.0
 21
1.0
 12
1592.636420100912
 22
1239.248309627607
 13
0.0
 23
0.0
 14
10.0
 24
10.0
 15
10.0
 25
10.0
 16
0.0
 26
0.0
 36
1.0
 17
0.0
 27
0.0
 37
0.0
 40
135.7117939808329
 41
1.903110047846889
 42
50.0
 43
0.0
 44
0.0
 50
0.0
 51
0.0
 71
     0
 72
  1000
 73
     1
 74
     3
 75
     0
 76
     0
 77
     0
 78
     0
281
     0
 65
     1
110
0.0
120
0.0
130
0.0
111
1.0
121
0.0
131
0.0
112
0.0
122
1.0
132
0.0
 79
     0
146
0.0
  0
ENDTAB
  0
TABLE
  2
LTYPE
  5
5
330
0
100
AcDbSymbolTable
 70
     1
  0
LTYPE
  5
14
330
5
100
AcDbSymbolTableRecord
100
AcDbLinetypeTableRecord
  2
ByBlock
 70
     0
  3

 72
    65
 73
     0
 40
0.0
  0
LTYPE
  5
15
330
5
100
AcDbSymbolTableRecord
100
AcDbLinetypeTableRecord
  2
ByLayer
 70
     0
  3

 72
    65
 73
     0
 40
0.0
  0
LTYPE
  5
16
330
5
100
AcDbSymbolTableRecord
100
AcDbLinetypeTableRecord
  2
Continuous
 70
     0
  3
Solid line
 72
    65
 73
     0
 40
0.0
  0
ENDTAB
  0
TABLE
  2
LAYER
  5
2
330
0
100
AcDbSymbolTable
 70
     1
  0
LAYER
  5
10
102
{ACAD_XDICTIONARY
360
13C
102
}
330
2
100
AcDbSymbolTableRecord
100
AcDbLayerTableRecord
  2
0
 70
     0
 62
     7
  6
Continuous
370
    -3
390
F
  0
ENDTAB
  0
TABLE
  2
STYLE
  5
3
330
0
100
AcDbSymbolTable
 70
     2
  0
STYLE
  5
11
330
3
100
AcDbSymbolTableRecord
100
AcDbTextStyleTableRecord
  2
Standard
 70
     0
 40
0.0
 41
1.0
 50
0.0
 71
     0
 42
2.5
  3
txt
  4

  0
STYLE
  5
132
330
3
100
AcDbSymbolTableRecord
100
AcDbTextStyleTableRecord
  2
Annotative
 70
     0
 40
0.0
 41
1.0
 50
0.0
 71
     0
 42
2.5
  3
txt.shx
  4

1001
AcadAnnotative
1000
AnnotativeData
1002
{
1070
     1
1070
     1
1002
}
  0
ENDTAB
  0
TABLE
  2
VIEW
  5
6
330
0
100
AcDbSymbolTable
 70
     0
  0
ENDTAB
  0
TABLE
  2
UCS
  5
7
330
0
100
AcDbSymbolTable
 70
     0
  0
ENDTAB
  0
TABLE
  2
APPID
  5
9
330
0
100
AcDbSymbolTable
 70
     7
  0
APPID
  5
12
330
9
100
AcDbSymbolTableRecord
100
AcDbRegAppTableRecord
  2
ACAD
 70
     0
  0
APPID
  5
9E
330
9
100
AcDbSymbolTableRecord
100
AcDbRegAppTableRecord
  2
ACAD_PSEXT
 70
     0
  0
APPID
  5
133
330
9
100
AcDbSymbolTableRecord
100
AcDbRegAppTableRecord
  2
AcadAnnoPO
 70
     0
  0
APPID
  5
134
330
9
100
AcDbSymbolTableRecord
100
AcDbRegAppTableRecord
  2
AcadAnnotative
 70
     0
  0
APPID
  5
135
330
9
100
AcDbSymbolTableRecord
100
AcDbRegAppTableRecord
  2
ACAD_DSTYLE_DIMJAG
 70
     0
  0
APPID
  5
136
330
9
100
AcDbSymbolTableRecord
100
AcDbRegAppTableRecord
  2
ACAD_DSTYLE_DIMTALN
 70
     0
  0
APPID
  5
165
330
9
100
AcDbSymbolTableRecord
100
AcDbRegAppTableRecord
  2
ACAD_MLEADERVER
 70
     0
  0
ENDTAB
  0
TABLE
  2
DIMSTYLE
  5
A
330
0
100
AcDbSymbolTable
 70
     2
100
AcDbDimStyleTable
 71
     2
340
27
340
137
  0
DIMSTYLE
105
27
330
A
100
AcDbSymbolTableRecord
100
AcDbDimStyleTableRecord
  2
ISO-25
 70
     0
 41
2.5
 42
0.625
 43
3.75
 44
1.25
 73
     0
 74
     0
 77
     1
 78
     8
140
2.5
141
2.5
143
0.03937007874016
147
0.625
171
     3
172
     1
271
     2
272
     2
274
     3
278
    44
283
     0
284
     8
340
11
  0
DIMSTYLE
105
137
330
A
100
AcDbSymbolTableRecord
100
AcDbDimStyleTableRecord
  2
Annotative
 70
     0
 40
0.0
 41
2.5
 42
0.625
 43
3.75
 44
1.25
 73
     0
 74
     0
 77
     1
 78
     8
140
2.5
141
2.5
143
0.03937007874016
147
0.625
171
     3
172
     1
271
     2
272
     2
274
     3
278
    44
283
     0
284
     8
340
11
1001
AcadAnnotative
1000
AnnotativeData
1002
{
1070
     1
1070
     1
1002
}
1001
ACAD_DSTYLE_DIMJAG
1070
   388
1040
1.5
1001
ACAD_DSTYLE_DIMTALN
1070
   392
1070
     0
  0
ENDTAB
  0
TABLE
  2
BLOCK_RECORD
  5
1
330
0
100
AcDbSymbolTable
 70
    10
  0
BLOCK_RECORD
  5
1F
330
1
100
AcDbSymbolTableRecord
100
AcDbBlockTableRecord
  2
*Model_Space
340
22
  0
BLOCK_RECORD
  5
D2
330
1
100
AcDbSymbolTableRecord
100
AcDbBlockTableRecord
  2
*Paper_Space
340
D3
  0
BLOCK_RECORD
  5
D6
330
1
100
AcDbSymbolTableRecord
100
AcDbBlockTableRecord
  2
*Paper_Space0
340
D7
  0
BLOCK_RECORD
  5
1AD
330
1
100
AcDbSymbolTableRecord
100
AcDbBlockTableRecord
  2
SW_CENTERMARKSYMBOL_0
340
0
102
{BLKREFS
331
3C9
102
}
  0
BLOCK_RECORD
  5
1B8
330
1
100
AcDbSymbolTableRecord
100
AcDbBlockTableRecord
  2
SW_CENTERMARKSYMBOL_1
340
0
102
{BLKREFS
331
3CA
102
}
  0
BLOCK_RECORD
  5
1C3
330
1
100
AcDbSymbolTableRecord
100
AcDbBlockTableRecord
  2
SW_CENTERMARKSYMBOL_2
340
0
102
{BLKREFS
331
3CB
102
}
  0
BLOCK_RECORD
  5
1CE
330
1
100
AcDbSymbolTableRecord
100
AcDbBlockTableRecord
  2
SW_CENTERMARKSYMBOL_3
340
0
102
{BLKREFS
331
3CC
102
}
  0
BLOCK_RECORD
  5
1D9
330
1
100
AcDbSymbolTableRecord
100
AcDbBlockTableRecord
  2
SW_CENTERMARKSYMBOL_4
340
0
102
{BLKREFS
331
3CD
102
}
  0
BLOCK_RECORD
  5
33E
330
1
100
AcDbSymbolTableRecord
100
AcDbBlockTableRecord
  2
1
340
0
310
2800000020000000200000000100080000000000000400000000000000000000000000000000000000000000000080000080000000808000800000008000800080800000C0C0C000C0DCC000F0CAA6000020400000206000002080000020A0000020C0000020E00000400000004020000040400000406000004080000040A0
310
000040C0000040E00000600000006020000060400000606000006080000060A0000060C0000060E00000800000008020000080400000806000008080000080A0000080C0000080E00000A0000000A0200000A0400000A0600000A0800000A0A00000A0C00000A0E00000C0000000C0200000C0400000C0600000C0800000C0
310
A00000C0C00000C0E00000E0000000E0200000E0400000E0600000E0800000E0A00000E0C00000E0E00040000000400020004000400040006000400080004000A0004000C0004000E00040200000402020004020400040206000402080004020A0004020C0004020E000404000004040200040404000404060004040800040
310
40A0004040C0004040E00040600000406020004060400040606000406080004060A0004060C0004060E00040800000408020004080400040806000408080004080A0004080C0004080E00040A0000040A0200040A0400040A0600040A0800040A0A00040A0C00040A0E00040C0000040C0200040C0400040C0600040C08000
310
40C0A00040C0C00040C0E00040E0000040E0200040E0400040E0600040E0800040E0A00040E0C00040E0E00080000000800020008000400080006000800080008000A0008000C0008000E00080200000802020008020400080206000802080008020A0008020C0008020E00080400000804020008040400080406000804080
310
008040A0008040C0008040E00080600000806020008060400080606000806080008060A0008060C0008060E00080800000808020008080400080806000808080008080A0008080C0008080E00080A0000080A0200080A0400080A0600080A0800080A0A00080A0C00080A0E00080C0000080C0200080C0400080C0600080C0
310
800080C0A00080C0C00080C0E00080E0000080E0200080E0400080E0600080E0800080E0A00080E0C00080E0E000C0000000C0002000C0004000C0006000C0008000C000A000C000C000C000E000C0200000C0202000C0204000C0206000C0208000C020A000C020C000C020E000C0400000C0402000C0404000C0406000C0
310
408000C040A000C040C000C040E000C0600000C0602000C0604000C0606000C0608000C060A000C060C000C060E000C0800000C0802000C0804000C0806000C0808000C080A000C080C000C080E000C0A00000C0A02000C0A04000C0A06000C0A08000C0A0A000C0A0C000C0A0E000C0C00000C0C02000C0C04000C0C06000
310
C0C08000C0C0A000F0FBFF00A4A0A000808080000000FF0000FF000000FFFF00FF000000FF00FF00FFFF0000FFFFFF0000000000000000000000000000000000000000000000000000000000000000000000000000000000000000000000000000000000000000000000000000000000000000000000000000000000000000
310
0000000000000000000000000000000000000000000000000000000000000000000000000000000000000000000000000000FFFFFFFFFFFFFFFFFFFFFFFFFFFFFFFFFFFFFFFFFFFFFFFFFFFFFFFFFFFF0000FF00000000000000000000000000000000000000000000000000000000FF0000FF000000000000000000000000
310
00000000000000000000000000000000FF0000FF00000000000000000000000000000000000000000000000000000000FF0000FF00000000000000000000000000000000000000000000000000000000FF0000FF00000000000000000000000000000000000000000000000000000000FF0000FF0000000000000000000000
310
0000000000000000000000000000000000FF0000FF00000000000000000000000000000000000000000000000000000000FF0000FF00000000000000000000000000000000000000000000000000000000FF0000FF00000000000000000000000000000000000000000000000000000000FF0000FF00000000000000000000
310
000000000000000000000000000000000000FF0000FF00000000000000000000000000000000000000000000000000000000FF0000FF00000000000000000000000000000000000000000000000000000000FF0000FF00000000000000000000000000000000000000000000000000000000FF0000FF000000000000000000
310
00000000000000000000000000000000000000FF0000FF00000000000000000000000000000000000000000000000000000000FF0000FF00000000000000000000000000000000000000000000000000000000FF0000FF00000000000000000000000000000000000000000000000000000000FF0000FF0000000000000000
310
0000000000000000000000000000000000000000FF0000FF00000000000000000000000000000000000000000000000000000000FF0000FF00000000000000000000000000000000000000000000000000000000FF0000FF00000000000000000000000000000000000000000000000000000000FF0000FF00000000000000
310
000000000000000000000000000000000000000000FF0000FFFFFFFFFFFFFFFFFFFFFFFFFFFFFFFFFFFFFFFFFFFFFFFFFFFFFFFFFFFF00000000000000000000000000000000000000000000000000000000000000000000000000000000000000000000000000000000000000000000000000000000000000000000000000
310
0000000000000000000000000000000000000000000000000000000000000000000000000000000000000000000000000000000000000000
102
{BLKREFS
331
34B
102
}
1001
ACAD
1000
DesignCenter Data
1002
{
1070
     1
1070
     4
1002
}
  0
BLOCK_RECORD
  5
34C
330
1
100
AcDbSymbolTableRecord
100
AcDbBlockTableRecord
  2
2
340
0
310
2800000020000000200000000100080000000000000400000000000000000000000000000000000000000000000080000080000000808000800000008000800080800000C0C0C000C0DCC000F0CAA6000020400000206000002080000020A0000020C0000020E00000400000004020000040400000406000004080000040A0
310
000040C0000040E00000600000006020000060400000606000006080000060A0000060C0000060E00000800000008020000080400000806000008080000080A0000080C0000080E00000A0000000A0200000A0400000A0600000A0800000A0A00000A0C00000A0E00000C0000000C0200000C0400000C0600000C0800000C0
310
A00000C0C00000C0E00000E0000000E0200000E0400000E0600000E0800000E0A00000E0C00000E0E00040000000400020004000400040006000400080004000A0004000C0004000E00040200000402020004020400040206000402080004020A0004020C0004020E000404000004040200040404000404060004040800040
310
40A0004040C0004040E00040600000406020004060400040606000406080004060A0004060C0004060E00040800000408020004080400040806000408080004080A0004080C0004080E00040A0000040A0200040A0400040A0600040A0800040A0A00040A0C00040A0E00040C0000040C0200040C0400040C0600040C08000
310
40C0A00040C0C00040C0E00040E0000040E0200040E0400040E0600040E0800040E0A00040E0C00040E0E00080000000800020008000400080006000800080008000A0008000C0008000E00080200000802020008020400080206000802080008020A0008020C0008020E00080400000804020008040400080406000804080
310
008040A0008040C0008040E00080600000806020008060400080606000806080008060A0008060C0008060E00080800000808020008080400080806000808080008080A0008080C0008080E00080A0000080A0200080A0400080A0600080A0800080A0A00080A0C00080A0E00080C0000080C0200080C0400080C0600080C0
310
800080C0A00080C0C00080C0E00080E0000080E0200080E0400080E0600080E0800080E0A00080E0C00080E0E000C0000000C0002000C0004000C0006000C0008000C000A000C000C000C000E000C0200000C0202000C0204000C0206000C0208000C020A000C020C000C020E000C0400000C0402000C0404000C0406000C0
310
408000C040A000C040C000C040E000C0600000C0602000C0604000C0606000C0608000C060A000C060C000C060E000C0800000C0802000C0804000C0806000C0808000C080A000C080C000C080E000C0A00000C0A02000C0A04000C0A06000C0A08000C0A0A000C0A0C000C0A0E000C0C00000C0C02000C0C04000C0C06000
310
C0C08000C0C0A000F0FBFF00A4A0A000808080000000FF0000FF000000FFFF00FF000000FF00FF00FFFF0000FFFFFF0000000000000000000000000000000000000000000000000000000000000000000000000000000000000000000000000000000000000000000000000000000000000000000000000000000000000000
310
000000000000000000000000000000000000000000000000000000000000000000000000000000000000000000000000000000000000000000000000000000000000000000000000000000000000000000000000000000000000000000000000000000000000000000000000000000000000FFFFFFFFFFFFFFFFFFFFFFFFFF
310
FFFFFFFFFFFFFFFFFFFFFFFFFFFFFFFFFF0000FF00000000000000000000000000000000000000000000000000000000FF0000FF00000000000000000000000000000000000000000000000000000000FF0000FF00000000000000000000000000000000000000000000000000000000FF0000FF000000000000FF00000000
310
00000000000000000000FF000000000000FF0000FF0000000000FF00FF000000000000000000000000FF00FF0000000000FF0000FF0000000000FF0000FF0000000000000000000000FF0000FF00000000FF0000FF00000000FF000000FF00000000000000000000FF000000FF00000000FF0000FF000000FFFFFFFFFFFFFF
310
0000000000000000FFFFFFFFFFFFFF000000FF0000FF000000FFFF000000FFFF0000000000000000FFFF000000FFFF000000FF0000FF000000FFFFFFFFFFFFFF0000000000000000FFFFFFFFFFFFFF000000FF0000FF000000FFFFFFFFFFFFFF0000000000000000FFFFFFFFFFFFFF000000FF0000FF000000FFFFFFFFFFFF
310
FF0000000000000000FFFFFFFFFFFFFF000000FF0000FF00000000000000000000000000000000000000000000000000000000FF0000FF00000000000000000000000000000000000000000000000000000000FF0000FF00000000000000000000000000000000000000000000000000000000FF0000FF0000000000000000
310
0000000000000000000000000000000000000000FF0000FF00000000000000000000000000000000000000000000000000000000FF0000FF00000000000000000000000000000000000000000000000000000000FF0000FFFFFFFFFFFFFFFFFFFFFFFFFFFFFFFFFFFFFFFFFFFFFFFFFFFFFFFFFFFF00000000000000000000
310
00000000000000000000000000000000000000000000000000000000000000000000000000000000000000000000000000000000000000000000000000000000000000000000000000000000000000000000000000000000000000000000000000000000000000000000000000000000000000000000000000000000000000
310
0000000000000000000000000000000000000000000000000000000000000000000000000000000000000000000000000000000000000000
102
{BLKREFS
331
381
102
}
1001
ACAD
1000
DesignCenter Data
1002
{
1070
     1
1070
     4
1002
}
  0
BLOCK_RECORD
  5
382
330
1
100
AcDbSymbolTableRecord
100
AcDbBlockTableRecord
  2
3
340
0
310
2800000020000000200000000100080000000000000400000000000000000000000000000000000000000000000080000080000000808000800000008000800080800000C0C0C000C0DCC000F0CAA6000020400000206000002080000020A0000020C0000020E00000400000004020000040400000406000004080000040A0
310
000040C0000040E00000600000006020000060400000606000006080000060A0000060C0000060E00000800000008020000080400000806000008080000080A0000080C0000080E00000A0000000A0200000A0400000A0600000A0800000A0A00000A0C00000A0E00000C0000000C0200000C0400000C0600000C0800000C0
310
A00000C0C00000C0E00000E0000000E0200000E0400000E0600000E0800000E0A00000E0C00000E0E00040000000400020004000400040006000400080004000A0004000C0004000E00040200000402020004020400040206000402080004020A0004020C0004020E000404000004040200040404000404060004040800040
310
40A0004040C0004040E00040600000406020004060400040606000406080004060A0004060C0004060E00040800000408020004080400040806000408080004080A0004080C0004080E00040A0000040A0200040A0400040A0600040A0800040A0A00040A0C00040A0E00040C0000040C0200040C0400040C0600040C08000
310
40C0A00040C0C00040C0E00040E0000040E0200040E0400040E0600040E0800040E0A00040E0C00040E0E00080000000800020008000400080006000800080008000A0008000C0008000E00080200000802020008020400080206000802080008020A0008020C0008020E00080400000804020008040400080406000804080
310
008040A0008040C0008040E00080600000806020008060400080606000806080008060A0008060C0008060E00080800000808020008080400080806000808080008080A0008080C0008080E00080A0000080A0200080A0400080A0600080A0800080A0A00080A0C00080A0E00080C0000080C0200080C0400080C0600080C0
310
800080C0A00080C0C00080C0E00080E0000080E0200080E0400080E0600080E0800080E0A00080E0C00080E0E000C0000000C0002000C0004000C0006000C0008000C000A000C000C000C000E000C0200000C0202000C0204000C0206000C0208000C020A000C020C000C020E000C0400000C0402000C0404000C0406000C0
310
408000C040A000C040C000C040E000C0600000C0602000C0604000C0606000C0608000C060A000C060C000C060E000C0800000C0802000C0804000C0806000C0808000C080A000C080C000C080E000C0A00000C0A02000C0A04000C0A06000C0A08000C0A0A000C0A0C000C0A0E000C0C00000C0C02000C0C04000C0C06000
310
C0C08000C0C0A000F0FBFF00A4A0A000808080000000FF0000FF000000FFFF00FF000000FF00FF00FFFF0000FFFFFF00000000000000000000000000000000000000000000000000000000000000000000000000FFFFFFFFFFFFFFFFFFFFFFFFFFFFFFFFFFFFFFFFFFFFFFFF0000000000000000FFFFFFFFFFFFFFFFFFFFFF
310
FFFFFFFFFFFFFFFFFFFFFFFFFF0000000000000000FFFF0000000000FF0000000000000000FF0000000000FFFF0000000000000000FFFF0000000000000000000000000000000000000000FFFF0000000000000000FFFF0000000000FF0000000000000000FF0000000000FFFF0000000000000000FFFF00000000FFFFFF00
310
0000000000FFFFFF00000000FFFF0000000000000000FFFF000000FFFFFFFFFF00000000FFFFFFFFFF000000FFFF0000000000000000FFFFFF00FFFFFFFFFFFFFFFFFFFFFFFFFFFFFFFF00FFFFFF0000000000000000FFFF000000FFFFFFFFFF0000FF00FFFFFFFFFF000000FFFF0000000000000000FFFF00000000FFFFFF
310
000000FF0000FFFFFF00000000FFFF0000000000000000FFFF0000000000FF0000000000000000FF0000000000FFFF0000000000000000FFFF000000000000000000FF00000000000000000000FFFF0000000000000000FFFF0000000000FF00FFFF00FFFF0000FF0000000000FFFF0000000000000000FFFF000000000000
310
FFFFFFFFFFFFFFFF000000000000FFFF0000000000000000FFFF000000000000FF00FF00FFFFFFFF000000000000FFFF0000000000000000FFFF000000FFFF00FFFFFFFFFFFFFFFF00FFFF000000FFFF0000000000000000FFFF000000000000FF00FFFFFFFF00FF000000000000FFFF0000000000000000FFFF0000000000
310
FF00FFFF00FFFFFF00FF0000000000FFFF0000000000000000FFFF000000000000000000FFFF000000000000000000FFFF0000000000000000FFFF0000000000FF0000000000000000FF0000000000FFFF0000000000000000FFFF00000000FFFFFF000000FF0000FFFFFF00000000FFFF0000000000000000FFFF000000FF
310
FFFFFFFF0000FF00FFFFFFFFFF000000FFFF0000000000000000FFFFFF00FFFFFFFFFFFFFFFFFFFFFFFFFFFFFFFF00FFFFFF0000000000000000FFFF000000FFFFFFFFFF00000000FFFFFFFFFF000000FFFF0000000000000000FFFF00000000FFFFFF000000000000FFFFFF00000000FFFF0000000000000000FFFF000000
310
0000FF0000000000000000FF0000000000FFFF0000000000000000FFFF0000000000000000000000000000000000000000FFFF0000000000000000FFFF0000000000FF0000000000000000FF0000000000FFFF0000000000000000FFFFFFFFFFFFFFFFFFFFFFFFFFFFFFFFFFFFFFFFFFFFFFFF0000000000000000FFFFFFFF
310
FFFFFFFFFFFFFFFFFFFFFFFFFFFFFFFFFFFFFFFF000000000000000000000000000000000000000000000000000000000000000000000000
102
{BLKREFS
331
3CE
102
}
1001
ACAD
1000
DesignCenter Data
1002
{
1070
     1
1070
     4
1002
}
  0
BLOCK_RECORD
  5
3CF
330
1
100
AcDbSymbolTableRecord
100
AcDbBlockTableRecord
  2
4
340
0
310
2800000020000000200000000100080000000000000400000000000000000000000000000000000000000000000080000080000000808000800000008000800080800000C0C0C000C0DCC000F0CAA6000020400000206000002080000020A0000020C0000020E00000400000004020000040400000406000004080000040A0
310
000040C0000040E00000600000006020000060400000606000006080000060A0000060C0000060E00000800000008020000080400000806000008080000080A0000080C0000080E00000A0000000A0200000A0400000A0600000A0800000A0A00000A0C00000A0E00000C0000000C0200000C0400000C0600000C0800000C0
310
A00000C0C00000C0E00000E0000000E0200000E0400000E0600000E0800000E0A00000E0C00000E0E00040000000400020004000400040006000400080004000A0004000C0004000E00040200000402020004020400040206000402080004020A0004020C0004020E000404000004040200040404000404060004040800040
310
40A0004040C0004040E00040600000406020004060400040606000406080004060A0004060C0004060E00040800000408020004080400040806000408080004080A0004080C0004080E00040A0000040A0200040A0400040A0600040A0800040A0A00040A0C00040A0E00040C0000040C0200040C0400040C0600040C08000
310
40C0A00040C0C00040C0E00040E0000040E0200040E0400040E0600040E0800040E0A00040E0C00040E0E00080000000800020008000400080006000800080008000A0008000C0008000E00080200000802020008020400080206000802080008020A0008020C0008020E00080400000804020008040400080406000804080
310
008040A0008040C0008040E00080600000806020008060400080606000806080008060A0008060C0008060E00080800000808020008080400080806000808080008080A0008080C0008080E00080A0000080A0200080A0400080A0600080A0800080A0A00080A0C00080A0E00080C0000080C0200080C0400080C0600080C0
310
800080C0A00080C0C00080C0E00080E0000080E0200080E0400080E0600080E0800080E0A00080E0C00080E0E000C0000000C0002000C0004000C0006000C0008000C000A000C000C000C000E000C0200000C0202000C0204000C0206000C0208000C020A000C020C000C020E000C0400000C0402000C0404000C0406000C0
310
408000C040A000C040C000C040E000C0600000C0602000C0604000C0606000C0608000C060A000C060C000C060E000C0800000C0802000C0804000C0806000C0808000C080A000C080C000C080E000C0A00000C0A02000C0A04000C0A06000C0A08000C0A0A000C0A0C000C0A0E000C0C00000C0C02000C0C04000C0C06000
310
C0C08000C0C0A000F0FBFF00A4A0A000808080000000FF0000FF000000FFFF00FF000000FF00FF00FFFF0000FFFFFF00000000000000000000000000000000000000000000000000000000000000000000000000000000000000000000000000000000000000000000000000000000000000000000000000000000000000FF
310
0000000000000000000000000000000000000000000000000000000000FFFFFFFFFF00000000000000000000000000000000000000000000000000FFFF0000FF0000FFFF000000000000000000000000000000000000000000FFFF00000000FF00000000FFFF0000000000000000000000000000000000FFFFFF0000000000
310
FF00FFFFFF0000FFFF00000000000000000000000000FFFFFF00000000000000FF00FF00FFFF000000FFFF000000000000000000FFFFFF000000000000000000FF00FFFF00FF00000000FFFFFF000000000000FFFF0000000000000000000000FF00FFFF00FF000000000000FFFFFF00000000FF0000000000000000000000
310
00FF0000FFFFFF0000000000000000FFFF000000FF000000000000000000000000FF000000FFFF00000000FFFFFF000000FF0000FF000000000000000000000000FF000000000000000000FF0000FF0000FF0000FF000000000000000000000000FF000000000000000000FFFF00FFFF00FF0000FF00000000000000000000
310
FFFFFFFFFF0000000000000000FF0000FF00FF0000FF0000000000000000FFFFFFFF00FFFFFFFF000000000000FFFFFFFF00FF0000FF000000000000FFFFFFFF0000000000FFFFFFFF000000000000000000FF0000FF00000000FFFFFFFF0000FFFFFFFFFF0000FFFFFF0000000000000000FF0000FF0000FFFF00FF000000
310
00FF000000FF00000000FFFFFF000000000000FF0000FFFFFF00FFFF00FFFFFF00FFFFFFFFFF000000000000FFFFFF00000000FF0000FF00FFFF0000FFFF00FFFF00FFFFFFFFFF00000000000000FFFFFF0000FF000000FF00000000FF000000FF00FFFFFFFFFFFF0000FFFFFF000000FFFFFFFF00000000FFFF0000FFFFFF
310
FF0000FFFFFFFF00FF00FFFF00FFFF00000000FFFF000000000000FFFF000000000000FFFFFFFFFFFF00FF000000FF0000FFFF00000000000000000000FFFF00000000000000FFFFFF0000FFFFFFFFFFFF0000000000000000000000000000FFFF00000000FFFF0000FF00000000FF00000000000000000000000000000000
310
0000FFFF0000FFFF0000FF0000FFFF000000000000000000000000000000000000000000FFFF00FFFFFF00FFFF00000000000000000000000000000000000000000000000000FFFF00FFFF0000000000000000000000000000000000000000000000000000000000FF00000000000000000000000000000000000000000000
310
0000000000000000000000000000000000000000000000000000000000000000000000000000000000000000000000000000000000000000
102
{BLKREFS
331
3F8
102
}
1001
ACAD
1000
DesignCenter Data
1002
{
1070
     1
1070
     4
1002
}
  0
ENDTAB
  0
ENDSEC
  0
SECTION
  2
BLOCKS
  0
BLOCK
  5
20
330
1F
100
AcDbEntity
  8
0
100
AcDbBlockBegin
  2
*Model_Space
 70
     0
 10
0.0
 20
0.0
 30
0.0
  3
*Model_Space
  1

  0
ENDBLK
  5
21
330
1F
100
AcDbEntity
  8
0
100
AcDbBlockEnd
  0
BLOCK
  5
D4
330
D2
100
AcDbEntity
 67
     1
  8
0
100
AcDbBlockBegin
  2
*Paper_Space
 70
     0
 10
0.0
 20
0.0
 30
0.0
  3
*Paper_Space
  1

  0
ENDBLK
  5
D5
330
D2
100
AcDbEntity
 67
     1
  8
0
100
AcDbBlockEnd
  0
BLOCK
  5
D8
330
D6
100
AcDbEntity
 67
     1
  8
0
100
AcDbBlockBegin
  2
*Paper_Space0
 70
     0
 10
0.0
 20
0.0
 30
0.0
  3
*Paper_Space0
  1

  0
ENDBLK
  5
D9
330
D6
100
AcDbEntity
 67
     1
  8
0
100
AcDbBlockEnd
  0
BLOCK
  5
1AE
330
1AD
100
AcDbEntity
  8
0
100
AcDbBlockBegin
  2
SW_CENTERMARKSYMBOL_0
 70
     0
 10
0.0
 20
0.0
 30
0.0
  3
SW_CENTERMARKSYMBOL_0
  1

  0
LINE
  5
1AF
330
1AD
100
AcDbEntity
  8
0
  6
Continuous
 62
     0
370
     0
100
AcDbLine
 10
0.0
 20
0.0
 30
0.0
 11
0.0
 21
2.500000000000002
 31
0.0
  0
LINE
  5
1B0
330
1AD
100
AcDbEntity
  8
0
  6
Continuous
 62
     0
370
     0
100
AcDbLine
 10
0.0
 20
0.0
 30
0.0
 11
-2.500000000000002
 21
0.0
 31
0.0
  0
LINE
  5
1B1
330
1AD
100
AcDbEntity
  8
0
  6
Continuous
 62
     0
370
     0
100
AcDbLine
 10
0.0
 20
0.0
 30
0.0
 11
0.0
 21
-2.500000000000002
 31
0.0
  0
LINE
  5
1B2
330
1AD
100
AcDbEntity
  8
0
  6
Continuous
 62
     0
370
     0
100
AcDbLine
 10
0.0
 20
0.0
 30
0.0
 11
2.500000000000002
 21
0.0
 31
0.0
  0
LINE
  5
1B3
330
1AD
100
AcDbEntity
  8
0
  6
Continuous
 62
     0
370
     0
100
AcDbLine
 10
0.0
 20
5.000000000000004
 30
0.0
 11
0.0
 21
5.249999999999976
 31
0.0
  0
LINE
  5
1B4
330
1AD
100
AcDbEntity
  8
0
  6
Continuous
 62
     0
370
     0
100
AcDbLine
 10
-5.000000000000004
 20
0.0
 30
0.0
 11
-5.250000000000004
 21
0.0
 31
0.0
  0
LINE
  5
1B5
330
1AD
100
AcDbEntity
  8
0
  6
Continuous
 62
     0
370
     0
100
AcDbLine
 10
0.0
 20
-5.000000000000004
 30
0.0
 11
0.0
 21
-5.250000000000004
 31
0.0
  0
LINE
  5
1B6
330
1AD
100
AcDbEntity
  8
0
  6
Continuous
 62
     0
370
     0
100
AcDbLine
 10
4.99999999999999
 20
0.0
 30
0.0
 11
5.249999999999991
 21
0.0
 31
0.0
  0
ENDBLK
  5
1B7
330
1AD
100
AcDbEntity
  8
0
100
AcDbBlockEnd
  0
BLOCK
  5
1B9
330
1B8
100
AcDbEntity
  8
0
100
AcDbBlockBegin
  2
SW_CENTERMARKSYMBOL_1
 70
     0
 10
0.0
 20
0.0
 30
0.0
  3
SW_CENTERMARKSYMBOL_1
  1

  0
LINE
  5
1BA
330
1B8
100
AcDbEntity
  8
0
  6
Continuous
 62
     0
370
     0
100
AcDbLine
 10
0.0
 20
0.0
 30
0.0
 11
0.0
 21
2.500000000000002
 31
0.0
  0
LINE
  5
1BB
330
1B8
100
AcDbEntity
  8
0
  6
Continuous
 62
     0
370
     0
100
AcDbLine
 10
0.0
 20
0.0
 30
0.0
 11
-2.500000000000002
 21
0.0
 31
0.0
  0
LINE
  5
1BC
330
1B8
100
AcDbEntity
  8
0
  6
Continuous
 62
     0
370
     0
100
AcDbLine
 10
0.0
 20
0.0
 30
0.0
 11
0.0
 21
-2.500000000000002
 31
0.0
  0
LINE
  5
1BD
330
1B8
100
AcDbEntity
  8
0
  6
Continuous
 62
     0
370
     0
100
AcDbLine
 10
0.0
 20
0.0
 30
0.0
 11
2.500000000000002
 21
0.0
 31
0.0
  0
LINE
  5
1BE
330
1B8
100
AcDbEntity
  8
0
  6
Continuous
 62
     0
370
     0
100
AcDbLine
 10
0.0
 20
5.000000000000004
 30
0.0
 11
0.0
 21
5.249999999999976
 31
0.0
  0
LINE
  5
1BF
330
1B8
100
AcDbEntity
  8
0
  6
Continuous
 62
     0
370
     0
100
AcDbLine
 10
-5.000000000000004
 20
0.0
 30
0.0
 11
-5.250000000000004
 21
0.0
 31
0.0
  0
LINE
  5
1C0
330
1B8
100
AcDbEntity
  8
0
  6
Continuous
 62
     0
370
     0
100
AcDbLine
 10
0.0
 20
-5.000000000000004
 30
0.0
 11
0.0
 21
-5.250000000000004
 31
0.0
  0
LINE
  5
1C1
330
1B8
100
AcDbEntity
  8
0
  6
Continuous
 62
     0
370
     0
100
AcDbLine
 10
4.999999999999997
 20
0.0
 30
0.0
 11
5.249999999999997
 21
0.0
 31
0.0
  0
ENDBLK
  5
1C2
330
1B8
100
AcDbEntity
  8
0
100
AcDbBlockEnd
  0
BLOCK
  5
1C4
330
1C3
100
AcDbEntity
  8
0
100
AcDbBlockBegin
  2
SW_CENTERMARKSYMBOL_2
 70
     0
 10
0.0
 20
0.0
 30
0.0
  3
SW_CENTERMARKSYMBOL_2
  1

  0
LINE
  5
1C5
330
1C3
100
AcDbEntity
  8
0
  6
Continuous
 62
     0
370
     0
100
AcDbLine
 10
0.0
 20
0.0
 30
0.0
 11
0.0
 21
2.500000000000002
 31
0.0
  0
LINE
  5
1C6
330
1C3
100
AcDbEntity
  8
0
  6
Continuous
 62
     0
370
     0
100
AcDbLine
 10
0.0
 20
0.0
 30
0.0
 11
-2.500000000000002
 21
0.0
 31
0.0
  0
LINE
  5
1C7
330
1C3
100
AcDbEntity
  8
0
  6
Continuous
 62
     0
370
     0
100
AcDbLine
 10
0.0
 20
0.0
 30
0.0
 11
0.0
 21
-2.500000000000002
 31
0.0
  0
LINE
  5
1C8
330
1C3
100
AcDbEntity
  8
0
  6
Continuous
 62
     0
370
     0
100
AcDbLine
 10
0.0
 20
0.0
 30
0.0
 11
2.500000000000002
 21
0.0
 31
0.0
  0
LINE
  5
1C9
330
1C3
100
AcDbEntity
  8
0
  6
Continuous
 62
     0
370
     0
100
AcDbLine
 10
0.0
 20
5.000000000000004
 30
0.0
 11
0.0
 21
5.250000000000004
 31
0.0
  0
LINE
  5
1CA
330
1C3
100
AcDbEntity
  8
0
  6
Continuous
 62
     0
370
     0
100
AcDbLine
 10
-5.000000000000004
 20
0.0
 30
0.0
 11
-5.250000000000004
 21
0.0
 31
0.0
  0
LINE
  5
1CB
330
1C3
100
AcDbEntity
  8
0
  6
Continuous
 62
     0
370
     0
100
AcDbLine
 10
0.0
 20
-5.000000000000004
 30
0.0
 11
0.0
 21
-5.249999999999991
 31
0.0
  0
LINE
  5
1CC
330
1C3
100
AcDbEntity
  8
0
  6
Continuous
 62
     0
370
     0
100
AcDbLine
 10
5.000000000000004
 20
0.0
 30
0.0
 11
5.250000000000004
 21
0.0
 31
0.0
  0
ENDBLK
  5
1CD
330
1C3
100
AcDbEntity
  8
0
100
AcDbBlockEnd
  0
BLOCK
  5
1CF
330
1CE
100
AcDbEntity
  8
0
100
AcDbBlockBegin
  2
SW_CENTERMARKSYMBOL_3
 70
     0
 10
0.0
 20
0.0
 30
0.0
  3
SW_CENTERMARKSYMBOL_3
  1

  0
LINE
  5
1D0
330
1CE
100
AcDbEntity
  8
0
  6
Continuous
 62
     0
370
     0
100
AcDbLine
 10
0.0
 20
0.0
 30
0.0
 11
0.0
 21
2.500000000000002
 31
0.0
  0
LINE
  5
1D1
330
1CE
100
AcDbEntity
  8
0
  6
Continuous
 62
     0
370
     0
100
AcDbLine
 10
0.0
 20
0.0
 30
0.0
 11
-2.500000000000002
 21
0.0
 31
0.0
  0
LINE
  5
1D2
330
1CE
100
AcDbEntity
  8
0
  6
Continuous
 62
     0
370
     0
100
AcDbLine
 10
0.0
 20
0.0
 30
0.0
 11
0.0
 21
-2.500000000000002
 31
0.0
  0
LINE
  5
1D3
330
1CE
100
AcDbEntity
  8
0
  6
Continuous
 62
     0
370
     0
100
AcDbLine
 10
0.0
 20
0.0
 30
0.0
 11
2.500000000000002
 21
0.0
 31
0.0
  0
LINE
  5
1D4
330
1CE
100
AcDbEntity
  8
0
  6
Continuous
 62
     0
370
     0
100
AcDbLine
 10
0.0
 20
5.000000000000004
 30
0.0
 11
0.0
 21
5.250000000000004
 31
0.0
  0
LINE
  5
1D5
330
1CE
100
AcDbEntity
  8
0
  6
Continuous
 62
     0
370
     0
100
AcDbLine
 10
-5.000000000000004
 20
0.0
 30
0.0
 11
-5.250000000000004
 21
0.0
 31
0.0
  0
LINE
  5
1D6
330
1CE
100
AcDbEntity
  8
0
  6
Continuous
 62
     0
370
     0
100
AcDbLine
 10
0.0
 20
-5.000000000000004
 30
0.0
 11
0.0
 21
-5.249999999999991
 31
0.0
  0
LINE
  5
1D7
330
1CE
100
AcDbEntity
  8
0
  6
Continuous
 62
     0
370
     0
100
AcDbLine
 10
4.999999999999997
 20
0.0
 30
0.0
 11
5.249999999999997
 21
0.0
 31
0.0
  0
ENDBLK
  5
1D8
330
1CE
100
AcDbEntity
  8
0
100
AcDbBlockEnd
  0
BLOCK
  5
1DA
330
1D9
100
AcDbEntity
  8
0
100
AcDbBlockBegin
  2
SW_CENTERMARKSYMBOL_4
 70
     0
 10
0.0
 20
0.0
 30
0.0
  3
SW_CENTERMARKSYMBOL_4
  1

  0
LINE
  5
1DB
330
1D9
100
AcDbEntity
  8
0
  6
Continuous
 62
     0
370
     0
100
AcDbLine
 10
0.0
 20
0.0
 30
0.0
 11
0.0
 21
2.500000000000002
 31
0.0
  0
LINE
  5
1DC
330
1D9
100
AcDbEntity
  8
0
  6
Continuous
 62
     0
370
     0
100
AcDbLine
 10
0.0
 20
0.0
 30
0.0
 11
-2.500000000000002
 21
0.0
 31
0.0
  0
LINE
  5
1DD
330
1D9
100
AcDbEntity
  8
0
  6
Continuous
 62
     0
370
     0
100
AcDbLine
 10
0.0
 20
0.0
 30
0.0
 11
0.0
 21
-2.500000000000002
 31
0.0
  0
LINE
  5
1DE
330
1D9
100
AcDbEntity
  8
0
  6
Continuous
 62
     0
370
     0
100
AcDbLine
 10
0.0
 20
0.0
 30
0.0
 11
2.500000000000002
 21
0.0
 31
0.0
  0
LINE
  5
1DF
330
1D9
100
AcDbEntity
  8
0
  6
Continuous
 62
     0
370
     0
100
AcDbLine
 10
0.0
 20
5.000000000000004
 30
0.0
 11
0.0
 21
6.000000000000005
 31
0.0
  0
LINE
  5
1E0
330
1D9
100
AcDbEntity
  8
0
  6
Continuous
 62
     0
370
     0
100
AcDbLine
 10
-4.99999999999999
 20
0.0
 30
0.0
 11
-5.999999999999991
 21
0.0
 31
0.0
  0
LINE
  5
1E1
330
1D9
100
AcDbEntity
  8
0
  6
Continuous
 62
     0
370
     0
100
AcDbLine
 10
0.0
 20
-5.000000000000004
 30
0.0
 11
0.0
 21
-6.000000000000005
 31
0.0
  0
LINE
  5
1E2
330
1D9
100
AcDbEntity
  8
0
  6
Continuous
 62
     0
370
     0
100
AcDbLine
 10
5.000000000000004
 20
0.0
 30
0.0
 11
6.000000000000005
 21
0.0
 31
0.0
  0
ENDBLK
  5
1E3
330
1D9
100
AcDbEntity
  8
0
100
AcDbBlockEnd
  0
BLOCK
  5
33F
330
33E
100
AcDbEntity
  8
0
100
AcDbBlockBegin
  2
1
 70
     0
 10
0.0
 20
0.0
 30
0.0
  3
1
  1

  0
LINE
  5
341
330
33E
100
AcDbEntity
  8
0
  6
Continuous
 62
     7
370
    15
100
AcDbLine
 10
1581.560795993995
 20
1245.726139841433
 30
0.0
 11
1560.560795993995
 21
1245.726139841433
 31
0.0
  0
LINE
  5
342
330
33E
100
AcDbEntity
  8
0
  6
Continuous
 62
     7
370
    15
100
AcDbLine
 10
1582.060795993995
 20
1246.226139841432
 30
0.0
 11
1560.060795993995
 21
1246.226139841432
 31
0.0
  0
LINE
  5
343
330
33E
100
AcDbEntity
  8
0
  6
Continuous
 62
     7
370
    15
100
AcDbLine
 10
1581.560795993995
 20
1245.726139841433
 30
0.0
 11
1582.060795993995
 21
1246.226139841432
 31
0.0
  0
LINE
  5
344
330
33E
100
AcDbEntity
  8
0
  6
Continuous
 62
     7
370
    15
100
AcDbLine
 10
1560.060795993995
 20
1246.226139841432
 30
0.0
 11
1560.560795993995
 21
1245.726139841433
 31
0.0
  0
LINE
  5
345
330
33E
100
AcDbEntity
  8
0
  6
Continuous
 62
     7
370
    15
100
AcDbLine
 10
1560.060795993995
 20
1263.726139841433
 30
0.0
 11
1582.060795993995
 21
1263.726139841433
 31
0.0
  0
LINE
  5
346
330
33E
100
AcDbEntity
  8
0
  6
Continuous
 62
     7
370
    15
100
AcDbLine
 10
1582.060795993995
 20
1263.726139841433
 30
0.0
 11
1582.060795993995
 21
1246.226139841432
 31
0.0
  0
LINE
  5
347
330
33E
100
AcDbEntity
  8
0
  6
Continuous
 62
     7
370
    15
100
AcDbLine
 10
1560.060795993995
 20
1246.226139841432
 30
0.0
 11
1560.060795993995
 21
1263.726139841433
 31
0.0
  0
LINE
  5
348
330
33E
100
AcDbEntity
  8
0
  6
Continuous
 62
     7
370
    15
100
AcDbLine
 10
1560.060795993995
 20
1263.726139841433
 30
0.0
 11
1560.560795993995
 21
1264.226139841433
 31
0.0
  0
LINE
  5
349
330
33E
100
AcDbEntity
  8
0
  6
Continuous
 62
     7
370
    15
100
AcDbLine
 10
1560.560795993995
 20
1264.226139841433
 30
0.0
 11
1581.560795993995
 21
1264.226139841433
 31
0.0
  0
LINE
  5
34A
330
33E
100
AcDbEntity
  8
0
  6
Continuous
 62
     7
370
    15
100
AcDbLine
 10
1581.560795993995
 20
1264.226139841433
 30
0.0
 11
1582.060795993995
 21
1263.726139841433
 31
0.0
  0
ENDBLK
  5
340
330
33E
100
AcDbEntity
  8
0
100
AcDbBlockEnd
  0
BLOCK
  5
34D
330
34C
100
AcDbEntity
  8
0
100
AcDbBlockBegin
  2
2
 70
     0
 10
0.0
 20
0.0
 30
0.0
  3
2
  1

  0
LINE
  5
34F
330
34C
100
AcDbEntity
  8
0
  6
Continuous
 62
     7
370
    15
100
AcDbLine
 10
1510.252608330158
 20
1253.226139841433
 30
0.0
 11
1510.252608330158
 21
1257.676139841433
 31
0.0
  0
LINE
  5
350
330
34C
100
AcDbEntity
  8
0
  6
Continuous
 62
     7
370
    15
100
AcDbLine
 10
1510.252608330158
 20
1257.676139841433
 30
0.0
 11
1503.752608330158
 21
1257.676139841433
 31
0.0
  0
LINE
  5
351
330
34C
100
AcDbEntity
  8
0
  6
Continuous
 62
     7
370
    15
100
AcDbLine
 10
1503.752608330158
 20
1257.676139841433
 30
0.0
 11
1503.752608330158
 21
1253.226139841433
 31
0.0
  0
ARC
  5
352
330
34C
100
AcDbEntity
  8
0
  6
Continuous
 62
     7
370
    15
100
AcDbCircle
 10
1507.002608330157
 20
1253.226139841433
 30
0.0
 40
3.25
100
AcDbArc
 50
180.0
 51
0.0
  0
LINE
  5
353
330
34C
100
AcDbEntity
  8
0
  6
Continuous
 62
     7
370
    15
100
AcDbLine
 10
1524.752608330158
 20
1253.226139841433
 30
0.0
 11
1524.752608330158
 21
1257.676139841433
 31
0.0
  0
LINE
  5
354
330
34C
100
AcDbEntity
  8
0
  6
Continuous
 62
     7
370
    15
100
AcDbLine
 10
1524.752608330158
 20
1257.676139841433
 30
0.0
 11
1518.252608330158
 21
1257.676139841433
 31
0.0
  0
LINE
  5
355
330
34C
100
AcDbEntity
  8
0
  6
Continuous
 62
     7
370
    15
100
AcDbLine
 10
1518.252608330158
 20
1257.676139841433
 30
0.0
 11
1518.252608330158
 21
1253.226139841433
 31
0.0
  0
ARC
  5
356
330
34C
100
AcDbEntity
  8
0
  6
Continuous
 62
     7
370
    15
100
AcDbCircle
 10
1521.502608330157
 20
1253.226139841433
 30
0.0
 40
3.250000000000014
100
AcDbArc
 50
180.0
 51
0.0
  0
LINE
  5
357
330
34C
100
AcDbEntity
  8
0
  6
Continuous
 62
     7
370
    15
100
AcDbLine
 10
1500.752608330158
 20
1263.726139841433
 30
0.0
 11
1500.752608330158
 21
1246.226139841432
 31
0.0
  0
LINE
  5
358
330
34C
100
AcDbEntity
  8
0
  6
Continuous
 62
     7
370
    15
100
AcDbLine
 10
1500.752608330158
 20
1263.726139841433
 30
0.0
 11
1527.752608330158
 21
1263.726139841433
 31
0.0
  0
LINE
  5
359
330
34C
100
AcDbEntity
  8
0
  6
Continuous
 62
     7
370
    15
100
AcDbLine
 10
1527.752608330158
 20
1263.726139841433
 30
0.0
 11
1527.752608330158
 21
1246.226139841432
 31
0.0
  0
LINE
  5
35A
330
34C
100
AcDbEntity
  8
0
  6
Continuous
 62
     7
370
    15
100
AcDbLine
 10
1527.752608330158
 20
1246.226139841432
 30
0.0
 11
1500.752608330158
 21
1246.226139841432
 31
0.0
  0
LINE
  5
35B
330
34C
100
AcDbEntity
  8
0
  6
Continuous
 62
     7
370
    15
100
AcDbLine
 10
1527.252608330158
 20
1245.726139841433
 30
0.0
 11
1501.252608330158
 21
1245.726139841433
 31
0.0
  0
LINE
  5
35C
330
34C
100
AcDbEntity
  8
0
  6
Continuous
 62
     7
370
    15
100
AcDbLine
 10
1501.252608330158
 20
1245.726139841433
 30
0.0
 11
1500.752608330158
 21
1246.226139841432
 31
0.0
  0
LINE
  5
35D
330
34C
100
AcDbEntity
  8
0
  6
Continuous
 62
     7
370
    15
100
AcDbLine
 10
1527.252608330158
 20
1245.726139841433
 30
0.0
 11
1527.752608330158
 21
1246.226139841432
 31
0.0
  0
LINE
  5
35E
330
34C
100
AcDbEntity
  8
0
  6
Continuous
 62
     7
370
    15
100
AcDbLine
 10
1527.252608330158
 20
1264.226139841433
 30
0.0
 11
1527.752608330158
 21
1263.726139841433
 31
0.0
  0
LINE
  5
35F
330
34C
100
AcDbEntity
  8
0
  6
Continuous
 62
     7
370
    15
100
AcDbLine
 10
1501.252608330158
 20
1264.226139841433
 30
0.0
 11
1500.752608330158
 21
1263.726139841433
 31
0.0
  0
LINE
  5
360
330
34C
100
AcDbEntity
  8
0
  6
Continuous
 62
     7
370
    15
100
AcDbLine
 10
1501.252608330158
 20
1264.226139841433
 30
0.0
 11
1527.252608330158
 21
1264.226139841433
 31
0.0
  0
LINE
  5
361
330
34C
100
AcDbEntity
  8
0
  6
Continuous
 62
     7
370
    15
100
AcDbLine
 10
1518.477608330157
 20
1256.326141018153
 30
0.0
 11
1518.477608330157
 21
1253.226140455153
 31
0.0
  0
ARC
  5
362
330
34C
100
AcDbEntity
  8
0
  6
Continuous
 62
     7
370
    15
100
AcDbCircle
 10
1519.502608330157
 20
1256.326141018153
 30
0.0
 40
1.02499999999955
100
AcDbArc
 50
89.99999999998697
 51
180.0
  0
LINE
  5
363
330
34C
100
AcDbEntity
  8
0
  6
Continuous
 62
     7
370
    15
100
AcDbLine
 10
1524.177608330158
 20
1257.351141018153
 30
0.0
 11
1519.502608330157
 21
1257.351141018152
 31
0.0
  0
LINE
  5
364
330
34C
100
AcDbEntity
  8
0
  6
Continuous
 62
     7
370
    15
100
AcDbLine
 10
1524.177608330158
 20
1256.651141018152
 30
0.0
 11
1524.177608330158
 21
1257.351141018153
 31
0.0
  0
LINE
  5
365
330
34C
100
AcDbEntity
  8
0
  6
Continuous
 62
     7
370
    15
100
AcDbLine
 10
1519.502608330157
 20
1256.651141018152
 30
0.0
 11
1524.177608330158
 21
1256.651141018152
 31
0.0
  0
LINE
  5
366
330
34C
100
AcDbEntity
  8
0
  6
Continuous
 62
     7
370
    15
100
AcDbLine
 10
1519.502608330157
 20
1256.501141018153
 30
0.0
 11
1519.502608330157
 21
1256.651141018152
 31
0.0
  0
LINE
  5
367
330
34C
100
AcDbEntity
  8
0
  6
Continuous
 62
     7
370
    15
100
AcDbLine
 10
1523.502608330157
 20
1256.501141018153
 30
0.0
 11
1519.502608330157
 21
1256.501141018153
 31
0.0
  0
LINE
  5
368
330
34C
100
AcDbEntity
  8
0
  6
Continuous
 62
     7
370
    15
100
AcDbLine
 10
1519.252608330157
 20
1255.376141018152
 30
0.0
 11
1519.252608330157
 21
1253.226140471818
 31
0.0
  0
ARC
  5
369
330
34C
100
AcDbEntity
  8
0
  6
Continuous
 62
     7
370
    15
100
AcDbCircle
 10
1521.502608330157
 20
1253.226139841433
 30
0.0
 40
2.250000000000301
100
AcDbArc
 50
179.9999839473592
 51
0.0
  0
LINE
  5
36A
330
34C
100
AcDbEntity
  8
0
  6
Continuous
 62
     7
370
    15
100
AcDbLine
 10
1523.752608330157
 20
1253.226139841433
 30
0.0
 11
1523.752608330157
 21
1255.376141018152
 31
0.0
  0
ARC
  5
36B
330
34C
100
AcDbEntity
  8
0
  6
Continuous
 62
     7
370
    15
100
AcDbCircle
 10
1523.402608330157
 20
1255.376141018152
 30
0.0
 40
0.3500000000000227
100
AcDbArc
 50
0.0
 51
89.99999999990881
  0
LINE
  5
36C
330
34C
100
AcDbEntity
  8
0
  6
Continuous
 62
     7
370
    15
100
AcDbLine
 10
1523.402608330158
 20
1255.726141018153
 30
0.0
 11
1519.602608330157
 21
1255.726141018153
 31
0.0
  0
ARC
  5
36D
330
34C
100
AcDbEntity
  8
0
  6
Continuous
 62
     7
370
    15
100
AcDbCircle
 10
1519.602608330157
 20
1255.376141018152
 30
0.0
 40
0.3500000000000085
100
AcDbArc
 50
90.0
 51
180.0
  0
ARC
  5
36E
330
34C
100
AcDbEntity
  8
0
  6
Continuous
 62
     7
370
    15
100
AcDbCircle
 10
1523.502608330157
 20
1255.476141018153
 30
0.0
 40
1.025000000000787
100
AcDbArc
 50
0.0
 51
90.0
  0
ARC
  5
36F
330
34C
100
AcDbEntity
  8
0
  6
Continuous
 62
     7
370
    15
100
AcDbCircle
 10
1521.502608330157
 20
1253.226139841433
 30
0.0
 40
3.025000000000593
100
AcDbArc
 50
179.9999883756847
 51
0.0
  0
LINE
  5
370
330
34C
100
AcDbEntity
  8
0
  6
Continuous
 62
     7
370
    15
100
AcDbLine
 10
1524.527608330158
 20
1253.226139841433
 30
0.0
 11
1524.527608330157
 21
1255.476141018153
 31
0.0
  0
LINE
  5
371
330
34C
100
AcDbEntity
  8
0
  6
Continuous
 62
     7
370
    15
100
AcDbLine
 10
1509.252608330157
 20
1255.376141018152
 30
0.0
 11
1509.252608330158
 21
1253.226139841433
 31
0.0
  0
ARC
  5
372
330
34C
100
AcDbEntity
  8
0
  6
Continuous
 62
     7
370
    15
100
AcDbCircle
 10
1508.902608330157
 20
1255.376141018152
 30
0.0
 40
0.350000000000108
100
AcDbArc
 50
0.0
 51
89.99999999990881
  0
LINE
  5
373
330
34C
100
AcDbEntity
  8
0
  6
Continuous
 62
     7
370
    15
100
AcDbLine
 10
1505.102608330157
 20
1255.726141018153
 30
0.0
 11
1508.902608330158
 21
1255.726141018153
 31
0.0
  0
ARC
  5
374
330
34C
100
AcDbEntity
  8
0
  6
Continuous
 62
     7
370
    15
100
AcDbCircle
 10
1505.102608330157
 20
1255.376141018152
 30
0.0
 40
0.3499999999999943
100
AcDbArc
 50
90.0
 51
180.0
  0
LINE
  5
375
330
34C
100
AcDbEntity
  8
0
  6
Continuous
 62
     7
370
    15
100
AcDbLine
 10
1504.752608330157
 20
1253.226140471818
 30
0.0
 11
1504.752608330157
 21
1255.376141018152
 31
0.0
  0
ARC
  5
376
330
34C
100
AcDbEntity
  8
0
  6
Continuous
 62
     7
370
    15
100
AcDbCircle
 10
1507.002608330157
 20
1253.226139841433
 30
0.0
 40
2.250000000000372
100
AcDbArc
 50
179.9999839473592
 51
0.0
  0
LINE
  5
377
330
34C
100
AcDbEntity
  8
0
  6
Continuous
 62
     7
370
    15
100
AcDbLine
 10
1503.977608330157
 20
1256.326141018153
 30
0.0
 11
1503.977608330157
 21
1253.226140455153
 31
0.0
  0
ARC
  5
378
330
34C
100
AcDbEntity
  8
0
  6
Continuous
 62
     7
370
    15
100
AcDbCircle
 10
1505.002608330156
 20
1256.326141018153
 30
0.0
 40
1.02499999999955
100
AcDbArc
 50
89.99999999998697
 51
180.0
  0
LINE
  5
379
330
34C
100
AcDbEntity
  8
0
  6
Continuous
 62
     7
370
    15
100
AcDbLine
 10
1509.677608330158
 20
1257.351141018153
 30
0.0
 11
1505.002608330157
 21
1257.351141018152
 31
0.0
  0
LINE
  5
37A
330
34C
100
AcDbEntity
  8
0
  6
Continuous
 62
     7
370
    15
100
AcDbLine
 10
1509.677608330158
 20
1256.651141018152
 30
0.0
 11
1509.677608330158
 21
1257.351141018153
 31
0.0
  0
LINE
  5
37B
330
34C
100
AcDbEntity
  8
0
  6
Continuous
 62
     7
370
    15
100
AcDbLine
 10
1509.677608330158
 20
1256.651141018152
 30
0.0
 11
1505.002608330156
 21
1256.651141018152
 31
0.0
  0
LINE
  5
37C
330
34C
100
AcDbEntity
  8
0
  6
Continuous
 62
     7
370
    15
100
AcDbLine
 10
1505.002608330156
 20
1256.651141018152
 30
0.0
 11
1505.002608330156
 21
1256.501141018153
 31
0.0
  0
LINE
  5
37D
330
34C
100
AcDbEntity
  8
0
  6
Continuous
 62
     7
370
    15
100
AcDbLine
 10
1505.002608330156
 20
1256.501141018153
 30
0.0
 11
1509.002608330157
 21
1256.501141018153
 31
0.0
  0
LINE
  5
37E
330
34C
100
AcDbEntity
  8
0
  6
Continuous
 62
     7
370
    15
100
AcDbLine
 10
1510.027608330158
 20
1253.226139841433
 30
0.0
 11
1510.027608330157
 21
1255.476141018153
 31
0.0
  0
ARC
  5
37F
330
34C
100
AcDbEntity
  8
0
  6
Continuous
 62
     7
370
    15
100
AcDbCircle
 10
1507.002608330157
 20
1253.226139841433
 30
0.0
 40
3.025000000000579
100
AcDbArc
 50
179.9999883756847
 51
0.0
  0
ARC
  5
380
330
34C
100
AcDbEntity
  8
0
  6
Continuous
 62
     7
370
    15
100
AcDbCircle
 10
1509.002608330157
 20
1255.476141018153
 30
0.0
 40
1.025000000000829
100
AcDbArc
 50
0.0
 51
90.0
  0
ENDBLK
  5
34E
330
34C
100
AcDbEntity
  8
0
100
AcDbBlockEnd
  0
BLOCK
  5
383
330
382
100
AcDbEntity
  8
0
100
AcDbBlockBegin
  2
3
 70
     0
 10
0.0
 20
0.0
 30
0.0
  3
3
  1

  0
LINE
  5
385
330
382
100
AcDbEntity
  8
0
  6
Continuous
 62
     7
370
    15
100
AcDbLine
 10
1581.560795993995
 20
1219.689136519173
 30
0.0
 11
1582.060795993995
 21
1220.189136519173
 31
0.0
  0
LINE
  5
386
330
382
100
AcDbEntity
  8
0
  6
Continuous
 62
     7
370
    15
100
AcDbLine
 10
1581.560795993995
 20
1219.689136519173
 30
0.0
 11
1560.560795993995
 21
1219.689136519173
 31
0.0
  0
LINE
  5
387
330
382
100
AcDbEntity
  8
0
  6
Continuous
 62
     7
370
    15
100
AcDbLine
 10
1560.560795993995
 20
1219.689136519173
 30
0.0
 11
1560.060795993995
 21
1220.189136519173
 31
0.0
  0
LINE
  5
388
330
382
100
AcDbEntity
  8
0
  6
Continuous
 62
     7
370
    15
100
AcDbLine
 10
1582.060795993995
 20
1220.189136519173
 30
0.0
 11
1560.060795993995
 21
1220.189136519173
 31
0.0
  0
LINE
  5
389
330
382
100
AcDbEntity
  8
0
  6
Continuous
 62
     7
370
    15
100
AcDbLine
 10
1560.560795993995
 20
1219.689136519173
 30
0.0
 11
1560.560795993995
 21
1193.689136519173
 31
0.0
  0
LINE
  5
38A
330
382
100
AcDbEntity
  8
0
  6
Continuous
 62
     7
370
    15
100
AcDbLine
 10
1560.060795993995
 20
1193.189136519174
 30
0.0
 11
1560.560795993995
 21
1193.689136519173
 31
0.0
  0
LINE
  5
38B
330
382
100
AcDbEntity
  8
0
  6
Continuous
 62
     7
370
    15
100
AcDbLine
 10
1560.060795993995
 20
1220.189136519173
 30
0.0
 11
1560.060795993995
 21
1193.189136519174
 31
0.0
  0
LINE
  5
38C
330
382
100
AcDbEntity
  8
0
  6
Continuous
 62
     7
370
    15
100
AcDbLine
 10
1582.060795993995
 20
1193.189136519174
 30
0.0
 11
1582.060795993995
 21
1220.189136519173
 31
0.0
  0
LINE
  5
38D
330
382
100
AcDbEntity
  8
0
  6
Continuous
 62
     7
370
    15
100
AcDbLine
 10
1581.560795993995
 20
1193.689136519173
 30
0.0
 11
1582.060795993995
 21
1193.189136519174
 31
0.0
  0
LINE
  5
38E
330
382
100
AcDbEntity
  8
0
  6
Continuous
 62
     7
370
    15
100
AcDbLine
 10
1581.560795993995
 20
1193.689136519173
 30
0.0
 11
1581.560795993995
 21
1219.689136519173
 31
0.0
  0
CIRCLE
  5
38F
330
382
100
AcDbEntity
  8
0
  6
Continuous
 62
     7
370
    15
100
AcDbCircle
 10
1571.060795993995
 20
1206.689136519173
 30
0.0
 40
3.5
  0
CIRCLE
  5
390
330
382
100
AcDbEntity
  8
0
  6
Continuous
 62
     7
370
    15
100
AcDbCircle
 10
1566.710795993995
 20
1213.939136519173
 30
0.0
 40
2.75
  0
CIRCLE
  5
391
330
382
100
AcDbEntity
  8
0
  6
Continuous
 62
     7
370
    15
100
AcDbCircle
 10
1575.410795993995
 20
1213.939136519173
 30
0.0
 40
2.75
  0
CIRCLE
  5
392
330
382
100
AcDbEntity
  8
0
  6
Continuous
 62
     7
370
    15
100
AcDbCircle
 10
1566.710795993995
 20
1199.439136519173
 30
0.0
 40
2.75
  0
CIRCLE
  5
393
330
382
100
AcDbEntity
  8
0
  6
Continuous
 62
     7
370
    15
100
AcDbCircle
 10
1575.410795993995
 20
1199.439136519173
 30
0.0
 40
2.75
  0
LINE
  5
394
330
382
100
AcDbEntity
  8
0
  6
Continuous
 62
     7
370
    15
100
AcDbLine
 10
1560.560795993995
 20
1193.689136519173
 30
0.0
 11
1581.560795993995
 21
1193.689136519173
 31
0.0
  0
LINE
  5
395
330
382
100
AcDbEntity
  8
0
  6
Continuous
 62
     7
370
    15
100
AcDbLine
 10
1560.060795993995
 20
1193.189136519174
 30
0.0
 11
1582.060795993995
 21
1193.189136519174
 31
0.0
  0
LINE
  5
396
330
382
100
AcDbEntity
  8
0
  6
Continuous
 62
     7
370
    15
100
AcDbLine
 10
1571.060795993995
 20
1203.225034904036
 30
0.0
 11
1568.060795993995
 21
1204.957085711605
 31
0.0
  0
LINE
  5
397
330
382
100
AcDbEntity
  8
0
  6
Continuous
 62
     7
370
    15
100
AcDbLine
 10
1574.060795993995
 20
1204.957085711605
 30
0.0
 11
1571.060795993995
 21
1203.225034904036
 31
0.0
  0
LINE
  5
398
330
382
100
AcDbEntity
  8
0
  6
Continuous
 62
     7
370
    15
100
AcDbLine
 10
1574.060795993995
 20
1208.421187326742
 30
0.0
 11
1574.060795993995
 21
1204.957085711605
 31
0.0
  0
LINE
  5
399
330
382
100
AcDbEntity
  8
0
  6
Continuous
 62
     7
370
    15
100
AcDbLine
 10
1568.060795993995
 20
1208.421187326742
 30
0.0
 11
1571.060795993995
 21
1210.153238134311
 31
0.0
  0
LINE
  5
39A
330
382
100
AcDbEntity
  8
0
  6
Continuous
 62
     7
370
    15
100
AcDbLine
 10
1568.060795993995
 20
1204.957085711605
 30
0.0
 11
1568.060795993995
 21
1208.421187326742
 31
0.0
  0
LINE
  5
39B
330
382
100
AcDbEntity
  8
0
  6
Continuous
 62
     7
370
    15
100
AcDbLine
 10
1571.060795993995
 20
1210.153238134311
 30
0.0
 11
1574.060795993995
 21
1208.421187326742
 31
0.0
  0
CIRCLE
  5
39C
330
382
100
AcDbEntity
  8
0
  6
Continuous
 62
     7
370
    15
100
AcDbCircle
 10
1566.710795993995
 20
1213.939136519173
 30
0.0
 40
2.150000000004496
  0
ARC
  5
39D
330
382
100
AcDbEntity
  8
0
  6
Continuous
 62
     7
370
    15
100
AcDbCircle
 10
1566.710795993995
 20
1213.939136519173
 30
0.0
 40
1.950000000009195
100
AcDbArc
 50
104.8571655448502
 51
255.1428344551498
  0
SPLINE
  5
39E
330
382
100
AcDbEntity
  8
0
  6
Continuous
 62
     7
370
    15
100
AcDbSpline
210
0.0
220
0.0
230
1.0
 70
    24
 71
     3
 72
     8
 73
     4
 74
     0
 42
0.0000000001
 43
0.0000000001
 40
0.0000000000000014
 40
0.0000000000000014
 40
0.0000000000000014
 40
0.0000000000000014
 40
0.0012048291357196
 40
0.0012048291357196
 40
0.0012048291357196
 40
0.0012048291357196
 10
1566.210795993995
 20
1211.946564063635
 30
0.0
 10
1566.210795993995
 20
1211.982425515163
 30
0.0
 10
1566.210795993995
 20
1212.01834367032
 30
0.0
 10
1566.210795993995
 20
1212.054328836668
 30
0.0
  0
ARC
  5
39F
330
382
100
AcDbEntity
  8
0
  6
Continuous
 62
     7
370
    15
100
AcDbCircle
 10
1566.710795993995
 20
1213.939136519173
 30
0.0
 40
2.054347826092872
100
AcDbArc
 50
255.913514232275
 51
284.0864857677376
  0
SPLINE
  5
3A0
330
382
100
AcDbEntity
  8
0
  6
Continuous
 62
     7
370
    15
100
AcDbSpline
210
0.0
220
0.0
230
1.0
 70
    24
 71
     3
 72
     8
 73
     4
 74
     0
 42
0.0000000001
 43
0.0000000001
 40
0.0000000000000084
 40
0.0000000000000084
 40
0.0000000000000084
 40
0.0000000000000084
 40
0.0012048291357281
 40
0.0012048291357281
 40
0.0012048291357281
 40
0.0012048291357281
 10
1567.210795993995
 20
1212.054328836668
 30
0.0
 10
1567.210795993995
 20
1212.01834367032
 30
0.0
 10
1567.210795993995
 20
1211.982425515163
 30
0.0
 10
1567.210795993995
 20
1211.946564063635
 30
0.0
  0
ARC
  5
3A1
330
382
100
AcDbEntity
  8
0
  6
Continuous
 62
     7
370
    15
100
AcDbCircle
 10
1566.710795993995
 20
1213.939136519173
 30
0.0
 40
1.950000000009195
100
AcDbArc
 50
284.8571655448502
 51
75.1428344551498
  0
SPLINE
  5
3A2
330
382
100
AcDbEntity
  8
0
  6
Continuous
 62
     7
370
    15
100
AcDbSpline
210
0.0
220
0.0
230
1.0
 70
    24
 71
     3
 72
     8
 73
     4
 74
     0
 42
0.0000000001
 43
0.0000000001
 40
0.0000000000000014
 40
0.0000000000000014
 40
0.0000000000000014
 40
0.0000000000000014
 40
0.0012048291357196
 40
0.0012048291357196
 40
0.0012048291357196
 40
0.0012048291357196
 10
1567.210795993995
 20
1215.931708974713
 30
0.0
 10
1567.210795993995
 20
1215.895847523184
 30
0.0
 10
1567.210795993995
 20
1215.859929368028
 30
0.0
 10
1567.210795993995
 20
1215.823944201679
 30
0.0
  0
ARC
  5
3A3
330
382
100
AcDbEntity
  8
0
  6
Continuous
 62
     7
370
    15
100
AcDbCircle
 10
1566.710795993995
 20
1213.939136519173
 30
0.0
 40
2.054347826092872
100
AcDbArc
 50
75.91351423227502
 51
104.086485767725
  0
SPLINE
  5
3A4
330
382
100
AcDbEntity
  8
0
  6
Continuous
 62
     7
370
    15
100
AcDbSpline
210
0.0
220
0.0
230
1.0
 70
    24
 71
     3
 72
     8
 73
     4
 74
     0
 42
0.0000000001
 43
0.0000000001
 40
0.0000000000000084
 40
0.0000000000000084
 40
0.0000000000000084
 40
0.0000000000000084
 40
0.001204829135728
 40
0.001204829135728
 40
0.001204829135728
 40
0.001204829135728
 10
1566.210795993995
 20
1215.823944201679
 30
0.0
 10
1566.210795993995
 20
1215.859929368028
 30
0.0
 10
1566.210795993995
 20
1215.895847523184
 30
0.0
 10
1566.210795993995
 20
1215.931708974713
 30
0.0
  0
CIRCLE
  5
3A5
330
382
100
AcDbEntity
  8
0
  6
Continuous
 62
     7
370
    15
100
AcDbCircle
 10
1575.410795993995
 20
1213.939136519173
 30
0.0
 40
2.150000000004496
  0
ARC
  5
3A6
330
382
100
AcDbEntity
  8
0
  6
Continuous
 62
     7
370
    15
100
AcDbCircle
 10
1575.410795993995
 20
1213.939136519173
 30
0.0
 40
1.950000000009195
100
AcDbArc
 50
104.8571655448502
 51
255.1428344551498
  0
SPLINE
  5
3A7
330
382
100
AcDbEntity
  8
0
  6
Continuous
 62
     7
370
    15
100
AcDbSpline
210
0.0
220
0.0
230
1.0
 70
    24
 71
     3
 72
     8
 73
     4
 74
     0
 42
0.0000000001
 43
0.0000000001
 40
0.0000000000000014
 40
0.0000000000000014
 40
0.0000000000000014
 40
0.0000000000000014
 40
0.0012048291357196
 40
0.0012048291357196
 40
0.0012048291357196
 40
0.0012048291357196
 10
1574.910795993995
 20
1211.946564063635
 30
0.0
 10
1574.910795993995
 20
1211.982425515163
 30
0.0
 10
1574.910795993995
 20
1212.01834367032
 30
0.0
 10
1574.910795993995
 20
1212.054328836668
 30
0.0
  0
ARC
  5
3A8
330
382
100
AcDbEntity
  8
0
  6
Continuous
 62
     7
370
    15
100
AcDbCircle
 10
1575.410795993995
 20
1213.939136519173
 30
0.0
 40
2.054347826092872
100
AcDbArc
 50
255.913514232275
 51
284.0864857677376
  0
SPLINE
  5
3A9
330
382
100
AcDbEntity
  8
0
  6
Continuous
 62
     7
370
    15
100
AcDbSpline
210
0.0
220
0.0
230
1.0
 70
    24
 71
     3
 72
     8
 73
     4
 74
     0
 42
0.0000000001
 43
0.0000000001
 40
0.0000000000000084
 40
0.0000000000000084
 40
0.0000000000000084
 40
0.0000000000000084
 40
0.0012048291357281
 40
0.0012048291357281
 40
0.0012048291357281
 40
0.0012048291357281
 10
1575.910795993995
 20
1212.054328836668
 30
0.0
 10
1575.910795993995
 20
1212.01834367032
 30
0.0
 10
1575.910795993995
 20
1211.982425515163
 30
0.0
 10
1575.910795993995
 20
1211.946564063635
 30
0.0
  0
ARC
  5
3AA
330
382
100
AcDbEntity
  8
0
  6
Continuous
 62
     7
370
    15
100
AcDbCircle
 10
1575.410795993995
 20
1213.939136519173
 30
0.0
 40
1.950000000009195
100
AcDbArc
 50
284.8571655448502
 51
75.1428344551498
  0
SPLINE
  5
3AB
330
382
100
AcDbEntity
  8
0
  6
Continuous
 62
     7
370
    15
100
AcDbSpline
210
0.0
220
0.0
230
1.0
 70
    24
 71
     3
 72
     8
 73
     4
 74
     0
 42
0.0000000001
 43
0.0000000001
 40
0.0000000000000014
 40
0.0000000000000014
 40
0.0000000000000014
 40
0.0000000000000014
 40
0.0012048291357196
 40
0.0012048291357196
 40
0.0012048291357196
 40
0.0012048291357196
 10
1575.910795993995
 20
1215.931708974713
 30
0.0
 10
1575.910795993995
 20
1215.895847523184
 30
0.0
 10
1575.910795993995
 20
1215.859929368028
 30
0.0
 10
1575.910795993995
 20
1215.823944201679
 30
0.0
  0
ARC
  5
3AC
330
382
100
AcDbEntity
  8
0
  6
Continuous
 62
     7
370
    15
100
AcDbCircle
 10
1575.410795993995
 20
1213.939136519173
 30
0.0
 40
2.054347826092872
100
AcDbArc
 50
75.91351423227502
 51
104.086485767725
  0
SPLINE
  5
3AD
330
382
100
AcDbEntity
  8
0
  6
Continuous
 62
     7
370
    15
100
AcDbSpline
210
0.0
220
0.0
230
1.0
 70
    24
 71
     3
 72
     8
 73
     4
 74
     0
 42
0.0000000001
 43
0.0000000001
 40
0.0000000000000084
 40
0.0000000000000084
 40
0.0000000000000084
 40
0.0000000000000084
 40
0.001204829135728
 40
0.001204829135728
 40
0.001204829135728
 40
0.001204829135728
 10
1574.910795993995
 20
1215.823944201679
 30
0.0
 10
1574.910795993995
 20
1215.859929368028
 30
0.0
 10
1574.910795993995
 20
1215.895847523184
 30
0.0
 10
1574.910795993995
 20
1215.931708974713
 30
0.0
  0
LINE
  5
3AE
330
382
100
AcDbEntity
  8
0
  6
Continuous
 62
     7
370
    15
100
AcDbLine
 10
1567.210795993995
 20
1215.82394420168
 30
0.0
 11
1567.210795993995
 21
1212.054328836667
 31
0.0
  0
LINE
  5
3AF
330
382
100
AcDbEntity
  8
0
  6
Continuous
 62
     7
370
    15
100
AcDbLine
 10
1566.210795993995
 20
1212.054328836667
 30
0.0
 11
1566.210795993995
 21
1215.82394420168
 31
0.0
  0
LINE
  5
3B0
330
382
100
AcDbEntity
  8
0
  6
Continuous
 62
     7
370
    15
100
AcDbLine
 10
1574.910795993995
 20
1212.054328836667
 30
0.0
 11
1574.910795993995
 21
1215.82394420168
 31
0.0
  0
LINE
  5
3B1
330
382
100
AcDbEntity
  8
0
  6
Continuous
 62
     7
370
    15
100
AcDbLine
 10
1575.910795993995
 20
1215.82394420168
 30
0.0
 11
1575.910795993995
 21
1212.054328836667
 31
0.0
  0
CIRCLE
  5
3B2
330
382
100
AcDbEntity
  8
0
  6
Continuous
 62
     7
370
    15
100
AcDbCircle
 10
1575.410795993995
 20
1199.439136519173
 30
0.0
 40
2.150000000002691
  0
ARC
  5
3B3
330
382
100
AcDbEntity
  8
0
  6
Continuous
 62
     7
370
    15
100
AcDbCircle
 10
1575.410795993995
 20
1199.439136519173
 30
0.0
 40
1.950000000007382
100
AcDbArc
 50
104.8571655448628
 51
255.1428344551372
  0
SPLINE
  5
3B4
330
382
100
AcDbEntity
  8
0
  6
Continuous
 62
     7
370
    15
100
AcDbSpline
210
0.0
220
0.0
230
1.0
 70
    24
 71
     3
 72
     8
 73
     4
 74
     0
 42
0.0000000001
 43
0.0000000001
 40
0.0000000000000013
 40
0.0000000000000013
 40
0.0000000000000013
 40
0.0000000000000013
 40
0.0012048291357197
 40
0.0012048291357197
 40
0.0012048291357197
 40
0.0012048291357197
 10
1574.910795993995
 20
1197.446564063636
 30
0.0
 10
1574.910795993995
 20
1197.482425515165
 30
0.0
 10
1574.910795993995
 20
1197.518343670321
 30
0.0
 10
1574.910795993995
 20
1197.55432883667
 30
0.0
  0
ARC
  5
3B5
330
382
100
AcDbEntity
  8
0
  6
Continuous
 62
     7
370
    15
100
AcDbCircle
 10
1575.410795993995
 20
1199.439136519173
 30
0.0
 40
2.054347826091039
100
AcDbArc
 50
255.9135142322624
 51
284.0864857677408
  0
SPLINE
  5
3B6
330
382
100
AcDbEntity
  8
0
  6
Continuous
 62
     7
370
    15
100
AcDbSpline
210
0.0
220
0.0
230
1.0
 70
    24
 71
     3
 72
     8
 73
     4
 74
     0
 42
0.0000000001
 43
0.0000000001
 40
0.0000000000000084
 40
0.0000000000000084
 40
0.0000000000000084
 40
0.0000000000000084
 40
0.001204829135728
 40
0.001204829135728
 40
0.001204829135728
 40
0.001204829135728
 10
1575.910795993995
 20
1197.55432883667
 30
0.0
 10
1575.910795993995
 20
1197.518343670321
 30
0.0
 10
1575.910795993995
 20
1197.482425515165
 30
0.0
 10
1575.910795993995
 20
1197.446564063636
 30
0.0
  0
ARC
  5
3B7
330
382
100
AcDbEntity
  8
0
  6
Continuous
 62
     7
370
    15
100
AcDbCircle
 10
1575.410795993995
 20
1199.439136519173
 30
0.0
 40
1.950000000007382
100
AcDbArc
 50
284.8571655448661
 51
75.1428344551372
  0
SPLINE
  5
3B8
330
382
100
AcDbEntity
  8
0
  6
Continuous
 62
     7
370
    15
100
AcDbSpline
210
0.0
220
0.0
230
1.0
 70
    24
 71
     3
 72
     8
 73
     4
 74
     0
 42
0.0000000001
 43
0.0000000001
 40
0.0000000000000013
 40
0.0000000000000013
 40
0.0000000000000013
 40
0.0000000000000013
 40
0.0012048291357197
 40
0.0012048291357197
 40
0.0012048291357197
 40
0.0012048291357197
 10
1575.910795993995
 20
1201.43170897471
 30
0.0
 10
1575.910795993995
 20
1201.395847523182
 30
0.0
 10
1575.910795993995
 20
1201.359929368026
 30
0.0
 10
1575.910795993995
 20
1201.323944201678
 30
0.0
  0
ARC
  5
3B9
330
382
100
AcDbEntity
  8
0
  6
Continuous
 62
     7
370
    15
100
AcDbCircle
 10
1575.410795993995
 20
1199.439136519173
 30
0.0
 40
2.054347826091053
100
AcDbArc
 50
75.91351423225922
 51
104.0864857677407
  0
SPLINE
  5
3BA
330
382
100
AcDbEntity
  8
0
  6
Continuous
 62
     7
370
    15
100
AcDbSpline
210
0.0
220
0.0
230
1.0
 70
    24
 71
     3
 72
     8
 73
     4
 74
     0
 42
0.0000000001
 43
0.0000000001
 40
0.0000000000000084
 40
0.0000000000000084
 40
0.0000000000000084
 40
0.0000000000000084
 40
0.001204829135728
 40
0.001204829135728
 40
0.001204829135728
 40
0.001204829135728
 10
1574.910795993995
 20
1201.323944201678
 30
0.0
 10
1574.910795993995
 20
1201.359929368026
 30
0.0
 10
1574.910795993995
 20
1201.395847523182
 30
0.0
 10
1574.910795993995
 20
1201.43170897471
 30
0.0
  0
CIRCLE
  5
3BB
330
382
100
AcDbEntity
  8
0
  6
Continuous
 62
     7
370
    15
100
AcDbCircle
 10
1566.710795993995
 20
1199.439136519173
 30
0.0
 40
2.150000000002691
  0
ARC
  5
3BC
330
382
100
AcDbEntity
  8
0
  6
Continuous
 62
     7
370
    15
100
AcDbCircle
 10
1566.710795993995
 20
1199.439136519173
 30
0.0
 40
1.950000000007382
100
AcDbArc
 50
104.8571655448628
 51
255.1428344551372
  0
SPLINE
  5
3BD
330
382
100
AcDbEntity
  8
0
  6
Continuous
 62
     7
370
    15
100
AcDbSpline
210
0.0
220
0.0
230
1.0
 70
    24
 71
     3
 72
     8
 73
     4
 74
     0
 42
0.0000000001
 43
0.0000000001
 40
0.0000000000000013
 40
0.0000000000000013
 40
0.0000000000000013
 40
0.0000000000000013
 40
0.0012048291357197
 40
0.0012048291357197
 40
0.0012048291357197
 40
0.0012048291357197
 10
1566.210795993995
 20
1197.446564063636
 30
0.0
 10
1566.210795993995
 20
1197.482425515165
 30
0.0
 10
1566.210795993995
 20
1197.518343670321
 30
0.0
 10
1566.210795993995
 20
1197.55432883667
 30
0.0
  0
ARC
  5
3BE
330
382
100
AcDbEntity
  8
0
  6
Continuous
 62
     7
370
    15
100
AcDbCircle
 10
1566.710795993995
 20
1199.439136519173
 30
0.0
 40
2.054347826091039
100
AcDbArc
 50
255.9135142322624
 51
284.0864857677408
  0
SPLINE
  5
3BF
330
382
100
AcDbEntity
  8
0
  6
Continuous
 62
     7
370
    15
100
AcDbSpline
210
0.0
220
0.0
230
1.0
 70
    24
 71
     3
 72
     8
 73
     4
 74
     0
 42
0.0000000001
 43
0.0000000001
 40
0.0000000000000084
 40
0.0000000000000084
 40
0.0000000000000084
 40
0.0000000000000084
 40
0.001204829135728
 40
0.001204829135728
 40
0.001204829135728
 40
0.001204829135728
 10
1567.210795993995
 20
1197.55432883667
 30
0.0
 10
1567.210795993995
 20
1197.518343670321
 30
0.0
 10
1567.210795993995
 20
1197.482425515165
 30
0.0
 10
1567.210795993995
 20
1197.446564063636
 30
0.0
  0
ARC
  5
3C0
330
382
100
AcDbEntity
  8
0
  6
Continuous
 62
     7
370
    15
100
AcDbCircle
 10
1566.710795993995
 20
1199.439136519173
 30
0.0
 40
1.950000000007382
100
AcDbArc
 50
284.8571655448661
 51
75.1428344551372
  0
SPLINE
  5
3C1
330
382
100
AcDbEntity
  8
0
  6
Continuous
 62
     7
370
    15
100
AcDbSpline
210
0.0
220
0.0
230
1.0
 70
    24
 71
     3
 72
     8
 73
     4
 74
     0
 42
0.0000000001
 43
0.0000000001
 40
0.0000000000000013
 40
0.0000000000000013
 40
0.0000000000000013
 40
0.0000000000000013
 40
0.0012048291357197
 40
0.0012048291357197
 40
0.0012048291357197
 40
0.0012048291357197
 10
1567.210795993995
 20
1201.43170897471
 30
0.0
 10
1567.210795993995
 20
1201.395847523182
 30
0.0
 10
1567.210795993995
 20
1201.359929368026
 30
0.0
 10
1567.210795993995
 20
1201.323944201678
 30
0.0
  0
ARC
  5
3C2
330
382
100
AcDbEntity
  8
0
  6
Continuous
 62
     7
370
    15
100
AcDbCircle
 10
1566.710795993995
 20
1199.439136519173
 30
0.0
 40
2.054347826091053
100
AcDbArc
 50
75.91351423225922
 51
104.0864857677407
  0
SPLINE
  5
3C3
330
382
100
AcDbEntity
  8
0
  6
Continuous
 62
     7
370
    15
100
AcDbSpline
210
0.0
220
0.0
230
1.0
 70
    24
 71
     3
 72
     8
 73
     4
 74
     0
 42
0.0000000001
 43
0.0000000001
 40
0.0000000000000084
 40
0.0000000000000084
 40
0.0000000000000084
 40
0.0000000000000084
 40
0.001204829135728
 40
0.001204829135728
 40
0.001204829135728
 40
0.001204829135728
 10
1566.210795993995
 20
1201.323944201678
 30
0.0
 10
1566.210795993995
 20
1201.359929368026
 30
0.0
 10
1566.210795993995
 20
1201.395847523182
 30
0.0
 10
1566.210795993995
 20
1201.43170897471
 30
0.0
  0
LINE
  5
3C4
330
382
100
AcDbEntity
  8
0
  6
Continuous
 62
     7
370
    15
100
AcDbLine
 10
1566.210795993995
 20
1197.554328836669
 30
0.0
 11
1566.210795993995
 21
1201.323944201678
 31
0.0
  0
LINE
  5
3C5
330
382
100
AcDbEntity
  8
0
  6
Continuous
 62
     7
370
    15
100
AcDbLine
 10
1567.210795993995
 20
1201.323944201678
 30
0.0
 11
1567.210795993995
 21
1197.554328836669
 31
0.0
  0
LINE
  5
3C6
330
382
100
AcDbEntity
  8
0
  6
Continuous
 62
     7
370
    15
100
AcDbLine
 10
1574.910795993995
 20
1197.554328836669
 30
0.0
 11
1574.910795993995
 21
1201.323944201678
 31
0.0
  0
LINE
  5
3C7
330
382
100
AcDbEntity
  8
0
  6
Continuous
 62
     7
370
    15
100
AcDbLine
 10
1575.910795993995
 20
1201.323944201678
 30
0.0
 11
1575.910795993995
 21
1197.554328836669
 31
0.0
  0
CIRCLE
  5
3C8
330
382
100
AcDbEntity
  8
0
  6
Continuous
 62
     7
370
    15
100
AcDbCircle
 10
1571.060795993995
 20
1206.689136519173
 30
0.0
 40
2.150000000000005
  0
INSERT
  5
3C9
330
382
100
AcDbEntity
  8
0
  6
Continuous
 62
     7
370
     0
100
AcDbBlockReference
  2
SW_CENTERMARKSYMBOL_0
 10
1566.710795993995
 20
1213.939136519173
 30
0.0
  0
INSERT
  5
3CA
330
382
100
AcDbEntity
  8
0
  6
Continuous
 62
     7
370
     0
100
AcDbBlockReference
  2
SW_CENTERMARKSYMBOL_1
 10
1575.410795993995
 20
1213.939136519173
 30
0.0
  0
INSERT
  5
3CB
330
382
100
AcDbEntity
  8
0
  6
Continuous
 62
     7
370
     0
100
AcDbBlockReference
  2
SW_CENTERMARKSYMBOL_2
 10
1566.710795993995
 20
1199.439136519173
 30
0.0
  0
INSERT
  5
3CC
330
382
100
AcDbEntity
  8
0
  6
Continuous
 62
     7
370
     0
100
AcDbBlockReference
  2
SW_CENTERMARKSYMBOL_3
 10
1575.410795993995
 20
1199.439136519173
 30
0.0
  0
INSERT
  5
3CD
330
382
100
AcDbEntity
  8
0
  6
Continuous
 62
     7
370
     0
100
AcDbBlockReference
  2
SW_CENTERMARKSYMBOL_4
 10
1571.060795993995
 20
1206.689136519173
 30
0.0
  0
ENDBLK
  5
384
330
382
100
AcDbEntity
  8
0
100
AcDbBlockEnd
  0
BLOCK
  5
3D0
330
3CF
100
AcDbEntity
  8
0
100
AcDbBlockBegin
  2
4
 70
     0
 10
0.0
 20
0.0
 30
0.0
  3
4
  1

  0
LINE
  5
3D2
330
3CF
100
AcDbEntity
  8
0
  6
Continuous
 62
     7
370
    15
100
AcDbLine
 10
1617.29721652283
 20
1249.475383827976
 30
0.0
 11
1617.29721652283
 21
1248.658909366121
 31
0.0
  0
LINE
  5
3D3
330
3CF
100
AcDbEntity
  8
0
  6
Continuous
 62
     7
370
    15
100
AcDbLine
 10
1617.29721652283
 20
1249.475383827976
 30
0.0
 11
1635.68199283368
 21
1260.088689281671
 31
0.0
  0
LINE
  5
3D4
330
3CF
100
AcDbEntity
  8
0
  6
Continuous
 62
     7
370
    15
100
AcDbLine
 10
1636.389099614866
 20
1259.680418875728
 30
0.0
 11
1635.68199283368
 21
1260.088689281671
 31
0.0
  0
LINE
  5
3D5
330
3CF
100
AcDbEntity
  8
0
  6
Continuous
 62
     7
370
    15
100
AcDbLine
 10
1617.29721652283
 20
1248.658909366121
 30
0.0
 11
1636.389099614866
 21
1259.680418875728
 31
0.0
  0
LINE
  5
3D6
330
3CF
100
AcDbEntity
  8
0
  6
Continuous
 62
     7
370
    15
100
AcDbLine
 10
1602.447974117912
 20
1258.047669002114
 30
0.0
 11
1601.740867336726
 21
1257.639398596171
 31
0.0
  0
LINE
  5
3D7
330
3CF
100
AcDbEntity
  8
0
  6
Continuous
 62
     7
370
    15
100
AcDbLine
 10
1602.447974117912
 20
1258.047669002114
 30
0.0
 11
1617.29721652283
 21
1249.475383827976
 31
0.0
  0
LINE
  5
3D8
330
3CF
100
AcDbEntity
  8
0
  6
Continuous
 62
     7
370
    15
100
AcDbLine
 10
1601.740867336726
 20
1257.639398596171
 30
0.0
 11
1617.29721652283
 21
1248.658909366121
 31
0.0
  0
LWPOLYLINE
  5
3D9
330
3CF
100
AcDbEntity
  8
0
  6
Continuous
 62
     7
370
    15
100
AcDbPolyline
 90
       67
 70
   128
 43
0.0
 10
1634.09100257601
 20
1249.780077169216
 10
1634.081397073247
 20
1250.007383446825
 10
1634.052667553879
 20
1250.221540926158
 10
1634.005074196881
 20
1250.420610163919
 10
1633.939048015066
 20
1250.602788358264
 10
1633.855186951759
 20
1250.766425675254
 10
1633.754250465737
 20
1250.910040190007
 10
1633.637152653447
 20
1251.032331307238
 10
1633.50495397081
 20
1251.132191539651
 10
1633.358851629567
 20
1251.208716537519
 10
1633.200168755146
 20
1251.26121327861
 10
1633.03034240423
 20
1251.289206344308
 10
1632.850910550551
 20
1251.292442225075
 10
1632.663498156762
 20
1251.270891616274
 10
1632.469802458523
 20
1251.224749683555
 10
1632.27157759407
 20
1251.154434295406
 10
1632.070618718473
 20
1251.060582238871
 10
1631.868745746428
 20
1250.944043452708
 10
1631.667786870831
 20
1250.805873330209
 10
1631.469562006379
 20
1250.647323161401
 10
1631.275866308139
 20
1250.469828801165
 10
1631.088453914349
 20
1250.274997665912
 10
1630.909022060671
 20
1250.064594176574
 10
1630.739195709755
 20
1249.840523779732
 10
1630.580512835334
 20
1249.604815691597
 10
1630.434410494092
 20
1249.359604521117
 10
1630.302211811455
 20
1249.107110938624
 10
1630.185113999164
 20
1248.849621565099
 10
1630.084177513142
 20
1248.589468264182
 10
1630.000316449835
 20
1248.329007024453
 10
1629.93429026802
 20
1248.070596623232
 10
1629.886696911022
 20
1247.816577265128
 10
1629.857967391654
 20
1247.569249388784
 10
1629.848361888891
 20
1247.330852833748
 10
1629.857967391654
 20
1247.103546556138
 10
1629.886696911022
 20
1246.889389076805
 10
1629.93429026802
 20
1246.690319839044
 10
1630.000316449835
 20
1246.508141644699
 10
1630.084177513142
 20
1246.344504327709
 10
1630.185113999164
 20
1246.200889812956
 10
1630.302211811455
 20
1246.078598695725
 10
1630.434410494092
 20
1245.978738463312
 10
1630.580512835334
 20
1245.902213465444
 10
1630.739195709755
 20
1245.849716724353
 10
1630.909022060671
 20
1245.821723658655
 10
1631.088453914349
 20
1245.818487777888
 10
1631.275866308139
 20
1245.840038386689
 10
1631.469562006379
 20
1245.886180319408
 10
1631.667786870831
 20
1245.956495707557
 10
1631.868745746428
 20
1246.050347764092
 10
1632.070618718473
 20
1246.166886550255
 10
1632.27157759407
 20
1246.305056672754
 10
1632.469802458523
 20
1246.463606841562
 10
1632.663498156762
 20
1246.641101201798
 10
1632.850910550551
 20
1246.835932337051
 10
1633.03034240423
 20
1247.046335826389
 10
1633.200168755146
 20
1247.270406223231
 10
1633.358851629567
 20
1247.506114311366
 10
1633.50495397081
 20
1247.751325481846
 10
1633.637152653447
 20
1248.00381906434
 10
1633.754250465737
 20
1248.261308437865
 10
1633.855186951759
 20
1248.521461738781
 10
1633.939048015066
 20
1248.78192297851
 10
1634.005074196881
 20
1249.040333379731
 10
1634.052667553879
 20
1249.294352737835
 10
1634.081397073247
 20
1249.541680614179
 10
1634.09100257601
 20
1249.780077169216
  0
LWPOLYLINE
  5
3DA
330
3CF
100
AcDbEntity
  8
0
  6
Continuous
 62
     7
370
    15
100
AcDbPolyline
 90
       67
 70
   128
 43
0.0
 10
1623.837954248805
 20
1243.861118358501
 10
1623.828348746042
 20
1244.08842463611
 10
1623.799619226674
 20
1244.302582115443
 10
1623.752025869677
 20
1244.501651353205
 10
1623.685999687861
 20
1244.68382954755
 10
1623.602138624554
 20
1244.84746686454
 10
1623.501202138532
 20
1244.991081379292
 10
1623.384104326241
 20
1245.113372496523
 10
1623.251905643605
 20
1245.213232728936
 10
1623.105803302362
 20
1245.289757726804
 10
1622.947120427942
 20
1245.342254467895
 10
1622.777294077025
 20
1245.370247533593
 10
1622.597862223346
 20
1245.373483414361
 10
1622.410449829558
 20
1245.351932805559
 10
1622.216754131318
 20
1245.30579087284
 10
1622.018529266865
 20
1245.235475484691
 10
1621.817570391268
 20
1245.141623428157
 10
1621.615697419223
 20
1245.025084641993
 10
1621.414738543626
 20
1244.886914519495
 10
1621.216513679173
 20
1244.728364350687
 10
1621.022817980934
 20
1244.55086999045
 10
1620.835405587145
 20
1244.356038855198
 10
1620.655973733466
 20
1244.145635365859
 10
1620.48614738255
 20
1243.921564969017
 10
1620.327464508129
 20
1243.685856880883
 10
1620.181362166887
 20
1243.440645710403
 10
1620.04916348425
 20
1243.188152127909
 10
1619.932065671959
 20
1242.930662754384
 10
1619.831129185937
 20
1242.670509453467
 10
1619.74726812263
 20
1242.410048213738
 10
1619.681241940815
 20
1242.151637812517
 10
1619.633648583817
 20
1241.897618454413
 10
1619.604919064449
 20
1241.650290578069
 10
1619.595313561686
 20
1241.411894023033
 10
1619.604919064449
 20
1241.184587745423
 10
1619.633648583817
 20
1240.97043026609
 10
1619.681241940815
 20
1240.771361028329
 10
1619.74726812263
 20
1240.589182833984
 10
1619.831129185937
 20
1240.425545516994
 10
1619.932065671959
 20
1240.281931002241
 10
1620.04916348425
 20
1240.159639885011
 10
1620.181362166887
 20
1240.059779652598
 10
1620.327464508129
 20
1239.98325465473
 10
1620.48614738255
 20
1239.930757913638
 10
1620.655973733466
 20
1239.90276484794
 10
1620.835405587145
 20
1239.899528967173
 10
1621.022817980934
 20
1239.921079575974
 10
1621.216513679173
 20
1239.967221508694
 10
1621.414738543626
 20
1240.037536896842
 10
1621.615697419223
 20
1240.131388953377
 10
1621.817570391268
 20
1240.247927739541
 10
1622.018529266865
 20
1240.38609786204
 10
1622.216754131318
 20
1240.544648030847
 10
1622.410449829558
 20
1240.722142391083
 10
1622.597862223347
 20
1240.916973526336
 10
1622.777294077026
 20
1241.127377015674
 10
1622.947120427942
 20
1241.351447412517
 10
1623.105803302362
 20
1241.587155500651
 10
1623.251905643605
 20
1241.832366671131
 10
1623.384104326241
 20
1242.084860253625
 10
1623.501202138532
 20
1242.34234962715
 10
1623.602138624554
 20
1242.602502928067
 10
1623.685999687861
 20
1242.862964167796
 10
1623.752025869677
 20
1243.121374569017
 10
1623.799619226674
 20
1243.375393927121
 10
1623.828348746042
 20
1243.622721803465
 10
1623.837954248805
 20
1243.861118358501
  0
LINE
  5
3DB
330
3CF
100
AcDbEntity
  8
0
  6
Continuous
 62
     7
370
    15
100
AcDbLine
 10
1617.29721652283
 20
1248.658909366121
 30
0.0
 11
1617.29721652283
 21
1234.369445158121
 31
0.0
  0
LINE
  5
3DC
330
3CF
100
AcDbEntity
  8
0
  6
Continuous
 62
     7
370
    15
100
AcDbLine
 10
1636.389099614866
 20
1245.390954667727
 30
0.0
 11
1636.389099614866
 21
1259.680418875728
 31
0.0
  0
LINE
  5
3DD
330
3CF
100
AcDbEntity
  8
0
  6
Continuous
 62
     7
370
    15
100
AcDbLine
 10
1636.389099614866
 20
1245.390954667727
 30
0.0
 11
1617.29721652283
 21
1234.369445158121
 31
0.0
  0
LINE
  5
3DE
330
3CF
100
AcDbEntity
  8
0
  6
Continuous
 62
     7
370
    15
100
AcDbLine
 10
1601.740867336726
 20
1257.639398596171
 30
0.0
 11
1601.740867336726
 21
1243.34993438817
 31
0.0
  0
LINE
  5
3DF
330
3CF
100
AcDbEntity
  8
0
  6
Continuous
 62
     7
370
    15
100
AcDbLine
 10
1617.29721652283
 20
1234.369445158121
 30
0.0
 11
1601.740867336726
 21
1243.34993438817
 31
0.0
  0
LWPOLYLINE
  5
3E0
330
3CF
100
AcDbEntity
  8
0
  6
Continuous
 62
     7
370
    15
100
AcDbPolyline
 90
       72
 70
   128
 43
0.0
 10
1616.590109741643
 20
1257.639464946203
 10
1616.818523962396
 20
1257.518785849
 10
1617.064519774705
 20
1257.410232855059
 10
1617.326171927803
 20
1257.314655538739
 10
1617.601432638832
 20
1257.232801922129
 10
1617.888147619516
 20
1257.16531262076
 10
1618.184072936388
 20
1257.11271582992
 10
1618.486892572614
 20
1257.075423190812
 10
1618.794236553962
 20
1257.0537265689
 10
1619.103699497065
 20
1257.047795769667
 10
1619.412859434809
 20
1257.057677209659
 10
1619.719296771506
 20
1257.083293553209
 10
1620.020613219513
 20
1257.124444317699
 10
1620.314450569085
 20
1257.1808074426
 10
1620.598509144562
 20
1257.251941810042
 10
1620.870565802449
 20
1257.337290697152
 10
1621.128491330532
 20
1257.436186133166
 10
1621.370267111844
 20
1257.547854127212
 10
1621.594000923085
 20
1257.67142072583
 10
1621.797941743833
 20
1257.80591885285
 10
1621.98049346065
 20
1257.950295878067
 10
1622.140227358843
 20
1258.103421855505
 10
1622.275893304081
 20
1258.264098366775
 10
1622.386429526399
 20
1258.431067900324
 10
1622.470970929989
 20
1258.603023693166
 10
1622.528855863741
 20
1258.778619958075
 10
1622.559631299566
 20
1258.956482416196
 10
1622.563056377952
 20
1259.135219052639
 10
1622.539104293015
 20
1259.313431010886
 10
1622.487962502296
 20
1259.489723540732
 10
1622.410031259649
 20
1259.662716914106
 10
1622.305920482709
 20
1259.831057223309
 10
1622.176444979466
 20
1259.993426977176
 10
1622.022618071281
 20
1260.148555412235
 10
1621.845643662277
 20
1260.295228438151
 10
1621.646906817156
 20
1260.432298139627
 10
1621.427962921187
 20
1260.558691760406
 10
1621.190525507213
 20
1260.673420099033
 10
1620.936452844925
 20
1260.775585250705
 10
1620.667733397393
 20
1260.864387634588
 10
1620.386470258636
 20
1260.939132251627
 10
1620.094864694064
 20
1260.99923412385
 10
1619.795198912596
 20
1261.044222872617
 10
1619.489818205271
 20
1261.073746399973
 10
1619.181112590176
 20
1261.087573644286
 10
1618.871498107308
 20
1261.085596388621
 10
1618.563397909785
 20
1261.067830107686
 10
1618.259223299391
 20
1261.034413846715
 10
1617.961354854867
 20
1260.985609133261
 10
1617.672123800658
 20
1260.921797930375
 10
1617.393793761914
 20
1260.843479647241
 10
1617.128543048566
 20
1260.751267230612
 10
1616.878447607083
 20
1260.645882367672
 10
1616.645464773387
 20
1260.528149837862
 10
1616.431417954043
 20
1260.398991057855
 10
1616.237982355626
 20
1260.259416870224
 10
1616.066671873965
 20
1260.110519632228
 10
1615.918827245849
 20
1259.953464666639
 10
1615.795605555948
 20
1259.789481141503
 10
1615.697971181057
 20
1259.619852450243
 10
1615.626688242536
 20
1259.44590616736
 10
1615.582314626029
 20
1259.26900365836
 10
1615.565197615248
 20
1259.090529425232
 10
1615.57547117401
 20
1258.911880270832
 10
1615.61305489779
 20
1258.734454367017
 10
1615.67765464299
 20
1258.559640312045
 10
1615.768764829017
 20
1258.38880626292
 10
1615.885672395134
 20
1258.2232892277
 10
1616.027462381126
 20
1258.064384601604
 10
1616.193025088108
 20
1257.913336028779
 10
1616.381064763417
 20
1257.771325669109
 10
1616.590109741643
 20
1257.639464946203
  0
LWPOLYLINE
  5
3E1
330
3CF
100
AcDbEntity
  8
0
  6
Continuous
 62
     7
370
    15
100
AcDbPolyline
 90
       64
 70
   128
 43
0.0
 10
1615.069830162092
 20
1253.210450939564
 10
1615.273107059962
 20
1253.104258201352
 10
1615.493689449094
 20
1253.010277371359
 10
1615.729385082604
 20
1252.929442473297
 10
1615.977851511398
 20
1252.862556880699
 10
1616.236619364475
 20
1252.810285332635
 10
1616.503116890657
 20
1252.773147327232
 10
1616.774695517799
 20
1252.751511958674
 10
1617.048656175493
 20
1252.745594248974
 10
1617.322276119639
 20
1252.755453010989
 10
1617.592835992305
 20
1252.780990263912
 10
1617.857646847922
 20
1252.821952207052
 10
1618.114076877235
 20
1252.877931742214
 10
1618.359577563406
 20
1252.948372519628
 10
1618.591709010321
 20
1253.032574467202
 10
1618.80816419137
 20
1253.12970074815
 10
1619.006791877718
 20
1253.238786077857
 10
1619.185618018181
 20
1253.358746317309
 10
1619.342865358233
 20
1253.488389247749
 10
1619.476971103163
 20
1253.626426419493
 10
1619.586602449828
 20
1253.771485957109
 10
1619.67066983265
 20
1253.922126193744
 10
1619.728337752211
 20
1254.076849999048
 10
1619.759033078818
 20
1254.234119658329
 10
1619.762450748523
 20
1254.39237215506
 10
1619.738556794991
 20
1254.550034704827
 10
1619.687588687066
 20
1254.70554038638
 10
1619.610052968704
 20
1254.857343714392
 10
1619.506720224706
 20
1255.003935999187
 10
1619.378617422309
 20
1255.14386034078
 10
1619.227017704714
 20
1255.275726108201
 10
1619.053427738023
 20
1255.398222760209
 10
1618.859572737317
 20
1255.510132870043
 10
1618.647379320682
 20
1255.610344224755
 10
1618.418956361627
 20
1255.697860878878
 10
1618.176574030142
 20
1255.771813052586
 10
1617.922641230732
 20
1255.831465775951
 10
1617.659681661641
 20
1255.87622619341
 10
1617.390308733208
 20
1255.905649455823
 10
1617.117199594615
 20
1255.919443141591
 10
1616.843068527182
 20
1255.917470162866
 10
1616.570639968615
 20
1255.899750127997
 10
1616.302621436323
 20
1255.866459146653
 10
1616.041676618893
 20
1255.817928079563
 10
1615.790398903154
 20
1255.754639250273
 10
1615.551285599938
 20
1255.677221651605
 10
1615.326713124677
 20
1255.586444694435
 10
1615.118913379524
 20
1255.483210560947
 10
1614.929951571705
 20
1255.368545238338
 10
1614.761705688561
 20
1255.243588322101
 10
1614.615847833265
 20
1255.109581690208
 10
1614.493827606713
 20
1254.967857160773
 10
1614.396857700737
 20
1254.819823255841
 10
1614.325901845827
 20
1254.666951202867
 10
1614.281665233149
 20
1254.510760312993
 10
1614.264587506033
 20
1254.352802881456
 10
1614.274838390603
 20
1254.194648760174
 10
1614.312316008964
 20
1254.03786975586
 10
1614.376647891706
 20
1253.884024008694
 10
1614.467194679677
 20
1253.734640506829
 10
1614.583056478218
 20
1253.591203890622
 10
1614.723081800721
 20
1253.455139697604
 10
1614.885879012623
 20
1253.327800194855
 10
1615.069830162092
 20
1253.210450939564
  0
LWPOLYLINE
  5
3E2
330
3CF
100
AcDbEntity
  8
0
  6
Continuous
 62
     7
370
    15
100
AcDbPolyline
 90
       64
 70
   128
 43
0.0
 10
1608.918001165769
 20
1256.761826225993
 10
1609.121278063638
 20
1256.65563348778
 10
1609.34186045277
 20
1256.561652657788
 10
1609.577556086281
 20
1256.480817759726
 10
1609.826022515075
 20
1256.413932167128
 10
1610.084790368152
 20
1256.361660619064
 10
1610.351287894334
 20
1256.324522613661
 10
1610.622866521476
 20
1256.302887245103
 10
1610.89682717917
 20
1256.296969535403
 10
1611.170447123316
 20
1256.306828297417
 10
1611.441006995983
 20
1256.332365550341
 10
1611.705817851599
 20
1256.37332749348
 10
1611.962247880911
 20
1256.429307028643
 10
1612.207748567083
 20
1256.499747806057
 10
1612.439880013998
 20
1256.58394975363
 10
1612.656335195047
 20
1256.681076034579
 10
1612.854962881395
 20
1256.790161364287
 10
1613.033789021858
 20
1256.910121603738
 10
1613.19103636191
 20
1257.039764534179
 10
1613.32514210684
 20
1257.177801705921
 10
1613.434773453505
 20
1257.322861243538
 10
1613.518840836327
 20
1257.473501480173
 10
1613.576508755888
 20
1257.628225285476
 10
1613.607204082495
 20
1257.785494944758
 10
1613.6106217522
 20
1257.943747441488
 10
1613.586727798668
 20
1258.101409991256
 10
1613.535759690743
 20
1258.25691567281
 10
1613.45822397238
 20
1258.408719000821
 10
1613.354891228383
 20
1258.555311285616
 10
1613.226788425986
 20
1258.695235627209
 10
1613.07518870839
 20
1258.827101394629
 10
1612.901598741701
 20
1258.949598046638
 10
1612.707743740994
 20
1259.061508156472
 10
1612.495550324359
 20
1259.161719511183
 10
1612.267127365305
 20
1259.249236165307
 10
1612.024745033819
 20
1259.323188339015
 10
1611.770812234409
 20
1259.38284106238
 10
1611.507852665319
 20
1259.427601479839
 10
1611.238479736885
 20
1259.457024742252
 10
1610.965370598292
 20
1259.47081842802
 10
1610.691239530859
 20
1259.468845449294
 10
1610.418810972292
 20
1259.451125414426
 10
1610.15079244
 20
1259.417834433082
 10
1609.88984762257
 20
1259.369303365991
 10
1609.638569906832
 20
1259.306014536702
 10
1609.399456603615
 20
1259.228596938034
 10
1609.174884128354
 20
1259.137819980864
 10
1608.967084383202
 20
1259.034585847375
 10
1608.778122575382
 20
1258.919920524766
 10
1608.609876692238
 20
1258.79496360853
 10
1608.464018836941
 20
1258.660956976637
 10
1608.34199861039
 20
1258.519232447202
 10
1608.245028704413
 20
1258.37119854227
 10
1608.174072849504
 20
1258.218326489295
 10
1608.129836236826
 20
1258.062135599422
 10
1608.112758509709
 20
1257.904178167885
 10
1608.12300939428
 20
1257.746024046603
 10
1608.160487012641
 20
1257.589245042289
 10
1608.224818895383
 20
1257.435399295123
 10
1608.315365683354
 20
1257.286015793259
 10
1608.431227481895
 20
1257.14257917705
 10
1608.571252804398
 20
1257.006514984032
 10
1608.7340500163
 20
1256.879175481284
 10
1608.918001165769
 20
1256.761826225993
  0
LWPOLYLINE
  5
3E3
330
3CF
100
AcDbEntity
  8
0
  6
Continuous
 62
     7
370
    15
100
AcDbPolyline
 90
       64
 70
   128
 43
0.0
 10
1625.322878489297
 20
1259.129409750279
 10
1625.526155387166
 20
1259.023217012066
 10
1625.746737776298
 20
1258.929236182074
 10
1625.982433409809
 20
1258.848401284011
 10
1626.230899838602
 20
1258.781515691414
 10
1626.48966769168
 20
1258.729244143349
 10
1626.756165217862
 20
1258.692106137947
 10
1627.027743845004
 20
1258.670470769389
 10
1627.301704502698
 20
1258.664553059689
 10
1627.575324446844
 20
1258.674411821703
 10
1627.84588431951
 20
1258.699949074627
 10
1628.110695175127
 20
1258.740911017766
 10
1628.367125204439
 20
1258.796890552928
 10
1628.612625890611
 20
1258.867331330343
 10
1628.844757337526
 20
1258.951533277916
 10
1629.061212518575
 20
1259.048659558865
 10
1629.259840204923
 20
1259.157744888572
 10
1629.438666345386
 20
1259.277705128023
 10
1629.595913685438
 20
1259.407348058464
 10
1629.730019430368
 20
1259.545385230207
 10
1629.839650777032
 20
1259.690444767824
 10
1629.923718159855
 20
1259.841085004459
 10
1629.981386079416
 20
1259.995808809762
 10
1630.012081406022
 20
1260.153078469044
 10
1630.015499075728
 20
1260.311330965774
 10
1629.991605122196
 20
1260.468993515542
 10
1629.940637014271
 20
1260.624499197095
 10
1629.863101295908
 20
1260.776302525106
 10
1629.759768551911
 20
1260.922894809901
 10
1629.631665749514
 20
1261.062819151495
 10
1629.480066031918
 20
1261.194684918915
 10
1629.306476065229
 20
1261.317181570924
 10
1629.112621064521
 20
1261.429091680758
 10
1628.900427647887
 20
1261.529303035469
 10
1628.672004688832
 20
1261.616819689593
 10
1628.429622357347
 20
1261.690771863301
 10
1628.175689557937
 20
1261.750424586666
 10
1627.912729988846
 20
1261.795185004125
 10
1627.643357060413
 20
1261.824608266538
 10
1627.37024792182
 20
1261.838401952305
 10
1627.096116854387
 20
1261.83642897358
 10
1626.82368829582
 20
1261.818708938712
 10
1626.555669763528
 20
1261.785417957368
 10
1626.294724946098
 20
1261.736886890277
 10
1626.043447230359
 20
1261.673598060988
 10
1625.804333927143
 20
1261.59618046232
 10
1625.579761451882
 20
1261.50540350515
 10
1625.371961706729
 20
1261.402169371661
 10
1625.18299989891
 20
1261.287504049052
 10
1625.014754015765
 20
1261.162547132815
 10
1624.868896160469
 20
1261.028540500923
 10
1624.746875933918
 20
1260.886815971488
 10
1624.649906027941
 20
1260.738782066556
 10
1624.578950173032
 20
1260.585910013581
 10
1624.534713560354
 20
1260.429719123708
 10
1624.517635833237
 20
1260.27176169217
 10
1624.527886717808
 20
1260.113607570889
 10
1624.565364336168
 20
1259.956828566575
 10
1624.629696218911
 20
1259.802982819409
 10
1624.720243006882
 20
1259.653599317544
 10
1624.836104805422
 20
1259.510162701336
 10
1624.976130127926
 20
1259.374098508318
 10
1625.138927339828
 20
1259.24675900557
 10
1625.322878489297
 20
1259.129409750279
  0
LWPOLYLINE
  5
3E4
330
3CF
100
AcDbEntity
  8
0
  6
Continuous
 62
     7
370
    15
100
AcDbPolyline
 90
       64
 70
   128
 43
0.0
 10
1619.171049492974
 20
1262.680785036708
 10
1619.374326390843
 20
1262.574592298495
 10
1619.594908779975
 20
1262.480611468502
 10
1619.830604413486
 20
1262.39977657044
 10
1620.07907084228
 20
1262.332890977843
 10
1620.337838695357
 20
1262.280619429779
 10
1620.604336221539
 20
1262.243481424376
 10
1620.875914848681
 20
1262.221846055818
 10
1621.149875506375
 20
1262.215928346117
 10
1621.423495450521
 20
1262.225787108132
 10
1621.694055323187
 20
1262.251324361055
 10
1621.958866178804
 20
1262.292286304195
 10
1622.215296208116
 20
1262.348265839358
 10
1622.460796894287
 20
1262.418706616772
 10
1622.692928341203
 20
1262.502908564345
 10
1622.909383522252
 20
1262.600034845293
 10
1623.1080112086
 20
1262.709120175001
 10
1623.286837349063
 20
1262.829080414452
 10
1623.444084689115
 20
1262.958723344893
 10
1623.578190434045
 20
1263.096760516636
 10
1623.687821780709
 20
1263.241820054253
 10
1623.771889163532
 20
1263.392460290888
 10
1623.829557083093
 20
1263.547184096191
 10
1623.8602524097
 20
1263.704453755473
 10
1623.863670079405
 20
1263.862706252203
 10
1623.839776125873
 20
1264.020368801971
 10
1623.788808017948
 20
1264.175874483524
 10
1623.711272299585
 20
1264.327677811535
 10
1623.607939555588
 20
1264.47427009633
 10
1623.47983675319
 20
1264.614194437923
 10
1623.328237035595
 20
1264.746060205344
 10
1623.154647068906
 20
1264.868556857352
 10
1622.960792068199
 20
1264.980466967187
 10
1622.748598651564
 20
1265.080678321898
 10
1622.520175692509
 20
1265.168194976022
 10
1622.277793361024
 20
1265.242147149729
 10
1622.023860561614
 20
1265.301799873095
 10
1621.760900992524
 20
1265.346560290554
 10
1621.49152806409
 20
1265.375983552967
 10
1621.218418925497
 20
1265.389777238734
 10
1620.944287858064
 20
1265.387804260009
 10
1620.671859299497
 20
1265.370084225141
 10
1620.403840767205
 20
1265.336793243797
 10
1620.142895949775
 20
1265.288262176706
 10
1619.891618234037
 20
1265.224973347417
 10
1619.65250493082
 20
1265.147555748749
 10
1619.427932455559
 20
1265.056778791579
 10
1619.220132710406
 20
1264.95354465809
 10
1619.031170902587
 20
1264.838879335481
 10
1618.862925019443
 20
1264.713922419244
 10
1618.717067164146
 20
1264.579915787352
 10
1618.595046937595
 20
1264.438191257916
 10
1618.498077031619
 20
1264.290157352985
 10
1618.427121176709
 20
1264.13728530001
 10
1618.382884564031
 20
1263.981094410137
 10
1618.365806836914
 20
1263.823136978599
 10
1618.376057721485
 20
1263.664982857318
 10
1618.413535339845
 20
1263.508203853004
 10
1618.477867222588
 20
1263.354358105838
 10
1618.568414010559
 20
1263.204974603973
 10
1618.6842758091
 20
1263.061537987765
 10
1618.824301131603
 20
1262.925473794747
 10
1618.987098343505
 20
1262.798134291999
 10
1619.171049492974
 20
1262.680785036708
  0
LINE
  5
3E5
330
3CF
100
AcDbEntity
  8
0
  6
Continuous
 62
     7
370
    15
100
AcDbLine
 10
1620.832750428762
 20
1268.660974455809
 30
0.0
 11
1602.447974117912
 21
1258.047669002114
 31
0.0
  0
LINE
  5
3E6
330
3CF
100
AcDbEntity
  8
0
  6
Continuous
 62
     7
370
    15
100
AcDbLine
 10
1635.68199283368
 20
1260.088689281671
 30
0.0
 11
1620.832750428762
 21
1268.660974455809
 31
0.0
  0
LINE
  5
3E7
330
3CF
100
AcDbEntity
  8
0
  6
Continuous
 62
     7
370
    15
100
AcDbLine
 10
1621.858055261483
 20
1245.004089715053
 30
0.0
 11
1621.853606243425
 21
1245.160089251766
 31
0.0
  0
ARC
  5
3E8
330
3CF
100
AcDbEntity
  8
0
  6
Continuous
 62
     7
370
    15
100
AcDbCircle
 10
1617.3348338559
 20
1245.174926905885
 30
0.0
 40
4.526446424038847
100
AcDbArc
 50
300.0249312423757
 51
357.8370283397552
  0
ARC
  5
3E9
330
3CF
100
AcDbEntity
  8
0
  6
Continuous
 62
     7
370
    15
100
AcDbCircle
 10
1616.26449517258
 20
1245.783958885721
 30
0.0
 40
4.982361986474034
100
AcDbArc
 50
313.323073332673
 51
346.6823032000323
  0
ARC
  5
3EA
330
3CF
100
AcDbEntity
  8
0
  6
Continuous
 62
     7
370
    15
100
AcDbCircle
 10
1619.064983475796
 20
1254.850207747766
 30
0.0
 40
4.671089785866516
100
AcDbArc
 50
46.73468507777662
 51
133.2653149222233
  0
LINE
  5
3EB
330
3CF
100
AcDbEntity
  8
0
  6
Continuous
 62
     7
370
    15
100
AcDbLine
 10
1617.29721652283
 20
1234.369378808089
 30
0.0
 11
1602.447974117912
 21
1242.941663982228
 31
0.0
  0
LINE
  5
3EC
330
3CF
100
AcDbEntity
  8
0
  6
Continuous
 62
     7
370
    15
100
AcDbLine
 10
1602.447974117912
 20
1242.941663982228
 30
0.0
 11
1601.740867336726
 21
1243.34993438817
 31
0.0
  0
LINE
  5
3ED
330
3CF
100
AcDbEntity
  8
0
  6
Continuous
 62
     7
370
    15
100
AcDbLine
 10
1617.29721652283
 20
1234.369378808089
 30
0.0
 11
1617.29721652283
 21
1234.369445158121
 31
0.0
  0
LINE
  5
3EE
330
3CF
100
AcDbEntity
  8
0
  6
Continuous
 62
     7
370
    15
100
AcDbLine
 10
1636.389099614866
 20
1245.390954667727
 30
0.0
 11
1635.68199283368
 21
1244.982684261784
 31
0.0
  0
LINE
  5
3EF
330
3CF
100
AcDbEntity
  8
0
  6
Continuous
 62
     7
370
    15
100
AcDbLine
 10
1635.68199283368
 20
1244.982684261784
 30
0.0
 11
1617.29721652283
 21
1234.369378808089
 31
0.0
  0
LINE
  5
3F0
330
3CF
100
AcDbEntity
  8
0
  6
Continuous
 62
     7
370
    15
100
AcDbLine
 10
1621.514473218579
 20
1258.849157847509
 30
0.0
 11
1621.945521211243
 21
1257.920479140826
 31
0.0
  0
LINE
  5
3F1
330
3CF
100
AcDbEntity
  8
0
  6
Continuous
 62
     7
370
    15
100
AcDbLine
 10
1618.168408003628
 20
1259.366739850549
 30
0.0
 11
1621.514473218579
 21
1258.849157847509
 31
0.0
  0
LINE
  5
3F2
330
3CF
100
AcDbEntity
  8
0
  6
Continuous
 62
     7
370
    15
100
AcDbLine
 10
1615.986329796327
 20
1258.107052914665
 30
0.0
 11
1618.168408003628
 21
1259.366739850549
 31
0.0
  0
LINE
  5
3F3
330
3CF
100
AcDbEntity
  8
0
  6
Continuous
 62
     7
370
    15
100
AcDbLine
 10
1621.514473218579
 20
1258.849157847509
 30
0.0
 11
1621.514473218579
 21
1257.624959861679
 31
0.0
  0
LINE
  5
3F4
330
3CF
100
AcDbEntity
  8
0
  6
Continuous
 62
     7
370
    15
100
AcDbLine
 10
1632.111103588688
 20
1250.923048525767
 30
0.0
 11
1632.10665457063
 21
1251.07904806248
 31
0.0
  0
ARC
  5
3F5
330
3CF
100
AcDbEntity
  8
0
  6
Continuous
 62
     7
370
    15
100
AcDbCircle
 10
1627.587882183105
 20
1251.093885716599
 30
0.0
 40
4.52644642403872
100
AcDbArc
 50
300.0249312423757
 51
357.8370283397552
  0
LINE
  5
3F6
330
3CF
100
AcDbEntity
  8
0
  6
Continuous
 62
     7
370
    15
100
AcDbLine
 10
1618.168408003628
 20
1259.366739850549
 30
0.0
 11
1618.168408003628
 21
1257.11508995395
 31
0.0
  0
ARC
  5
3F7
330
3CF
100
AcDbEntity
  8
0
  6
Continuous
 62
     7
370
    15
100
AcDbCircle
 10
1626.517543499786
 20
1251.702917696435
 30
0.0
 40
4.982361986474006
100
AcDbArc
 50
313.323073332673
 51
346.6823032000323
  0
ENDBLK
  5
3D1
330
3CF
100
AcDbEntity
  8
0
100
AcDbBlockEnd
  0
ENDSEC
  0
SECTION
  2
ENTITIES
  0
INSERT
  5
34B
330
1F
100
AcDbEntity
  8
0
100
AcDbBlockReference
  2
1
 10
0.0
 20
0.0
 30
0.0
  0
INSERT
  5
381
330
1F
100
AcDbEntity
  8
0
100
AcDbBlockReference
  2
2
 10
0.0
 20
0.0
 30
0.0
  0
INSERT
  5
3CE
330
1F
100
AcDbEntity
  8
0
100
AcDbBlockReference
  2
3
 10
0.0
 20
0.0
 30
0.0
  0
INSERT
  5
3F8
330
1F
100
AcDbEntity
  8
0
100
AcDbBlockReference
  2
4
 10
0.0
 20
0.0
 30
0.0
  0
ENDSEC
  0
SECTION
  2
OBJECTS
  0
DICTIONARY
  5
C
330
0
100
AcDbDictionary
281
     1
  3
ACAD_COLOR
350
6B
  3
ACAD_GROUP
350
D
  3
ACAD_LAYOUT
350
1A
  3
ACAD_MATERIAL
350
6A
  3
ACAD_MLEADERSTYLE
350
12D
  3
ACAD_MLINESTYLE
350
17
  3
ACAD_PLOTSETTINGS
350
19
  3
ACAD_PLOTSTYLENAME
350
E
  3
ACAD_SCALELIST
350
10C
  3
ACAD_TABLESTYLE
350
7E
  3
ACAD_VISUALSTYLE
350
EF
  3
ACDB_RECOMPOSE_DATA
350
15D
  3
AcDbVariableDictionary
350
5E
  3
DWGPROPS
350
406
  0
DICTIONARY
  5
13C
330
10
100
AcDbDictionary
280
     1
281
     1
  3
ADSK_XREC_LAYER_RECONCILED
360
3F9
  0
DICTIONARY
  5
6B
102
{ACAD_REACTORS
330
C
102
}
330
C
100
AcDbDictionary
281
     1
  0
DICTIONARY
  5
D
102
{ACAD_REACTORS
330
C
102
}
330
C
100
AcDbDictionary
281
     1
  0
DICTIONARY
  5
1A
102
{ACAD_REACTORS
330
C
102
}
330
C
100
AcDbDictionary
281
     1
  3
Layout1
350
D3
  3
Layout2
350
D7
  3
Model
350
22
  0
DICTIONARY
  5
6A
102
{ACAD_REACTORS
330
C
102
}
330
C
100
AcDbDictionary
281
     1
  3
ByBlock
350
ED
  3
ByLayer
350
EC
  3
Global
350
EE
  0
DICTIONARY
  5
12D
102
{ACAD_REACTORS
330
C
102
}
330
C
100
AcDbDictionary
281
     1
  3
Annotative
350
13B
  3
Standard
350
12E
  0
DICTIONARY
  5
17
102
{ACAD_REACTORS
330
C
102
}
330
C
100
AcDbDictionary
281
     1
  3
Standard
350
18
  0
DICTIONARY
  5
19
102
{ACAD_REACTORS
330
C
102
}
330
C
100
AcDbDictionary
281
     1
  0
ACDBDICTIONARYWDFLT
  5
E
102
{ACAD_REACTORS
330
C
102
}
330
C
100
AcDbDictionary
281
     1
  3
Normal
350
F
100
AcDbDictionaryWithDefault
340
F
  0
DICTIONARY
  5
10C
102
{ACAD_REACTORS
330
C
102
}
330
C
100
AcDbDictionary
281
     1
  3
A0
350
10D
  3
A1
350
188
  3
A2
350
189
  3
A3
350
18A
  3
A4
350
18B
  3
A5
350
18C
  3
A6
350
18D
  3
A7
350
18E
  3
A8
350
18F
  3
A9
350
190
  3
B0
350
191
  3
B1
350
192
  3
B2
350
193
  3
B3
350
194
  3
B4
350
195
  3
B5
350
196
  3
B6
350
197
  3
B7
350
198
  3
B8
350
199
  3
B9
350
19A
  3
C0
350
19B
  3
C1
350
19C
  3
C2
350
19D
  3
C3
350
19E
  3
C4
350
19F
  3
C5
350
1A0
  3
C6
350
1A1
  3
C7
350
1A2
  3
C8
350
1A3
  3
C9
350
1A4
  3
D0
350
1A5
  3
D1
350
1A6
  3
D2
350
1A7
  0
DICTIONARY
  5
7E
102
{ACAD_REACTORS
330
C
102
}
330
C
100
AcDbDictionary
281
     1
  3
Standard
350
7F
  0
DICTIONARY
  5
EF
102
{ACAD_REACTORS
330
C
102
}
330
C
100
AcDbDictionary
281
     1
  3
2dWireframe
350
F5
  3
3D Hidden
350
F7
  3
3dWireframe
350
F6
  3
Basic
350
F4
  3
Brighten
350
FB
  3
ColorChange
350
FF
  3
Conceptual
350
F8
  3
Dim
350
FA
  3
Facepattern
350
FE
  3
Flat
350
F0
  3
FlatWithEdges
350
F1
  3
Gouraud
350
F2
  3
GouraudWithEdges
350
F3
  3
Linepattern
350
FD
  3
Realistic
350
F9
  3
Thicken
350
FC
  0
XRECORD
  5
15D
102
{ACAD_REACTORS
330
C
102
}
330
C
100
AcDbXrecord
280
     1
 90
        1
330
7F
  0
DICTIONARY
  5
5E
102
{ACAD_REACTORS
330
C
102
}
330
C
100
AcDbDictionary
281
     1
  3
CANNOSCALE
350
146
  3
CMLEADERSTYLE
350
145
  3
CTABLESTYLE
350
84
  3
DIMASSOC
350
5F
  3
HIDETEXT
350
63
  3
INDEXCTL
350
402
  3
LIGHTINGUNITS
350
400
  3
MSLTSCALE
350
3FF
  3
PSOLHEIGHT
350
404
  3
PSOLWIDTH
350
403
  3
SORTENTS
350
401
  0
XRECORD
  5
406
102
{ACAD_REACTORS
330
C
102
}
330
C
100
AcDbXrecord
280
     1
  1
DWGPROPS COOKIE
  2

  3

  4

  6

  7

  8
orhan kara
  9

300
=
301
=
302
=
303
=
304
=
305
=
306
=
307
=
308
=
309
=
 40
0.0018813425925926
 41
2459083.574440706
 42
2459083.677616261
  1

 90
        0
  0
XRECORD
  5
3F9
102
{ACAD_REACTORS
330
13C
102
}
330
13C
100
AcDbXrecord
280
     1
290
     1
  0
LAYOUT
  5
D3
102
{ACAD_XDICTIONARY
360
40A
102
}
102
{ACAD_REACTORS
330
1A
102
}
330
1A
100
AcDbPlotSettings
  1

  2
C:\Documents and Settings\basas\Application Data\Autodesk\AutoCAD 2005\R16.1\enu\plotters\Default Windows System Printer.pc3
  4

  6

 40
0.0
 41
0.0
 42
0.0
 43
0.0
 44
0.0
 45
0.0
 46
0.0
 47
0.0
 48
0.0
 49
0.0
140
0.0
141
0.0
142
1.0
143
1.0
 70
   688
 72
     0
 73
     0
 74
     5
  7

 75
    16
147
1.0
148
0.0
149
0.0
100
AcDbLayout
  1
Layout1
 70
     1
 71
     1
 10
0.0
 20
0.0
 11
12.0
 21
9.0
 12
0.0
 22
0.0
 32
0.0
 14
0.0
 24
0.0
 34
0.0
 15
0.0
 25
0.0
 35
0.0
146
0.0
 13
0.0
 23
0.0
 33
0.0
 16
1.0
 26
0.0
 36
0.0
 17
0.0
 27
1.0
 37
0.0
 76
     0
330
D2
  0
LAYOUT
  5
D7
102
{ACAD_XDICTIONARY
360
40C
102
}
102
{ACAD_REACTORS
330
1A
102
}
330
1A
100
AcDbPlotSettings
  1

  2
C:\Documents and Settings\basas\Application Data\Autodesk\AutoCAD 2005\R16.1\enu\plotters\Default Windows System Printer.pc3
  4

  6

 40
0.0
 41
0.0
 42
0.0
 43
0.0
 44
0.0
 45
0.0
 46
0.0
 47
0.0
 48
0.0
 49
0.0
140
0.0
141
0.0
142
1.0
143
1.0
 70
   688
 72
     0
 73
     0
 74
     5
  7

 75
    16
147
1.0
148
0.0
149
0.0
100
AcDbLayout
  1
Layout2
 70
     1
 71
     2
 10
0.0
 20
0.0
 11
12.0
 21
9.0
 12
0.0
 22
0.0
 32
0.0
 14
0.0
 24
0.0
 34
0.0
 15
0.0
 25
0.0
 35
0.0
146
0.0
 13
0.0
 23
0.0
 33
0.0
 16
1.0
 26
0.0
 36
0.0
 17
0.0
 27
1.0
 37
0.0
 76
     0
330
D6
  0
LAYOUT
  5
22
102
{ACAD_XDICTIONARY
360
407
102
}
102
{ACAD_REACTORS
330
1A
102
}
330
1A
100
AcDbPlotSettings
  1

  2
none_device
  4
ISO_A4_(210.00_x_297.00_MM)
  6

 40
7.5
 41
20.0
 42
7.5
 43
20.0
 44
210.0
 45
297.0
 46
11.54999923706054
 47
-13.65000009536743
 48
0.0
 49
0.0
140
0.0
141
0.0
142
1.0
143
8.704084754739808
 70
 11952
 72
     1
 73
     0
 74
     0
  7

 75
     0
147
0.1148885871608098
148
0.0
149
0.0
100
AcDbLayout
  1
Model
 70
     1
 71
     0
 10
0.0
 20
0.0
 11
12.0
 21
9.0
 12
0.0
 22
0.0
 32
0.0
 14
0.0
 24
0.0
 34
0.0
 15
0.0
 25
0.0
 35
0.0
146
0.0
 13
0.0
 23
0.0
 33
0.0
 16
1.0
 26
0.0
 36
0.0
 17
0.0
 27
1.0
 37
0.0
 76
     0
330
1F
331
EA
1001
ACAD_PSEXT
1000
None
1000
None
1000
Not applicable
1000
The layout will not be plotted unless a new plotter configuration name is selected.
1070
     0
  0
MATERIAL
  5
ED
102
{ACAD_XDICTIONARY
360
410
102
}
102
{ACAD_REACTORS
330
6A
102
}
330
6A
100
AcDbMaterial
  1
ByBlock
  0
MATERIAL
  5
EC
102
{ACAD_XDICTIONARY
360
40E
102
}
102
{ACAD_REACTORS
330
6A
102
}
330
6A
100
AcDbMaterial
  1
ByLayer
  0
MATERIAL
  5
EE
102
{ACAD_XDICTIONARY
360
173
102
}
102
{ACAD_REACTORS
330
6A
102
}
330
6A
100
AcDbMaterial
  1
Global
 43
0.0007999999797903
 43
0.0
 43
0.0
 43
0.0
 43
0.0
 43
0.0007999999797903
 43
0.0
 43
0.0
 43
0.0
 43
0.0
 43
1.0
 43
0.0
 43
0.0
 43
0.0
 43
0.0
 43
1.0
 49
0.0007999999797903
 49
0.0
 49
0.0
 49
0.0
 49
0.0
 49
0.0007999999797903
 49
0.0
 49
0.0
 49
0.0
 49
0.0
 49
1.0
 49
0.0
 49
0.0
 49
0.0
 49
0.0
 49
1.0
142
0.0007999999797903
142
0.0
142
0.0
142
0.0
142
0.0
142
0.0007999999797903
142
0.0
142
0.0
142
0.0
142
0.0
142
1.0
142
0.0
142
0.0
142
0.0
142
0.0
142
1.0
144
0.0007999999797903
144
0.0
144
0.0
144
0.0
144
0.0
144
0.0007999999797903
144
0.0
144
0.0
144
0.0
144
0.0
144
1.0
144
0.0
144
0.0
144
0.0
144
0.0
144
1.0
1001
ACAD
1070
    -1
1070
     3
1070
     0
1000

1071
        0
1070
     0
  0
MLEADERSTYLE
  5
13B
102
{ACAD_REACTORS
330
12D
102
}
330
12D
100
AcDbMLeaderStyle
170
     2
171
     1
172
     0
 90
        2
 40
0.0
 41
0.0
173
     1
 91
-1056964608
340
14
 92
       -2
290
     1
 42
2.0
291
     1
 43
8.0
  3
Standard
 44
4.0
300

342
11
174
     1
178
     1
175
     1
176
     0
 93
-1056964608
 45
4.0
292
     0
297
     0
 46
4.0
 94
-1056964608
 47
1.0
 49
1.0
140
1.0
293
     1
141
0.0
294
     1
177
     0
142
1.0
295
     0
296
     1
143
3.75
1001
ACAD_MLEADERVER
1070
     2
  0
MLEADERSTYLE
  5
12E
102
{ACAD_REACTORS
330
12D
102
}
330
12D
100
AcDbMLeaderStyle
170
     2
171
     1
172
     0
 90
        2
 40
0.0
 41
0.0
173
     1
 91
-1056964608
340
14
 92
       -2
290
     1
 42
2.0
291
     1
 43
8.0
  3
Standard
 44
4.0
300

342
11
174
     1
178
     1
175
     1
176
     0
 93
-1056964608
 45
4.0
292
     0
297
     0
 46
4.0
 94
-1056964608
 47
1.0
 49
1.0
140
1.0
293
     1
141
0.0
294
     1
177
     0
142
1.0
295
     0
296
     0
143
3.75
1001
ACAD_MLEADERVER
1070
     2
  0
MLINESTYLE
  5
18
102
{ACAD_REACTORS
330
17
102
}
330
17
100
AcDbMlineStyle
  2
STANDARD
 70
     0
  3

 62
   256
 51
90.0
 52
90.0
 71
     2
 49
0.5
 62
   256
  6
BYLAYER
 49
-0.5
 62
   256
  6
BYLAYER
  0
ACDBPLACEHOLDER
  5
F
102
{ACAD_REACTORS
330
E
102
}
330
E
  0
SCALE
  5
10D
102
{ACAD_REACTORS
330
10C
102
}
330
10C
100
AcDbScale
 70
     0
300
1:1
140
1.0
141
1.0
290
     1
  0
SCALE
  5
188
102
{ACAD_REACTORS
330
10C
102
}
330
10C
100
AcDbScale
 70
     0
300
1:2
140
1.0
141
2.0
290
     0
  0
SCALE
  5
189
102
{ACAD_REACTORS
330
10C
102
}
330
10C
100
AcDbScale
 70
     0
300
1:4
140
1.0
141
4.0
290
     0
  0
SCALE
  5
18A
102
{ACAD_REACTORS
330
10C
102
}
330
10C
100
AcDbScale
 70
     0
300
1:5
140
1.0
141
5.0
290
     0
  0
SCALE
  5
18B
102
{ACAD_REACTORS
330
10C
102
}
330
10C
100
AcDbScale
 70
     0
300
1:8
140
1.0
141
8.0
290
     0
  0
SCALE
  5
18C
102
{ACAD_REACTORS
330
10C
102
}
330
10C
100
AcDbScale
 70
     0
300
1:10
140
1.0
141
10.0
290
     0
  0
SCALE
  5
18D
102
{ACAD_REACTORS
330
10C
102
}
330
10C
100
AcDbScale
 70
     0
300
1:16
140
1.0
141
16.0
290
     0
  0
SCALE
  5
18E
102
{ACAD_REACTORS
330
10C
102
}
330
10C
100
AcDbScale
 70
     0
300
1:20
140
1.0
141
20.0
290
     0
  0
SCALE
  5
18F
102
{ACAD_REACTORS
330
10C
102
}
330
10C
100
AcDbScale
 70
     0
300
1:30
140
1.0
141
30.0
290
     0
  0
SCALE
  5
190
102
{ACAD_REACTORS
330
10C
102
}
330
10C
100
AcDbScale
 70
     0
300
1:40
140
1.0
141
40.0
290
     0
  0
SCALE
  5
191
102
{ACAD_REACTORS
330
10C
102
}
330
10C
100
AcDbScale
 70
     0
300
1:50
140
1.0
141
50.0
290
     0
  0
SCALE
  5
192
102
{ACAD_REACTORS
330
10C
102
}
330
10C
100
AcDbScale
 70
     0
300
1:100
140
1.0
141
100.0
290
     0
  0
SCALE
  5
193
102
{ACAD_REACTORS
330
10C
102
}
330
10C
100
AcDbScale
 70
     0
300
2:1
140
2.0
141
1.0
290
     0
  0
SCALE
  5
194
102
{ACAD_REACTORS
330
10C
102
}
330
10C
100
AcDbScale
 70
     0
300
4:1
140
4.0
141
1.0
290
     0
  0
SCALE
  5
195
102
{ACAD_REACTORS
330
10C
102
}
330
10C
100
AcDbScale
 70
     0
300
8:1
140
8.0
141
1.0
290
     0
  0
SCALE
  5
196
102
{ACAD_REACTORS
330
10C
102
}
330
10C
100
AcDbScale
 70
     0
300
10:1
140
10.0
141
1.0
290
     0
  0
SCALE
  5
197
102
{ACAD_REACTORS
330
10C
102
}
330
10C
100
AcDbScale
 70
     0
300
100:1
140
100.0
141
1.0
290
     0
  0
SCALE
  5
198
102
{ACAD_REACTORS
330
10C
102
}
330
10C
100
AcDbScale
 70
     0
300
1/128" = 1'-0"
140
0.0078125
141
12.0
290
     0
  0
SCALE
  5
199
102
{ACAD_REACTORS
330
10C
102
}
330
10C
100
AcDbScale
 70
     0
300
1/64" = 1'-0"
140
0.015625
141
12.0
290
     0
  0
SCALE
  5
19A
102
{ACAD_REACTORS
330
10C
102
}
330
10C
100
AcDbScale
 70
     0
300
1/32" = 1'-0"
140
0.03125
141
12.0
290
     0
  0
SCALE
  5
19B
102
{ACAD_REACTORS
330
10C
102
}
330
10C
100
AcDbScale
 70
     0
300
1/16" = 1'-0"
140
0.0625
141
12.0
290
     0
  0
SCALE
  5
19C
102
{ACAD_REACTORS
330
10C
102
}
330
10C
100
AcDbScale
 70
     0
300
3/32" = 1'-0"
140
0.09375
141
12.0
290
     0
  0
SCALE
  5
19D
102
{ACAD_REACTORS
330
10C
102
}
330
10C
100
AcDbScale
 70
     0
300
1/8" = 1'-0"
140
0.125
141
12.0
290
     0
  0
SCALE
  5
19E
102
{ACAD_REACTORS
330
10C
102
}
330
10C
100
AcDbScale
 70
     0
300
3/16" = 1'-0"
140
0.1875
141
12.0
290
     0
  0
SCALE
  5
19F
102
{ACAD_REACTORS
330
10C
102
}
330
10C
100
AcDbScale
 70
     0
300
1/4" = 1'-0"
140
0.25
141
12.0
290
     0
  0
SCALE
  5
1A0
102
{ACAD_REACTORS
330
10C
102
}
330
10C
100
AcDbScale
 70
     0
300
3/8" = 1'-0"
140
0.375
141
12.0
290
     0
  0
SCALE
  5
1A1
102
{ACAD_REACTORS
330
10C
102
}
330
10C
100
AcDbScale
 70
     0
300
1/2" = 1'-0"
140
0.5
141
12.0
290
     0
  0
SCALE
  5
1A2
102
{ACAD_REACTORS
330
10C
102
}
330
10C
100
AcDbScale
 70
     0
300
3/4" = 1'-0"
140
0.75
141
12.0
290
     0
  0
SCALE
  5
1A3
102
{ACAD_REACTORS
330
10C
102
}
330
10C
100
AcDbScale
 70
     0
300
1" = 1'-0"
140
1.0
141
12.0
290
     0
  0
SCALE
  5
1A4
102
{ACAD_REACTORS
330
10C
102
}
330
10C
100
AcDbScale
 70
     0
300
1-1/2" = 1'-0"
140
1.5
141
12.0
290
     0
  0
SCALE
  5
1A5
102
{ACAD_REACTORS
330
10C
102
}
330
10C
100
AcDbScale
 70
     0
300
3" = 1'-0"
140
3.0
141
12.0
290
     0
  0
SCALE
  5
1A6
102
{ACAD_REACTORS
330
10C
102
}
330
10C
100
AcDbScale
 70
     0
300
6" = 1'-0"
140
6.0
141
12.0
290
     0
  0
SCALE
  5
1A7
102
{ACAD_REACTORS
330
10C
102
}
330
10C
100
AcDbScale
 70
     0
300
1'-0" = 1'-0"
140
12.0
141
12.0
290
     0
  0
TABLESTYLE
  5
7F
102
{ACAD_XDICTIONARY
360
162
102
}
102
{ACAD_REACTORS
330
7E
102
}
330
7E
100
AcDbTableStyle
  3
Standard
 70
     0
 71
     0
 40
1.5
 41
1.5
280
     0
281
     0
  7
Standard
140
4.5
170
     2
 62
     0
 63
     7
283
     0
274
    -2
284
     1
 64
     0
275
    -2
285
     1
 65
     0
276
    -2
286
     1
 66
     0
277
    -2
287
     1
 67
     0
278
    -2
288
     1
 68
     0
279
    -2
289
     1
 69
     0
  7
Standard
140
6.0
170
     5
 62
     0
 63
     7
283
     0
274
    -2
284
     1
 64
     0
275
    -2
285
     1
 65
     0
276
    -2
286
     1
 66
     0
277
    -2
287
     1
 67
     0
278
    -2
288
     1
 68
     0
279
    -2
289
     1
 69
     0
  7
Standard
140
4.5
170
     5
 62
     0
 63
     7
283
     0
274
    -2
284
     1
 64
     0
275
    -2
285
     1
 65
     0
276
    -2
286
     1
 66
     0
277
    -2
287
     1
 67
     0
278
    -2
288
     1
 68
     0
279
    -2
289
     1
 69
     0
  0
VISUALSTYLE
  5
F5
102
{ACAD_REACTORS
330
EF
102
}
330
EF
100
AcDbVisualStyle
  2
2dWireframe
 70
     4
 71
     0
 72
     2
 73
     1
 90
        0
 40
-0.6
 41
-30.0
 62
     5
 63
     7
 74
     1
 91
        4
 64
     7
 65
   257
 75
     1
175
     1
 42
1.0
 92
        0
 66
   257
 43
1.0
 76
     1
 77
     6
 78
     2
 67
     7
 79
     5
170
     0
171
     0
290
     0
174
     0
 93
        1
 44
0.0
173
     0
291
     0
 45
0.0
1001
ACAD
1000
AcDbSavedByObjectVersion
1070
     0
  0
VISUALSTYLE
  5
F7
102
{ACAD_REACTORS
330
EF
102
}
330
EF
100
AcDbVisualStyle
  2
3D Hidden
 70
     6
 71
     1
 72
     2
 73
     2
 90
        0
 40
-0.6
 41
-30.0
 62
     5
 63
     7
 74
     2
 91
        2
 64
     7
 65
   257
 75
     2
175
     1
 42
40.0
 92
        0
 66
   257
 43
1.0
 76
     1
 77
     6
 78
     2
 67
     7
 79
     3
170
     0
171
     0
290
     0
174
     0
 93
        1
 44
0.0
173
     0
291
     0
 45
0.0
1001
ACAD
1000
AcDbSavedByObjectVersion
1070
     0
  0
VISUALSTYLE
  5
F6
102
{ACAD_REACTORS
330
EF
102
}
330
EF
100
AcDbVisualStyle
  2
3dWireframe
 70
     5
 71
     0
 72
     2
 73
     1
 90
        0
 40
-0.6
 41
-30.0
 62
     5
 63
     7
 74
     1
 91
        4
 64
     7
 65
   257
 75
     1
175
     1
 42
1.0
 92
        0
 66
   257
 43
1.0
 76
     1
 77
     6
 78
     2
 67
     7
 79
     5
170
     0
171
     0
290
     0
174
     0
 93
        1
 44
0.0
173
     0
291
     0
 45
0.0
1001
ACAD
1000
AcDbSavedByObjectVersion
1070
     0
  0
VISUALSTYLE
  5
F4
102
{ACAD_REACTORS
330
EF
102
}
330
EF
100
AcDbVisualStyle
  2
Basic
 70
     7
 71
     1
 72
     0
 73
     1
 90
        0
 40
-0.6
 41
-30.0
 62
     5
 63
     7
 74
     0
 91
        4
 64
     7
 65
   257
 75
     1
175
     1
 42
1.0
 92
        8
 66
     7
 43
1.0
 76
     1
 77
     6
 78
     2
 67
     7
 79
     5
170
     0
171
     0
290
     0
174
     0
 93
        1
 44
0.0
173
     0
291
     1
 45
0.0
1001
ACAD
1000
AcDbSavedByObjectVersion
1070
     0
  0
VISUALSTYLE
  5
FB
102
{ACAD_REACTORS
330
EF
102
}
330
EF
100
AcDbVisualStyle
  2
Brighten
 70
    12
 71
     2
 72
     2
 73
     1
 90
        0
 40
-0.6
 41
-30.0
 62
     5
 63
     7
 74
     1
 91
        4
 64
     7
 65
   257
 75
     1
175
     1
 42
1.0
 92
        8
 66
     7
 43
1.0
 76
     1
 77
     6
 78
     2
 67
     7
 79
     5
170
     0
171
     0
290
     0
174
     0
 93
        1
 44
50.0
173
     0
291
     1
 45
0.0
1001
ACAD
1000
AcDbSavedByObjectVersion
1070
     0
  0
VISUALSTYLE
  5
FF
102
{ACAD_REACTORS
330
EF
102
}
330
EF
100
AcDbVisualStyle
  2
ColorChange
 70
    16
 71
     2
 72
     2
 73
     3
 90
        0
 40
-0.6
 41
-30.0
 62
     5
 63
     8
 74
     1
 91
        4
 64
     7
 65
   257
 75
     1
175
     1
 42
1.0
 92
        8
 66
     8
 43
1.0
 76
     1
 77
     6
 78
     2
 67
     7
 79
     5
170
     0
171
     0
290
     0
174
     0
 93
        1
 44
0.0
173
     0
291
     1
 45
0.0
1001
ACAD
1000
AcDbSavedByObjectVersion
1070
     0
  0
VISUALSTYLE
  5
F8
102
{ACAD_REACTORS
330
EF
102
}
330
EF
100
AcDbVisualStyle
  2
Conceptual
 70
     9
 71
     3
 72
     2
 73
     1
 90
        0
 40
-0.6
 41
-30.0
 62
     5
 63
     7
 74
     2
 91
        2
 64
     7
 65
   257
 75
     1
175
     1
 42
40.0
 92
        8
 66
     7
 43
1.0
 76
     1
 77
     6
 78
     2
 67
     7
 79
     3
170
     0
171
     0
290
     0
174
     0
 93
        1
 44
0.0
173
     0
291
     0
 45
0.0
1001
ACAD
1000
AcDbSavedByObjectVersion
1070
     0
  0
VISUALSTYLE
  5
FA
102
{ACAD_REACTORS
330
EF
102
}
330
EF
100
AcDbVisualStyle
  2
Dim
 70
    11
 71
     2
 72
     2
 73
     1
 90
        0
 40
-0.6
 41
-30.0
 62
     5
 63
     7
 74
     1
 91
        4
 64
     7
 65
   257
 75
     1
175
     1
 42
1.0
 92
        8
 66
     7
 43
1.0
 76
     1
 77
     6
 78
     2
 67
     7
 79
     5
170
     0
171
     0
290
     0
174
     0
 93
        1
 44
-50.0
173
     0
291
     1
 45
0.0
1001
ACAD
1000
AcDbSavedByObjectVersion
1070
     0
  0
VISUALSTYLE
  5
FE
102
{ACAD_REACTORS
330
EF
102
}
330
EF
100
AcDbVisualStyle
  2
Facepattern
 70
    15
 71
     2
 72
     2
 73
     1
 90
        0
 40
-0.6
 41
-30.0
 62
     5
 63
     7
 74
     1
 91
        4
 64
     7
 65
   257
 75
     1
175
     1
 42
1.0
 92
        8
 66
     7
 43
1.0
 76
     1
 77
     6
 78
     2
 67
     7
 79
     5
170
     0
171
     0
290
     0
174
     0
 93
        1
 44
0.0
173
     0
291
     1
 45
0.0
1001
ACAD
1000
AcDbSavedByObjectVersion
1070
     0
  0
VISUALSTYLE
  5
F0
102
{ACAD_REACTORS
330
EF
102
}
330
EF
100
AcDbVisualStyle
  2
Flat
 70
     0
 71
     2
 72
     1
 73
     1
 90
        2
 40
-0.6
 41
30.0
 62
     5
 63
     7
 74
     0
 91
        4
 64
     7
 65
   257
 75
     1
175
     1
 42
1.0
 92
        8
 66
     7
 43
1.0
 76
     1
 77
     6
 78
     2
 67
     7
 79
     5
170
     0
171
     0
290
     0
174
     0
 93
        1
 44
0.0
173
     0
291
     1
 45
0.0
1001
ACAD
1000
AcDbSavedByObjectVersion
1070
     0
  0
VISUALSTYLE
  5
F1
102
{ACAD_REACTORS
330
EF
102
}
330
EF
100
AcDbVisualStyle
  2
FlatWithEdges
 70
     1
 71
     2
 72
     1
 73
     1
 90
        2
 40
-0.6
 41
30.0
 62
     5
 63
     7
 74
     1
 91
        4
 64
     7
 65
   257
 75
     1
175
     1
 42
1.0
 92
        0
 66
   257
 43
1.0
 76
     1
 77
     6
 78
     2
 67
     7
 79
     5
170
     0
171
     0
290
     0
174
     0
 93
        1
 44
0.0
173
     0
291
     1
 45
0.0
1001
ACAD
1000
AcDbSavedByObjectVersion
1070
     0
  0
VISUALSTYLE
  5
F2
102
{ACAD_REACTORS
330
EF
102
}
330
EF
100
AcDbVisualStyle
  2
Gouraud
 70
     2
 71
     2
 72
     2
 73
     1
 90
        2
 40
-0.6
 41
30.0
 62
     5
 63
     7
 74
     0
 91
        4
 64
     7
 65
   257
 75
     1
175
     1
 42
1.0
 92
        0
 66
     7
 43
1.0
 76
     1
 77
     6
 78
     2
 67
     7
 79
     5
170
     0
171
     0
290
     0
174
     0
 93
        1
 44
0.0
173
     0
291
     1
 45
0.0
1001
ACAD
1000
AcDbSavedByObjectVersion
1070
     0
  0
VISUALSTYLE
  5
F3
102
{ACAD_REACTORS
330
EF
102
}
330
EF
100
AcDbVisualStyle
  2
GouraudWithEdges
 70
     3
 71
     2
 72
     2
 73
     1
 90
        2
 40
-0.6
 41
30.0
 62
     5
 63
     7
 74
     1
 91
        4
 64
     7
 65
   257
 75
     1
175
     1
 42
1.0
 92
        0
 66
   257
 43
1.0
 76
     1
 77
     6
 78
     2
 67
     7
 79
     5
170
     0
171
     0
290
     0
174
     0
 93
        1
 44
0.0
173
     0
291
     1
 45
0.0
1001
ACAD
1000
AcDbSavedByObjectVersion
1070
     0
  0
VISUALSTYLE
  5
FD
102
{ACAD_REACTORS
330
EF
102
}
330
EF
100
AcDbVisualStyle
  2
Linepattern
 70
    14
 71
     2
 72
     2
 73
     1
 90
        0
 40
-0.6
 41
-30.0
 62
     5
 63
     7
 74
     1
 91
        4
 64
     7
 65
   257
 75
     7
175
     7
 42
1.0
 92
        8
 66
     7
 43
1.0
 76
     1
 77
     6
 78
     2
 67
     7
 79
     5
170
     0
171
     0
290
     0
174
     0
 93
        1
 44
0.0
173
     0
291
     1
 45
0.0
1001
ACAD
1000
AcDbSavedByObjectVersion
1070
     0
  0
VISUALSTYLE
  5
F9
102
{ACAD_REACTORS
330
EF
102
}
330
EF
100
AcDbVisualStyle
  2
Realistic
 70
     8
 71
     2
 72
     2
 73
     1
 90
        0
 40
-0.6
 41
-30.0
 62
     5
 63
     7
 74
     1
 91
        0
 64
     7
 65
   257
 75
     1
175
     1
 42
1.0
 92
        8
 66
     8
 43
1.0
 76
     1
 77
     6
 78
     2
 67
     7
 79
     5
170
     0
171
     0
290
     0
174
     0
 93
       13
 44
0.0
173
     0
291
     0
 45
0.0
1001
ACAD
1000
AcDbSavedByObjectVersion
1070
     0
  0
VISUALSTYLE
  5
FC
102
{ACAD_REACTORS
330
EF
102
}
330
EF
100
AcDbVisualStyle
  2
Thicken
 70
    13
 71
     2
 72
     2
 73
     1
 90
        0
 40
-0.6
 41
-30.0
 62
     5
 63
     7
 74
     1
 91
        4
 64
     7
 65
   257
 75
     1
175
     1
 42
1.0
 92
       12
 66
     7
 43
1.0
 76
     1
 77
     6
 78
     2
 67
     7
 79
     5
170
     0
171
     0
290
     0
174
     0
 93
        1
 44
0.0
173
     0
291
     1
 45
0.0
1001
ACAD
1000
AcDbSavedByObjectVersion
1070
     0
  0
DICTIONARYVAR
  5
146
102
{ACAD_REACTORS
330
5E
102
}
330
5E
100
DictionaryVariables
280
     0
  1
1:1
  0
DICTIONARYVAR
  5
145
102
{ACAD_REACTORS
330
5E
102
}
330
5E
100
DictionaryVariables
280
     0
  1
STANDARD
  0
DICTIONARYVAR
  5
84
102
{ACAD_REACTORS
330
5E
102
}
330
5E
100
DictionaryVariables
280
     0
  1
STANDARD
  0
DICTIONARYVAR
  5
5F
102
{ACAD_REACTORS
330
5E
102
}
330
5E
100
DictionaryVariables
280
     0
  1
2
  0
DICTIONARYVAR
  5
63
102
{ACAD_REACTORS
330
5E
102
}
330
5E
100
DictionaryVariables
280
     0
  1
1
  0
DICTIONARYVAR
  5
402
102
{ACAD_REACTORS
330
5E
102
}
330
5E
100
DictionaryVariables
280
     0
  1
0
  0
DICTIONARYVAR
  5
400
102
{ACAD_REACTORS
330
5E
102
}
330
5E
100
DictionaryVariables
280
     0
  1
2
  0
DICTIONARYVAR
  5
3FF
102
{ACAD_REACTORS
330
5E
102
}
330
5E
100
DictionaryVariables
280
     0
  1
1
  0
DICTIONARYVAR
  5
404
102
{ACAD_REACTORS
330
5E
102
}
330
5E
100
DictionaryVariables
280
     0
  1
80.000000
  0
DICTIONARYVAR
  5
403
102
{ACAD_REACTORS
330
5E
102
}
330
5E
100
DictionaryVariables
280
     0
  1
5.000000
  0
DICTIONARYVAR
  5
401
102
{ACAD_REACTORS
330
5E
102
}
330
5E
100
DictionaryVariables
280
     0
  1
127
  0
DICTIONARY
  5
40A
330
D3
100
AcDbDictionary
280
     1
281
     1
  3
ACAD_XREC_ROUNDTRIP
360
40B
  0
DICTIONARY
  5
40C
330
D7
100
AcDbDictionary
280
     1
281
     1
  3
ACAD_XREC_ROUNDTRIP
360
40D
  0
DICTIONARY
  5
407
330
22
100
AcDbDictionary
280
     1
281
     1
  3
ACAD_XREC_ROUNDTRIP
360
408
  0
DICTIONARY
  5
410
330
ED
100
AcDbDictionary
280
     1
281
     1
  3
ACAD_XREC_ROUNDTRIP
360
411
  0
DICTIONARY
  5
40E
330
EC
100
AcDbDictionary
280
     1
281
     1
  3
ACAD_XREC_ROUNDTRIP
360
40F
  0
DICTIONARY
  5
173
330
EE
100
AcDbDictionary
280
     1
281
     1
  3
ACAD_XREC_ROUNDTRIP
360
412
  3
BUMPTILE
360
175
  3
DIFFUSETILE
360
174
  3
OPACITYTILE
360
176
  3
REFLECTIONTILE
360
177
  0
DICTIONARY
  5
162
330
7F
100
AcDbDictionary
280
     1
281
     1
  3
ACAD_ROUNDTRIP_2008_TABLESTYLE_CELLSTYLEMAP
360
405
  3
ACAD_XREC_ROUNDTRIP
360
409
  0
XRECORD
  5
40B
102
{ACAD_REACTORS
330
40A
102
}
330
40A
100
AcDbXrecord
280
     1
102
SHADEPLOT
 70
     0
102
SHADEPLOTRESLEVEL
 70
     2
102
SHADEPLOTCUSTOMDPI
 70
   300
  0
XRECORD
  5
40D
102
{ACAD_REACTORS
330
40C
102
}
330
40C
100
AcDbXrecord
280
     1
102
SHADEPLOT
 70
     0
102
SHADEPLOTRESLEVEL
 70
     2
102
SHADEPLOTCUSTOMDPI
 70
   300
  0
XRECORD
  5
408
102
{ACAD_REACTORS
330
407
102
}
330
407
100
AcDbXrecord
280
     1
102
SHADEPLOT
 70
     0
102
SHADEPLOTRESLEVEL
 70
     2
102
SHADEPLOTCUSTOMDPI
 70
   300
  0
XRECORD
  5
411
102
{ACAD_REACTORS
330
410
102
}
330
410
100
AcDbXrecord
280
     1
102
MATERIAL
148
0.0
149
0.0
149
0.0
 93
        0
 94
       63
282
     0
 72
     1
 77
     1
171
     1
175
     1
179
     1
273
     0
  0
XRECORD
  5
40F
102
{ACAD_REACTORS
330
40E
102
}
330
40E
100
AcDbXrecord
280
     1
102
MATERIAL
148
0.0
149
0.0
149
0.0
 93
        0
 94
       63
282
     0
 72
     1
 77
     1
171
     1
175
     1
179
     1
273
     0
  0
XRECORD
  5
412
102
{ACAD_REACTORS
330
173
102
}
330
173
100
AcDbXrecord
280
     1
102
MATERIAL
148
0.0
149
0.0
149
0.0
 93
        0
 94
       63
282
     0
 72
     1
 77
     1
171
     1
175
     1
179
     1
273
     0
  0
XRECORD
  5
175
102
{ACAD_REACTORS
330
173
102
}
330
173
100
AcDbXrecord
280
     1
270
     1
271
     1
  0
XRECORD
  5
174
102
{ACAD_REACTORS
330
173
102
}
330
173
100
AcDbXrecord
280
     1
270
     1
271
     1
  0
XRECORD
  5
176
102
{ACAD_REACTORS
330
173
102
}
330
173
100
AcDbXrecord
280
     1
270
     1
271
     1
  0
XRECORD
  5
177
102
{ACAD_REACTORS
330
173
102
}
330
173
100
AcDbXrecord
280
     1
270
     1
271
     1
  0
CELLSTYLEMAP
  5
405
102
{ACAD_REACTORS
330
162
102
}
330
162
100
AcDbCellStyleMap
 90
        3
300
CELLSTYLE
  1
TABLEFORMAT_BEGIN
 90
        5
170
     1
 91
        0
 92
    32768
 62
   257
 93
        1
300
CONTENTFORMAT
  1
CONTENTFORMAT_BEGIN
 90
        0
 91
        0
 92
      512
 93
        0
300

 40
0.0
140
1.0
 94
        5
 62
     0
340
11
144
6.0
309
CONTENTFORMAT_END
171
     1
301
MARGIN
  1
CELLMARGIN_BEGIN
 40
1.5
 40
1.5
 40
1.5
 40
1.5
 40
4.5
 40
4.5
309
CELLMARGIN_END
 94
        6
 95
        1
302
GRIDFORMAT
  1
GRIDFORMAT_BEGIN
 90
        0
 91
        1
 62
     0
 92
       -2
340
14
 93
        0
 40
1.125
309
GRIDFORMAT_END
 95
        2
302
GRIDFORMAT
  1
GRIDFORMAT_BEGIN
 90
        0
 91
        1
 62
     0
 92
       -2
340
14
 93
        0
 40
1.125
309
GRIDFORMAT_END
 95
        4
302
GRIDFORMAT
  1
GRIDFORMAT_BEGIN
 90
        0
 91
        1
 62
     0
 92
       -2
340
14
 93
        0
 40
1.125
309
GRIDFORMAT_END
 95
        8
302
GRIDFORMAT
  1
GRIDFORMAT_BEGIN
 90
        0
 91
        1
 62
     0
 92
       -2
340
14
 93
        0
 40
1.125
309
GRIDFORMAT_END
 95
       16
302
GRIDFORMAT
  1
GRIDFORMAT_BEGIN
 90
        0
 91
        1
 62
     0
 92
       -2
340
14
 93
        0
 40
1.125
309
GRIDFORMAT_END
 95
       32
302
GRIDFORMAT
  1
GRIDFORMAT_BEGIN
 90
        0
 91
        1
 62
     0
 92
       -2
340
14
 93
        0
 40
1.125
309
GRIDFORMAT_END
309
TABLEFORMAT_END
  1
CELLSTYLE_BEGIN
 90
        1
 91
        1
300
_TITLE
309
CELLSTYLE_END
300
CELLSTYLE
  1
TABLEFORMAT_BEGIN
 90
        5
170
     1
 91
        0
 92
        0
 62
   257
 93
        1
300
CONTENTFORMAT
  1
CONTENTFORMAT_BEGIN
 90
        0
 91
        0
 92
      512
 93
        0
300

 40
0.0
140
1.0
 94
        5
 62
     0
340
11
144
4.5
309
CONTENTFORMAT_END
171
     1
301
MARGIN
  1
CELLMARGIN_BEGIN
 40
1.5
 40
1.5
 40
1.5
 40
1.5
 40
4.5
 40
4.5
309
CELLMARGIN_END
 94
        6
 95
        1
302
GRIDFORMAT
  1
GRIDFORMAT_BEGIN
 90
        0
 91
        1
 62
     0
 92
       -2
340
14
 93
        0
 40
1.125
309
GRIDFORMAT_END
 95
        2
302
GRIDFORMAT
  1
GRIDFORMAT_BEGIN
 90
        0
 91
        1
 62
     0
 92
       -2
340
14
 93
        0
 40
1.125
309
GRIDFORMAT_END
 95
        4
302
GRIDFORMAT
  1
GRIDFORMAT_BEGIN
 90
        0
 91
        1
 62
     0
 92
       -2
340
14
 93
        0
 40
1.125
309
GRIDFORMAT_END
 95
        8
302
GRIDFORMAT
  1
GRIDFORMAT_BEGIN
 90
        0
 91
        1
 62
     0
 92
       -2
340
14
 93
        0
 40
1.125
309
GRIDFORMAT_END
 95
       16
302
GRIDFORMAT
  1
GRIDFORMAT_BEGIN
 90
        0
 91
        1
 62
     0
 92
       -2
340
14
 93
        0
 40
1.125
309
GRIDFORMAT_END
 95
       32
302
GRIDFORMAT
  1
GRIDFORMAT_BEGIN
 90
        0
 91
        1
 62
     0
 92
       -2
340
14
 93
        0
 40
1.125
309
GRIDFORMAT_END
309
TABLEFORMAT_END
  1
CELLSTYLE_BEGIN
 90
        2
 91
        1
300
_HEADER
309
CELLSTYLE_END
300
CELLSTYLE
  1
TABLEFORMAT_BEGIN
 90
        5
170
     1
 91
        0
 92
        0
 62
   257
 93
        1
300
CONTENTFORMAT
  1
CONTENTFORMAT_BEGIN
 90
        0
 91
        0
 92
      512
 93
        0
300

 40
0.0
140
1.0
 94
        2
 62
     0
340
11
144
4.5
309
CONTENTFORMAT_END
171
     1
301
MARGIN
  1
CELLMARGIN_BEGIN
 40
1.5
 40
1.5
 40
1.5
 40
1.5
 40
4.5
 40
4.5
309
CELLMARGIN_END
 94
        6
 95
        1
302
GRIDFORMAT
  1
GRIDFORMAT_BEGIN
 90
        0
 91
        1
 62
     0
 92
       -2
340
14
 93
        0
 40
1.125
309
GRIDFORMAT_END
 95
        2
302
GRIDFORMAT
  1
GRIDFORMAT_BEGIN
 90
        0
 91
        1
 62
     0
 92
       -2
340
14
 93
        0
 40
1.125
309
GRIDFORMAT_END
 95
        4
302
GRIDFORMAT
  1
GRIDFORMAT_BEGIN
 90
        0
 91
        1
 62
     0
 92
       -2
340
14
 93
        0
 40
1.125
309
GRIDFORMAT_END
 95
        8
302
GRIDFORMAT
  1
GRIDFORMAT_BEGIN
 90
        0
 91
        1
 62
     0
 92
       -2
340
14
 93
        0
 40
1.125
309
GRIDFORMAT_END
 95
       16
302
GRIDFORMAT
  1
GRIDFORMAT_BEGIN
 90
        0
 91
        1
 62
     0
 92
       -2
340
14
 93
        0
 40
1.125
309
GRIDFORMAT_END
 95
       32
302
GRIDFORMAT
  1
GRIDFORMAT_BEGIN
 90
        0
 91
        1
 62
     0
 92
       -2
340
14
 93
        0
 40
1.125
309
GRIDFORMAT_END
309
TABLEFORMAT_END
  1
CELLSTYLE_BEGIN
 90
        3
 91
        2
300
_DATA
309
CELLSTYLE_END
  0
XRECORD
  5
409
102
{ACAD_REACTORS
330
162
102
}
330
162
100
AcDbXrecord
280
     1
102
ACAD_ROUNDTRIP_PRE2007_TABLESTYLE
 90
      512
 91
        0
  1

 92
      512
 93
        0
  2

 94
      512
 95
        0
  3

  0
ENDSEC
  0
EOF
