  0
SECTION
  2
HEADER
  9
$ACADVER
  1
AC1015
  9
$ACADMAINTVER
 70
    20
  9
$DWGCODEPAGE
  3
ANSI_1254
  9
$INSBASE
 10
0.0
 20
0.0
 30
0.0
  9
$EXTMIN
 10
2347.931003680581
 20
806.2790559119006
 30
0.0
  9
$EXTMAX
 10
2485.275354539784
 20
893.8052085214032
 30
0.0
  9
$LIMMIN
 10
0.0
 20
0.0
  9
$LIMMAX
 10
420.0
 20
297.0
  9
$ORTHOMODE
 70
     0
  9
$REGENMODE
 70
     1
  9
$FILLMODE
 70
     1
  9
$QTEXTMODE
 70
     0
  9
$MIRRTEXT
 70
     0
  9
$LTSCALE
 40
1.0
  9
$ATTMODE
 70
     1
  9
$TEXTSIZE
 40
2.5
  9
$TRACEWID
 40
1.0
  9
$TEXTSTYLE
  7
Standard
  9
$CLAYER
  8
0
  9
$CELTYPE
  6
ByLayer
  9
$CECOLOR
 62
   256
  9
$CELTSCALE
 40
1.0
  9
$DISPSILH
 70
     0
  9
$DIMSCALE
 40
1.0
  9
$DIMASZ
 40
2.5
  9
$DIMEXO
 40
0.625
  9
$DIMDLI
 40
3.75
  9
$DIMRND
 40
0.0
  9
$DIMDLE
 40
0.0
  9
$DIMEXE
 40
1.25
  9
$DIMTP
 40
0.0
  9
$DIMTM
 40
0.0
  9
$DIMTXT
 40
2.5
  9
$DIMCEN
 40
2.5
  9
$DIMTSZ
 40
0.0
  9
$DIMTOL
 70
     0
  9
$DIMLIM
 70
     0
  9
$DIMTIH
 70
     0
  9
$DIMTOH
 70
     0
  9
$DIMSE1
 70
     0
  9
$DIMSE2
 70
     0
  9
$DIMTAD
 70
     1
  9
$DIMZIN
 70
     8
  9
$DIMBLK
  1

  9
$DIMASO
 70
     1
  9
$DIMSHO
 70
     1
  9
$DIMPOST
  1

  9
$DIMAPOST
  1

  9
$DIMALT
 70
     0
  9
$DIMALTD
 70
     3
  9
$DIMALTF
 40
0.03937007874016
  9
$DIMLFAC
 40
1.0
  9
$DIMTOFL
 70
     1
  9
$DIMTVP
 40
0.0
  9
$DIMTIX
 70
     0
  9
$DIMSOXD
 70
     0
  9
$DIMSAH
 70
     0
  9
$DIMBLK1
  1

  9
$DIMBLK2
  1

  9
$DIMSTYLE
  2
ISO-25
  9
$DIMCLRD
 70
     0
  9
$DIMCLRE
 70
     0
  9
$DIMCLRT
 70
     0
  9
$DIMTFAC
 40
1.0
  9
$DIMGAP
 40
0.625
  9
$DIMJUST
 70
     0
  9
$DIMSD1
 70
     0
  9
$DIMSD2
 70
     0
  9
$DIMTOLJ
 70
     0
  9
$DIMTZIN
 70
     8
  9
$DIMALTZ
 70
     0
  9
$DIMALTTZ
 70
     0
  9
$DIMUPT
 70
     0
  9
$DIMDEC
 70
     2
  9
$DIMTDEC
 70
     2
  9
$DIMALTU
 70
     2
  9
$DIMALTTD
 70
     3
  9
$DIMTXSTY
  7
Standard
  9
$DIMAUNIT
 70
     0
  9
$DIMADEC
 70
     0
  9
$DIMALTRND
 40
0.0
  9
$DIMAZIN
 70
     0
  9
$DIMDSEP
 70
    44
  9
$DIMATFIT
 70
     3
  9
$DIMFRAC
 70
     0
  9
$DIMLDRBLK
  1

  9
$DIMLUNIT
 70
     2
  9
$DIMLWD
 70
    -2
  9
$DIMLWE
 70
    -2
  9
$DIMTMOVE
 70
     0
  9
$LUNITS
 70
     2
  9
$LUPREC
 70
     4
  9
$SKETCHINC
 40
1.0
  9
$FILLETRAD
 40
0.0
  9
$AUNITS
 70
     0
  9
$AUPREC
 70
     0
  9
$MENU
  1
.
  9
$ELEVATION
 40
0.0
  9
$PELEVATION
 40
0.0
  9
$THICKNESS
 40
0.0
  9
$LIMCHECK
 70
     0
  9
$CHAMFERA
 40
0.0
  9
$CHAMFERB
 40
0.0
  9
$CHAMFERC
 40
0.0
  9
$CHAMFERD
 40
0.0
  9
$SKPOLY
 70
     0
  9
$TDCREATE
 40
2459083.460717662
  9
$TDUCREATE
 40
2459083.335717662
  9
$TDUPDATE
 40
2459083.677400440
  9
$TDUUPDATE
 40
2459083.552400440
  9
$TDINDWG
 40
0.0006762269
  9
$TDUSRTIMER
 40
0.0006762269
  9
$USRTIMER
 70
     1
  9
$ANGBASE
 50
0.0
  9
$ANGDIR
 70
     0
  9
$PDMODE
 70
     0
  9
$PDSIZE
 40
0.0
  9
$PLINEWID
 40
0.0
  9
$SPLFRAME
 70
     0
  9
$SPLINETYPE
 70
     6
  9
$SPLINESEGS
 70
     8
  9
$HANDSEED
  5
5EF
  9
$SURFTAB1
 70
     6
  9
$SURFTAB2
 70
     6
  9
$SURFTYPE
 70
     6
  9
$SURFU
 70
     6
  9
$SURFV
 70
     6
  9
$UCSBASE
  2

  9
$UCSNAME
  2

  9
$UCSORG
 10
0.0
 20
0.0
 30
0.0
  9
$UCSXDIR
 10
1.0
 20
0.0
 30
0.0
  9
$UCSYDIR
 10
0.0
 20
1.0
 30
0.0
  9
$UCSORTHOREF
  2

  9
$UCSORTHOVIEW
 70
     0
  9
$UCSORGTOP
 10
0.0
 20
0.0
 30
0.0
  9
$UCSORGBOTTOM
 10
0.0
 20
0.0
 30
0.0
  9
$UCSORGLEFT
 10
0.0
 20
0.0
 30
0.0
  9
$UCSORGRIGHT
 10
0.0
 20
0.0
 30
0.0
  9
$UCSORGFRONT
 10
0.0
 20
0.0
 30
0.0
  9
$UCSORGBACK
 10
0.0
 20
0.0
 30
0.0
  9
$PUCSBASE
  2

  9
$PUCSNAME
  2

  9
$PUCSORG
 10
0.0
 20
0.0
 30
0.0
  9
$PUCSXDIR
 10
1.0
 20
0.0
 30
0.0
  9
$PUCSYDIR
 10
0.0
 20
1.0
 30
0.0
  9
$PUCSORTHOREF
  2

  9
$PUCSORTHOVIEW
 70
     0
  9
$PUCSORGTOP
 10
0.0
 20
0.0
 30
0.0
  9
$PUCSORGBOTTOM
 10
0.0
 20
0.0
 30
0.0
  9
$PUCSORGLEFT
 10
0.0
 20
0.0
 30
0.0
  9
$PUCSORGRIGHT
 10
0.0
 20
0.0
 30
0.0
  9
$PUCSORGFRONT
 10
0.0
 20
0.0
 30
0.0
  9
$PUCSORGBACK
 10
0.0
 20
0.0
 30
0.0
  9
$USERI1
 70
     0
  9
$USERI2
 70
     0
  9
$USERI3
 70
     0
  9
$USERI4
 70
     0
  9
$USERI5
 70
     0
  9
$USERR1
 40
0.0
  9
$USERR2
 40
0.0
  9
$USERR3
 40
0.0
  9
$USERR4
 40
0.0
  9
$USERR5
 40
0.0
  9
$WORLDVIEW
 70
     1
  9
$SHADEDGE
 70
     3
  9
$SHADEDIF
 70
    70
  9
$TILEMODE
 70
     1
  9
$MAXACTVP
 70
    64
  9
$PINSBASE
 10
0.0
 20
0.0
 30
0.0
  9
$PLIMCHECK
 70
     0
  9
$PEXTMIN
 10
0.0
 20
0.0
 30
0.0
  9
$PEXTMAX
 10
0.0
 20
0.0
 30
0.0
  9
$PLIMMIN
 10
0.0
 20
0.0
  9
$PLIMMAX
 10
12.0
 20
9.0
  9
$UNITMODE
 70
     0
  9
$VISRETAIN
 70
     1
  9
$PLINEGEN
 70
     0
  9
$PSLTSCALE
 70
     1
  9
$TREEDEPTH
 70
  3020
  9
$CMLSTYLE
  2
Standard
  9
$CMLJUST
 70
     0
  9
$CMLSCALE
 40
20.0
  9
$PROXYGRAPHICS
 70
     1
  9
$MEASUREMENT
 70
     1
  9
$CELWEIGHT
370
    -1
  9
$ENDCAPS
280
     0
  9
$JOINSTYLE
280
     0
  9
$LWDISPLAY
290
     0
  9
$INSUNITS
 70
     4
  9
$HYPERLINKBASE
  1

  9
$STYLESHEET
  1

  9
$XEDIT
290
     1
  9
$CEPSNTYPE
380
     0
  9
$PSTYLEMODE
290
     1
  9
$FINGERPRINTGUID
  2
{F43B47BD-4A72-4960-816A-06DB0C2D0E55}
  9
$VERSIONGUID
  2
{5CF19650-A10B-408B-ADAF-FA93BFC09955}
  9
$EXTNAMES
290
     1
  9
$PSVPSCALE
 40
0.0
  9
$OLESTARTUP
290
     0
  0
ENDSEC
  0
SECTION
  2
CLASSES
  0
CLASS
  1
ACDBDICTIONARYWDFLT
  2
AcDbDictionaryWithDefault
  3
ObjectDBX Classes
 90
        0
280
     0
281
     0
  0
CLASS
  1
ACDBPLACEHOLDER
  2
AcDbPlaceHolder
  3
ObjectDBX Classes
 90
        0
280
     0
281
     0
  0
CLASS
  1
LAYOUT
  2
AcDbLayout
  3
ObjectDBX Classes
 90
        0
280
     0
281
     0
  0
CLASS
  1
DICTIONARYVAR
  2
AcDbDictionaryVar
  3
ObjectDBX Classes
 90
        0
280
     0
281
     0
  0
CLASS
  1
TABLESTYLE
  2
AcDbTableStyle
  3
ObjectDBX Classes
 90
     4095
280
     0
281
     0
  0
CLASS
  1
MATERIAL
  2
AcDbMaterial
  3
ObjectDBX Classes
 90
     1153
280
     0
281
     0
  0
CLASS
  1
VISUALSTYLE
  2
AcDbVisualStyle
  3
ObjectDBX Classes
 90
     4095
280
     0
281
     0
  0
CLASS
  1
SCALE
  2
AcDbScale
  3
ObjectDBX Classes
 90
     1153
280
     0
281
     0
  0
CLASS
  1
MLEADERSTYLE
  2
AcDbMLeaderStyle
  3
ACDB_MLEADERSTYLE_CLASS
 90
     4095
280
     0
281
     0
  0
CLASS
  1
CELLSTYLEMAP
  2
AcDbCellStyleMap
  3
ObjectDBX Classes
 90
     1152
280
     0
281
     0
  0
CLASS
  1
ACAD_EVALUATION_GRAPH
  2
AcDbEvalGraph
  3
ObjectDBX Classes
 90
    33921
280
     0
281
     0
  0
CLASS
  1
ACAECUSTOBJ
  2
AcAeEditorObj
  3
AcAeEditorObj
 90
    33792
280
     0
281
     0
  0
CLASS
  1
ACDB_DYNAMICBLOCKPURGEPREVENTER_VERSION
  2
AcDbDynamicBlockPurgePreventer
  3
ObjectDBX Classes
 90
    33921
280
     0
281
     0
  0
ENDSEC
  0
SECTION
  2
TABLES
  0
TABLE
  2
VPORT
  5
8
330
0
100
AcDbSymbolTable
 70
     1
  0
VPORT
  5
EA
330
8
100
AcDbSymbolTableRecord
100
AcDbViewportTableRecord
  2
*Active
 70
     0
 10
0.0
 20
0.0
 11
1.0
 21
1.0
 12
2424.582710324298
 22
848.3570685534489
 13
0.0
 23
0.0
 14
10.0
 24
10.0
 15
10.0
 25
10.0
 16
0.0
 26
0.0
 36
1.0
 17
0.0
 27
0.0
 37
0.0
 40
125.4922430506983
 41
1.903110047846889
 42
50.0
 43
0.0
 44
0.0
 50
0.0
 51
0.0
 71
     0
 72
  1000
 73
     1
 74
     3
 75
     0
 76
     0
 77
     0
 78
     0
281
     0
 65
     1
110
0.0
120
0.0
130
0.0
111
1.0
121
0.0
131
0.0
112
0.0
122
1.0
132
0.0
 79
     0
146
0.0
  0
ENDTAB
  0
TABLE
  2
LTYPE
  5
5
330
0
100
AcDbSymbolTable
 70
     1
  0
LTYPE
  5
14
330
5
100
AcDbSymbolTableRecord
100
AcDbLinetypeTableRecord
  2
ByBlock
 70
     0
  3

 72
    65
 73
     0
 40
0.0
  0
LTYPE
  5
15
330
5
100
AcDbSymbolTableRecord
100
AcDbLinetypeTableRecord
  2
ByLayer
 70
     0
  3

 72
    65
 73
     0
 40
0.0
  0
LTYPE
  5
16
330
5
100
AcDbSymbolTableRecord
100
AcDbLinetypeTableRecord
  2
Continuous
 70
     0
  3
Solid line
 72
    65
 73
     0
 40
0.0
  0
ENDTAB
  0
TABLE
  2
LAYER
  5
2
330
0
100
AcDbSymbolTable
 70
     1
  0
LAYER
  5
10
102
{ACAD_XDICTIONARY
360
13C
102
}
330
2
100
AcDbSymbolTableRecord
100
AcDbLayerTableRecord
  2
0
 70
     0
 62
     7
  6
Continuous
370
    -3
390
F
  0
ENDTAB
  0
TABLE
  2
STYLE
  5
3
330
0
100
AcDbSymbolTable
 70
     2
  0
STYLE
  5
11
330
3
100
AcDbSymbolTableRecord
100
AcDbTextStyleTableRecord
  2
Standard
 70
     0
 40
0.0
 41
1.0
 50
0.0
 71
     0
 42
2.5
  3
txt
  4

  0
STYLE
  5
132
330
3
100
AcDbSymbolTableRecord
100
AcDbTextStyleTableRecord
  2
Annotative
 70
     0
 40
0.0
 41
1.0
 50
0.0
 71
     0
 42
2.5
  3
txt.shx
  4

1001
AcadAnnotative
1000
AnnotativeData
1002
{
1070
     1
1070
     1
1002
}
  0
ENDTAB
  0
TABLE
  2
VIEW
  5
6
330
0
100
AcDbSymbolTable
 70
     0
  0
ENDTAB
  0
TABLE
  2
UCS
  5
7
330
0
100
AcDbSymbolTable
 70
     0
  0
ENDTAB
  0
TABLE
  2
APPID
  5
9
330
0
100
AcDbSymbolTable
 70
    11
  0
APPID
  5
12
330
9
100
AcDbSymbolTableRecord
100
AcDbRegAppTableRecord
  2
ACAD
 70
     0
  0
APPID
  5
9E
330
9
100
AcDbSymbolTableRecord
100
AcDbRegAppTableRecord
  2
ACAD_PSEXT
 70
     0
  0
APPID
  5
133
330
9
100
AcDbSymbolTableRecord
100
AcDbRegAppTableRecord
  2
AcadAnnoPO
 70
     0
  0
APPID
  5
134
330
9
100
AcDbSymbolTableRecord
100
AcDbRegAppTableRecord
  2
AcadAnnotative
 70
     0
  0
APPID
  5
135
330
9
100
AcDbSymbolTableRecord
100
AcDbRegAppTableRecord
  2
ACAD_DSTYLE_DIMJAG
 70
     0
  0
APPID
  5
136
330
9
100
AcDbSymbolTableRecord
100
AcDbRegAppTableRecord
  2
ACAD_DSTYLE_DIMTALN
 70
     0
  0
APPID
  5
165
330
9
100
AcDbSymbolTableRecord
100
AcDbRegAppTableRecord
  2
ACAD_MLEADERVER
 70
     0
  0
APPID
  5
5CE
330
9
100
AcDbSymbolTableRecord
100
AcDbRegAppTableRecord
  2
ACAUTHENVIRON
 70
     0
  0
APPID
  5
5D2
330
9
100
AcDbSymbolTableRecord
100
AcDbRegAppTableRecord
  2
AcDbDynamicBlockTrueName
 70
     0
  0
APPID
  5
5D3
330
9
100
AcDbSymbolTableRecord
100
AcDbRegAppTableRecord
  2
AcDbDynamicBlockGUID
 70
     0
  0
APPID
  5
5D5
330
9
100
AcDbSymbolTableRecord
100
AcDbRegAppTableRecord
  2
AcDbBlockRepETag
 70
     0
  0
ENDTAB
  0
TABLE
  2
DIMSTYLE
  5
A
330
0
100
AcDbSymbolTable
 70
     2
100
AcDbDimStyleTable
 71
     2
340
27
340
137
  0
DIMSTYLE
105
27
330
A
100
AcDbSymbolTableRecord
100
AcDbDimStyleTableRecord
  2
ISO-25
 70
     0
 41
2.5
 42
0.625
 43
3.75
 44
1.25
 73
     0
 74
     0
 77
     1
 78
     8
140
2.5
141
2.5
143
0.03937007874016
147
0.625
171
     3
172
     1
271
     2
272
     2
274
     3
278
    44
283
     0
284
     8
340
11
  0
DIMSTYLE
105
137
330
A
100
AcDbSymbolTableRecord
100
AcDbDimStyleTableRecord
  2
Annotative
 70
     0
 40
0.0
 41
2.5
 42
0.625
 43
3.75
 44
1.25
 73
     0
 74
     0
 77
     1
 78
     8
140
2.5
141
2.5
143
0.03937007874016
147
0.625
171
     3
172
     1
271
     2
272
     2
274
     3
278
    44
283
     0
284
     8
340
11
1001
AcadAnnotative
1000
AnnotativeData
1002
{
1070
     1
1070
     1
1002
}
1001
ACAD_DSTYLE_DIMJAG
1070
   388
1040
1.5
1001
ACAD_DSTYLE_DIMTALN
1070
   392
1070
     0
  0
ENDTAB
  0
TABLE
  2
BLOCK_RECORD
  5
1
330
0
100
AcDbSymbolTable
 70
    16
  0
BLOCK_RECORD
  5
1F
330
1
100
AcDbSymbolTableRecord
100
AcDbBlockTableRecord
  2
*Model_Space
340
22
  0
BLOCK_RECORD
  5
D2
330
1
100
AcDbSymbolTableRecord
100
AcDbBlockTableRecord
  2
*Paper_Space
340
D3
  0
BLOCK_RECORD
  5
D6
330
1
100
AcDbSymbolTableRecord
100
AcDbBlockTableRecord
  2
*Paper_Space0
340
D7
  0
BLOCK_RECORD
  5
1AD
330
1
100
AcDbSymbolTableRecord
100
AcDbBlockTableRecord
  2
SW_CENTERMARKSYMBOL_0
340
0
  0
BLOCK_RECORD
  5
1B8
330
1
100
AcDbSymbolTableRecord
100
AcDbBlockTableRecord
  2
SW_CENTERMARKSYMBOL_1
340
0
  0
BLOCK_RECORD
  5
1C3
330
1
100
AcDbSymbolTableRecord
100
AcDbBlockTableRecord
  2
SW_CENTERMARKSYMBOL_2
340
0
  0
BLOCK_RECORD
  5
1CE
330
1
100
AcDbSymbolTableRecord
100
AcDbBlockTableRecord
  2
SW_CENTERMARKSYMBOL_3
340
0
102
{BLKREFS
331
51E
102
}
  0
BLOCK_RECORD
  5
1D9
330
1
100
AcDbSymbolTableRecord
100
AcDbBlockTableRecord
  2
SW_CENTERMARKSYMBOL_4
340
0
102
{BLKREFS
331
51F
102
}
  0
BLOCK_RECORD
  5
1E4
330
1
100
AcDbSymbolTableRecord
100
AcDbBlockTableRecord
  2
SW_CENTERMARKSYMBOL_5
340
0
102
{BLKREFS
331
520
102
}
  0
BLOCK_RECORD
  5
1EF
330
1
100
AcDbSymbolTableRecord
100
AcDbBlockTableRecord
  2
SW_CENTERMARKSYMBOL_6
340
0
102
{BLKREFS
331
521
102
}
  0
BLOCK_RECORD
  5
1FA
330
1
100
AcDbSymbolTableRecord
100
AcDbBlockTableRecord
  2
SW_CENTERMARKSYMBOL_7
340
0
102
{BLKREFS
331
522
102
}
  0
BLOCK_RECORD
  5
205
330
1
100
AcDbSymbolTableRecord
100
AcDbBlockTableRecord
  2
SW_CENTERMARKSYMBOL_8
340
0
102
{BLKREFS
331
523
102
}
  0
BLOCK_RECORD
  5
210
330
1
100
AcDbSymbolTableRecord
100
AcDbBlockTableRecord
  2
SW_CENTERMARKSYMBOL_9
340
0
102
{BLKREFS
331
524
102
}
  0
BLOCK_RECORD
  5
21B
330
1
100
AcDbSymbolTableRecord
100
AcDbBlockTableRecord
  2
SW_CENTERMARKSYMBOL_10
340
0
102
{BLKREFS
331
525
102
}
  0
BLOCK_RECORD
  5
456
330
1
100
AcDbSymbolTableRecord
100
AcDbBlockTableRecord
  2
1
340
0
310
2800000020000000200000000100080000000000000400000000000000000000000000000000000000000000000080000080000000808000800000008000800080800000C0C0C000C0DCC000F0CAA6000020400000206000002080000020A0000020C0000020E00000400000004020000040400000406000004080000040A0
310
000040C0000040E00000600000006020000060400000606000006080000060A0000060C0000060E00000800000008020000080400000806000008080000080A0000080C0000080E00000A0000000A0200000A0400000A0600000A0800000A0A00000A0C00000A0E00000C0000000C0200000C0400000C0600000C0800000C0
310
A00000C0C00000C0E00000E0000000E0200000E0400000E0600000E0800000E0A00000E0C00000E0E00040000000400020004000400040006000400080004000A0004000C0004000E00040200000402020004020400040206000402080004020A0004020C0004020E000404000004040200040404000404060004040800040
310
40A0004040C0004040E00040600000406020004060400040606000406080004060A0004060C0004060E00040800000408020004080400040806000408080004080A0004080C0004080E00040A0000040A0200040A0400040A0600040A0800040A0A00040A0C00040A0E00040C0000040C0200040C0400040C0600040C08000
310
40C0A00040C0C00040C0E00040E0000040E0200040E0400040E0600040E0800040E0A00040E0C00040E0E00080000000800020008000400080006000800080008000A0008000C0008000E00080200000802020008020400080206000802080008020A0008020C0008020E00080400000804020008040400080406000804080
310
008040A0008040C0008040E00080600000806020008060400080606000806080008060A0008060C0008060E00080800000808020008080400080806000808080008080A0008080C0008080E00080A0000080A0200080A0400080A0600080A0800080A0A00080A0C00080A0E00080C0000080C0200080C0400080C0600080C0
310
800080C0A00080C0C00080C0E00080E0000080E0200080E0400080E0600080E0800080E0A00080E0C00080E0E000C0000000C0002000C0004000C0006000C0008000C000A000C000C000C000E000C0200000C0202000C0204000C0206000C0208000C020A000C020C000C020E000C0400000C0402000C0404000C0406000C0
310
408000C040A000C040C000C040E000C0600000C0602000C0604000C0606000C0608000C060A000C060C000C060E000C0800000C0802000C0804000C0806000C0808000C080A000C080C000C080E000C0A00000C0A02000C0A04000C0A06000C0A08000C0A0A000C0A0C000C0A0E000C0C00000C0C02000C0C04000C0C06000
310
C0C08000C0C0A000F0FBFF00A4A0A000808080000000FF0000FF000000FFFF00FF000000FF00FF00FFFF0000FFFFFF0000000000000000000000000000000000000000000000000000000000000000000000000000000000000000000000000000000000000000000000000000000000000000000000000000000000000000
310
00000000000000000000000000000000000000FFFFFFFFFFFFFFFFFFFFFFFFFFFFFFFFFFFFFFFFFFFFFFFFFFFFFFFF000000FFFFFFFFFFFFFFFFFFFFFFFFFFFFFFFFFFFFFFFFFFFFFFFFFFFFFFFFFFFF0000FF00000000000000000000000000000000000000000000000000000000FF0000FF000000000000000000000000
310
00000000000000000000000000000000FF0000FF00000000000000000000000000000000000000000000000000000000FF0000FF00000000000000000000000000000000000000000000000000000000FF0000FF00000000000000000000000000000000000000000000000000000000FF0000FF0000000000000000000000
310
0000000000000000000000000000000000FF0000FF00000000000000000000000000000000000000000000000000000000FF0000FF00000000000000000000000000000000000000000000000000000000FF0000FF00000000000000000000000000000000000000000000000000000000FF0000FF00000000000000000000
310
000000000000000000000000000000000000FF0000FF00000000000000000000000000000000000000000000000000000000FF0000FF00000000000000000000000000000000000000000000000000000000FF0000FF00000000000000000000000000000000000000000000000000000000FF0000FF000000000000000000
310
00000000000000000000000000000000000000FF0000FF00000000000000000000000000000000000000000000000000000000FF0000FF00000000000000000000000000000000000000000000000000000000FF0000FF00000000000000000000000000000000000000000000000000000000FF0000FF0000000000000000
310
0000000000000000000000000000000000000000FF0000FF00000000000000000000000000000000000000000000000000000000FF0000FF00000000000000000000000000000000000000000000000000000000FF0000FF00000000000000000000000000000000000000000000000000000000FF0000FF00000000000000
310
000000000000000000000000000000000000000000FF0000FFFFFFFFFFFFFFFFFFFFFFFFFFFFFFFFFFFFFFFFFFFFFFFFFFFFFFFFFFFF000000FFFFFFFFFFFFFFFFFFFFFFFFFFFFFFFFFFFFFFFFFFFFFFFFFFFFFFFF000000000000000000000000000000000000000000000000000000000000000000000000000000000000
310
0000000000000000000000000000000000000000000000000000000000000000000000000000000000000000000000000000000000000000
102
{BLKREFS
331
463
102
}
1001
ACAD
1000
DesignCenter Data
1002
{
1070
     1
1070
     4
1002
}
  0
BLOCK_RECORD
  5
464
102
{ACAD_XDICTIONARY
360
5CF
102
}
330
1
100
AcDbSymbolTableRecord
100
AcDbBlockTableRecord
  2
2
340
0
310
2800000020000000200000000100080000000000000400000000000000000000000000000000000000000000000080000080000000808000800000008000800080800000C0C0C000C0DCC000F0CAA6000020400000206000002080000020A0000020C0000020E00000400000004020000040400000406000004080000040A0
310
000040C0000040E00000600000006020000060400000606000006080000060A0000060C0000060E00000800000008020000080400000806000008080000080A0000080C0000080E00000A0000000A0200000A0400000A0600000A0800000A0A00000A0C00000A0E00000C0000000C0200000C0400000C0600000C0800000C0
310
A00000C0C00000C0E00000E0000000E0200000E0400000E0600000E0800000E0A00000E0C00000E0E00040000000400020004000400040006000400080004000A0004000C0004000E00040200000402020004020400040206000402080004020A0004020C0004020E000404000004040200040404000404060004040800040
310
40A0004040C0004040E00040600000406020004060400040606000406080004060A0004060C0004060E00040800000408020004080400040806000408080004080A0004080C0004080E00040A0000040A0200040A0400040A0600040A0800040A0A00040A0C00040A0E00040C0000040C0200040C0400040C0600040C08000
310
40C0A00040C0C00040C0E00040E0000040E0200040E0400040E0600040E0800040E0A00040E0C00040E0E00080000000800020008000400080006000800080008000A0008000C0008000E00080200000802020008020400080206000802080008020A0008020C0008020E00080400000804020008040400080406000804080
310
008040A0008040C0008040E00080600000806020008060400080606000806080008060A0008060C0008060E00080800000808020008080400080806000808080008080A0008080C0008080E00080A0000080A0200080A0400080A0600080A0800080A0A00080A0C00080A0E00080C0000080C0200080C0400080C0600080C0
310
800080C0A00080C0C00080C0E00080E0000080E0200080E0400080E0600080E0800080E0A00080E0C00080E0E000C0000000C0002000C0004000C0006000C0008000C000A000C000C000C000E000C0200000C0202000C0204000C0206000C0208000C020A000C020C000C020E000C0400000C0402000C0404000C0406000C0
310
408000C040A000C040C000C040E000C0600000C0602000C0604000C0606000C0608000C060A000C060C000C060E000C0800000C0802000C0804000C0806000C0808000C080A000C080C000C080E000C0A00000C0A02000C0A04000C0A06000C0A08000C0A0A000C0A0C000C0A0E000C0C00000C0C02000C0C04000C0C06000
310
C0C08000C0C0A000F0FBFF00A4A0A000808080000000FF0000FF000000FFFF00FF000000FF00FF00FFFF0000FFFFFF0000000000000000000000000000000000000000000000000000000000000000000000000000000000000000000000000000000000000000000000000000000000000000000000000000000000000000
310
00000000000000000000000000000000000000000000000000000000000000000000000000000000000000000000000000000000000000000000000000000000000000000000000000000000000000000000000000000000000000000000000000000000000000000000000000000000000000000000000000000000000000
310
0000000000000000000000000000000000000000000000000000000000000000000000000000000000000000000000000000000000000000000000000000000000000000000000000000000000000000000000FFFFFFFFFFFFFFFFFFFFFFFFFFFFFFFFFFFFFFFFFFFFFFFFFFFFFFFFFFFF0000FF000000FF00000000000000
310
0000FF00000000000000000000FF000000FF0000FF000000FF000000000000000000FF00000000000000000000FF000000FF0000FF000000FF000000000000000000FF00000000000000000000FF000000FF0000FF000000FF000000000000000000FF00000000000000000000FF000000FF0000FFFFFFFFFFFFFFFFFF0000
310
FFFFFFFFFFFFFFFF0000FFFFFFFFFFFFFFFFFF0000FF00FFFFFF00FF0000000000FFFFFF00FFFF0000000000FF00FFFFFF00FF0000FF00FFFFFFFFFF0000000000FFFFFFFFFFFF0000000000FFFFFFFFFF00FF0000FF00FFFFFFFFFF0000000000FFFFFFFFFFFF0000000000FFFFFFFFFF00FF0000FF000000FF0000000000
310
00000000FF00000000000000000000FF000000FF0000FF00000000000000000000000000000000000000000000000000000000FF0000FF00000000000000000000000000000000000000000000000000000000FF0000FF00000000000000000000000000000000000000000000000000000000FF0000FFFFFFFFFFFFFFFFFF
310
FFFFFFFFFFFFFFFFFFFFFFFFFFFFFFFFFFFFFFFFFF00000000000000000000000000000000000000000000000000000000000000000000000000000000000000000000000000000000000000000000000000000000000000000000000000000000000000000000000000000000000000000000000000000000000000000000
310
00000000000000000000000000000000000000000000000000000000000000000000000000000000000000000000000000000000000000000000000000000000000000000000000000000000000000000000000000000000000000000000000000000000000000000000000000000000000000000000000000000000000000
310
0000000000000000000000000000000000000000000000000000000000000000000000000000000000000000000000000000000000000000
102
{BLKREFS
331
4B0
102
}
1001
AcDbDynamicBlockGUID
1000
{CD982EC8-2180-404F-A961-63B03E458EE6}
1001
AcDbBlockRepETag
1070
     1
1071
       70
1001
ACAD
1000
DesignCenter Data
1002
{
1070
     1
1070
     4
1002
}
  0
BLOCK_RECORD
  5
4B1
330
1
100
AcDbSymbolTableRecord
100
AcDbBlockTableRecord
  2
3
340
0
310
2800000020000000200000000100080000000000000400000000000000000000000000000000000000000000000080000080000000808000800000008000800080800000C0C0C000C0DCC000F0CAA6000020400000206000002080000020A0000020C0000020E00000400000004020000040400000406000004080000040A0
310
000040C0000040E00000600000006020000060400000606000006080000060A0000060C0000060E00000800000008020000080400000806000008080000080A0000080C0000080E00000A0000000A0200000A0400000A0600000A0800000A0A00000A0C00000A0E00000C0000000C0200000C0400000C0600000C0800000C0
310
A00000C0C00000C0E00000E0000000E0200000E0400000E0600000E0800000E0A00000E0C00000E0E00040000000400020004000400040006000400080004000A0004000C0004000E00040200000402020004020400040206000402080004020A0004020C0004020E000404000004040200040404000404060004040800040
310
40A0004040C0004040E00040600000406020004060400040606000406080004060A0004060C0004060E00040800000408020004080400040806000408080004080A0004080C0004080E00040A0000040A0200040A0400040A0600040A0800040A0A00040A0C00040A0E00040C0000040C0200040C0400040C0600040C08000
310
40C0A00040C0C00040C0E00040E0000040E0200040E0400040E0600040E0800040E0A00040E0C00040E0E00080000000800020008000400080006000800080008000A0008000C0008000E00080200000802020008020400080206000802080008020A0008020C0008020E00080400000804020008040400080406000804080
310
008040A0008040C0008040E00080600000806020008060400080606000806080008060A0008060C0008060E00080800000808020008080400080806000808080008080A0008080C0008080E00080A0000080A0200080A0400080A0600080A0800080A0A00080A0C00080A0E00080C0000080C0200080C0400080C0600080C0
310
800080C0A00080C0C00080C0E00080E0000080E0200080E0400080E0600080E0800080E0A00080E0C00080E0E000C0000000C0002000C0004000C0006000C0008000C000A000C000C000C000E000C0200000C0202000C0204000C0206000C0208000C020A000C020C000C020E000C0400000C0402000C0404000C0406000C0
310
408000C040A000C040C000C040E000C0600000C0602000C0604000C0606000C0608000C060A000C060C000C060E000C0800000C0802000C0804000C0806000C0808000C080A000C080C000C080E000C0A00000C0A02000C0A04000C0A06000C0A08000C0A0A000C0A0C000C0A0E000C0C00000C0C02000C0C04000C0C06000
310
C0C08000C0C0A000F0FBFF00A4A0A000808080000000FF0000FF000000FFFF00FF000000FF00FF00FFFF0000FFFFFF0000000000000000000000000000000000000000000000000000000000000000000000000000000000FFFFFFFFFFFFFFFFFFFFFFFFFFFFFFFF00000000000000000000000000000000FFFFFFFFFFFFFF
310
FFFFFFFFFFFFFFFFFF00000000000000000000000000000000FF00000000FF00000000FF00000000FF00000000000000000000000000000000FF000000FFFF000000FFFFFF000000FF00000000000000000000000000000000FFFFFFFFFFFFFFFFFFFFFFFFFFFFFFFF00000000000000000000000000000000FF000000FFFF
310
FFFF00FFFFFF000000FF00000000000000000000000000000000FF000000FFFF000000FFFFFF000000FF00000000000000000000000000000000FF00000000FF00FFFF00FF00000000FF00000000000000000000000000000000FF00000000FFFFFFFFFFFF00000000FF00000000000000000000000000000000FF0000FFFF
310
FFFFFFFFFFFFFFFF0000FF00000000000000000000000000000000FF00000000FFFFFFFFFFFF00000000FF00000000000000000000000000000000FF00000000FFFFFFFF00FF00000000FF00000000000000000000000000000000FF00000000FF00FFFFFFFF00000000FF00000000000000000000000000000000FF000000
310
FFFF00FF00FFFFFF000000FF00000000000000000000000000000000FF000000FFFFFFFF00FFFFFFFF0000FF00000000000000000000000000000000FFFFFFFFFFFFFFFFFFFFFFFFFFFFFFFF00000000000000000000000000000000FF000000FFFF00FF00FFFFFF000000FF00000000000000000000000000000000FF0000
310
0000FF00FFFF00FF00000000FF00000000000000000000000000000000FF00000000FFFFFFFFFFFF00000000FF00000000000000000000000000000000FF00000000FFFFFFFFFFFF00000000FF00000000000000000000000000000000FF0000FFFFFFFFFFFFFFFFFFFF0000FF00000000000000000000000000000000FF00
310
000000FFFFFFFFFFFF00000000FF00000000000000000000000000000000FF00000000FF00FFFFFFFF00000000FF00000000000000000000000000000000FF000000FFFF000000FFFFFF000000FF00000000000000000000000000000000FF000000FFFFFFFF00FFFFFF000000FF00000000000000000000000000000000FF
310
FFFFFFFFFFFFFFFFFFFFFFFFFFFFFF00000000000000000000000000000000FF000000FFFF000000FFFFFF000000FF00000000000000000000000000000000FF00000000FF00000000FF00000000FF00000000000000000000000000000000FFFFFFFFFFFFFFFFFFFFFFFFFFFFFFFF00000000000000000000000000000000
310
FFFFFFFFFFFFFFFFFFFFFFFFFFFFFFFF00000000000000000000000000000000000000000000000000000000000000000000000000000000
102
{BLKREFS
331
526
102
}
1001
ACAD
1000
DesignCenter Data
1002
{
1070
     1
1070
     4
1002
}
  0
BLOCK_RECORD
  5
527
330
1
100
AcDbSymbolTableRecord
100
AcDbBlockTableRecord
  2
4
340
0
310
2800000020000000200000000100080000000000000400000000000000000000000000000000000000000000000080000080000000808000800000008000800080800000C0C0C000C0DCC000F0CAA6000020400000206000002080000020A0000020C0000020E00000400000004020000040400000406000004080000040A0
310
000040C0000040E00000600000006020000060400000606000006080000060A0000060C0000060E00000800000008020000080400000806000008080000080A0000080C0000080E00000A0000000A0200000A0400000A0600000A0800000A0A00000A0C00000A0E00000C0000000C0200000C0400000C0600000C0800000C0
310
A00000C0C00000C0E00000E0000000E0200000E0400000E0600000E0800000E0A00000E0C00000E0E00040000000400020004000400040006000400080004000A0004000C0004000E00040200000402020004020400040206000402080004020A0004020C0004020E000404000004040200040404000404060004040800040
310
40A0004040C0004040E00040600000406020004060400040606000406080004060A0004060C0004060E00040800000408020004080400040806000408080004080A0004080C0004080E00040A0000040A0200040A0400040A0600040A0800040A0A00040A0C00040A0E00040C0000040C0200040C0400040C0600040C08000
310
40C0A00040C0C00040C0E00040E0000040E0200040E0400040E0600040E0800040E0A00040E0C00040E0E00080000000800020008000400080006000800080008000A0008000C0008000E00080200000802020008020400080206000802080008020A0008020C0008020E00080400000804020008040400080406000804080
310
008040A0008040C0008040E00080600000806020008060400080606000806080008060A0008060C0008060E00080800000808020008080400080806000808080008080A0008080C0008080E00080A0000080A0200080A0400080A0600080A0800080A0A00080A0C00080A0E00080C0000080C0200080C0400080C0600080C0
310
800080C0A00080C0C00080C0E00080E0000080E0200080E0400080E0600080E0800080E0A00080E0C00080E0E000C0000000C0002000C0004000C0006000C0008000C000A000C000C000C000E000C0200000C0202000C0204000C0206000C0208000C020A000C020C000C020E000C0400000C0402000C0404000C0406000C0
310
408000C040A000C040C000C040E000C0600000C0602000C0604000C0606000C0608000C060A000C060C000C060E000C0800000C0802000C0804000C0806000C0808000C080A000C080C000C080E000C0A00000C0A02000C0A04000C0A06000C0A08000C0A0A000C0A0C000C0A0E000C0C00000C0C02000C0C04000C0C06000
310
C0C08000C0C0A000F0FBFF00A4A0A000808080000000FF0000FF000000FFFF00FF000000FF00FF00FFFF0000FFFFFF0000000000000000000000000000000000000000000000000000000000000000000000000000000000000000000000000000000000000000000000000000000000000000000000000000000000000000
310
00000000000000000000000000000000000000000000000000000000FF0000000000000000000000000000000000000000000000000000000000FFFFFFFFFF00000000000000000000000000000000000000000000000000FFFF0000FF0000FFFF000000000000000000000000000000000000000000FFFF00000000FFFFFF
310
FF00FFFF0000000000000000000000000000000000FFFF000000000000FFFF00FFFF0000FFFF00000000000000000000000000FFFF0000000000000000FFFF0000FF00000000FFFF0000000000000000000000FF000000000000000000FFFFFF00FF0000000000FFFFFF000000000000000000FF000000000000000000FF00
310
FFFFFF000000FFFFFF00FFFFFF00000000000000FF000000000000000000FF000000FF000000FF00FF000000FFFFFF0000000000FF000000000000000000FF00000000000000FF0000FF00000000FFFFFF000000FF00000000000000FFFFFFFFFF0000000000FFFF00FF000000000000FFFF0000FF0000000000FFFFFFFF00
310
FFFFFFFF00000000FFFFFF000000FFFFFF00FF0000FF00000000FFFFFFFFFFFFFFFFFFFFFFFF00000000FF000000FF00FF00FF0000FF0000FFFFFF0000FFFF00FFFF0000FFFFFF00000000000000FFFFFF00FF0000FFFFFFFFFFFFFFFFFFFFFFFFFFFF000000FFFFFF0000000000FFFFFF00FF0000FFFF0000FF0000FFFFFF
310
FFFFFFFFFF00FFFF00FFFFFF00000000FFFF00FF00000000FFFF00FFFFFF00FFFFFFFFFFFFFF00FFFF00FFFFFF00000000FF00FF000000000000FFFF000000FFFFFFFFFF00FFFFFFFF000000FFFFFF00000000FF0000000000000000FFFF000000FFFFFFFF00FFFFFFFFFF000000FFFFFF0000FF00000000000000000000FF
310
FF00FF0000FFFFFFFFFFFFFF00FFFFFF00FFFFFFFF000000000000000000000000FF00FFFF00FFFFFFFF00FFFFFF00FFFF0000FFFF00000000000000000000000000FFFF000000FFFFFFFFFFFFFFFFFFFFFFFF0000000000000000000000000000000000FFFF0000FFFF00FFFF0000FFFF0000000000000000000000000000
310
00000000000000FFFFFFFFFFFFFFFFFF00000000000000000000000000000000000000000000000000FFFFFFFFFF0000000000000000000000000000000000000000000000000000000000FF000000000000000000000000000000000000000000000000000000000000000000000000000000000000000000000000000000
310
0000000000000000000000000000000000000000000000000000000000000000000000000000000000000000000000000000000000000000
102
{BLKREFS
331
57B
102
}
1001
ACAD
1000
DesignCenter Data
1002
{
1070
     1
1070
     4
1002
}
  0
ENDTAB
  0
ENDSEC
  0
SECTION
  2
BLOCKS
  0
BLOCK
  5
20
330
1F
100
AcDbEntity
  8
0
100
AcDbBlockBegin
  2
*Model_Space
 70
     0
 10
0.0
 20
0.0
 30
0.0
  3
*Model_Space
  1

  0
ENDBLK
  5
21
330
1F
100
AcDbEntity
  8
0
100
AcDbBlockEnd
  0
BLOCK
  5
D4
330
D2
100
AcDbEntity
 67
     1
  8
0
100
AcDbBlockBegin
  2
*Paper_Space
 70
     0
 10
0.0
 20
0.0
 30
0.0
  3
*Paper_Space
  1

  0
ENDBLK
  5
D5
330
D2
100
AcDbEntity
 67
     1
  8
0
100
AcDbBlockEnd
  0
BLOCK
  5
D8
330
D6
100
AcDbEntity
 67
     1
  8
0
100
AcDbBlockBegin
  2
*Paper_Space0
 70
     0
 10
0.0
 20
0.0
 30
0.0
  3
*Paper_Space0
  1

  0
ENDBLK
  5
D9
330
D6
100
AcDbEntity
 67
     1
  8
0
100
AcDbBlockEnd
  0
BLOCK
  5
1AE
330
1AD
100
AcDbEntity
  8
0
100
AcDbBlockBegin
  2
SW_CENTERMARKSYMBOL_0
 70
     0
 10
0.0
 20
0.0
 30
0.0
  3
SW_CENTERMARKSYMBOL_0
  1

  0
LINE
  5
1AF
330
1AD
100
AcDbEntity
  8
0
  6
Continuous
 62
     0
370
     0
100
AcDbLine
 10
0.0
 20
0.0
 30
0.0
 11
0.0
 21
2.500000000000002
 31
0.0
  0
LINE
  5
1B0
330
1AD
100
AcDbEntity
  8
0
  6
Continuous
 62
     0
370
     0
100
AcDbLine
 10
0.0
 20
0.0
 30
0.0
 11
-2.500000000000002
 21
0.0
 31
0.0
  0
LINE
  5
1B1
330
1AD
100
AcDbEntity
  8
0
  6
Continuous
 62
     0
370
     0
100
AcDbLine
 10
0.0
 20
0.0
 30
0.0
 11
0.0
 21
-2.500000000000002
 31
0.0
  0
LINE
  5
1B2
330
1AD
100
AcDbEntity
  8
0
  6
Continuous
 62
     0
370
     0
100
AcDbLine
 10
0.0
 20
0.0
 30
0.0
 11
2.499999999999974
 21
0.0
 31
0.0
  0
LINE
  5
1B3
330
1AD
100
AcDbEntity
  8
0
  6
Continuous
 62
     0
370
     0
100
AcDbLine
 10
0.0
 20
2.500000000000002
 30
0.0
 11
0.0
 21
5.000000000000004
 31
0.0
  0
LINE
  5
1B4
330
1AD
100
AcDbEntity
  8
0
  6
Continuous
 62
     0
370
     0
100
AcDbLine
 10
-2.500000000000002
 20
0.0
 30
0.0
 11
-5.000000000000004
 21
0.0
 31
0.0
  0
LINE
  5
1B5
330
1AD
100
AcDbEntity
  8
0
  6
Continuous
 62
     0
370
     0
100
AcDbLine
 10
0.0
 20
-2.500000000000002
 30
0.0
 11
0.0
 21
-5.000000000000004
 31
0.0
  0
LINE
  5
1B6
330
1AD
100
AcDbEntity
  8
0
  6
Continuous
 62
     0
370
     0
100
AcDbLine
 10
2.499999999999974
 20
0.0
 30
0.0
 11
4.999999999999976
 21
0.0
 31
0.0
  0
ENDBLK
  5
1B7
330
1AD
100
AcDbEntity
  8
0
100
AcDbBlockEnd
  0
BLOCK
  5
1B9
330
1B8
100
AcDbEntity
  8
0
100
AcDbBlockBegin
  2
SW_CENTERMARKSYMBOL_1
 70
     0
 10
0.0
 20
0.0
 30
0.0
  3
SW_CENTERMARKSYMBOL_1
  1

  0
LINE
  5
1BA
330
1B8
100
AcDbEntity
  8
0
  6
Continuous
 62
     0
370
     0
100
AcDbLine
 10
0.0
 20
0.0
 30
0.0
 11
0.0
 21
2.500000000000002
 31
0.0
  0
LINE
  5
1BB
330
1B8
100
AcDbEntity
  8
0
  6
Continuous
 62
     0
370
     0
100
AcDbLine
 10
0.0
 20
0.0
 30
0.0
 11
-2.500000000000002
 21
0.0
 31
0.0
  0
LINE
  5
1BC
330
1B8
100
AcDbEntity
  8
0
  6
Continuous
 62
     0
370
     0
100
AcDbLine
 10
0.0
 20
0.0
 30
0.0
 11
0.0
 21
-2.500000000000002
 31
0.0
  0
LINE
  5
1BD
330
1B8
100
AcDbEntity
  8
0
  6
Continuous
 62
     0
370
     0
100
AcDbLine
 10
0.0
 20
0.0
 30
0.0
 11
2.500000000000002
 21
0.0
 31
0.0
  0
LINE
  5
1BE
330
1B8
100
AcDbEntity
  8
0
  6
Continuous
 62
     0
370
     0
100
AcDbLine
 10
0.0
 20
2.500000000000002
 30
0.0
 11
0.0
 21
5.000000000000004
 31
0.0
  0
LINE
  5
1BF
330
1B8
100
AcDbEntity
  8
0
  6
Continuous
 62
     0
370
     0
100
AcDbLine
 10
-2.500000000000002
 20
0.0
 30
0.0
 11
-5.000000000000004
 21
0.0
 31
0.0
  0
LINE
  5
1C0
330
1B8
100
AcDbEntity
  8
0
  6
Continuous
 62
     0
370
     0
100
AcDbLine
 10
0.0
 20
-2.500000000000002
 30
0.0
 11
0.0
 21
-5.000000000000004
 31
0.0
  0
LINE
  5
1C1
330
1B8
100
AcDbEntity
  8
0
  6
Continuous
 62
     0
370
     0
100
AcDbLine
 10
2.500000000000002
 20
0.0
 30
0.0
 11
5.000000000000004
 21
0.0
 31
0.0
  0
ENDBLK
  5
1C2
330
1B8
100
AcDbEntity
  8
0
100
AcDbBlockEnd
  0
BLOCK
  5
1C4
330
1C3
100
AcDbEntity
  8
0
100
AcDbBlockBegin
  2
SW_CENTERMARKSYMBOL_2
 70
     0
 10
0.0
 20
0.0
 30
0.0
  3
SW_CENTERMARKSYMBOL_2
  1

  0
LINE
  5
1C5
330
1C3
100
AcDbEntity
  8
0
  6
Continuous
 62
     0
370
     0
100
AcDbLine
 10
0.0
 20
0.0
 30
0.0
 11
0.0
 21
2.500000000000002
 31
0.0
  0
LINE
  5
1C6
330
1C3
100
AcDbEntity
  8
0
  6
Continuous
 62
     0
370
     0
100
AcDbLine
 10
0.0
 20
0.0
 30
0.0
 11
-2.500000000000002
 21
0.0
 31
0.0
  0
LINE
  5
1C7
330
1C3
100
AcDbEntity
  8
0
  6
Continuous
 62
     0
370
     0
100
AcDbLine
 10
0.0
 20
0.0
 30
0.0
 11
0.0
 21
-2.500000000000002
 31
0.0
  0
LINE
  5
1C8
330
1C3
100
AcDbEntity
  8
0
  6
Continuous
 62
     0
370
     0
100
AcDbLine
 10
0.0
 20
0.0
 30
0.0
 11
2.500000000000002
 21
0.0
 31
0.0
  0
LINE
  5
1C9
330
1C3
100
AcDbEntity
  8
0
  6
Continuous
 62
     0
370
     0
100
AcDbLine
 10
0.0
 20
2.500000000000002
 30
0.0
 11
0.0
 21
5.000000000000004
 31
0.0
  0
LINE
  5
1CA
330
1C3
100
AcDbEntity
  8
0
  6
Continuous
 62
     0
370
     0
100
AcDbLine
 10
-2.500000000000002
 20
0.0
 30
0.0
 11
-5.000000000000004
 21
0.0
 31
0.0
  0
LINE
  5
1CB
330
1C3
100
AcDbEntity
  8
0
  6
Continuous
 62
     0
370
     0
100
AcDbLine
 10
0.0
 20
-2.500000000000002
 30
0.0
 11
0.0
 21
-5.000000000000004
 31
0.0
  0
LINE
  5
1CC
330
1C3
100
AcDbEntity
  8
0
  6
Continuous
 62
     0
370
     0
100
AcDbLine
 10
2.500000000000002
 20
0.0
 30
0.0
 11
4.999999999999976
 21
0.0
 31
0.0
  0
ENDBLK
  5
1CD
330
1C3
100
AcDbEntity
  8
0
100
AcDbBlockEnd
  0
BLOCK
  5
1CF
330
1CE
100
AcDbEntity
  8
0
100
AcDbBlockBegin
  2
SW_CENTERMARKSYMBOL_3
 70
     0
 10
0.0
 20
0.0
 30
0.0
  3
SW_CENTERMARKSYMBOL_3
  1

  0
LINE
  5
1D0
330
1CE
100
AcDbEntity
  8
0
  6
Continuous
 62
     0
370
     0
100
AcDbLine
 10
0.0
 20
0.0
 30
0.0
 11
0.0
 21
2.500000000000002
 31
0.0
  0
LINE
  5
1D1
330
1CE
100
AcDbEntity
  8
0
  6
Continuous
 62
     0
370
     0
100
AcDbLine
 10
0.0
 20
0.0
 30
0.0
 11
-2.500000000000002
 21
0.0
 31
0.0
  0
LINE
  5
1D2
330
1CE
100
AcDbEntity
  8
0
  6
Continuous
 62
     0
370
     0
100
AcDbLine
 10
0.0
 20
0.0
 30
0.0
 11
0.0
 21
-2.499999999999988
 31
0.0
  0
LINE
  5
1D3
330
1CE
100
AcDbEntity
  8
0
  6
Continuous
 62
     0
370
     0
100
AcDbLine
 10
0.0
 20
0.0
 30
0.0
 11
2.500000000000002
 21
0.0
 31
0.0
  0
LINE
  5
1D4
330
1CE
100
AcDbEntity
  8
0
  6
Continuous
 62
     0
370
     0
100
AcDbLine
 10
0.0
 20
2.500000000000002
 30
0.0
 11
0.0
 21
5.00000000000017
 31
0.0
  0
LINE
  5
1D5
330
1CE
100
AcDbEntity
  8
0
  6
Continuous
 62
     0
370
     0
100
AcDbLine
 10
-2.500000000000002
 20
0.0
 30
0.0
 11
-5.00000000000017
 21
0.0
 31
0.0
  0
LINE
  5
1D6
330
1CE
100
AcDbEntity
  8
0
  6
Continuous
 62
     0
370
     0
100
AcDbLine
 10
0.0
 20
-2.499999999999988
 30
0.0
 11
0.0
 21
-5.000000000000157
 31
0.0
  0
LINE
  5
1D7
330
1CE
100
AcDbEntity
  8
0
  6
Continuous
 62
     0
370
     0
100
AcDbLine
 10
2.500000000000002
 20
0.0
 30
0.0
 11
5.00000000000017
 21
0.0
 31
0.0
  0
ENDBLK
  5
1D8
330
1CE
100
AcDbEntity
  8
0
100
AcDbBlockEnd
  0
BLOCK
  5
1DA
330
1D9
100
AcDbEntity
  8
0
100
AcDbBlockBegin
  2
SW_CENTERMARKSYMBOL_4
 70
     0
 10
0.0
 20
0.0
 30
0.0
  3
SW_CENTERMARKSYMBOL_4
  1

  0
LINE
  5
1DB
330
1D9
100
AcDbEntity
  8
0
  6
Continuous
 62
     0
370
     0
100
AcDbLine
 10
0.0
 20
0.0
 30
0.0
 11
0.0
 21
2.500000000000002
 31
0.0
  0
LINE
  5
1DC
330
1D9
100
AcDbEntity
  8
0
  6
Continuous
 62
     0
370
     0
100
AcDbLine
 10
0.0
 20
0.0
 30
0.0
 11
-2.500000000000002
 21
0.0
 31
0.0
  0
LINE
  5
1DD
330
1D9
100
AcDbEntity
  8
0
  6
Continuous
 62
     0
370
     0
100
AcDbLine
 10
0.0
 20
0.0
 30
0.0
 11
0.0
 21
-2.499999999999988
 31
0.0
  0
LINE
  5
1DE
330
1D9
100
AcDbEntity
  8
0
  6
Continuous
 62
     0
370
     0
100
AcDbLine
 10
0.0
 20
0.0
 30
0.0
 11
2.500000000000002
 21
0.0
 31
0.0
  0
LINE
  5
1DF
330
1D9
100
AcDbEntity
  8
0
  6
Continuous
 62
     0
370
     0
100
AcDbLine
 10
0.0
 20
2.500000000000002
 30
0.0
 11
0.0
 21
5.00000000000017
 31
0.0
  0
LINE
  5
1E0
330
1D9
100
AcDbEntity
  8
0
  6
Continuous
 62
     0
370
     0
100
AcDbLine
 10
-2.500000000000002
 20
0.0
 30
0.0
 11
-5.00000000000017
 21
0.0
 31
0.0
  0
LINE
  5
1E1
330
1D9
100
AcDbEntity
  8
0
  6
Continuous
 62
     0
370
     0
100
AcDbLine
 10
0.0
 20
-2.499999999999988
 30
0.0
 11
0.0
 21
-5.000000000000157
 31
0.0
  0
LINE
  5
1E2
330
1D9
100
AcDbEntity
  8
0
  6
Continuous
 62
     0
370
     0
100
AcDbLine
 10
2.500000000000002
 20
0.0
 30
0.0
 11
5.00000000000017
 21
0.0
 31
0.0
  0
ENDBLK
  5
1E3
330
1D9
100
AcDbEntity
  8
0
100
AcDbBlockEnd
  0
BLOCK
  5
1E5
330
1E4
100
AcDbEntity
  8
0
100
AcDbBlockBegin
  2
SW_CENTERMARKSYMBOL_5
 70
     0
 10
0.0
 20
0.0
 30
0.0
  3
SW_CENTERMARKSYMBOL_5
  1

  0
LINE
  5
1E6
330
1E4
100
AcDbEntity
  8
0
  6
Continuous
 62
     0
370
     0
100
AcDbLine
 10
0.0
 20
0.0
 30
0.0
 11
0.0
 21
2.500000000000002
 31
0.0
  0
LINE
  5
1E7
330
1E4
100
AcDbEntity
  8
0
  6
Continuous
 62
     0
370
     0
100
AcDbLine
 10
0.0
 20
0.0
 30
0.0
 11
-2.500000000000002
 21
0.0
 31
0.0
  0
LINE
  5
1E8
330
1E4
100
AcDbEntity
  8
0
  6
Continuous
 62
     0
370
     0
100
AcDbLine
 10
0.0
 20
0.0
 30
0.0
 11
0.0
 21
-2.500000000000002
 31
0.0
  0
LINE
  5
1E9
330
1E4
100
AcDbEntity
  8
0
  6
Continuous
 62
     0
370
     0
100
AcDbLine
 10
0.0
 20
0.0
 30
0.0
 11
2.500000000000002
 21
0.0
 31
0.0
  0
LINE
  5
1EA
330
1E4
100
AcDbEntity
  8
0
  6
Continuous
 62
     0
370
     0
100
AcDbLine
 10
0.0
 20
2.500000000000002
 30
0.0
 11
0.0
 21
5.000000000000157
 31
0.0
  0
LINE
  5
1EB
330
1E4
100
AcDbEntity
  8
0
  6
Continuous
 62
     0
370
     0
100
AcDbLine
 10
-2.500000000000002
 20
0.0
 30
0.0
 11
-5.00000000000017
 21
0.0
 31
0.0
  0
LINE
  5
1EC
330
1E4
100
AcDbEntity
  8
0
  6
Continuous
 62
     0
370
     0
100
AcDbLine
 10
0.0
 20
-2.500000000000002
 30
0.0
 11
0.0
 21
-5.00000000000017
 31
0.0
  0
LINE
  5
1ED
330
1E4
100
AcDbEntity
  8
0
  6
Continuous
 62
     0
370
     0
100
AcDbLine
 10
2.500000000000002
 20
0.0
 30
0.0
 11
5.00000000000017
 21
0.0
 31
0.0
  0
ENDBLK
  5
1EE
330
1E4
100
AcDbEntity
  8
0
100
AcDbBlockEnd
  0
BLOCK
  5
1F0
330
1EF
100
AcDbEntity
  8
0
100
AcDbBlockBegin
  2
SW_CENTERMARKSYMBOL_6
 70
     0
 10
0.0
 20
0.0
 30
0.0
  3
SW_CENTERMARKSYMBOL_6
  1

  0
LINE
  5
1F1
330
1EF
100
AcDbEntity
  8
0
  6
Continuous
 62
     0
370
     0
100
AcDbLine
 10
0.0
 20
0.0
 30
0.0
 11
0.0
 21
2.500000000000002
 31
0.0
  0
LINE
  5
1F2
330
1EF
100
AcDbEntity
  8
0
  6
Continuous
 62
     0
370
     0
100
AcDbLine
 10
0.0
 20
0.0
 30
0.0
 11
-2.500000000000002
 21
0.0
 31
0.0
  0
LINE
  5
1F3
330
1EF
100
AcDbEntity
  8
0
  6
Continuous
 62
     0
370
     0
100
AcDbLine
 10
0.0
 20
0.0
 30
0.0
 11
0.0
 21
-2.500000000000002
 31
0.0
  0
LINE
  5
1F4
330
1EF
100
AcDbEntity
  8
0
  6
Continuous
 62
     0
370
     0
100
AcDbLine
 10
0.0
 20
0.0
 30
0.0
 11
2.500000000000002
 21
0.0
 31
0.0
  0
LINE
  5
1F5
330
1EF
100
AcDbEntity
  8
0
  6
Continuous
 62
     0
370
     0
100
AcDbLine
 10
0.0
 20
2.500000000000002
 30
0.0
 11
0.0
 21
5.000000000000157
 31
0.0
  0
LINE
  5
1F6
330
1EF
100
AcDbEntity
  8
0
  6
Continuous
 62
     0
370
     0
100
AcDbLine
 10
-2.500000000000002
 20
0.0
 30
0.0
 11
-5.00000000000017
 21
0.0
 31
0.0
  0
LINE
  5
1F7
330
1EF
100
AcDbEntity
  8
0
  6
Continuous
 62
     0
370
     0
100
AcDbLine
 10
0.0
 20
-2.500000000000002
 30
0.0
 11
0.0
 21
-5.00000000000017
 31
0.0
  0
LINE
  5
1F8
330
1EF
100
AcDbEntity
  8
0
  6
Continuous
 62
     0
370
     0
100
AcDbLine
 10
2.500000000000002
 20
0.0
 30
0.0
 11
5.00000000000017
 21
0.0
 31
0.0
  0
ENDBLK
  5
1F9
330
1EF
100
AcDbEntity
  8
0
100
AcDbBlockEnd
  0
BLOCK
  5
1FB
330
1FA
100
AcDbEntity
  8
0
100
AcDbBlockBegin
  2
SW_CENTERMARKSYMBOL_7
 70
     0
 10
0.0
 20
0.0
 30
0.0
  3
SW_CENTERMARKSYMBOL_7
  1

  0
LINE
  5
1FC
330
1FA
100
AcDbEntity
  8
0
  6
Continuous
 62
     0
370
     0
100
AcDbLine
 10
0.0
 20
0.0
 30
0.0
 11
0.0
 21
2.500000000000002
 31
0.0
  0
LINE
  5
1FD
330
1FA
100
AcDbEntity
  8
0
  6
Continuous
 62
     0
370
     0
100
AcDbLine
 10
0.0
 20
0.0
 30
0.0
 11
-2.500000000000002
 21
0.0
 31
0.0
  0
LINE
  5
1FE
330
1FA
100
AcDbEntity
  8
0
  6
Continuous
 62
     0
370
     0
100
AcDbLine
 10
0.0
 20
0.0
 30
0.0
 11
0.0
 21
-2.499999999999988
 31
0.0
  0
LINE
  5
1FF
330
1FA
100
AcDbEntity
  8
0
  6
Continuous
 62
     0
370
     0
100
AcDbLine
 10
0.0
 20
0.0
 30
0.0
 11
2.500000000000002
 21
0.0
 31
0.0
  0
LINE
  5
200
330
1FA
100
AcDbEntity
  8
0
  6
Continuous
 62
     0
370
     0
100
AcDbLine
 10
0.0
 20
2.500000000000002
 30
0.0
 11
0.0
 21
5.00000000000017
 31
0.0
  0
LINE
  5
201
330
1FA
100
AcDbEntity
  8
0
  6
Continuous
 62
     0
370
     0
100
AcDbLine
 10
-2.500000000000002
 20
0.0
 30
0.0
 11
-5.00000000000017
 21
0.0
 31
0.0
  0
LINE
  5
202
330
1FA
100
AcDbEntity
  8
0
  6
Continuous
 62
     0
370
     0
100
AcDbLine
 10
0.0
 20
-2.499999999999988
 30
0.0
 11
0.0
 21
-5.000000000000157
 31
0.0
  0
LINE
  5
203
330
1FA
100
AcDbEntity
  8
0
  6
Continuous
 62
     0
370
     0
100
AcDbLine
 10
2.500000000000002
 20
0.0
 30
0.0
 11
5.00000000000017
 21
0.0
 31
0.0
  0
ENDBLK
  5
204
330
1FA
100
AcDbEntity
  8
0
100
AcDbBlockEnd
  0
BLOCK
  5
206
330
205
100
AcDbEntity
  8
0
100
AcDbBlockBegin
  2
SW_CENTERMARKSYMBOL_8
 70
     0
 10
0.0
 20
0.0
 30
0.0
  3
SW_CENTERMARKSYMBOL_8
  1

  0
LINE
  5
207
330
205
100
AcDbEntity
  8
0
  6
Continuous
 62
     0
370
     0
100
AcDbLine
 10
0.0
 20
0.0
 30
0.0
 11
0.0
 21
2.500000000000002
 31
0.0
  0
LINE
  5
208
330
205
100
AcDbEntity
  8
0
  6
Continuous
 62
     0
370
     0
100
AcDbLine
 10
0.0
 20
0.0
 30
0.0
 11
-2.500000000000002
 21
0.0
 31
0.0
  0
LINE
  5
209
330
205
100
AcDbEntity
  8
0
  6
Continuous
 62
     0
370
     0
100
AcDbLine
 10
0.0
 20
0.0
 30
0.0
 11
0.0
 21
-2.499999999999988
 31
0.0
  0
LINE
  5
20A
330
205
100
AcDbEntity
  8
0
  6
Continuous
 62
     0
370
     0
100
AcDbLine
 10
0.0
 20
0.0
 30
0.0
 11
2.500000000000002
 21
0.0
 31
0.0
  0
LINE
  5
20B
330
205
100
AcDbEntity
  8
0
  6
Continuous
 62
     0
370
     0
100
AcDbLine
 10
0.0
 20
2.500000000000002
 30
0.0
 11
0.0
 21
5.00000000000017
 31
0.0
  0
LINE
  5
20C
330
205
100
AcDbEntity
  8
0
  6
Continuous
 62
     0
370
     0
100
AcDbLine
 10
-2.500000000000002
 20
0.0
 30
0.0
 11
-5.00000000000017
 21
0.0
 31
0.0
  0
LINE
  5
20D
330
205
100
AcDbEntity
  8
0
  6
Continuous
 62
     0
370
     0
100
AcDbLine
 10
0.0
 20
-2.499999999999988
 30
0.0
 11
0.0
 21
-5.000000000000157
 31
0.0
  0
LINE
  5
20E
330
205
100
AcDbEntity
  8
0
  6
Continuous
 62
     0
370
     0
100
AcDbLine
 10
2.500000000000002
 20
0.0
 30
0.0
 11
5.00000000000017
 21
0.0
 31
0.0
  0
ENDBLK
  5
20F
330
205
100
AcDbEntity
  8
0
100
AcDbBlockEnd
  0
BLOCK
  5
211
330
210
100
AcDbEntity
  8
0
100
AcDbBlockBegin
  2
SW_CENTERMARKSYMBOL_9
 70
     0
 10
0.0
 20
0.0
 30
0.0
  3
SW_CENTERMARKSYMBOL_9
  1

  0
LINE
  5
212
330
210
100
AcDbEntity
  8
0
  6
Continuous
 62
     0
370
     0
100
AcDbLine
 10
0.0
 20
0.0
 30
0.0
 11
0.0
 21
2.500000000000002
 31
0.0
  0
LINE
  5
213
330
210
100
AcDbEntity
  8
0
  6
Continuous
 62
     0
370
     0
100
AcDbLine
 10
0.0
 20
0.0
 30
0.0
 11
-2.500000000000002
 21
0.0
 31
0.0
  0
LINE
  5
214
330
210
100
AcDbEntity
  8
0
  6
Continuous
 62
     0
370
     0
100
AcDbLine
 10
0.0
 20
0.0
 30
0.0
 11
0.0
 21
-2.500000000000002
 31
0.0
  0
LINE
  5
215
330
210
100
AcDbEntity
  8
0
  6
Continuous
 62
     0
370
     0
100
AcDbLine
 10
0.0
 20
0.0
 30
0.0
 11
2.500000000000002
 21
0.0
 31
0.0
  0
LINE
  5
216
330
210
100
AcDbEntity
  8
0
  6
Continuous
 62
     0
370
     0
100
AcDbLine
 10
0.0
 20
5.000000000000004
 30
0.0
 11
0.0
 21
6.000000000000158
 31
0.0
  0
LINE
  5
217
330
210
100
AcDbEntity
  8
0
  6
Continuous
 62
     0
370
     0
100
AcDbLine
 10
-5.000000000000004
 20
0.0
 30
0.0
 11
-6.000000000000172
 21
0.0
 31
0.0
  0
LINE
  5
218
330
210
100
AcDbEntity
  8
0
  6
Continuous
 62
     0
370
     0
100
AcDbLine
 10
0.0
 20
-5.000000000000004
 30
0.0
 11
0.0
 21
-6.000000000000172
 31
0.0
  0
LINE
  5
219
330
210
100
AcDbEntity
  8
0
  6
Continuous
 62
     0
370
     0
100
AcDbLine
 10
5.000000000000004
 20
0.0
 30
0.0
 11
6.000000000000172
 21
0.0
 31
0.0
  0
ENDBLK
  5
21A
330
210
100
AcDbEntity
  8
0
100
AcDbBlockEnd
  0
BLOCK
  5
21C
330
21B
100
AcDbEntity
  8
0
100
AcDbBlockBegin
  2
SW_CENTERMARKSYMBOL_10
 70
     0
 10
0.0
 20
0.0
 30
0.0
  3
SW_CENTERMARKSYMBOL_10
  1

  0
LINE
  5
21D
330
21B
100
AcDbEntity
  8
0
  6
Continuous
 62
     0
370
     0
100
AcDbLine
 10
0.0
 20
0.0
 30
0.0
 11
0.0
 21
2.500000000000002
 31
0.0
  0
LINE
  5
21E
330
21B
100
AcDbEntity
  8
0
  6
Continuous
 62
     0
370
     0
100
AcDbLine
 10
0.0
 20
0.0
 30
0.0
 11
-2.500000000000002
 21
0.0
 31
0.0
  0
LINE
  5
21F
330
21B
100
AcDbEntity
  8
0
  6
Continuous
 62
     0
370
     0
100
AcDbLine
 10
0.0
 20
0.0
 30
0.0
 11
0.0
 21
-2.500000000000002
 31
0.0
  0
LINE
  5
220
330
21B
100
AcDbEntity
  8
0
  6
Continuous
 62
     0
370
     0
100
AcDbLine
 10
0.0
 20
0.0
 30
0.0
 11
2.500000000000002
 21
0.0
 31
0.0
  0
LINE
  5
221
330
21B
100
AcDbEntity
  8
0
  6
Continuous
 62
     0
370
     0
100
AcDbLine
 10
0.0
 20
4.99999999999999
 30
0.0
 11
0.0
 21
6.000000000000158
 31
0.0
  0
LINE
  5
222
330
21B
100
AcDbEntity
  8
0
  6
Continuous
 62
     0
370
     0
100
AcDbLine
 10
-5.000000000000004
 20
0.0
 30
0.0
 11
-6.000000000000172
 21
0.0
 31
0.0
  0
LINE
  5
223
330
21B
100
AcDbEntity
  8
0
  6
Continuous
 62
     0
370
     0
100
AcDbLine
 10
0.0
 20
-5.000000000000004
 30
0.0
 11
0.0
 21
-6.000000000000172
 31
0.0
  0
LINE
  5
224
330
21B
100
AcDbEntity
  8
0
  6
Continuous
 62
     0
370
     0
100
AcDbLine
 10
5.000000000000004
 20
0.0
 30
0.0
 11
6.000000000000172
 21
0.0
 31
0.0
  0
ENDBLK
  5
225
330
21B
100
AcDbEntity
  8
0
100
AcDbBlockEnd
  0
BLOCK
  5
457
330
456
100
AcDbEntity
  8
0
100
AcDbBlockBegin
  2
1
 70
     0
 10
0.0
 20
0.0
 30
0.0
  3
1
  1

  0
LINE
  5
459
330
456
100
AcDbEntity
  8
0
  6
Continuous
 62
     7
370
    15
100
AcDbLine
 10
2426.558567197562
 20
884.668876420501
 30
0.0
 11
2407.5585137918
 21
884.668876420501
 31
0.0
  0
LINE
  5
45A
330
456
100
AcDbEntity
  8
0
  6
Continuous
 62
     7
370
    15
100
AcDbLine
 10
2426.058365018607
 20
885.16887743378
 30
0.0
 11
2408.058239133597
 21
885.16887743378
 31
0.0
  0
LINE
  5
45B
330
456
100
AcDbEntity
  8
0
  6
Continuous
 62
     7
370
    15
100
AcDbLine
 10
2426.058365018607
 20
885.16887743378
 30
0.0
 11
2426.558567197562
 21
884.668876420501
 31
0.0
  0
LINE
  5
45C
330
456
100
AcDbEntity
  8
0
  6
Continuous
 62
     7
370
    15
100
AcDbLine
 10
2408.058239133597
 20
885.16887743378
 30
0.0
 11
2407.5585137918
 21
884.668876420501
 31
0.0
  0
LINE
  5
45D
330
456
100
AcDbEntity
  8
0
  6
Continuous
 62
     7
370
    15
100
AcDbLine
 10
2407.5585137918
 20
868.6688765336567
 30
0.0
 11
2426.558567197562
 21
868.6688765336567
 31
0.0
  0
LINE
  5
45E
330
456
100
AcDbEntity
  8
0
  6
Continuous
 62
     7
370
    15
100
AcDbLine
 10
2407.5585137918
 20
884.668876420501
 30
0.0
 11
2407.5585137918
 21
868.6688765336567
 31
0.0
  0
LINE
  5
45F
330
456
100
AcDbEntity
  8
0
  6
Continuous
 62
     7
370
    15
100
AcDbLine
 10
2426.558567197562
 20
868.6688765336567
 30
0.0
 11
2426.558567197562
 21
884.668876420501
 31
0.0
  0
LINE
  5
460
330
456
100
AcDbEntity
  8
0
  6
Continuous
 62
     7
370
    15
100
AcDbLine
 10
2408.058239133597
 20
868.1688765099078
 30
0.0
 11
2407.5585137918
 21
868.6688765336567
 31
0.0
  0
LINE
  5
461
330
456
100
AcDbEntity
  8
0
  6
Continuous
 62
     7
370
    15
100
AcDbLine
 10
2408.058239133597
 20
868.1688765099078
 30
0.0
 11
2426.058365018607
 21
868.1688765099107
 31
0.0
  0
LINE
  5
462
330
456
100
AcDbEntity
  8
0
  6
Continuous
 62
     7
370
    15
100
AcDbLine
 10
2426.058365018607
 20
868.1688765099107
 30
0.0
 11
2426.558567197562
 21
868.6688765336567
 31
0.0
  0
ENDBLK
  5
458
330
456
100
AcDbEntity
  8
0
100
AcDbBlockEnd
  0
BLOCK
  5
465
330
464
100
AcDbEntity
  8
0
100
AcDbBlockBegin
  2
2
 70
     0
 10
0.0
 20
0.0
 30
0.0
  3
2
  1

  0
LINE
  5
585
330
464
100
AcDbEntity
  8
0
  6
Continuous
 62
     7
370
    15
100
AcDbLine
 10
2347.931003680581
 20
868.6688765336567
 30
0.0
 11
2347.931003680581
 21
884.668876420501
 31
0.0
1001
AcDbBlockRepETag
1070
     1
1071
        0
1005
585
  0
LINE
  5
586
330
464
100
AcDbEntity
  8
0
  6
Continuous
 62
     7
370
    15
100
AcDbLine
 10
2347.931003680581
 20
884.668876420501
 30
0.0
 11
2383.931002906205
 21
884.668876420501
 31
0.0
1001
AcDbBlockRepETag
1070
     1
1071
        1
1005
586
  0
LINE
  5
587
330
464
100
AcDbEntity
  8
0
  6
Continuous
 62
     7
370
    15
100
AcDbLine
 10
2383.931002906205
 20
868.6688765336567
 30
0.0
 11
2383.931002906205
 21
884.668876420501
 31
0.0
1001
AcDbBlockRepETag
1070
     1
1071
        2
1005
587
  0
LINE
  5
588
330
464
100
AcDbEntity
  8
0
  6
Continuous
 62
     7
370
    15
100
AcDbLine
 10
2347.931003680581
 20
868.6688765336567
 30
0.0
 11
2383.931002906205
 21
868.6688765336567
 31
0.0
1001
AcDbBlockRepETag
1070
     1
1071
        3
1005
588
  0
LINE
  5
589
330
464
100
AcDbEntity
  8
0
  6
Continuous
 62
     7
370
    15
100
AcDbLine
 10
2355.681028543652
 20
875.1688767259748
 30
0.0
 11
2355.681028543652
 21
878.9185555686982
 31
0.0
1001
AcDbBlockRepETag
1070
     1
1071
        4
1005
589
  0
LINE
  5
58A
330
464
100
AcDbEntity
  8
0
  6
Continuous
 62
     7
370
    15
100
AcDbLine
 10
2355.681028543652
 20
878.9185555686982
 30
0.0
 11
2350.180386193709
 21
878.9185555686982
 31
0.0
1001
AcDbBlockRepETag
1070
     1
1071
        5
1005
58A
  0
LINE
  5
58B
330
464
100
AcDbEntity
  8
0
  6
Continuous
 62
     7
370
    15
100
AcDbLine
 10
2350.180386193709
 20
878.9185555686982
 30
0.0
 11
2350.180386193709
 21
875.1688767259748
 31
0.0
1001
AcDbBlockRepETag
1070
     1
1071
        6
1005
58B
  0
ARC
  5
58C
330
464
100
AcDbEntity
  8
0
  6
Continuous
 62
     7
370
    15
100
AcDbCircle
 10
2352.930707320196
 20
875.1688765099078
 30
0.0
 40
2.750321040478752
100
AcDbArc
 50
179.9999999997785
 51
0.0000000002214684
1001
AcDbBlockRepETag
1070
     1
1071
        7
1005
58C
  0
LINE
  5
58D
330
464
100
AcDbEntity
  8
0
  6
Continuous
 62
     7
370
    15
100
AcDbLine
 10
2368.681027880551
 20
875.1688767259748
 30
0.0
 11
2368.681027880551
 21
878.9185555686982
 31
0.0
1001
AcDbBlockRepETag
1070
     1
1071
        8
1005
58D
  0
LINE
  5
58E
330
464
100
AcDbEntity
  8
0
  6
Continuous
 62
     7
370
    15
100
AcDbLine
 10
2368.681027880551
 20
878.9185555686982
 30
0.0
 11
2363.180386229099
 21
878.9185555686982
 31
0.0
1001
AcDbBlockRepETag
1070
     1
1071
        9
1005
58E
  0
LINE
  5
58F
330
464
100
AcDbEntity
  8
0
  6
Continuous
 62
     7
370
    15
100
AcDbLine
 10
2363.180386229099
 20
878.9185555686982
 30
0.0
 11
2363.180386229099
 21
875.1688767259748
 31
0.0
1001
AcDbBlockRepETag
1070
     1
1071
       10
1005
58F
  0
ARC
  5
590
330
464
100
AcDbEntity
  8
0
  6
Continuous
 62
     7
370
    15
100
AcDbCircle
 10
2365.930707320196
 20
875.1688765099078
 30
0.0
 40
2.750321040478723
100
AcDbArc
 50
179.9999999998697
 51
0.0000000001302755
1001
AcDbBlockRepETag
1070
     1
1071
       11
1005
590
  0
LINE
  5
591
330
464
100
AcDbEntity
  8
0
  6
Continuous
 62
     7
370
    15
100
AcDbLine
 10
2376.180385565997
 20
878.9185555686982
 30
0.0
 11
2376.180385565997
 21
875.1688767259748
 31
0.0
1001
AcDbBlockRepETag
1070
     1
1071
       12
1005
591
  0
ARC
  5
592
330
464
100
AcDbEntity
  8
0
  6
Continuous
 62
     7
370
    15
100
AcDbCircle
 10
2378.930707320196
 20
875.1688765099078
 30
0.0
 40
2.750321040478752
100
AcDbArc
 50
179.9999999999609
 51
0.0000000000521102
1001
AcDbBlockRepETag
1070
     1
1071
       13
1005
592
  0
LINE
  5
593
330
464
100
AcDbEntity
  8
0
  6
Continuous
 62
     7
370
    15
100
AcDbLine
 10
2381.681028148772
 20
878.9185555686982
 30
0.0
 11
2376.180385565997
 21
878.9185555686982
 31
0.0
1001
AcDbBlockRepETag
1070
     1
1071
       14
1005
593
  0
LINE
  5
594
330
464
100
AcDbEntity
  8
0
  6
Continuous
 62
     7
370
    15
100
AcDbLine
 10
2381.681028148772
 20
875.1688767259748
 30
0.0
 11
2381.681028148772
 21
878.9185555686982
 31
0.0
1001
AcDbBlockRepETag
1070
     1
1071
       15
1005
594
  0
LINE
  5
595
330
464
100
AcDbEntity
  8
0
  6
Continuous
 62
     7
370
    15
100
AcDbLine
 10
2383.431001892926
 20
885.16887743378
 30
0.0
 11
2348.431003664767
 21
885.16887743378
 31
0.0
1001
AcDbBlockRepETag
1070
     1
1071
       16
1005
595
  0
LINE
  5
596
330
464
100
AcDbEntity
  8
0
  6
Continuous
 62
     7
370
    15
100
AcDbLine
 10
2383.431001892926
 20
885.16887743378
 30
0.0
 11
2383.931002906205
 21
884.668876420501
 31
0.0
1001
AcDbBlockRepETag
1070
     1
1071
       17
1005
596
  0
LINE
  5
597
330
464
100
AcDbEntity
  8
0
  6
Continuous
 62
     7
370
    15
100
AcDbLine
 10
2348.431003664767
 20
885.16887743378
 30
0.0
 11
2347.931003680581
 21
884.668876420501
 31
0.0
1001
AcDbBlockRepETag
1070
     1
1071
       18
1005
597
  0
LINE
  5
598
330
464
100
AcDbEntity
  8
0
  6
Continuous
 62
     7
370
    15
100
AcDbLine
 10
2348.431003664767
 20
868.1688765099107
 30
0.0
 11
2347.931003680581
 21
868.6688765336567
 31
0.0
1001
AcDbBlockRepETag
1070
     1
1071
       19
1005
598
  0
LINE
  5
599
330
464
100
AcDbEntity
  8
0
  6
Continuous
 62
     7
370
    15
100
AcDbLine
 10
2383.431001892926
 20
868.1688765099082
 30
0.0
 11
2383.931002906205
 21
868.6688765336567
 31
0.0
1001
AcDbBlockRepETag
1070
     1
1071
       20
1005
599
  0
LINE
  5
59A
330
464
100
AcDbEntity
  8
0
  6
Continuous
 62
     7
370
    15
100
AcDbLine
 10
2348.431003664767
 20
868.1688765099107
 30
0.0
 11
2383.431001892926
 21
868.1688765099082
 31
0.0
1001
AcDbBlockRepETag
1070
     1
1071
       21
1005
59A
  0
ARC
  5
59B
330
464
100
AcDbEntity
  8
0
  6
Continuous
 62
     7
370
    15
100
AcDbCircle
 10
2351.481003680508
 20
876.9188765099075
 30
0.0
 40
0.3500000000004206
100
AcDbArc
 50
90.00000000005213
 51
180.0
1001
AcDbBlockRepETag
1070
     1
1071
       22
1005
59B
  0
LINE
  5
59C
330
464
100
AcDbEntity
  8
0
  6
Continuous
 62
     7
370
    15
100
AcDbLine
 10
2351.131003676595
 20
876.9188765471609
 30
0.0
 11
2351.131003676595
 21
875.1688767259748
 31
0.0
1001
AcDbBlockRepETag
1070
     1
1071
       23
1005
59C
  0
ARC
  5
59D
330
464
100
AcDbEntity
  8
0
  6
Continuous
 62
     7
370
    15
100
AcDbCircle
 10
2352.931003680509
 20
875.1688765099082
 30
0.0
 40
1.800000000000579
100
AcDbArc
 50
179.9999999999739
 51
0.0000000000260551
1001
AcDbBlockRepETag
1070
     1
1071
       24
1005
59D
  0
LINE
  5
59E
330
464
100
AcDbEntity
  8
0
  6
Continuous
 62
     7
370
    15
100
AcDbLine
 10
2354.731003614755
 20
875.1688767259748
 30
0.0
 11
2354.731003614755
 21
876.9188765471609
 31
0.0
1001
AcDbBlockRepETag
1070
     1
1071
       25
1005
59E
  0
ARC
  5
59F
330
464
100
AcDbEntity
  8
0
  6
Continuous
 62
     7
370
    15
100
AcDbCircle
 10
2354.381003680509
 20
876.9188765099077
 30
0.0
 40
0.3499999999999943
100
AcDbArc
 50
0.0
 51
90.0
1001
AcDbBlockRepETag
1070
     1
1071
       26
1005
59F
  0
LINE
  5
5A0
330
464
100
AcDbEntity
  8
0
  6
Continuous
 62
     7
370
    15
100
AcDbLine
 10
2354.38100374365
 20
877.2688768839271
 30
0.0
 11
2351.48100378053
 21
877.2688768839271
 31
0.0
1001
AcDbBlockRepETag
1070
     1
1071
       27
1005
5A0
  0
LINE
  5
5A1
330
464
100
AcDbEntity
  8
0
  6
Continuous
 62
     7
370
    15
100
AcDbLine
 10
2354.206003575267
 20
877.8688767960103
 30
0.0
 11
2354.206003575267
 21
878.0688764562638
 31
0.0
1001
AcDbBlockRepETag
1070
     1
1071
       28
1005
5A1
  0
LINE
  5
5A2
330
464
100
AcDbEntity
  8
0
  6
Continuous
 62
     7
370
    15
100
AcDbLine
 10
2354.206003575267
 20
878.0688764562638
 30
0.0
 11
2350.706003700064
 21
878.0688764562638
 31
0.0
1001
AcDbBlockRepETag
1070
     1
1071
       29
1005
5A2
  0
LINE
  5
5A3
330
464
100
AcDbEntity
  8
0
  6
Continuous
 62
     7
370
    15
100
AcDbLine
 10
2350.706003700064
 20
878.668876368347
 30
0.0
 11
2350.706003700064
 21
878.0688764562638
 31
0.0
1001
AcDbBlockRepETag
1070
     1
1071
       30
1005
5A3
  0
LINE
  5
5A4
330
464
100
AcDbEntity
  8
0
  6
Continuous
 62
     7
370
    15
100
AcDbLine
 10
2354.38100374365
 20
878.668876368347
 30
0.0
 11
2350.706003700064
 21
878.668876368347
 31
0.0
1001
AcDbBlockRepETag
1070
     1
1071
       31
1005
5A4
  0
ARC
  5
5A5
330
464
100
AcDbEntity
  8
0
  6
Continuous
 62
     7
370
    15
100
AcDbCircle
 10
2354.381003680508
 20
877.6188765099076
 30
0.0
 40
1.050000000000125
100
AcDbArc
 50
0.0000000000521102
 51
90.00000000010421
1001
AcDbBlockRepETag
1070
     1
1071
       32
1005
5A5
  0
LINE
  5
5A6
330
464
100
AcDbEntity
  8
0
  6
Continuous
 62
     7
370
    15
100
AcDbLine
 10
2355.431003822626
 20
875.1688767259748
 30
0.0
 11
2355.431003822626
 21
877.6188762893708
 31
0.0
1001
AcDbBlockRepETag
1070
     1
1071
       33
1005
5A6
  0
ARC
  5
5A7
330
464
100
AcDbEntity
  8
0
  6
Continuous
 62
     7
370
    15
100
AcDbCircle
 10
2352.931003680509
 20
875.1688765099082
 30
0.0
 40
2.500000000000738
100
AcDbArc
 50
179.9999999999804
 51
0.0000000000390827
1001
AcDbBlockRepETag
1070
     1
1071
       34
1005
5A7
  0
ARC
  5
5A8
330
464
100
AcDbEntity
  8
0
  6
Continuous
 62
     7
370
    15
100
AcDbCircle
 10
2351.431003680508
 20
876.8688765099078
 30
0.0
 40
1.0
100
AcDbArc
 50
90.0
 51
179.9999999999479
1001
AcDbBlockRepETag
1070
     1
1071
       35
1005
5A8
  0
LINE
  5
5A9
330
464
100
AcDbEntity
  8
0
  6
Continuous
 62
     7
370
    15
100
AcDbLine
 10
2351.431003632636
 20
877.8688767960103
 30
0.0
 11
2354.206003575267
 21
877.8688767960103
 31
0.0
1001
AcDbBlockRepETag
1070
     1
1071
       36
1005
5A9
  0
LINE
  5
5AA
330
464
100
AcDbEntity
  8
0
  6
Continuous
 62
     7
370
    15
100
AcDbLine
 10
2350.431003701554
 20
876.8688766320975
 30
0.0
 11
2350.431003701554
 21
875.1688767259748
 31
0.0
1001
AcDbBlockRepETag
1070
     1
1071
       37
1005
5AA
  0
ARC
  5
5AB
330
464
100
AcDbEntity
  8
0
  6
Continuous
 62
     7
370
    15
100
AcDbCircle
 10
2367.381003680509
 20
877.6188765099076
 30
0.0
 40
1.050000000000153
100
AcDbArc
 50
0.0000000000521102
 51
90.00000000010421
1001
AcDbBlockRepETag
1070
     1
1071
       38
1005
5AB
  0
LINE
  5
5AC
330
464
100
AcDbEntity
  8
0
  6
Continuous
 62
     7
370
    15
100
AcDbLine
 10
2368.431003159524
 20
875.1688767259748
 30
0.0
 11
2368.431003159524
 21
877.6188762893708
 31
0.0
1001
AcDbBlockRepETag
1070
     1
1071
       39
1005
5AC
  0
LINE
  5
5AD
330
464
100
AcDbEntity
  8
0
  6
Continuous
 62
     7
370
    15
100
AcDbLine
 10
2363.431003271283
 20
876.8688766320975
 30
0.0
 11
2363.431003271283
 21
875.1688767259748
 31
0.0
1001
AcDbBlockRepETag
1070
     1
1071
       40
1005
5AD
  0
LINE
  5
5AE
330
464
100
AcDbEntity
  8
0
  6
Continuous
 62
     7
370
    15
100
AcDbLine
 10
2367.206002912165
 20
877.8688767960103
 30
0.0
 11
2364.431004366518
 21
877.8688767960103
 31
0.0
1001
AcDbBlockRepETag
1070
     1
1071
       41
1005
5AE
  0
LINE
  5
5AF
330
464
100
AcDbEntity
  8
0
  6
Continuous
 62
     7
370
    15
100
AcDbLine
 10
2367.206002912165
 20
878.0688764562638
 30
0.0
 11
2367.206002912165
 21
877.8688767960103
 31
0.0
1001
AcDbBlockRepETag
1070
     1
1071
       42
1005
5AF
  0
LINE
  5
5B0
330
464
100
AcDbEntity
  8
0
  6
Continuous
 62
     7
370
    15
100
AcDbLine
 10
2363.706003269793
 20
878.0688764562638
 30
0.0
 11
2367.206002912165
 21
878.0688764562638
 31
0.0
1001
AcDbBlockRepETag
1070
     1
1071
       43
1005
5B0
  0
LINE
  5
5B1
330
464
100
AcDbEntity
  8
0
  6
Continuous
 62
     7
370
    15
100
AcDbLine
 10
2363.706003269793
 20
878.668876368347
 30
0.0
 11
2363.706003269793
 21
878.0688764562638
 31
0.0
1001
AcDbBlockRepETag
1070
     1
1071
       44
1005
5B1
  0
LINE
  5
5B2
330
464
100
AcDbEntity
  8
0
  6
Continuous
 62
     7
370
    15
100
AcDbLine
 10
2367.381004011871
 20
878.668876368347
 30
0.0
 11
2363.706003269793
 21
878.668876368347
 31
0.0
1001
AcDbBlockRepETag
1070
     1
1071
       45
1005
5B2
  0
LINE
  5
5B3
330
464
100
AcDbEntity
  8
0
  6
Continuous
 62
     7
370
    15
100
AcDbLine
 10
2367.381004011871
 20
877.2688768839271
 30
0.0
 11
2364.481003350259
 21
877.2688768839271
 31
0.0
1001
AcDbBlockRepETag
1070
     1
1071
       46
1005
5B3
  0
ARC
  5
5B4
330
464
100
AcDbEntity
  8
0
  6
Continuous
 62
     7
370
    15
100
AcDbCircle
 10
2364.481003680508
 20
876.9188765099075
 30
0.0
 40
0.3500000000002217
100
AcDbArc
 50
90.00000000002605
 51
180.0
1001
AcDbBlockRepETag
1070
     1
1071
       47
1005
5B4
  0
LINE
  5
5B5
330
464
100
AcDbEntity
  8
0
  6
Continuous
 62
     7
370
    15
100
AcDbLine
 10
2364.131003013493
 20
876.9188765471609
 30
0.0
 11
2364.131003013493
 21
875.1688767259748
 31
0.0
1001
AcDbBlockRepETag
1070
     1
1071
       48
1005
5B5
  0
ARC
  5
5B6
330
464
100
AcDbEntity
  8
0
  6
Continuous
 62
     7
370
    15
100
AcDbCircle
 10
2365.931003680508
 20
875.1688765099082
 30
0.0
 40
1.800000000000437
100
AcDbArc
 50
179.9999999999739
 51
0.0000000000260551
1001
AcDbBlockRepETag
1070
     1
1071
       49
1005
5B6
  0
LINE
  5
5B7
330
464
100
AcDbEntity
  8
0
  6
Continuous
 62
     7
370
    15
100
AcDbLine
 10
2367.731004348637
 20
875.1688767259748
 30
0.0
 11
2367.731004348637
 21
876.9188765471609
 31
0.0
1001
AcDbBlockRepETag
1070
     1
1071
       50
1005
5B7
  0
ARC
  5
5B8
330
464
100
AcDbEntity
  8
0
  6
Continuous
 62
     7
370
    15
100
AcDbCircle
 10
2367.381003680509
 20
876.9188765099077
 30
0.0
 40
0.3499999999999943
100
AcDbArc
 50
0.0
 51
90.0
1001
AcDbBlockRepETag
1070
     1
1071
       51
1005
5B8
  0
ARC
  5
5B9
330
464
100
AcDbEntity
  8
0
  6
Continuous
 62
     7
370
    15
100
AcDbCircle
 10
2365.931003680508
 20
875.1688765099082
 30
0.0
 40
2.500000000000653
100
AcDbArc
 50
179.9999999999609
 51
0.0000000000390827
1001
AcDbBlockRepETag
1070
     1
1071
       52
1005
5B9
  0
ARC
  5
5BA
330
464
100
AcDbEntity
  8
0
  6
Continuous
 62
     7
370
    15
100
AcDbCircle
 10
2364.431003680508
 20
876.8688765099078
 30
0.0
 40
1.000000000000028
100
AcDbArc
 50
90.0
 51
179.9999999999479
1001
AcDbBlockRepETag
1070
     1
1071
       53
1005
5BA
  0
ARC
  5
5BB
330
464
100
AcDbEntity
  8
0
  6
Continuous
 62
     7
370
    15
100
AcDbCircle
 10
2380.381003680509
 20
877.6188765099076
 30
0.0
 40
1.050000000000125
100
AcDbArc
 50
0.0
 51
90.00000000010421
1001
AcDbBlockRepETag
1070
     1
1071
       54
1005
5BB
  0
LINE
  5
5BC
330
464
100
AcDbEntity
  8
0
  6
Continuous
 62
     7
370
    15
100
AcDbLine
 10
2381.43100529039
 20
875.1688767259748
 30
0.0
 11
2381.43100529039
 21
877.6188762893708
 31
0.0
1001
AcDbBlockRepETag
1070
     1
1071
       55
1005
5BC
  0
ARC
  5
5BD
330
464
100
AcDbEntity
  8
0
  6
Continuous
 62
     7
370
    15
100
AcDbCircle
 10
2378.931003680508
 20
875.1688765099082
 30
0.0
 40
2.500000000000682
100
AcDbArc
 50
179.9999999999609
 51
0.0000000000390827
1001
AcDbBlockRepETag
1070
     1
1071
       56
1005
5BD
  0
LINE
  5
5BE
330
464
100
AcDbEntity
  8
0
  6
Continuous
 62
     7
370
    15
100
AcDbLine
 10
2376.431004470827
 20
876.8688766320975
 30
0.0
 11
2376.431004470827
 21
875.1688767259748
 31
0.0
1001
AcDbBlockRepETag
1070
     1
1071
       57
1005
5BE
  0
ARC
  5
5BF
330
464
100
AcDbEntity
  8
0
  6
Continuous
 62
     7
370
    15
100
AcDbCircle
 10
2377.431003680507
 20
876.8688765099078
 30
0.0
 40
1.0
100
AcDbArc
 50
90.0
 51
179.9999999999479
1001
AcDbBlockRepETag
1070
     1
1071
       58
1005
5BF
  0
LINE
  5
5C0
330
464
100
AcDbEntity
  8
0
  6
Continuous
 62
     7
370
    15
100
AcDbLine
 10
2380.206003180386
 20
877.8688767960103
 30
0.0
 11
2377.431002772094
 21
877.8688767960103
 31
0.0
1001
AcDbBlockRepETag
1070
     1
1071
       59
1005
5C0
  0
LINE
  5
5C1
330
464
100
AcDbEntity
  8
0
  6
Continuous
 62
     7
370
    15
100
AcDbLine
 10
2380.206003180386
 20
878.0688764562638
 30
0.0
 11
2380.206003180386
 21
877.8688767960103
 31
0.0
1001
AcDbBlockRepETag
1070
     1
1071
       60
1005
5C1
  0
LINE
  5
5C2
330
464
100
AcDbEntity
  8
0
  6
Continuous
 62
     7
370
    15
100
AcDbLine
 10
2376.706003538014
 20
878.0688764562638
 30
0.0
 11
2380.206003180386
 21
878.0688764562638
 31
0.0
1001
AcDbBlockRepETag
1070
     1
1071
       61
1005
5C2
  0
LINE
  5
5C3
330
464
100
AcDbEntity
  8
0
  6
Continuous
 62
     7
370
    15
100
AcDbLine
 10
2380.381002417446
 20
877.2688768839271
 30
0.0
 11
2377.48100361848
 21
877.2688768839271
 31
0.0
1001
AcDbBlockRepETag
1070
     1
1071
       62
1005
5C3
  0
ARC
  5
5C4
330
464
100
AcDbEntity
  8
0
  6
Continuous
 62
     7
370
    15
100
AcDbCircle
 10
2377.481003680509
 20
876.9188765099075
 30
0.0
 40
0.3500000000002501
100
AcDbArc
 50
90.00000000005213
 51
180.0
1001
AcDbBlockRepETag
1070
     1
1071
       63
1005
5C4
  0
LINE
  5
5C5
330
464
100
AcDbEntity
  8
0
  6
Continuous
 62
     7
370
    15
100
AcDbLine
 10
2377.131003281714
 20
876.9188765471609
 30
0.0
 11
2377.131003281714
 21
875.1688767259748
 31
0.0
1001
AcDbBlockRepETag
1070
     1
1071
       64
1005
5C5
  0
ARC
  5
5C6
330
464
100
AcDbEntity
  8
0
  6
Continuous
 62
     7
370
    15
100
AcDbCircle
 10
2378.931003680508
 20
875.1688765099082
 30
0.0
 40
1.800000000000437
100
AcDbArc
 50
179.9999999999413
 51
0.0000000000260551
1001
AcDbBlockRepETag
1070
     1
1071
       65
1005
5C6
  0
LINE
  5
5C7
330
464
100
AcDbEntity
  8
0
  6
Continuous
 62
     7
370
    15
100
AcDbLine
 10
2380.731004616858
 20
875.1688767259748
 30
0.0
 11
2380.731004616858
 21
876.9188765471609
 31
0.0
1001
AcDbBlockRepETag
1070
     1
1071
       66
1005
5C7
  0
ARC
  5
5C8
330
464
100
AcDbEntity
  8
0
  6
Continuous
 62
     7
370
    15
100
AcDbCircle
 10
2380.381003680509
 20
876.9188765099077
 30
0.0
 40
0.3499999999999943
100
AcDbArc
 50
0.0
 51
90.0
1001
AcDbBlockRepETag
1070
     1
1071
       67
1005
5C8
  0
LINE
  5
5C9
330
464
100
AcDbEntity
  8
0
  6
Continuous
 62
     7
370
    15
100
AcDbLine
 10
2380.381002417446
 20
878.668876368347
 30
0.0
 11
2376.706003538014
 21
878.668876368347
 31
0.0
1001
AcDbBlockRepETag
1070
     1
1071
       68
1005
5C9
  0
LINE
  5
5CA
330
464
100
AcDbEntity
  8
0
  6
Continuous
 62
     7
370
    15
100
AcDbLine
 10
2376.706003538014
 20
878.668876368347
 30
0.0
 11
2376.706003538014
 21
878.0688764562638
 31
0.0
1001
AcDbBlockRepETag
1070
     1
1071
       69
1005
5CA
  0
ENDBLK
  5
466
330
464
100
AcDbEntity
  8
0
100
AcDbBlockEnd
  0
BLOCK
  5
4B2
330
4B1
100
AcDbEntity
  8
0
100
AcDbBlockBegin
  2
3
 70
     0
 10
0.0
 20
0.0
 30
0.0
  3
3
  1

  0
ARC
  5
4B4
330
4B1
100
AcDbEntity
  8
0
  6
Continuous
 62
     7
370
    15
100
AcDbCircle
 10
2413.308367424058
 20
837.2790559119009
 30
0.0
 40
1.950069488178253
100
AcDbArc
 50
104.8634484493905
 51
255.1433760642506
  0
ARC
  5
4B5
330
4B1
100
AcDbEntity
  8
0
  6
Continuous
 62
     7
370
    15
100
AcDbCircle
 10
2413.308367424058
 20
837.2790559119009
 30
0.0
 40
1.950069488178274
100
AcDbArc
 50
284.8566239360196
 51
75.14337606398034
  0
ARC
  5
4B6
330
4B1
100
AcDbEntity
  8
0
  6
Continuous
 62
     7
370
    15
100
AcDbCircle
 10
2420.808367424058
 20
837.2790559119009
 30
0.0
 40
1.950069488178253
100
AcDbArc
 50
104.8634484493905
 51
255.1433760642506
  0
ARC
  5
4B7
330
4B1
100
AcDbEntity
  8
0
  6
Continuous
 62
     7
370
    15
100
AcDbCircle
 10
2420.808367424058
 20
837.2790559119009
 30
0.0
 40
1.950069488178266
100
AcDbArc
 50
284.8566239360465
 51
75.1433760639535
  0
ARC
  5
4B8
330
4B1
100
AcDbEntity
  8
0
  6
Continuous
 62
     7
370
    15
100
AcDbCircle
 10
2413.308367424058
 20
824.279055911901
 30
0.0
 40
1.950069488178266
100
AcDbArc
 50
104.8634484493905
 51
255.1433760642506
  0
ARC
  5
4B9
330
4B1
100
AcDbEntity
  8
0
  6
Continuous
 62
     7
370
    15
100
AcDbCircle
 10
2413.308367424058
 20
824.279055911901
 30
0.0
 40
1.950069488178274
100
AcDbArc
 50
284.8566239360196
 51
75.14337606398034
  0
ARC
  5
4BA
330
4B1
100
AcDbEntity
  8
0
  6
Continuous
 62
     7
370
    15
100
AcDbCircle
 10
2420.808367424058
 20
824.279055911901
 30
0.0
 40
1.950069488178266
100
AcDbArc
 50
104.8634484493905
 51
255.1433760642506
  0
ARC
  5
4BB
330
4B1
100
AcDbEntity
  8
0
  6
Continuous
 62
     7
370
    15
100
AcDbCircle
 10
2420.808367424058
 20
824.279055911901
 30
0.0
 40
1.950069488178266
100
AcDbArc
 50
284.8566239360465
 51
75.1433760639535
  0
ARC
  5
4BC
330
4B1
100
AcDbEntity
  8
0
  6
Continuous
 62
     7
370
    15
100
AcDbCircle
 10
2413.308367424058
 20
811.2790559119009
 30
0.0
 40
1.95006948817828
100
AcDbArc
 50
104.8634484493905
 51
255.1433760642506
  0
ARC
  5
4BD
330
4B1
100
AcDbEntity
  8
0
  6
Continuous
 62
     7
370
    15
100
AcDbCircle
 10
2413.308367424058
 20
811.2790559119009
 30
0.0
 40
1.950069488178274
100
AcDbArc
 50
284.8566239360196
 51
75.14337606398034
  0
ARC
  5
4BE
330
4B1
100
AcDbEntity
  8
0
  6
Continuous
 62
     7
370
    15
100
AcDbCircle
 10
2420.808367424058
 20
811.2790559119009
 30
0.0
 40
1.95006948817828
100
AcDbArc
 50
104.8634484493905
 51
255.1433760642506
  0
ARC
  5
4BF
330
4B1
100
AcDbEntity
  8
0
  6
Continuous
 62
     7
370
    15
100
AcDbCircle
 10
2420.808367424058
 20
811.2790559119009
 30
0.0
 40
1.95006948817828
100
AcDbArc
 50
284.8566239360465
 51
75.1433760639535
  0
LINE
  5
4C0
330
4B1
100
AcDbEntity
  8
0
  6
Continuous
 62
     7
370
    15
100
AcDbLine
 10
2426.558567197562
 20
842.2790551375992
 30
0.0
 11
2407.5585137918
 21
842.2790551375992
 31
0.0
  0
LINE
  5
4C1
330
4B1
100
AcDbEntity
  8
0
  6
Continuous
 62
     7
370
    15
100
AcDbLine
 10
2426.058365018607
 20
841.7790541243203
 30
0.0
 11
2426.558567197562
 21
842.2790551375992
 31
0.0
  0
LINE
  5
4C2
330
4B1
100
AcDbEntity
  8
0
  6
Continuous
 62
     7
370
    15
100
AcDbLine
 10
2408.058239133597
 20
841.7790541243203
 30
0.0
 11
2426.058365018607
 21
841.7790541243203
 31
0.0
  0
LINE
  5
4C3
330
4B1
100
AcDbEntity
  8
0
  6
Continuous
 62
     7
370
    15
100
AcDbLine
 10
2407.5585137918
 20
842.2790551375992
 30
0.0
 11
2408.058239133597
 21
841.7790541243203
 31
0.0
  0
LINE
  5
4C4
330
4B1
100
AcDbEntity
  8
0
  6
Continuous
 62
     7
370
    15
100
AcDbLine
 10
2426.058365018607
 20
806.7790558961615
 30
0.0
 11
2408.058239133597
 21
806.7790558961615
 31
0.0
  0
LINE
  5
4C5
330
4B1
100
AcDbEntity
  8
0
  6
Continuous
 62
     7
370
    15
100
AcDbLine
 10
2408.058239133597
 20
806.7790558961615
 30
0.0
 11
2408.058239133597
 21
841.7790541243203
 31
0.0
  0
LINE
  5
4C6
330
4B1
100
AcDbEntity
  8
0
  6
Continuous
 62
     7
370
    15
100
AcDbLine
 10
2426.058365018607
 20
841.7790541243203
 30
0.0
 11
2426.058365018607
 21
806.7790558961615
 31
0.0
  0
CIRCLE
  5
4C7
330
4B1
100
AcDbEntity
  8
0
  6
Continuous
 62
     7
370
    15
100
AcDbCircle
 10
2417.058367424058
 20
830.7790559119007
 30
0.0
 40
3.500000000000156
  0
CIRCLE
  5
4C8
330
4B1
100
AcDbEntity
  8
0
  6
Continuous
 62
     7
370
    15
100
AcDbCircle
 10
2417.058367424058
 20
817.7790559119006
 30
0.0
 40
3.50000000000017
  0
CIRCLE
  5
4C9
330
4B1
100
AcDbEntity
  8
0
  6
Continuous
 62
     7
370
    15
100
AcDbCircle
 10
2420.808367424058
 20
811.2790559119007
 30
0.0
 40
2.50000000000017
  0
CIRCLE
  5
4CA
330
4B1
100
AcDbEntity
  8
0
  6
Continuous
 62
     7
370
    15
100
AcDbCircle
 10
2413.308367424058
 20
811.2790559119007
 30
0.0
 40
2.50000000000017
  0
CIRCLE
  5
4CB
330
4B1
100
AcDbEntity
  8
0
  6
Continuous
 62
     7
370
    15
100
AcDbCircle
 10
2420.808367424058
 20
824.2790559119008
 30
0.0
 40
2.50000000000017
  0
CIRCLE
  5
4CC
330
4B1
100
AcDbEntity
  8
0
  6
Continuous
 62
     7
370
    15
100
AcDbCircle
 10
2413.308367424058
 20
824.2790559119008
 30
0.0
 40
2.50000000000017
  0
CIRCLE
  5
4CD
330
4B1
100
AcDbEntity
  8
0
  6
Continuous
 62
     7
370
    15
100
AcDbCircle
 10
2420.808367424058
 20
837.2790559119007
 30
0.0
 40
2.50000000000017
  0
CIRCLE
  5
4CE
330
4B1
100
AcDbEntity
  8
0
  6
Continuous
 62
     7
370
    15
100
AcDbCircle
 10
2413.308367424058
 20
837.2790559119007
 30
0.0
 40
2.50000000000017
  0
LINE
  5
4CF
330
4B1
100
AcDbEntity
  8
0
  6
Continuous
 62
     7
370
    15
100
AcDbLine
 10
2407.5585137918
 20
842.2790551375992
 30
0.0
 11
2407.5585137918
 21
806.2790559119758
 31
0.0
  0
LINE
  5
4D0
330
4B1
100
AcDbEntity
  8
0
  6
Continuous
 62
     7
370
    15
100
AcDbLine
 10
2408.058239133597
 20
806.7790558961615
 30
0.0
 11
2407.5585137918
 21
806.2790559119758
 31
0.0
  0
LINE
  5
4D1
330
4B1
100
AcDbEntity
  8
0
  6
Continuous
 62
     7
370
    15
100
AcDbLine
 10
2426.558567197562
 20
806.2790559119758
 30
0.0
 11
2407.5585137918
 21
806.2790559119758
 31
0.0
  0
LINE
  5
4D2
330
4B1
100
AcDbEntity
  8
0
  6
Continuous
 62
     7
370
    15
100
AcDbLine
 10
2426.058365018607
 20
806.7790558961615
 30
0.0
 11
2426.558567197562
 21
806.2790559119758
 31
0.0
  0
LINE
  5
4D3
330
4B1
100
AcDbEntity
  8
0
  6
Continuous
 62
     7
370
    15
100
AcDbLine
 10
2426.558567197562
 20
806.2790559119758
 30
0.0
 11
2426.558567197562
 21
842.2790551375992
 31
0.0
  0
LINE
  5
4D4
330
4B1
100
AcDbEntity
  8
0
  6
Continuous
 62
     7
370
    15
100
AcDbLine
 10
2414.058281095267
 20
829.031278361047
 30
0.0
 11
2414.058281095267
 21
832.495379243458
 31
0.0
  0
LINE
  5
4D5
330
4B1
100
AcDbEntity
  8
0
  6
Continuous
 62
     7
370
    15
100
AcDbLine
 10
2417.058540494681
 20
827.299226988519
 30
0.0
 11
2414.058281095267
 21
829.031278361047
 31
0.0
  0
LINE
  5
4D6
330
4B1
100
AcDbEntity
  8
0
  6
Continuous
 62
     7
370
    15
100
AcDbLine
 10
2420.058323056937
 20
829.031278361047
 30
0.0
 11
2417.058540494681
 21
827.299226988519
 31
0.0
  0
LINE
  5
4D7
330
4B1
100
AcDbEntity
  8
0
  6
Continuous
 62
     7
370
    15
100
AcDbLine
 10
2420.058323056937
 20
832.495379243458
 30
0.0
 11
2420.058323056937
 21
829.031278361047
 31
0.0
  0
LINE
  5
4D8
330
4B1
100
AcDbEntity
  8
0
  6
Continuous
 62
     7
370
    15
100
AcDbLine
 10
2417.058540494681
 20
834.2274306159861
 30
0.0
 11
2420.058323056937
 21
832.495379243458
 31
0.0
  0
LINE
  5
4D9
330
4B1
100
AcDbEntity
  8
0
  6
Continuous
 62
     7
370
    15
100
AcDbLine
 10
2414.058281095267
 20
832.495379243458
 30
0.0
 11
2417.058540494681
 21
834.2274306159861
 31
0.0
  0
LINE
  5
4DA
330
4B1
100
AcDbEntity
  8
0
  6
Continuous
 62
     7
370
    15
100
AcDbLine
 10
2417.058540494681
 20
821.2431575920827
 30
0.0
 11
2420.058323056937
 21
819.5111071508772
 31
0.0
  0
LINE
  5
4DB
330
4B1
100
AcDbEntity
  8
0
  6
Continuous
 62
     7
370
    15
100
AcDbLine
 10
2414.058281095267
 20
819.5111071508772
 30
0.0
 11
2417.058540494681
 21
821.2431575920827
 31
0.0
  0
LINE
  5
4DC
330
4B1
100
AcDbEntity
  8
0
  6
Continuous
 62
     7
370
    15
100
AcDbLine
 10
2414.058281095267
 20
816.0470053371437
 30
0.0
 11
2414.058281095267
 21
819.5111071508772
 31
0.0
  0
LINE
  5
4DD
330
4B1
100
AcDbEntity
  8
0
  6
Continuous
 62
     7
370
    15
100
AcDbLine
 10
2417.058540494681
 20
814.3149539646156
 30
0.0
 11
2414.058281095267
 21
816.0470053371437
 31
0.0
  0
LINE
  5
4DE
330
4B1
100
AcDbEntity
  8
0
  6
Continuous
 62
     7
370
    15
100
AcDbLine
 10
2420.058323056937
 20
816.0470053371437
 30
0.0
 11
2417.058540494681
 21
814.3149539646156
 31
0.0
  0
LINE
  5
4DF
330
4B1
100
AcDbEntity
  8
0
  6
Continuous
 62
     7
370
    15
100
AcDbLine
 10
2420.058323056937
 20
819.5111071508772
 30
0.0
 11
2420.058323056937
 21
816.0470053371437
 31
0.0
  0
SPLINE
  5
4E0
330
4B1
100
AcDbEntity
  8
0
  6
Continuous
 62
     7
370
    15
100
AcDbSpline
210
0.0
220
0.0
230
1.0
 70
    24
 71
     3
 72
    10
 73
     6
 74
     0
 42
0.0000000001
 43
0.0000000001
 40
0.0
 40
0.0
 40
0.0
 40
0.0
 40
0.2890140658041813
 40
0.5864127634348828
 40
1.0
 40
1.0
 40
1.0
 40
1.0
 10
2413.808418424368
 20
839.1639338624127
 30
0.0
 10
2413.808418424368
 20
839.1588231153148
 30
0.0
 10
2413.808418424368
 20
839.1484533524435
 30
0.0
 10
2413.808418424368
 20
839.0604888021337
 30
0.0
 10
2413.808418424368
 20
838.938710013412
 30
0.0
 10
2413.808418424368
 20
838.8678701412327
 30
0.0
  0
ARC
  5
4E1
330
4B1
100
AcDbEntity
  8
0
  6
Continuous
 62
     7
370
    15
100
AcDbCircle
 10
2413.308367424058
 20
837.2790559119009
 30
0.0
 40
1.950069488178274
100
AcDbArc
 50
75.14337606398034
 51
104.8566239357511
  0
SPLINE
  5
4E2
330
4B1
100
AcDbEntity
  8
0
  6
Continuous
 62
     7
370
    15
100
AcDbSpline
210
0.0
220
0.0
230
1.0
 70
    24
 71
     3
 72
    10
 73
     6
 74
     0
 42
0.0000000001
 43
0.0000000001
 40
0.0
 40
0.0
 40
0.0
 40
0.0
 40
0.2890204194588117
 40
0.5864170978991248
 40
1.0
 40
1.0
 40
1.0
 40
1.0
 10
2412.808490903616
 20
838.8678701412327
 30
0.0
 10
2412.808490903618
 20
838.9189476592926
 30
0.0
 10
2412.808490903618
 20
839.0225830009224
 30
0.0
 10
2412.808490903615
 20
839.1363594514658
 30
0.0
 10
2412.808490903616
 20
839.1537927585797
 30
0.0
 10
2412.808490903618
 20
839.1639338624127
 30
0.0
  0
ARC
  5
4E3
330
4B1
100
AcDbEntity
  8
0
  6
Continuous
 62
     7
370
    15
100
AcDbCircle
 10
2413.308367424058
 20
837.2790559119009
 30
0.0
 40
1.665631164559866
100
AcDbArc
 50
107.4688054621255
 51
252.5311945378745
  0
SPLINE
  5
4E4
330
4B1
100
AcDbEntity
  8
0
  6
Continuous
 62
     7
370
    15
100
AcDbSpline
210
0.0
220
0.0
230
1.0
 70
    24
 71
     3
 72
    10
 73
     6
 74
     0
 42
0.0000000001
 43
0.0000000001
 40
0.0
 40
0.0
 40
0.0
 40
0.0
 40
0.2890139387128821
 40
0.5864129453060975
 40
1.0
 40
1.0
 40
1.0
 40
1.0
 10
2412.808490903616
 20
835.3941766363032
 30
0.0
 10
2412.808490903616
 20
835.3992872084583
 30
0.0
 10
2412.808490903616
 20
835.4096566241445
 30
0.0
 10
2412.808490903616
 20
835.4976243450705
 30
0.0
 10
2412.808490903616
 20
835.6194026646612
 30
0.0
 10
2412.808490903616
 20
835.6902422201283
 30
0.0
  0
ARC
  5
4E5
330
4B1
100
AcDbEntity
  8
0
  6
Continuous
 62
     7
370
    15
100
AcDbCircle
 10
2413.308367424058
 20
837.2790559119009
 30
0.0
 40
1.95006948817826
100
AcDbArc
 50
255.1433760642506
 51
284.8566239360196
  0
SPLINE
  5
4E6
330
4B1
100
AcDbEntity
  8
0
  6
Continuous
 62
     7
370
    15
100
AcDbSpline
210
0.0
220
0.0
230
1.0
 70
    24
 71
     3
 72
    10
 73
     6
 74
     0
 42
0.0000000001
 43
0.0000000001
 40
0.0
 40
0.0
 40
0.0
 40
0.0
 40
0.2890202571897871
 40
0.5864173301031132
 40
1.0
 40
1.0
 40
1.0
 40
1.0
 10
2413.808418424368
 20
835.6902422201283
 30
0.0
 10
2413.808418424368
 20
835.6391648764393
 30
0.0
 10
2413.808418424368
 20
835.5355297893829
 30
0.0
 10
2413.808418424368
 20
835.4217502661864
 30
0.0
 10
2413.80841842437
 20
835.4043174478197
 30
0.0
 10
2413.808418424368
 20
835.3941766363032
 30
0.0
  0
ARC
  5
4E7
330
4B1
100
AcDbEntity
  8
0
  6
Continuous
 62
     7
370
    15
100
AcDbCircle
 10
2413.308367424058
 20
837.2790559119009
 30
0.0
 40
1.665631164559898
100
AcDbArc
 50
287.4688054624511
 51
72.53119453754887
  0
SPLINE
  5
4E8
330
4B1
100
AcDbEntity
  8
0
  6
Continuous
 62
     7
370
    15
100
AcDbSpline
210
0.0
220
0.0
230
1.0
 70
    24
 71
     3
 72
    10
 73
     6
 74
     0
 42
0.0000000001
 43
0.0000000001
 40
0.0
 40
0.0
 40
0.0
 40
0.0
 40
0.2890140658041813
 40
0.5864127634348828
 40
1.0
 40
1.0
 40
1.0
 40
1.0
 10
2421.308590085745
 20
839.1639338624127
 30
0.0
 10
2421.308590085745
 20
839.1588231153148
 30
0.0
 10
2421.308590085744
 20
839.1484533524435
 30
0.0
 10
2421.308590085747
 20
839.0604888021337
 30
0.0
 10
2421.308590085745
 20
838.938710013412
 30
0.0
 10
2421.308590085745
 20
838.8678701412327
 30
0.0
  0
ARC
  5
4E9
330
4B1
100
AcDbEntity
  8
0
  6
Continuous
 62
     7
370
    15
100
AcDbCircle
 10
2420.808367424058
 20
837.2790559119009
 30
0.0
 40
1.95006948817828
100
AcDbArc
 50
75.1433760639535
 51
104.8566239357511
  0
SPLINE
  5
4EA
330
4B1
100
AcDbEntity
  8
0
  6
Continuous
 62
     7
370
    15
100
AcDbSpline
210
0.0
220
0.0
230
1.0
 70
    24
 71
     3
 72
    10
 73
     6
 74
     0
 42
0.0000000001
 43
0.0000000001
 40
0.0
 40
0.0
 40
0.0
 40
0.0
 40
0.2890204194588117
 40
0.5864170978991248
 40
1.0
 40
1.0
 40
1.0
 40
1.0
 10
2420.308185727835
 20
838.8678701412327
 30
0.0
 10
2420.308185727837
 20
838.9189476592926
 30
0.0
 10
2420.308185727837
 20
839.0225830009224
 30
0.0
 10
2420.308185727834
 20
839.1363594514658
 30
0.0
 10
2420.308185727835
 20
839.1537927585797
 30
0.0
 10
2420.308185727837
 20
839.1639338624127
 30
0.0
  0
ARC
  5
4EB
330
4B1
100
AcDbEntity
  8
0
  6
Continuous
 62
     7
370
    15
100
AcDbCircle
 10
2420.808367424058
 20
837.2790559119009
 30
0.0
 40
1.665631164559866
100
AcDbArc
 50
107.4688054621255
 51
252.5311945378745
  0
SPLINE
  5
4EC
330
4B1
100
AcDbEntity
  8
0
  6
Continuous
 62
     7
370
    15
100
AcDbSpline
210
0.0
220
0.0
230
1.0
 70
    24
 71
     3
 72
    10
 73
     6
 74
     0
 42
0.0000000001
 43
0.0000000001
 40
0.0
 40
0.0
 40
0.0
 40
0.0
 40
0.2890139387128821
 40
0.5864129453060975
 40
1.0
 40
1.0
 40
1.0
 40
1.0
 10
2420.308185727835
 20
835.3941766363032
 30
0.0
 10
2420.308185727835
 20
835.3992872084583
 30
0.0
 10
2420.308185727835
 20
835.4096566241445
 30
0.0
 10
2420.308185727835
 20
835.4976243450705
 30
0.0
 10
2420.308185727835
 20
835.6194026646612
 30
0.0
 10
2420.308185727835
 20
835.6902422201283
 30
0.0
  0
ARC
  5
4ED
330
4B1
100
AcDbEntity
  8
0
  6
Continuous
 62
     7
370
    15
100
AcDbCircle
 10
2420.808367424058
 20
837.2790559119009
 30
0.0
 40
1.95006948817839
100
AcDbArc
 50
255.1433760642506
 51
284.8566239360465
  0
SPLINE
  5
4EE
330
4B1
100
AcDbEntity
  8
0
  6
Continuous
 62
     7
370
    15
100
AcDbSpline
210
0.0
220
0.0
230
1.0
 70
    24
 71
     3
 72
    10
 73
     6
 74
     0
 42
0.0000000001
 43
0.0000000001
 40
0.0
 40
0.0
 40
0.0
 40
0.0
 40
0.2890202571897871
 40
0.5864173301031132
 40
1.0
 40
1.0
 40
1.0
 40
1.0
 10
2421.308590085745
 20
835.6902422201283
 30
0.0
 10
2421.308590085747
 20
835.6391648764393
 30
0.0
 10
2421.308590085745
 20
835.5355297893829
 30
0.0
 10
2421.308590085744
 20
835.4217502661864
 30
0.0
 10
2421.308590085745
 20
835.4043174478197
 30
0.0
 10
2421.308590085745
 20
835.3941766363032
 30
0.0
  0
ARC
  5
4EF
330
4B1
100
AcDbEntity
  8
0
  6
Continuous
 62
     7
370
    15
100
AcDbCircle
 10
2420.808367424058
 20
837.2790559119009
 30
0.0
 40
1.665631164559986
100
AcDbArc
 50
287.4688054624799
 51
72.5311945375201
  0
LINE
  5
4F0
330
4B1
100
AcDbEntity
  8
0
  6
Continuous
 62
     7
370
    15
100
AcDbLine
 10
2420.308185727835
 20
835.6902422201283
 30
0.0
 11
2420.308185727835
 21
838.8678701412327
 31
0.0
  0
LINE
  5
4F1
330
4B1
100
AcDbEntity
  8
0
  6
Continuous
 62
     7
370
    15
100
AcDbLine
 10
2412.808490903616
 20
835.6902422201283
 30
0.0
 11
2412.808490903616
 21
838.8678701412327
 31
0.0
  0
SPLINE
  5
4F2
330
4B1
100
AcDbEntity
  8
0
  6
Continuous
 62
     7
370
    15
100
AcDbSpline
210
0.0
220
0.0
230
1.0
 70
    24
 71
     3
 72
    10
 73
     6
 74
     0
 42
0.0000000001
 43
0.0000000001
 40
0.0
 40
0.0
 40
0.0
 40
0.0
 40
0.2890139387128821
 40
0.5864129453060975
 40
1.0
 40
1.0
 40
1.0
 40
1.0
 10
2413.808418424368
 20
826.1639354568369
 30
0.0
 10
2413.808418424368
 20
826.158824884682
 30
0.0
 10
2413.80841842437
 20
826.1484554689959
 30
0.0
 10
2413.808418424368
 20
826.0604877480696
 30
0.0
 10
2413.808418424368
 20
825.9387094284791
 30
0.0
 10
2413.808418424368
 20
825.8678698730118
 30
0.0
  0
ARC
  5
4F3
330
4B1
100
AcDbEntity
  8
0
  6
Continuous
 62
     7
370
    15
100
AcDbCircle
 10
2413.308367424058
 20
824.279055911901
 30
0.0
 40
1.950069488178246
100
AcDbArc
 50
75.14337606398034
 51
104.8566239357511
  0
SPLINE
  5
4F4
330
4B1
100
AcDbEntity
  8
0
  6
Continuous
 62
     7
370
    15
100
AcDbSpline
210
0.0
220
0.0
230
1.0
 70
    24
 71
     3
 72
    10
 73
     6
 74
     0
 42
0.0000000001
 43
0.0000000001
 40
0.0
 40
0.0
 40
0.0
 40
0.0
 40
0.2890195017761078
 40
0.5864172172754344
 40
0.9999999999999998
 40
0.9999999999999998
 40
0.9999999999999998
 40
0.9999999999999998
 10
2412.808490903616
 20
825.8678698730118
 30
0.0
 10
2412.808490903616
 20
825.9189462832363
 30
0.0
 10
2412.808490903616
 20
826.0225797272365
 30
0.0
 10
2412.808490903618
 20
826.1363627488714
 30
0.0
 10
2412.808490903616
 20
826.1537949894387
 30
0.0
 10
2412.808490903616
 20
826.1639354568369
 30
0.0
  0
ARC
  5
4F5
330
4B1
100
AcDbEntity
  8
0
  6
Continuous
 62
     7
370
    15
100
AcDbCircle
 10
2413.308367424058
 20
824.279055911901
 30
0.0
 40
1.665631164559879
100
AcDbArc
 50
107.4688054621255
 51
252.5311945378745
  0
SPLINE
  5
4F6
330
4B1
100
AcDbEntity
  8
0
  6
Continuous
 62
     7
370
    15
100
AcDbSpline
210
0.0
220
0.0
230
1.0
 70
    24
 71
     3
 72
    10
 73
     6
 74
     0
 42
0.0000000001
 43
0.0000000001
 40
0.0
 40
0.0
 40
0.0
 40
0.0
 40
0.2890139387128821
 40
0.5864129453060975
 40
1.0
 40
1.0
 40
1.0
 40
1.0
 10
2412.808490903616
 20
822.3941763680823
 30
0.0
 10
2412.808490903616
 20
822.3992869402374
 30
0.0
 10
2412.808490903616
 20
822.4096563559236
 30
0.0
 10
2412.808490903616
 20
822.4976240768496
 30
0.0
 10
2412.808490903616
 20
822.6194023964401
 30
0.0
 10
2412.808490903616
 20
822.6902419519074
 30
0.0
  0
ARC
  5
4F7
330
4B1
100
AcDbEntity
  8
0
  6
Continuous
 62
     7
370
    15
100
AcDbCircle
 10
2413.308367424058
 20
824.279055911901
 30
0.0
 40
1.950069488178274
100
AcDbArc
 50
255.1433760642506
 51
284.8566239360196
  0
SPLINE
  5
4F8
330
4B1
100
AcDbEntity
  8
0
  6
Continuous
 62
     7
370
    15
100
AcDbSpline
210
0.0
220
0.0
230
1.0
 70
    24
 71
     3
 72
    10
 73
     6
 74
     0
 42
0.0000000001
 43
0.0000000001
 40
0.0
 40
0.0
 40
0.0
 40
0.0
 40
0.2890195017761078
 40
0.5864172172754344
 40
0.9999999999999998
 40
0.9999999999999998
 40
0.9999999999999998
 40
0.9999999999999998
 10
2413.808418424368
 20
822.6902419519074
 30
0.0
 10
2413.808418424368
 20
822.6391655416829
 30
0.0
 10
2413.808418424368
 20
822.5355320976829
 30
0.0
 10
2413.80841842437
 20
822.4217490760478
 30
0.0
 10
2413.808418424368
 20
822.4043168354805
 30
0.0
 10
2413.808418424368
 20
822.3941763680823
 30
0.0
  0
ARC
  5
4F9
330
4B1
100
AcDbEntity
  8
0
  6
Continuous
 62
     7
370
    15
100
AcDbCircle
 10
2413.308367424058
 20
824.279055911901
 30
0.0
 40
1.665631164559871
100
AcDbArc
 50
287.4688054624511
 51
72.53119453754887
  0
SPLINE
  5
4FA
330
4B1
100
AcDbEntity
  8
0
  6
Continuous
 62
     7
370
    15
100
AcDbSpline
210
0.0
220
0.0
230
1.0
 70
    24
 71
     3
 72
    10
 73
     6
 74
     0
 42
0.0000000001
 43
0.0000000001
 40
0.0
 40
0.0
 40
0.0
 40
0.0
 40
0.2890139387128821
 40
0.5864129453060975
 40
1.0
 40
1.0
 40
1.0
 40
1.0
 10
2421.308590085745
 20
826.1639354568369
 30
0.0
 10
2421.308590085747
 20
826.158824884682
 30
0.0
 10
2421.308590085747
 20
826.1484554689959
 30
0.0
 10
2421.308590085745
 20
826.0604877480696
 30
0.0
 10
2421.308590085745
 20
825.9387094284791
 30
0.0
 10
2421.308590085745
 20
825.8678698730118
 30
0.0
  0
ARC
  5
4FB
330
4B1
100
AcDbEntity
  8
0
  6
Continuous
 62
     7
370
    15
100
AcDbCircle
 10
2420.808367424058
 20
824.279055911901
 30
0.0
 40
1.950069488178252
100
AcDbArc
 50
75.1433760639535
 51
104.8566239357511
  0
SPLINE
  5
4FC
330
4B1
100
AcDbEntity
  8
0
  6
Continuous
 62
     7
370
    15
100
AcDbSpline
210
0.0
220
0.0
230
1.0
 70
    24
 71
     3
 72
    10
 73
     6
 74
     0
 42
0.0000000001
 43
0.0000000001
 40
0.0
 40
0.0
 40
0.0
 40
0.0
 40
0.2890195017761078
 40
0.5864172172754344
 40
0.9999999999999998
 40
0.9999999999999998
 40
0.9999999999999998
 40
0.9999999999999998
 10
2420.308185727835
 20
825.8678698730118
 30
0.0
 10
2420.308185727835
 20
825.9189462832363
 30
0.0
 10
2420.308185727835
 20
826.0225797272365
 30
0.0
 10
2420.308185727837
 20
826.1363627488714
 30
0.0
 10
2420.308185727835
 20
826.1537949894387
 30
0.0
 10
2420.308185727835
 20
826.1639354568369
 30
0.0
  0
ARC
  5
4FD
330
4B1
100
AcDbEntity
  8
0
  6
Continuous
 62
     7
370
    15
100
AcDbCircle
 10
2420.808367424058
 20
824.279055911901
 30
0.0
 40
1.665631164559879
100
AcDbArc
 50
107.4688054621255
 51
252.5311945378745
  0
SPLINE
  5
4FE
330
4B1
100
AcDbEntity
  8
0
  6
Continuous
 62
     7
370
    15
100
AcDbSpline
210
0.0
220
0.0
230
1.0
 70
    24
 71
     3
 72
    10
 73
     6
 74
     0
 42
0.0000000001
 43
0.0000000001
 40
0.0
 40
0.0
 40
0.0
 40
0.0
 40
0.2890139387128821
 40
0.5864129453060975
 40
1.0
 40
1.0
 40
1.0
 40
1.0
 10
2420.308185727835
 20
822.3941763680823
 30
0.0
 10
2420.308185727835
 20
822.3992869402374
 30
0.0
 10
2420.308185727835
 20
822.4096563559236
 30
0.0
 10
2420.308185727835
 20
822.4976240768496
 30
0.0
 10
2420.308185727835
 20
822.6194023964401
 30
0.0
 10
2420.308185727835
 20
822.6902419519074
 30
0.0
  0
ARC
  5
4FF
330
4B1
100
AcDbEntity
  8
0
  6
Continuous
 62
     7
370
    15
100
AcDbCircle
 10
2420.808367424058
 20
824.279055911901
 30
0.0
 40
1.950069488178404
100
AcDbArc
 50
255.1433760642506
 51
284.8566239360465
  0
SPLINE
  5
500
330
4B1
100
AcDbEntity
  8
0
  6
Continuous
 62
     7
370
    15
100
AcDbSpline
210
0.0
220
0.0
230
1.0
 70
    24
 71
     3
 72
    10
 73
     6
 74
     0
 42
0.0000000001
 43
0.0000000001
 40
0.0
 40
0.0
 40
0.0
 40
0.0
 40
0.2890195017761078
 40
0.5864172172754344
 40
0.9999999999999998
 40
0.9999999999999998
 40
0.9999999999999998
 40
0.9999999999999998
 10
2421.308590085745
 20
822.6902419519074
 30
0.0
 10
2421.308590085745
 20
822.6391655416829
 30
0.0
 10
2421.308590085745
 20
822.5355320976829
 30
0.0
 10
2421.308590085745
 20
822.4217490760478
 30
0.0
 10
2421.308590085745
 20
822.4043168354805
 30
0.0
 10
2421.308590085745
 20
822.3941763680823
 30
0.0
  0
ARC
  5
501
330
4B1
100
AcDbEntity
  8
0
  6
Continuous
 62
     7
370
    15
100
AcDbCircle
 10
2420.808367424058
 20
824.279055911901
 30
0.0
 40
1.665631164559959
100
AcDbArc
 50
287.4688054624799
 51
72.5311945375201
  0
LINE
  5
502
330
4B1
100
AcDbEntity
  8
0
  6
Continuous
 62
     7
370
    15
100
AcDbLine
 10
2412.808490903616
 20
822.6902419519074
 30
0.0
 11
2412.808490903616
 21
825.8678698730118
 31
0.0
  0
LINE
  5
503
330
4B1
100
AcDbEntity
  8
0
  6
Continuous
 62
     7
370
    15
100
AcDbLine
 10
2420.308185727835
 20
822.6902419519074
 30
0.0
 11
2420.308185727835
 21
825.8678698730118
 31
0.0
  0
SPLINE
  5
504
330
4B1
100
AcDbEntity
  8
0
  6
Continuous
 62
     7
370
    15
100
AcDbSpline
210
0.0
220
0.0
230
1.0
 70
    24
 71
     3
 72
    10
 73
     6
 74
     0
 42
0.0000000001
 43
0.0000000001
 40
0.0
 40
0.0
 40
0.0
 40
0.0
 40
0.2890138018864455
 40
0.5864125577474353
 40
1.0
 40
1.0
 40
1.0
 40
1.0
 10
2413.808418424368
 20
813.1639356542773
 30
0.0
 10
2413.808418424368
 20
813.1588250248352
 30
0.0
 10
2413.808418424368
 20
813.1484554948567
 30
0.0
 10
2413.808418424368
 20
813.0604887537927
 30
0.0
 10
2413.808418424368
 20
812.9387093677253
 30
0.0
 10
2413.808418424368
 20
812.8678691391296
 30
0.0
  0
ARC
  5
505
330
4B1
100
AcDbEntity
  8
0
  6
Continuous
 62
     7
370
    15
100
AcDbCircle
 10
2413.308367424058
 20
811.2790559119009
 30
0.0
 40
1.950069488178246
100
AcDbArc
 50
75.14337606398034
 51
104.8566239357511
  0
SPLINE
  5
506
330
4B1
100
AcDbEntity
  8
0
  6
Continuous
 62
     7
370
    15
100
AcDbSpline
210
0.0
220
0.0
230
1.0
 70
    24
 71
     3
 72
    10
 73
     6
 74
     0
 42
0.0000000001
 43
0.0000000001
 40
0.0
 40
0.0
 40
0.0
 40
0.0
 40
0.2890199872003474
 40
0.586417417999368
 40
1.0
 40
1.0
 40
1.0
 40
1.0
 10
2412.808490903616
 20
812.8678691391296
 30
0.0
 10
2412.808490903618
 20
812.9189461622676
 30
0.0
 10
2412.808490903618
 20
813.0225807112751
 30
0.0
 10
2412.808490903616
 20
813.1363626454035
 30
0.0
 10
2412.808490903616
 20
813.1537950749478
 30
0.0
 10
2412.808490903616
 20
813.1639356542773
 30
0.0
  0
ARC
  5
507
330
4B1
100
AcDbEntity
  8
0
  6
Continuous
 62
     7
370
    15
100
AcDbCircle
 10
2413.308367424058
 20
811.2790559119009
 30
0.0
 40
1.665631164559879
100
AcDbArc
 50
107.4688054621255
 51
252.5311945378745
  0
SPLINE
  5
508
330
4B1
100
AcDbEntity
  8
0
  6
Continuous
 62
     7
370
    15
100
AcDbSpline
210
0.0
220
0.0
230
1.0
 70
    24
 71
     3
 72
    10
 73
     6
 74
     0
 42
0.0000000001
 43
0.0000000001
 40
0.0
 40
0.0
 40
0.0
 40
0.0
 40
0.289013789672904
 40
0.5864124779981978
 40
1.0
 40
1.0
 40
1.0
 40
1.0
 10
2412.808490903616
 20
809.394176332692
 30
0.0
 10
2412.808490903616
 20
809.3992869862606
 30
0.0
 10
2412.808490903616
 20
809.40965656422
 30
0.0
 10
2412.808490903618
 20
809.4976228777555
 30
0.0
 10
2412.808490903618
 20
809.6194024806633
 30
0.0
 10
2412.808490903616
 20
809.6902428478397
 30
0.0
  0
ARC
  5
509
330
4B1
100
AcDbEntity
  8
0
  6
Continuous
 62
     7
370
    15
100
AcDbCircle
 10
2413.308367424058
 20
811.2790559119009
 30
0.0
 40
1.950069488178274
100
AcDbArc
 50
255.1433760642506
 51
284.8566239360196
  0
SPLINE
  5
50A
330
4B1
100
AcDbEntity
  8
0
  6
Continuous
 62
     7
370
    15
100
AcDbSpline
210
0.0
220
0.0
230
1.0
 70
    24
 71
     3
 72
    10
 73
     6
 74
     0
 42
0.0000000001
 43
0.0000000001
 40
0.0
 40
0.0
 40
0.0
 40
0.0
 40
0.289020163347164
 40
0.586417490605672
 40
1.0
 40
1.0
 40
1.0
 40
1.0
 10
2413.808418424368
 20
809.6902428478397
 30
0.0
 10
2413.808418424368
 20
809.6391656160765
 30
0.0
 10
2413.808418424368
 20
809.5355306941016
 30
0.0
 10
2413.808418424368
 20
809.4217492016564
 30
0.0
 10
2413.808418424368
 20
809.4043168610296
 30
0.0
 10
2413.808418424368
 20
809.394176332692
 30
0.0
  0
ARC
  5
50B
330
4B1
100
AcDbEntity
  8
0
  6
Continuous
 62
     7
370
    15
100
AcDbCircle
 10
2413.308367424058
 20
811.2790559119009
 30
0.0
 40
1.665631164559884
100
AcDbArc
 50
287.4688054624511
 51
72.53119453754887
  0
SPLINE
  5
50C
330
4B1
100
AcDbEntity
  8
0
  6
Continuous
 62
     7
370
    15
100
AcDbSpline
210
0.0
220
0.0
230
1.0
 70
    24
 71
     3
 72
    10
 73
     6
 74
     0
 42
0.0000000001
 43
0.0000000001
 40
0.0
 40
0.0
 40
0.0
 40
0.0
 40
0.2890138018864455
 40
0.5864125577474353
 40
1.0
 40
1.0
 40
1.0
 40
1.0
 10
2421.308590085745
 20
813.1639356542773
 30
0.0
 10
2421.308590085744
 20
813.1588250248352
 30
0.0
 10
2421.308590085745
 20
813.1484554948567
 30
0.0
 10
2421.308590085747
 20
813.0604887537927
 30
0.0
 10
2421.308590085745
 20
812.9387093677253
 30
0.0
 10
2421.308590085745
 20
812.8678691391296
 30
0.0
  0
ARC
  5
50D
330
4B1
100
AcDbEntity
  8
0
  6
Continuous
 62
     7
370
    15
100
AcDbCircle
 10
2420.808367424058
 20
811.2790559119009
 30
0.0
 40
1.950069488178266
100
AcDbArc
 50
75.1433760639535
 51
104.8566239357511
  0
SPLINE
  5
50E
330
4B1
100
AcDbEntity
  8
0
  6
Continuous
 62
     7
370
    15
100
AcDbSpline
210
0.0
220
0.0
230
1.0
 70
    24
 71
     3
 72
    10
 73
     6
 74
     0
 42
0.0000000001
 43
0.0000000001
 40
0.0
 40
0.0
 40
0.0
 40
0.0
 40
0.2890199872003474
 40
0.586417417999368
 40
1.0
 40
1.0
 40
1.0
 40
1.0
 10
2420.308185727835
 20
812.8678691391296
 30
0.0
 10
2420.308185727835
 20
812.9189461622676
 30
0.0
 10
2420.308185727835
 20
813.0225807112751
 30
0.0
 10
2420.308185727835
 20
813.1363626454035
 30
0.0
 10
2420.308185727835
 20
813.1537950749478
 30
0.0
 10
2420.308185727835
 20
813.1639356542773
 30
0.0
  0
ARC
  5
50F
330
4B1
100
AcDbEntity
  8
0
  6
Continuous
 62
     7
370
    15
100
AcDbCircle
 10
2420.808367424058
 20
811.2790559119009
 30
0.0
 40
1.665631164559879
100
AcDbArc
 50
107.4688054621255
 51
252.5311945378745
  0
SPLINE
  5
510
330
4B1
100
AcDbEntity
  8
0
  6
Continuous
 62
     7
370
    15
100
AcDbSpline
210
0.0
220
0.0
230
1.0
 70
    24
 71
     3
 72
    10
 73
     6
 74
     0
 42
0.0000000001
 43
0.0000000001
 40
0.0
 40
0.0
 40
0.0
 40
0.0
 40
0.289013789672904
 40
0.5864124779981978
 40
1.0
 40
1.0
 40
1.0
 40
1.0
 10
2420.308185727835
 20
809.394176332692
 30
0.0
 10
2420.308185727834
 20
809.3992869862606
 30
0.0
 10
2420.308185727835
 20
809.40965656422
 30
0.0
 10
2420.308185727837
 20
809.4976228777555
 30
0.0
 10
2420.308185727837
 20
809.6194024806633
 30
0.0
 10
2420.308185727835
 20
809.6902428478397
 30
0.0
  0
ARC
  5
511
330
4B1
100
AcDbEntity
  8
0
  6
Continuous
 62
     7
370
    15
100
AcDbCircle
 10
2420.808367424058
 20
811.2790559119009
 30
0.0
 40
1.950069488178417
100
AcDbArc
 50
255.1433760642506
 51
284.8566239360465
  0
SPLINE
  5
512
330
4B1
100
AcDbEntity
  8
0
  6
Continuous
 62
     7
370
    15
100
AcDbSpline
210
0.0
220
0.0
230
1.0
 70
    24
 71
     3
 72
    10
 73
     6
 74
     0
 42
0.0000000001
 43
0.0000000001
 40
0.0
 40
0.0
 40
0.0
 40
0.0
 40
0.289020163347164
 40
0.586417490605672
 40
1.0
 40
1.0
 40
1.0
 40
1.0
 10
2421.308590085745
 20
809.6902428478397
 30
0.0
 10
2421.308590085745
 20
809.6391656160765
 30
0.0
 10
2421.308590085747
 20
809.5355306941016
 30
0.0
 10
2421.308590085744
 20
809.4217492016564
 30
0.0
 10
2421.308590085744
 20
809.4043168610296
 30
0.0
 10
2421.308590085745
 20
809.394176332692
 30
0.0
  0
ARC
  5
513
330
4B1
100
AcDbEntity
  8
0
  6
Continuous
 62
     7
370
    15
100
AcDbCircle
 10
2420.808367424058
 20
811.2790559119009
 30
0.0
 40
1.665631164559959
100
AcDbArc
 50
287.4688054624799
 51
72.5311945375201
  0
LINE
  5
514
330
4B1
100
AcDbEntity
  8
0
  6
Continuous
 62
     7
370
    15
100
AcDbLine
 10
2413.808418424368
 20
838.8678701412327
 30
0.0
 11
2413.808418424368
 21
835.6902422201283
 31
0.0
  0
LINE
  5
515
330
4B1
100
AcDbEntity
  8
0
  6
Continuous
 62
     7
370
    15
100
AcDbLine
 10
2412.808490903616
 20
809.6902428478397
 30
0.0
 11
2412.808490903616
 21
812.8678691391296
 31
0.0
  0
LINE
  5
516
330
4B1
100
AcDbEntity
  8
0
  6
Continuous
 62
     7
370
    15
100
AcDbLine
 10
2420.308185727835
 20
809.6902428478397
 30
0.0
 11
2420.308185727835
 21
812.8678691391296
 31
0.0
  0
LINE
  5
517
330
4B1
100
AcDbEntity
  8
0
  6
Continuous
 62
     7
370
    15
100
AcDbLine
 10
2413.808418424368
 20
825.8678698730118
 30
0.0
 11
2413.808418424368
 21
822.6902419519074
 31
0.0
  0
LINE
  5
518
330
4B1
100
AcDbEntity
  8
0
  6
Continuous
 62
     7
370
    15
100
AcDbLine
 10
2421.308590085745
 20
838.8678701412327
 30
0.0
 11
2421.308590085745
 21
835.6902422201283
 31
0.0
  0
LINE
  5
519
330
4B1
100
AcDbEntity
  8
0
  6
Continuous
 62
     7
370
    15
100
AcDbLine
 10
2413.808418424368
 20
812.8678691391296
 30
0.0
 11
2413.808418424368
 21
809.6902428478397
 31
0.0
  0
LINE
  5
51A
330
4B1
100
AcDbEntity
  8
0
  6
Continuous
 62
     7
370
    15
100
AcDbLine
 10
2421.308590085745
 20
825.8678698730118
 30
0.0
 11
2421.308590085745
 21
822.6902419519074
 31
0.0
  0
LINE
  5
51B
330
4B1
100
AcDbEntity
  8
0
  6
Continuous
 62
     7
370
    15
100
AcDbLine
 10
2421.308590085745
 20
812.8678691391296
 30
0.0
 11
2421.308590085745
 21
809.6902428478397
 31
0.0
  0
CIRCLE
  5
51C
330
4B1
100
AcDbEntity
  8
0
  6
Continuous
 62
     7
370
    15
100
AcDbCircle
 10
2417.058367424058
 20
830.7790559119007
 30
0.0
 40
2.150000000000304
  0
CIRCLE
  5
51D
330
4B1
100
AcDbEntity
  8
0
  6
Continuous
 62
     7
370
    15
100
AcDbCircle
 10
2417.058367424058
 20
817.7790559119006
 30
0.0
 40
2.150000000000304
  0
INSERT
  5
51E
330
4B1
100
AcDbEntity
  8
0
  6
Continuous
 62
     7
370
     0
100
AcDbBlockReference
  2
SW_CENTERMARKSYMBOL_3
 10
2420.808367424058
 20
811.2790559119007
 30
0.0
  0
INSERT
  5
51F
330
4B1
100
AcDbEntity
  8
0
  6
Continuous
 62
     7
370
     0
100
AcDbBlockReference
  2
SW_CENTERMARKSYMBOL_4
 10
2413.308367424058
 20
811.2790559119007
 30
0.0
  0
INSERT
  5
520
330
4B1
100
AcDbEntity
  8
0
  6
Continuous
 62
     7
370
     0
100
AcDbBlockReference
  2
SW_CENTERMARKSYMBOL_5
 10
2420.808367424058
 20
824.2790559119008
 30
0.0
  0
INSERT
  5
521
330
4B1
100
AcDbEntity
  8
0
  6
Continuous
 62
     7
370
     0
100
AcDbBlockReference
  2
SW_CENTERMARKSYMBOL_6
 10
2413.308367424058
 20
824.2790559119008
 30
0.0
  0
INSERT
  5
522
330
4B1
100
AcDbEntity
  8
0
  6
Continuous
 62
     7
370
     0
100
AcDbBlockReference
  2
SW_CENTERMARKSYMBOL_7
 10
2420.808367424058
 20
837.2790559119007
 30
0.0
  0
INSERT
  5
523
330
4B1
100
AcDbEntity
  8
0
  6
Continuous
 62
     7
370
     0
100
AcDbBlockReference
  2
SW_CENTERMARKSYMBOL_8
 10
2413.308367424058
 20
837.2790559119007
 30
0.0
  0
INSERT
  5
524
330
4B1
100
AcDbEntity
  8
0
  6
Continuous
 62
     7
370
     0
100
AcDbBlockReference
  2
SW_CENTERMARKSYMBOL_9
 10
2417.058367424058
 20
830.7790559119007
 30
0.0
  0
INSERT
  5
525
330
4B1
100
AcDbEntity
  8
0
  6
Continuous
 62
     7
370
     0
100
AcDbBlockReference
  2
SW_CENTERMARKSYMBOL_10
 10
2417.058367424058
 20
817.7790559119006
 30
0.0
  0
ENDBLK
  5
4B3
330
4B1
100
AcDbEntity
  8
0
100
AcDbBlockEnd
  0
BLOCK
  5
528
330
527
100
AcDbEntity
  8
0
100
AcDbBlockBegin
  2
4
 70
     0
 10
0.0
 20
0.0
 30
0.0
  3
4
  1

  0
LINE
  5
52A
330
527
100
AcDbEntity
  8
0
  6
Continuous
 62
     7
370
    15
100
AcDbLine
 10
2475.089074704456
 20
926.3715953796387
 30
0.0
 11
2450.340338615808
 21
912.0844541460142
 31
0.0
  0
LINE
  5
52B
330
527
100
AcDbEntity
  8
0
  6
Continuous
 62
     7
370
    15
100
AcDbLine
 10
2475.089074704456
 20
926.3715953796387
 30
0.0
 11
2475.796325164249
 21
925.9632420296677
 31
0.0
  0
LINE
  5
52C
330
527
100
AcDbEntity
  8
0
  6
Continuous
 62
     7
370
    15
100
AcDbLine
 10
2450.3404815891
 20
911.2678963329626
 30
0.0
 11
2475.796325164249
 21
925.9632420296677
 31
0.0
  0
LINE
  5
52D
330
527
100
AcDbEntity
  8
0
  6
Continuous
 62
     7
370
    15
100
AcDbLine
 10
2450.340338615808
 20
912.0844541460142
 30
0.0
 11
2450.3404815891
 21
911.2678963329626
 31
0.0
  0
LINE
  5
52E
330
527
100
AcDbEntity
  8
0
  6
Continuous
 62
     7
370
    15
100
AcDbLine
 10
2450.3404815891
 20
911.2678963329626
 30
0.0
 11
2436.90541498298
 21
919.0237951957268
 31
0.0
  0
LINE
  5
52F
330
527
100
AcDbEntity
  8
0
  6
Continuous
 62
     7
370
    15
100
AcDbLine
 10
2437.612327540306
 20
919.4321785391903
 30
0.0
 11
2436.90541498298
 21
919.0237951957268
 31
0.0
  0
LINE
  5
530
330
527
100
AcDbEntity
  8
0
  6
Continuous
 62
     7
370
    15
100
AcDbLine
 10
2450.340338615808
 20
912.0844541460142
 30
0.0
 11
2437.612327540306
 21
919.4321785391903
 31
0.0
  0
LINE
  5
531
330
527
100
AcDbEntity
  8
0
  6
Continuous
 62
     7
370
    15
100
AcDbLine
 10
2450.3404815891
 20
898.2032434351868
 30
0.0
 11
2450.3404815891
 21
911.2678963329626
 31
0.0
  0
LINE
  5
532
330
527
100
AcDbEntity
  8
0
  6
Continuous
 62
     7
370
    15
100
AcDbLine
 10
2475.796325164249
 20
912.8985891318919
 30
0.0
 11
2475.796325164249
 21
925.9632420296677
 31
0.0
  0
LINE
  5
533
330
527
100
AcDbEntity
  8
0
  6
Continuous
 62
     7
370
    15
100
AcDbLine
 10
2450.3404815891
 20
898.2032434351868
 30
0.0
 11
2475.796325164249
 21
912.8985891318919
 31
0.0
  0
LINE
  5
534
330
527
100
AcDbEntity
  8
0
  6
Continuous
 62
     7
370
    15
100
AcDbLine
 10
2455.820576724142
 20
906.6743504519989
 30
0.0
 11
2455.820576724142
 21
909.7361162585469
 31
0.0
  0
LINE
  5
535
330
527
100
AcDbEntity
  8
0
  6
Continuous
 62
     7
370
    15
100
AcDbLine
 10
2455.820576724142
 20
909.7361162585469
 30
0.0
 11
2451.931035217615
 21
907.4907317411826
 31
0.0
  0
LINE
  5
536
330
527
100
AcDbEntity
  8
0
  6
Continuous
 62
     7
370
    15
100
AcDbLine
 10
2451.931035217615
 20
907.4907317411826
 30
0.0
 11
2451.931035217615
 21
904.4289659346343
 31
0.0
  0
LWPOLYLINE
  5
537
330
527
100
AcDbEntity
  8
0
  6
Continuous
 62
     7
370
    15
100
AcDbPolyline
 90
       31
 70
   128
 43
0.0
 10
2451.931035217615
 20
904.4289659346343
 10
2451.941688986029
 20
904.2003712157301
 10
2451.973533234986
 20
903.9865817665853
 10
2452.026219100529
 20
903.7899395604666
 10
2452.099169533037
 20
903.6125989478321
 10
2452.191585224112
 20
903.4565034616607
 10
2452.302453496937
 20
903.3233624323813
 10
2452.430559666166
 20
903.2146354923749
 10
2452.574500373454
 20
903.131513277979
 10
2452.732698404703
 20
903.0749065915006
 10
2452.903420635406
 20
903.0454358481106
 10
2453.084796469886
 20
903.0434238497139
 10
2453.274838914728
 20
903.0688923608913
 10
2453.47146548756
 20
903.1215627723405
 10
2453.672522089297
 20
903.2008577146212
 10
2453.875805888561
 20
903.3059085655793
 10
2454.079089687824
 20
903.4355641933828
 10
2454.280146618834
 20
903.5884044524202
 10
2454.476773191667
 20
903.7627542497023
 10
2454.666815307235
 20
903.9567038848034
 10
2454.848191306352
 20
904.1681280592721
 10
2455.018913372418
 20
904.3947103995481
 10
2455.177111568303
 20
904.6339687401015
 10
2455.321052275591
 20
904.88328135767
 10
2455.449158609456
 20
905.1399166273954
 10
2455.560026882281
 20
905.4010634397986
 10
2455.65244240872
 20
905.6638597166504
 10
2455.725392676592
 20
905.9254270107986
 10
2455.778078542136
 20
906.1828990224764
 10
2455.809922791092
 20
906.4334550588668
 10
2455.820576724142
 20
906.6743504519989
  0
LINE
  5
538
330
527
100
AcDbEntity
  8
0
  6
Continuous
 62
     7
370
    15
100
AcDbLine
 10
2465.012964410684
 20
911.9810029081657
 30
0.0
 11
2465.012964410684
 21
915.0427687147137
 31
0.0
  0
LINE
  5
539
330
527
100
AcDbEntity
  8
0
  6
Continuous
 62
     7
370
    15
100
AcDbLine
 10
2465.012964410684
 20
915.0427687147137
 30
0.0
 11
2461.123423398065
 21
912.7973844824763
 31
0.0
  0
LINE
  5
53A
330
527
100
AcDbEntity
  8
0
  6
Continuous
 62
     7
370
    15
100
AcDbLine
 10
2461.123423398065
 20
912.7973844824763
 30
0.0
 11
2461.123423398065
 21
909.7356186759283
 31
0.0
  0
LWPOLYLINE
  5
53B
330
527
100
AcDbEntity
  8
0
  6
Continuous
 62
     7
370
    15
100
AcDbPolyline
 90
       31
 70
   128
 43
0.0
 10
2461.123423398065
 20
909.7356186759283
 10
2461.134077331115
 20
909.5070240520668
 10
2461.165921250799
 20
909.2932344128367
 10
2461.218607445616
 20
909.0965923968026
 10
2461.291557713487
 20
908.9192516891261
 10
2461.383973239926
 20
908.7631561079124
 10
2461.494841842022
 20
908.6300152687174
 10
2461.622947188072
 20
908.5212878534992
 10
2461.766887895359
 20
908.4381656391032
 10
2461.925086091245
 20
908.3815590476676
 10
2462.095808486584
 20
908.3520883993202
 10
2462.277184814972
 20
908.3500766860504
 10
2462.467226271997
 20
908.3755446269734
 10
2462.663853174102
 20
908.4282152285068
 10
2462.864910763656
 20
908.5075107410425
 10
2463.068194233646
 20
908.6125614019158
 10
2463.271477703638
 20
908.7422168396344
 10
2463.472535293192
 20
908.8950574788414
 10
2463.669160878208
 20
909.0694067058691
 10
2463.859203652321
 20
909.2633567211395
 10
2464.040579980709
 20
909.4747810856933
 10
2464.21130105896
 20
909.7013628557149
 10
2464.369499254845
 20
909.940621196268
 10
2464.513439962132
 20
910.1899338138364
 10
2464.64154662527
 20
910.4465692736471
 10
2464.752415227367
 20
910.7077162761353
 10
2464.844830095262
 20
910.9705121728174
 10
2464.917781021677
 20
911.2320798471351
 10
2464.970467216494
 20
911.4895520488976
 10
2465.002310477633
 20
911.7401075150334
 10
2465.012964410684
 20
911.9810029081657
  0
LINE
  5
53C
330
527
100
AcDbEntity
  8
0
  6
Continuous
 62
     7
370
    15
100
AcDbLine
 10
2474.205352755769
 20
917.2876557445022
 30
0.0
 11
2474.205352755769
 21
920.3494215510504
 31
0.0
  0
LINE
  5
53D
330
527
100
AcDbEntity
  8
0
  6
Continuous
 62
     7
370
    15
100
AcDbLine
 10
2474.205352755769
 20
920.3494215510504
 30
0.0
 11
2470.315811084606
 21
918.1040369386433
 31
0.0
  0
LINE
  5
53E
330
527
100
AcDbEntity
  8
0
  6
Continuous
 62
     7
370
    15
100
AcDbLine
 10
2470.315811084606
 20
918.1040369386433
 30
0.0
 11
2470.315811084606
 21
915.0422711320951
 31
0.0
  0
LWPOLYLINE
  5
53F
330
527
100
AcDbEntity
  8
0
  6
Continuous
 62
     7
370
    15
100
AcDbPolyline
 90
       31
 70
   128
 43
0.0
 10
2470.315811084606
 20
915.0422711320951
 10
2470.326465017657
 20
914.8136765082336
 10
2470.358309595884
 20
914.5998872491732
 10
2470.410995790701
 20
914.4032452331392
 10
2470.483945400029
 20
914.2259041452931
 10
2470.576361585012
 20
914.0698089442489
 10
2470.687230187109
 20
913.9366681050541
 10
2470.815335533157
 20
913.8279406898359
 10
2470.959276240446
 20
913.7448184754399
 10
2471.117474436331
 20
913.6882118840041
 10
2471.288196831669
 20
913.6587412356563
 10
2471.469573160058
 20
913.6567295223869
 10
2471.659614617083
 20
913.6821974633098
 10
2471.856241519187
 20
913.7348680648434
 10
2472.057297791652
 20
913.8141628170398
 10
2472.260582578732
 20
913.9192142382524
 10
2472.463866048724
 20
914.048869675971
 10
2472.664922321189
 20
914.2017095548387
 10
2472.861550540383
 20
914.3760603025446
 10
2473.051590680318
 20
914.5700087971368
 10
2473.232967008707
 20
914.7814331616901
 10
2473.403690721134
 20
915.0080164523908
 10
2473.56188891702
 20
915.2472747929438
 10
2473.705828307219
 20
915.4965866501731
 10
2473.833933653267
 20
915.7532213496445
 10
2473.944803572453
 20
916.0143691124718
 10
2474.037218440347
 20
916.277165009154
 10
2474.110169366765
 20
916.5387326834718
 10
2474.162855561581
 20
916.7962048852343
 10
2474.194700139809
 20
917.0467611117093
 10
2474.205352755769
 20
917.2876557445022
  0
LINE
  5
540
330
527
100
AcDbEntity
  8
0
  6
Continuous
 62
     7
370
    15
100
AcDbLine
 10
2436.90541498298
 20
905.959142297951
 30
0.0
 11
2450.3404815891
 21
898.2032434351868
 31
0.0
  0
LINE
  5
541
330
527
100
AcDbEntity
  8
0
  6
Continuous
 62
     7
370
    15
100
AcDbLine
 10
2436.90541498298
 20
919.0237951957268
 30
0.0
 11
2436.90541498298
 21
905.959142297951
 31
0.0
  0
LINE
  5
542
330
527
100
AcDbEntity
  8
0
  6
Continuous
 62
     7
370
    15
100
AcDbLine
 10
2437.612327540306
 20
919.4321785391903
 30
0.0
 11
2462.361063628955
 21
933.7193197728145
 31
0.0
  0
LINE
  5
543
330
527
100
AcDbEntity
  8
0
  6
Continuous
 62
     7
370
    15
100
AcDbLine
 10
2462.361063628955
 20
933.7193197728145
 30
0.0
 11
2475.089074704456
 21
926.3715953796387
 31
0.0
  0
LWPOLYLINE
  5
544
330
527
100
AcDbEntity
  8
0
  6
Continuous
 62
     7
370
    15
100
AcDbPolyline
 90
       68
 70
   128
 43
0.0
 10
2458.472191039012
 20
924.1264023727362
 10
2458.251088671723
 20
924.2665967750831
 10
2458.054000788463
 20
924.4179293879037
 10
2457.882327454855
 20
924.5792619832583
 10
2457.737280392795
 20
924.7493476046884
 10
2457.620898456077
 20
924.9262489076453
 10
2457.533360768808
 20
925.1089014171022
 10
2457.47601866432
 20
925.2953601851183
 10
2457.449056535074
 20
925.4841744843
 10
2457.452840531817
 20
925.6736092203547
 10
2457.487597193859
 20
925.8618487030219
 10
2457.552416412691
 20
926.0475889503952
 10
2457.647285017421
 20
926.2288758904611
 10
2457.77108084821
 20
926.4042831266847
 10
2457.922598768607
 20
926.5723363611529
 10
2458.100906279589
 20
926.7313293924678
 10
2458.304346483173
 20
926.879916420059
 10
2458.530893696453
 20
927.0169280420766
 10
2458.778510382721
 20
927.1411880136156
 10
2459.045161639449
 20
927.2515216104514
 10
2459.328837588797
 20
927.3467685548046
 10
2459.626555024142
 20
927.4263745593215
 10
2459.935724548484
 20
927.4896233843779
 10
2460.254170330764
 20
927.5356482431664
 10
2460.578456085741
 20
927.564411879061
 10
2460.90592524487
 20
927.5755485688561
 10
2461.233707871184
 20
927.5689587081027
 10
2461.559064419531
 20
927.544617965943
 10
2461.879063049761
 20
927.5027802957055
 10
2462.190931289494
 20
927.4437916517733
 10
2462.491725444783
 20
927.3682884381436
 10
2462.779350027
 20
927.2766181298793
 10
2463.050539972477
 20
927.1700101956371
 10
2463.303230085635
 20
927.0492188920052
 10
2463.535206339839
 20
926.9153018509578
 10
2463.74444568636
 20
926.7694269536663
 10
2463.929116054377
 20
926.6128723305012
 10
2464.0875737168
 20
926.4470248403556
 10
2464.218363290264
 20
926.2733800706408
 10
2464.3205456903
 20
926.0933423680524
 10
2464.393018513403
 20
925.9086110909363
 10
2464.435182484072
 20
925.7207867535287
 10
2464.446597694573
 20
925.5315618711223
 10
2464.427643466544
 20
925.3423233026088
 10
2464.377817989071
 20
925.1551171210563
 10
2464.297754781967
 20
924.9714769308422
 10
2464.188192732174
 20
924.7929971634892
 10
2464.050296146381
 20
924.6211285463902
 10
2463.885305722441
 20
924.4573659066169
 10
2463.694181618244
 20
924.3034314126964
 10
2463.47927088642
 20
924.1602906955442
 10
2463.241934079921
 20
924.0295077731103
 10
2462.984208735455
 20
923.9122588902986
 10
2462.708794885505
 20
923.8093241552368
 10
2462.417686602839
 20
923.7218547216308
 10
2462.113839435212
 20
923.6503889097097
 10
2461.799807218225
 20
923.5956224299354
 10
2461.478397985658
 20
923.5580084445349
 10
2461.151985131921
 20
923.5381384974871
 10
2460.823838989039
 20
923.5359540426646
 10
2460.496767590793
 20
923.5515189485703
 10
2460.173776534319
 20
923.5846218408761
 10
2459.857716000247
 20
923.6349616252184
 10
2459.550943577915
 20
923.7023421340563
 10
2459.256651891099
 20
923.7858813737963
 10
2458.976848183457
 20
923.8851809266428
 10
2458.714704005343
 20
923.9989573398501
 10
2458.472191039012
 20
924.1264023727362
  0
LWPOLYLINE
  5
545
330
527
100
AcDbEntity
  8
0
  6
Continuous
 62
     7
370
    15
100
AcDbPolyline
 90
       68
 70
   128
 43
0.0
 10
2449.279802693926
 20
918.8197495363997
 10
2449.058700985182
 20
918.9599443189161
 10
2448.861613101922
 20
919.1112769317367
 10
2448.689939768314
 20
919.2726095270913
 10
2448.544892047708
 20
919.4426947683522
 10
2448.428510769534
 20
919.6195964514783
 10
2448.340972423721
 20
919.8022485807655
 10
2448.283630977778
 20
919.9887077289515
 10
2448.256668848532
 20
920.1775220281334
 10
2448.260452186731
 20
920.3669563840183
 10
2448.295209507318
 20
920.5551962468556
 10
2448.36002872615
 20
920.7409364942288
 10
2448.45489733088
 20
920.9222234342941
 10
2448.578693161669
 20
921.0976306705177
 10
2448.730211082066
 20
921.2656839049865
 10
2448.908517934502
 20
921.4246765561316
 10
2449.111957479543
 20
921.5732632035527
 10
2449.338505351367
 20
921.7102752057401
 10
2449.586122037636
 20
921.8345351772795
 10
2449.852773952907
 20
921.9448691542849
 10
2450.136449902255
 20
922.0401160986378
 10
2450.434167337601
 20
922.1197221031545
 10
2450.743336861943
 20
922.1829709282109
 10
2451.061781985678
 20
922.2289954068299
 10
2451.386067740656
 20
922.2577590427244
 10
2451.713537558328
 20
922.2688961126893
 10
2452.041320184643
 20
922.2623062519362
 10
2452.3666754159
 20
922.2379647494369
 10
2452.686674704674
 20
922.1961274593688
 10
2452.998543602953
 20
922.1371391956065
 10
2453.299337758242
 20
922.0616359819766
 10
2453.586961681915
 20
921.9699652935432
 10
2453.85815162739
 20
921.8633573593004
 10
2454.11084174055
 20
921.7425660556687
 10
2454.342817994754
 20
921.6086490146212
 10
2454.552057341274
 20
921.4627741173298
 10
2454.736727709292
 20
921.3062194941651
 10
2454.895186030259
 20
921.1403723841886
 10
2455.025975603722
 20
920.966727614474
 10
2455.128157345214
 20
920.7866895317158
 10
2455.200629509772
 20
920.6019578744301
 10
2455.242794797529
 20
920.4141342973622
 10
2455.254210008031
 20
920.2249094149555
 10
2455.235255121459
 20
920.0356704662722
 10
2455.185429643984
 20
919.8484642847196
 10
2455.105367095426
 20
919.6648244746752
 10
2454.995805045633
 20
919.4863447073224
 10
2454.857908459839
 20
919.3144760902232
 10
2454.692918035899
 20
919.1507134504504
 10
2454.501793273158
 20
918.9967785763602
 10
2454.286882541334
 20
918.8536378592075
 10
2454.049545076291
 20
918.7228545566041
 10
2453.791820390368
 20
918.6056060539625
 10
2453.516407198963
 20
918.5026716990703
 10
2453.225298916298
 20
918.415202265464
 10
2452.921451748671
 20
918.3437364535427
 10
2452.607419531684
 20
918.2889699737689
 10
2452.286010299117
 20
918.2513559883684
 10
2451.959596786836
 20
918.2314856611505
 10
2451.631451302497
 20
918.2293015864981
 10
2451.304379904252
 20
918.2448664924033
 10
2450.981388189232
 20
918.2779690045395
 10
2450.665328313704
 20
918.3283091690515
 10
2450.358555232829
 20
918.3956892977201
 10
2450.064264204558
 20
918.4792289176293
 10
2449.784460496916
 20
918.578528470476
 10
2449.522316318802
 20
918.6923048836833
 10
2449.279802693926
 20
918.8197495363997
  0
LWPOLYLINE
  5
546
330
527
100
AcDbEntity
  8
0
  6
Continuous
 62
     7
370
    15
100
AcDbPolyline
 90
       58
 70
   128
 43
0.0
 10
2448.042257787353
 20
915.0439242233391
 10
2447.858437106388
 20
915.162429281724
 10
2447.698304600646
 20
915.2918841765195
 10
2447.564168797901
 20
915.4305072426508
 10
2447.456734834686
 20
915.5771483718766
 10
2447.378147755098
 20
915.7295422282816
 10
2447.329305319938
 20
915.8858713157998
 10
2447.310209340204
 20
916.0445795050025
 10
2447.321666862191
 20
916.2034076377306
 10
2447.363287698276
 20
916.3605732885686
 10
2447.43451537835
 20
916.5141980392654
 10
2447.534651186693
 20
916.6623213549232
 10
2447.662541188687
 20
916.8031092020974
 10
2447.816266879547
 20
916.9350647578236
 10
2447.994181898002
 20
917.0564590105236
 10
2448.194267475861
 20
917.1657372564041
 10
2448.413822922101
 20
917.2617297134456
 10
2448.65050678172
 20
917.3430846884482
 10
2448.901352311711
 20
917.4088681045768
 10
2449.162797444831
 20
917.4585807990776
 10
2449.432395029687
 20
917.4911993552466
 10
2449.706817440881
 20
917.506359950727
 10
2449.982216802852
 20
917.5041770165828
 10
2450.255595421001
 20
917.4844771954543
 10
2450.523478155958
 20
917.447590094429
 10
2450.782604553864
 20
917.393969255902
 10
2451.029942017262
 20
917.3241997609689
 10
2451.262699634524
 20
917.2390062129874
 10
2451.477663708454
 20
917.1396477338445
 10
2451.672550735969
 20
917.0271418476156
 10
2451.844663318762
 20
916.9030457291965
 10
2451.992238862462
 20
916.7686776168563
 10
2452.113096267656
 20
916.6258927384985
 10
2452.205980348512
 20
916.4763022531101
 10
2452.269877605033
 20
916.3216568419391
 10
2452.30400239362
 20
916.1638387249354
 10
2452.307783756185
 20
916.0048540573534
 10
2452.281184814235
 20
915.8466280183121
 10
2452.22468169545
 20
915.6909926453666
 10
2452.138904626924
 20
915.5398689357699
 10
2452.024952060896
 20
915.3950588936746
 10
2451.884025841094
 20
915.2584242098678
 10
2451.717744011372
 20
915.1316775486325
 10
2451.528448026731
 20
915.0161706031681
 10
2451.31816422862
 20
914.9134624492184
 10
2451.089585734806
 20
914.8247184968536
 10
2450.845707605708
 20
914.7508891702035
 10
2450.589122695694
 20
914.6930819985078
 10
2450.323007988103
 20
914.6519631340398
 10
2450.050759596968
 20
914.6279359368014
 10
2449.775631390697
 20
914.6213216501482
 10
2449.500710955219
 20
914.6323455245985
 10
2449.229911691273
 20
914.6605416622449
 10
2448.965592011377
 20
914.7061036644814
 10
2448.71191177655
 20
914.7679293244445
 10
2448.471446389731
 20
914.8455589219818
 10
2448.247536811841
 20
914.93780680299
 10
2448.042257787353
 20
915.0439242233391
  0
LWPOLYLINE
  5
547
330
527
100
AcDbEntity
  8
0
  6
Continuous
 62
     7
370
    15
100
AcDbPolyline
 90
       58
 70
   128
 43
0.0
 10
2442.738835545531
 20
918.1055247155445
 10
2442.555352039353
 20
918.2238351270672
 10
2442.395219533612
 20
918.3532900218633
 10
2442.260746556079
 20
918.4921077348562
 10
2442.153649767652
 20
918.6385542172201
 10
2442.075062688064
 20
918.790948073625
 10
2442.025883078115
 20
918.9474718080054
 10
2442.006787098382
 20
919.106179997208
 10
2442.018244620367
 20
919.2650081299362
 10
2442.059865456452
 20
919.4221737807742
 10
2442.131093136528
 20
919.5757985314708
 10
2442.231228944869
 20
919.7239218471287
 10
2442.359118946865
 20
919.864709694303
 10
2442.512844637724
 20
919.9966652500291
 10
2442.690759656179
 20
920.118059502729
 10
2442.890845234039
 20
920.2273377486097
 10
2443.110737855066
 20
920.3231355587893
 10
2443.347084539898
 20
920.4046851806536
 10
2443.597930069888
 20
920.4704685967822
 10
2443.859712377796
 20
920.519986644421
 10
2444.129309962651
 20
920.5526052005899
 10
2444.403395199059
 20
920.567960442932
 10
2444.67879456103
 20
920.5657775087884
 10
2444.952173179178
 20
920.5460776876599
 10
2445.220055914135
 20
920.5091905866344
 10
2445.479182312041
 20
920.4555697481074
 10
2445.726856950227
 20
920.3856056063127
 10
2445.959277392701
 20
920.3006067051925
 10
2446.174241466631
 20
920.2012482260499
 10
2446.369128494145
 20
920.088742339821
 10
2446.54124107694
 20
919.9646462214021
 10
2446.68881662064
 20
919.8302781090617
 10
2446.809674025832
 20
919.6874932307039
 10
2446.902895281477
 20
919.5377080984538
 10
2446.966792537999
 20
919.3830626872829
 10
2447.000917326585
 20
919.2252445702788
 10
2447.004698689151
 20
919.0662599026966
 10
2446.978099747201
 20
918.9080338636555
 10
2446.921596628416
 20
918.7523984907102
 10
2446.835819559888
 20
918.6012747811137
 10
2446.721529819074
 20
918.4566593858802
 10
2446.580603599271
 20
918.3200247020733
 10
2446.41432176955
 20
918.1932780408379
 10
2446.225025784908
 20
918.0777710953737
 10
2446.015079161585
 20
917.9748682945621
 10
2445.786500667771
 20
917.8861243421973
 10
2445.542285363885
 20
917.812489662409
 10
2445.285700453871
 20
917.7546824907134
 10
2445.019585746281
 20
917.7135636262454
 10
2444.747337355144
 20
917.6895364290068
 10
2444.472209148875
 20
917.6829221423536
 10
2444.197625888185
 20
917.6937513699423
 10
2443.92648944945
 20
917.7221421544505
 10
2443.662506944342
 20
917.7675095098249
 10
2443.408826709515
 20
917.8293351697877
 10
2443.168361322696
 20
917.9069647673252
 10
2442.944114570018
 20
917.9994072951954
 10
2442.738835545531
 20
918.1055247155445
  0
LWPOLYLINE
  5
548
330
527
100
AcDbEntity
  8
0
  6
Continuous
 62
     7
370
    15
100
AcDbPolyline
 90
       58
 70
   128
 43
0.0
 10
2457.234645638531
 20
920.3505767745483
 10
2457.050825451474
 20
920.4690821180602
 10
2456.890693110368
 20
920.5985371078982
 10
2456.756557472259
 20
920.7371602690722
 10
2456.649122521227
 20
920.8838008280434
 10
2456.570535770912
 20
921.036194874533
 10
2456.521694158933
 20
921.192524437264
 10
2456.502597685291
 20
921.3512323413386
 10
2456.514055042641
 20
921.5100603790245
 10
2456.555676372634
 20
921.66722631499
 10
2456.626903229528
 20
921.8208505904744
 10
2456.727038873234
 20
921.9689738110901
 10
2456.854929533772
 20
922.1097620384336
 10
2457.008654895361
 20
922.2417174040755
 10
2457.186569913816
 20
922.3631116567752
 10
2457.386655491675
 20
922.472389902656
 10
2457.60621159646
 20
922.5683827398666
 10
2457.842895126806
 20
922.6497375247847
 10
2458.093739998253
 20
922.7155205607436
 10
2458.355186119189
 20
922.7652338254991
 10
2458.624783704045
 20
922.7978523816675
 10
2458.899205785966
 20
922.8130127870631
 10
2459.174605147938
 20
922.8108298529194
 10
2459.447984095359
 20
922.7911302218757
 10
2459.715866830316
 20
922.7542431208505
 10
2459.974992240406
 20
922.7006217120688
 10
2460.222329703803
 20
922.6308522171358
 10
2460.455088308882
 20
922.5456592394088
 10
2460.670051724266
 20
922.4463003800959
 10
2460.864938751781
 20
922.3337944938668
 10
2461.03705199312
 20
922.2096987556179
 10
2461.184626549004
 20
922.0753300730232
 10
2461.305483954199
 20
921.9325451946653
 10
2461.39836902287
 20
921.7829552795313
 10
2461.462266279392
 20
921.6283098683604
 10
2461.496390738706
 20
921.4704915612719
 10
2461.500172101271
 20
921.3115068936895
 10
2461.473573488593
 20
921.1532810447332
 10
2461.417070369808
 20
920.997645671788
 10
2461.331292313465
 20
920.8465213919369
 10
2461.217340405982
 20
920.7017117300111
 10
2461.076414515452
 20
920.5650772362888
 10
2460.910132027186
 20
920.4383301948842
 10
2460.720836042545
 20
920.3228232494199
 10
2460.510552244434
 20
920.2201150954701
 10
2460.281974079891
 20
920.1313713331897
 10
2460.038095292249
 20
920.0575416263703
 10
2459.781510546871
 20
919.9997345497168
 10
2459.515396662462
 20
919.9586161604612
 10
2459.243147777417
 20
919.9345886780951
 10
2458.968019735784
 20
919.9279744864844
 10
2458.693099794214
 20
919.9389986460625
 10
2458.422299707087
 20
919.9671943084963
 10
2458.157979697918
 20
920.0127561206482
 10
2457.904300450908
 20
920.0745823508658
 10
2457.663834899452
 20
920.1522118533604
 10
2457.439925156926
 20
920.2444596393261
 10
2457.234645638531
 20
920.3505767745483
  0
LWPOLYLINE
  5
549
330
527
100
AcDbEntity
  8
0
  6
Continuous
 62
     7
370
    15
100
AcDbPolyline
 90
       58
 70
   128
 43
0.0
 10
2451.931223396709
 20
923.4121772667537
 10
2451.747740384439
 20
923.5304879634036
 10
2451.587608043333
 20
923.659942953242
 10
2451.453135230437
 20
923.7987607612776
 10
2451.346037454193
 20
923.9452066733871
 10
2451.267450703877
 20
924.0976007198762
 10
2451.21827191711
 20
924.2541249294694
 10
2451.199175443468
 20
924.4128328335442
 10
2451.210632800817
 20
924.5716608712299
 10
2451.252254130811
 20
924.7288268071956
 10
2451.323480987706
 20
924.88245108268
 10
2451.423616631411
 20
925.0305743032956
 10
2451.55150729195
 20
925.171362530639
 10
2451.705232653538
 20
925.3033178962809
 10
2451.883147671992
 20
925.4247121489807
 10
2452.083233249853
 20
925.5339903948614
 10
2452.303126529424
 20
925.6297885852104
 10
2452.539472884984
 20
925.7113380169903
 10
2452.790317756431
 20
925.7771210529492
 10
2453.052101052154
 20
925.8266396708423
 10
2453.32169863701
 20
925.8592582270109
 10
2453.595783544144
 20
925.8746132792682
 10
2453.871182906116
 20
925.8724303451248
 10
2454.144561853536
 20
925.8527307140811
 10
2454.412444588493
 20
925.8158436130559
 10
2454.671569998583
 20
925.7622222042744
 10
2454.919244636768
 20
925.6922580624795
 10
2455.15166606706
 20
925.6072597316139
 10
2455.366629482444
 20
925.5079008723013
 10
2455.561516509958
 20
925.3953949860724
 10
2455.733629751298
 20
925.2712992478235
 10
2455.881204307181
 20
925.1369305652287
 10
2456.002061712375
 20
924.9941456868709
 10
2456.095283955836
 20
924.8443611248751
 10
2456.159181212357
 20
924.6897157137041
 10
2456.193305671671
 20
924.5318974066153
 10
2456.197087034236
 20
924.3729127390327
 10
2456.170488421559
 20
924.2146868900766
 10
2456.113985302774
 20
924.0590515171318
 10
2456.028207246431
 20
923.9079272372805
 10
2455.91391816416
 20
923.7633122222167
 10
2455.772992273629
 20
923.6266777284942
 10
2455.606709785364
 20
923.4999306870898
 10
2455.417413800722
 20
923.3844237416253
 10
2455.207467177399
 20
923.2815209408139
 10
2454.978889012856
 20
923.1927771785333
 10
2454.734673050427
 20
923.1191421185759
 10
2454.478088305049
 20
923.0613350419224
 10
2454.211974420639
 20
923.0202166526666
 10
2453.939725535594
 20
922.9961891703007
 10
2453.664597493961
 20
922.98957497869
 10
2453.39001472718
 20
923.0004044914062
 10
2453.118877465263
 20
923.0287948007017
 10
2452.854894630883
 20
923.0741619659919
 10
2452.601215383874
 20
923.1359881962092
 10
2452.360749832417
 20
923.2136176987038
 10
2452.136502915103
 20
923.3060601315315
 10
2451.931223396709
 20
923.4121772667537
  0
LWPOLYLINE
  5
54A
330
527
100
AcDbEntity
  8
0
  6
Continuous
 62
     7
370
    15
100
AcDbPolyline
 90
       58
 70
   128
 43
0.0
 10
2466.427034642162
 20
925.6572299910544
 10
2466.24321379656
 20
925.7757349543966
 10
2466.083080796909
 20
925.905189564065
 10
2465.948944500256
 20
926.0438123450695
 10
2465.841510866313
 20
926.1904536643799
 10
2465.762924115997
 20
926.3428477108696
 10
2465.714081186929
 20
926.4991765132606
 10
2465.694986030376
 20
926.6578851776753
 10
2465.706443387727
 20
926.816713215361
 10
2465.748063400631
 20
926.9738783909874
 10
2465.819291574614
 20
927.1275034268111
 10
2465.91942721832
 20
927.2756266474267
 10
2466.047317878859
 20
927.4164148747702
 10
2466.201043240446
 20
927.548370240412
 10
2466.378958258901
 20
927.6697644931118
 10
2466.579043836761
 20
927.7790427389925
 10
2466.798599941546
 20
927.8750355762031
 10
2467.035283471892
 20
927.9563903611213
 10
2467.286128343339
 20
928.0221733970803
 10
2467.547573147186
 20
928.0718859014964
 10
2467.817170732041
 20
928.1045044576648
 10
2468.091594131053
 20
928.1196656233996
 10
2468.366992175936
 20
928.1174819289162
 10
2468.640372440445
 20
928.0977830582122
 10
2468.908255175402
 20
928.0608959571866
 10
2469.167381902582
 20
928.0072753087447
 10
2469.414718048889
 20
927.9375050534724
 10
2469.647476653968
 20
927.852312075745
 10
2469.862441386442
 20
927.7529539767717
 10
2470.057328413957
 20
927.6404480905428
 10
2470.229440338207
 20
927.516351591954
 10
2470.377014894089
 20
927.3819829093596
 10
2470.497873616373
 20
927.2391987913414
 10
2470.590757367956
 20
927.0896081158676
 10
2470.654654624477
 20
926.934962704697
 10
2470.688777766703
 20
926.7771436372687
 10
2470.692560446357
 20
926.618159730026
 10
2470.66596051659
 20
926.4599331207305
 10
2470.609457397805
 20
926.3042977477851
 10
2470.523680658552
 20
926.1531742282734
 10
2470.409728751068
 20
926.0083645663478
 10
2470.268802860538
 20
925.8717300726253
 10
2470.102520372273
 20
925.7449830312209
 10
2469.913224387631
 20
925.6294760857564
 10
2469.702940589519
 20
925.5267679318066
 10
2469.474362424977
 20
925.4380241695262
 10
2469.230483637336
 20
925.3641944627069
 10
2468.973898891958
 20
925.3063873860535
 10
2468.70778369046
 20
925.2652682364585
 10
2468.435536122504
 20
925.2412415144318
 10
2468.160408080869
 20
925.234627322821
 10
2467.88548682221
 20
925.2456507220593
 10
2467.614688052172
 20
925.2738471448328
 10
2467.350368043003
 20
925.3194089569847
 10
2467.096687478905
 20
925.3812344268631
 10
2466.856222585994
 20
925.4588643095274
 10
2466.632313502013
 20
925.5511124756626
 10
2466.427034642162
 20
925.6572299910544
  0
LWPOLYLINE
  5
54B
330
527
100
AcDbEntity
  8
0
  6
Continuous
 62
     7
370
    15
100
AcDbPolyline
 90
       58
 70
   128
 43
0.0
 10
2461.123612400339
 20
928.7188304832598
 10
2460.940128729525
 20
928.83714079974
 10
2460.779995729875
 20
928.9665954094088
 10
2460.645522258434
 20
929.1054128372749
 10
2460.538425799278
 20
929.2518595097238
 10
2460.459839048962
 20
929.4042535562129
 10
2460.410658945106
 20
929.5607770054662
 10
2460.391563788554
 20
929.7194856698807
 10
2460.403021145904
 20
929.8783137075666
 10
2460.444641158808
 20
930.035478883193
 10
2460.515869332792
 20
930.1891039190165
 10
2460.616004976497
 20
930.3372271396321
 10
2460.743895637037
 20
930.4780153669756
 10
2460.897620998624
 20
930.6099707326175
 10
2461.075536017079
 20
930.7313649853172
 10
2461.275621594939
 20
930.8406432311981
 10
2461.495514874511
 20
930.9364414215469
 10
2461.731861230069
 20
931.0179908533267
 10
2461.982706101516
 20
931.0837738892857
 10
2462.244488080151
 20
931.1332917468396
 10
2462.514085665006
 20
931.1659103030081
 10
2462.78817188923
 20
931.1812661156048
 10
2463.063569934113
 20
931.1790824211216
 10
2463.336950198621
 20
931.1593835504178
 10
2463.60483293358
 20
931.122496449392
 10
2463.863959660758
 20
931.0688758009503
 10
2464.111632981854
 20
930.9989108988162
 10
2464.344054412146
 20
930.91391256795
 10
2464.559019144619
 20
930.8145544689772
 10
2464.753906172133
 20
930.7020485827482
 10
2464.926018096385
 20
930.5779520841594
 10
2465.073592652267
 20
930.4435834015652
 10
2465.19445137455
 20
930.3007992835469
 10
2465.287672300922
 20
930.1510139612114
 10
2465.351569557443
 20
929.9963685500408
 10
2465.385692699668
 20
929.8385494826121
 10
2465.389475379322
 20
929.6795655753694
 10
2465.362875449556
 20
929.5213389660737
 10
2465.306372330771
 20
929.3657035931289
 10
2465.220595591516
 20
929.2145800736172
 10
2465.106306509246
 20
929.0699650585533
 10
2464.965380618715
 20
928.9333305648309
 10
2464.799098130451
 20
928.8065835234263
 10
2464.609802145807
 20
928.6910765779619
 10
2464.399855522485
 20
928.5881737771504
 10
2464.171277357943
 20
928.4994300148699
 10
2463.927061395513
 20
928.4257949549125
 10
2463.670476650135
 20
928.367987878259
 10
2463.404361448637
 20
928.3268687286639
 10
2463.132113880681
 20
928.3028420066372
 10
2462.856985839047
 20
928.2962278150264
 10
2462.582401755176
 20
928.307056567403
 10
2462.311265810349
 20
928.3354476370384
 10
2462.047282975968
 20
928.3808148023286
 10
2461.79360241187
 20
928.4426402722063
 10
2461.553137518959
 20
928.5202701548708
 10
2461.328891260189
 20
928.612712967868
 10
2461.123612400339
 20
928.7188304832598
  0
ARC
  5
54C
330
527
100
AcDbEntity
  8
0
  6
Continuous
 62
     7
370
    15
100
AcDbCircle
 10
2449.809711222372
 20
911.7524167789785
 30
0.0
 40
2.905140107656891
100
AcDbArc
 50
83.0642057873681
 51
96.92802865519245
  0
ARC
  5
54D
330
527
100
AcDbEntity
  8
0
  6
Continuous
 62
     7
370
    15
100
AcDbCircle
 10
2450.045948001537
 20
907.7516422082357
 30
0.0
 40
2.808088126437636
100
AcDbArc
 50
312.1655946308209
 51
357.1753159930137
  0
LINE
  5
54E
330
527
100
AcDbEntity
  8
0
  6
Continuous
 62
     7
370
    15
100
AcDbLine
 10
2452.850624299021
 20
907.6132594341148
 30
0.0
 11
2452.850624299021
 21
908.0216987297401
 31
0.0
  0
LINE
  5
54F
330
527
100
AcDbEntity
  8
0
  6
Continuous
 62
     7
370
    15
100
AcDbLine
 10
2453.345599192839
 20
907.8990023581066
 30
0.0
 11
2453.345599192839
 21
908.3074416537321
 31
0.0
  0
ARC
  5
550
330
527
100
AcDbEntity
  8
0
  6
Continuous
 62
     7
370
    15
100
AcDbCircle
 10
2449.438689271672
 20
908.0974177616475
 30
0.0
 40
3.911945015522082
100
AcDbArc
 50
309.5751458258078
 51
357.0926878784693
  0
ARC
  5
551
330
527
100
AcDbEntity
  8
0
  6
Continuous
 62
     7
370
    15
100
AcDbCircle
 10
2451.754669663302
 20
916.0578553653012
 30
0.0
 40
4.651207273992715
100
AcDbArc
 50
46.50353057711796
 51
133.4963265432764
  0
ARC
  5
552
330
527
100
AcDbEntity
  8
0
  6
Continuous
 62
     7
370
    15
100
AcDbCircle
 10
2449.754232353831
 20
907.9416233483874
 30
0.0
 40
2.74550534975171
100
AcDbArc
 50
322.4457901288787
 51
357.4076243731894
  0
LINE
  5
553
330
527
100
AcDbEntity
  8
0
  6
Continuous
 62
     7
370
    15
100
AcDbLine
 10
2452.496927946318
 20
907.8176793556043
 30
0.0
 11
2452.496927946318
 21
907.8174439923394
 31
0.0
  0
LINE
  5
554
330
527
100
AcDbEntity
  8
0
  6
Continuous
 62
     7
370
    15
100
AcDbLine
 10
2454.204166058409
 20
920.0294413446432
 30
0.0
 11
2454.634960192295
 21
919.1009092832722
 31
0.0
  0
LINE
  5
555
330
527
100
AcDbEntity
  8
0
  6
Continuous
 62
     7
370
    15
100
AcDbLine
 10
2450.857917679431
 20
920.5471293851271
 30
0.0
 11
2454.204166058409
 21
920.0294413446432
 31
0.0
  0
LINE
  5
556
330
527
100
AcDbEntity
  8
0
  6
Continuous
 62
     7
370
    15
100
AcDbLine
 10
2448.675839013309
 20
919.2874421843706
 30
0.0
 11
2450.857917679431
 21
920.5471293851271
 31
0.0
  0
LINE
  5
557
330
527
100
AcDbEntity
  8
0
  6
Continuous
 62
     7
370
    15
100
AcDbLine
 10
2452.496927946318
 20
907.8174439923394
 30
0.0
 11
2452.850624299021
 21
907.6132594341148
 31
0.0
  0
LINE
  5
558
330
527
100
AcDbEntity
  8
0
  6
Continuous
 62
     7
370
    15
100
AcDbLine
 10
2450.340338615808
 20
898.2032595895796
 30
0.0
 11
2450.3404815891
 21
898.2032434351868
 31
0.0
  0
LINE
  5
559
330
527
100
AcDbEntity
  8
0
  6
Continuous
 62
     7
370
    15
100
AcDbLine
 10
2475.089074704456
 20
912.4904008232018
 30
0.0
 11
2475.796325164249
 21
912.8985891318919
 31
0.0
  0
LINE
  5
55A
330
527
100
AcDbEntity
  8
0
  6
Continuous
 62
     7
370
    15
100
AcDbLine
 10
2450.340338615808
 20
898.2032595895796
 30
0.0
 11
2475.089074704456
 21
912.4904008232018
 31
0.0
  0
LINE
  5
55B
330
527
100
AcDbEntity
  8
0
  6
Continuous
 62
     7
370
    15
100
AcDbLine
 10
2437.612327540306
 20
905.5509839827534
 30
0.0
 11
2436.90541498298
 21
905.959142297951
 31
0.0
  0
LINE
  5
55C
330
527
100
AcDbEntity
  8
0
  6
Continuous
 62
     7
370
    15
100
AcDbLine
 10
2437.612327540306
 20
905.5509839827534
 30
0.0
 11
2450.340338615808
 21
898.2032595895796
 31
0.0
  0
ARC
  5
55D
330
527
100
AcDbEntity
  8
0
  6
Continuous
 62
     7
370
    15
100
AcDbCircle
 10
2444.506681867439
 20
914.8522280342819
 30
0.0
 40
2.867101026282225
100
AcDbArc
 50
82.9479168679196
 51
97.05270191804951
  0
LINE
  5
55E
330
527
100
AcDbEntity
  8
0
  6
Continuous
 62
     7
370
    15
100
AcDbLine
 10
2454.204166058409
 20
920.0294413446432
 30
0.0
 11
2454.204166058409
 21
918.8052436196057
 31
0.0
  0
ARC
  5
55F
330
527
100
AcDbEntity
  8
0
  6
Continuous
 62
     7
370
    15
100
AcDbCircle
 10
2459.002385472351
 20
917.0459066443127
 30
0.0
 40
2.918207297280825
100
AcDbArc
 50
83.10008562769994
 51
96.90401385133101
  0
LINE
  5
560
330
527
100
AcDbEntity
  8
0
  6
Continuous
 62
     7
370
    15
100
AcDbLine
 10
2450.857917679431
 20
920.5471293851271
 30
0.0
 11
2450.857917679431
 21
918.2954801338013
 31
0.0
  0
LINE
  5
561
330
527
100
AcDbEntity
  8
0
  6
Continuous
 62
     7
370
    15
100
AcDbLine
 10
2462.537986879379
 20
913.2056548142735
 30
0.0
 11
2462.537986879379
 21
913.6140941098989
 31
0.0
  0
ARC
  5
562
330
527
100
AcDbEntity
  8
0
  6
Continuous
 62
     7
370
    15
100
AcDbCircle
 10
2458.638568859752
 20
913.4003076517569
 30
0.0
 40
3.904273379124212
100
AcDbArc
 50
309.5255847217071
 51
357.1422565783578
  0
ARC
  5
563
330
527
100
AcDbEntity
  8
0
  6
Continuous
 62
     7
370
    15
100
AcDbCircle
 10
2459.238330242515
 20
913.0582985114056
 30
0.0
 40
2.808094713480842
100
AcDbArc
 50
312.1656318790387
 51
357.1752556849161
  0
LINE
  5
564
330
527
100
AcDbEntity
  8
0
  6
Continuous
 62
     7
370
    15
100
AcDbLine
 10
2462.043012973379
 20
912.9199124605362
 30
0.0
 11
2462.043012973379
 21
913.3283517561615
 31
0.0
  0
ARC
  5
565
330
527
100
AcDbEntity
  8
0
  6
Continuous
 62
     7
370
    15
100
AcDbCircle
 10
2460.947057879448
 20
921.3645072131127
 30
0.0
 40
4.651208079836226
100
AcDbArc
 50
46.5035378065359
 51
133.4963261176611
  0
ARC
  5
566
330
527
100
AcDbEntity
  8
0
  6
Continuous
 62
     7
370
    15
100
AcDbCircle
 10
2458.946614495802
 20
913.2482795337248
 30
0.0
 40
2.745512018332519
100
AcDbArc
 50
322.4457989580824
 51
357.4075646835236
  0
LINE
  5
567
330
527
100
AcDbEntity
  8
0
  6
Continuous
 62
     7
370
    15
100
AcDbLine
 10
2461.689316620676
 20
913.124097018761
 30
0.0
 11
2461.689316620676
 21
913.1243323820259
 31
0.0
  0
LINE
  5
568
330
527
100
AcDbEntity
  8
0
  6
Continuous
 62
     7
370
    15
100
AcDbLine
 10
2463.385433562389
 20
925.3296742560609
 30
0.0
 11
2463.817292562744
 21
924.3990318729503
 31
0.0
  0
LINE
  5
569
330
527
100
AcDbEntity
  8
0
  6
Continuous
 62
     7
370
    15
100
AcDbLine
 10
2460.039184524866
 20
925.8473619163751
 30
0.0
 11
2463.385433562389
 21
925.3296742560609
 31
0.0
  0
LINE
  5
56A
330
527
100
AcDbEntity
  8
0
  6
Continuous
 62
     7
370
    15
100
AcDbLine
 10
2457.86822669985
 20
924.5940946405376
 30
0.0
 11
2460.039184524866
 21
925.8473619163751
 31
0.0
  0
LINE
  5
56B
330
527
100
AcDbEntity
  8
0
  6
Continuous
 62
     7
370
    15
100
AcDbLine
 10
2461.689316620676
 20
913.124097018761
 30
0.0
 11
2462.043012973379
 21
912.9199124605362
 31
0.0
  0
ARC
  5
56C
330
527
100
AcDbEntity
  8
0
  6
Continuous
 62
     7
370
    15
100
AcDbCircle
 10
2453.699449759085
 20
920.1713536910373
 30
0.0
 40
2.854662315928509
100
AcDbArc
 50
82.84660503910236
 51
97.16576191352045
  0
LINE
  5
56D
330
527
100
AcDbEntity
  8
0
  6
Continuous
 62
     7
370
    15
100
AcDbLine
 10
2463.385433562389
 20
925.3296742560609
 30
0.0
 11
2463.385433562389
 21
924.1056339468416
 31
0.0
  0
ARC
  5
56E
330
527
100
AcDbEntity
  8
0
  6
Continuous
 62
     7
370
    15
100
AcDbCircle
 10
2468.194772392102
 20
922.4147633254206
 30
0.0
 40
2.856339906074245
100
AcDbArc
 50
82.98715073758863
 51
97.00785067549759
  0
LINE
  5
56F
330
527
100
AcDbEntity
  8
0
  6
Continuous
 62
     7
370
    15
100
AcDbLine
 10
2460.039184524866
 20
925.8473619163751
 30
0.0
 11
2460.039184524866
 21
923.6038450552079
 31
0.0
  0
LINE
  5
570
330
527
100
AcDbEntity
  8
0
  6
Continuous
 62
     7
370
    15
100
AcDbLine
 10
2471.730376541555
 20
918.5123084109495
 30
0.0
 11
2471.730376541555
 21
918.920747706575
 31
0.0
  0
ARC
  5
571
330
527
100
AcDbEntity
  8
0
  6
Continuous
 62
     7
370
    15
100
AcDbCircle
 10
2467.830941265736
 20
918.7069702635273
 30
0.0
 40
3.904291063324293
100
AcDbArc
 50
309.5256738459095
 51
357.1421370710802
  0
ARC
  5
572
330
527
100
AcDbEntity
  8
0
  6
Continuous
 62
     7
370
    15
100
AcDbCircle
 10
2468.43072199417
 20
918.3649497353135
 30
0.0
 40
2.808091231589293
100
AcDbArc
 50
312.1656024447043
 51
357.1752851192604
  0
LINE
  5
573
330
527
100
AcDbEntity
  8
0
  6
Continuous
 62
     7
370
    15
100
AcDbLine
 10
2471.235401318465
 20
918.2265652968727
 30
0.0
 11
2471.235401318465
 21
918.635004592498
 31
0.0
  0
ARC
  5
574
330
527
100
AcDbEntity
  8
0
  6
Continuous
 62
     7
370
    15
100
AcDbCircle
 10
2468.138988402529
 20
918.5549366169798
 30
0.0
 40
2.745526634010656
100
AcDbArc
 50
322.445941680667
 51
357.4074897748646
  0
LINE
  5
575
330
527
100
AcDbEntity
  8
0
  6
Continuous
 62
     7
370
    15
100
AcDbLine
 10
2470.881704965762
 20
918.4307498550975
 30
0.0
 11
2470.881704965762
 21
918.4309852183623
 31
0.0
  0
LINE
  5
576
330
527
100
AcDbEntity
  8
0
  6
Continuous
 62
     7
370
    15
100
AcDbLine
 10
2470.881704965762
 20
918.4307498550975
 30
0.0
 11
2471.235401318465
 21
918.2265652968727
 31
0.0
  0
ARC
  5
577
330
527
100
AcDbEntity
  8
0
  6
Continuous
 62
     7
370
    15
100
AcDbCircle
 10
2462.891680164605
 20
925.5047769621556
 30
0.0
 40
2.828049691321087
100
AcDbArc
 50
82.82301772901098
 51
97.17895478785463
  0
LINE
  5
578
330
527
100
AcDbEntity
  8
0
  6
Continuous
 62
     8
370
    15
100
AcDbLine
 10
2455.820576724142
 20
906.6743504519989
 30
0.0
 11
2453.345376604794
 21
908.1032530658511
 31
0.0
  0
LINE
  5
579
330
527
100
AcDbEntity
  8
0
  6
Continuous
 62
     8
370
    15
100
AcDbLine
 10
2465.012964410684
 20
911.9810029081657
 30
0.0
 11
2462.537764291337
 21
913.4099055220179
 31
0.0
  0
LINE
  5
57A
330
527
100
AcDbEntity
  8
0
  6
Continuous
 62
     8
370
    15
100
AcDbLine
 10
2474.205352755769
 20
917.2876557445022
 30
0.0
 11
2471.730152636422
 21
918.7165583583546
 31
0.0
  0
ENDBLK
  5
529
330
527
100
AcDbEntity
  8
0
100
AcDbBlockEnd
  0
ENDSEC
  0
SECTION
  2
ENTITIES
  0
INSERT
  5
463
330
1F
100
AcDbEntity
  8
0
100
AcDbBlockReference
  2
1
 10
0.0
 20
0.0
 30
0.0
  0
INSERT
  5
4B0
330
1F
100
AcDbEntity
  8
0
100
AcDbBlockReference
  2
2
 10
0.0
 20
0.0
 30
0.0
  0
INSERT
  5
526
330
1F
100
AcDbEntity
  8
0
100
AcDbBlockReference
  2
3
 10
0.0
 20
0.0
 30
0.0
  0
INSERT
  5
57B
330
1F
100
AcDbEntity
  8
0
100
AcDbBlockReference
  2
4
 10
9.479029375534992
 20
-39.91411125141133
 30
0.0
  0
ENDSEC
  0
SECTION
  2
OBJECTS
  0
DICTIONARY
  5
C
330
0
100
AcDbDictionary
281
     1
  3
ACAD_COLOR
350
6B
  3
ACAD_GROUP
350
D
  3
ACAD_LAYOUT
350
1A
  3
ACAD_MATERIAL
350
6A
  3
ACAD_MLEADERSTYLE
350
12D
  3
ACAD_MLINESTYLE
350
17
  3
ACAD_PLOTSETTINGS
350
19
  3
ACAD_PLOTSTYLENAME
350
E
  3
ACAD_SCALELIST
350
10C
  3
ACAD_TABLESTYLE
350
7E
  3
ACAD_VISUALSTYLE
350
EF
  3
ACDB_RECOMPOSE_DATA
350
15D
  3
AcDbVariableDictionary
350
5E
  3
DWGPROPS
350
5E2
  0
DICTIONARY
  5
13C
330
10
100
AcDbDictionary
280
     1
281
     1
  3
ADSK_XREC_LAYER_RECONCILED
360
57C
  0
DICTIONARY
  5
5CF
330
464
100
AcDbDictionary
280
     1
281
     1
  0
DICTIONARY
  5
6B
102
{ACAD_REACTORS
330
C
102
}
330
C
100
AcDbDictionary
281
     1
  0
DICTIONARY
  5
D
102
{ACAD_REACTORS
330
C
102
}
330
C
100
AcDbDictionary
281
     1
  0
DICTIONARY
  5
1A
102
{ACAD_REACTORS
330
C
102
}
330
C
100
AcDbDictionary
281
     1
  3
Layout1
350
D3
  3
Layout2
350
D7
  3
Model
350
22
  0
DICTIONARY
  5
6A
102
{ACAD_REACTORS
330
C
102
}
330
C
100
AcDbDictionary
281
     1
  3
ByBlock
350
ED
  3
ByLayer
350
EC
  3
Global
350
EE
  0
DICTIONARY
  5
12D
102
{ACAD_REACTORS
330
C
102
}
330
C
100
AcDbDictionary
281
     1
  3
Annotative
350
13B
  3
Standard
350
12E
  0
DICTIONARY
  5
17
102
{ACAD_REACTORS
330
C
102
}
330
C
100
AcDbDictionary
281
     1
  3
Standard
350
18
  0
DICTIONARY
  5
19
102
{ACAD_REACTORS
330
C
102
}
330
C
100
AcDbDictionary
281
     1
  0
ACDBDICTIONARYWDFLT
  5
E
102
{ACAD_REACTORS
330
C
102
}
330
C
100
AcDbDictionary
281
     1
  3
Normal
350
F
100
AcDbDictionaryWithDefault
340
F
  0
DICTIONARY
  5
10C
102
{ACAD_REACTORS
330
C
102
}
330
C
100
AcDbDictionary
281
     1
  3
A0
350
10D
  3
A1
350
188
  3
A2
350
189
  3
A3
350
18A
  3
A4
350
18B
  3
A5
350
18C
  3
A6
350
18D
  3
A7
350
18E
  3
A8
350
18F
  3
A9
350
190
  3
B0
350
191
  3
B1
350
192
  3
B2
350
193
  3
B3
350
194
  3
B4
350
195
  3
B5
350
196
  3
B6
350
197
  3
B7
350
198
  3
B8
350
199
  3
B9
350
19A
  3
C0
350
19B
  3
C1
350
19C
  3
C2
350
19D
  3
C3
350
19E
  3
C4
350
19F
  3
C5
350
1A0
  3
C6
350
1A1
  3
C7
350
1A2
  3
C8
350
1A3
  3
C9
350
1A4
  3
D0
350
1A5
  3
D1
350
1A6
  3
D2
350
1A7
  0
DICTIONARY
  5
7E
102
{ACAD_REACTORS
330
C
102
}
330
C
100
AcDbDictionary
281
     1
  3
Standard
350
7F
  0
DICTIONARY
  5
EF
102
{ACAD_REACTORS
330
C
102
}
330
C
100
AcDbDictionary
281
     1
  3
2dWireframe
350
F5
  3
3D Hidden
350
F7
  3
3dWireframe
350
F6
  3
Basic
350
F4
  3
Brighten
350
FB
  3
ColorChange
350
FF
  3
Conceptual
350
F8
  3
Dim
350
FA
  3
Facepattern
350
FE
  3
Flat
350
F0
  3
FlatWithEdges
350
F1
  3
Gouraud
350
F2
  3
GouraudWithEdges
350
F3
  3
Linepattern
350
FD
  3
Realistic
350
F9
  3
Thicken
350
FC
  0
XRECORD
  5
15D
102
{ACAD_REACTORS
330
C
102
}
330
C
100
AcDbXrecord
280
     1
 90
        1
330
7F
  0
DICTIONARY
  5
5E
102
{ACAD_REACTORS
330
C
102
}
330
C
100
AcDbDictionary
281
     1
  3
CANNOSCALE
350
146
  3
CMLEADERSTYLE
350
145
  3
CTABLESTYLE
350
84
  3
DIMASSOC
350
5F
  3
HIDETEXT
350
63
  3
INDEXCTL
350
5DE
  3
LIGHTINGUNITS
350
5DC
  3
MSLTSCALE
350
5DB
  3
PSOLHEIGHT
350
5E0
  3
PSOLWIDTH
350
5DF
  3
SORTENTS
350
5DD
  0
XRECORD
  5
5E2
102
{ACAD_REACTORS
330
C
102
}
330
C
100
AcDbXrecord
280
     1
  1
DWGPROPS COOKIE
  2

  3

  4

  6

  7

  8
orhan kara
  9

300
=
301
=
302
=
303
=
304
=
305
=
306
=
307
=
308
=
309
=
 40
0.0006761805555556
 41
2459083.460717662
 42
2459083.67740044
  1

 90
        0
  0
XRECORD
  5
57C
102
{ACAD_REACTORS
330
13C
102
}
330
13C
100
AcDbXrecord
280
     1
290
     1
  0
LAYOUT
  5
D3
102
{ACAD_XDICTIONARY
360
5E6
102
}
102
{ACAD_REACTORS
330
1A
102
}
330
1A
100
AcDbPlotSettings
  1

  2
C:\Documents and Settings\basas\Application Data\Autodesk\AutoCAD 2005\R16.1\enu\plotters\Default Windows System Printer.pc3
  4

  6

 40
0.0
 41
0.0
 42
0.0
 43
0.0
 44
0.0
 45
0.0
 46
0.0
 47
0.0
 48
0.0
 49
0.0
140
0.0
141
0.0
142
1.0
143
1.0
 70
   688
 72
     0
 73
     0
 74
     5
  7

 75
    16
147
1.0
148
0.0
149
0.0
100
AcDbLayout
  1
Layout1
 70
     1
 71
     1
 10
0.0
 20
0.0
 11
12.0
 21
9.0
 12
0.0
 22
0.0
 32
0.0
 14
0.0
 24
0.0
 34
0.0
 15
0.0
 25
0.0
 35
0.0
146
0.0
 13
0.0
 23
0.0
 33
0.0
 16
1.0
 26
0.0
 36
0.0
 17
0.0
 27
1.0
 37
0.0
 76
     0
330
D2
  0
LAYOUT
  5
D7
102
{ACAD_XDICTIONARY
360
5E8
102
}
102
{ACAD_REACTORS
330
1A
102
}
330
1A
100
AcDbPlotSettings
  1

  2
C:\Documents and Settings\basas\Application Data\Autodesk\AutoCAD 2005\R16.1\enu\plotters\Default Windows System Printer.pc3
  4

  6

 40
0.0
 41
0.0
 42
0.0
 43
0.0
 44
0.0
 45
0.0
 46
0.0
 47
0.0
 48
0.0
 49
0.0
140
0.0
141
0.0
142
1.0
143
1.0
 70
   688
 72
     0
 73
     0
 74
     5
  7

 75
    16
147
1.0
148
0.0
149
0.0
100
AcDbLayout
  1
Layout2
 70
     1
 71
     2
 10
0.0
 20
0.0
 11
12.0
 21
9.0
 12
0.0
 22
0.0
 32
0.0
 14
0.0
 24
0.0
 34
0.0
 15
0.0
 25
0.0
 35
0.0
146
0.0
 13
0.0
 23
0.0
 33
0.0
 16
1.0
 26
0.0
 36
0.0
 17
0.0
 27
1.0
 37
0.0
 76
     0
330
D6
  0
LAYOUT
  5
22
102
{ACAD_XDICTIONARY
360
5E3
102
}
102
{ACAD_REACTORS
330
1A
102
}
330
1A
100
AcDbPlotSettings
  1

  2
none_device
  4
ISO_A4_(210.00_x_297.00_MM)
  6

 40
7.5
 41
20.0
 42
7.5
 43
20.0
 44
210.0
 45
297.0
 46
11.54999923706054
 47
-13.65000009536743
 48
0.0
 49
0.0
140
0.0
141
0.0
142
1.0
143
8.704084754739808
 70
 11952
 72
     1
 73
     0
 74
     0
  7

 75
     0
147
0.1148885871608098
148
0.0
149
0.0
100
AcDbLayout
  1
Model
 70
     1
 71
     0
 10
0.0
 20
0.0
 11
12.0
 21
9.0
 12
0.0
 22
0.0
 32
0.0
 14
0.0
 24
0.0
 34
0.0
 15
0.0
 25
0.0
 35
0.0
146
0.0
 13
0.0
 23
0.0
 33
0.0
 16
1.0
 26
0.0
 36
0.0
 17
0.0
 27
1.0
 37
0.0
 76
     0
330
1F
331
EA
1001
ACAD_PSEXT
1000
None
1000
None
1000
Not applicable
1000
The layout will not be plotted unless a new plotter configuration name is selected.
1070
     0
  0
MATERIAL
  5
ED
102
{ACAD_XDICTIONARY
360
5EC
102
}
102
{ACAD_REACTORS
330
6A
102
}
330
6A
100
AcDbMaterial
  1
ByBlock
  0
MATERIAL
  5
EC
102
{ACAD_XDICTIONARY
360
5EA
102
}
102
{ACAD_REACTORS
330
6A
102
}
330
6A
100
AcDbMaterial
  1
ByLayer
  0
MATERIAL
  5
EE
102
{ACAD_XDICTIONARY
360
173
102
}
102
{ACAD_REACTORS
330
6A
102
}
330
6A
100
AcDbMaterial
  1
Global
 43
0.0007999999797903
 43
0.0
 43
0.0
 43
0.0
 43
0.0
 43
0.0007999999797903
 43
0.0
 43
0.0
 43
0.0
 43
0.0
 43
1.0
 43
0.0
 43
0.0
 43
0.0
 43
0.0
 43
1.0
 49
0.0007999999797903
 49
0.0
 49
0.0
 49
0.0
 49
0.0
 49
0.0007999999797903
 49
0.0
 49
0.0
 49
0.0
 49
0.0
 49
1.0
 49
0.0
 49
0.0
 49
0.0
 49
0.0
 49
1.0
142
0.0007999999797903
142
0.0
142
0.0
142
0.0
142
0.0
142
0.0007999999797903
142
0.0
142
0.0
142
0.0
142
0.0
142
1.0
142
0.0
142
0.0
142
0.0
142
0.0
142
1.0
144
0.0007999999797903
144
0.0
144
0.0
144
0.0
144
0.0
144
0.0007999999797903
144
0.0
144
0.0
144
0.0
144
0.0
144
1.0
144
0.0
144
0.0
144
0.0
144
0.0
144
1.0
1001
ACAD
1070
    -1
1070
     3
1070
     0
1000

1071
        0
1070
     0
  0
MLEADERSTYLE
  5
13B
102
{ACAD_REACTORS
330
12D
102
}
330
12D
100
AcDbMLeaderStyle
170
     2
171
     1
172
     0
 90
        2
 40
0.0
 41
0.0
173
     1
 91
-1056964608
340
14
 92
       -2
290
     1
 42
2.0
291
     1
 43
8.0
  3
Standard
 44
4.0
300

342
11
174
     1
178
     1
175
     1
176
     0
 93
-1056964608
 45
4.0
292
     0
297
     0
 46
4.0
 94
-1056964608
 47
1.0
 49
1.0
140
1.0
293
     1
141
0.0
294
     1
177
     0
142
1.0
295
     0
296
     1
143
3.75
1001
ACAD_MLEADERVER
1070
     2
  0
MLEADERSTYLE
  5
12E
102
{ACAD_REACTORS
330
12D
102
}
330
12D
100
AcDbMLeaderStyle
170
     2
171
     1
172
     0
 90
        2
 40
0.0
 41
0.0
173
     1
 91
-1056964608
340
14
 92
       -2
290
     1
 42
2.0
291
     1
 43
8.0
  3
Standard
 44
4.0
300

342
11
174
     1
178
     1
175
     1
176
     0
 93
-1056964608
 45
4.0
292
     0
297
     0
 46
4.0
 94
-1056964608
 47
1.0
 49
1.0
140
1.0
293
     1
141
0.0
294
     1
177
     0
142
1.0
295
     0
296
     0
143
3.75
1001
ACAD_MLEADERVER
1070
     2
  0
MLINESTYLE
  5
18
102
{ACAD_REACTORS
330
17
102
}
330
17
100
AcDbMlineStyle
  2
STANDARD
 70
     0
  3

 62
   256
 51
90.0
 52
90.0
 71
     2
 49
0.5
 62
   256
  6
BYLAYER
 49
-0.5
 62
   256
  6
BYLAYER
  0
ACDBPLACEHOLDER
  5
F
102
{ACAD_REACTORS
330
E
102
}
330
E
  0
SCALE
  5
10D
102
{ACAD_REACTORS
330
10C
102
}
330
10C
100
AcDbScale
 70
     0
300
1:1
140
1.0
141
1.0
290
     1
  0
SCALE
  5
188
102
{ACAD_REACTORS
330
10C
102
}
330
10C
100
AcDbScale
 70
     0
300
1:2
140
1.0
141
2.0
290
     0
  0
SCALE
  5
189
102
{ACAD_REACTORS
330
10C
102
}
330
10C
100
AcDbScale
 70
     0
300
1:4
140
1.0
141
4.0
290
     0
  0
SCALE
  5
18A
102
{ACAD_REACTORS
330
10C
102
}
330
10C
100
AcDbScale
 70
     0
300
1:5
140
1.0
141
5.0
290
     0
  0
SCALE
  5
18B
102
{ACAD_REACTORS
330
10C
102
}
330
10C
100
AcDbScale
 70
     0
300
1:8
140
1.0
141
8.0
290
     0
  0
SCALE
  5
18C
102
{ACAD_REACTORS
330
10C
102
}
330
10C
100
AcDbScale
 70
     0
300
1:10
140
1.0
141
10.0
290
     0
  0
SCALE
  5
18D
102
{ACAD_REACTORS
330
10C
102
}
330
10C
100
AcDbScale
 70
     0
300
1:16
140
1.0
141
16.0
290
     0
  0
SCALE
  5
18E
102
{ACAD_REACTORS
330
10C
102
}
330
10C
100
AcDbScale
 70
     0
300
1:20
140
1.0
141
20.0
290
     0
  0
SCALE
  5
18F
102
{ACAD_REACTORS
330
10C
102
}
330
10C
100
AcDbScale
 70
     0
300
1:30
140
1.0
141
30.0
290
     0
  0
SCALE
  5
190
102
{ACAD_REACTORS
330
10C
102
}
330
10C
100
AcDbScale
 70
     0
300
1:40
140
1.0
141
40.0
290
     0
  0
SCALE
  5
191
102
{ACAD_REACTORS
330
10C
102
}
330
10C
100
AcDbScale
 70
     0
300
1:50
140
1.0
141
50.0
290
     0
  0
SCALE
  5
192
102
{ACAD_REACTORS
330
10C
102
}
330
10C
100
AcDbScale
 70
     0
300
1:100
140
1.0
141
100.0
290
     0
  0
SCALE
  5
193
102
{ACAD_REACTORS
330
10C
102
}
330
10C
100
AcDbScale
 70
     0
300
2:1
140
2.0
141
1.0
290
     0
  0
SCALE
  5
194
102
{ACAD_REACTORS
330
10C
102
}
330
10C
100
AcDbScale
 70
     0
300
4:1
140
4.0
141
1.0
290
     0
  0
SCALE
  5
195
102
{ACAD_REACTORS
330
10C
102
}
330
10C
100
AcDbScale
 70
     0
300
8:1
140
8.0
141
1.0
290
     0
  0
SCALE
  5
196
102
{ACAD_REACTORS
330
10C
102
}
330
10C
100
AcDbScale
 70
     0
300
10:1
140
10.0
141
1.0
290
     0
  0
SCALE
  5
197
102
{ACAD_REACTORS
330
10C
102
}
330
10C
100
AcDbScale
 70
     0
300
100:1
140
100.0
141
1.0
290
     0
  0
SCALE
  5
198
102
{ACAD_REACTORS
330
10C
102
}
330
10C
100
AcDbScale
 70
     0
300
1/128" = 1'-0"
140
0.0078125
141
12.0
290
     0
  0
SCALE
  5
199
102
{ACAD_REACTORS
330
10C
102
}
330
10C
100
AcDbScale
 70
     0
300
1/64" = 1'-0"
140
0.015625
141
12.0
290
     0
  0
SCALE
  5
19A
102
{ACAD_REACTORS
330
10C
102
}
330
10C
100
AcDbScale
 70
     0
300
1/32" = 1'-0"
140
0.03125
141
12.0
290
     0
  0
SCALE
  5
19B
102
{ACAD_REACTORS
330
10C
102
}
330
10C
100
AcDbScale
 70
     0
300
1/16" = 1'-0"
140
0.0625
141
12.0
290
     0
  0
SCALE
  5
19C
102
{ACAD_REACTORS
330
10C
102
}
330
10C
100
AcDbScale
 70
     0
300
3/32" = 1'-0"
140
0.09375
141
12.0
290
     0
  0
SCALE
  5
19D
102
{ACAD_REACTORS
330
10C
102
}
330
10C
100
AcDbScale
 70
     0
300
1/8" = 1'-0"
140
0.125
141
12.0
290
     0
  0
SCALE
  5
19E
102
{ACAD_REACTORS
330
10C
102
}
330
10C
100
AcDbScale
 70
     0
300
3/16" = 1'-0"
140
0.1875
141
12.0
290
     0
  0
SCALE
  5
19F
102
{ACAD_REACTORS
330
10C
102
}
330
10C
100
AcDbScale
 70
     0
300
1/4" = 1'-0"
140
0.25
141
12.0
290
     0
  0
SCALE
  5
1A0
102
{ACAD_REACTORS
330
10C
102
}
330
10C
100
AcDbScale
 70
     0
300
3/8" = 1'-0"
140
0.375
141
12.0
290
     0
  0
SCALE
  5
1A1
102
{ACAD_REACTORS
330
10C
102
}
330
10C
100
AcDbScale
 70
     0
300
1/2" = 1'-0"
140
0.5
141
12.0
290
     0
  0
SCALE
  5
1A2
102
{ACAD_REACTORS
330
10C
102
}
330
10C
100
AcDbScale
 70
     0
300
3/4" = 1'-0"
140
0.75
141
12.0
290
     0
  0
SCALE
  5
1A3
102
{ACAD_REACTORS
330
10C
102
}
330
10C
100
AcDbScale
 70
     0
300
1" = 1'-0"
140
1.0
141
12.0
290
     0
  0
SCALE
  5
1A4
102
{ACAD_REACTORS
330
10C
102
}
330
10C
100
AcDbScale
 70
     0
300
1-1/2" = 1'-0"
140
1.5
141
12.0
290
     0
  0
SCALE
  5
1A5
102
{ACAD_REACTORS
330
10C
102
}
330
10C
100
AcDbScale
 70
     0
300
3" = 1'-0"
140
3.0
141
12.0
290
     0
  0
SCALE
  5
1A6
102
{ACAD_REACTORS
330
10C
102
}
330
10C
100
AcDbScale
 70
     0
300
6" = 1'-0"
140
6.0
141
12.0
290
     0
  0
SCALE
  5
1A7
102
{ACAD_REACTORS
330
10C
102
}
330
10C
100
AcDbScale
 70
     0
300
1'-0" = 1'-0"
140
12.0
141
12.0
290
     0
  0
TABLESTYLE
  5
7F
102
{ACAD_XDICTIONARY
360
162
102
}
102
{ACAD_REACTORS
330
7E
102
}
330
7E
100
AcDbTableStyle
  3
Standard
 70
     0
 71
     0
 40
1.5
 41
1.5
280
     0
281
     0
  7
Standard
140
4.5
170
     2
 62
     0
 63
     7
283
     0
274
    -2
284
     1
 64
     0
275
    -2
285
     1
 65
     0
276
    -2
286
     1
 66
     0
277
    -2
287
     1
 67
     0
278
    -2
288
     1
 68
     0
279
    -2
289
     1
 69
     0
  7
Standard
140
6.0
170
     5
 62
     0
 63
     7
283
     0
274
    -2
284
     1
 64
     0
275
    -2
285
     1
 65
     0
276
    -2
286
     1
 66
     0
277
    -2
287
     1
 67
     0
278
    -2
288
     1
 68
     0
279
    -2
289
     1
 69
     0
  7
Standard
140
4.5
170
     5
 62
     0
 63
     7
283
     0
274
    -2
284
     1
 64
     0
275
    -2
285
     1
 65
     0
276
    -2
286
     1
 66
     0
277
    -2
287
     1
 67
     0
278
    -2
288
     1
 68
     0
279
    -2
289
     1
 69
     0
  0
VISUALSTYLE
  5
F5
102
{ACAD_REACTORS
330
EF
102
}
330
EF
100
AcDbVisualStyle
  2
2dWireframe
 70
     4
 71
     0
 72
     2
 73
     1
 90
        0
 40
-0.6
 41
-30.0
 62
     5
 63
     7
 74
     1
 91
        4
 64
     7
 65
   257
 75
     1
175
     1
 42
1.0
 92
        0
 66
   257
 43
1.0
 76
     1
 77
     6
 78
     2
 67
     7
 79
     5
170
     0
171
     0
290
     0
174
     0
 93
        1
 44
0.0
173
     0
291
     0
 45
0.0
1001
ACAD
1000
AcDbSavedByObjectVersion
1070
     0
  0
VISUALSTYLE
  5
F7
102
{ACAD_REACTORS
330
EF
102
}
330
EF
100
AcDbVisualStyle
  2
3D Hidden
 70
     6
 71
     1
 72
     2
 73
     2
 90
        0
 40
-0.6
 41
-30.0
 62
     5
 63
     7
 74
     2
 91
        2
 64
     7
 65
   257
 75
     2
175
     1
 42
40.0
 92
        0
 66
   257
 43
1.0
 76
     1
 77
     6
 78
     2
 67
     7
 79
     3
170
     0
171
     0
290
     0
174
     0
 93
        1
 44
0.0
173
     0
291
     0
 45
0.0
1001
ACAD
1000
AcDbSavedByObjectVersion
1070
     0
  0
VISUALSTYLE
  5
F6
102
{ACAD_REACTORS
330
EF
102
}
330
EF
100
AcDbVisualStyle
  2
3dWireframe
 70
     5
 71
     0
 72
     2
 73
     1
 90
        0
 40
-0.6
 41
-30.0
 62
     5
 63
     7
 74
     1
 91
        4
 64
     7
 65
   257
 75
     1
175
     1
 42
1.0
 92
        0
 66
   257
 43
1.0
 76
     1
 77
     6
 78
     2
 67
     7
 79
     5
170
     0
171
     0
290
     0
174
     0
 93
        1
 44
0.0
173
     0
291
     0
 45
0.0
1001
ACAD
1000
AcDbSavedByObjectVersion
1070
     0
  0
VISUALSTYLE
  5
F4
102
{ACAD_REACTORS
330
EF
102
}
330
EF
100
AcDbVisualStyle
  2
Basic
 70
     7
 71
     1
 72
     0
 73
     1
 90
        0
 40
-0.6
 41
-30.0
 62
     5
 63
     7
 74
     0
 91
        4
 64
     7
 65
   257
 75
     1
175
     1
 42
1.0
 92
        8
 66
     7
 43
1.0
 76
     1
 77
     6
 78
     2
 67
     7
 79
     5
170
     0
171
     0
290
     0
174
     0
 93
        1
 44
0.0
173
     0
291
     1
 45
0.0
1001
ACAD
1000
AcDbSavedByObjectVersion
1070
     0
  0
VISUALSTYLE
  5
FB
102
{ACAD_REACTORS
330
EF
102
}
330
EF
100
AcDbVisualStyle
  2
Brighten
 70
    12
 71
     2
 72
     2
 73
     1
 90
        0
 40
-0.6
 41
-30.0
 62
     5
 63
     7
 74
     1
 91
        4
 64
     7
 65
   257
 75
     1
175
     1
 42
1.0
 92
        8
 66
     7
 43
1.0
 76
     1
 77
     6
 78
     2
 67
     7
 79
     5
170
     0
171
     0
290
     0
174
     0
 93
        1
 44
50.0
173
     0
291
     1
 45
0.0
1001
ACAD
1000
AcDbSavedByObjectVersion
1070
     0
  0
VISUALSTYLE
  5
FF
102
{ACAD_REACTORS
330
EF
102
}
330
EF
100
AcDbVisualStyle
  2
ColorChange
 70
    16
 71
     2
 72
     2
 73
     3
 90
        0
 40
-0.6
 41
-30.0
 62
     5
 63
     8
 74
     1
 91
        4
 64
     7
 65
   257
 75
     1
175
     1
 42
1.0
 92
        8
 66
     8
 43
1.0
 76
     1
 77
     6
 78
     2
 67
     7
 79
     5
170
     0
171
     0
290
     0
174
     0
 93
        1
 44
0.0
173
     0
291
     1
 45
0.0
1001
ACAD
1000
AcDbSavedByObjectVersion
1070
     0
  0
VISUALSTYLE
  5
F8
102
{ACAD_REACTORS
330
EF
102
}
330
EF
100
AcDbVisualStyle
  2
Conceptual
 70
     9
 71
     3
 72
     2
 73
     1
 90
        0
 40
-0.6
 41
-30.0
 62
     5
 63
     7
 74
     2
 91
        2
 64
     7
 65
   257
 75
     1
175
     1
 42
40.0
 92
        8
 66
     7
 43
1.0
 76
     1
 77
     6
 78
     2
 67
     7
 79
     3
170
     0
171
     0
290
     0
174
     0
 93
        1
 44
0.0
173
     0
291
     0
 45
0.0
1001
ACAD
1000
AcDbSavedByObjectVersion
1070
     0
  0
VISUALSTYLE
  5
FA
102
{ACAD_REACTORS
330
EF
102
}
330
EF
100
AcDbVisualStyle
  2
Dim
 70
    11
 71
     2
 72
     2
 73
     1
 90
        0
 40
-0.6
 41
-30.0
 62
     5
 63
     7
 74
     1
 91
        4
 64
     7
 65
   257
 75
     1
175
     1
 42
1.0
 92
        8
 66
     7
 43
1.0
 76
     1
 77
     6
 78
     2
 67
     7
 79
     5
170
     0
171
     0
290
     0
174
     0
 93
        1
 44
-50.0
173
     0
291
     1
 45
0.0
1001
ACAD
1000
AcDbSavedByObjectVersion
1070
     0
  0
VISUALSTYLE
  5
FE
102
{ACAD_REACTORS
330
EF
102
}
330
EF
100
AcDbVisualStyle
  2
Facepattern
 70
    15
 71
     2
 72
     2
 73
     1
 90
        0
 40
-0.6
 41
-30.0
 62
     5
 63
     7
 74
     1
 91
        4
 64
     7
 65
   257
 75
     1
175
     1
 42
1.0
 92
        8
 66
     7
 43
1.0
 76
     1
 77
     6
 78
     2
 67
     7
 79
     5
170
     0
171
     0
290
     0
174
     0
 93
        1
 44
0.0
173
     0
291
     1
 45
0.0
1001
ACAD
1000
AcDbSavedByObjectVersion
1070
     0
  0
VISUALSTYLE
  5
F0
102
{ACAD_REACTORS
330
EF
102
}
330
EF
100
AcDbVisualStyle
  2
Flat
 70
     0
 71
     2
 72
     1
 73
     1
 90
        2
 40
-0.6
 41
30.0
 62
     5
 63
     7
 74
     0
 91
        4
 64
     7
 65
   257
 75
     1
175
     1
 42
1.0
 92
        8
 66
     7
 43
1.0
 76
     1
 77
     6
 78
     2
 67
     7
 79
     5
170
     0
171
     0
290
     0
174
     0
 93
        1
 44
0.0
173
     0
291
     1
 45
0.0
1001
ACAD
1000
AcDbSavedByObjectVersion
1070
     0
  0
VISUALSTYLE
  5
F1
102
{ACAD_REACTORS
330
EF
102
}
330
EF
100
AcDbVisualStyle
  2
FlatWithEdges
 70
     1
 71
     2
 72
     1
 73
     1
 90
        2
 40
-0.6
 41
30.0
 62
     5
 63
     7
 74
     1
 91
        4
 64
     7
 65
   257
 75
     1
175
     1
 42
1.0
 92
        0
 66
   257
 43
1.0
 76
     1
 77
     6
 78
     2
 67
     7
 79
     5
170
     0
171
     0
290
     0
174
     0
 93
        1
 44
0.0
173
     0
291
     1
 45
0.0
1001
ACAD
1000
AcDbSavedByObjectVersion
1070
     0
  0
VISUALSTYLE
  5
F2
102
{ACAD_REACTORS
330
EF
102
}
330
EF
100
AcDbVisualStyle
  2
Gouraud
 70
     2
 71
     2
 72
     2
 73
     1
 90
        2
 40
-0.6
 41
30.0
 62
     5
 63
     7
 74
     0
 91
        4
 64
     7
 65
   257
 75
     1
175
     1
 42
1.0
 92
        0
 66
     7
 43
1.0
 76
     1
 77
     6
 78
     2
 67
     7
 79
     5
170
     0
171
     0
290
     0
174
     0
 93
        1
 44
0.0
173
     0
291
     1
 45
0.0
1001
ACAD
1000
AcDbSavedByObjectVersion
1070
     0
  0
VISUALSTYLE
  5
F3
102
{ACAD_REACTORS
330
EF
102
}
330
EF
100
AcDbVisualStyle
  2
GouraudWithEdges
 70
     3
 71
     2
 72
     2
 73
     1
 90
        2
 40
-0.6
 41
30.0
 62
     5
 63
     7
 74
     1
 91
        4
 64
     7
 65
   257
 75
     1
175
     1
 42
1.0
 92
        0
 66
   257
 43
1.0
 76
     1
 77
     6
 78
     2
 67
     7
 79
     5
170
     0
171
     0
290
     0
174
     0
 93
        1
 44
0.0
173
     0
291
     1
 45
0.0
1001
ACAD
1000
AcDbSavedByObjectVersion
1070
     0
  0
VISUALSTYLE
  5
FD
102
{ACAD_REACTORS
330
EF
102
}
330
EF
100
AcDbVisualStyle
  2
Linepattern
 70
    14
 71
     2
 72
     2
 73
     1
 90
        0
 40
-0.6
 41
-30.0
 62
     5
 63
     7
 74
     1
 91
        4
 64
     7
 65
   257
 75
     7
175
     7
 42
1.0
 92
        8
 66
     7
 43
1.0
 76
     1
 77
     6
 78
     2
 67
     7
 79
     5
170
     0
171
     0
290
     0
174
     0
 93
        1
 44
0.0
173
     0
291
     1
 45
0.0
1001
ACAD
1000
AcDbSavedByObjectVersion
1070
     0
  0
VISUALSTYLE
  5
F9
102
{ACAD_REACTORS
330
EF
102
}
330
EF
100
AcDbVisualStyle
  2
Realistic
 70
     8
 71
     2
 72
     2
 73
     1
 90
        0
 40
-0.6
 41
-30.0
 62
     5
 63
     7
 74
     1
 91
        0
 64
     7
 65
   257
 75
     1
175
     1
 42
1.0
 92
        8
 66
     8
 43
1.0
 76
     1
 77
     6
 78
     2
 67
     7
 79
     5
170
     0
171
     0
290
     0
174
     0
 93
       13
 44
0.0
173
     0
291
     0
 45
0.0
1001
ACAD
1000
AcDbSavedByObjectVersion
1070
     0
  0
VISUALSTYLE
  5
FC
102
{ACAD_REACTORS
330
EF
102
}
330
EF
100
AcDbVisualStyle
  2
Thicken
 70
    13
 71
     2
 72
     2
 73
     1
 90
        0
 40
-0.6
 41
-30.0
 62
     5
 63
     7
 74
     1
 91
        4
 64
     7
 65
   257
 75
     1
175
     1
 42
1.0
 92
       12
 66
     7
 43
1.0
 76
     1
 77
     6
 78
     2
 67
     7
 79
     5
170
     0
171
     0
290
     0
174
     0
 93
        1
 44
0.0
173
     0
291
     1
 45
0.0
1001
ACAD
1000
AcDbSavedByObjectVersion
1070
     0
  0
DICTIONARYVAR
  5
146
102
{ACAD_REACTORS
330
5E
102
}
330
5E
100
DictionaryVariables
280
     0
  1
1:1
  0
DICTIONARYVAR
  5
145
102
{ACAD_REACTORS
330
5E
102
}
330
5E
100
DictionaryVariables
280
     0
  1
STANDARD
  0
DICTIONARYVAR
  5
84
102
{ACAD_REACTORS
330
5E
102
}
330
5E
100
DictionaryVariables
280
     0
  1
STANDARD
  0
DICTIONARYVAR
  5
5F
102
{ACAD_REACTORS
330
5E
102
}
330
5E
100
DictionaryVariables
280
     0
  1
2
  0
DICTIONARYVAR
  5
63
102
{ACAD_REACTORS
330
5E
102
}
330
5E
100
DictionaryVariables
280
     0
  1
1
  0
DICTIONARYVAR
  5
5DE
102
{ACAD_REACTORS
330
5E
102
}
330
5E
100
DictionaryVariables
280
     0
  1
0
  0
DICTIONARYVAR
  5
5DC
102
{ACAD_REACTORS
330
5E
102
}
330
5E
100
DictionaryVariables
280
     0
  1
2
  0
DICTIONARYVAR
  5
5DB
102
{ACAD_REACTORS
330
5E
102
}
330
5E
100
DictionaryVariables
280
     0
  1
1
  0
DICTIONARYVAR
  5
5E0
102
{ACAD_REACTORS
330
5E
102
}
330
5E
100
DictionaryVariables
280
     0
  1
80.000000
  0
DICTIONARYVAR
  5
5DF
102
{ACAD_REACTORS
330
5E
102
}
330
5E
100
DictionaryVariables
280
     0
  1
5.000000
  0
DICTIONARYVAR
  5
5DD
102
{ACAD_REACTORS
330
5E
102
}
330
5E
100
DictionaryVariables
280
     0
  1
127
  0
DICTIONARY
  5
5E6
330
D3
100
AcDbDictionary
280
     1
281
     1
  3
ACAD_XREC_ROUNDTRIP
360
5E7
  0
DICTIONARY
  5
5E8
330
D7
100
AcDbDictionary
280
     1
281
     1
  3
ACAD_XREC_ROUNDTRIP
360
5E9
  0
DICTIONARY
  5
5E3
330
22
100
AcDbDictionary
280
     1
281
     1
  3
ACAD_XREC_ROUNDTRIP
360
5E4
  0
DICTIONARY
  5
5EC
330
ED
100
AcDbDictionary
280
     1
281
     1
  3
ACAD_XREC_ROUNDTRIP
360
5ED
  0
DICTIONARY
  5
5EA
330
EC
100
AcDbDictionary
280
     1
281
     1
  3
ACAD_XREC_ROUNDTRIP
360
5EB
  0
DICTIONARY
  5
173
330
EE
100
AcDbDictionary
280
     1
281
     1
  3
ACAD_XREC_ROUNDTRIP
360
5EE
  3
BUMPTILE
360
175
  3
DIFFUSETILE
360
174
  3
OPACITYTILE
360
176
  3
REFLECTIONTILE
360
177
  0
DICTIONARY
  5
162
330
7F
100
AcDbDictionary
280
     1
281
     1
  3
ACAD_ROUNDTRIP_2008_TABLESTYLE_CELLSTYLEMAP
360
5E1
  3
ACAD_XREC_ROUNDTRIP
360
5E5
  0
XRECORD
  5
5E7
102
{ACAD_REACTORS
330
5E6
102
}
330
5E6
100
AcDbXrecord
280
     1
102
SHADEPLOT
 70
     0
102
SHADEPLOTRESLEVEL
 70
     2
102
SHADEPLOTCUSTOMDPI
 70
   300
  0
XRECORD
  5
5E9
102
{ACAD_REACTORS
330
5E8
102
}
330
5E8
100
AcDbXrecord
280
     1
102
SHADEPLOT
 70
     0
102
SHADEPLOTRESLEVEL
 70
     2
102
SHADEPLOTCUSTOMDPI
 70
   300
  0
XRECORD
  5
5E4
102
{ACAD_REACTORS
330
5E3
102
}
330
5E3
100
AcDbXrecord
280
     1
102
SHADEPLOT
 70
     0
102
SHADEPLOTRESLEVEL
 70
     2
102
SHADEPLOTCUSTOMDPI
 70
   300
  0
XRECORD
  5
5ED
102
{ACAD_REACTORS
330
5EC
102
}
330
5EC
100
AcDbXrecord
280
     1
102
MATERIAL
148
0.0
149
0.0
149
0.0
 93
        0
 94
       63
282
     0
 72
     1
 77
     1
171
     1
175
     1
179
     1
273
     0
  0
XRECORD
  5
5EB
102
{ACAD_REACTORS
330
5EA
102
}
330
5EA
100
AcDbXrecord
280
     1
102
MATERIAL
148
0.0
149
0.0
149
0.0
 93
        0
 94
       63
282
     0
 72
     1
 77
     1
171
     1
175
     1
179
     1
273
     0
  0
XRECORD
  5
5EE
102
{ACAD_REACTORS
330
173
102
}
330
173
100
AcDbXrecord
280
     1
102
MATERIAL
148
0.0
149
0.0
149
0.0
 93
        0
 94
       63
282
     0
 72
     1
 77
     1
171
     1
175
     1
179
     1
273
     0
  0
XRECORD
  5
175
102
{ACAD_REACTORS
330
173
102
}
330
173
100
AcDbXrecord
280
     1
270
     1
271
     1
  0
XRECORD
  5
174
102
{ACAD_REACTORS
330
173
102
}
330
173
100
AcDbXrecord
280
     1
270
     1
271
     1
  0
XRECORD
  5
176
102
{ACAD_REACTORS
330
173
102
}
330
173
100
AcDbXrecord
280
     1
270
     1
271
     1
  0
XRECORD
  5
177
102
{ACAD_REACTORS
330
173
102
}
330
173
100
AcDbXrecord
280
     1
270
     1
271
     1
  0
CELLSTYLEMAP
  5
5E1
102
{ACAD_REACTORS
330
162
102
}
330
162
100
AcDbCellStyleMap
 90
        3
300
CELLSTYLE
  1
TABLEFORMAT_BEGIN
 90
        5
170
     1
 91
        0
 92
    32768
 62
   257
 93
        1
300
CONTENTFORMAT
  1
CONTENTFORMAT_BEGIN
 90
        0
 91
        0
 92
      512
 93
        0
300

 40
0.0
140
1.0
 94
        5
 62
     0
340
11
144
6.0
309
CONTENTFORMAT_END
171
     1
301
MARGIN
  1
CELLMARGIN_BEGIN
 40
1.5
 40
1.5
 40
1.5
 40
1.5
 40
4.5
 40
4.5
309
CELLMARGIN_END
 94
        6
 95
        1
302
GRIDFORMAT
  1
GRIDFORMAT_BEGIN
 90
        0
 91
        1
 62
     0
 92
       -2
340
14
 93
        0
 40
1.125
309
GRIDFORMAT_END
 95
        2
302
GRIDFORMAT
  1
GRIDFORMAT_BEGIN
 90
        0
 91
        1
 62
     0
 92
       -2
340
14
 93
        0
 40
1.125
309
GRIDFORMAT_END
 95
        4
302
GRIDFORMAT
  1
GRIDFORMAT_BEGIN
 90
        0
 91
        1
 62
     0
 92
       -2
340
14
 93
        0
 40
1.125
309
GRIDFORMAT_END
 95
        8
302
GRIDFORMAT
  1
GRIDFORMAT_BEGIN
 90
        0
 91
        1
 62
     0
 92
       -2
340
14
 93
        0
 40
1.125
309
GRIDFORMAT_END
 95
       16
302
GRIDFORMAT
  1
GRIDFORMAT_BEGIN
 90
        0
 91
        1
 62
     0
 92
       -2
340
14
 93
        0
 40
1.125
309
GRIDFORMAT_END
 95
       32
302
GRIDFORMAT
  1
GRIDFORMAT_BEGIN
 90
        0
 91
        1
 62
     0
 92
       -2
340
14
 93
        0
 40
1.125
309
GRIDFORMAT_END
309
TABLEFORMAT_END
  1
CELLSTYLE_BEGIN
 90
        1
 91
        1
300
_TITLE
309
CELLSTYLE_END
300
CELLSTYLE
  1
TABLEFORMAT_BEGIN
 90
        5
170
     1
 91
        0
 92
        0
 62
   257
 93
        1
300
CONTENTFORMAT
  1
CONTENTFORMAT_BEGIN
 90
        0
 91
        0
 92
      512
 93
        0
300

 40
0.0
140
1.0
 94
        5
 62
     0
340
11
144
4.5
309
CONTENTFORMAT_END
171
     1
301
MARGIN
  1
CELLMARGIN_BEGIN
 40
1.5
 40
1.5
 40
1.5
 40
1.5
 40
4.5
 40
4.5
309
CELLMARGIN_END
 94
        6
 95
        1
302
GRIDFORMAT
  1
GRIDFORMAT_BEGIN
 90
        0
 91
        1
 62
     0
 92
       -2
340
14
 93
        0
 40
1.125
309
GRIDFORMAT_END
 95
        2
302
GRIDFORMAT
  1
GRIDFORMAT_BEGIN
 90
        0
 91
        1
 62
     0
 92
       -2
340
14
 93
        0
 40
1.125
309
GRIDFORMAT_END
 95
        4
302
GRIDFORMAT
  1
GRIDFORMAT_BEGIN
 90
        0
 91
        1
 62
     0
 92
       -2
340
14
 93
        0
 40
1.125
309
GRIDFORMAT_END
 95
        8
302
GRIDFORMAT
  1
GRIDFORMAT_BEGIN
 90
        0
 91
        1
 62
     0
 92
       -2
340
14
 93
        0
 40
1.125
309
GRIDFORMAT_END
 95
       16
302
GRIDFORMAT
  1
GRIDFORMAT_BEGIN
 90
        0
 91
        1
 62
     0
 92
       -2
340
14
 93
        0
 40
1.125
309
GRIDFORMAT_END
 95
       32
302
GRIDFORMAT
  1
GRIDFORMAT_BEGIN
 90
        0
 91
        1
 62
     0
 92
       -2
340
14
 93
        0
 40
1.125
309
GRIDFORMAT_END
309
TABLEFORMAT_END
  1
CELLSTYLE_BEGIN
 90
        2
 91
        1
300
_HEADER
309
CELLSTYLE_END
300
CELLSTYLE
  1
TABLEFORMAT_BEGIN
 90
        5
170
     1
 91
        0
 92
        0
 62
   257
 93
        1
300
CONTENTFORMAT
  1
CONTENTFORMAT_BEGIN
 90
        0
 91
        0
 92
      512
 93
        0
300

 40
0.0
140
1.0
 94
        2
 62
     0
340
11
144
4.5
309
CONTENTFORMAT_END
171
     1
301
MARGIN
  1
CELLMARGIN_BEGIN
 40
1.5
 40
1.5
 40
1.5
 40
1.5
 40
4.5
 40
4.5
309
CELLMARGIN_END
 94
        6
 95
        1
302
GRIDFORMAT
  1
GRIDFORMAT_BEGIN
 90
        0
 91
        1
 62
     0
 92
       -2
340
14
 93
        0
 40
1.125
309
GRIDFORMAT_END
 95
        2
302
GRIDFORMAT
  1
GRIDFORMAT_BEGIN
 90
        0
 91
        1
 62
     0
 92
       -2
340
14
 93
        0
 40
1.125
309
GRIDFORMAT_END
 95
        4
302
GRIDFORMAT
  1
GRIDFORMAT_BEGIN
 90
        0
 91
        1
 62
     0
 92
       -2
340
14
 93
        0
 40
1.125
309
GRIDFORMAT_END
 95
        8
302
GRIDFORMAT
  1
GRIDFORMAT_BEGIN
 90
        0
 91
        1
 62
     0
 92
       -2
340
14
 93
        0
 40
1.125
309
GRIDFORMAT_END
 95
       16
302
GRIDFORMAT
  1
GRIDFORMAT_BEGIN
 90
        0
 91
        1
 62
     0
 92
       -2
340
14
 93
        0
 40
1.125
309
GRIDFORMAT_END
 95
       32
302
GRIDFORMAT
  1
GRIDFORMAT_BEGIN
 90
        0
 91
        1
 62
     0
 92
       -2
340
14
 93
        0
 40
1.125
309
GRIDFORMAT_END
309
TABLEFORMAT_END
  1
CELLSTYLE_BEGIN
 90
        3
 91
        2
300
_DATA
309
CELLSTYLE_END
  0
XRECORD
  5
5E5
102
{ACAD_REACTORS
330
162
102
}
330
162
100
AcDbXrecord
280
     1
102
ACAD_ROUNDTRIP_PRE2007_TABLESTYLE
 90
      512
 91
        0
  1

 92
      512
 93
        0
  2

 94
      512
 95
        0
  3

  0
ENDSEC
  0
EOF
