  0
SECTION
  2
HEADER
  9
$ACADVER
  1
AC1015
  9
$ACADMAINTVER
 70
    20
  9
$DWGCODEPAGE
  3
ANSI_1254
  9
$INSBASE
 10
0.0
 20
0.0
 30
0.0
  9
$EXTMIN
 10
2217.995418448225
 20
733.5711257970075
 30
0.0
  9
$EXTMAX
 10
2316.512822927192
 20
782.2545029206148
 30
0.0
  9
$LIMMIN
 10
0.0
 20
0.0
  9
$LIMMAX
 10
420.0
 20
297.0
  9
$ORTHOMODE
 70
     0
  9
$REGENMODE
 70
     1
  9
$FILLMODE
 70
     1
  9
$QTEXTMODE
 70
     0
  9
$MIRRTEXT
 70
     0
  9
$LTSCALE
 40
1.0
  9
$ATTMODE
 70
     1
  9
$TEXTSIZE
 40
2.5
  9
$TRACEWID
 40
1.0
  9
$TEXTSTYLE
  7
Standard
  9
$CLAYER
  8
0
  9
$CELTYPE
  6
ByLayer
  9
$CECOLOR
 62
   256
  9
$CELTSCALE
 40
1.0
  9
$DISPSILH
 70
     0
  9
$DIMSCALE
 40
1.0
  9
$DIMASZ
 40
2.5
  9
$DIMEXO
 40
0.625
  9
$DIMDLI
 40
3.75
  9
$DIMRND
 40
0.0
  9
$DIMDLE
 40
0.0
  9
$DIMEXE
 40
1.25
  9
$DIMTP
 40
0.0
  9
$DIMTM
 40
0.0
  9
$DIMTXT
 40
2.5
  9
$DIMCEN
 40
2.5
  9
$DIMTSZ
 40
0.0
  9
$DIMTOL
 70
     0
  9
$DIMLIM
 70
     0
  9
$DIMTIH
 70
     0
  9
$DIMTOH
 70
     0
  9
$DIMSE1
 70
     0
  9
$DIMSE2
 70
     0
  9
$DIMTAD
 70
     1
  9
$DIMZIN
 70
     8
  9
$DIMBLK
  1

  9
$DIMASO
 70
     1
  9
$DIMSHO
 70
     1
  9
$DIMPOST
  1

  9
$DIMAPOST
  1

  9
$DIMALT
 70
     0
  9
$DIMALTD
 70
     3
  9
$DIMALTF
 40
0.03937007874016
  9
$DIMLFAC
 40
1.0
  9
$DIMTOFL
 70
     1
  9
$DIMTVP
 40
0.0
  9
$DIMTIX
 70
     0
  9
$DIMSOXD
 70
     0
  9
$DIMSAH
 70
     0
  9
$DIMBLK1
  1

  9
$DIMBLK2
  1

  9
$DIMSTYLE
  2
ISO-25
  9
$DIMCLRD
 70
     0
  9
$DIMCLRE
 70
     0
  9
$DIMCLRT
 70
     0
  9
$DIMTFAC
 40
1.0
  9
$DIMGAP
 40
0.625
  9
$DIMJUST
 70
     0
  9
$DIMSD1
 70
     0
  9
$DIMSD2
 70
     0
  9
$DIMTOLJ
 70
     0
  9
$DIMTZIN
 70
     8
  9
$DIMALTZ
 70
     0
  9
$DIMALTTZ
 70
     0
  9
$DIMUPT
 70
     0
  9
$DIMDEC
 70
     2
  9
$DIMTDEC
 70
     2
  9
$DIMALTU
 70
     2
  9
$DIMALTTD
 70
     3
  9
$DIMTXSTY
  7
Standard
  9
$DIMAUNIT
 70
     0
  9
$DIMADEC
 70
     0
  9
$DIMALTRND
 40
0.0
  9
$DIMAZIN
 70
     0
  9
$DIMDSEP
 70
    44
  9
$DIMATFIT
 70
     3
  9
$DIMFRAC
 70
     0
  9
$DIMLDRBLK
  1

  9
$DIMLUNIT
 70
     2
  9
$DIMLWD
 70
    -2
  9
$DIMLWE
 70
    -2
  9
$DIMTMOVE
 70
     0
  9
$LUNITS
 70
     2
  9
$LUPREC
 70
     4
  9
$SKETCHINC
 40
1.0
  9
$FILLETRAD
 40
0.0
  9
$AUNITS
 70
     0
  9
$AUPREC
 70
     0
  9
$MENU
  1
.
  9
$ELEVATION
 40
0.0
  9
$PELEVATION
 40
0.0
  9
$THICKNESS
 40
0.0
  9
$LIMCHECK
 70
     0
  9
$CHAMFERA
 40
0.0
  9
$CHAMFERB
 40
0.0
  9
$CHAMFERC
 40
0.0
  9
$CHAMFERD
 40
0.0
  9
$SKPOLY
 70
     0
  9
$TDCREATE
 40
2459083.449793021
  9
$TDUCREATE
 40
2459083.324793021
  9
$TDUPDATE
 40
2459083.677111447
  9
$TDUUPDATE
 40
2459083.552111447
  9
$TDINDWG
 40
0.0004450231
  9
$TDUSRTIMER
 40
0.0004449074
  9
$USRTIMER
 70
     1
  9
$ANGBASE
 50
0.0
  9
$ANGDIR
 70
     0
  9
$PDMODE
 70
     0
  9
$PDSIZE
 40
0.0
  9
$PLINEWID
 40
0.0
  9
$SPLFRAME
 70
     0
  9
$SPLINETYPE
 70
     6
  9
$SPLINESEGS
 70
     8
  9
$HANDSEED
  5
42E
  9
$SURFTAB1
 70
     6
  9
$SURFTAB2
 70
     6
  9
$SURFTYPE
 70
     6
  9
$SURFU
 70
     6
  9
$SURFV
 70
     6
  9
$UCSBASE
  2

  9
$UCSNAME
  2

  9
$UCSORG
 10
0.0
 20
0.0
 30
0.0
  9
$UCSXDIR
 10
1.0
 20
0.0
 30
0.0
  9
$UCSYDIR
 10
0.0
 20
1.0
 30
0.0
  9
$UCSORTHOREF
  2

  9
$UCSORTHOVIEW
 70
     0
  9
$UCSORGTOP
 10
0.0
 20
0.0
 30
0.0
  9
$UCSORGBOTTOM
 10
0.0
 20
0.0
 30
0.0
  9
$UCSORGLEFT
 10
0.0
 20
0.0
 30
0.0
  9
$UCSORGRIGHT
 10
0.0
 20
0.0
 30
0.0
  9
$UCSORGFRONT
 10
0.0
 20
0.0
 30
0.0
  9
$UCSORGBACK
 10
0.0
 20
0.0
 30
0.0
  9
$PUCSBASE
  2

  9
$PUCSNAME
  2

  9
$PUCSORG
 10
0.0
 20
0.0
 30
0.0
  9
$PUCSXDIR
 10
1.0
 20
0.0
 30
0.0
  9
$PUCSYDIR
 10
0.0
 20
1.0
 30
0.0
  9
$PUCSORTHOREF
  2

  9
$PUCSORTHOVIEW
 70
     0
  9
$PUCSORGTOP
 10
0.0
 20
0.0
 30
0.0
  9
$PUCSORGBOTTOM
 10
0.0
 20
0.0
 30
0.0
  9
$PUCSORGLEFT
 10
0.0
 20
0.0
 30
0.0
  9
$PUCSORGRIGHT
 10
0.0
 20
0.0
 30
0.0
  9
$PUCSORGFRONT
 10
0.0
 20
0.0
 30
0.0
  9
$PUCSORGBACK
 10
0.0
 20
0.0
 30
0.0
  9
$USERI1
 70
     0
  9
$USERI2
 70
     0
  9
$USERI3
 70
     0
  9
$USERI4
 70
     0
  9
$USERI5
 70
     0
  9
$USERR1
 40
0.0
  9
$USERR2
 40
0.0
  9
$USERR3
 40
0.0
  9
$USERR4
 40
0.0
  9
$USERR5
 40
0.0
  9
$WORLDVIEW
 70
     1
  9
$SHADEDGE
 70
     3
  9
$SHADEDIF
 70
    70
  9
$TILEMODE
 70
     1
  9
$MAXACTVP
 70
    64
  9
$PINSBASE
 10
0.0
 20
0.0
 30
0.0
  9
$PLIMCHECK
 70
     0
  9
$PEXTMIN
 10
0.0
 20
0.0
 30
0.0
  9
$PEXTMAX
 10
0.0
 20
0.0
 30
0.0
  9
$PLIMMIN
 10
0.0
 20
0.0
  9
$PLIMMAX
 10
12.0
 20
9.0
  9
$UNITMODE
 70
     0
  9
$VISRETAIN
 70
     1
  9
$PLINEGEN
 70
     0
  9
$PSLTSCALE
 70
     1
  9
$TREEDEPTH
 70
  3020
  9
$CMLSTYLE
  2
Standard
  9
$CMLJUST
 70
     0
  9
$CMLSCALE
 40
20.0
  9
$PROXYGRAPHICS
 70
     1
  9
$MEASUREMENT
 70
     1
  9
$CELWEIGHT
370
    -1
  9
$ENDCAPS
280
     0
  9
$JOINSTYLE
280
     0
  9
$LWDISPLAY
290
     0
  9
$INSUNITS
 70
     4
  9
$HYPERLINKBASE
  1

  9
$STYLESHEET
  1

  9
$XEDIT
290
     1
  9
$CEPSNTYPE
380
     0
  9
$PSTYLEMODE
290
     1
  9
$FINGERPRINTGUID
  2
{83BC8F9E-CD3E-4FAE-9334-C8A6D9D462CE}
  9
$VERSIONGUID
  2
{F67E0A34-658D-496E-9720-A6F6F36356AB}
  9
$EXTNAMES
290
     1
  9
$PSVPSCALE
 40
0.0
  9
$OLESTARTUP
290
     0
  0
ENDSEC
  0
SECTION
  2
CLASSES
  0
CLASS
  1
ACDBDICTIONARYWDFLT
  2
AcDbDictionaryWithDefault
  3
ObjectDBX Classes
 90
        0
280
     0
281
     0
  0
CLASS
  1
ACDBPLACEHOLDER
  2
AcDbPlaceHolder
  3
ObjectDBX Classes
 90
        0
280
     0
281
     0
  0
CLASS
  1
LAYOUT
  2
AcDbLayout
  3
ObjectDBX Classes
 90
        0
280
     0
281
     0
  0
CLASS
  1
DICTIONARYVAR
  2
AcDbDictionaryVar
  3
ObjectDBX Classes
 90
        0
280
     0
281
     0
  0
CLASS
  1
TABLESTYLE
  2
AcDbTableStyle
  3
ObjectDBX Classes
 90
     4095
280
     0
281
     0
  0
CLASS
  1
MATERIAL
  2
AcDbMaterial
  3
ObjectDBX Classes
 90
     1153
280
     0
281
     0
  0
CLASS
  1
VISUALSTYLE
  2
AcDbVisualStyle
  3
ObjectDBX Classes
 90
     4095
280
     0
281
     0
  0
CLASS
  1
SCALE
  2
AcDbScale
  3
ObjectDBX Classes
 90
     1153
280
     0
281
     0
  0
CLASS
  1
MLEADERSTYLE
  2
AcDbMLeaderStyle
  3
ACDB_MLEADERSTYLE_CLASS
 90
     4095
280
     0
281
     0
  0
CLASS
  1
CELLSTYLEMAP
  2
AcDbCellStyleMap
  3
ObjectDBX Classes
 90
     1152
280
     0
281
     0
  0
ENDSEC
  0
SECTION
  2
TABLES
  0
TABLE
  2
VPORT
  5
8
330
0
100
AcDbSymbolTable
 70
     1
  0
VPORT
  5
EA
330
8
100
AcDbSymbolTableRecord
100
AcDbViewportTableRecord
  2
*Active
 70
     0
 10
0.0
 20
0.0
 11
1.0
 21
1.0
 12
2277.85011141147
 22
759.517283920685
 13
0.0
 23
0.0
 14
10.0
 24
10.0
 15
10.0
 25
10.0
 16
0.0
 26
0.0
 36
1.0
 17
0.0
 27
0.0
 37
0.0
 40
87.47985968044295
 41
1.90311004784689
 42
50.0
 43
0.0
 44
0.0
 50
0.0
 51
0.0
 71
     0
 72
  1000
 73
     1
 74
     3
 75
     0
 76
     0
 77
     0
 78
     0
281
     0
 65
     1
110
0.0
120
0.0
130
0.0
111
1.0
121
0.0
131
0.0
112
0.0
122
1.0
132
0.0
 79
     0
146
0.0
  0
ENDTAB
  0
TABLE
  2
LTYPE
  5
5
330
0
100
AcDbSymbolTable
 70
     1
  0
LTYPE
  5
14
330
5
100
AcDbSymbolTableRecord
100
AcDbLinetypeTableRecord
  2
ByBlock
 70
     0
  3

 72
    65
 73
     0
 40
0.0
  0
LTYPE
  5
15
330
5
100
AcDbSymbolTableRecord
100
AcDbLinetypeTableRecord
  2
ByLayer
 70
     0
  3

 72
    65
 73
     0
 40
0.0
  0
LTYPE
  5
16
330
5
100
AcDbSymbolTableRecord
100
AcDbLinetypeTableRecord
  2
Continuous
 70
     0
  3
Solid line
 72
    65
 73
     0
 40
0.0
  0
ENDTAB
  0
TABLE
  2
LAYER
  5
2
330
0
100
AcDbSymbolTable
 70
     1
  0
LAYER
  5
10
102
{ACAD_XDICTIONARY
360
13C
102
}
330
2
100
AcDbSymbolTableRecord
100
AcDbLayerTableRecord
  2
0
 70
     0
 62
     7
  6
Continuous
370
    -3
390
F
  0
ENDTAB
  0
TABLE
  2
STYLE
  5
3
330
0
100
AcDbSymbolTable
 70
     2
  0
STYLE
  5
11
330
3
100
AcDbSymbolTableRecord
100
AcDbTextStyleTableRecord
  2
Standard
 70
     0
 40
0.0
 41
1.0
 50
0.0
 71
     0
 42
2.5
  3
txt
  4

  0
STYLE
  5
132
330
3
100
AcDbSymbolTableRecord
100
AcDbTextStyleTableRecord
  2
Annotative
 70
     0
 40
0.0
 41
1.0
 50
0.0
 71
     0
 42
2.5
  3
txt.shx
  4

1001
AcadAnnotative
1000
AnnotativeData
1002
{
1070
     1
1070
     1
1002
}
  0
ENDTAB
  0
TABLE
  2
VIEW
  5
6
330
0
100
AcDbSymbolTable
 70
     0
  0
ENDTAB
  0
TABLE
  2
UCS
  5
7
330
0
100
AcDbSymbolTable
 70
     0
  0
ENDTAB
  0
TABLE
  2
APPID
  5
9
330
0
100
AcDbSymbolTable
 70
     7
  0
APPID
  5
12
330
9
100
AcDbSymbolTableRecord
100
AcDbRegAppTableRecord
  2
ACAD
 70
     0
  0
APPID
  5
9E
330
9
100
AcDbSymbolTableRecord
100
AcDbRegAppTableRecord
  2
ACAD_PSEXT
 70
     0
  0
APPID
  5
133
330
9
100
AcDbSymbolTableRecord
100
AcDbRegAppTableRecord
  2
AcadAnnoPO
 70
     0
  0
APPID
  5
134
330
9
100
AcDbSymbolTableRecord
100
AcDbRegAppTableRecord
  2
AcadAnnotative
 70
     0
  0
APPID
  5
135
330
9
100
AcDbSymbolTableRecord
100
AcDbRegAppTableRecord
  2
ACAD_DSTYLE_DIMJAG
 70
     0
  0
APPID
  5
136
330
9
100
AcDbSymbolTableRecord
100
AcDbRegAppTableRecord
  2
ACAD_DSTYLE_DIMTALN
 70
     0
  0
APPID
  5
165
330
9
100
AcDbSymbolTableRecord
100
AcDbRegAppTableRecord
  2
ACAD_MLEADERVER
 70
     0
  0
ENDTAB
  0
TABLE
  2
DIMSTYLE
  5
A
330
0
100
AcDbSymbolTable
 70
     2
100
AcDbDimStyleTable
 71
     2
340
27
340
137
  0
DIMSTYLE
105
27
330
A
100
AcDbSymbolTableRecord
100
AcDbDimStyleTableRecord
  2
ISO-25
 70
     0
 41
2.5
 42
0.625
 43
3.75
 44
1.25
 73
     0
 74
     0
 77
     1
 78
     8
140
2.5
141
2.5
143
0.03937007874016
147
0.625
171
     3
172
     1
271
     2
272
     2
274
     3
278
    44
283
     0
284
     8
340
11
  0
DIMSTYLE
105
137
330
A
100
AcDbSymbolTableRecord
100
AcDbDimStyleTableRecord
  2
Annotative
 70
     0
 40
0.0
 41
2.5
 42
0.625
 43
3.75
 44
1.25
 73
     0
 74
     0
 77
     1
 78
     8
140
2.5
141
2.5
143
0.03937007874016
147
0.625
171
     3
172
     1
271
     2
272
     2
274
     3
278
    44
283
     0
284
     8
340
11
1001
AcadAnnotative
1000
AnnotativeData
1002
{
1070
     1
1070
     1
1002
}
1001
ACAD_DSTYLE_DIMJAG
1070
   388
1040
1.5
1001
ACAD_DSTYLE_DIMTALN
1070
   392
1070
     0
  0
ENDTAB
  0
TABLE
  2
BLOCK_RECORD
  5
1
330
0
100
AcDbSymbolTable
 70
    10
  0
BLOCK_RECORD
  5
1F
330
1
100
AcDbSymbolTableRecord
100
AcDbBlockTableRecord
  2
*Model_Space
340
22
  0
BLOCK_RECORD
  5
D2
330
1
100
AcDbSymbolTableRecord
100
AcDbBlockTableRecord
  2
*Paper_Space
340
D3
  0
BLOCK_RECORD
  5
D6
330
1
100
AcDbSymbolTableRecord
100
AcDbBlockTableRecord
  2
*Paper_Space0
340
D7
  0
BLOCK_RECORD
  5
1AD
330
1
100
AcDbSymbolTableRecord
100
AcDbBlockTableRecord
  2
SW_CENTERMARKSYMBOL_0
340
0
102
{BLKREFS
331
3E3
102
}
  0
BLOCK_RECORD
  5
1B8
330
1
100
AcDbSymbolTableRecord
100
AcDbBlockTableRecord
  2
SW_CENTERMARKSYMBOL_1
340
0
102
{BLKREFS
331
3E4
102
}
  0
BLOCK_RECORD
  5
1C3
330
1
100
AcDbSymbolTableRecord
100
AcDbBlockTableRecord
  2
SW_CENTERMARKSYMBOL_2
340
0
102
{BLKREFS
331
3E5
102
}
  0
BLOCK_RECORD
  5
1CE
330
1
100
AcDbSymbolTableRecord
100
AcDbBlockTableRecord
  2
SW_CENTERMARKSYMBOL_3
340
0
102
{BLKREFS
331
3E6
102
}
  0
BLOCK_RECORD
  5
1D9
330
1
100
AcDbSymbolTableRecord
100
AcDbBlockTableRecord
  2
SW_CENTERMARKSYMBOL_4
340
0
102
{BLKREFS
331
3E7
102
}
  0
BLOCK_RECORD
  5
350
330
1
100
AcDbSymbolTableRecord
100
AcDbBlockTableRecord
  2
1
340
0
310
2800000020000000200000000100080000000000000400000000000000000000000000000000000000000000000080000080000000808000800000008000800080800000C0C0C000C0DCC000F0CAA6000020400000206000002080000020A0000020C0000020E00000400000004020000040400000406000004080000040A0
310
000040C0000040E00000600000006020000060400000606000006080000060A0000060C0000060E00000800000008020000080400000806000008080000080A0000080C0000080E00000A0000000A0200000A0400000A0600000A0800000A0A00000A0C00000A0E00000C0000000C0200000C0400000C0600000C0800000C0
310
A00000C0C00000C0E00000E0000000E0200000E0400000E0600000E0800000E0A00000E0C00000E0E00040000000400020004000400040006000400080004000A0004000C0004000E00040200000402020004020400040206000402080004020A0004020C0004020E000404000004040200040404000404060004040800040
310
40A0004040C0004040E00040600000406020004060400040606000406080004060A0004060C0004060E00040800000408020004080400040806000408080004080A0004080C0004080E00040A0000040A0200040A0400040A0600040A0800040A0A00040A0C00040A0E00040C0000040C0200040C0400040C0600040C08000
310
40C0A00040C0C00040C0E00040E0000040E0200040E0400040E0600040E0800040E0A00040E0C00040E0E00080000000800020008000400080006000800080008000A0008000C0008000E00080200000802020008020400080206000802080008020A0008020C0008020E00080400000804020008040400080406000804080
310
008040A0008040C0008040E00080600000806020008060400080606000806080008060A0008060C0008060E00080800000808020008080400080806000808080008080A0008080C0008080E00080A0000080A0200080A0400080A0600080A0800080A0A00080A0C00080A0E00080C0000080C0200080C0400080C0600080C0
310
800080C0A00080C0C00080C0E00080E0000080E0200080E0400080E0600080E0800080E0A00080E0C00080E0E000C0000000C0002000C0004000C0006000C0008000C000A000C000C000C000E000C0200000C0202000C0204000C0206000C0208000C020A000C020C000C020E000C0400000C0402000C0404000C0406000C0
310
408000C040A000C040C000C040E000C0600000C0602000C0604000C0606000C0608000C060A000C060C000C060E000C0800000C0802000C0804000C0806000C0808000C080A000C080C000C080E000C0A00000C0A02000C0A04000C0A06000C0A08000C0A0A000C0A0C000C0A0E000C0C00000C0C02000C0C04000C0C06000
310
C0C08000C0C0A000F0FBFF00A4A0A000808080000000FF0000FF000000FFFF00FF000000FF00FF00FFFF0000FFFFFF0000000000000000000000000000000000000000000000000000000000000000000000000000000000000000000000000000000000000000000000000000000000000000000000000000000000000000
310
00000000000000000000000000000000000000FFFFFFFFFFFFFFFFFFFFFFFFFFFFFFFFFFFFFFFFFFFFFFFFFFFFFFFF000000FFFFFFFFFFFFFFFFFFFFFFFFFFFFFFFFFFFFFFFFFFFFFFFFFFFFFFFFFFFF0000FF00000000000000000000000000000000000000000000000000000000FF0000FF000000000000000000000000
310
00000000000000000000000000000000FF0000FF00000000000000000000000000000000000000000000000000000000FF0000FF00000000000000000000000000000000000000000000000000000000FF0000FF00000000000000000000000000000000000000000000000000000000FF0000FF0000000000000000000000
310
0000000000000000000000000000000000FF0000FF00000000000000000000000000000000000000000000000000000000FF0000FF00000000000000000000000000000000000000000000000000000000FF0000FF00000000000000000000000000000000000000000000000000000000FF0000FF00000000000000000000
310
000000000000000000000000000000000000FF0000FF00000000000000000000000000000000000000000000000000000000FF0000FF00000000000000000000000000000000000000000000000000000000FF0000FF00000000000000000000000000000000000000000000000000000000FF0000FF000000000000000000
310
00000000000000000000000000000000000000FF0000FF00000000000000000000000000000000000000000000000000000000FF0000FF00000000000000000000000000000000000000000000000000000000FF0000FF00000000000000000000000000000000000000000000000000000000FF0000FF0000000000000000
310
0000000000000000000000000000000000000000FF0000FF00000000000000000000000000000000000000000000000000000000FF0000FF00000000000000000000000000000000000000000000000000000000FF0000FF00000000000000000000000000000000000000000000000000000000FF0000FF00000000000000
310
000000000000000000000000000000000000000000FF0000FFFFFFFFFFFFFFFFFFFFFFFFFFFFFFFFFFFFFFFFFFFFFFFFFFFFFFFFFFFF000000FFFFFFFFFFFFFFFFFFFFFFFFFFFFFFFFFFFFFFFFFFFFFFFFFFFFFFFF000000000000000000000000000000000000000000000000000000000000000000000000000000000000
310
0000000000000000000000000000000000000000000000000000000000000000000000000000000000000000000000000000000000000000
102
{BLKREFS
331
35F
102
}
1001
ACAD
1000
DesignCenter Data
1002
{
1070
     1
1070
     4
1002
}
  0
BLOCK_RECORD
  5
360
330
1
100
AcDbSymbolTableRecord
100
AcDbBlockTableRecord
  2
2
340
0
310
2800000020000000200000000100080000000000000400000000000000000000000000000000000000000000000080000080000000808000800000008000800080800000C0C0C000C0DCC000F0CAA6000020400000206000002080000020A0000020C0000020E00000400000004020000040400000406000004080000040A0
310
000040C0000040E00000600000006020000060400000606000006080000060A0000060C0000060E00000800000008020000080400000806000008080000080A0000080C0000080E00000A0000000A0200000A0400000A0600000A0800000A0A00000A0C00000A0E00000C0000000C0200000C0400000C0600000C0800000C0
310
A00000C0C00000C0E00000E0000000E0200000E0400000E0600000E0800000E0A00000E0C00000E0E00040000000400020004000400040006000400080004000A0004000C0004000E00040200000402020004020400040206000402080004020A0004020C0004020E000404000004040200040404000404060004040800040
310
40A0004040C0004040E00040600000406020004060400040606000406080004060A0004060C0004060E00040800000408020004080400040806000408080004080A0004080C0004080E00040A0000040A0200040A0400040A0600040A0800040A0A00040A0C00040A0E00040C0000040C0200040C0400040C0600040C08000
310
40C0A00040C0C00040C0E00040E0000040E0200040E0400040E0600040E0800040E0A00040E0C00040E0E00080000000800020008000400080006000800080008000A0008000C0008000E00080200000802020008020400080206000802080008020A0008020C0008020E00080400000804020008040400080406000804080
310
008040A0008040C0008040E00080600000806020008060400080606000806080008060A0008060C0008060E00080800000808020008080400080806000808080008080A0008080C0008080E00080A0000080A0200080A0400080A0600080A0800080A0A00080A0C00080A0E00080C0000080C0200080C0400080C0600080C0
310
800080C0A00080C0C00080C0E00080E0000080E0200080E0400080E0600080E0800080E0A00080E0C00080E0E000C0000000C0002000C0004000C0006000C0008000C000A000C000C000C000E000C0200000C0202000C0204000C0206000C0208000C020A000C020C000C020E000C0400000C0402000C0404000C0406000C0
310
408000C040A000C040C000C040E000C0600000C0602000C0604000C0606000C0608000C060A000C060C000C060E000C0800000C0802000C0804000C0806000C0808000C080A000C080C000C080E000C0A00000C0A02000C0A04000C0A06000C0A08000C0A0A000C0A0C000C0A0E000C0C00000C0C02000C0C04000C0C06000
310
C0C08000C0C0A000F0FBFF00A4A0A000808080000000FF0000FF000000FFFF00FF000000FF00FF00FFFF0000FFFFFF0000000000000000000000000000000000000000000000000000000000000000000000000000000000000000000000000000000000000000000000000000000000000000000000000000000000000000
310
0000000000000000000000000000000000000000000000000000000000000000000000000000000000000000000000000000000000000000000000000000000000000000000000000000000000000000000000FFFFFFFFFFFFFFFFFFFFFFFFFFFFFFFFFFFFFFFFFFFFFFFFFFFFFFFF000000FF000000000000000000000000
310
00000000000000000000000000000000FF0000FF00000000000000000000000000000000000000000000000000000000FF0000FF00000000000000000000000000000000000000000000000000000000FF0000FF00000000000000000000000000000000000000000000000000000000FF0000FF000000000000FF00000000
310
00000000000000000000FF000000000000FF0000FF0000000000FF00FF000000000000000000000000FF00FF0000000000FF0000FF0000000000FF0000FF0000000000000000000000FF0000FF00000000FF0000FF00000000FF000000FF00000000000000000000FF000000FF00000000FF0000FF000000FFFFFFFFFFFFFF
310
0000000000000000FFFFFFFFFFFFFF000000FF0000FF000000FFFF000000FFFF0000000000000000FFFF000000FFFF000000FF0000FF000000FFFFFFFFFFFFFF0000000000000000FFFFFFFFFFFFFF000000FF0000FF000000FFFFFFFFFFFFFF0000000000000000FFFFFFFFFFFFFF000000FF0000FF000000FFFFFFFFFFFF
310
FF0000000000000000FFFFFFFFFFFFFF000000FF0000FF00000000000000000000000000000000000000000000000000000000FF0000FF00000000000000000000000000000000000000000000000000000000FF0000FF00000000000000000000000000000000000000000000000000000000FF0000FF0000000000000000
310
0000000000000000000000000000000000000000FF0000FF00000000000000000000000000000000000000000000000000000000FF0000FF00000000000000000000000000000000000000000000000000000000FF0000FFFFFFFFFFFFFFFFFFFFFFFFFFFFFFFFFFFFFFFFFFFFFFFFFFFFFFFFFFFF000000FFFFFFFFFFFFFF
310
FFFFFFFFFFFFFFFFFFFFFFFFFFFFFFFFFFFFFFFFFF00000000000000000000000000000000000000000000000000000000000000000000000000000000000000000000000000000000000000000000000000000000000000000000000000000000000000000000000000000000000000000000000000000000000000000000
310
0000000000000000000000000000000000000000000000000000000000000000000000000000000000000000000000000000000000000000
102
{BLKREFS
331
397
102
}
1001
ACAD
1000
DesignCenter Data
1002
{
1070
     1
1070
     4
1002
}
  0
BLOCK_RECORD
  5
398
330
1
100
AcDbSymbolTableRecord
100
AcDbBlockTableRecord
  2
3
340
0
310
2800000020000000200000000100080000000000000400000000000000000000000000000000000000000000000080000080000000808000800000008000800080800000C0C0C000C0DCC000F0CAA6000020400000206000002080000020A0000020C0000020E00000400000004020000040400000406000004080000040A0
310
000040C0000040E00000600000006020000060400000606000006080000060A0000060C0000060E00000800000008020000080400000806000008080000080A0000080C0000080E00000A0000000A0200000A0400000A0600000A0800000A0A00000A0C00000A0E00000C0000000C0200000C0400000C0600000C0800000C0
310
A00000C0C00000C0E00000E0000000E0200000E0400000E0600000E0800000E0A00000E0C00000E0E00040000000400020004000400040006000400080004000A0004000C0004000E00040200000402020004020400040206000402080004020A0004020C0004020E000404000004040200040404000404060004040800040
310
40A0004040C0004040E00040600000406020004060400040606000406080004060A0004060C0004060E00040800000408020004080400040806000408080004080A0004080C0004080E00040A0000040A0200040A0400040A0600040A0800040A0A00040A0C00040A0E00040C0000040C0200040C0400040C0600040C08000
310
40C0A00040C0C00040C0E00040E0000040E0200040E0400040E0600040E0800040E0A00040E0C00040E0E00080000000800020008000400080006000800080008000A0008000C0008000E00080200000802020008020400080206000802080008020A0008020C0008020E00080400000804020008040400080406000804080
310
008040A0008040C0008040E00080600000806020008060400080606000806080008060A0008060C0008060E00080800000808020008080400080806000808080008080A0008080C0008080E00080A0000080A0200080A0400080A0600080A0800080A0A00080A0C00080A0E00080C0000080C0200080C0400080C0600080C0
310
800080C0A00080C0C00080C0E00080E0000080E0200080E0400080E0600080E0800080E0A00080E0C00080E0E000C0000000C0002000C0004000C0006000C0008000C000A000C000C000C000E000C0200000C0202000C0204000C0206000C0208000C020A000C020C000C020E000C0400000C0402000C0404000C0406000C0
310
408000C040A000C040C000C040E000C0600000C0602000C0604000C0606000C0608000C060A000C060C000C060E000C0800000C0802000C0804000C0806000C0808000C080A000C080C000C080E000C0A00000C0A02000C0A04000C0A06000C0A08000C0A0A000C0A0C000C0A0E000C0C00000C0C02000C0C04000C0C06000
310
C0C08000C0C0A000F0FBFF00A4A0A000808080000000FF0000FF000000FFFF00FF000000FF00FF00FFFF0000FFFFFF00000000000000000000000000000000000000000000000000000000000000000000000000FFFFFFFFFFFFFFFFFFFFFFFFFFFFFFFFFFFFFFFFFFFFFFFF0000000000000000FFFFFFFFFFFFFFFFFFFFFF
310
FFFFFFFFFFFFFFFFFFFFFFFFFF0000000000000000FF000000000000FF0000000000000000FF000000000000FF0000000000000000FF000000000000FF0000000000000000FF000000000000FF0000000000000000FF000000000000FF0000000000000000FF000000000000FF0000000000000000FF0000000000FFFFFF00
310
0000000000FFFFFF0000000000FF0000000000000000FF00000000FFFFFF00FF00000000FF00FFFFFF00000000FF0000000000000000FFFFFFFFFFFFFFFFFFFFFFFFFFFFFFFFFFFFFFFFFFFFFFFF0000000000000000FF00000000FFFFFF00FF0000FF00FF00FFFFFF00000000FF0000000000000000FF0000000000FFFFFF
310
000000000000FFFFFF0000000000FF0000000000000000FF000000000000FF00000000FFFF0000FF000000000000FF0000000000000000FF000000000000FF0000FFFFFFFFFF00FF000000000000FF0000000000000000FF000000000000FFFFFF0000FF0000FFFF000000000000FF0000000000000000FF000000000000FF
310
FF00FFFFFFFF00FFFF000000000000FF0000000000000000FF00000000000000FFFF0000FF00FFFFFF000000000000FF0000000000000000FF000000FFFF0000FFFFFFFFFFFFFFFF0000FFFF000000FF0000000000000000FF000000000000FFFF0000FFFFFF00FFFF000000000000FF0000000000000000FF000000000000
310
FFFFFF0000FF00FFFFFF000000000000FF0000000000000000FF000000000000FF00FFFFFFFFFFFF00FF000000000000FF0000000000000000FF000000000000FF000000FFFFFF0000FF000000000000FF0000000000000000FF0000000000FFFFFF000000000000FFFFFF0000000000FF0000000000000000FF00000000FF
310
FFFF00FF0000FF00FF00FFFFFF00000000FF0000000000000000FFFFFFFFFFFFFFFFFFFFFFFFFFFFFFFFFFFFFFFFFFFFFFFF0000000000000000FF00000000FFFFFF00FF00000000FF00FFFFFF00000000FF0000000000000000FF0000000000FFFFFF000000000000FFFFFF0000000000FF0000000000000000FF00000000
310
0000FF0000000000000000FF000000000000FF0000000000000000FF000000000000FF0000000000000000FF000000000000FF0000000000000000FF000000000000FF0000000000000000FF000000000000FF0000000000000000FFFFFFFFFFFFFFFFFFFFFFFFFFFFFFFFFFFFFFFFFFFFFFFF0000000000000000FFFFFFFF
310
FFFFFFFFFFFFFFFFFFFFFFFFFFFFFFFFFFFFFFFF000000000000000000000000000000000000000000000000000000000000000000000000
102
{BLKREFS
331
3E8
102
}
1001
ACAD
1000
DesignCenter Data
1002
{
1070
     1
1070
     4
1002
}
  0
BLOCK_RECORD
  5
3E9
330
1
100
AcDbSymbolTableRecord
100
AcDbBlockTableRecord
  2
4
340
0
310
2800000020000000200000000100080000000000000400000000000000000000000000000000000000000000000080000080000000808000800000008000800080800000C0C0C000C0DCC000F0CAA6000020400000206000002080000020A0000020C0000020E00000400000004020000040400000406000004080000040A0
310
000040C0000040E00000600000006020000060400000606000006080000060A0000060C0000060E00000800000008020000080400000806000008080000080A0000080C0000080E00000A0000000A0200000A0400000A0600000A0800000A0A00000A0C00000A0E00000C0000000C0200000C0400000C0600000C0800000C0
310
A00000C0C00000C0E00000E0000000E0200000E0400000E0600000E0800000E0A00000E0C00000E0E00040000000400020004000400040006000400080004000A0004000C0004000E00040200000402020004020400040206000402080004020A0004020C0004020E000404000004040200040404000404060004040800040
310
40A0004040C0004040E00040600000406020004060400040606000406080004060A0004060C0004060E00040800000408020004080400040806000408080004080A0004080C0004080E00040A0000040A0200040A0400040A0600040A0800040A0A00040A0C00040A0E00040C0000040C0200040C0400040C0600040C08000
310
40C0A00040C0C00040C0E00040E0000040E0200040E0400040E0600040E0800040E0A00040E0C00040E0E00080000000800020008000400080006000800080008000A0008000C0008000E00080200000802020008020400080206000802080008020A0008020C0008020E00080400000804020008040400080406000804080
310
008040A0008040C0008040E00080600000806020008060400080606000806080008060A0008060C0008060E00080800000808020008080400080806000808080008080A0008080C0008080E00080A0000080A0200080A0400080A0600080A0800080A0A00080A0C00080A0E00080C0000080C0200080C0400080C0600080C0
310
800080C0A00080C0C00080C0E00080E0000080E0200080E0400080E0600080E0800080E0A00080E0C00080E0E000C0000000C0002000C0004000C0006000C0008000C000A000C000C000C000E000C0200000C0202000C0204000C0206000C0208000C020A000C020C000C020E000C0400000C0402000C0404000C0406000C0
310
408000C040A000C040C000C040E000C0600000C0602000C0604000C0606000C0608000C060A000C060C000C060E000C0800000C0802000C0804000C0806000C0808000C080A000C080C000C080E000C0A00000C0A02000C0A04000C0A06000C0A08000C0A0A000C0A0C000C0A0E000C0C00000C0C02000C0C04000C0C06000
310
C0C08000C0C0A000F0FBFF00A4A0A000808080000000FF0000FF000000FFFF00FF000000FF00FF00FFFF0000FFFFFF0000000000000000000000000000000000000000000000000000000000000000000000000000000000000000000000FF0000000000000000000000000000000000000000000000000000000000FFFFFF
310
FFFF00000000000000000000000000000000000000000000000000FFFFFFFFFF0000FFFF00000000000000000000000000000000000000000000FFFFFF0000FF00000000FF00000000000000000000000000000000000000FFFFFF00000000FF0000000000FFFF000000000000000000000000000000FFFFFF000000000000
310
FF0000FFFF000000FFFF0000000000000000000000FFFFFFFF00000000000000FF00FF00FFFF00000000FF000000000000000000FFFFFF000000000000000000FF00FFFF00FF0000000000FFFF00000000000000FF0000000000000000000000FF00FFFF00FFFF000000000000FFFF0000000000FF00000000000000000000
310
00FF0000FFFFFF000000000000000000FF00000000FF0000000000000000000000FF000000FFFF00000000FFFFFF0000FF00000000FF0000000000000000000000FF000000000000000000FF00FFFF00FF00000000FF0000000000000000000000FF000000000000000000FFFF00FF00FF00000000FF000000000000000000
310
0000FF00000000000000000000FF00FFFFFF00000000FF000000000000000000FFFFFFFFFF0000000000000000FFFFFF00FF00000000FF00000000000000FFFFFFFF00FFFFFFFF00000000000000000000FF00000000FF000000000000FFFFFFFFFFFFFFFFFFFFFFFF0000000000000000FF00000000FF00000000FFFFFF00
310
00FF000000FF0000FFFFFFFF000000000000FF00000000FF0000FFFFFF00000000FFFF00FFFF00000000FF00FFFF00000000FF00000000FFFFFFFF00FFFFFFFFFF00FFFFFFFFFF00000000FFFF00FFFF0000FF00000000FFFF000000FF000000FFFFFFFFFFFFFFFFFF00000000FFFF00FFFFFF000000000000FFFF00FFFF00
310
FFFFFF00FFFFFFFFFFFFFFFFFFFFFF00FFFF00FF0000000000000000FF00FFFFFF00FFFF00000000FFFFFF000000FF000000FF00000000000000000000FFFF00000000FFFFFFFFFFFF00FFFFFFFFFF00FFFF00000000000000000000000000FFFF00000000FFFFFFFFFF0000000000FF000000000000000000000000000000
310
0000FF000000FF000000FF000000FFFF00000000000000000000000000000000000000FFFF00FFFFFFFFFF00FFFF0000000000000000000000000000000000000000000000FF0000000000FF0000000000000000000000000000000000000000000000000000FFFF00FFFF0000000000000000000000000000000000000000
310
000000000000000000FF00000000000000000000000000000000000000000000000000000000000000000000000000000000000000000000
102
{BLKREFS
331
413
102
}
1001
ACAD
1000
DesignCenter Data
1002
{
1070
     1
1070
     4
1002
}
  0
ENDTAB
  0
ENDSEC
  0
SECTION
  2
BLOCKS
  0
BLOCK
  5
20
330
1F
100
AcDbEntity
  8
0
100
AcDbBlockBegin
  2
*Model_Space
 70
     0
 10
0.0
 20
0.0
 30
0.0
  3
*Model_Space
  1

  0
ENDBLK
  5
21
330
1F
100
AcDbEntity
  8
0
100
AcDbBlockEnd
  0
BLOCK
  5
D4
330
D2
100
AcDbEntity
 67
     1
  8
0
100
AcDbBlockBegin
  2
*Paper_Space
 70
     0
 10
0.0
 20
0.0
 30
0.0
  3
*Paper_Space
  1

  0
ENDBLK
  5
D5
330
D2
100
AcDbEntity
 67
     1
  8
0
100
AcDbBlockEnd
  0
BLOCK
  5
D8
330
D6
100
AcDbEntity
 67
     1
  8
0
100
AcDbBlockBegin
  2
*Paper_Space0
 70
     0
 10
0.0
 20
0.0
 30
0.0
  3
*Paper_Space0
  1

  0
ENDBLK
  5
D9
330
D6
100
AcDbEntity
 67
     1
  8
0
100
AcDbBlockEnd
  0
BLOCK
  5
1AE
330
1AD
100
AcDbEntity
  8
0
100
AcDbBlockBegin
  2
SW_CENTERMARKSYMBOL_0
 70
     0
 10
0.0
 20
0.0
 30
0.0
  3
SW_CENTERMARKSYMBOL_0
  1

  0
LINE
  5
1AF
330
1AD
100
AcDbEntity
  8
0
  6
Continuous
 62
     0
370
     0
100
AcDbLine
 10
0.0
 20
0.0
 30
0.0
 11
0.0
 21
2.500000000000002
 31
0.0
  0
LINE
  5
1B0
330
1AD
100
AcDbEntity
  8
0
  6
Continuous
 62
     0
370
     0
100
AcDbLine
 10
0.0
 20
0.0
 30
0.0
 11
-2.500000000000002
 21
0.0
 31
0.0
  0
LINE
  5
1B1
330
1AD
100
AcDbEntity
  8
0
  6
Continuous
 62
     0
370
     0
100
AcDbLine
 10
0.0
 20
0.0
 30
0.0
 11
0.0
 21
-2.500000000000002
 31
0.0
  0
LINE
  5
1B2
330
1AD
100
AcDbEntity
  8
0
  6
Continuous
 62
     0
370
     0
100
AcDbLine
 10
0.0
 20
0.0
 30
0.0
 11
2.500000000000002
 21
0.0
 31
0.0
  0
LINE
  5
1B3
330
1AD
100
AcDbEntity
  8
0
  6
Continuous
 62
     0
370
     0
100
AcDbLine
 10
0.0
 20
5.000000000000004
 30
0.0
 11
0.0
 21
6.000000000000005
 31
0.0
  0
LINE
  5
1B4
330
1AD
100
AcDbEntity
  8
0
  6
Continuous
 62
     0
370
     0
100
AcDbLine
 10
-4.999999999999976
 20
0.0
 30
0.0
 11
-5.999999999999977
 21
0.0
 31
0.0
  0
LINE
  5
1B5
330
1AD
100
AcDbEntity
  8
0
  6
Continuous
 62
     0
370
     0
100
AcDbLine
 10
0.0
 20
-5.000000000000004
 30
0.0
 11
0.0
 21
-6.000000000000005
 31
0.0
  0
LINE
  5
1B6
330
1AD
100
AcDbEntity
  8
0
  6
Continuous
 62
     0
370
     0
100
AcDbLine
 10
5.000000000000004
 20
0.0
 30
0.0
 11
6.000000000000005
 21
0.0
 31
0.0
  0
ENDBLK
  5
1B7
330
1AD
100
AcDbEntity
  8
0
100
AcDbBlockEnd
  0
BLOCK
  5
1B9
330
1B8
100
AcDbEntity
  8
0
100
AcDbBlockBegin
  2
SW_CENTERMARKSYMBOL_1
 70
     0
 10
0.0
 20
0.0
 30
0.0
  3
SW_CENTERMARKSYMBOL_1
  1

  0
LINE
  5
1BA
330
1B8
100
AcDbEntity
  8
0
  6
Continuous
 62
     0
370
     0
100
AcDbLine
 10
0.0
 20
0.0
 30
0.0
 11
0.0
 21
2.500000000000002
 31
0.0
  0
LINE
  5
1BB
330
1B8
100
AcDbEntity
  8
0
  6
Continuous
 62
     0
370
     0
100
AcDbLine
 10
0.0
 20
0.0
 30
0.0
 11
-2.500000000000002
 21
0.0
 31
0.0
  0
LINE
  5
1BC
330
1B8
100
AcDbEntity
  8
0
  6
Continuous
 62
     0
370
     0
100
AcDbLine
 10
0.0
 20
0.0
 30
0.0
 11
0.0
 21
-2.500000000000002
 31
0.0
  0
LINE
  5
1BD
330
1B8
100
AcDbEntity
  8
0
  6
Continuous
 62
     0
370
     0
100
AcDbLine
 10
0.0
 20
0.0
 30
0.0
 11
2.500000000000002
 21
0.0
 31
0.0
  0
LINE
  5
1BE
330
1B8
100
AcDbEntity
  8
0
  6
Continuous
 62
     0
370
     0
100
AcDbLine
 10
0.0
 20
2.500000000000002
 30
0.0
 11
0.0
 21
5.000000000000004
 31
0.0
  0
LINE
  5
1BF
330
1B8
100
AcDbEntity
  8
0
  6
Continuous
 62
     0
370
     0
100
AcDbLine
 10
-2.500000000000002
 20
0.0
 30
0.0
 11
-5.000000000000004
 21
0.0
 31
0.0
  0
LINE
  5
1C0
330
1B8
100
AcDbEntity
  8
0
  6
Continuous
 62
     0
370
     0
100
AcDbLine
 10
0.0
 20
-2.500000000000002
 30
0.0
 11
0.0
 21
-5.000000000000004
 31
0.0
  0
LINE
  5
1C1
330
1B8
100
AcDbEntity
  8
0
  6
Continuous
 62
     0
370
     0
100
AcDbLine
 10
2.500000000000002
 20
0.0
 30
0.0
 11
5.000000000000004
 21
0.0
 31
0.0
  0
ENDBLK
  5
1C2
330
1B8
100
AcDbEntity
  8
0
100
AcDbBlockEnd
  0
BLOCK
  5
1C4
330
1C3
100
AcDbEntity
  8
0
100
AcDbBlockBegin
  2
SW_CENTERMARKSYMBOL_2
 70
     0
 10
0.0
 20
0.0
 30
0.0
  3
SW_CENTERMARKSYMBOL_2
  1

  0
LINE
  5
1C5
330
1C3
100
AcDbEntity
  8
0
  6
Continuous
 62
     0
370
     0
100
AcDbLine
 10
0.0
 20
0.0
 30
0.0
 11
0.0
 21
2.500000000000002
 31
0.0
  0
LINE
  5
1C6
330
1C3
100
AcDbEntity
  8
0
  6
Continuous
 62
     0
370
     0
100
AcDbLine
 10
0.0
 20
0.0
 30
0.0
 11
-2.500000000000002
 21
0.0
 31
0.0
  0
LINE
  5
1C7
330
1C3
100
AcDbEntity
  8
0
  6
Continuous
 62
     0
370
     0
100
AcDbLine
 10
0.0
 20
0.0
 30
0.0
 11
0.0
 21
-2.500000000000002
 31
0.0
  0
LINE
  5
1C8
330
1C3
100
AcDbEntity
  8
0
  6
Continuous
 62
     0
370
     0
100
AcDbLine
 10
0.0
 20
0.0
 30
0.0
 11
2.499999999999974
 21
0.0
 31
0.0
  0
LINE
  5
1C9
330
1C3
100
AcDbEntity
  8
0
  6
Continuous
 62
     0
370
     0
100
AcDbLine
 10
0.0
 20
2.500000000000002
 30
0.0
 11
0.0
 21
5.000000000000004
 31
0.0
  0
LINE
  5
1CA
330
1C3
100
AcDbEntity
  8
0
  6
Continuous
 62
     0
370
     0
100
AcDbLine
 10
-2.500000000000002
 20
0.0
 30
0.0
 11
-5.000000000000004
 21
0.0
 31
0.0
  0
LINE
  5
1CB
330
1C3
100
AcDbEntity
  8
0
  6
Continuous
 62
     0
370
     0
100
AcDbLine
 10
0.0
 20
-2.500000000000002
 30
0.0
 11
0.0
 21
-4.99999999999999
 31
0.0
  0
LINE
  5
1CC
330
1C3
100
AcDbEntity
  8
0
  6
Continuous
 62
     0
370
     0
100
AcDbLine
 10
2.499999999999974
 20
0.0
 30
0.0
 11
4.999999999999976
 21
0.0
 31
0.0
  0
ENDBLK
  5
1CD
330
1C3
100
AcDbEntity
  8
0
100
AcDbBlockEnd
  0
BLOCK
  5
1CF
330
1CE
100
AcDbEntity
  8
0
100
AcDbBlockBegin
  2
SW_CENTERMARKSYMBOL_3
 70
     0
 10
0.0
 20
0.0
 30
0.0
  3
SW_CENTERMARKSYMBOL_3
  1

  0
LINE
  5
1D0
330
1CE
100
AcDbEntity
  8
0
  6
Continuous
 62
     0
370
     0
100
AcDbLine
 10
0.0
 20
0.0
 30
0.0
 11
0.0
 21
2.500000000000002
 31
0.0
  0
LINE
  5
1D1
330
1CE
100
AcDbEntity
  8
0
  6
Continuous
 62
     0
370
     0
100
AcDbLine
 10
0.0
 20
0.0
 30
0.0
 11
-2.500000000000002
 21
0.0
 31
0.0
  0
LINE
  5
1D2
330
1CE
100
AcDbEntity
  8
0
  6
Continuous
 62
     0
370
     0
100
AcDbLine
 10
0.0
 20
0.0
 30
0.0
 11
0.0
 21
-2.500000000000002
 31
0.0
  0
LINE
  5
1D3
330
1CE
100
AcDbEntity
  8
0
  6
Continuous
 62
     0
370
     0
100
AcDbLine
 10
0.0
 20
0.0
 30
0.0
 11
2.500000000000002
 21
0.0
 31
0.0
  0
LINE
  5
1D4
330
1CE
100
AcDbEntity
  8
0
  6
Continuous
 62
     0
370
     0
100
AcDbLine
 10
0.0
 20
2.500000000000002
 30
0.0
 11
0.0
 21
5.000000000000004
 31
0.0
  0
LINE
  5
1D5
330
1CE
100
AcDbEntity
  8
0
  6
Continuous
 62
     0
370
     0
100
AcDbLine
 10
-2.500000000000002
 20
0.0
 30
0.0
 11
-5.000000000000004
 21
0.0
 31
0.0
  0
LINE
  5
1D6
330
1CE
100
AcDbEntity
  8
0
  6
Continuous
 62
     0
370
     0
100
AcDbLine
 10
0.0
 20
-2.500000000000002
 30
0.0
 11
0.0
 21
-5.000000000000004
 31
0.0
  0
LINE
  5
1D7
330
1CE
100
AcDbEntity
  8
0
  6
Continuous
 62
     0
370
     0
100
AcDbLine
 10
2.500000000000002
 20
0.0
 30
0.0
 11
5.000000000000004
 21
0.0
 31
0.0
  0
ENDBLK
  5
1D8
330
1CE
100
AcDbEntity
  8
0
100
AcDbBlockEnd
  0
BLOCK
  5
1DA
330
1D9
100
AcDbEntity
  8
0
100
AcDbBlockBegin
  2
SW_CENTERMARKSYMBOL_4
 70
     0
 10
0.0
 20
0.0
 30
0.0
  3
SW_CENTERMARKSYMBOL_4
  1

  0
LINE
  5
1DB
330
1D9
100
AcDbEntity
  8
0
  6
Continuous
 62
     0
370
     0
100
AcDbLine
 10
0.0
 20
0.0
 30
0.0
 11
0.0
 21
2.500000000000002
 31
0.0
  0
LINE
  5
1DC
330
1D9
100
AcDbEntity
  8
0
  6
Continuous
 62
     0
370
     0
100
AcDbLine
 10
0.0
 20
0.0
 30
0.0
 11
-2.500000000000002
 21
0.0
 31
0.0
  0
LINE
  5
1DD
330
1D9
100
AcDbEntity
  8
0
  6
Continuous
 62
     0
370
     0
100
AcDbLine
 10
0.0
 20
0.0
 30
0.0
 11
0.0
 21
-2.500000000000002
 31
0.0
  0
LINE
  5
1DE
330
1D9
100
AcDbEntity
  8
0
  6
Continuous
 62
     0
370
     0
100
AcDbLine
 10
0.0
 20
0.0
 30
0.0
 11
2.499999999999974
 21
0.0
 31
0.0
  0
LINE
  5
1DF
330
1D9
100
AcDbEntity
  8
0
  6
Continuous
 62
     0
370
     0
100
AcDbLine
 10
0.0
 20
2.500000000000002
 30
0.0
 11
0.0
 21
5.000000000000004
 31
0.0
  0
LINE
  5
1E0
330
1D9
100
AcDbEntity
  8
0
  6
Continuous
 62
     0
370
     0
100
AcDbLine
 10
-2.500000000000002
 20
0.0
 30
0.0
 11
-5.000000000000004
 21
0.0
 31
0.0
  0
LINE
  5
1E1
330
1D9
100
AcDbEntity
  8
0
  6
Continuous
 62
     0
370
     0
100
AcDbLine
 10
0.0
 20
-2.500000000000002
 30
0.0
 11
0.0
 21
-5.000000000000004
 31
0.0
  0
LINE
  5
1E2
330
1D9
100
AcDbEntity
  8
0
  6
Continuous
 62
     0
370
     0
100
AcDbLine
 10
2.499999999999974
 20
0.0
 30
0.0
 11
4.999999999999976
 21
0.0
 31
0.0
  0
ENDBLK
  5
1E3
330
1D9
100
AcDbEntity
  8
0
100
AcDbBlockEnd
  0
BLOCK
  5
351
330
350
100
AcDbEntity
  8
0
100
AcDbBlockBegin
  2
1
 70
     0
 10
0.0
 20
0.0
 30
0.0
  3
1
  1

  0
LINE
  5
353
330
350
100
AcDbEntity
  8
0
  6
Continuous
 62
     7
370
    15
100
AcDbLine
 10
2271.883506444272
 20
778.1848334382178
 30
0.0
 11
2271.883506444272
 21
762.5848334382177
 31
0.0
  0
LINE
  5
354
330
350
100
AcDbEntity
  8
0
  6
Continuous
 62
     7
370
    15
100
AcDbLine
 10
2271.883506444272
 20
762.5848334382177
 30
0.0
 11
2252.883506444272
 21
762.5848334382135
 31
0.0
  0
LINE
  5
355
330
350
100
AcDbEntity
  8
0
  6
Continuous
 62
     7
370
    15
100
AcDbLine
 10
2252.883506444274
 20
778.1848334382198
 30
0.0
 11
2271.883506444272
 21
778.1848334382178
 31
0.0
  0
LINE
  5
356
330
350
100
AcDbEntity
  8
0
  6
Continuous
 62
     7
370
    15
100
AcDbLine
 10
2252.883506444272
 20
762.5848334382135
 30
0.0
 11
2252.883506444274
 21
778.1848334382198
 31
0.0
  0
LINE
  5
357
330
350
100
AcDbEntity
  8
0
  6
Continuous
 62
     7
370
    15
100
AcDbLine
 10
2271.183506444275
 20
778.8848334382139
 30
0.0
 11
2271.883506444272
 21
778.1848334382178
 31
0.0
  0
LINE
  5
358
330
350
100
AcDbEntity
  8
0
  6
Continuous
 62
     7
370
    15
100
AcDbLine
 10
2253.583506444272
 20
778.8848334382178
 30
0.0
 11
2271.183506444275
 21
778.8848334382139
 31
0.0
  0
LINE
  5
359
330
350
100
AcDbEntity
  8
0
  6
Continuous
 62
     7
370
    15
100
AcDbLine
 10
2252.883506444274
 20
778.1848334382198
 30
0.0
 11
2253.583506444272
 21
778.8848334382178
 31
0.0
  0
LINE
  5
35A
330
350
100
AcDbEntity
  8
0
  6
Continuous
 62
     7
370
    15
100
AcDbLine
 10
2271.883506444272
 20
762.3348334382177
 30
0.0
 11
2271.883506444272
 21
762.5848334382177
 31
0.0
  0
LINE
  5
35B
330
350
100
AcDbEntity
  8
0
  6
Continuous
 62
     7
370
    15
100
AcDbLine
 10
2271.433506444276
 20
761.8848334382216
 30
0.0
 11
2271.883506444272
 21
762.3348334382177
 31
0.0
  0
LINE
  5
35C
330
350
100
AcDbEntity
  8
0
  6
Continuous
 62
     7
370
    15
100
AcDbLine
 10
2271.433506444276
 20
761.8848334382216
 30
0.0
 11
2253.333506444271
 21
761.8848334382178
 31
0.0
  0
LINE
  5
35D
330
350
100
AcDbEntity
  8
0
  6
Continuous
 62
     7
370
    15
100
AcDbLine
 10
2252.883506444272
 20
762.3348334382177
 30
0.0
 11
2253.333506444271
 21
761.8848334382178
 31
0.0
  0
LINE
  5
35E
330
350
100
AcDbEntity
  8
0
  6
Continuous
 62
     7
370
    15
100
AcDbLine
 10
2252.883506444272
 20
762.5848334382135
 30
0.0
 11
2252.883506444272
 21
762.3348334382177
 31
0.0
  0
ENDBLK
  5
352
330
350
100
AcDbEntity
  8
0
100
AcDbBlockEnd
  0
BLOCK
  5
361
330
360
100
AcDbEntity
  8
0
100
AcDbBlockBegin
  2
2
 70
     0
 10
0.0
 20
0.0
 30
0.0
  3
2
  1

  0
LINE
  5
363
330
360
100
AcDbEntity
  8
0
  6
Continuous
 62
     7
370
    15
100
AcDbLine
 10
2240.495418448225
 20
778.1848334382178
 30
0.0
 11
2240.495418448225
 21
762.5848334382177
 31
0.0
  0
LINE
  5
364
330
360
100
AcDbEntity
  8
0
  6
Continuous
 62
     7
370
    15
100
AcDbLine
 10
2240.245418448225
 20
762.3348334382177
 30
0.0
 11
2240.495418448225
 21
762.5848334382177
 31
0.0
  0
LINE
  5
365
330
360
100
AcDbEntity
  8
0
  6
Continuous
 62
     7
370
    15
100
AcDbLine
 10
2240.245418448225
 20
762.3348334382177
 30
0.0
 11
2218.245418448225
 21
762.3348334382177
 31
0.0
  0
LINE
  5
366
330
360
100
AcDbEntity
  8
0
  6
Continuous
 62
     7
370
    15
100
AcDbLine
 10
2218.245418448225
 20
762.3348334382177
 30
0.0
 11
2217.995418448225
 21
762.5848334382177
 31
0.0
  0
LINE
  5
367
330
360
100
AcDbEntity
  8
0
  6
Continuous
 62
     7
370
    15
100
AcDbLine
 10
2217.995418448225
 20
778.1848334382178
 30
0.0
 11
2217.995418448225
 21
762.5848334382177
 31
0.0
  0
LINE
  5
368
330
360
100
AcDbEntity
  8
0
  6
Continuous
 62
     7
370
    15
100
AcDbLine
 10
2217.995418448225
 20
778.1848334382178
 30
0.0
 11
2240.495418448225
 21
778.1848334382178
 31
0.0
  0
ARC
  5
369
330
360
100
AcDbEntity
  8
0
  6
Continuous
 62
     7
370
    15
100
AcDbCircle
 10
2223.245418463421
 20
768.8848334382178
 30
0.0
 40
2.75
100
AcDbArc
 50
179.9997686229646
 51
0.0
  0
LINE
  5
36A
330
360
100
AcDbEntity
  8
0
  6
Continuous
 62
     7
370
    15
100
AcDbLine
 10
2225.995418463421
 20
768.8848334382178
 30
0.0
 11
2225.995442893034
 21
772.6348334382178
 31
0.0
  0
LINE
  5
36B
330
360
100
AcDbEntity
  8
0
  6
Continuous
 62
     7
370
    15
100
AcDbLine
 10
2225.995442893034
 20
772.6348334382178
 30
0.0
 11
2220.495438654876
 21
772.6348334382178
 31
0.0
  0
LINE
  5
36C
330
360
100
AcDbEntity
  8
0
  6
Continuous
 62
     7
370
    15
100
AcDbLine
 10
2220.495438654876
 20
772.6348334382178
 30
0.0
 11
2220.495418463451
 21
768.8848445435183
 31
0.0
  0
ARC
  5
36D
330
360
100
AcDbEntity
  8
0
  6
Continuous
 62
     7
370
    15
100
AcDbCircle
 10
2235.245418463421
 20
768.8848334382178
 30
0.0
 40
2.749999999999971
100
AcDbArc
 50
179.9997686229646
 51
0.0
  0
LINE
  5
36E
330
360
100
AcDbEntity
  8
0
  6
Continuous
 62
     7
370
    15
100
AcDbLine
 10
2237.995418463421
 20
768.8848334382178
 30
0.0
 11
2237.995442893033
 21
772.6348334382178
 31
0.0
  0
LINE
  5
36F
330
360
100
AcDbEntity
  8
0
  6
Continuous
 62
     7
370
    15
100
AcDbLine
 10
2237.995442893033
 20
772.6348334382178
 30
0.0
 11
2232.495438654876
 21
772.6348334382178
 31
0.0
  0
LINE
  5
370
330
360
100
AcDbEntity
  8
0
  6
Continuous
 62
     7
370
    15
100
AcDbLine
 10
2232.495438654876
 20
772.6348334382178
 30
0.0
 11
2232.495418463451
 21
768.8848445435183
 31
0.0
  0
LINE
  5
371
330
360
100
AcDbEntity
  8
0
  6
Continuous
 62
     7
370
    15
100
AcDbLine
 10
2218.69541844822
 20
778.8848334382139
 30
0.0
 11
2217.995418448225
 21
778.1848334382178
 31
0.0
  0
LINE
  5
372
330
360
100
AcDbEntity
  8
0
  6
Continuous
 62
     7
370
    15
100
AcDbLine
 10
2218.69541844822
 20
778.8848334382139
 30
0.0
 11
2239.795418448224
 21
778.8848334382178
 31
0.0
  0
LINE
  5
373
330
360
100
AcDbEntity
  8
0
  6
Continuous
 62
     7
370
    15
100
AcDbLine
 10
2239.795418448224
 20
778.8848334382178
 30
0.0
 11
2240.495418448225
 21
778.1848334382178
 31
0.0
  0
LINE
  5
374
330
360
100
AcDbEntity
  8
0
  6
Continuous
 62
     7
370
    15
100
AcDbLine
 10
2239.795418448224
 20
761.8848334382178
 30
0.0
 11
2218.69541844822
 21
761.8848334382216
 31
0.0
  0
LINE
  5
375
330
360
100
AcDbEntity
  8
0
  6
Continuous
 62
     7
370
    15
100
AcDbLine
 10
2218.69541844822
 20
761.8848334382216
 30
0.0
 11
2218.245418448225
 21
762.3348334382177
 31
0.0
  0
LINE
  5
376
330
360
100
AcDbEntity
  8
0
  6
Continuous
 62
     7
370
    15
100
AcDbLine
 10
2239.795418448224
 20
761.8848334382178
 30
0.0
 11
2240.245418448225
 21
762.3348334382177
 31
0.0
  0
ARC
  5
377
330
360
100
AcDbEntity
  8
0
  6
Continuous
 62
     7
370
    15
100
AcDbCircle
 10
2236.695418448225
 20
771.3348334382174
 30
0.0
 40
1.050000000000125
100
AcDbArc
 50
0.0
 51
90.0
  0
LINE
  5
378
330
360
100
AcDbEntity
  8
0
  6
Continuous
 62
     7
370
    15
100
AcDbLine
 10
2237.745418448225
 20
768.8848334382178
 30
0.0
 11
2237.745418448225
 21
771.3348334382174
 31
0.0
  0
ARC
  5
379
330
360
100
AcDbEntity
  8
0
  6
Continuous
 62
     7
370
    15
100
AcDbCircle
 10
2235.245418448225
 20
768.8848334382178
 30
0.0
 40
2.500000000000426
100
AcDbArc
 50
180.0
 51
0.0
  0
LINE
  5
37A
330
360
100
AcDbEntity
  8
0
  6
Continuous
 62
     7
370
    15
100
AcDbLine
 10
2232.745418448224
 20
770.6348334382172
 30
0.0
 11
2232.745418448224
 21
768.8848334382178
 31
0.0
  0
ARC
  5
37B
330
360
100
AcDbEntity
  8
0
  6
Continuous
 62
     7
370
    15
100
AcDbCircle
 10
2233.795418448225
 20
770.6348334382172
 30
0.0
 40
1.050000000000267
100
AcDbArc
 50
115.2087652967492
 51
180.0
  0
LINE
  5
37C
330
360
100
AcDbEntity
  8
0
  6
Continuous
 62
     7
370
    15
100
AcDbLine
 10
2236.670418448224
 20
771.5848334382173
 30
0.0
 11
2233.348204852724
 21
771.5848334382173
 31
0.0
  0
LINE
  5
37D
330
360
100
AcDbEntity
  8
0
  6
Continuous
 62
     7
370
    15
100
AcDbLine
 10
2236.670418448224
 20
771.7848334382174
 30
0.0
 11
2236.670418448224
 21
771.5848334382173
 31
0.0
  0
LINE
  5
37E
330
360
100
AcDbEntity
  8
0
  6
Continuous
 62
     7
370
    15
100
AcDbLine
 10
2233.170418448224
 20
771.7848334382174
 30
0.0
 11
2236.670418448224
 21
771.7848334382174
 31
0.0
  0
LINE
  5
37F
330
360
100
AcDbEntity
  8
0
  6
Continuous
 62
     7
370
    15
100
AcDbLine
 10
2233.170418448224
 20
772.3848334382174
 30
0.0
 11
2233.170418448224
 21
771.7848334382174
 31
0.0
  0
LINE
  5
380
330
360
100
AcDbEntity
  8
0
  6
Continuous
 62
     7
370
    15
100
AcDbLine
 10
2236.695418448225
 20
772.3848334382174
 30
0.0
 11
2233.170418448224
 21
772.3848334382174
 31
0.0
  0
LINE
  5
381
330
360
100
AcDbEntity
  8
0
  6
Continuous
 62
     7
370
    15
100
AcDbLine
 10
2233.445418448225
 20
770.6348334382172
 30
0.0
 11
2233.445418448225
 21
768.8848334382178
 31
0.0
  0
ARC
  5
382
330
360
100
AcDbEntity
  8
0
  6
Continuous
 62
     7
370
    15
100
AcDbCircle
 10
2235.245418448225
 20
768.8848334382178
 30
0.0
 40
1.800000000000267
100
AcDbArc
 50
180.0
 51
0.0
  0
LINE
  5
383
330
360
100
AcDbEntity
  8
0
  6
Continuous
 62
     7
370
    15
100
AcDbLine
 10
2237.045418448225
 20
768.8848334382178
 30
0.0
 11
2237.045418448225
 21
770.6348334382173
 31
0.0
  0
ARC
  5
384
330
360
100
AcDbEntity
  8
0
  6
Continuous
 62
     7
370
    15
100
AcDbCircle
 10
2236.695418448225
 20
770.6348334382173
 30
0.0
 40
0.3499999999999943
100
AcDbArc
 50
0.0
 51
90.0
  0
LINE
  5
385
330
360
100
AcDbEntity
  8
0
  6
Continuous
 62
     7
370
    15
100
AcDbLine
 10
2236.695418448225
 20
770.9848334382172
 30
0.0
 11
2233.795418448225
 21
770.9848334382172
 31
0.0
  0
ARC
  5
386
330
360
100
AcDbEntity
  8
0
  6
Continuous
 62
     7
370
    15
100
AcDbCircle
 10
2233.795418448225
 20
770.6348334382172
 30
0.0
 40
0.350000000000108
100
AcDbArc
 50
90.0
 51
180.0
  0
ARC
  5
387
330
360
100
AcDbEntity
  8
0
  6
Continuous
 62
     7
370
    15
100
AcDbCircle
 10
2221.795418448225
 20
770.6348334382172
 30
0.0
 40
0.3500000000000796
100
AcDbArc
 50
90.0
 51
180.0
  0
LINE
  5
388
330
360
100
AcDbEntity
  8
0
  6
Continuous
 62
     7
370
    15
100
AcDbLine
 10
2221.445418448224
 20
770.6348334382172
 30
0.0
 11
2221.445418448224
 21
768.8848334382178
 31
0.0
  0
ARC
  5
389
330
360
100
AcDbEntity
  8
0
  6
Continuous
 62
     7
370
    15
100
AcDbCircle
 10
2223.245418448225
 20
768.8848334382178
 30
0.0
 40
1.800000000000267
100
AcDbArc
 50
180.0
 51
0.0
  0
LINE
  5
38A
330
360
100
AcDbEntity
  8
0
  6
Continuous
 62
     7
370
    15
100
AcDbLine
 10
2225.045418448225
 20
768.8848334382178
 30
0.0
 11
2225.045418448225
 21
770.6348334382173
 31
0.0
  0
ARC
  5
38B
330
360
100
AcDbEntity
  8
0
  6
Continuous
 62
     7
370
    15
100
AcDbCircle
 10
2224.695418448225
 20
770.6348334382173
 30
0.0
 40
0.3500000000000227
100
AcDbArc
 50
0.0
 51
90.0
  0
LINE
  5
38C
330
360
100
AcDbEntity
  8
0
  6
Continuous
 62
     7
370
    15
100
AcDbLine
 10
2224.695418448225
 20
770.9848334382172
 30
0.0
 11
2221.795418448225
 21
770.9848334382172
 31
0.0
  0
LINE
  5
38D
330
360
100
AcDbEntity
  8
0
  6
Continuous
 62
     7
370
    15
100
AcDbLine
 10
2224.695418448225
 20
772.3848334382174
 30
0.0
 11
2221.170418448224
 21
772.3848334382174
 31
0.0
  0
ARC
  5
38E
330
360
100
AcDbEntity
  8
0
  6
Continuous
 62
     7
370
    15
100
AcDbCircle
 10
2224.695418448225
 20
771.3348334382174
 30
0.0
 40
1.050000000000125
100
AcDbArc
 50
0.0
 51
90.0
  0
LINE
  5
38F
330
360
100
AcDbEntity
  8
0
  6
Continuous
 62
     7
370
    15
100
AcDbLine
 10
2225.745418448225
 20
768.8848334382178
 30
0.0
 11
2225.745418448225
 21
771.3348334382174
 31
0.0
  0
ARC
  5
390
330
360
100
AcDbEntity
  8
0
  6
Continuous
 62
     7
370
    15
100
AcDbCircle
 10
2223.245418448225
 20
768.8848334382178
 30
0.0
 40
2.500000000000397
100
AcDbArc
 50
180.0
 51
0.0
  0
LINE
  5
391
330
360
100
AcDbEntity
  8
0
  6
Continuous
 62
     7
370
    15
100
AcDbLine
 10
2220.745418448224
 20
770.6348334382172
 30
0.0
 11
2220.745418448224
 21
768.8848334382178
 31
0.0
  0
ARC
  5
392
330
360
100
AcDbEntity
  8
0
  6
Continuous
 62
     7
370
    15
100
AcDbCircle
 10
2221.795418448225
 20
770.6348334382172
 30
0.0
 40
1.05000000000022
100
AcDbArc
 50
115.2087652967492
 51
180.0
  0
LINE
  5
393
330
360
100
AcDbEntity
  8
0
  6
Continuous
 62
     7
370
    15
100
AcDbLine
 10
2221.348204852724
 20
771.5848334382173
 30
0.0
 11
2224.670418448224
 21
771.5848334382173
 31
0.0
  0
LINE
  5
394
330
360
100
AcDbEntity
  8
0
  6
Continuous
 62
     7
370
    15
100
AcDbLine
 10
2224.670418448224
 20
771.5848334382173
 30
0.0
 11
2224.670418448224
 21
771.7848334382174
 31
0.0
  0
LINE
  5
395
330
360
100
AcDbEntity
  8
0
  6
Continuous
 62
     7
370
    15
100
AcDbLine
 10
2224.670418448224
 20
771.7848334382174
 30
0.0
 11
2221.170418448224
 21
771.7848334382174
 31
0.0
  0
LINE
  5
396
330
360
100
AcDbEntity
  8
0
  6
Continuous
 62
     7
370
    15
100
AcDbLine
 10
2221.170418448224
 20
772.3848334382174
 30
0.0
 11
2221.170418448224
 21
771.7848334382174
 31
0.0
  0
ENDBLK
  5
362
330
360
100
AcDbEntity
  8
0
100
AcDbBlockEnd
  0
BLOCK
  5
399
330
398
100
AcDbEntity
  8
0
100
AcDbBlockBegin
  2
3
 70
     0
 10
0.0
 20
0.0
 30
0.0
  3
3
  1

  0
ARC
  5
39B
330
398
100
AcDbEntity
  8
0
  6
Continuous
 62
     7
370
    15
100
AcDbCircle
 10
2266.133506444271
 20
750.8211257970382
 30
0.0
 40
1.95006948817827
100
AcDbArc
 50
284.8586239412057
 51
75.1433760642237
  0
ARC
  5
39C
330
398
100
AcDbEntity
  8
0
  6
Continuous
 62
     7
370
    15
100
AcDbCircle
 10
2266.133506444271
 20
750.8211257970382
 30
0.0
 40
1.950069488178265
100
AcDbArc
 50
104.8566239360196
 51
255.1433760639803
  0
ARC
  5
39D
330
398
100
AcDbEntity
  8
0
  6
Continuous
 62
     7
370
    15
100
AcDbCircle
 10
2258.633506444271
 20
750.8211257970382
 30
0.0
 40
1.950069488178263
100
AcDbArc
 50
284.8586239412057
 51
75.1433760642237
  0
ARC
  5
39E
330
398
100
AcDbEntity
  8
0
  6
Continuous
 62
     7
370
    15
100
AcDbCircle
 10
2258.633506444271
 20
750.8211257970382
 30
0.0
 40
1.950069488178272
100
AcDbArc
 50
104.8566239360196
 51
255.1433760639803
  0
ARC
  5
39F
330
398
100
AcDbEntity
  8
0
  6
Continuous
 62
     7
370
    15
100
AcDbCircle
 10
2266.133506444271
 20
738.8211257970382
 30
0.0
 40
1.95006948817827
100
AcDbArc
 50
284.8588324937344
 51
75.1433760642237
  0
ARC
  5
3A0
330
398
100
AcDbEntity
  8
0
  6
Continuous
 62
     7
370
    15
100
AcDbCircle
 10
2266.133506444271
 20
738.8211257970382
 30
0.0
 40
1.950069488178251
100
AcDbArc
 50
104.8566239360196
 51
255.1433760639803
  0
ARC
  5
3A1
330
398
100
AcDbEntity
  8
0
  6
Continuous
 62
     7
370
    15
100
AcDbCircle
 10
2258.633506444271
 20
738.8211257970382
 30
0.0
 40
1.950069488178263
100
AcDbArc
 50
284.8588324937344
 51
75.1433760642237
  0
ARC
  5
3A2
330
398
100
AcDbEntity
  8
0
  6
Continuous
 62
     7
370
    15
100
AcDbCircle
 10
2258.633506444271
 20
738.8211257970382
 30
0.0
 40
1.950069488178258
100
AcDbArc
 50
104.8566239360196
 51
255.1433760639803
  0
LINE
  5
3A3
330
398
100
AcDbEntity
  8
0
  6
Continuous
 62
     7
370
    15
100
AcDbLine
 10
2271.183506444275
 20
734.2711257970336
 30
0.0
 11
2271.883506444272
 21
733.5711257970387
 31
0.0
  0
LINE
  5
3A4
330
398
100
AcDbEntity
  8
0
  6
Continuous
 62
     7
370
    15
100
AcDbLine
 10
2271.183506444275
 20
734.2711257970336
 30
0.0
 11
2271.183506444272
 21
755.371125797038
 31
0.0
  0
LINE
  5
3A5
330
398
100
AcDbEntity
  8
0
  6
Continuous
 62
     7
370
    15
100
AcDbLine
 10
2271.183506444272
 20
755.371125797038
 30
0.0
 11
2271.883506444272
 21
756.0711257970381
 31
0.0
  0
LINE
  5
3A6
330
398
100
AcDbEntity
  8
0
  6
Continuous
 62
     7
370
    15
100
AcDbLine
 10
2271.883506444272
 20
733.5711257970387
 30
0.0
 11
2271.883506444272
 21
756.0711257970381
 31
0.0
  0
LINE
  5
3A7
330
398
100
AcDbEntity
  8
0
  6
Continuous
 62
     7
370
    15
100
AcDbLine
 10
2252.883506444272
 20
756.0711257970381
 30
0.0
 11
2271.883506444272
 21
756.0711257970381
 31
0.0
  0
LINE
  5
3A8
330
398
100
AcDbEntity
  8
0
  6
Continuous
 62
     7
370
    15
100
AcDbLine
 10
2253.583506444272
 20
755.371125797038
 30
0.0
 11
2271.183506444272
 21
755.371125797038
 31
0.0
  0
LINE
  5
3A9
330
398
100
AcDbEntity
  8
0
  6
Continuous
 62
     7
370
    15
100
AcDbLine
 10
2252.883506444272
 20
756.0711257970381
 30
0.0
 11
2253.583506444272
 21
755.371125797038
 31
0.0
  0
LINE
  5
3AA
330
398
100
AcDbEntity
  8
0
  6
Continuous
 62
     7
370
    15
100
AcDbLine
 10
2253.583506444272
 20
755.371125797038
 30
0.0
 11
2253.583506444272
 21
734.2711257970144
 31
0.0
  0
LINE
  5
3AB
330
398
100
AcDbEntity
  8
0
  6
Continuous
 62
     7
370
    15
100
AcDbLine
 10
2252.883506444274
 20
733.5711257970075
 30
0.0
 11
2253.583506444272
 21
734.2711257970144
 31
0.0
  0
LINE
  5
3AC
330
398
100
AcDbEntity
  8
0
  6
Continuous
 62
     7
370
    15
100
AcDbLine
 10
2252.883506444272
 20
756.0711257970381
 30
0.0
 11
2252.883506444274
 21
733.5711257970075
 31
0.0
  0
LINE
  5
3AD
330
398
100
AcDbEntity
  8
0
  6
Continuous
 62
     7
370
    15
100
AcDbLine
 10
2253.583506444272
 20
734.2711257970144
 30
0.0
 11
2271.183506444275
 21
734.2711257970336
 31
0.0
  0
CIRCLE
  5
3AE
330
398
100
AcDbEntity
  8
0
  6
Continuous
 62
     7
370
    15
100
AcDbCircle
 10
2262.383506444272
 20
744.8211257970382
 30
0.0
 40
3.5
  0
CIRCLE
  5
3AF
330
398
100
AcDbEntity
  8
0
  6
Continuous
 62
     7
370
    15
100
AcDbCircle
 10
2258.633506444271
 20
750.8211257970382
 30
0.0
 40
2.5
  0
CIRCLE
  5
3B0
330
398
100
AcDbEntity
  8
0
  6
Continuous
 62
     7
370
    15
100
AcDbCircle
 10
2266.133506444271
 20
750.8211257970382
 30
0.0
 40
2.5
  0
CIRCLE
  5
3B1
330
398
100
AcDbEntity
  8
0
  6
Continuous
 62
     7
370
    15
100
AcDbCircle
 10
2258.633506444271
 20
738.8211257970382
 30
0.0
 40
2.5
  0
CIRCLE
  5
3B2
330
398
100
AcDbEntity
  8
0
  6
Continuous
 62
     7
370
    15
100
AcDbCircle
 10
2266.133506444271
 20
738.8211257970382
 30
0.0
 40
2.5
  0
LINE
  5
3B3
330
398
100
AcDbEntity
  8
0
  6
Continuous
 62
     7
370
    15
100
AcDbLine
 10
2252.883506444274
 20
733.5711257970075
 30
0.0
 11
2271.883506444272
 21
733.5711257970387
 31
0.0
  0
LINE
  5
3B4
330
398
100
AcDbEntity
  8
0
  6
Continuous
 62
     7
370
    15
100
AcDbLine
 10
2262.383506444272
 20
741.3570241819005
 30
0.0
 11
2259.383506444271
 21
743.0890749894693
 31
0.0
  0
LINE
  5
3B5
330
398
100
AcDbEntity
  8
0
  6
Continuous
 62
     7
370
    15
100
AcDbLine
 10
2265.383506444271
 20
743.0890749894693
 30
0.0
 11
2262.383506444272
 21
741.3570241819005
 31
0.0
  0
LINE
  5
3B6
330
398
100
AcDbEntity
  8
0
  6
Continuous
 62
     7
370
    15
100
AcDbLine
 10
2265.383506444271
 20
746.5531766046072
 30
0.0
 11
2265.383506444271
 21
743.0890749894693
 31
0.0
  0
LINE
  5
3B7
330
398
100
AcDbEntity
  8
0
  6
Continuous
 62
     7
370
    15
100
AcDbLine
 10
2262.383506444272
 20
748.285227412176
 30
0.0
 11
2265.383506444271
 21
746.5531766046072
 31
0.0
  0
LINE
  5
3B8
330
398
100
AcDbEntity
  8
0
  6
Continuous
 62
     7
370
    15
100
AcDbLine
 10
2259.383506444271
 20
746.5531766046072
 30
0.0
 11
2262.383506444272
 21
748.285227412176
 31
0.0
  0
LINE
  5
3B9
330
398
100
AcDbEntity
  8
0
  6
Continuous
 62
     7
370
    15
100
AcDbLine
 10
2259.383506444271
 20
743.0890749894693
 30
0.0
 11
2259.383506444271
 21
746.5531766046072
 31
0.0
  0
SPLINE
  5
3BA
330
398
100
AcDbEntity
  8
0
  6
Continuous
 62
     7
370
    15
100
AcDbSpline
210
0.0
220
0.0
230
1.0
 70
    24
 71
     3
 72
    10
 73
     6
 74
     0
 42
0.0000000001
 43
0.0000000001
 40
0.0
 40
0.0
 40
0.0
 40
0.0
 40
0.5
 40
0.5
 40
1.0
 40
1.0
 40
1.0
 40
1.0
 10
2265.633506444268
 20
748.9362462229753
 30
0.0
 10
2265.633506444268
 20
748.9362462229755
 30
0.0
 10
2265.633506444268
 20
748.9614744328256
 30
0.0
 10
2265.633506444268
 20
749.0612846799211
 30
0.0
 10
2265.633506444268
 20
749.1356519299378
 30
0.0
 10
2265.633506444268
 20
749.2323126625416
 30
0.0
  0
ARC
  5
3BB
330
398
100
AcDbEntity
  8
0
  6
Continuous
 62
     7
370
    15
100
AcDbCircle
 10
2266.133506444271
 20
750.8211257970382
 30
0.0
 40
1.950069488178243
100
AcDbArc
 50
255.1433760639803
 51
284.8566239357763
  0
SPLINE
  5
3BC
330
398
100
AcDbEntity
  8
0
  6
Continuous
 62
     7
370
    15
100
AcDbSpline
210
0.0
220
0.0
230
1.0
 70
    24
 71
     3
 72
    10
 73
     6
 74
     0
 42
0.0000000001
 43
0.0000000001
 40
0.0
 40
0.0
 40
0.0
 40
0.0
 40
0.5
 40
0.5
 40
1.0
 40
1.0
 40
1.0
 40
1.0
 10
2266.633506444267
 20
749.232312662539
 30
0.0
 10
2266.633506444267
 20
749.1356524243436
 30
0.0
 10
2266.633506444267
 20
749.0624683760464
 30
0.0
 10
2266.633506444267
 20
748.9620785426926
 30
0.0
 10
2266.633506444267
 20
748.9362462229735
 30
0.0
 10
2266.633506444267
 20
748.9362462229731
 30
0.0
  0
ARC
  5
3BD
330
398
100
AcDbEntity
  8
0
  6
Continuous
 62
     7
370
    15
100
AcDbCircle
 10
2266.133506444271
 20
750.8211257970382
 30
0.0
 40
1.66563116455989
100
AcDbArc
 50
287.4688054621523
 51
72.53119453784768
  0
SPLINE
  5
3BE
330
398
100
AcDbEntity
  8
0
  6
Continuous
 62
     7
370
    15
100
AcDbSpline
210
0.0
220
0.0
230
1.0
 70
    24
 71
     3
 72
    10
 73
     6
 74
     0
 42
0.0000000001
 43
0.0000000001
 40
0.0
 40
0.0
 40
0.0
 40
0.0
 40
0.5
 40
0.5
 40
1.0
 40
1.0
 40
1.0
 40
1.0
 10
2266.633506444267
 20
752.7060053711034
 30
0.0
 10
2266.633506444267
 20
752.706005371103
 30
0.0
 10
2266.633506444267
 20
752.6807771612531
 30
0.0
 10
2266.633506444267
 20
752.5809669141576
 30
0.0
 10
2266.633506444267
 20
752.5065996641411
 30
0.0
 10
2266.633506444267
 20
752.4099389315374
 30
0.0
  0
ARC
  5
3BF
330
398
100
AcDbEntity
  8
0
  6
Continuous
 62
     7
370
    15
100
AcDbCircle
 10
2266.133506444271
 20
750.8211257970382
 30
0.0
 40
1.95006948817827
100
AcDbArc
 50
75.1433760642237
 51
104.8566239360196
  0
SPLINE
  5
3C0
330
398
100
AcDbEntity
  8
0
  6
Continuous
 62
     7
370
    15
100
AcDbSpline
210
0.0
220
0.0
230
1.0
 70
    24
 71
     3
 72
    10
 73
     6
 74
     0
 42
0.0000000001
 43
0.0000000001
 40
0.0
 40
0.0
 40
0.0
 40
0.0
 40
0.5
 40
0.5
 40
1.0
 40
1.0
 40
1.0
 40
1.0
 10
2265.633506444268
 20
752.4099389315349
 30
0.0
 10
2265.633506444268
 20
752.5065991697304
 30
0.0
 10
2265.633506444268
 20
752.5797832180277
 30
0.0
 10
2265.633506444268
 20
752.6801730513817
 30
0.0
 10
2265.633506444268
 20
752.7060053711009
 30
0.0
 10
2265.633506444268
 20
752.7060053711012
 30
0.0
  0
ARC
  5
3C1
330
398
100
AcDbEntity
  8
0
  6
Continuous
 62
     7
370
    15
100
AcDbCircle
 10
2266.133506444271
 20
750.8211257970382
 30
0.0
 40
1.665631164559882
100
AcDbArc
 50
107.4688054624511
 51
252.5311945375488
  0
ARC
  5
3C2
330
398
100
AcDbEntity
  8
0
  6
Continuous
 62
     7
370
    15
100
AcDbCircle
 10
2258.633506444271
 20
750.8211257970382
 30
0.0
 40
1.950069488178245
100
AcDbArc
 50
255.1433760639803
 51
284.8566239357763
  0
ARC
  5
3C3
330
398
100
AcDbEntity
  8
0
  6
Continuous
 62
     7
370
    15
100
AcDbCircle
 10
2258.633506444271
 20
750.8211257970382
 30
0.0
 40
1.665631164559881
100
AcDbArc
 50
287.4688054621523
 51
72.53119453784768
  0
ARC
  5
3C4
330
398
100
AcDbEntity
  8
0
  6
Continuous
 62
     7
370
    15
100
AcDbCircle
 10
2258.633506444271
 20
750.8211257970382
 30
0.0
 40
1.950069488178272
100
AcDbArc
 50
75.1433760642237
 51
104.8566239360196
  0
ARC
  5
3C5
330
398
100
AcDbEntity
  8
0
  6
Continuous
 62
     7
370
    15
100
AcDbCircle
 10
2258.633506444271
 20
750.8211257970382
 30
0.0
 40
1.665631164559891
100
AcDbArc
 50
107.4688054624511
 51
252.5311945375488
  0
SPLINE
  5
3C6
330
398
100
AcDbEntity
  8
0
  6
Continuous
 62
     7
370
    15
100
AcDbSpline
210
0.0
220
0.0
230
1.0
 70
    24
 71
     3
 72
    10
 73
     6
 74
     0
 42
0.0000000001
 43
0.0000000001
 40
0.0
 40
0.0
 40
0.0
 40
0.0
 40
0.5
 40
0.5
 40
1.0
 40
1.0
 40
1.0
 40
1.0
 10
2258.133506444267
 20
748.9362462229753
 30
0.0
 10
2258.133506444267
 20
748.9362462229755
 30
0.0
 10
2258.133506444267
 20
748.9614744328256
 30
0.0
 10
2258.133506444267
 20
749.0612846799211
 30
0.0
 10
2258.133506444267
 20
749.1356519299378
 30
0.0
 10
2258.133506444267
 20
749.2323126625416
 30
0.0
  0
SPLINE
  5
3C7
330
398
100
AcDbEntity
  8
0
  6
Continuous
 62
     7
370
    15
100
AcDbSpline
210
0.0
220
0.0
230
1.0
 70
    24
 71
     3
 72
    10
 73
     6
 74
     0
 42
0.0000000001
 43
0.0000000001
 40
0.0
 40
0.0
 40
0.0
 40
0.0
 40
0.5
 40
0.5
 40
1.0
 40
1.0
 40
1.0
 40
1.0
 10
2258.133506444267
 20
752.4099389315349
 30
0.0
 10
2258.133506444267
 20
752.5065991697304
 30
0.0
 10
2258.133506444267
 20
752.5797832180277
 30
0.0
 10
2258.133506444267
 20
752.6801730513817
 30
0.0
 10
2258.133506444267
 20
752.7060053711009
 30
0.0
 10
2258.133506444267
 20
752.7060053711012
 30
0.0
  0
SPLINE
  5
3C8
330
398
100
AcDbEntity
  8
0
  6
Continuous
 62
     7
370
    15
100
AcDbSpline
210
0.0
220
0.0
230
1.0
 70
    24
 71
     3
 72
    10
 73
     6
 74
     0
 42
0.0000000001
 43
0.0000000001
 40
0.0
 40
0.0
 40
0.0
 40
0.0
 40
0.5
 40
0.5
 40
1.0
 40
1.0
 40
1.0
 40
1.0
 10
2259.133506444268
 20
752.7060053711034
 30
0.0
 10
2259.133506444268
 20
752.706005371103
 30
0.0
 10
2259.133506444268
 20
752.6807771612531
 30
0.0
 10
2259.133506444268
 20
752.5809669141576
 30
0.0
 10
2259.133506444268
 20
752.5065996641411
 30
0.0
 10
2259.133506444268
 20
752.4099389315374
 30
0.0
  0
SPLINE
  5
3C9
330
398
100
AcDbEntity
  8
0
  6
Continuous
 62
     7
370
    15
100
AcDbSpline
210
0.0
220
0.0
230
1.0
 70
    24
 71
     3
 72
    10
 73
     6
 74
     0
 42
0.0000000001
 43
0.0000000001
 40
0.0
 40
0.0
 40
0.0
 40
0.0
 40
0.5
 40
0.5
 40
1.0
 40
1.0
 40
1.0
 40
1.0
 10
2259.133506444268
 20
749.232312662539
 30
0.0
 10
2259.133506444268
 20
749.1356524243436
 30
0.0
 10
2259.133506444268
 20
749.0624683760464
 30
0.0
 10
2259.133506444268
 20
748.9620785426926
 30
0.0
 10
2259.133506444268
 20
748.9362462229735
 30
0.0
 10
2259.133506444268
 20
748.9362462229731
 30
0.0
  0
LINE
  5
3CA
330
398
100
AcDbEntity
  8
0
  6
Continuous
 62
     7
370
    15
100
AcDbLine
 10
2258.133506444267
 20
749.2323126625416
 30
0.0
 11
2258.133506444267
 21
752.4099389315349
 31
0.0
  0
LINE
  5
3CB
330
398
100
AcDbEntity
  8
0
  6
Continuous
 62
     7
370
    15
100
AcDbLine
 10
2265.633506444268
 20
749.2323126625416
 30
0.0
 11
2265.633506444268
 21
752.4099389315349
 31
0.0
  0
LINE
  5
3CC
330
398
100
AcDbEntity
  8
0
  6
Continuous
 62
     7
370
    15
100
AcDbLine
 10
2259.133506444268
 20
752.4099389315374
 30
0.0
 11
2259.133506444268
 21
749.232312662539
 31
0.0
  0
LINE
  5
3CD
330
398
100
AcDbEntity
  8
0
  6
Continuous
 62
     7
370
    15
100
AcDbLine
 10
2266.633506444267
 20
752.4099389315374
 30
0.0
 11
2266.633506444267
 21
749.232312662539
 31
0.0
  0
ARC
  5
3CE
330
398
100
AcDbEntity
  8
0
  6
Continuous
 62
     7
370
    15
100
AcDbCircle
 10
2266.133506444271
 20
738.8211257970382
 30
0.0
 40
1.665631164559882
100
AcDbArc
 50
107.4688054624511
 51
252.5311945375488
  0
ARC
  5
3CF
330
398
100
AcDbEntity
  8
0
  6
Continuous
 62
     7
370
    15
100
AcDbCircle
 10
2266.133506444271
 20
738.8211257970382
 30
0.0
 40
1.95006948817827
100
AcDbArc
 50
255.1433760639803
 51
284.8566239357763
  0
ARC
  5
3D0
330
398
100
AcDbEntity
  8
0
  6
Continuous
 62
     7
370
    15
100
AcDbCircle
 10
2266.133506444271
 20
738.8211257970382
 30
0.0
 40
1.665631164559917
100
AcDbArc
 50
287.4688054621523
 51
72.53119453784768
  0
ARC
  5
3D1
330
398
100
AcDbEntity
  8
0
  6
Continuous
 62
     7
370
    15
100
AcDbCircle
 10
2266.133506444271
 20
738.8211257970382
 30
0.0
 40
1.95006948817827
100
AcDbArc
 50
75.1433760642237
 51
104.8566239360196
  0
SPLINE
  5
3D2
330
398
100
AcDbEntity
  8
0
  6
Continuous
 62
     7
370
    15
100
AcDbSpline
210
0.0
220
0.0
230
1.0
 70
    24
 71
     3
 72
    10
 73
     6
 74
     0
 42
0.0000000001
 43
0.0000000001
 40
0.0
 40
0.0
 40
0.0
 40
0.0
 40
0.5
 40
0.5
 40
1.0
 40
1.0
 40
1.0
 40
1.0
 10
2265.633506444268
 20
736.9362462229753
 30
0.0
 10
2265.633506444268
 20
736.9362462229755
 30
0.0
 10
2265.633506444268
 20
736.9614744328256
 30
0.0
 10
2265.633506444268
 20
737.0612846799211
 30
0.0
 10
2265.633506444268
 20
737.1356519299378
 30
0.0
 10
2265.633506444268
 20
737.2323126625416
 30
0.0
  0
SPLINE
  5
3D3
330
398
100
AcDbEntity
  8
0
  6
Continuous
 62
     7
370
    15
100
AcDbSpline
210
0.0
220
0.0
230
1.0
 70
    24
 71
     3
 72
    10
 73
     6
 74
     0
 42
0.0000000001
 43
0.0000000001
 40
0.0
 40
0.0
 40
0.0
 40
0.0
 40
0.5
 40
0.5
 40
1.0
 40
1.0
 40
1.0
 40
1.0
 10
2265.633506444268
 20
740.4099389315349
 30
0.0
 10
2265.633506444268
 20
740.5065991697305
 30
0.0
 10
2265.633506444268
 20
740.5797832180278
 30
0.0
 10
2265.633506444268
 20
740.6801730513818
 30
0.0
 10
2265.633506444268
 20
740.7060053711009
 30
0.0
 10
2265.633506444268
 20
740.7060053711012
 30
0.0
  0
SPLINE
  5
3D4
330
398
100
AcDbEntity
  8
0
  6
Continuous
 62
     7
370
    15
100
AcDbSpline
210
0.0
220
0.0
230
1.0
 70
    24
 71
     3
 72
    10
 73
     6
 74
     0
 42
0.0000000001
 43
0.0000000001
 40
0.0
 40
0.0
 40
0.0
 40
0.0
 40
0.5
 40
0.5
 40
1.0
 40
1.0
 40
1.0
 40
1.0
 10
2266.633506444267
 20
740.7060053711034
 30
0.0
 10
2266.633506444267
 20
740.706005371103
 30
0.0
 10
2266.633506444267
 20
740.680777161253
 30
0.0
 10
2266.633506444267
 20
740.5809669141576
 30
0.0
 10
2266.633506444267
 20
740.5065996641411
 30
0.0
 10
2266.633506444267
 20
740.4099389315375
 30
0.0
  0
SPLINE
  5
3D5
330
398
100
AcDbEntity
  8
0
  6
Continuous
 62
     7
370
    15
100
AcDbSpline
210
0.0
220
0.0
230
1.0
 70
    24
 71
     3
 72
    10
 73
     6
 74
     0
 42
0.0000000001
 43
0.0000000001
 40
0.0
 40
0.0
 40
0.0
 40
0.0
 40
0.5
 40
0.5
 40
1.0
 40
1.0
 40
1.0
 40
1.0
 10
2266.633506444267
 20
737.2323126625391
 30
0.0
 10
2266.633506444267
 20
737.1356524243436
 30
0.0
 10
2266.633506444267
 20
737.0624683760464
 30
0.0
 10
2266.633506444267
 20
736.9620785426926
 30
0.0
 10
2266.633506444267
 20
736.9362462229735
 30
0.0
 10
2266.633506444267
 20
736.9362462229731
 30
0.0
  0
ARC
  5
3D6
330
398
100
AcDbEntity
  8
0
  6
Continuous
 62
     7
370
    15
100
AcDbCircle
 10
2258.633506444271
 20
738.8211257970382
 30
0.0
 40
1.665631164559891
100
AcDbArc
 50
107.4688054624511
 51
252.5311945375488
  0
SPLINE
  5
3D7
330
398
100
AcDbEntity
  8
0
  6
Continuous
 62
     7
370
    15
100
AcDbSpline
210
0.0
220
0.0
230
1.0
 70
    24
 71
     3
 72
    10
 73
     6
 74
     0
 42
0.0000000001
 43
0.0000000001
 40
0.0
 40
0.0
 40
0.0
 40
0.0
 40
0.5
 40
0.5
 40
1.0
 40
1.0
 40
1.0
 40
1.0
 10
2258.133506444267
 20
736.9362462229753
 30
0.0
 10
2258.133506444267
 20
736.9362462229755
 30
0.0
 10
2258.133506444267
 20
736.9614744328256
 30
0.0
 10
2258.133506444267
 20
737.0612846799211
 30
0.0
 10
2258.133506444267
 20
737.1356519299378
 30
0.0
 10
2258.133506444267
 20
737.2323126625416
 30
0.0
  0
ARC
  5
3D8
330
398
100
AcDbEntity
  8
0
  6
Continuous
 62
     7
370
    15
100
AcDbCircle
 10
2258.633506444271
 20
738.8211257970382
 30
0.0
 40
1.950069488178263
100
AcDbArc
 50
255.1433760639803
 51
284.8566239357763
  0
SPLINE
  5
3D9
330
398
100
AcDbEntity
  8
0
  6
Continuous
 62
     7
370
    15
100
AcDbSpline
210
0.0
220
0.0
230
1.0
 70
    24
 71
     3
 72
    10
 73
     6
 74
     0
 42
0.0000000001
 43
0.0000000001
 40
0.0
 40
0.0
 40
0.0
 40
0.0
 40
0.5
 40
0.5
 40
1.0
 40
1.0
 40
1.0
 40
1.0
 10
2259.133506444268
 20
737.2323126625391
 30
0.0
 10
2259.133506444268
 20
737.1356524243436
 30
0.0
 10
2259.133506444268
 20
737.0624683760464
 30
0.0
 10
2259.133506444268
 20
736.9620785426926
 30
0.0
 10
2259.133506444268
 20
736.9362462229735
 30
0.0
 10
2259.133506444268
 20
736.9362462229731
 30
0.0
  0
ARC
  5
3DA
330
398
100
AcDbEntity
  8
0
  6
Continuous
 62
     7
370
    15
100
AcDbCircle
 10
2258.633506444271
 20
738.8211257970382
 30
0.0
 40
1.665631164559908
100
AcDbArc
 50
287.4688054621523
 51
72.53119453784768
  0
SPLINE
  5
3DB
330
398
100
AcDbEntity
  8
0
  6
Continuous
 62
     7
370
    15
100
AcDbSpline
210
0.0
220
0.0
230
1.0
 70
    24
 71
     3
 72
    10
 73
     6
 74
     0
 42
0.0000000001
 43
0.0000000001
 40
0.0
 40
0.0
 40
0.0
 40
0.0
 40
0.5
 40
0.5
 40
1.0
 40
1.0
 40
1.0
 40
1.0
 10
2259.133506444268
 20
740.7060053711034
 30
0.0
 10
2259.133506444268
 20
740.706005371103
 30
0.0
 10
2259.133506444268
 20
740.680777161253
 30
0.0
 10
2259.133506444268
 20
740.5809669141576
 30
0.0
 10
2259.133506444268
 20
740.5065996641411
 30
0.0
 10
2259.133506444268
 20
740.4099389315375
 30
0.0
  0
ARC
  5
3DC
330
398
100
AcDbEntity
  8
0
  6
Continuous
 62
     7
370
    15
100
AcDbCircle
 10
2258.633506444271
 20
738.8211257970382
 30
0.0
 40
1.950069488178263
100
AcDbArc
 50
75.1433760642237
 51
104.8566239360196
  0
SPLINE
  5
3DD
330
398
100
AcDbEntity
  8
0
  6
Continuous
 62
     7
370
    15
100
AcDbSpline
210
0.0
220
0.0
230
1.0
 70
    24
 71
     3
 72
    10
 73
     6
 74
     0
 42
0.0000000001
 43
0.0000000001
 40
0.0
 40
0.0
 40
0.0
 40
0.0
 40
0.5
 40
0.5
 40
1.0
 40
1.0
 40
1.0
 40
1.0
 10
2258.133506444267
 20
740.4099389315349
 30
0.0
 10
2258.133506444267
 20
740.5065991697305
 30
0.0
 10
2258.133506444267
 20
740.5797832180278
 30
0.0
 10
2258.133506444267
 20
740.6801730513818
 30
0.0
 10
2258.133506444267
 20
740.7060053711009
 30
0.0
 10
2258.133506444267
 20
740.7060053711012
 30
0.0
  0
LINE
  5
3DE
330
398
100
AcDbEntity
  8
0
  6
Continuous
 62
     7
370
    15
100
AcDbLine
 10
2265.633506444268
 20
737.2323126625416
 30
0.0
 11
2265.633506444268
 21
740.4099389315349
 31
0.0
  0
LINE
  5
3DF
330
398
100
AcDbEntity
  8
0
  6
Continuous
 62
     7
370
    15
100
AcDbLine
 10
2266.633506444267
 20
740.4099389315375
 30
0.0
 11
2266.633506444267
 21
737.2323126625391
 31
0.0
  0
LINE
  5
3E0
330
398
100
AcDbEntity
  8
0
  6
Continuous
 62
     7
370
    15
100
AcDbLine
 10
2258.133506444267
 20
737.2323126625416
 30
0.0
 11
2258.133506444267
 21
740.4099389315349
 31
0.0
  0
LINE
  5
3E1
330
398
100
AcDbEntity
  8
0
  6
Continuous
 62
     7
370
    15
100
AcDbLine
 10
2259.133506444268
 20
740.4099389315375
 30
0.0
 11
2259.133506444268
 21
737.2323126625391
 31
0.0
  0
CIRCLE
  5
3E2
330
398
100
AcDbEntity
  8
0
  6
Continuous
 62
     7
370
    15
100
AcDbCircle
 10
2262.383506444272
 20
744.8211257970382
 30
0.0
 40
2.150000000000005
  0
INSERT
  5
3E3
330
398
100
AcDbEntity
  8
0
  6
Continuous
 62
     7
370
     0
100
AcDbBlockReference
  2
SW_CENTERMARKSYMBOL_0
 10
2262.383506444272
 20
744.8211257970382
 30
0.0
  0
INSERT
  5
3E4
330
398
100
AcDbEntity
  8
0
  6
Continuous
 62
     7
370
     0
100
AcDbBlockReference
  2
SW_CENTERMARKSYMBOL_1
 10
2266.133506444271
 20
738.8211257970382
 30
0.0
  0
INSERT
  5
3E5
330
398
100
AcDbEntity
  8
0
  6
Continuous
 62
     7
370
     0
100
AcDbBlockReference
  2
SW_CENTERMARKSYMBOL_2
 10
2258.633506444271
 20
738.8211257970382
 30
0.0
  0
INSERT
  5
3E6
330
398
100
AcDbEntity
  8
0
  6
Continuous
 62
     7
370
     0
100
AcDbBlockReference
  2
SW_CENTERMARKSYMBOL_3
 10
2266.133506444271
 20
750.8211257970382
 30
0.0
  0
INSERT
  5
3E7
330
398
100
AcDbEntity
  8
0
  6
Continuous
 62
     7
370
     0
100
AcDbBlockReference
  2
SW_CENTERMARKSYMBOL_4
 10
2258.633506444271
 20
750.8211257970382
 30
0.0
  0
ENDBLK
  5
39A
330
398
100
AcDbEntity
  8
0
100
AcDbBlockEnd
  0
BLOCK
  5
3EA
330
3E9
100
AcDbEntity
  8
0
100
AcDbBlockBegin
  2
4
 70
     0
 10
0.0
 20
0.0
 30
0.0
  3
4
  1

  0
LINE
  5
3EC
330
3E9
100
AcDbEntity
  8
0
  6
Continuous
 62
     7
370
    15
100
AcDbLine
 10
2335.312469851812
 20
756.2907460740649
 30
0.0
 11
2321.877441009267
 21
764.0466231363807
 31
0.0
  0
LINE
  5
3ED
330
3E9
100
AcDbEntity
  8
0
  6
Continuous
 62
     7
370
    15
100
AcDbLine
 10
2322.867390502929
 20
764.6182017047008
 30
0.0
 11
2321.877441009267
 21
764.0466231363807
 31
0.0
  0
LINE
  5
3EE
330
3E9
100
AcDbEntity
  8
0
  6
Continuous
 62
     7
370
    15
100
AcDbLine
 10
2335.312469851812
 20
757.4338103206608
 30
0.0
 11
2322.867390502929
 21
764.6182017047008
 31
0.0
  0
LINE
  5
3EF
330
3E9
100
AcDbEntity
  8
0
  6
Continuous
 62
     7
370
    15
100
AcDbLine
 10
2335.312469851812
 20
756.2907460740649
 30
0.0
 11
2335.312469851812
 21
757.4338103206608
 31
0.0
  0
LINE
  5
3F0
330
3E9
100
AcDbEntity
  8
0
  6
Continuous
 62
     7
370
    15
100
AcDbLine
 10
2335.312469851812
 20
757.4338103206608
 30
0.0
 11
2350.232422934865
 21
766.0469159004001
 31
0.0
  0
LINE
  5
3F1
330
3E9
100
AcDbEntity
  8
0
  6
Continuous
 62
     7
370
    15
100
AcDbLine
 10
2351.22237242853
 20
765.4753373320853
 30
0.0
 11
2350.232422934865
 21
766.0469159004001
 31
0.0
  0
LINE
  5
3F2
330
3E9
100
AcDbEntity
  8
0
  6
Continuous
 62
     7
370
    15
100
AcDbLine
 10
2335.312469851812
 20
756.2907460740649
 30
0.0
 11
2351.22237242853
 21
765.4753373320853
 31
0.0
  0
LINE
  5
3F3
330
3E9
100
AcDbEntity
  8
0
  6
Continuous
 62
     7
370
    15
100
AcDbLine
 10
2335.312469851812
 20
743.5527094086473
 30
0.0
 11
2335.312469851812
 21
756.2907460740649
 31
0.0
  0
LINE
  5
3F4
330
3E9
100
AcDbEntity
  8
0
  6
Continuous
 62
     7
370
    15
100
AcDbLine
 10
2321.877441009267
 20
751.308586470963
 30
0.0
 11
2335.312469851812
 21
743.5527094086473
 31
0.0
  0
LINE
  5
3F5
330
3E9
100
AcDbEntity
  8
0
  6
Continuous
 62
     7
370
    15
100
AcDbLine
 10
2321.877441009267
 20
764.0466231363807
 30
0.0
 11
2321.877441009267
 21
751.308586470963
 31
0.0
  0
LWPOLYLINE
  5
3F6
330
3E9
100
AcDbEntity
  8
0
  6
Continuous
 62
     7
370
    15
100
AcDbPolyline
 90
       66
 70
   128
 43
0.0
 10
2345.742294863568
 20
754.7179263420166
 10
2345.750547445438
 20
754.5256715677689
 10
2345.775228138917
 20
754.3447400527618
 10
2345.816106507017
 20
754.1768211058015
 10
2345.872800879432
 20
754.0234825408527
 10
2345.94478191608
 20
753.8861560387812
 10
2346.031377549417
 20
753.7661237801365
 10
2346.131779259346
 20
753.6645064737764
 10
2346.245049622154
 20
753.5822528931113
 10
2346.370131062982
 20
753.5201310176618
 10
2346.505855730118
 20
753.478720862641
 10
2346.650956398915
 20
753.4584090635092
 10
2346.804078303522
 20
753.4593852660621
 10
2346.963791785974
 20
753.4816403557593
 10
2347.128605644516
 20
753.5249665428249
 10
2347.296981056559
 20
753.5889593023236
 10
2347.467345946246
 20
753.6730211511021
 10
2347.638109662505
 20
753.7763672263276
 10
2347.807677830527
 20
753.8980326135406
 10
2347.974467238014
 20
754.0368813558016
 10
2348.136920617209
 20
754.1916170598151
 10
2348.293521184679
 20
754.3607950000039
 10
2348.44280680312
 20
754.5428356075229
 10
2348.583383632937
 20
754.7360392182679
 10
2348.713939146144
 20
754.9386019421813
 10
2348.833254381092
 20
755.1486325056873
 10
2348.940215323579
 20
755.3641699100043
 10
2349.033823308104
 20
755.5832017404614
 10
2349.113204342138
 20
755.8036829558727
 10
2349.177617266354
 20
756.0235549825352
 10
2349.226460674634
 20
756.2407649345773
 10
2349.259278529233
 20
756.4532847812008
 10
2349.275764418687
 20
756.659130281858
 10
2349.275764418687
 20
756.8563795125716
 10
2349.259278529233
 20
757.0431908104201
 10
2349.226460674634
 20
757.217819968649
 10
2349.177617266354
 20
757.3786365218593
 10
2349.113204342138
 20
757.5241389692234
 10
2349.033823308104
 20
757.6529687935935
 10
2348.940215323579
 20
757.763923145611
 10
2348.833254381091
 20
757.8559660743861
 10
2348.713939146144
 20
757.9282381998925
 10
2348.583383632937
 20
757.9800647367667
 10
2348.44280680312
 20
758.010961794598
 10
2348.293521184679
 20
758.0206408958823
 10
2348.136920617209
 20
758.0090116694586
 10
2347.974467238014
 20
757.9761826942809
 10
2347.807677830527
 20
757.9224604856449
 10
2347.638109662505
 20
757.8483466333381
 10
2347.467345946246
 20
757.7545331184308
 10
2347.296981056559
 20
757.6418958524348
 10
2347.128605644516
 20
757.5114864991542
 10
2346.963791785973
 20
757.3645226555838
 10
2346.804078303522
 20
757.2023764835337
 10
2346.650956398915
 20
757.0265618981244
 10
2346.505855730118
 20
756.8387204327693
 10
2346.370131062982
 20
756.6406059126195
 10
2346.245049622154
 20
756.4340680795702
 10
2346.131779259346
 20
756.2210353217202
 10
2346.031377549417
 20
756.003496668531
 10
2345.94478191608
 20
755.7834832197949
 10
2345.872800879432
 20
755.5630491818032
 10
2345.816106507017
 20
755.3442526877759
 10
2345.775228138917
 20
755.1291365816265
 10
2345.750547445438
 20
754.9197093444779
 10
2345.742294863568
 20
754.7179263420166
  0
LINE
  5
3F7
330
3E9
100
AcDbEntity
  8
0
  6
Continuous
 62
     7
370
    15
100
AcDbLine
 10
2351.22237242853
 20
752.737300666661
 30
0.0
 11
2351.22237242853
 21
765.4753373320853
 31
0.0
  0
LINE
  5
3F8
330
3E9
100
AcDbEntity
  8
0
  6
Continuous
 62
     7
370
    15
100
AcDbLine
 10
2351.22237242853
 20
752.737300666661
 30
0.0
 11
2351.045595733236
 21
752.4311144497167
 31
0.0
  0
LINE
  5
3F9
330
3E9
100
AcDbEntity
  8
0
  6
Continuous
 62
     7
370
    15
100
AcDbLine
 10
2351.045595733236
 20
752.4311144497167
 30
0.0
 11
2335.489246547108
 21
743.4506252196536
 31
0.0
  0
LINE
  5
3FA
330
3E9
100
AcDbEntity
  8
0
  6
Continuous
 62
     7
370
    15
100
AcDbLine
 10
2335.489246547108
 20
743.4506252196536
 30
0.0
 11
2335.312469851812
 21
743.5527094086473
 31
0.0
  0
LWPOLYLINE
  5
3FB
330
3E9
100
AcDbEntity
  8
0
  6
Continuous
 62
     7
370
    15
100
AcDbPolyline
 90
       66
 70
   128
 43
0.0
 10
2337.257013489329
 20
749.8194776710804
 10
2337.2652660712
 20
749.6272228968327
 10
2337.289946764678
 20
749.4462913818256
 10
2337.330825132779
 20
749.2783724348653
 10
2337.387519505194
 20
749.1250338699164
 10
2337.459500541841
 20
748.9877073678449
 10
2337.546096175179
 20
748.8676751092002
 10
2337.646497885107
 20
748.7660578028402
 10
2337.759768247916
 20
748.683804222175
 10
2337.884849688743
 20
748.6216823467255
 10
2338.020574355879
 20
748.5802721917048
 10
2338.165675024676
 20
748.5599603925729
 10
2338.318796929283
 20
748.5609365951257
 10
2338.478510411735
 20
748.5831916848231
 10
2338.643324270277
 20
748.6265178718887
 10
2338.81169968232
 20
748.6905106313875
 10
2338.982064572007
 20
748.7745724801659
 10
2339.152828288266
 20
748.8779185553913
 10
2339.322396456289
 20
748.9995839426043
 10
2339.489185863776
 20
749.1384326848653
 10
2339.65163924297
 20
749.2931683888789
 10
2339.80823981044
 20
749.4623463290677
 10
2339.957525428882
 20
749.6443869365866
 10
2340.098102258698
 20
749.8375905473316
 10
2340.228657771905
 20
750.040153271245
 10
2340.347973006853
 20
750.2501838347511
 10
2340.45493394934
 20
750.465721239068
 10
2340.548541933866
 20
750.6847530695251
 10
2340.6279229679
 20
750.9052342849364
 10
2340.692335892116
 20
751.125106311599
 10
2340.741179300395
 20
751.3423162636411
 10
2340.773997154994
 20
751.5548361102645
 10
2340.790483044448
 20
751.7606816109219
 10
2340.790483044448
 20
751.9579308416354
 10
2340.773997154994
 20
752.1447421394838
 10
2340.741179300395
 20
752.3193712977128
 10
2340.692335892116
 20
752.4801878509231
 10
2340.6279229679
 20
752.6256902982871
 10
2340.548541933866
 20
752.7545201226574
 10
2340.45493394934
 20
752.8654744746749
 10
2340.347973006853
 20
752.95751740345
 10
2340.228657771905
 20
753.0297895289562
 10
2340.098102258698
 20
753.0816160658305
 10
2339.957525428882
 20
753.1125131236619
 10
2339.80823981044
 20
753.122192224946
 10
2339.65163924297
 20
753.1105629985225
 10
2339.489185863776
 20
753.0777340233446
 10
2339.322396456289
 20
753.0240118147087
 10
2339.152828288266
 20
752.949897962402
 10
2338.982064572007
 20
752.8560844474945
 10
2338.81169968232
 20
752.7434471814985
 10
2338.643324270277
 20
752.6130378282179
 10
2338.478510411735
 20
752.4660739846475
 10
2338.318796929283
 20
752.3039278125974
 10
2338.165675024676
 20
752.1281132271882
 10
2338.020574355879
 20
751.9402717618332
 10
2337.884849688743
 20
751.7421572416832
 10
2337.759768247916
 20
751.535619408634
 10
2337.646497885107
 20
751.322586650784
 10
2337.546096175179
 20
751.1050479975948
 10
2337.459500541841
 20
750.8850345488586
 10
2337.387519505194
 20
750.6646005108669
 10
2337.330825132779
 20
750.4458040168397
 10
2337.289946764678
 20
750.2306879106902
 10
2337.2652660712
 20
750.0212606735417
 10
2337.257013489329
 20
749.8194776710804
  0
LINE
  5
3FC
330
3E9
100
AcDbEntity
  8
0
  6
Continuous
 62
     7
370
    15
100
AcDbLine
 10
2337.787343585965
 20
773.2313072844305
 30
0.0
 11
2322.867390502929
 21
764.6182017047008
 31
0.0
  0
LINE
  5
3FD
330
3E9
100
AcDbEntity
  8
0
  6
Continuous
 62
     7
370
    15
100
AcDbLine
 10
2350.232422934865
 20
766.0469159004001
 30
0.0
 11
2337.787343585965
 21
773.2313072844305
 31
0.0
  0
LWPOLYLINE
  5
3FE
330
3E9
100
AcDbEntity
  8
0
  6
Continuous
 62
     7
370
    15
100
AcDbPolyline
 90
       78
 70
   128
 43
0.0
 10
2334.075032984735
 20
763.9038446068557
 10
2334.284993107863
 20
763.7921450649971
 10
2334.510025857388
 20
763.6906967224115
 10
2334.74863367749
 20
763.6001747010809
 10
2334.999228672492
 20
763.5211814101223
 10
2335.260143174051
 20
763.4542425368541
 10
2335.529640839203
 20
763.3998035484339
 10
2335.805928205453
 20
763.3582267273473
 10
2336.087166625962
 20
763.3297887604794
 10
2336.371484505443
 20
763.3146788978077
 10
2336.656989755316
 20
763.3129976929754
 10
2336.94178238525
 20
763.3247563341229
 10
2337.223967147279
 20
763.3498765694338
 10
2337.501666148369
 20
763.3881912278865
 10
2337.773031347485
 20
763.4394453317504
 10
2338.036256854
 20
763.5032977934208
 10
2338.289590945595
 20
763.5793236853002
 10
2338.53134772569
 20
763.6670170676214
 10
2338.759918342798
 20
763.7657943553933
 10
2338.973781697177
 20
763.8749982020632
 10
2339.171514563486
 20
763.9939018740486
 10
2339.351801062124
 20
764.1217140870305
 10
2339.513441416187
 20
764.2575842718187
 10
2339.65535993579
 20
764.4006082347506
 10
2339.776612176597
 20
764.5498341749502
 10
2339.876391224951
 20
764.704269018406
 10
2339.95403306775
 20
764.8628850267146
 10
2340.009021011339
 20
765.0246266365106
 10
2340.040989120025
 20
765.1884174840666
 10
2340.049724651318
 20
765.3531675683153
 10
2340.035169471701
 20
765.5177805046279
 10
2339.997420443493
 20
765.6811608210727
 10
2339.936728780246
 20
765.8422212485993
 10
2339.853498374967
 20
765.999889956636
 10
2339.748283112272
 20
766.1531176859441
 10
2339.621783182374
 20
766.3008847312657
 10
2339.474840421435
 20
766.4422077272944
 10
2339.308432709285
 20
766.5761461928079
 10
2339.123667461795
 20
766.7018087894168
 10
2338.9217742612
 20
766.8183592532734
 10
2338.704096673443
 20
766.9250219602703
 10
2338.472083306954
 20
767.0210870876903
 10
2338.227278172409
 20
767.1059153379603
 10
2337.971310407587
 20
767.1789421930705
 10
2337.705883435731
 20
767.2396816713484
 10
2337.432763629548
 20
767.2877295615876
 10
2337.153768556286
 20
767.3227661130058
 10
2336.870754882126
 20
767.344558163134
 10
2336.585606016376
 20
767.352960689474
 10
2336.300219577691
 20
767.3479177745994
 10
2336.016494765735
 20
767.3294629782765
 10
2335.736319722321
 20
767.2977191141301
 10
2335.461558966136
 20
767.2528974323388
 10
2335.194040984681
 20
767.1952962137999
 10
2334.935546065986
 20
767.125298785119
 10
2334.687794451085
 20
767.0433709676354
 10
2334.452434886099
 20
766.9500579774571
 10
2334.231033650102
 20
766.8459807971386
 10
2334.02506413179
 20
766.731832043143
 10
2333.835897024325
 20
766.6083713565951
 10
2333.664791203598
 20
766.4764203479942
 10
2333.512885350615
 20
766.3368571295323
 10
2333.381190373764
 20
766.1906104714018
 10
2333.270582681389
 20
766.0386536209837
 10
2333.181798349433
 20
765.8819978260462
 10
2333.115428222977
 20
765.7216856050585
 10
2333.071913984262
 20
765.5587838094013
 10
2333.051545213368
 20
765.3943765236481
 10
2333.054457461103
 20
765.2295578511602
 10
2333.080631346941
 20
765.0654246330097
 10
2333.129892687989
 20
764.9030691486835
 10
2333.20191365815
 20
764.743571847143
 10
2333.296214969751
 20
764.5879941566146
 10
2333.41216906312
 20
764.4373714209604
 10
2333.549004282899
 20
764.2927060096351
 10
2333.705810013274
 20
764.154960647083
 10
2333.881542737983
 20
764.0250520059654
 10
2334.075032984735
 20
763.9038446068557
  0
LWPOLYLINE
  5
3FF
330
3E9
100
AcDbEntity
  8
0
  6
Continuous
 62
     7
370
    15
100
AcDbPolyline
 90
       66
 70
   128
 43
0.0
 10
2333.191149508252
 20
760.3320591176314
 10
2333.370016210017
 20
760.2383297968152
 10
2333.56371804532
 20
760.1550038296271
 10
2333.770446472319
 20
760.0828592081718
 10
2333.988271323387
 20
760.0225695273417
 10
2334.215158826581
 20
759.9746976956422
 10
2334.448990594415
 20
759.9396906794677
 10
2334.687583402675
 20
759.9178753298961
 10
2334.928709574596
 20
759.9094553309686
 10
2335.17011778008
 20
759.9145092979463
 10
2335.409554055754
 20
759.9329900433015
 10
2335.644782849625
 20
759.9647250172941
 10
2335.873607893824
 20
760.0094179190224
 10
2336.093892710567
 20
760.0666514629048
 10
2336.303580559873
 20
760.1358912747628
 10
2336.50071364279
 20
760.2164908811289
 10
2336.683451380837
 20
760.3076977451948
 10
2336.85008760099
 20
760.4086602930448
 10
2336.999066465759
 20
760.5184358645729
 10
2337.128996999624
 20
760.6359995148446
 10
2337.238666076199
 20
760.7602535837337
 10
2337.327049744863
 20
760.8900379444771
 10
2337.393322791117
 20
761.0241408354672
 10
2337.436866441383
 20
761.1613101741426
 10
2337.457274140332
 20
761.3002652473466
 10
2337.454355346777
 20
761.4397086690001
 10
2337.428137312707
 20
761.5783384934458
 10
2337.378864828841
 20
761.7148603713649
 10
2337.306997939086
 20
761.8479996347671
 10
2337.213207645229
 20
761.9765131982224
 10
2337.098369641972
 20
762.0992011652147
 10
2336.963556140811
 20
762.2149180312528
 10
2336.810025859082
 20
762.3225833791368
 10
2336.639212267659
 20
762.4211919665224
 10
2336.452710207023
 20
762.5098231115976
 10
2336.252260996663
 20
762.5876492892412
 10
2336.039736176848
 20
762.6539438574018
 10
2335.817120034559
 20
762.7080878415585
 10
2335.586491076736
 20
762.7495757139196
 10
2335.350002623819
 20
762.7780201133991
 10
2335.109862704774
 20
762.793155462303
 10
2334.868313441324
 20
762.7948404459566
 10
2334.627610113858
 20
762.7830593321215
 10
2334.390000104492
 20
762.7579221178834
 10
2334.157701913863
 20
762.7196635026386
 10
2333.932884447587
 20
762.6686406967697
 10
2333.717646765772
 20
762.6053300864675
 10
2333.513998484663
 20
762.5303227858424
 10
2333.323841013389
 20
762.4443191178506
 10
2333.148949801024
 20
762.3481220755678
 10
2332.990957759696
 20
762.242629824859
 10
2332.851340018526
 20
762.1288273184457
 10
2332.731400150747
 20
762.0077770996679
 10
2332.632258002588
 20
761.8806093818029
 10
2332.554839237572
 20
761.7485114955691
 10
2332.499866693851
 20
761.6127168033385
 10
2332.467853635252
 20
761.4744931835645
 10
2332.45909895908
 20
761.3351311929425
 10
2332.473684405385
 20
761.19593201683
 10
2332.511473793787
 20
761.0581953204293
 10
2332.572114294947
 20
760.9232071141634
 10
2332.655039724846
 20
760.7922277465437
 10
2332.759475831085
 20
760.6664801366353
 10
2332.884447521881
 20
760.5471383559907
 10
2333.028787970229
 20
760.4353166666612
 10
2333.191149508252
 20
760.3320591176314
  0
LWPOLYLINE
  5
400
330
3E9
100
AcDbEntity
  8
0
  6
Continuous
 62
     7
370
    15
100
AcDbPolyline
 90
       66
 70
   128
 43
0.0
 10
2327.887848649353
 20
763.3935895369666
 10
2328.066715351118
 20
763.2998602161503
 10
2328.260417186422
 20
763.2165342489622
 10
2328.467145613419
 20
763.1443896275071
 10
2328.684970464488
 20
763.0840999466768
 10
2328.911857967682
 20
763.0362281149773
 10
2329.145689735516
 20
763.0012210988029
 10
2329.384282543776
 20
762.9794057492313
 10
2329.625408715697
 20
762.9709857503037
 10
2329.86681692118
 20
762.9760397172815
 10
2330.106253196854
 20
762.9945204626367
 10
2330.341481990726
 20
763.0262554366293
 10
2330.570307034925
 20
763.0709483383575
 10
2330.790591851668
 20
763.12818188224
 10
2331.000279700974
 20
763.1974216940981
 10
2331.197412783891
 20
763.2780213004641
 10
2331.380150521938
 20
763.3692281645299
 10
2331.546786742091
 20
763.47019071238
 10
2331.69576560686
 20
763.579966283908
 10
2331.825696140725
 20
763.6975299341798
 10
2331.9353652173
 20
763.8217840030688
 10
2332.023748885964
 20
763.9515683638123
 10
2332.090021932218
 20
764.0856712548022
 10
2332.133565582484
 20
764.2228405934777
 10
2332.153973281433
 20
764.3617956666818
 10
2332.151054487877
 20
764.5012390883351
 10
2332.124836453807
 20
764.639868912781
 10
2332.075563969942
 20
764.7763907907001
 10
2332.003697080187
 20
764.9095300541023
 10
2331.90990678633
 20
765.0380436175574
 10
2331.795068783073
 20
765.1607315845499
 10
2331.660255281912
 20
765.2764484505881
 10
2331.506725000183
 20
765.384113798472
 10
2331.33591140876
 20
765.4827223858575
 10
2331.149409348124
 20
765.5713535309327
 10
2330.948960137764
 20
765.6491797085764
 10
2330.736435317949
 20
765.715474276737
 10
2330.51381917566
 20
765.7696182608937
 10
2330.283190217837
 20
765.8111061332548
 10
2330.04670176492
 20
765.8395505327344
 10
2329.806561845875
 20
765.8546858816382
 10
2329.565012582424
 20
765.8563708652918
 10
2329.324309254959
 20
765.8445897514567
 10
2329.086699245593
 20
765.8194525372185
 10
2328.854401054964
 20
765.7811939219738
 10
2328.629583588687
 20
765.7301711161047
 10
2328.414345906873
 20
765.6668605058025
 10
2328.210697625764
 20
765.5918532051774
 10
2328.02054015449
 20
765.5058495371857
 10
2327.845648942124
 20
765.409652494903
 10
2327.687656900797
 20
765.3041602441942
 10
2327.548039159628
 20
765.1903577377809
 10
2327.428099291848
 20
765.069307519003
 10
2327.328957143689
 20
764.942139801138
 10
2327.251538378673
 20
764.8100419149043
 10
2327.196565834952
 20
764.6742472226736
 10
2327.164552776353
 20
764.5360236028996
 10
2327.15579810018
 20
764.3966616122777
 10
2327.170383546486
 20
764.2574624361652
 10
2327.208172934888
 20
764.1197257397646
 10
2327.268813436048
 20
763.9847375334986
 10
2327.351738865946
 20
763.8537581658789
 10
2327.456174972186
 20
763.7280105559703
 10
2327.581146662982
 20
763.6086687753259
 10
2327.725487111329
 20
763.4968470859964
 10
2327.887848649353
 20
763.3935895369666
  0
LWPOLYLINE
  5
401
330
3E9
100
AcDbEntity
  8
0
  6
Continuous
 62
     7
370
    15
100
AcDbPolyline
 90
       66
 70
   128
 43
0.0
 10
2341.676430882491
 20
765.2305077885677
 10
2341.855297584255
 20
765.1367784677514
 10
2342.048999419559
 20
765.0534525005634
 10
2342.255727846557
 20
764.9813078791082
 10
2342.473552697625
 20
764.9210181982779
 10
2342.70044020082
 20
764.8731463665784
 10
2342.934271968653
 20
764.8381393504039
 10
2343.172864776914
 20
764.8163240008324
 10
2343.413990948835
 20
764.8079040019048
 10
2343.655399154318
 20
764.8129579688826
 10
2343.894835429992
 20
764.8314387142377
 10
2344.130064223863
 20
764.8631736882302
 10
2344.358889268063
 20
764.9078665899586
 10
2344.579174084806
 20
764.9651001338411
 10
2344.788861934112
 20
765.0343399456992
 10
2344.985995017029
 20
765.1149395520652
 10
2345.168732755075
 20
765.206146416131
 10
2345.335368975228
 20
765.3071089639811
 10
2345.484347839998
 20
765.4168845355091
 10
2345.614278373863
 20
765.534448185781
 10
2345.723947450437
 20
765.65870225467
 10
2345.812331119102
 20
765.7884866154134
 10
2345.878604165355
 20
765.9225895064033
 10
2345.922147815622
 20
766.0597588450789
 10
2345.942555514571
 20
766.1987139182829
 10
2345.939636721016
 20
766.3381573399362
 10
2345.913418686945
 20
766.4767871643821
 10
2345.864146203079
 20
766.6133090423012
 10
2345.792279313325
 20
766.7464483057034
 10
2345.698489019468
 20
766.8749618691586
 10
2345.583651016211
 20
766.9976498361509
 10
2345.44883751505
 20
767.1133667021891
 10
2345.29530723332
 20
767.2210320500731
 10
2345.124493641898
 20
767.3196406374586
 10
2344.937991581261
 20
767.4082717825338
 10
2344.737542370902
 20
767.4860979601774
 10
2344.525017551086
 20
767.552392528338
 10
2344.302401408798
 20
767.6065365124948
 10
2344.071772450975
 20
767.6480243848559
 10
2343.835283998058
 20
767.6764687843354
 10
2343.595144079013
 20
767.6916041332392
 10
2343.353594815562
 20
767.6932891168928
 10
2343.112891488097
 20
767.6815080030578
 10
2342.875281478731
 20
767.6563707888196
 10
2342.642983288101
 20
767.6181121735749
 10
2342.418165821825
 20
767.5670893677058
 10
2342.202928140011
 20
767.5037787574036
 10
2341.999279858901
 20
767.4287714567785
 10
2341.809122387627
 20
767.3427677887868
 10
2341.634231175262
 20
767.2465707465041
 10
2341.476239133934
 20
767.1410784957953
 10
2341.336621392765
 20
767.027275989382
 10
2341.216681524986
 20
766.9062257706041
 10
2341.117539376826
 20
766.7790580527391
 10
2341.040120611811
 20
766.6469601665054
 10
2340.985148068089
 20
766.5111654742747
 10
2340.953135009491
 20
766.3729418545007
 10
2340.944380333318
 20
766.2335798638787
 10
2340.958965779623
 20
766.0943806877663
 10
2340.996755168026
 20
765.9566439913655
 10
2341.057395669186
 20
765.8216557850996
 10
2341.140321099083
 20
765.69067641748
 10
2341.244757205323
 20
765.5649288075714
 10
2341.36972889612
 20
765.445587026927
 10
2341.514069344468
 20
765.3337653375975
 10
2341.676430882491
 20
765.2305077885677
  0
LWPOLYLINE
  5
402
330
3E9
100
AcDbEntity
  8
0
  6
Continuous
 62
     7
370
    15
100
AcDbPolyline
 90
       66
 70
   128
 43
0.0
 10
2336.373130023592
 20
768.2920382079028
 10
2336.551996725356
 20
768.1983088870866
 10
2336.74569856066
 20
768.1149829198986
 10
2336.952426987657
 20
768.0428382984432
 10
2337.170251838726
 20
767.982548617613
 10
2337.39713934192
 20
767.9346767859136
 10
2337.630971109755
 20
767.8996697697392
 10
2337.869563918015
 20
767.8778544201675
 10
2338.110690089936
 20
767.86943442124
 10
2338.352098295419
 20
767.8744883882177
 10
2338.591534571093
 20
767.8929691335729
 10
2338.826763364964
 20
767.9247041075655
 10
2339.055588409164
 20
767.9693970092937
 10
2339.275873225907
 20
768.0266305531762
 10
2339.485561075213
 20
768.0958703650343
 10
2339.682694158129
 20
768.1764699714003
 10
2339.865431896177
 20
768.2676768354662
 10
2340.032068116329
 20
768.3686393833162
 10
2340.181046981099
 20
768.4784149548442
 10
2340.310977514964
 20
768.5959786051161
 10
2340.420646591538
 20
768.7202326740051
 10
2340.509030260203
 20
768.8500170347485
 10
2340.575303306456
 20
768.9841199257386
 10
2340.618846956723
 20
769.121289264414
 10
2340.639254655672
 20
769.260244337618
 10
2340.636335862116
 20
769.3996877592714
 10
2340.610117828046
 20
769.5383175837172
 10
2340.56084534418
 20
769.6748394616363
 10
2340.488978454426
 20
769.8079787250385
 10
2340.395188160568
 20
769.9364922884938
 10
2340.280350157312
 20
770.0591802554861
 10
2340.14553665615
 20
770.1748971215242
 10
2339.992006374421
 20
770.2825624694082
 10
2339.821192782999
 20
770.3811710567938
 10
2339.634690722363
 20
770.469802201869
 10
2339.434241512002
 20
770.5476283795126
 10
2339.221716692188
 20
770.6139229476733
 10
2338.999100549898
 20
770.66806693183
 10
2338.768471592076
 20
770.709554804191
 10
2338.531983139159
 20
770.7379992036706
 10
2338.291843220114
 20
770.7531345525745
 10
2338.050293956663
 20
770.7548195362281
 10
2337.809590629198
 20
770.7430384223929
 10
2337.571980619831
 20
770.7179012081548
 10
2337.339682429202
 20
770.6796425929101
 10
2337.114864962926
 20
770.6286197870411
 10
2336.899627281112
 20
770.5653091767389
 10
2336.695979000003
 20
770.4903018761138
 10
2336.505821528728
 20
770.404298208122
 10
2336.330930316363
 20
770.3081011658392
 10
2336.172938275035
 20
770.2026089151304
 10
2336.033320533866
 20
770.0888064087171
 10
2335.913380666087
 20
769.9677561899392
 10
2335.814238517927
 20
769.8405884720743
 10
2335.736819752912
 20
769.7084905858405
 10
2335.68184720919
 20
769.5726958936099
 10
2335.649834150592
 20
769.4344722738358
 10
2335.641079474419
 20
769.295110283214
 10
2335.655664920725
 20
769.1559111071015
 10
2335.693454309127
 20
769.0181744107007
 10
2335.754094810287
 20
768.8831862044349
 10
2335.837020240184
 20
768.7522068368151
 10
2335.941456346424
 20
768.6264592269066
 10
2336.06642803722
 20
768.5071174462621
 10
2336.210768485568
 20
768.3952957569326
 10
2336.373130023592
 20
768.2920382079028
  0
ARC
  5
403
330
3E9
100
AcDbEntity
  8
0
  6
Continuous
 62
     7
370
    15
100
AcDbCircle
 10
2335.3256428376
 20
752.9754544953635
 30
0.0
 40
3.768887568736407
100
AcDbArc
 50
300.8515227988129
 51
359.1538537338806
  0
ARC
  5
404
330
3E9
100
AcDbEntity
  8
0
  6
Continuous
 62
     7
370
    15
100
AcDbCircle
 10
2334.363803329461
 20
753.5307126369339
 30
0.0
 40
4.172957468921314
100
AcDbArc
 50
316.3539637298689
 51
343.6514126481544
  0
ARC
  5
405
330
3E9
100
AcDbEntity
  8
0
  6
Continuous
 62
     7
370
    15
100
AcDbCircle
 10
2336.549906718888
 20
761.1386493492184
 30
0.0
 40
4.653597395780909
100
AcDbArc
 50
46.53163866099916
 51
133.4683613390008
  0
LINE
  5
406
330
3E9
100
AcDbEntity
  8
0
  6
Continuous
 62
     7
370
    15
100
AcDbLine
 10
2338.999396461671
 20
765.1135375081623
 30
0.0
 11
2339.430444454335
 21
764.1848588014787
 31
0.0
  0
LINE
  5
407
330
3E9
100
AcDbEntity
  8
0
  6
Continuous
 62
     7
370
    15
100
AcDbLine
 10
2335.65333124672
 20
765.6311195112023
 30
0.0
 11
2338.999396461671
 21
765.1135375081623
 31
0.0
  0
LINE
  5
408
330
3E9
100
AcDbEntity
  8
0
  6
Continuous
 62
     7
370
    15
100
AcDbLine
 10
2333.471253039419
 20
764.3714325753177
 30
0.0
 11
2335.65333124672
 21
765.6311195112023
 31
0.0
  0
LINE
  5
409
330
3E9
100
AcDbEntity
  8
0
  6
Continuous
 62
     7
370
    15
100
AcDbLine
 10
2322.690613807632
 20
750.8390589166208
 30
0.0
 11
2322.054217704564
 21
751.2065022819695
 31
0.0
  0
LINE
  5
40A
330
3E9
100
AcDbEntity
  8
0
  6
Continuous
 62
     7
370
    15
100
AcDbLine
 10
2322.054217704564
 20
751.2065022819695
 30
0.0
 11
2321.877441009267
 21
751.308586470963
 31
0.0
  0
LINE
  5
40B
330
3E9
100
AcDbEntity
  8
0
  6
Continuous
 62
     7
370
    15
100
AcDbLine
 10
2335.489246547108
 20
743.4506252196536
 30
0.0
 11
2335.489246547108
 21
743.4505655046252
 31
0.0
  0
LINE
  5
40C
330
3E9
100
AcDbEntity
  8
0
  6
Continuous
 62
     7
370
    15
100
AcDbLine
 10
2335.489246547108
 20
743.4505655046252
 30
0.0
 11
2322.690613807632
 21
750.8390589166208
 31
0.0
  0
LINE
  5
40D
330
3E9
100
AcDbEntity
  8
0
  6
Continuous
 62
     7
370
    15
100
AcDbLine
 10
2351.045595733236
 20
752.4311144497167
 30
0.0
 11
2350.409199630162
 21
752.0636710843646
 31
0.0
  0
LINE
  5
40E
330
3E9
100
AcDbEntity
  8
0
  6
Continuous
 62
     7
370
    15
100
AcDbLine
 10
2350.409199630162
 20
752.0636710843646
 30
0.0
 11
2335.489246547108
 21
743.4505655046252
 31
0.0
  0
LINE
  5
40F
330
3E9
100
AcDbEntity
  8
0
  6
Continuous
 62
     7
370
    15
100
AcDbLine
 10
2338.999396461671
 20
765.1135375081623
 30
0.0
 11
2338.999396461671
 21
763.8893395223317
 31
0.0
  0
ARC
  5
410
330
3E9
100
AcDbEntity
  8
0
  6
Continuous
 62
     7
370
    15
100
AcDbCircle
 10
2343.810924211838
 20
757.8739031662998
 30
0.0
 40
3.768887568736342
100
AcDbArc
 50
300.8515227988096
 51
359.1538537338806
  0
LINE
  5
411
330
3E9
100
AcDbEntity
  8
0
  6
Continuous
 62
     7
370
    15
100
AcDbLine
 10
2335.65333124672
 20
765.6311195112023
 30
0.0
 11
2335.65333124672
 21
763.3794696146025
 31
0.0
  0
ARC
  5
412
330
3E9
100
AcDbEntity
  8
0
  6
Continuous
 62
     7
370
    15
100
AcDbCircle
 10
2342.849084703699
 20
758.4291613078705
 30
0.0
 40
4.172957468921925
100
AcDbArc
 50
316.3539637298689
 51
343.6514126481481
  0
ENDBLK
  5
3EB
330
3E9
100
AcDbEntity
  8
0
100
AcDbBlockEnd
  0
ENDSEC
  0
SECTION
  2
ENTITIES
  0
INSERT
  5
35F
330
1F
100
AcDbEntity
  8
0
100
AcDbBlockReference
  2
1
 10
0.0
 20
0.0
 30
0.0
  0
INSERT
  5
397
330
1F
100
AcDbEntity
  8
0
100
AcDbBlockReference
  2
2
 10
0.0
 20
0.0
 30
0.0
  0
INSERT
  5
3E8
330
1F
100
AcDbEntity
  8
0
100
AcDbBlockReference
  2
3
 10
0.0
 20
0.0
 30
0.0
  0
INSERT
  5
413
330
1F
100
AcDbEntity
  8
0
100
AcDbBlockReference
  2
4
 10
-34.70954950133728
 20
9.023195636184368
 30
0.0
  0
ENDSEC
  0
SECTION
  2
OBJECTS
  0
DICTIONARY
  5
C
330
0
100
AcDbDictionary
281
     1
  3
ACAD_COLOR
350
6B
  3
ACAD_GROUP
350
D
  3
ACAD_LAYOUT
350
1A
  3
ACAD_MATERIAL
350
6A
  3
ACAD_MLEADERSTYLE
350
12D
  3
ACAD_MLINESTYLE
350
17
  3
ACAD_PLOTSETTINGS
350
19
  3
ACAD_PLOTSTYLENAME
350
E
  3
ACAD_SCALELIST
350
10C
  3
ACAD_TABLESTYLE
350
7E
  3
ACAD_VISUALSTYLE
350
EF
  3
ACDB_RECOMPOSE_DATA
350
15D
  3
AcDbVariableDictionary
350
5E
  3
DWGPROPS
350
421
  0
DICTIONARY
  5
13C
330
10
100
AcDbDictionary
280
     1
281
     1
  3
ADSK_XREC_LAYER_RECONCILED
360
414
  0
DICTIONARY
  5
6B
102
{ACAD_REACTORS
330
C
102
}
330
C
100
AcDbDictionary
281
     1
  0
DICTIONARY
  5
D
102
{ACAD_REACTORS
330
C
102
}
330
C
100
AcDbDictionary
281
     1
  0
DICTIONARY
  5
1A
102
{ACAD_REACTORS
330
C
102
}
330
C
100
AcDbDictionary
281
     1
  3
Layout1
350
D3
  3
Layout2
350
D7
  3
Model
350
22
  0
DICTIONARY
  5
6A
102
{ACAD_REACTORS
330
C
102
}
330
C
100
AcDbDictionary
281
     1
  3
ByBlock
350
ED
  3
ByLayer
350
EC
  3
Global
350
EE
  0
DICTIONARY
  5
12D
102
{ACAD_REACTORS
330
C
102
}
330
C
100
AcDbDictionary
281
     1
  3
Annotative
350
13B
  3
Standard
350
12E
  0
DICTIONARY
  5
17
102
{ACAD_REACTORS
330
C
102
}
330
C
100
AcDbDictionary
281
     1
  3
Standard
350
18
  0
DICTIONARY
  5
19
102
{ACAD_REACTORS
330
C
102
}
330
C
100
AcDbDictionary
281
     1
  0
ACDBDICTIONARYWDFLT
  5
E
102
{ACAD_REACTORS
330
C
102
}
330
C
100
AcDbDictionary
281
     1
  3
Normal
350
F
100
AcDbDictionaryWithDefault
340
F
  0
DICTIONARY
  5
10C
102
{ACAD_REACTORS
330
C
102
}
330
C
100
AcDbDictionary
281
     1
  3
A0
350
10D
  3
A1
350
188
  3
A2
350
189
  3
A3
350
18A
  3
A4
350
18B
  3
A5
350
18C
  3
A6
350
18D
  3
A7
350
18E
  3
A8
350
18F
  3
A9
350
190
  3
B0
350
191
  3
B1
350
192
  3
B2
350
193
  3
B3
350
194
  3
B4
350
195
  3
B5
350
196
  3
B6
350
197
  3
B7
350
198
  3
B8
350
199
  3
B9
350
19A
  3
C0
350
19B
  3
C1
350
19C
  3
C2
350
19D
  3
C3
350
19E
  3
C4
350
19F
  3
C5
350
1A0
  3
C6
350
1A1
  3
C7
350
1A2
  3
C8
350
1A3
  3
C9
350
1A4
  3
D0
350
1A5
  3
D1
350
1A6
  3
D2
350
1A7
  0
DICTIONARY
  5
7E
102
{ACAD_REACTORS
330
C
102
}
330
C
100
AcDbDictionary
281
     1
  3
Standard
350
7F
  0
DICTIONARY
  5
EF
102
{ACAD_REACTORS
330
C
102
}
330
C
100
AcDbDictionary
281
     1
  3
2dWireframe
350
F5
  3
3D Hidden
350
F7
  3
3dWireframe
350
F6
  3
Basic
350
F4
  3
Brighten
350
FB
  3
ColorChange
350
FF
  3
Conceptual
350
F8
  3
Dim
350
FA
  3
Facepattern
350
FE
  3
Flat
350
F0
  3
FlatWithEdges
350
F1
  3
Gouraud
350
F2
  3
GouraudWithEdges
350
F3
  3
Linepattern
350
FD
  3
Realistic
350
F9
  3
Thicken
350
FC
  0
XRECORD
  5
15D
102
{ACAD_REACTORS
330
C
102
}
330
C
100
AcDbXrecord
280
     1
 90
        1
330
7F
  0
DICTIONARY
  5
5E
102
{ACAD_REACTORS
330
C
102
}
330
C
100
AcDbDictionary
281
     1
  3
CANNOSCALE
350
146
  3
CMLEADERSTYLE
350
145
  3
CTABLESTYLE
350
84
  3
DIMASSOC
350
5F
  3
HIDETEXT
350
63
  3
INDEXCTL
350
41D
  3
LIGHTINGUNITS
350
41B
  3
MSLTSCALE
350
41A
  3
PSOLHEIGHT
350
41F
  3
PSOLWIDTH
350
41E
  3
SORTENTS
350
41C
  0
XRECORD
  5
421
102
{ACAD_REACTORS
330
C
102
}
330
C
100
AcDbXrecord
280
     1
  1
DWGPROPS COOKIE
  2

  3

  4

  6

  7

  8
orhan kara
  9

300
=
301
=
302
=
303
=
304
=
305
=
306
=
307
=
308
=
309
=
 40
0.0004449768518519
 41
2459083.449793021
 42
2459083.677111447
  1

 90
        0
  0
XRECORD
  5
414
102
{ACAD_REACTORS
330
13C
102
}
330
13C
100
AcDbXrecord
280
     1
290
     1
  0
LAYOUT
  5
D3
102
{ACAD_XDICTIONARY
360
425
102
}
102
{ACAD_REACTORS
330
1A
102
}
330
1A
100
AcDbPlotSettings
  1

  2
C:\Documents and Settings\basas\Application Data\Autodesk\AutoCAD 2005\R16.1\enu\plotters\Default Windows System Printer.pc3
  4

  6

 40
0.0
 41
0.0
 42
0.0
 43
0.0
 44
0.0
 45
0.0
 46
0.0
 47
0.0
 48
0.0
 49
0.0
140
0.0
141
0.0
142
1.0
143
1.0
 70
   688
 72
     0
 73
     0
 74
     5
  7

 75
    16
147
1.0
148
0.0
149
0.0
100
AcDbLayout
  1
Layout1
 70
     1
 71
     1
 10
0.0
 20
0.0
 11
12.0
 21
9.0
 12
0.0
 22
0.0
 32
0.0
 14
0.0
 24
0.0
 34
0.0
 15
0.0
 25
0.0
 35
0.0
146
0.0
 13
0.0
 23
0.0
 33
0.0
 16
1.0
 26
0.0
 36
0.0
 17
0.0
 27
1.0
 37
0.0
 76
     0
330
D2
  0
LAYOUT
  5
D7
102
{ACAD_XDICTIONARY
360
427
102
}
102
{ACAD_REACTORS
330
1A
102
}
330
1A
100
AcDbPlotSettings
  1

  2
C:\Documents and Settings\basas\Application Data\Autodesk\AutoCAD 2005\R16.1\enu\plotters\Default Windows System Printer.pc3
  4

  6

 40
0.0
 41
0.0
 42
0.0
 43
0.0
 44
0.0
 45
0.0
 46
0.0
 47
0.0
 48
0.0
 49
0.0
140
0.0
141
0.0
142
1.0
143
1.0
 70
   688
 72
     0
 73
     0
 74
     5
  7

 75
    16
147
1.0
148
0.0
149
0.0
100
AcDbLayout
  1
Layout2
 70
     1
 71
     2
 10
0.0
 20
0.0
 11
12.0
 21
9.0
 12
0.0
 22
0.0
 32
0.0
 14
0.0
 24
0.0
 34
0.0
 15
0.0
 25
0.0
 35
0.0
146
0.0
 13
0.0
 23
0.0
 33
0.0
 16
1.0
 26
0.0
 36
0.0
 17
0.0
 27
1.0
 37
0.0
 76
     0
330
D6
  0
LAYOUT
  5
22
102
{ACAD_XDICTIONARY
360
422
102
}
102
{ACAD_REACTORS
330
1A
102
}
330
1A
100
AcDbPlotSettings
  1

  2
none_device
  4
ISO_A4_(210.00_x_297.00_MM)
  6

 40
7.5
 41
20.0
 42
7.5
 43
20.0
 44
210.0
 45
297.0
 46
11.54999923706054
 47
-13.65000009536743
 48
0.0
 49
0.0
140
0.0
141
0.0
142
1.0
143
8.704084754739808
 70
 11952
 72
     1
 73
     0
 74
     0
  7

 75
     0
147
0.1148885871608098
148
0.0
149
0.0
100
AcDbLayout
  1
Model
 70
     1
 71
     0
 10
0.0
 20
0.0
 11
12.0
 21
9.0
 12
0.0
 22
0.0
 32
0.0
 14
0.0
 24
0.0
 34
0.0
 15
0.0
 25
0.0
 35
0.0
146
0.0
 13
0.0
 23
0.0
 33
0.0
 16
1.0
 26
0.0
 36
0.0
 17
0.0
 27
1.0
 37
0.0
 76
     0
330
1F
331
EA
1001
ACAD_PSEXT
1000
None
1000
None
1000
Not applicable
1000
The layout will not be plotted unless a new plotter configuration name is selected.
1070
     0
  0
MATERIAL
  5
ED
102
{ACAD_XDICTIONARY
360
42B
102
}
102
{ACAD_REACTORS
330
6A
102
}
330
6A
100
AcDbMaterial
  1
ByBlock
  0
MATERIAL
  5
EC
102
{ACAD_XDICTIONARY
360
429
102
}
102
{ACAD_REACTORS
330
6A
102
}
330
6A
100
AcDbMaterial
  1
ByLayer
  0
MATERIAL
  5
EE
102
{ACAD_XDICTIONARY
360
173
102
}
102
{ACAD_REACTORS
330
6A
102
}
330
6A
100
AcDbMaterial
  1
Global
 43
0.0007999999797903
 43
0.0
 43
0.0
 43
0.0
 43
0.0
 43
0.0007999999797903
 43
0.0
 43
0.0
 43
0.0
 43
0.0
 43
1.0
 43
0.0
 43
0.0
 43
0.0
 43
0.0
 43
1.0
 49
0.0007999999797903
 49
0.0
 49
0.0
 49
0.0
 49
0.0
 49
0.0007999999797903
 49
0.0
 49
0.0
 49
0.0
 49
0.0
 49
1.0
 49
0.0
 49
0.0
 49
0.0
 49
0.0
 49
1.0
142
0.0007999999797903
142
0.0
142
0.0
142
0.0
142
0.0
142
0.0007999999797903
142
0.0
142
0.0
142
0.0
142
0.0
142
1.0
142
0.0
142
0.0
142
0.0
142
0.0
142
1.0
144
0.0007999999797903
144
0.0
144
0.0
144
0.0
144
0.0
144
0.0007999999797903
144
0.0
144
0.0
144
0.0
144
0.0
144
1.0
144
0.0
144
0.0
144
0.0
144
0.0
144
1.0
1001
ACAD
1070
    -1
1070
     3
1070
     0
1000

1071
        0
1070
     0
  0
MLEADERSTYLE
  5
13B
102
{ACAD_REACTORS
330
12D
102
}
330
12D
100
AcDbMLeaderStyle
170
     2
171
     1
172
     0
 90
        2
 40
0.0
 41
0.0
173
     1
 91
-1056964608
340
14
 92
       -2
290
     1
 42
2.0
291
     1
 43
8.0
  3
Standard
 44
4.0
300

342
11
174
     1
178
     1
175
     1
176
     0
 93
-1056964608
 45
4.0
292
     0
297
     0
 46
4.0
 94
-1056964608
 47
1.0
 49
1.0
140
1.0
293
     1
141
0.0
294
     1
177
     0
142
1.0
295
     0
296
     1
143
3.75
1001
ACAD_MLEADERVER
1070
     2
  0
MLEADERSTYLE
  5
12E
102
{ACAD_REACTORS
330
12D
102
}
330
12D
100
AcDbMLeaderStyle
170
     2
171
     1
172
     0
 90
        2
 40
0.0
 41
0.0
173
     1
 91
-1056964608
340
14
 92
       -2
290
     1
 42
2.0
291
     1
 43
8.0
  3
Standard
 44
4.0
300

342
11
174
     1
178
     1
175
     1
176
     0
 93
-1056964608
 45
4.0
292
     0
297
     0
 46
4.0
 94
-1056964608
 47
1.0
 49
1.0
140
1.0
293
     1
141
0.0
294
     1
177
     0
142
1.0
295
     0
296
     0
143
3.75
1001
ACAD_MLEADERVER
1070
     2
  0
MLINESTYLE
  5
18
102
{ACAD_REACTORS
330
17
102
}
330
17
100
AcDbMlineStyle
  2
STANDARD
 70
     0
  3

 62
   256
 51
90.0
 52
90.0
 71
     2
 49
0.5
 62
   256
  6
BYLAYER
 49
-0.5
 62
   256
  6
BYLAYER
  0
ACDBPLACEHOLDER
  5
F
102
{ACAD_REACTORS
330
E
102
}
330
E
  0
SCALE
  5
10D
102
{ACAD_REACTORS
330
10C
102
}
330
10C
100
AcDbScale
 70
     0
300
1:1
140
1.0
141
1.0
290
     1
  0
SCALE
  5
188
102
{ACAD_REACTORS
330
10C
102
}
330
10C
100
AcDbScale
 70
     0
300
1:2
140
1.0
141
2.0
290
     0
  0
SCALE
  5
189
102
{ACAD_REACTORS
330
10C
102
}
330
10C
100
AcDbScale
 70
     0
300
1:4
140
1.0
141
4.0
290
     0
  0
SCALE
  5
18A
102
{ACAD_REACTORS
330
10C
102
}
330
10C
100
AcDbScale
 70
     0
300
1:5
140
1.0
141
5.0
290
     0
  0
SCALE
  5
18B
102
{ACAD_REACTORS
330
10C
102
}
330
10C
100
AcDbScale
 70
     0
300
1:8
140
1.0
141
8.0
290
     0
  0
SCALE
  5
18C
102
{ACAD_REACTORS
330
10C
102
}
330
10C
100
AcDbScale
 70
     0
300
1:10
140
1.0
141
10.0
290
     0
  0
SCALE
  5
18D
102
{ACAD_REACTORS
330
10C
102
}
330
10C
100
AcDbScale
 70
     0
300
1:16
140
1.0
141
16.0
290
     0
  0
SCALE
  5
18E
102
{ACAD_REACTORS
330
10C
102
}
330
10C
100
AcDbScale
 70
     0
300
1:20
140
1.0
141
20.0
290
     0
  0
SCALE
  5
18F
102
{ACAD_REACTORS
330
10C
102
}
330
10C
100
AcDbScale
 70
     0
300
1:30
140
1.0
141
30.0
290
     0
  0
SCALE
  5
190
102
{ACAD_REACTORS
330
10C
102
}
330
10C
100
AcDbScale
 70
     0
300
1:40
140
1.0
141
40.0
290
     0
  0
SCALE
  5
191
102
{ACAD_REACTORS
330
10C
102
}
330
10C
100
AcDbScale
 70
     0
300
1:50
140
1.0
141
50.0
290
     0
  0
SCALE
  5
192
102
{ACAD_REACTORS
330
10C
102
}
330
10C
100
AcDbScale
 70
     0
300
1:100
140
1.0
141
100.0
290
     0
  0
SCALE
  5
193
102
{ACAD_REACTORS
330
10C
102
}
330
10C
100
AcDbScale
 70
     0
300
2:1
140
2.0
141
1.0
290
     0
  0
SCALE
  5
194
102
{ACAD_REACTORS
330
10C
102
}
330
10C
100
AcDbScale
 70
     0
300
4:1
140
4.0
141
1.0
290
     0
  0
SCALE
  5
195
102
{ACAD_REACTORS
330
10C
102
}
330
10C
100
AcDbScale
 70
     0
300
8:1
140
8.0
141
1.0
290
     0
  0
SCALE
  5
196
102
{ACAD_REACTORS
330
10C
102
}
330
10C
100
AcDbScale
 70
     0
300
10:1
140
10.0
141
1.0
290
     0
  0
SCALE
  5
197
102
{ACAD_REACTORS
330
10C
102
}
330
10C
100
AcDbScale
 70
     0
300
100:1
140
100.0
141
1.0
290
     0
  0
SCALE
  5
198
102
{ACAD_REACTORS
330
10C
102
}
330
10C
100
AcDbScale
 70
     0
300
1/128" = 1'-0"
140
0.0078125
141
12.0
290
     0
  0
SCALE
  5
199
102
{ACAD_REACTORS
330
10C
102
}
330
10C
100
AcDbScale
 70
     0
300
1/64" = 1'-0"
140
0.015625
141
12.0
290
     0
  0
SCALE
  5
19A
102
{ACAD_REACTORS
330
10C
102
}
330
10C
100
AcDbScale
 70
     0
300
1/32" = 1'-0"
140
0.03125
141
12.0
290
     0
  0
SCALE
  5
19B
102
{ACAD_REACTORS
330
10C
102
}
330
10C
100
AcDbScale
 70
     0
300
1/16" = 1'-0"
140
0.0625
141
12.0
290
     0
  0
SCALE
  5
19C
102
{ACAD_REACTORS
330
10C
102
}
330
10C
100
AcDbScale
 70
     0
300
3/32" = 1'-0"
140
0.09375
141
12.0
290
     0
  0
SCALE
  5
19D
102
{ACAD_REACTORS
330
10C
102
}
330
10C
100
AcDbScale
 70
     0
300
1/8" = 1'-0"
140
0.125
141
12.0
290
     0
  0
SCALE
  5
19E
102
{ACAD_REACTORS
330
10C
102
}
330
10C
100
AcDbScale
 70
     0
300
3/16" = 1'-0"
140
0.1875
141
12.0
290
     0
  0
SCALE
  5
19F
102
{ACAD_REACTORS
330
10C
102
}
330
10C
100
AcDbScale
 70
     0
300
1/4" = 1'-0"
140
0.25
141
12.0
290
     0
  0
SCALE
  5
1A0
102
{ACAD_REACTORS
330
10C
102
}
330
10C
100
AcDbScale
 70
     0
300
3/8" = 1'-0"
140
0.375
141
12.0
290
     0
  0
SCALE
  5
1A1
102
{ACAD_REACTORS
330
10C
102
}
330
10C
100
AcDbScale
 70
     0
300
1/2" = 1'-0"
140
0.5
141
12.0
290
     0
  0
SCALE
  5
1A2
102
{ACAD_REACTORS
330
10C
102
}
330
10C
100
AcDbScale
 70
     0
300
3/4" = 1'-0"
140
0.75
141
12.0
290
     0
  0
SCALE
  5
1A3
102
{ACAD_REACTORS
330
10C
102
}
330
10C
100
AcDbScale
 70
     0
300
1" = 1'-0"
140
1.0
141
12.0
290
     0
  0
SCALE
  5
1A4
102
{ACAD_REACTORS
330
10C
102
}
330
10C
100
AcDbScale
 70
     0
300
1-1/2" = 1'-0"
140
1.5
141
12.0
290
     0
  0
SCALE
  5
1A5
102
{ACAD_REACTORS
330
10C
102
}
330
10C
100
AcDbScale
 70
     0
300
3" = 1'-0"
140
3.0
141
12.0
290
     0
  0
SCALE
  5
1A6
102
{ACAD_REACTORS
330
10C
102
}
330
10C
100
AcDbScale
 70
     0
300
6" = 1'-0"
140
6.0
141
12.0
290
     0
  0
SCALE
  5
1A7
102
{ACAD_REACTORS
330
10C
102
}
330
10C
100
AcDbScale
 70
     0
300
1'-0" = 1'-0"
140
12.0
141
12.0
290
     0
  0
TABLESTYLE
  5
7F
102
{ACAD_XDICTIONARY
360
162
102
}
102
{ACAD_REACTORS
330
7E
102
}
330
7E
100
AcDbTableStyle
  3
Standard
 70
     0
 71
     0
 40
1.5
 41
1.5
280
     0
281
     0
  7
Standard
140
4.5
170
     2
 62
     0
 63
     7
283
     0
274
    -2
284
     1
 64
     0
275
    -2
285
     1
 65
     0
276
    -2
286
     1
 66
     0
277
    -2
287
     1
 67
     0
278
    -2
288
     1
 68
     0
279
    -2
289
     1
 69
     0
  7
Standard
140
6.0
170
     5
 62
     0
 63
     7
283
     0
274
    -2
284
     1
 64
     0
275
    -2
285
     1
 65
     0
276
    -2
286
     1
 66
     0
277
    -2
287
     1
 67
     0
278
    -2
288
     1
 68
     0
279
    -2
289
     1
 69
     0
  7
Standard
140
4.5
170
     5
 62
     0
 63
     7
283
     0
274
    -2
284
     1
 64
     0
275
    -2
285
     1
 65
     0
276
    -2
286
     1
 66
     0
277
    -2
287
     1
 67
     0
278
    -2
288
     1
 68
     0
279
    -2
289
     1
 69
     0
  0
VISUALSTYLE
  5
F5
102
{ACAD_REACTORS
330
EF
102
}
330
EF
100
AcDbVisualStyle
  2
2dWireframe
 70
     4
 71
     0
 72
     2
 73
     1
 90
        0
 40
-0.6
 41
-30.0
 62
     5
 63
     7
 74
     1
 91
        4
 64
     7
 65
   257
 75
     1
175
     1
 42
1.0
 92
        0
 66
   257
 43
1.0
 76
     1
 77
     6
 78
     2
 67
     7
 79
     5
170
     0
171
     0
290
     0
174
     0
 93
        1
 44
0.0
173
     0
291
     0
 45
0.0
1001
ACAD
1000
AcDbSavedByObjectVersion
1070
     0
  0
VISUALSTYLE
  5
F7
102
{ACAD_REACTORS
330
EF
102
}
330
EF
100
AcDbVisualStyle
  2
3D Hidden
 70
     6
 71
     1
 72
     2
 73
     2
 90
        0
 40
-0.6
 41
-30.0
 62
     5
 63
     7
 74
     2
 91
        2
 64
     7
 65
   257
 75
     2
175
     1
 42
40.0
 92
        0
 66
   257
 43
1.0
 76
     1
 77
     6
 78
     2
 67
     7
 79
     3
170
     0
171
     0
290
     0
174
     0
 93
        1
 44
0.0
173
     0
291
     0
 45
0.0
1001
ACAD
1000
AcDbSavedByObjectVersion
1070
     0
  0
VISUALSTYLE
  5
F6
102
{ACAD_REACTORS
330
EF
102
}
330
EF
100
AcDbVisualStyle
  2
3dWireframe
 70
     5
 71
     0
 72
     2
 73
     1
 90
        0
 40
-0.6
 41
-30.0
 62
     5
 63
     7
 74
     1
 91
        4
 64
     7
 65
   257
 75
     1
175
     1
 42
1.0
 92
        0
 66
   257
 43
1.0
 76
     1
 77
     6
 78
     2
 67
     7
 79
     5
170
     0
171
     0
290
     0
174
     0
 93
        1
 44
0.0
173
     0
291
     0
 45
0.0
1001
ACAD
1000
AcDbSavedByObjectVersion
1070
     0
  0
VISUALSTYLE
  5
F4
102
{ACAD_REACTORS
330
EF
102
}
330
EF
100
AcDbVisualStyle
  2
Basic
 70
     7
 71
     1
 72
     0
 73
     1
 90
        0
 40
-0.6
 41
-30.0
 62
     5
 63
     7
 74
     0
 91
        4
 64
     7
 65
   257
 75
     1
175
     1
 42
1.0
 92
        8
 66
     7
 43
1.0
 76
     1
 77
     6
 78
     2
 67
     7
 79
     5
170
     0
171
     0
290
     0
174
     0
 93
        1
 44
0.0
173
     0
291
     1
 45
0.0
1001
ACAD
1000
AcDbSavedByObjectVersion
1070
     0
  0
VISUALSTYLE
  5
FB
102
{ACAD_REACTORS
330
EF
102
}
330
EF
100
AcDbVisualStyle
  2
Brighten
 70
    12
 71
     2
 72
     2
 73
     1
 90
        0
 40
-0.6
 41
-30.0
 62
     5
 63
     7
 74
     1
 91
        4
 64
     7
 65
   257
 75
     1
175
     1
 42
1.0
 92
        8
 66
     7
 43
1.0
 76
     1
 77
     6
 78
     2
 67
     7
 79
     5
170
     0
171
     0
290
     0
174
     0
 93
        1
 44
50.0
173
     0
291
     1
 45
0.0
1001
ACAD
1000
AcDbSavedByObjectVersion
1070
     0
  0
VISUALSTYLE
  5
FF
102
{ACAD_REACTORS
330
EF
102
}
330
EF
100
AcDbVisualStyle
  2
ColorChange
 70
    16
 71
     2
 72
     2
 73
     3
 90
        0
 40
-0.6
 41
-30.0
 62
     5
 63
     8
 74
     1
 91
        4
 64
     7
 65
   257
 75
     1
175
     1
 42
1.0
 92
        8
 66
     8
 43
1.0
 76
     1
 77
     6
 78
     2
 67
     7
 79
     5
170
     0
171
     0
290
     0
174
     0
 93
        1
 44
0.0
173
     0
291
     1
 45
0.0
1001
ACAD
1000
AcDbSavedByObjectVersion
1070
     0
  0
VISUALSTYLE
  5
F8
102
{ACAD_REACTORS
330
EF
102
}
330
EF
100
AcDbVisualStyle
  2
Conceptual
 70
     9
 71
     3
 72
     2
 73
     1
 90
        0
 40
-0.6
 41
-30.0
 62
     5
 63
     7
 74
     2
 91
        2
 64
     7
 65
   257
 75
     1
175
     1
 42
40.0
 92
        8
 66
     7
 43
1.0
 76
     1
 77
     6
 78
     2
 67
     7
 79
     3
170
     0
171
     0
290
     0
174
     0
 93
        1
 44
0.0
173
     0
291
     0
 45
0.0
1001
ACAD
1000
AcDbSavedByObjectVersion
1070
     0
  0
VISUALSTYLE
  5
FA
102
{ACAD_REACTORS
330
EF
102
}
330
EF
100
AcDbVisualStyle
  2
Dim
 70
    11
 71
     2
 72
     2
 73
     1
 90
        0
 40
-0.6
 41
-30.0
 62
     5
 63
     7
 74
     1
 91
        4
 64
     7
 65
   257
 75
     1
175
     1
 42
1.0
 92
        8
 66
     7
 43
1.0
 76
     1
 77
     6
 78
     2
 67
     7
 79
     5
170
     0
171
     0
290
     0
174
     0
 93
        1
 44
-50.0
173
     0
291
     1
 45
0.0
1001
ACAD
1000
AcDbSavedByObjectVersion
1070
     0
  0
VISUALSTYLE
  5
FE
102
{ACAD_REACTORS
330
EF
102
}
330
EF
100
AcDbVisualStyle
  2
Facepattern
 70
    15
 71
     2
 72
     2
 73
     1
 90
        0
 40
-0.6
 41
-30.0
 62
     5
 63
     7
 74
     1
 91
        4
 64
     7
 65
   257
 75
     1
175
     1
 42
1.0
 92
        8
 66
     7
 43
1.0
 76
     1
 77
     6
 78
     2
 67
     7
 79
     5
170
     0
171
     0
290
     0
174
     0
 93
        1
 44
0.0
173
     0
291
     1
 45
0.0
1001
ACAD
1000
AcDbSavedByObjectVersion
1070
     0
  0
VISUALSTYLE
  5
F0
102
{ACAD_REACTORS
330
EF
102
}
330
EF
100
AcDbVisualStyle
  2
Flat
 70
     0
 71
     2
 72
     1
 73
     1
 90
        2
 40
-0.6
 41
30.0
 62
     5
 63
     7
 74
     0
 91
        4
 64
     7
 65
   257
 75
     1
175
     1
 42
1.0
 92
        8
 66
     7
 43
1.0
 76
     1
 77
     6
 78
     2
 67
     7
 79
     5
170
     0
171
     0
290
     0
174
     0
 93
        1
 44
0.0
173
     0
291
     1
 45
0.0
1001
ACAD
1000
AcDbSavedByObjectVersion
1070
     0
  0
VISUALSTYLE
  5
F1
102
{ACAD_REACTORS
330
EF
102
}
330
EF
100
AcDbVisualStyle
  2
FlatWithEdges
 70
     1
 71
     2
 72
     1
 73
     1
 90
        2
 40
-0.6
 41
30.0
 62
     5
 63
     7
 74
     1
 91
        4
 64
     7
 65
   257
 75
     1
175
     1
 42
1.0
 92
        0
 66
   257
 43
1.0
 76
     1
 77
     6
 78
     2
 67
     7
 79
     5
170
     0
171
     0
290
     0
174
     0
 93
        1
 44
0.0
173
     0
291
     1
 45
0.0
1001
ACAD
1000
AcDbSavedByObjectVersion
1070
     0
  0
VISUALSTYLE
  5
F2
102
{ACAD_REACTORS
330
EF
102
}
330
EF
100
AcDbVisualStyle
  2
Gouraud
 70
     2
 71
     2
 72
     2
 73
     1
 90
        2
 40
-0.6
 41
30.0
 62
     5
 63
     7
 74
     0
 91
        4
 64
     7
 65
   257
 75
     1
175
     1
 42
1.0
 92
        0
 66
     7
 43
1.0
 76
     1
 77
     6
 78
     2
 67
     7
 79
     5
170
     0
171
     0
290
     0
174
     0
 93
        1
 44
0.0
173
     0
291
     1
 45
0.0
1001
ACAD
1000
AcDbSavedByObjectVersion
1070
     0
  0
VISUALSTYLE
  5
F3
102
{ACAD_REACTORS
330
EF
102
}
330
EF
100
AcDbVisualStyle
  2
GouraudWithEdges
 70
     3
 71
     2
 72
     2
 73
     1
 90
        2
 40
-0.6
 41
30.0
 62
     5
 63
     7
 74
     1
 91
        4
 64
     7
 65
   257
 75
     1
175
     1
 42
1.0
 92
        0
 66
   257
 43
1.0
 76
     1
 77
     6
 78
     2
 67
     7
 79
     5
170
     0
171
     0
290
     0
174
     0
 93
        1
 44
0.0
173
     0
291
     1
 45
0.0
1001
ACAD
1000
AcDbSavedByObjectVersion
1070
     0
  0
VISUALSTYLE
  5
FD
102
{ACAD_REACTORS
330
EF
102
}
330
EF
100
AcDbVisualStyle
  2
Linepattern
 70
    14
 71
     2
 72
     2
 73
     1
 90
        0
 40
-0.6
 41
-30.0
 62
     5
 63
     7
 74
     1
 91
        4
 64
     7
 65
   257
 75
     7
175
     7
 42
1.0
 92
        8
 66
     7
 43
1.0
 76
     1
 77
     6
 78
     2
 67
     7
 79
     5
170
     0
171
     0
290
     0
174
     0
 93
        1
 44
0.0
173
     0
291
     1
 45
0.0
1001
ACAD
1000
AcDbSavedByObjectVersion
1070
     0
  0
VISUALSTYLE
  5
F9
102
{ACAD_REACTORS
330
EF
102
}
330
EF
100
AcDbVisualStyle
  2
Realistic
 70
     8
 71
     2
 72
     2
 73
     1
 90
        0
 40
-0.6
 41
-30.0
 62
     5
 63
     7
 74
     1
 91
        0
 64
     7
 65
   257
 75
     1
175
     1
 42
1.0
 92
        8
 66
     8
 43
1.0
 76
     1
 77
     6
 78
     2
 67
     7
 79
     5
170
     0
171
     0
290
     0
174
     0
 93
       13
 44
0.0
173
     0
291
     0
 45
0.0
1001
ACAD
1000
AcDbSavedByObjectVersion
1070
     0
  0
VISUALSTYLE
  5
FC
102
{ACAD_REACTORS
330
EF
102
}
330
EF
100
AcDbVisualStyle
  2
Thicken
 70
    13
 71
     2
 72
     2
 73
     1
 90
        0
 40
-0.6
 41
-30.0
 62
     5
 63
     7
 74
     1
 91
        4
 64
     7
 65
   257
 75
     1
175
     1
 42
1.0
 92
       12
 66
     7
 43
1.0
 76
     1
 77
     6
 78
     2
 67
     7
 79
     5
170
     0
171
     0
290
     0
174
     0
 93
        1
 44
0.0
173
     0
291
     1
 45
0.0
1001
ACAD
1000
AcDbSavedByObjectVersion
1070
     0
  0
DICTIONARYVAR
  5
146
102
{ACAD_REACTORS
330
5E
102
}
330
5E
100
DictionaryVariables
280
     0
  1
1:1
  0
DICTIONARYVAR
  5
145
102
{ACAD_REACTORS
330
5E
102
}
330
5E
100
DictionaryVariables
280
     0
  1
STANDARD
  0
DICTIONARYVAR
  5
84
102
{ACAD_REACTORS
330
5E
102
}
330
5E
100
DictionaryVariables
280
     0
  1
STANDARD
  0
DICTIONARYVAR
  5
5F
102
{ACAD_REACTORS
330
5E
102
}
330
5E
100
DictionaryVariables
280
     0
  1
2
  0
DICTIONARYVAR
  5
63
102
{ACAD_REACTORS
330
5E
102
}
330
5E
100
DictionaryVariables
280
     0
  1
1
  0
DICTIONARYVAR
  5
41D
102
{ACAD_REACTORS
330
5E
102
}
330
5E
100
DictionaryVariables
280
     0
  1
0
  0
DICTIONARYVAR
  5
41B
102
{ACAD_REACTORS
330
5E
102
}
330
5E
100
DictionaryVariables
280
     0
  1
2
  0
DICTIONARYVAR
  5
41A
102
{ACAD_REACTORS
330
5E
102
}
330
5E
100
DictionaryVariables
280
     0
  1
1
  0
DICTIONARYVAR
  5
41F
102
{ACAD_REACTORS
330
5E
102
}
330
5E
100
DictionaryVariables
280
     0
  1
80.000000
  0
DICTIONARYVAR
  5
41E
102
{ACAD_REACTORS
330
5E
102
}
330
5E
100
DictionaryVariables
280
     0
  1
5.000000
  0
DICTIONARYVAR
  5
41C
102
{ACAD_REACTORS
330
5E
102
}
330
5E
100
DictionaryVariables
280
     0
  1
127
  0
DICTIONARY
  5
425
330
D3
100
AcDbDictionary
280
     1
281
     1
  3
ACAD_XREC_ROUNDTRIP
360
426
  0
DICTIONARY
  5
427
330
D7
100
AcDbDictionary
280
     1
281
     1
  3
ACAD_XREC_ROUNDTRIP
360
428
  0
DICTIONARY
  5
422
330
22
100
AcDbDictionary
280
     1
281
     1
  3
ACAD_XREC_ROUNDTRIP
360
423
  0
DICTIONARY
  5
42B
330
ED
100
AcDbDictionary
280
     1
281
     1
  3
ACAD_XREC_ROUNDTRIP
360
42C
  0
DICTIONARY
  5
429
330
EC
100
AcDbDictionary
280
     1
281
     1
  3
ACAD_XREC_ROUNDTRIP
360
42A
  0
DICTIONARY
  5
173
330
EE
100
AcDbDictionary
280
     1
281
     1
  3
ACAD_XREC_ROUNDTRIP
360
42D
  3
BUMPTILE
360
175
  3
DIFFUSETILE
360
174
  3
OPACITYTILE
360
176
  3
REFLECTIONTILE
360
177
  0
DICTIONARY
  5
162
330
7F
100
AcDbDictionary
280
     1
281
     1
  3
ACAD_ROUNDTRIP_2008_TABLESTYLE_CELLSTYLEMAP
360
420
  3
ACAD_XREC_ROUNDTRIP
360
424
  0
XRECORD
  5
426
102
{ACAD_REACTORS
330
425
102
}
330
425
100
AcDbXrecord
280
     1
102
SHADEPLOT
 70
     0
102
SHADEPLOTRESLEVEL
 70
     2
102
SHADEPLOTCUSTOMDPI
 70
   300
  0
XRECORD
  5
428
102
{ACAD_REACTORS
330
427
102
}
330
427
100
AcDbXrecord
280
     1
102
SHADEPLOT
 70
     0
102
SHADEPLOTRESLEVEL
 70
     2
102
SHADEPLOTCUSTOMDPI
 70
   300
  0
XRECORD
  5
423
102
{ACAD_REACTORS
330
422
102
}
330
422
100
AcDbXrecord
280
     1
102
SHADEPLOT
 70
     0
102
SHADEPLOTRESLEVEL
 70
     2
102
SHADEPLOTCUSTOMDPI
 70
   300
  0
XRECORD
  5
42C
102
{ACAD_REACTORS
330
42B
102
}
330
42B
100
AcDbXrecord
280
     1
102
MATERIAL
148
0.0
149
0.0
149
0.0
 93
        0
 94
       63
282
     0
 72
     1
 77
     1
171
     1
175
     1
179
     1
273
     0
  0
XRECORD
  5
42A
102
{ACAD_REACTORS
330
429
102
}
330
429
100
AcDbXrecord
280
     1
102
MATERIAL
148
0.0
149
0.0
149
0.0
 93
        0
 94
       63
282
     0
 72
     1
 77
     1
171
     1
175
     1
179
     1
273
     0
  0
XRECORD
  5
42D
102
{ACAD_REACTORS
330
173
102
}
330
173
100
AcDbXrecord
280
     1
102
MATERIAL
148
0.0
149
0.0
149
0.0
 93
        0
 94
       63
282
     0
 72
     1
 77
     1
171
     1
175
     1
179
     1
273
     0
  0
XRECORD
  5
175
102
{ACAD_REACTORS
330
173
102
}
330
173
100
AcDbXrecord
280
     1
270
     1
271
     1
  0
XRECORD
  5
174
102
{ACAD_REACTORS
330
173
102
}
330
173
100
AcDbXrecord
280
     1
270
     1
271
     1
  0
XRECORD
  5
176
102
{ACAD_REACTORS
330
173
102
}
330
173
100
AcDbXrecord
280
     1
270
     1
271
     1
  0
XRECORD
  5
177
102
{ACAD_REACTORS
330
173
102
}
330
173
100
AcDbXrecord
280
     1
270
     1
271
     1
  0
CELLSTYLEMAP
  5
420
102
{ACAD_REACTORS
330
162
102
}
330
162
100
AcDbCellStyleMap
 90
        3
300
CELLSTYLE
  1
TABLEFORMAT_BEGIN
 90
        5
170
     1
 91
        0
 92
    32768
 62
   257
 93
        1
300
CONTENTFORMAT
  1
CONTENTFORMAT_BEGIN
 90
        0
 91
        0
 92
      512
 93
        0
300

 40
0.0
140
1.0
 94
        5
 62
     0
340
11
144
6.0
309
CONTENTFORMAT_END
171
     1
301
MARGIN
  1
CELLMARGIN_BEGIN
 40
1.5
 40
1.5
 40
1.5
 40
1.5
 40
4.5
 40
4.5
309
CELLMARGIN_END
 94
        6
 95
        1
302
GRIDFORMAT
  1
GRIDFORMAT_BEGIN
 90
        0
 91
        1
 62
     0
 92
       -2
340
14
 93
        0
 40
1.125
309
GRIDFORMAT_END
 95
        2
302
GRIDFORMAT
  1
GRIDFORMAT_BEGIN
 90
        0
 91
        1
 62
     0
 92
       -2
340
14
 93
        0
 40
1.125
309
GRIDFORMAT_END
 95
        4
302
GRIDFORMAT
  1
GRIDFORMAT_BEGIN
 90
        0
 91
        1
 62
     0
 92
       -2
340
14
 93
        0
 40
1.125
309
GRIDFORMAT_END
 95
        8
302
GRIDFORMAT
  1
GRIDFORMAT_BEGIN
 90
        0
 91
        1
 62
     0
 92
       -2
340
14
 93
        0
 40
1.125
309
GRIDFORMAT_END
 95
       16
302
GRIDFORMAT
  1
GRIDFORMAT_BEGIN
 90
        0
 91
        1
 62
     0
 92
       -2
340
14
 93
        0
 40
1.125
309
GRIDFORMAT_END
 95
       32
302
GRIDFORMAT
  1
GRIDFORMAT_BEGIN
 90
        0
 91
        1
 62
     0
 92
       -2
340
14
 93
        0
 40
1.125
309
GRIDFORMAT_END
309
TABLEFORMAT_END
  1
CELLSTYLE_BEGIN
 90
        1
 91
        1
300
_TITLE
309
CELLSTYLE_END
300
CELLSTYLE
  1
TABLEFORMAT_BEGIN
 90
        5
170
     1
 91
        0
 92
        0
 62
   257
 93
        1
300
CONTENTFORMAT
  1
CONTENTFORMAT_BEGIN
 90
        0
 91
        0
 92
      512
 93
        0
300

 40
0.0
140
1.0
 94
        5
 62
     0
340
11
144
4.5
309
CONTENTFORMAT_END
171
     1
301
MARGIN
  1
CELLMARGIN_BEGIN
 40
1.5
 40
1.5
 40
1.5
 40
1.5
 40
4.5
 40
4.5
309
CELLMARGIN_END
 94
        6
 95
        1
302
GRIDFORMAT
  1
GRIDFORMAT_BEGIN
 90
        0
 91
        1
 62
     0
 92
       -2
340
14
 93
        0
 40
1.125
309
GRIDFORMAT_END
 95
        2
302
GRIDFORMAT
  1
GRIDFORMAT_BEGIN
 90
        0
 91
        1
 62
     0
 92
       -2
340
14
 93
        0
 40
1.125
309
GRIDFORMAT_END
 95
        4
302
GRIDFORMAT
  1
GRIDFORMAT_BEGIN
 90
        0
 91
        1
 62
     0
 92
       -2
340
14
 93
        0
 40
1.125
309
GRIDFORMAT_END
 95
        8
302
GRIDFORMAT
  1
GRIDFORMAT_BEGIN
 90
        0
 91
        1
 62
     0
 92
       -2
340
14
 93
        0
 40
1.125
309
GRIDFORMAT_END
 95
       16
302
GRIDFORMAT
  1
GRIDFORMAT_BEGIN
 90
        0
 91
        1
 62
     0
 92
       -2
340
14
 93
        0
 40
1.125
309
GRIDFORMAT_END
 95
       32
302
GRIDFORMAT
  1
GRIDFORMAT_BEGIN
 90
        0
 91
        1
 62
     0
 92
       -2
340
14
 93
        0
 40
1.125
309
GRIDFORMAT_END
309
TABLEFORMAT_END
  1
CELLSTYLE_BEGIN
 90
        2
 91
        1
300
_HEADER
309
CELLSTYLE_END
300
CELLSTYLE
  1
TABLEFORMAT_BEGIN
 90
        5
170
     1
 91
        0
 92
        0
 62
   257
 93
        1
300
CONTENTFORMAT
  1
CONTENTFORMAT_BEGIN
 90
        0
 91
        0
 92
      512
 93
        0
300

 40
0.0
140
1.0
 94
        2
 62
     0
340
11
144
4.5
309
CONTENTFORMAT_END
171
     1
301
MARGIN
  1
CELLMARGIN_BEGIN
 40
1.5
 40
1.5
 40
1.5
 40
1.5
 40
4.5
 40
4.5
309
CELLMARGIN_END
 94
        6
 95
        1
302
GRIDFORMAT
  1
GRIDFORMAT_BEGIN
 90
        0
 91
        1
 62
     0
 92
       -2
340
14
 93
        0
 40
1.125
309
GRIDFORMAT_END
 95
        2
302
GRIDFORMAT
  1
GRIDFORMAT_BEGIN
 90
        0
 91
        1
 62
     0
 92
       -2
340
14
 93
        0
 40
1.125
309
GRIDFORMAT_END
 95
        4
302
GRIDFORMAT
  1
GRIDFORMAT_BEGIN
 90
        0
 91
        1
 62
     0
 92
       -2
340
14
 93
        0
 40
1.125
309
GRIDFORMAT_END
 95
        8
302
GRIDFORMAT
  1
GRIDFORMAT_BEGIN
 90
        0
 91
        1
 62
     0
 92
       -2
340
14
 93
        0
 40
1.125
309
GRIDFORMAT_END
 95
       16
302
GRIDFORMAT
  1
GRIDFORMAT_BEGIN
 90
        0
 91
        1
 62
     0
 92
       -2
340
14
 93
        0
 40
1.125
309
GRIDFORMAT_END
 95
       32
302
GRIDFORMAT
  1
GRIDFORMAT_BEGIN
 90
        0
 91
        1
 62
     0
 92
       -2
340
14
 93
        0
 40
1.125
309
GRIDFORMAT_END
309
TABLEFORMAT_END
  1
CELLSTYLE_BEGIN
 90
        3
 91
        2
300
_DATA
309
CELLSTYLE_END
  0
XRECORD
  5
424
102
{ACAD_REACTORS
330
162
102
}
330
162
100
AcDbXrecord
280
     1
102
ACAD_ROUNDTRIP_PRE2007_TABLESTYLE
 90
      512
 91
        0
  1

 92
      512
 93
        0
  2

 94
      512
 95
        0
  3

  0
ENDSEC
  0
EOF
