  0
SECTION
  2
HEADER
  9
$ACADVER
  1
AC1015
  9
$ACADMAINTVER
 70
    20
  9
$DWGCODEPAGE
  3
ANSI_1254
  9
$INSBASE
 10
0.0
 20
0.0
 30
0.0
  9
$EXTMIN
 10
2073.202422170433
 20
1055.803784146457
 30
0.0
  9
$EXTMAX
 10
2172.228322072393
 20
1104.762597366806
 30
0.0
  9
$LIMMIN
 10
0.0
 20
0.0
  9
$LIMMAX
 10
420.0
 20
297.0
  9
$ORTHOMODE
 70
     0
  9
$REGENMODE
 70
     1
  9
$FILLMODE
 70
     1
  9
$QTEXTMODE
 70
     0
  9
$MIRRTEXT
 70
     0
  9
$LTSCALE
 40
1.0
  9
$ATTMODE
 70
     1
  9
$TEXTSIZE
 40
2.5
  9
$TRACEWID
 40
1.0
  9
$TEXTSTYLE
  7
Standard
  9
$CLAYER
  8
0
  9
$CELTYPE
  6
ByLayer
  9
$CECOLOR
 62
   256
  9
$CELTSCALE
 40
1.0
  9
$DISPSILH
 70
     0
  9
$DIMSCALE
 40
1.0
  9
$DIMASZ
 40
2.5
  9
$DIMEXO
 40
0.625
  9
$DIMDLI
 40
3.75
  9
$DIMRND
 40
0.0
  9
$DIMDLE
 40
0.0
  9
$DIMEXE
 40
1.25
  9
$DIMTP
 40
0.0
  9
$DIMTM
 40
0.0
  9
$DIMTXT
 40
2.5
  9
$DIMCEN
 40
2.5
  9
$DIMTSZ
 40
0.0
  9
$DIMTOL
 70
     0
  9
$DIMLIM
 70
     0
  9
$DIMTIH
 70
     0
  9
$DIMTOH
 70
     0
  9
$DIMSE1
 70
     0
  9
$DIMSE2
 70
     0
  9
$DIMTAD
 70
     1
  9
$DIMZIN
 70
     8
  9
$DIMBLK
  1

  9
$DIMASO
 70
     1
  9
$DIMSHO
 70
     1
  9
$DIMPOST
  1

  9
$DIMAPOST
  1

  9
$DIMALT
 70
     0
  9
$DIMALTD
 70
     3
  9
$DIMALTF
 40
0.03937007874016
  9
$DIMLFAC
 40
1.0
  9
$DIMTOFL
 70
     1
  9
$DIMTVP
 40
0.0
  9
$DIMTIX
 70
     0
  9
$DIMSOXD
 70
     0
  9
$DIMSAH
 70
     0
  9
$DIMBLK1
  1

  9
$DIMBLK2
  1

  9
$DIMSTYLE
  2
ISO-25
  9
$DIMCLRD
 70
     0
  9
$DIMCLRE
 70
     0
  9
$DIMCLRT
 70
     0
  9
$DIMTFAC
 40
1.0
  9
$DIMGAP
 40
0.625
  9
$DIMJUST
 70
     0
  9
$DIMSD1
 70
     0
  9
$DIMSD2
 70
     0
  9
$DIMTOLJ
 70
     0
  9
$DIMTZIN
 70
     8
  9
$DIMALTZ
 70
     0
  9
$DIMALTTZ
 70
     0
  9
$DIMUPT
 70
     0
  9
$DIMDEC
 70
     2
  9
$DIMTDEC
 70
     2
  9
$DIMALTU
 70
     2
  9
$DIMALTTD
 70
     3
  9
$DIMTXSTY
  7
Standard
  9
$DIMAUNIT
 70
     0
  9
$DIMADEC
 70
     0
  9
$DIMALTRND
 40
0.0
  9
$DIMAZIN
 70
     0
  9
$DIMDSEP
 70
    44
  9
$DIMATFIT
 70
     3
  9
$DIMFRAC
 70
     0
  9
$DIMLDRBLK
  1

  9
$DIMLUNIT
 70
     2
  9
$DIMLWD
 70
    -2
  9
$DIMLWE
 70
    -2
  9
$DIMTMOVE
 70
     0
  9
$LUNITS
 70
     2
  9
$LUPREC
 70
     4
  9
$SKETCHINC
 40
1.0
  9
$FILLETRAD
 40
0.0
  9
$AUNITS
 70
     0
  9
$AUPREC
 70
     0
  9
$MENU
  1
.
  9
$ELEVATION
 40
0.0
  9
$PELEVATION
 40
0.0
  9
$THICKNESS
 40
0.0
  9
$LIMCHECK
 70
     0
  9
$CHAMFERA
 40
0.0
  9
$CHAMFERB
 40
0.0
  9
$CHAMFERC
 40
0.0
  9
$CHAMFERD
 40
0.0
  9
$SKPOLY
 70
     0
  9
$TDCREATE
 40
2458522.577544468
  9
$TDUCREATE
 40
2458522.452544467
  9
$TDUPDATE
 40
2459083.676847952
  9
$TDUUPDATE
 40
2459083.551847952
  9
$TDINDWG
 40
0.0003195370
  9
$TDUSRTIMER
 40
0.0003195370
  9
$USRTIMER
 70
     1
  9
$ANGBASE
 50
0.0
  9
$ANGDIR
 70
     0
  9
$PDMODE
 70
     0
  9
$PDSIZE
 40
0.0
  9
$PLINEWID
 40
0.0
  9
$SPLFRAME
 70
     0
  9
$SPLINETYPE
 70
     6
  9
$SPLINESEGS
 70
     8
  9
$HANDSEED
  5
3D9
  9
$SURFTAB1
 70
     6
  9
$SURFTAB2
 70
     6
  9
$SURFTYPE
 70
     6
  9
$SURFU
 70
     6
  9
$SURFV
 70
     6
  9
$UCSBASE
  2

  9
$UCSNAME
  2

  9
$UCSORG
 10
0.0
 20
0.0
 30
0.0
  9
$UCSXDIR
 10
1.0
 20
0.0
 30
0.0
  9
$UCSYDIR
 10
0.0
 20
1.0
 30
0.0
  9
$UCSORTHOREF
  2

  9
$UCSORTHOVIEW
 70
     0
  9
$UCSORGTOP
 10
0.0
 20
0.0
 30
0.0
  9
$UCSORGBOTTOM
 10
0.0
 20
0.0
 30
0.0
  9
$UCSORGLEFT
 10
0.0
 20
0.0
 30
0.0
  9
$UCSORGRIGHT
 10
0.0
 20
0.0
 30
0.0
  9
$UCSORGFRONT
 10
0.0
 20
0.0
 30
0.0
  9
$UCSORGBACK
 10
0.0
 20
0.0
 30
0.0
  9
$PUCSBASE
  2

  9
$PUCSNAME
  2

  9
$PUCSORG
 10
0.0
 20
0.0
 30
0.0
  9
$PUCSXDIR
 10
1.0
 20
0.0
 30
0.0
  9
$PUCSYDIR
 10
0.0
 20
1.0
 30
0.0
  9
$PUCSORTHOREF
  2

  9
$PUCSORTHOVIEW
 70
     0
  9
$PUCSORGTOP
 10
0.0
 20
0.0
 30
0.0
  9
$PUCSORGBOTTOM
 10
0.0
 20
0.0
 30
0.0
  9
$PUCSORGLEFT
 10
0.0
 20
0.0
 30
0.0
  9
$PUCSORGRIGHT
 10
0.0
 20
0.0
 30
0.0
  9
$PUCSORGFRONT
 10
0.0
 20
0.0
 30
0.0
  9
$PUCSORGBACK
 10
0.0
 20
0.0
 30
0.0
  9
$USERI1
 70
     0
  9
$USERI2
 70
     0
  9
$USERI3
 70
     0
  9
$USERI4
 70
     0
  9
$USERI5
 70
     0
  9
$USERR1
 40
0.0
  9
$USERR2
 40
0.0
  9
$USERR3
 40
0.0
  9
$USERR4
 40
0.0
  9
$USERR5
 40
0.0
  9
$WORLDVIEW
 70
     1
  9
$SHADEDGE
 70
     3
  9
$SHADEDIF
 70
    70
  9
$TILEMODE
 70
     1
  9
$MAXACTVP
 70
    64
  9
$PINSBASE
 10
0.0
 20
0.0
 30
0.0
  9
$PLIMCHECK
 70
     0
  9
$PEXTMIN
 10
0.0
 20
0.0
 30
0.0
  9
$PEXTMAX
 10
0.0
 20
0.0
 30
0.0
  9
$PLIMMIN
 10
0.0
 20
0.0
  9
$PLIMMAX
 10
12.0
 20
9.0
  9
$UNITMODE
 70
     0
  9
$VISRETAIN
 70
     1
  9
$PLINEGEN
 70
     0
  9
$PSLTSCALE
 70
     1
  9
$TREEDEPTH
 70
  3020
  9
$CMLSTYLE
  2
Standard
  9
$CMLJUST
 70
     0
  9
$CMLSCALE
 40
20.0
  9
$PROXYGRAPHICS
 70
     1
  9
$MEASUREMENT
 70
     1
  9
$CELWEIGHT
370
    -1
  9
$ENDCAPS
280
     0
  9
$JOINSTYLE
280
     0
  9
$LWDISPLAY
290
     0
  9
$INSUNITS
 70
     4
  9
$HYPERLINKBASE
  1

  9
$STYLESHEET
  1

  9
$XEDIT
290
     1
  9
$CEPSNTYPE
380
     0
  9
$PSTYLEMODE
290
     1
  9
$FINGERPRINTGUID
  2
{EC18B6FD-4B9C-450B-9F5D-251D6B1B729A}
  9
$VERSIONGUID
  2
{7734A807-A285-4BC7-A464-0F6353278E71}
  9
$EXTNAMES
290
     1
  9
$PSVPSCALE
 40
0.0
  9
$OLESTARTUP
290
     0
  0
ENDSEC
  0
SECTION
  2
CLASSES
  0
CLASS
  1
ACDBDICTIONARYWDFLT
  2
AcDbDictionaryWithDefault
  3
ObjectDBX Classes
 90
        0
280
     0
281
     0
  0
CLASS
  1
ACDBPLACEHOLDER
  2
AcDbPlaceHolder
  3
ObjectDBX Classes
 90
        0
280
     0
281
     0
  0
CLASS
  1
LAYOUT
  2
AcDbLayout
  3
ObjectDBX Classes
 90
        0
280
     0
281
     0
  0
CLASS
  1
DICTIONARYVAR
  2
AcDbDictionaryVar
  3
ObjectDBX Classes
 90
        0
280
     0
281
     0
  0
CLASS
  1
TABLESTYLE
  2
AcDbTableStyle
  3
ObjectDBX Classes
 90
     4095
280
     0
281
     0
  0
CLASS
  1
MATERIAL
  2
AcDbMaterial
  3
ObjectDBX Classes
 90
     1153
280
     0
281
     0
  0
CLASS
  1
VISUALSTYLE
  2
AcDbVisualStyle
  3
ObjectDBX Classes
 90
     4095
280
     0
281
     0
  0
CLASS
  1
SCALE
  2
AcDbScale
  3
ObjectDBX Classes
 90
     1153
280
     0
281
     0
  0
CLASS
  1
MLEADERSTYLE
  2
AcDbMLeaderStyle
  3
ACDB_MLEADERSTYLE_CLASS
 90
     4095
280
     0
281
     0
  0
CLASS
  1
CELLSTYLEMAP
  2
AcDbCellStyleMap
  3
ObjectDBX Classes
 90
     1152
280
     0
281
     0
  0
ENDSEC
  0
SECTION
  2
TABLES
  0
TABLE
  2
VPORT
  5
8
330
0
100
AcDbSymbolTable
 70
     1
  0
VPORT
  5
EA
330
8
100
AcDbSymbolTableRecord
100
AcDbViewportTableRecord
  2
*Active
 70
     0
 10
0.0
 20
0.0
 11
1.0
 21
1.0
 12
2123.079681298728
 22
1082.207755500527
 13
0.0
 23
0.0
 14
10.0
 24
10.0
 15
10.0
 25
10.0
 16
0.0
 26
0.0
 36
1.0
 17
0.0
 27
0.0
 37
0.0
 40
65.160172227487
 41
1.903110047846889
 42
50.0
 43
0.0
 44
0.0
 50
0.0
 51
0.0
 71
     0
 72
  1000
 73
     1
 74
     3
 75
     0
 76
     0
 77
     0
 78
     0
281
     0
 65
     1
110
0.0
120
0.0
130
0.0
111
1.0
121
0.0
131
0.0
112
0.0
122
1.0
132
0.0
 79
     0
146
0.0
  0
ENDTAB
  0
TABLE
  2
LTYPE
  5
5
330
0
100
AcDbSymbolTable
 70
     1
  0
LTYPE
  5
14
330
5
100
AcDbSymbolTableRecord
100
AcDbLinetypeTableRecord
  2
ByBlock
 70
     0
  3

 72
    65
 73
     0
 40
0.0
  0
LTYPE
  5
15
330
5
100
AcDbSymbolTableRecord
100
AcDbLinetypeTableRecord
  2
ByLayer
 70
     0
  3

 72
    65
 73
     0
 40
0.0
  0
LTYPE
  5
16
330
5
100
AcDbSymbolTableRecord
100
AcDbLinetypeTableRecord
  2
Continuous
 70
     0
  3
Solid line
 72
    65
 73
     0
 40
0.0
  0
ENDTAB
  0
TABLE
  2
LAYER
  5
2
330
0
100
AcDbSymbolTable
 70
     1
  0
LAYER
  5
10
102
{ACAD_XDICTIONARY
360
13C
102
}
330
2
100
AcDbSymbolTableRecord
100
AcDbLayerTableRecord
  2
0
 70
     0
 62
     7
  6
Continuous
370
    -3
390
F
  0
ENDTAB
  0
TABLE
  2
STYLE
  5
3
330
0
100
AcDbSymbolTable
 70
     2
  0
STYLE
  5
11
330
3
100
AcDbSymbolTableRecord
100
AcDbTextStyleTableRecord
  2
Standard
 70
     0
 40
0.0
 41
1.0
 50
0.0
 71
     0
 42
2.5
  3
txt
  4

  0
STYLE
  5
132
330
3
100
AcDbSymbolTableRecord
100
AcDbTextStyleTableRecord
  2
Annotative
 70
     0
 40
0.0
 41
1.0
 50
0.0
 71
     0
 42
2.5
  3
txt.shx
  4

1001
AcadAnnotative
1000
AnnotativeData
1002
{
1070
     1
1070
     1
1002
}
  0
ENDTAB
  0
TABLE
  2
VIEW
  5
6
330
0
100
AcDbSymbolTable
 70
     0
  0
ENDTAB
  0
TABLE
  2
UCS
  5
7
330
0
100
AcDbSymbolTable
 70
     0
  0
ENDTAB
  0
TABLE
  2
APPID
  5
9
330
0
100
AcDbSymbolTable
 70
     7
  0
APPID
  5
12
330
9
100
AcDbSymbolTableRecord
100
AcDbRegAppTableRecord
  2
ACAD
 70
     0
  0
APPID
  5
9E
330
9
100
AcDbSymbolTableRecord
100
AcDbRegAppTableRecord
  2
ACAD_PSEXT
 70
     0
  0
APPID
  5
133
330
9
100
AcDbSymbolTableRecord
100
AcDbRegAppTableRecord
  2
AcadAnnoPO
 70
     0
  0
APPID
  5
134
330
9
100
AcDbSymbolTableRecord
100
AcDbRegAppTableRecord
  2
AcadAnnotative
 70
     0
  0
APPID
  5
135
330
9
100
AcDbSymbolTableRecord
100
AcDbRegAppTableRecord
  2
ACAD_DSTYLE_DIMJAG
 70
     0
  0
APPID
  5
136
330
9
100
AcDbSymbolTableRecord
100
AcDbRegAppTableRecord
  2
ACAD_DSTYLE_DIMTALN
 70
     0
  0
APPID
  5
165
330
9
100
AcDbSymbolTableRecord
100
AcDbRegAppTableRecord
  2
ACAD_MLEADERVER
 70
     0
  0
ENDTAB
  0
TABLE
  2
DIMSTYLE
  5
A
330
0
100
AcDbSymbolTable
 70
     2
100
AcDbDimStyleTable
 71
     2
340
27
340
137
  0
DIMSTYLE
105
27
330
A
100
AcDbSymbolTableRecord
100
AcDbDimStyleTableRecord
  2
ISO-25
 70
     0
 41
2.5
 42
0.625
 43
3.75
 44
1.25
 73
     0
 74
     0
 77
     1
 78
     8
140
2.5
141
2.5
143
0.03937007874016
147
0.625
171
     3
172
     1
271
     2
272
     2
274
     3
278
    44
283
     0
284
     8
340
11
  0
DIMSTYLE
105
137
330
A
100
AcDbSymbolTableRecord
100
AcDbDimStyleTableRecord
  2
Annotative
 70
     0
 40
0.0
 41
2.5
 42
0.625
 43
3.75
 44
1.25
 73
     0
 74
     0
 77
     1
 78
     8
140
2.5
141
2.5
143
0.03937007874016
147
0.625
171
     3
172
     1
271
     2
272
     2
274
     3
278
    44
283
     0
284
     8
340
11
1001
AcadAnnotative
1000
AnnotativeData
1002
{
1070
     1
1070
     1
1002
}
1001
ACAD_DSTYLE_DIMJAG
1070
   388
1040
1.5
1001
ACAD_DSTYLE_DIMTALN
1070
   392
1070
     0
  0
ENDTAB
  0
TABLE
  2
BLOCK_RECORD
  5
1
330
0
100
AcDbSymbolTable
 70
     5
  0
BLOCK_RECORD
  5
1F
330
1
100
AcDbSymbolTableRecord
100
AcDbBlockTableRecord
  2
*Model_Space
340
22
  0
BLOCK_RECORD
  5
D2
330
1
100
AcDbSymbolTableRecord
100
AcDbBlockTableRecord
  2
*Paper_Space
340
D3
  0
BLOCK_RECORD
  5
D6
330
1
100
AcDbSymbolTableRecord
100
AcDbBlockTableRecord
  2
*Paper_Space0
340
D7
  0
BLOCK_RECORD
  5
305
330
1
100
AcDbSymbolTableRecord
100
AcDbBlockTableRecord
  2
1
340
0
310
2800000020000000200000000100080000000000000400000000000000000000000000000000000000000000000080000080000000808000800000008000800080800000C0C0C000C0DCC000F0CAA6000020400000206000002080000020A0000020C0000020E00000400000004020000040400000406000004080000040A0
310
000040C0000040E00000600000006020000060400000606000006080000060A0000060C0000060E00000800000008020000080400000806000008080000080A0000080C0000080E00000A0000000A0200000A0400000A0600000A0800000A0A00000A0C00000A0E00000C0000000C0200000C0400000C0600000C0800000C0
310
A00000C0C00000C0E00000E0000000E0200000E0400000E0600000E0800000E0A00000E0C00000E0E00040000000400020004000400040006000400080004000A0004000C0004000E00040200000402020004020400040206000402080004020A0004020C0004020E000404000004040200040404000404060004040800040
310
40A0004040C0004040E00040600000406020004060400040606000406080004060A0004060C0004060E00040800000408020004080400040806000408080004080A0004080C0004080E00040A0000040A0200040A0400040A0600040A0800040A0A00040A0C00040A0E00040C0000040C0200040C0400040C0600040C08000
310
40C0A00040C0C00040C0E00040E0000040E0200040E0400040E0600040E0800040E0A00040E0C00040E0E00080000000800020008000400080006000800080008000A0008000C0008000E00080200000802020008020400080206000802080008020A0008020C0008020E00080400000804020008040400080406000804080
310
008040A0008040C0008040E00080600000806020008060400080606000806080008060A0008060C0008060E00080800000808020008080400080806000808080008080A0008080C0008080E00080A0000080A0200080A0400080A0600080A0800080A0A00080A0C00080A0E00080C0000080C0200080C0400080C0600080C0
310
800080C0A00080C0C00080C0E00080E0000080E0200080E0400080E0600080E0800080E0A00080E0C00080E0E000C0000000C0002000C0004000C0006000C0008000C000A000C000C000C000E000C0200000C0202000C0204000C0206000C0208000C020A000C020C000C020E000C0400000C0402000C0404000C0406000C0
310
408000C040A000C040C000C040E000C0600000C0602000C0604000C0606000C0608000C060A000C060C000C060E000C0800000C0802000C0804000C0806000C0808000C080A000C080C000C080E000C0A00000C0A02000C0A04000C0A06000C0A08000C0A0A000C0A0C000C0A0E000C0C00000C0C02000C0C04000C0C06000
310
C0C08000C0C0A000F0FBFF00A4A0A000808080000000FF0000FF000000FFFF00FF000000FF00FF00FFFF0000FFFFFF0000000000000000000000000000000000000000000000000000000000000000000000000000000000000000000000000000000000000000000000000000000000000000000000000000000000000000
310
0000000000000000000000000000000000000000000000000000000000000000000000000000000000000000000000000000000000000000000000000000000000000000000000000000000000000000000000FFFFFFFFFFFFFFFFFFFFFFFFFFFFFFFFFFFFFFFFFFFFFFFFFFFFFFFF000000FFFFFFFFFFFFFFFFFFFFFFFFFF
310
FFFFFFFFFFFFFFFFFFFFFFFFFFFFFFFFFF0000FF00000000000000000000000000000000000000000000000000000000FF0000FF00000000000000000000000000000000000000000000000000000000FF0000FF00000000000000000000000000000000000000000000000000000000FF0000FF0000000000000000000000
310
0000000000000000000000000000000000FF0000FF00000000000000000000000000000000000000000000000000000000FF0000FF000000FFFFFFFFFFFFFF0000000000000000FFFFFFFFFFFFFF000000FF0000FF000000FFFFFF0000FFFF0000000000000000FFFF000000FFFF000000FF0000FF000000FFFFFFFFFFFFFF
310
0000000000000000FFFFFFFFFFFFFF000000FF0000FF000000FFFFFFFFFFFFFF0000000000000000FFFFFFFFFFFFFF000000FF0000FF000000FF00FFFFFFFFFF0000000000000000FFFFFFFFFFFFFF000000FF0000FF000000FFFFFFFFFFFFFF0000000000000000FFFFFFFFFFFFFF000000FF0000FF000000000000000000
310
00000000000000000000000000000000000000FF0000FF00000000000000000000000000000000000000000000000000000000FF0000FF00000000000000000000000000000000000000000000000000000000FF0000FF00000000000000000000000000000000000000000000000000000000FF0000FF0000000000000000
310
0000000000000000000000000000000000000000FF0000FF00000000000000000000000000000000000000000000000000000000FF0000FF00000000000000000000000000000000000000000000000000000000FF0000FFFFFFFFFFFFFFFFFFFFFFFFFFFFFFFFFFFFFFFFFFFFFFFFFFFFFFFFFFFF000000FFFFFFFFFFFFFF
310
FFFFFFFFFFFFFFFFFFFFFFFFFFFFFFFFFFFFFFFFFF00000000000000000000000000000000000000000000000000000000000000000000000000000000000000000000000000000000000000000000000000000000000000000000000000000000000000000000000000000000000000000000000000000000000000000000
310
0000000000000000000000000000000000000000000000000000000000000000000000000000000000000000000000000000000000000000
102
{BLKREFS
331
338
102
}
1001
ACAD
1000
DesignCenter Data
1002
{
1070
     1
1070
     4
1002
}
  0
BLOCK_RECORD
  5
339
330
1
100
AcDbSymbolTableRecord
100
AcDbBlockTableRecord
  2
2
340
0
310
2800000020000000200000000100080000000000000400000000000000000000000000000000000000000000000080000080000000808000800000008000800080800000C0C0C000C0DCC000F0CAA6000020400000206000002080000020A0000020C0000020E00000400000004020000040400000406000004080000040A0
310
000040C0000040E00000600000006020000060400000606000006080000060A0000060C0000060E00000800000008020000080400000806000008080000080A0000080C0000080E00000A0000000A0200000A0400000A0600000A0800000A0A00000A0C00000A0E00000C0000000C0200000C0400000C0600000C0800000C0
310
A00000C0C00000C0E00000E0000000E0200000E0400000E0600000E0800000E0A00000E0C00000E0E00040000000400020004000400040006000400080004000A0004000C0004000E00040200000402020004020400040206000402080004020A0004020C0004020E000404000004040200040404000404060004040800040
310
40A0004040C0004040E00040600000406020004060400040606000406080004060A0004060C0004060E00040800000408020004080400040806000408080004080A0004080C0004080E00040A0000040A0200040A0400040A0600040A0800040A0A00040A0C00040A0E00040C0000040C0200040C0400040C0600040C08000
310
40C0A00040C0C00040C0E00040E0000040E0200040E0400040E0600040E0800040E0A00040E0C00040E0E00080000000800020008000400080006000800080008000A0008000C0008000E00080200000802020008020400080206000802080008020A0008020C0008020E00080400000804020008040400080406000804080
310
008040A0008040C0008040E00080600000806020008060400080606000806080008060A0008060C0008060E00080800000808020008080400080806000808080008080A0008080C0008080E00080A0000080A0200080A0400080A0600080A0800080A0A00080A0C00080A0E00080C0000080C0200080C0400080C0600080C0
310
800080C0A00080C0C00080C0E00080E0000080E0200080E0400080E0600080E0800080E0A00080E0C00080E0E000C0000000C0002000C0004000C0006000C0008000C000A000C000C000C000E000C0200000C0202000C0204000C0206000C0208000C020A000C020C000C020E000C0400000C0402000C0404000C0406000C0
310
408000C040A000C040C000C040E000C0600000C0602000C0604000C0606000C0608000C060A000C060C000C060E000C0800000C0802000C0804000C0806000C0808000C080A000C080C000C080E000C0A00000C0A02000C0A04000C0A06000C0A08000C0A0A000C0A0C000C0A0E000C0C00000C0C02000C0C04000C0C06000
310
C0C08000C0C0A000F0FBFF00A4A0A000808080000000FF0000FF000000FFFF00FF000000FF00FF00FFFF0000FFFFFF0000000000000000000000000000000000000000000000000000000000000000000000000000000000000000000000000000000000000000000000000000000000000000000000000000000000000000
310
00000000000000000000000000000000000000FFFFFFFFFFFFFFFFFFFFFFFFFFFFFFFFFFFFFFFFFFFFFFFFFFFFFFFF000000FFFFFFFFFFFFFFFFFFFFFFFFFFFFFFFFFFFFFFFFFFFFFFFFFFFFFFFFFFFF0000FF00000000000000000000000000000000000000000000000000000000FF0000FF000000000000000000000000
310
00000000000000000000000000000000FF0000FF00000000000000000000000000000000000000000000000000000000FF0000FF00000000000000000000000000000000000000000000000000000000FF0000FF00000000000000000000000000000000000000000000000000000000FF0000FF0000000000000000000000
310
0000000000000000000000000000000000FF0000FF00000000000000000000000000000000000000000000000000000000FF0000FF00000000000000000000000000000000000000000000000000000000FF0000FF00000000000000000000000000000000000000000000000000000000FF0000FF00000000000000000000
310
000000000000000000000000000000000000FF0000FF00000000000000000000000000000000000000000000000000000000FF0000FF00000000000000000000000000000000000000000000000000000000FF0000FF00000000000000000000000000000000000000000000000000000000FF0000FF000000000000000000
310
00000000000000000000000000000000000000FF0000FF00000000000000000000000000000000000000000000000000000000FF0000FF00000000000000000000000000000000000000000000000000000000FF0000FF00000000000000000000000000000000000000000000000000000000FF0000FF0000000000000000
310
0000000000000000000000000000000000000000FF0000FF00000000000000000000000000000000000000000000000000000000FF0000FF00000000000000000000000000000000000000000000000000000000FF0000FF00000000000000000000000000000000000000000000000000000000FF0000FF00000000000000
310
000000000000000000000000000000000000000000FF0000FFFFFFFFFFFFFFFFFFFFFFFFFFFFFFFFFFFFFFFFFFFFFFFFFFFFFFFFFFFF000000FFFFFFFFFFFFFFFFFFFFFFFFFFFFFFFFFFFFFFFFFFFFFFFFFFFFFFFF000000000000000000000000000000000000000000000000000000000000000000000000000000000000
310
0000000000000000000000000000000000000000000000000000000000000000000000000000000000000000000000000000000000000000
102
{BLKREFS
331
346
102
}
1001
ACAD
1000
DesignCenter Data
1002
{
1070
     1
1070
     4
1002
}
  0
BLOCK_RECORD
  5
347
330
1
100
AcDbSymbolTableRecord
100
AcDbBlockTableRecord
  2
3
340
0
310
2800000020000000200000000100080000000000000400000000000000000000000000000000000000000000000080000080000000808000800000008000800080800000C0C0C000C0DCC000F0CAA6000020400000206000002080000020A0000020C0000020E00000400000004020000040400000406000004080000040A0
310
000040C0000040E00000600000006020000060400000606000006080000060A0000060C0000060E00000800000008020000080400000806000008080000080A0000080C0000080E00000A0000000A0200000A0400000A0600000A0800000A0A00000A0C00000A0E00000C0000000C0200000C0400000C0600000C0800000C0
310
A00000C0C00000C0E00000E0000000E0200000E0400000E0600000E0800000E0A00000E0C00000E0E00040000000400020004000400040006000400080004000A0004000C0004000E00040200000402020004020400040206000402080004020A0004020C0004020E000404000004040200040404000404060004040800040
310
40A0004040C0004040E00040600000406020004060400040606000406080004060A0004060C0004060E00040800000408020004080400040806000408080004080A0004080C0004080E00040A0000040A0200040A0400040A0600040A0800040A0A00040A0C00040A0E00040C0000040C0200040C0400040C0600040C08000
310
40C0A00040C0C00040C0E00040E0000040E0200040E0400040E0600040E0800040E0A00040E0C00040E0E00080000000800020008000400080006000800080008000A0008000C0008000E00080200000802020008020400080206000802080008020A0008020C0008020E00080400000804020008040400080406000804080
310
008040A0008040C0008040E00080600000806020008060400080606000806080008060A0008060C0008060E00080800000808020008080400080806000808080008080A0008080C0008080E00080A0000080A0200080A0400080A0600080A0800080A0A00080A0C00080A0E00080C0000080C0200080C0400080C0600080C0
310
800080C0A00080C0C00080C0E00080E0000080E0200080E0400080E0600080E0800080E0A00080E0C00080E0E000C0000000C0002000C0004000C0006000C0008000C000A000C000C000C000E000C0200000C0202000C0204000C0206000C0208000C020A000C020C000C020E000C0400000C0402000C0404000C0406000C0
310
408000C040A000C040C000C040E000C0600000C0602000C0604000C0606000C0608000C060A000C060C000C060E000C0800000C0802000C0804000C0806000C0808000C080A000C080C000C080E000C0A00000C0A02000C0A04000C0A06000C0A08000C0A0A000C0A0C000C0A0E000C0C00000C0C02000C0C04000C0C06000
310
C0C08000C0C0A000F0FBFF00A4A0A000808080000000FF0000FF000000FFFF00FF000000FF00FF00FFFF0000FFFFFF0000000000000000000000000000000000000000000000000000000000000000000000000000000000000000000000000000000000000000000000000000000000000000000000000000000000000000
310
0000000000000000000000000000000000000000000000000000000000000000000000000000000000000000000000000000FFFFFFFFFFFFFFFFFFFFFFFFFFFFFFFFFFFFFFFFFFFFFFFFFFFFFFFFFFFF0000FFFFFFFFFFFFFFFFFFFFFFFFFFFFFFFFFFFFFFFFFFFFFFFFFFFFFFFFFFFF0000FFFF0000000000000000000000
310
000000000000000000000000000000FFFF0000FFFF0000000000000000000000000000000000000000000000000000FFFF0000FFFF0000000000000000000000000000000000000000000000000000FFFF0000FFFF0000000000FF0000000000000000000000000000FF0000000000FFFF0000FFFF00000000FF00FF000000
310
000000000000000000FF00FF00000000FFFF0000FFFF000000FFFFFFFFFF0000000000FFFF000000FFFFFFFFFF000000FFFF0000FFFF0000FFFFFFFFFFFFFF00FFFFFFFFFFFF00FFFFFFFFFFFFFF0000FFFF0000FFFF000000FFFFFFFFFF00FFFF0000FF00FFFF00FFFFFFFFFF000000FFFF0000FFFF00000000FFFF000000
310
FF0000FF00FF00FF0000FFFF0000000000FFFF0000FFFF000000000000000000FF00FF0000FF00FFFF0000000000000000FFFF0000FFFF0000000000000000FFFFFF00000000FF00FF0000000000000000FFFF0000FFFF00000000FFFF000000FF00FFFF00FF00FF0000FFFF0000000000FFFF0000FFFF000000FFFFFFFFFF
310
00FFFF0000FF0000FF00FFFFFFFFFF000000FFFF0000FFFF0000FFFFFFFFFFFFFF00FFFFFFFFFFFF00FFFFFFFFFFFFFF0000FFFF0000FFFF000000FFFFFFFFFF0000000000FFFF000000FFFFFFFFFF000000FFFF0000FFFF00000000FF00FF000000000000000000000000FF00FF00000000FFFF0000FFFF0000000000FF00
310
00000000000000000000000000FF0000000000FFFF0000FFFF0000000000000000000000000000000000000000000000000000FFFF0000FFFF0000000000000000000000000000000000000000000000000000FFFF0000FFFF0000000000000000000000000000000000000000000000000000FFFF0000FFFFFFFFFFFFFFFF
310
FFFFFFFFFFFFFFFFFFFFFFFFFFFFFFFFFFFFFFFFFFFF0000FFFFFFFFFFFFFFFFFFFFFFFFFFFFFFFFFFFFFFFFFFFFFFFFFFFFFFFFFFFF00000000000000000000000000000000000000000000000000000000000000000000000000000000000000000000000000000000000000000000000000000000000000000000000000
310
0000000000000000000000000000000000000000000000000000000000000000000000000000000000000000000000000000000000000000
102
{BLKREFS
331
38E
102
}
1001
ACAD
1000
DesignCenter Data
1002
{
1070
     1
1070
     4
1002
}
  0
BLOCK_RECORD
  5
38F
330
1
100
AcDbSymbolTableRecord
100
AcDbBlockTableRecord
  2
4
340
0
310
2800000020000000200000000100080000000000000400000000000000000000000000000000000000000000000080000080000000808000800000008000800080800000C0C0C000C0DCC000F0CAA6000020400000206000002080000020A0000020C0000020E00000400000004020000040400000406000004080000040A0
310
000040C0000040E00000600000006020000060400000606000006080000060A0000060C0000060E00000800000008020000080400000806000008080000080A0000080C0000080E00000A0000000A0200000A0400000A0600000A0800000A0A00000A0C00000A0E00000C0000000C0200000C0400000C0600000C0800000C0
310
A00000C0C00000C0E00000E0000000E0200000E0400000E0600000E0800000E0A00000E0C00000E0E00040000000400020004000400040006000400080004000A0004000C0004000E00040200000402020004020400040206000402080004020A0004020C0004020E000404000004040200040404000404060004040800040
310
40A0004040C0004040E00040600000406020004060400040606000406080004060A0004060C0004060E00040800000408020004080400040806000408080004080A0004080C0004080E00040A0000040A0200040A0400040A0600040A0800040A0A00040A0C00040A0E00040C0000040C0200040C0400040C0600040C08000
310
40C0A00040C0C00040C0E00040E0000040E0200040E0400040E0600040E0800040E0A00040E0C00040E0E00080000000800020008000400080006000800080008000A0008000C0008000E00080200000802020008020400080206000802080008020A0008020C0008020E00080400000804020008040400080406000804080
310
008040A0008040C0008040E00080600000806020008060400080606000806080008060A0008060C0008060E00080800000808020008080400080806000808080008080A0008080C0008080E00080A0000080A0200080A0400080A0600080A0800080A0A00080A0C00080A0E00080C0000080C0200080C0400080C0600080C0
310
800080C0A00080C0C00080C0E00080E0000080E0200080E0400080E0600080E0800080E0A00080E0C00080E0E000C0000000C0002000C0004000C0006000C0008000C000A000C000C000C000E000C0200000C0202000C0204000C0206000C0208000C020A000C020C000C020E000C0400000C0402000C0404000C0406000C0
310
408000C040A000C040C000C040E000C0600000C0602000C0604000C0606000C0608000C060A000C060C000C060E000C0800000C0802000C0804000C0806000C0808000C080A000C080C000C080E000C0A00000C0A02000C0A04000C0A06000C0A08000C0A0A000C0A0C000C0A0E000C0C00000C0C02000C0C04000C0C06000
310
C0C08000C0C0A000F0FBFF00A4A0A000808080000000FF0000FF000000FFFF00FF000000FF00FF00FFFF0000FFFFFF0000000000000000000000000000000000000000000000000000000000000000000000000000000000000000000000FF0000000000000000000000000000000000000000000000000000000000FFFFFF
310
FFFF00000000000000000000000000000000000000000000000000FFFF0000FF0000FFFF00000000000000000000000000000000000000000000FFFF000000FF00000000FF00000000000000000000000000000000000000FFFF0000000000FF0000FFFF00FFFF000000000000000000000000000000FFFFFF000000000000
310
FF00FFFFFFFF0000FFFF0000000000000000000000FFFFFF0000000000000000FF00FF0000FF00000000FF000000000000000000FFFFFF000000000000000000FF00FF0000FF0000000000FFFF00000000000000FF0000000000000000000000FF00FFFFA4FF00000000000000FFFF0000000000FF00000000000000000000
310
00FF0000FFFFFF00000000FFFFFF0000FF00000000FF0000000000000000000000FF00000000FF00000000FF00FFFF00FF00000000FF0000000000000000000000FF000000000000000000FF0000FF00FF00000000FF0000000000000000000000FF000000000000000000FF0000FF00FF00000000FF000000000000000000
310
FFFFFFFFFF00000000000000FFFFA4FF00FF00000000FF0000000000000000FF0000FF0000FFFF000000000000FFFFFF00FF00000000FF000000000000FFFF00FFFF00FFFF0000FF00000000000000FF00FF00000000FF0000000000FF00FFFF00FFFFFF00FFFF00FFFF00000000000000FF00000000FF000000FFFFFFFF00
310
FFFF0000FFFF0000FFFF00FFFF0000000000FF00000000FF0000FFFFFF000000FFFF0000FFFF00000000FFFF00FF00000000FF00000000FFFFFFFF00FFFFFFFFFFFFFFFFFFFFFF0000000000FFFFFFFF0000FF00000000FFFF000000FF000000FFFFFFFFFFFFFFFFFF0000000000FFFFFFFFFF0000000000FFFF0000FFFFFF
310
FFFFFF00FFFFFFFFFFFFFFFFFFFF000000FFFFFF00000000000000FFFF0000000000FFFF00000000FFFFFF0000FFFF00000000FF000000000000000000FF0000000000FFFFFFFFFFFFFFFFFFFFFFFF0000FFFF0000000000000000000000FFFF0000000000FFFF0000FFFF00000000FFFF0000000000000000000000000000
310
00FFFF000000FFFF0000FFFF000000FF00000000000000000000000000000000000000FF000000FFFFFFFF0000FFFF000000000000000000000000000000000000000000FFFF0000000000FFFF00000000000000000000000000000000000000000000000000FFFF00FFFF0000000000000000000000000000000000000000
310
000000000000000000FF00000000000000000000000000000000000000000000000000000000000000000000000000000000000000000000
102
{BLKREFS
331
3BE
102
}
1001
ACAD
1000
DesignCenter Data
1002
{
1070
     1
1070
     4
1002
}
  0
ENDTAB
  0
ENDSEC
  0
SECTION
  2
BLOCKS
  0
BLOCK
  5
20
330
1F
100
AcDbEntity
  8
0
100
AcDbBlockBegin
  2
*Model_Space
 70
     0
 10
0.0
 20
0.0
 30
0.0
  3
*Model_Space
  1

  0
ENDBLK
  5
21
330
1F
100
AcDbEntity
  8
0
100
AcDbBlockEnd
  0
BLOCK
  5
D4
330
D2
100
AcDbEntity
 67
     1
  8
0
100
AcDbBlockBegin
  2
*Paper_Space
 70
     0
 10
0.0
 20
0.0
 30
0.0
  3
*Paper_Space
  1

  0
ENDBLK
  5
D5
330
D2
100
AcDbEntity
 67
     1
  8
0
100
AcDbBlockEnd
  0
BLOCK
  5
D8
330
D6
100
AcDbEntity
 67
     1
  8
0
100
AcDbBlockBegin
  2
*Paper_Space0
 70
     0
 10
0.0
 20
0.0
 30
0.0
  3
*Paper_Space0
  1

  0
ENDBLK
  5
D9
330
D6
100
AcDbEntity
 67
     1
  8
0
100
AcDbBlockEnd
  0
BLOCK
  5
306
330
305
100
AcDbEntity
  8
0
100
AcDbBlockBegin
  2
1
 70
     0
 10
0.0
 20
0.0
 30
0.0
  3
1
  1

  0
LINE
  5
308
330
305
100
AcDbEntity
  8
0
  6
Continuous
 62
     7
370
    15
100
AcDbLine
 10
2105.521693264112
 20
1103.87620881899
 30
0.0
 11
2126.121693264112
 21
1103.87620881899
 31
0.0
  0
LINE
  5
309
330
305
100
AcDbEntity
  8
0
  6
Continuous
 62
     7
370
    15
100
AcDbLine
 10
2126.121693264112
 20
1103.87620881899
 30
0.0
 11
2126.821693264111
 21
1103.17620881899
 31
0.0
  0
LINE
  5
30A
330
305
100
AcDbEntity
  8
0
  6
Continuous
 62
     7
370
    15
100
AcDbLine
 10
2126.821693264111
 20
1103.17620881899
 30
0.0
 11
2104.821693264112
 21
1103.17620881899
 31
0.0
  0
LINE
  5
30B
330
305
100
AcDbEntity
  8
0
  6
Continuous
 62
     7
370
    15
100
AcDbLine
 10
2105.521693264112
 20
1103.87620881899
 30
0.0
 11
2104.821693264112
 21
1103.17620881899
 31
0.0
  0
LINE
  5
30C
330
305
100
AcDbEntity
  8
0
  6
Continuous
 62
     7
370
    15
100
AcDbLine
 10
2107.821396902567
 20
1096.62620881899
 30
0.0
 11
2107.821396902567
 21
1092.87620881899
 31
0.0
  0
LINE
  5
30D
330
305
100
AcDbEntity
  8
0
  6
Continuous
 62
     7
370
    15
100
AcDbLine
 10
2123.821396902567
 20
1092.87620881899
 30
0.0
 11
2123.821396902567
 21
1096.62620881899
 31
0.0
  0
LINE
  5
30E
330
305
100
AcDbEntity
  8
0
  6
Continuous
 62
     7
370
    15
100
AcDbLine
 10
2104.821693264112
 20
1088.07620881899
 30
0.0
 11
2126.821693264111
 21
1088.07620881899
 31
0.0
  0
LINE
  5
30F
330
305
100
AcDbEntity
  8
0
  6
Continuous
 62
     7
370
    15
100
AcDbLine
 10
2104.821693264112
 20
1103.17620881899
 30
0.0
 11
2104.821693264112
 21
1088.07620881899
 31
0.0
  0
ARC
  5
310
330
305
100
AcDbEntity
  8
0
  6
Continuous
 62
     7
370
    15
100
AcDbCircle
 10
2121.571396902567
 20
1092.87620881899
 30
0.0
 40
2.250000000000014
100
AcDbArc
 50
180.0
 51
0.0
  0
ARC
  5
311
330
305
100
AcDbEntity
  8
0
  6
Continuous
 62
     7
370
    15
100
AcDbCircle
 10
2110.071396902567
 20
1092.87620881899
 30
0.0
 40
2.25
100
AcDbArc
 50
180.0
 51
0.0
  0
LINE
  5
312
330
305
100
AcDbEntity
  8
0
  6
Continuous
 62
     7
370
    15
100
AcDbLine
 10
2126.821693264111
 20
1103.17620881899
 30
0.0
 11
2126.821693264111
 21
1088.07620881899
 31
0.0
  0
LINE
  5
313
330
305
100
AcDbEntity
  8
0
  6
Continuous
 62
     7
370
    15
100
AcDbLine
 10
2119.321396902567
 20
1096.62620881899
 30
0.0
 11
2119.321396902567
 21
1092.87620881899
 31
0.0
  0
LINE
  5
314
330
305
100
AcDbEntity
  8
0
  6
Continuous
 62
     7
370
    15
100
AcDbLine
 10
2123.821396902567
 20
1096.62620881899
 30
0.0
 11
2119.321396902567
 21
1096.62620881899
 31
0.0
  0
LINE
  5
315
330
305
100
AcDbEntity
  8
0
  6
Continuous
 62
     7
370
    15
100
AcDbLine
 10
2112.321396902567
 20
1092.87620881899
 30
0.0
 11
2112.321396902567
 21
1096.62620881899
 31
0.0
  0
LINE
  5
316
330
305
100
AcDbEntity
  8
0
  6
Continuous
 62
     7
370
    15
100
AcDbLine
 10
2112.321396902567
 20
1096.62620881899
 30
0.0
 11
2107.821396902567
 21
1096.62620881899
 31
0.0
  0
LINE
  5
317
330
305
100
AcDbEntity
  8
0
  6
Continuous
 62
     7
370
    15
100
AcDbLine
 10
2126.121693264112
 20
1087.37620881899
 30
0.0
 11
2105.521693264112
 21
1087.37620881899
 31
0.0
  0
LINE
  5
318
330
305
100
AcDbEntity
  8
0
  6
Continuous
 62
     7
370
    15
100
AcDbLine
 10
2126.121693264112
 20
1087.37620881899
 30
0.0
 11
2126.821693264111
 21
1088.07620881899
 31
0.0
  0
LINE
  5
319
330
305
100
AcDbEntity
  8
0
  6
Continuous
 62
     7
370
    15
100
AcDbLine
 10
2104.821693264112
 20
1088.07620881899
 30
0.0
 11
2105.521693264112
 21
1087.37620881899
 31
0.0
  0
LINE
  5
31A
330
305
100
AcDbEntity
  8
0
  6
Continuous
 62
     7
370
    15
100
AcDbLine
 10
2108.821693264112
 20
1094.751208818991
 30
0.0
 11
2108.821693264112
 21
1092.87620881899
 31
0.0
  0
LINE
  5
31B
330
305
100
AcDbEntity
  8
0
  6
Continuous
 62
     7
370
    15
100
AcDbLine
 10
2108.121693264112
 20
1095.25120881899
 30
0.0
 11
2108.121693264112
 21
1092.87620881899
 31
0.0
  0
LINE
  5
31C
330
305
100
AcDbEntity
  8
0
  6
Continuous
 62
     7
370
    15
100
AcDbLine
 10
2111.871693264112
 20
1095.501208818989
 30
0.0
 11
2111.871693264112
 21
1096.15120881899
 31
0.0
  0
LINE
  5
31D
330
305
100
AcDbEntity
  8
0
  6
Continuous
 62
     7
370
    15
100
AcDbLine
 10
2111.871693264112
 20
1095.501208818989
 30
0.0
 11
2108.821628690753
 21
1095.501208818989
 31
0.0
  0
LINE
  5
31E
330
305
100
AcDbEntity
  8
0
  6
Continuous
 62
     7
370
    15
100
AcDbLine
 10
2111.171693264112
 20
1094.751208818991
 30
0.0
 11
2108.821693264112
 21
1094.751208818991
 31
0.0
  0
LINE
  5
31F
330
305
100
AcDbEntity
  8
0
  6
Continuous
 62
     7
370
    15
100
AcDbLine
 10
2111.371693264112
 20
1092.87620881899
 30
0.0
 11
2111.371693264112
 21
1094.55120881899
 31
0.0
  0
LINE
  5
320
330
305
100
AcDbEntity
  8
0
  6
Continuous
 62
     7
370
    15
100
AcDbLine
 10
2108.821628690753
 20
1095.401208818989
 30
0.0
 11
2111.467497253267
 21
1095.401208818989
 31
0.0
  0
ARC
  5
321
330
305
100
AcDbEntity
  8
0
  6
Continuous
 62
     7
370
    15
100
AcDbCircle
 10
2111.171693264112
 20
1094.55120881899
 30
0.0
 40
0.8999999999998003
100
AcDbArc
 50
0.0
 51
70.8118635462814
  0
LINE
  5
322
330
305
100
AcDbEntity
  8
0
  6
Continuous
 62
     7
370
    15
100
AcDbLine
 10
2112.071693264112
 20
1092.87620881899
 30
0.0
 11
2112.071693264111
 21
1094.55120881899
 31
0.0
  0
ARC
  5
323
330
305
100
AcDbEntity
  8
0
  6
Continuous
 62
     7
370
    15
100
AcDbCircle
 10
2110.096693264112
 20
1092.87620881899
 30
0.0
 40
1.974999999999837
100
AcDbArc
 50
180.0
 51
0.0
  0
ARC
  5
324
330
305
100
AcDbEntity
  8
0
  6
Continuous
 62
     7
370
    15
100
AcDbCircle
 10
2110.096693264112
 20
1092.87620881899
 30
0.0
 40
1.275000000000133
100
AcDbArc
 50
180.0
 51
0.0
  0
LINE
  5
325
330
305
100
AcDbEntity
  8
0
  6
Continuous
 62
     7
370
    15
100
AcDbLine
 10
2108.821628690753
 20
1095.501208818989
 30
0.0
 11
2108.821628690753
 21
1095.401208818989
 31
0.0
  0
LINE
  5
326
330
305
100
AcDbEntity
  8
0
  6
Continuous
 62
     7
370
    15
100
AcDbLine
 10
2111.871693264112
 20
1096.15120881899
 30
0.0
 11
2109.021693264112
 21
1096.15120881899
 31
0.0
  0
ARC
  5
327
330
305
100
AcDbEntity
  8
0
  6
Continuous
 62
     7
370
    15
100
AcDbCircle
 10
2111.171693264112
 20
1094.55120881899
 30
0.0
 40
0.200000000000415
100
AcDbArc
 50
0.0
 51
90.0
  0
ARC
  5
328
330
305
100
AcDbEntity
  8
0
  6
Continuous
 62
     7
370
    15
100
AcDbCircle
 10
2109.021693264112
 20
1095.25120881899
 30
0.0
 40
0.9000000000001193
100
AcDbArc
 50
90.0
 51
180.0
  0
LINE
  5
329
330
305
100
AcDbEntity
  8
0
  6
Continuous
 62
     7
370
    15
100
AcDbLine
 10
2123.371693264112
 20
1096.15120881899
 30
0.0
 11
2120.521693264112
 21
1096.15120881899
 31
0.0
  0
ARC
  5
32A
330
305
100
AcDbEntity
  8
0
  6
Continuous
 62
     7
370
    15
100
AcDbCircle
 10
2121.596693264112
 20
1092.87620881899
 30
0.0
 40
1.974999999999837
100
AcDbArc
 50
180.0
 51
0.0
  0
LINE
  5
32B
330
305
100
AcDbEntity
  8
0
  6
Continuous
 62
     7
370
    15
100
AcDbLine
 10
2122.671693264112
 20
1094.751208818991
 30
0.0
 11
2120.321693264112
 21
1094.751208818991
 31
0.0
  0
ARC
  5
32C
330
305
100
AcDbEntity
  8
0
  6
Continuous
 62
     7
370
    15
100
AcDbCircle
 10
2122.671693264112
 20
1094.55120881899
 30
0.0
 40
0.8999999999998003
100
AcDbArc
 50
0.0
 51
70.8118635462814
  0
LINE
  5
32D
330
305
100
AcDbEntity
  8
0
  6
Continuous
 62
     7
370
    15
100
AcDbLine
 10
2119.621693264112
 20
1095.25120881899
 30
0.0
 11
2119.621693264112
 21
1092.87620881899
 31
0.0
  0
LINE
  5
32E
330
305
100
AcDbEntity
  8
0
  6
Continuous
 62
     7
370
    15
100
AcDbLine
 10
2123.371693264112
 20
1095.501208818989
 30
0.0
 11
2123.371693264112
 21
1096.15120881899
 31
0.0
  0
LINE
  5
32F
330
305
100
AcDbEntity
  8
0
  6
Continuous
 62
     7
370
    15
100
AcDbLine
 10
2123.571693264112
 20
1092.87620881899
 30
0.0
 11
2123.571693264111
 21
1094.55120881899
 31
0.0
  0
LINE
  5
330
330
305
100
AcDbEntity
  8
0
  6
Continuous
 62
     7
370
    15
100
AcDbLine
 10
2120.321693264112
 20
1094.751208818991
 30
0.0
 11
2120.321693264112
 21
1092.87620881899
 31
0.0
  0
LINE
  5
331
330
305
100
AcDbEntity
  8
0
  6
Continuous
 62
     7
370
    15
100
AcDbLine
 10
2122.871693264112
 20
1092.87620881899
 30
0.0
 11
2122.871693264112
 21
1094.55120881899
 31
0.0
  0
ARC
  5
332
330
305
100
AcDbEntity
  8
0
  6
Continuous
 62
     7
370
    15
100
AcDbCircle
 10
2122.671693264112
 20
1094.55120881899
 30
0.0
 40
0.200000000000415
100
AcDbArc
 50
0.0
 51
90.0
  0
LINE
  5
333
330
305
100
AcDbEntity
  8
0
  6
Continuous
 62
     7
370
    15
100
AcDbLine
 10
2120.321628690753
 20
1095.401208818989
 30
0.0
 11
2122.967497253267
 21
1095.401208818989
 31
0.0
  0
LINE
  5
334
330
305
100
AcDbEntity
  8
0
  6
Continuous
 62
     7
370
    15
100
AcDbLine
 10
2123.371693264112
 20
1095.501208818989
 30
0.0
 11
2120.321628690753
 21
1095.501208818989
 31
0.0
  0
ARC
  5
335
330
305
100
AcDbEntity
  8
0
  6
Continuous
 62
     7
370
    15
100
AcDbCircle
 10
2121.596693264112
 20
1092.87620881899
 30
0.0
 40
1.275000000000133
100
AcDbArc
 50
180.0
 51
0.0
  0
LINE
  5
336
330
305
100
AcDbEntity
  8
0
  6
Continuous
 62
     7
370
    15
100
AcDbLine
 10
2120.321628690753
 20
1095.501208818989
 30
0.0
 11
2120.321628690753
 21
1095.401208818989
 31
0.0
  0
ARC
  5
337
330
305
100
AcDbEntity
  8
0
  6
Continuous
 62
     7
370
    15
100
AcDbCircle
 10
2120.521693264112
 20
1095.25120881899
 30
0.0
 40
0.9000000000001193
100
AcDbArc
 50
90.0
 51
180.0
  0
ENDBLK
  5
307
330
305
100
AcDbEntity
  8
0
100
AcDbBlockEnd
  0
BLOCK
  5
33A
330
339
100
AcDbEntity
  8
0
100
AcDbBlockBegin
  2
2
 70
     0
 10
0.0
 20
0.0
 30
0.0
  3
2
  1

  0
LINE
  5
33C
330
339
100
AcDbEntity
  8
0
  6
Continuous
 62
     7
370
    15
100
AcDbLine
 10
2091.002422170432
 20
1087.37620881899
 30
0.0
 11
2073.902422170433
 21
1087.37620881899
 31
0.0
  0
LINE
  5
33D
330
339
100
AcDbEntity
  8
0
  6
Continuous
 62
     7
370
    15
100
AcDbLine
 10
2073.902422170433
 20
1087.37620881899
 30
0.0
 11
2073.202422170433
 21
1088.07620881899
 31
0.0
  0
LINE
  5
33E
330
339
100
AcDbEntity
  8
0
  6
Continuous
 62
     7
370
    15
100
AcDbLine
 10
2073.202422170433
 20
1088.07620881899
 30
0.0
 11
2091.702422170433
 21
1088.07620881899
 31
0.0
  0
LINE
  5
33F
330
339
100
AcDbEntity
  8
0
  6
Continuous
 62
     7
370
    15
100
AcDbLine
 10
2091.002422170432
 20
1087.37620881899
 30
0.0
 11
2091.702422170433
 21
1088.07620881899
 31
0.0
  0
LINE
  5
340
330
339
100
AcDbEntity
  8
0
  6
Continuous
 62
     7
370
    15
100
AcDbLine
 10
2091.702422170433
 20
1103.17620881899
 30
0.0
 11
2073.202422170433
 21
1103.17620881899
 31
0.0
  0
LINE
  5
341
330
339
100
AcDbEntity
  8
0
  6
Continuous
 62
     7
370
    15
100
AcDbLine
 10
2073.202422170433
 20
1103.17620881899
 30
0.0
 11
2073.202422170433
 21
1088.07620881899
 31
0.0
  0
LINE
  5
342
330
339
100
AcDbEntity
  8
0
  6
Continuous
 62
     7
370
    15
100
AcDbLine
 10
2091.702422170433
 20
1103.17620881899
 30
0.0
 11
2091.702422170433
 21
1088.07620881899
 31
0.0
  0
LINE
  5
343
330
339
100
AcDbEntity
  8
0
  6
Continuous
 62
     7
370
    15
100
AcDbLine
 10
2073.902422170433
 20
1103.87620881899
 30
0.0
 11
2091.002422170432
 21
1103.87620881899
 31
0.0
  0
LINE
  5
344
330
339
100
AcDbEntity
  8
0
  6
Continuous
 62
     7
370
    15
100
AcDbLine
 10
2073.902422170433
 20
1103.87620881899
 30
0.0
 11
2073.202422170433
 21
1103.17620881899
 31
0.0
  0
LINE
  5
345
330
339
100
AcDbEntity
  8
0
  6
Continuous
 62
     7
370
    15
100
AcDbLine
 10
2091.702422170433
 20
1103.17620881899
 30
0.0
 11
2091.002422170432
 21
1103.87620881899
 31
0.0
  0
ENDBLK
  5
33B
330
339
100
AcDbEntity
  8
0
100
AcDbBlockEnd
  0
BLOCK
  5
348
330
347
100
AcDbEntity
  8
0
100
AcDbBlockBegin
  2
3
 70
     0
 10
0.0
 20
0.0
 30
0.0
  3
3
  1

  0
LINE
  5
34A
330
347
100
AcDbEntity
  8
0
  6
Continuous
 62
     7
370
    15
100
AcDbLine
 10
2126.121693264112
 20
1056.503784146457
 30
0.0
 11
2126.121693264112
 21
1073.603784146457
 31
0.0
  0
LINE
  5
34B
330
347
100
AcDbEntity
  8
0
  6
Continuous
 62
     7
370
    15
100
AcDbLine
 10
2126.821693264111
 20
1074.303784146457
 30
0.0
 11
2126.121693264112
 21
1073.603784146457
 31
0.0
  0
LINE
  5
34C
330
347
100
AcDbEntity
  8
0
  6
Continuous
 62
     7
370
    15
100
AcDbLine
 10
2126.821693264111
 20
1074.303784146457
 30
0.0
 11
2126.821693264111
 21
1055.803784146457
 31
0.0
  0
LINE
  5
34D
330
347
100
AcDbEntity
  8
0
  6
Continuous
 62
     7
370
    15
100
AcDbLine
 10
2126.121693264112
 20
1056.503784146457
 30
0.0
 11
2126.821693264111
 21
1055.803784146457
 31
0.0
  0
LINE
  5
34E
330
347
100
AcDbEntity
  8
0
  6
Continuous
 62
     7
370
    15
100
AcDbLine
 10
2105.521693264112
 20
1073.603784146457
 30
0.0
 11
2105.521693264112
 21
1056.503784146457
 31
0.0
  0
LINE
  5
34F
330
347
100
AcDbEntity
  8
0
  6
Continuous
 62
     7
370
    15
100
AcDbLine
 10
2105.521693264112
 20
1056.503784146457
 30
0.0
 11
2104.821693264112
 21
1055.803784146457
 31
0.0
  0
LINE
  5
350
330
347
100
AcDbEntity
  8
0
  6
Continuous
 62
     7
370
    15
100
AcDbLine
 10
2104.821693264112
 20
1055.803784146457
 30
0.0
 11
2104.821693264112
 21
1074.303784146457
 31
0.0
  0
LINE
  5
351
330
347
100
AcDbEntity
  8
0
  6
Continuous
 62
     7
370
    15
100
AcDbLine
 10
2104.821693264112
 20
1074.303784146457
 30
0.0
 11
2105.521693264112
 21
1073.603784146457
 31
0.0
  0
CIRCLE
  5
352
330
347
100
AcDbEntity
  8
0
  6
Continuous
 62
     7
370
    15
100
AcDbCircle
 10
2121.571693264111
 20
1068.103784146457
 30
0.0
 40
2.25
  0
CIRCLE
  5
353
330
347
100
AcDbEntity
  8
0
  6
Continuous
 62
     7
370
    15
100
AcDbCircle
 10
2121.571693264111
 20
1062.003784146457
 30
0.0
 40
2.25
  0
CIRCLE
  5
354
330
347
100
AcDbEntity
  8
0
  6
Continuous
 62
     7
370
    15
100
AcDbCircle
 10
2110.071693264111
 20
1068.103784146457
 30
0.0
 40
2.25
  0
CIRCLE
  5
355
330
347
100
AcDbEntity
  8
0
  6
Continuous
 62
     7
370
    15
100
AcDbCircle
 10
2110.071693264111
 20
1062.003784146457
 30
0.0
 40
2.25
  0
CIRCLE
  5
356
330
347
100
AcDbEntity
  8
0
  6
Continuous
 62
     7
370
    15
100
AcDbCircle
 10
2115.821693264112
 20
1065.058703066583
 30
0.0
 40
3.500000000000014
  0
LINE
  5
357
330
347
100
AcDbEntity
  8
0
  6
Continuous
 62
     7
370
    15
100
AcDbLine
 10
2126.121693264112
 20
1073.603784146457
 30
0.0
 11
2105.521693264112
 21
1073.603784146457
 31
0.0
  0
LINE
  5
358
330
347
100
AcDbEntity
  8
0
  6
Continuous
 62
     7
370
    15
100
AcDbLine
 10
2105.521693264112
 20
1056.503784146457
 30
0.0
 11
2126.121693264112
 21
1056.503784146457
 31
0.0
  0
LINE
  5
359
330
347
100
AcDbEntity
  8
0
  6
Continuous
 62
     7
370
    15
100
AcDbLine
 10
2104.821693264112
 20
1074.303784146457
 30
0.0
 11
2126.821693264111
 21
1074.303784146457
 31
0.0
  0
LINE
  5
35A
330
347
100
AcDbEntity
  8
0
  6
Continuous
 62
     7
370
    15
100
AcDbLine
 10
2126.821693264111
 20
1055.803784146457
 30
0.0
 11
2104.821693264112
 21
1055.803784146457
 31
0.0
  0
LINE
  5
35B
330
347
100
AcDbEntity
  8
0
  6
Continuous
 62
     7
370
    15
100
AcDbLine
 10
2112.357591648974
 20
1065.058703066583
 30
0.0
 11
2114.089642456543
 21
1062.058703066584
 31
0.0
  0
LINE
  5
35C
330
347
100
AcDbEntity
  8
0
  6
Continuous
 62
     7
370
    15
100
AcDbLine
 10
2114.089642456543
 20
1062.058703066584
 30
0.0
 11
2117.553744071681
 21
1062.058703066584
 31
0.0
  0
LINE
  5
35D
330
347
100
AcDbEntity
  8
0
  6
Continuous
 62
     7
370
    15
100
AcDbLine
 10
2117.553744071681
 20
1062.058703066584
 30
0.0
 11
2119.28579487925
 21
1065.058703066583
 31
0.0
  0
LINE
  5
35E
330
347
100
AcDbEntity
  8
0
  6
Continuous
 62
     7
370
    15
100
AcDbLine
 10
2119.28579487925
 20
1065.058703066583
 30
0.0
 11
2117.553744071681
 21
1068.058703066583
 31
0.0
  0
LINE
  5
35F
330
347
100
AcDbEntity
  8
0
  6
Continuous
 62
     7
370
    15
100
AcDbLine
 10
2117.553744071681
 20
1068.058703066583
 30
0.0
 11
2114.089642456543
 21
1068.058703066583
 31
0.0
  0
LINE
  5
360
330
347
100
AcDbEntity
  8
0
  6
Continuous
 62
     7
370
    15
100
AcDbLine
 10
2114.089642456543
 20
1068.058703066583
 30
0.0
 11
2112.357591648974
 21
1065.058703066583
 31
0.0
  0
CIRCLE
  5
361
330
347
100
AcDbEntity
  8
0
  6
Continuous
 62
     7
370
    15
100
AcDbCircle
 10
2110.071693264111
 20
1068.103784146457
 30
0.0
 40
1.760500289917331
  0
ARC
  5
362
330
347
100
AcDbEntity
  8
0
  6
Continuous
 62
     7
370
    15
100
AcDbCircle
 10
2110.071693264111
 20
1068.103784146457
 30
0.0
 40
1.668399018158753
100
AcDbArc
 50
166.1281671269283
 51
193.8718328730717
  0
SPLINE
  5
363
330
347
100
AcDbEntity
  8
0
  6
Continuous
 62
     7
370
    15
100
AcDbSpline
210
0.0
220
0.0
230
1.0
 70
    24
 71
     3
 72
    11
 73
     7
 74
     0
 42
0.0000000001
 43
0.0000000001
 40
0.0024391081540269
 40
0.0024391081540269
 40
0.0024391081540269
 40
0.0024391081540269
 40
0.0029656472492669
 40
0.0029656472492669
 40
0.0029656472492669
 40
0.0034436785480733
 40
0.0034436785480733
 40
0.0034436785480733
 40
0.0034436785480733
 10
2108.451953999972
 20
1067.703784146457
 30
0.0
 10
2108.468647377582
 20
1067.703784146457
 30
0.0
 10
2108.485355439764
 20
1067.703784146457
 30
0.0
 10
2108.502079638557
 20
1067.703784146457
 30
0.0
 10
2108.517263108156
 20
1067.703784146457
 30
0.0
 10
2108.532459879087
 20
1067.703784146457
 30
0.0
 10
2108.5476711808
 20
1067.703784146457
 30
0.0
  0
ARC
  5
364
330
347
100
AcDbEntity
  8
0
  6
Continuous
 62
     7
370
    15
100
AcDbCircle
 10
2110.071693264111
 20
1068.103784146457
 30
0.0
 40
1.575640603189858
100
AcDbArc
 50
194.7063414185453
 51
345.2936585814547
  0
SPLINE
  5
365
330
347
100
AcDbEntity
  8
0
  6
Continuous
 62
     7
370
    15
100
AcDbSpline
210
0.0
220
0.0
230
1.0
 70
    24
 71
     3
 72
    11
 73
     7
 74
     0
 42
0.0000000001
 43
0.0000000001
 40
0.0024876163239904
 40
0.0024876163239904
 40
0.0024876163239904
 40
0.0024876163239904
 40
0.0029656475715608
 40
0.0029656475715608
 40
0.0029656475715608
 40
0.0034921866351546
 40
0.0034921866351546
 40
0.0034921866351546
 40
0.0034921866351546
 10
2111.595715347423
 20
1067.703784146457
 30
0.0
 10
2111.610926649136
 20
1067.703784146457
 30
0.0
 10
2111.626123420067
 20
1067.703784146457
 30
0.0
 10
2111.641306889666
 20
1067.703784146457
 30
0.0
 10
2111.65803108846
 20
1067.703784146457
 30
0.0
 10
2111.674739150641
 20
1067.703784146457
 30
0.0
 10
2111.69143252825
 20
1067.703784146457
 30
0.0
  0
ARC
  5
366
330
347
100
AcDbEntity
  8
0
  6
Continuous
 62
     7
370
    15
100
AcDbCircle
 10
2110.071693264111
 20
1068.103784146457
 30
0.0
 40
1.668399018158753
100
AcDbArc
 50
346.1281671269283
 51
13.8718328730717
  0
SPLINE
  5
367
330
347
100
AcDbEntity
  8
0
  6
Continuous
 62
     7
370
    15
100
AcDbSpline
210
0.0
220
0.0
230
1.0
 70
    24
 71
     3
 72
    11
 73
     7
 74
     0
 42
0.0000000001
 43
0.0000000001
 40
0.0024391081540269
 40
0.0024391081540269
 40
0.0024391081540269
 40
0.0024391081540269
 40
0.0029656472492669
 40
0.0029656472492669
 40
0.0029656472492669
 40
0.0034436785480733
 40
0.0034436785480733
 40
0.0034436785480733
 40
0.0034436785480733
 10
2111.69143252825
 20
1068.503784146457
 30
0.0
 10
2111.674739150641
 20
1068.503784146457
 30
0.0
 10
2111.65803108846
 20
1068.503784146457
 30
0.0
 10
2111.641306889666
 20
1068.503784146457
 30
0.0
 10
2111.626123420067
 20
1068.503784146457
 30
0.0
 10
2111.610926649136
 20
1068.503784146457
 30
0.0
 10
2111.595715347423
 20
1068.503784146457
 30
0.0
  0
ARC
  5
368
330
347
100
AcDbEntity
  8
0
  6
Continuous
 62
     7
370
    15
100
AcDbCircle
 10
2110.071693264111
 20
1068.103784146457
 30
0.0
 40
1.575640603189851
100
AcDbArc
 50
14.7063414185453
 51
165.2936585814547
  0
SPLINE
  5
369
330
347
100
AcDbEntity
  8
0
  6
Continuous
 62
     7
370
    15
100
AcDbSpline
210
0.0
220
0.0
230
1.0
 70
    24
 71
     3
 72
    11
 73
     7
 74
     0
 42
0.0000000001
 43
0.0000000001
 40
0.0024876163239903
 40
0.0024876163239903
 40
0.0024876163239903
 40
0.0024876163239903
 40
0.0029656475715608
 40
0.0029656475715608
 40
0.0029656475715608
 40
0.0034921866351546
 40
0.0034921866351546
 40
0.0034921866351546
 40
0.0034921866351546
 10
2108.5476711808
 20
1068.503784146457
 30
0.0
 10
2108.532459879087
 20
1068.503784146457
 30
0.0
 10
2108.517263108156
 20
1068.503784146457
 30
0.0
 10
2108.502079638557
 20
1068.503784146457
 30
0.0
 10
2108.485355439764
 20
1068.503784146457
 30
0.0
 10
2108.468647377582
 20
1068.503784146457
 30
0.0
 10
2108.451953999972
 20
1068.503784146457
 30
0.0
  0
CIRCLE
  5
36A
330
347
100
AcDbEntity
  8
0
  6
Continuous
 62
     7
370
    15
100
AcDbCircle
 10
2121.571693264111
 20
1068.103784146457
 30
0.0
 40
1.760500289917331
  0
ARC
  5
36B
330
347
100
AcDbEntity
  8
0
  6
Continuous
 62
     7
370
    15
100
AcDbCircle
 10
2121.571693264111
 20
1068.103784146457
 30
0.0
 40
1.668399018158753
100
AcDbArc
 50
166.1281671269283
 51
193.8718328730717
  0
SPLINE
  5
36C
330
347
100
AcDbEntity
  8
0
  6
Continuous
 62
     7
370
    15
100
AcDbSpline
210
0.0
220
0.0
230
1.0
 70
    24
 71
     3
 72
    11
 73
     7
 74
     0
 42
0.0000000001
 43
0.0000000001
 40
0.0024391081540269
 40
0.0024391081540269
 40
0.0024391081540269
 40
0.0024391081540269
 40
0.0029656472492669
 40
0.0029656472492669
 40
0.0029656472492669
 40
0.0034436785480733
 40
0.0034436785480733
 40
0.0034436785480733
 40
0.0034436785480733
 10
2119.951953999972
 20
1067.703784146457
 30
0.0
 10
2119.968647377582
 20
1067.703784146457
 30
0.0
 10
2119.985355439764
 20
1067.703784146457
 30
0.0
 10
2120.002079638557
 20
1067.703784146457
 30
0.0
 10
2120.017263108156
 20
1067.703784146457
 30
0.0
 10
2120.032459879087
 20
1067.703784146457
 30
0.0
 10
2120.0476711808
 20
1067.703784146457
 30
0.0
  0
ARC
  5
36D
330
347
100
AcDbEntity
  8
0
  6
Continuous
 62
     7
370
    15
100
AcDbCircle
 10
2121.571693264111
 20
1068.103784146457
 30
0.0
 40
1.575640603189858
100
AcDbArc
 50
194.7063414185453
 51
345.2936585814547
  0
SPLINE
  5
36E
330
347
100
AcDbEntity
  8
0
  6
Continuous
 62
     7
370
    15
100
AcDbSpline
210
0.0
220
0.0
230
1.0
 70
    24
 71
     3
 72
    11
 73
     7
 74
     0
 42
0.0000000001
 43
0.0000000001
 40
0.0024876163239904
 40
0.0024876163239904
 40
0.0024876163239904
 40
0.0024876163239904
 40
0.0029656475715608
 40
0.0029656475715608
 40
0.0029656475715608
 40
0.0034921866351546
 40
0.0034921866351546
 40
0.0034921866351546
 40
0.0034921866351546
 10
2123.095715347423
 20
1067.703784146457
 30
0.0
 10
2123.110926649136
 20
1067.703784146457
 30
0.0
 10
2123.126123420067
 20
1067.703784146457
 30
0.0
 10
2123.141306889666
 20
1067.703784146457
 30
0.0
 10
2123.158031088459
 20
1067.703784146457
 30
0.0
 10
2123.174739150641
 20
1067.703784146457
 30
0.0
 10
2123.19143252825
 20
1067.703784146457
 30
0.0
  0
ARC
  5
36F
330
347
100
AcDbEntity
  8
0
  6
Continuous
 62
     7
370
    15
100
AcDbCircle
 10
2121.571693264111
 20
1068.103784146457
 30
0.0
 40
1.668399018158753
100
AcDbArc
 50
346.1281671269283
 51
13.8718328730717
  0
SPLINE
  5
370
330
347
100
AcDbEntity
  8
0
  6
Continuous
 62
     7
370
    15
100
AcDbSpline
210
0.0
220
0.0
230
1.0
 70
    24
 71
     3
 72
    11
 73
     7
 74
     0
 42
0.0000000001
 43
0.0000000001
 40
0.0024391081540269
 40
0.0024391081540269
 40
0.0024391081540269
 40
0.0024391081540269
 40
0.0029656472492669
 40
0.0029656472492669
 40
0.0029656472492669
 40
0.0034436785480733
 40
0.0034436785480733
 40
0.0034436785480733
 40
0.0034436785480733
 10
2123.19143252825
 20
1068.503784146457
 30
0.0
 10
2123.174739150641
 20
1068.503784146457
 30
0.0
 10
2123.158031088459
 20
1068.503784146457
 30
0.0
 10
2123.141306889666
 20
1068.503784146457
 30
0.0
 10
2123.126123420067
 20
1068.503784146457
 30
0.0
 10
2123.110926649136
 20
1068.503784146457
 30
0.0
 10
2123.095715347423
 20
1068.503784146457
 30
0.0
  0
ARC
  5
371
330
347
100
AcDbEntity
  8
0
  6
Continuous
 62
     7
370
    15
100
AcDbCircle
 10
2121.571693264111
 20
1068.103784146457
 30
0.0
 40
1.575640603189851
100
AcDbArc
 50
14.7063414185453
 51
165.2936585814547
  0
SPLINE
  5
372
330
347
100
AcDbEntity
  8
0
  6
Continuous
 62
     7
370
    15
100
AcDbSpline
210
0.0
220
0.0
230
1.0
 70
    24
 71
     3
 72
    11
 73
     7
 74
     0
 42
0.0000000001
 43
0.0000000001
 40
0.0024876163239903
 40
0.0024876163239903
 40
0.0024876163239903
 40
0.0024876163239903
 40
0.0029656475715608
 40
0.0029656475715608
 40
0.0029656475715608
 40
0.0034921866351546
 40
0.0034921866351546
 40
0.0034921866351546
 40
0.0034921866351546
 10
2120.0476711808
 20
1068.503784146457
 30
0.0
 10
2120.032459879087
 20
1068.503784146457
 30
0.0
 10
2120.017263108156
 20
1068.503784146457
 30
0.0
 10
2120.002079638557
 20
1068.503784146457
 30
0.0
 10
2119.985355439764
 20
1068.503784146457
 30
0.0
 10
2119.968647377582
 20
1068.503784146457
 30
0.0
 10
2119.951953999972
 20
1068.503784146457
 30
0.0
  0
LINE
  5
373
330
347
100
AcDbEntity
  8
0
  6
Continuous
 62
     7
370
    15
100
AcDbLine
 10
2111.595715347423
 20
1068.503784146457
 30
0.0
 11
2108.5476711808
 21
1068.503784146457
 31
0.0
  0
LINE
  5
374
330
347
100
AcDbEntity
  8
0
  6
Continuous
 62
     7
370
    15
100
AcDbLine
 10
2123.095715347423
 20
1068.503784146457
 30
0.0
 11
2120.0476711808
 21
1068.503784146457
 31
0.0
  0
LINE
  5
375
330
347
100
AcDbEntity
  8
0
  6
Continuous
 62
     7
370
    15
100
AcDbLine
 10
2120.0476711808
 20
1067.703784146457
 30
0.0
 11
2123.095715347423
 21
1067.703784146457
 31
0.0
  0
LINE
  5
376
330
347
100
AcDbEntity
  8
0
  6
Continuous
 62
     7
370
    15
100
AcDbLine
 10
2108.5476711808
 20
1067.703784146457
 30
0.0
 11
2111.595715347423
 21
1067.703784146457
 31
0.0
  0
CIRCLE
  5
377
330
347
100
AcDbEntity
  8
0
  6
Continuous
 62
     7
370
    15
100
AcDbCircle
 10
2121.571693264111
 20
1062.003784146457
 30
0.0
 40
1.760500289917331
  0
ARC
  5
378
330
347
100
AcDbEntity
  8
0
  6
Continuous
 62
     7
370
    15
100
AcDbCircle
 10
2121.571693264111
 20
1062.003784146457
 30
0.0
 40
1.668399018158753
100
AcDbArc
 50
166.1281671269283
 51
193.8718328730717
  0
SPLINE
  5
379
330
347
100
AcDbEntity
  8
0
  6
Continuous
 62
     7
370
    15
100
AcDbSpline
210
0.0
220
0.0
230
1.0
 70
    24
 71
     3
 72
    11
 73
     7
 74
     0
 42
0.0000000001
 43
0.0000000001
 40
0.0024391081540269
 40
0.0024391081540269
 40
0.0024391081540269
 40
0.0024391081540269
 40
0.0029656472492669
 40
0.0029656472492669
 40
0.0029656472492669
 40
0.0034436785480733
 40
0.0034436785480733
 40
0.0034436785480733
 40
0.0034436785480733
 10
2119.951953999972
 20
1061.603784146457
 30
0.0
 10
2119.968647377582
 20
1061.603784146457
 30
0.0
 10
2119.985355439764
 20
1061.603784146457
 30
0.0
 10
2120.002079638557
 20
1061.603784146457
 30
0.0
 10
2120.017263108156
 20
1061.603784146457
 30
0.0
 10
2120.032459879087
 20
1061.603784146457
 30
0.0
 10
2120.0476711808
 20
1061.603784146457
 30
0.0
  0
ARC
  5
37A
330
347
100
AcDbEntity
  8
0
  6
Continuous
 62
     7
370
    15
100
AcDbCircle
 10
2121.571693264111
 20
1062.003784146457
 30
0.0
 40
1.575640603189858
100
AcDbArc
 50
194.7063414185453
 51
345.2936585814547
  0
SPLINE
  5
37B
330
347
100
AcDbEntity
  8
0
  6
Continuous
 62
     7
370
    15
100
AcDbSpline
210
0.0
220
0.0
230
1.0
 70
    24
 71
     3
 72
    11
 73
     7
 74
     0
 42
0.0000000001
 43
0.0000000001
 40
0.0024876163239904
 40
0.0024876163239904
 40
0.0024876163239904
 40
0.0024876163239904
 40
0.0029656475715608
 40
0.0029656475715608
 40
0.0029656475715608
 40
0.0034921866351546
 40
0.0034921866351546
 40
0.0034921866351546
 40
0.0034921866351546
 10
2123.095715347423
 20
1061.603784146457
 30
0.0
 10
2123.110926649136
 20
1061.603784146457
 30
0.0
 10
2123.126123420067
 20
1061.603784146457
 30
0.0
 10
2123.141306889666
 20
1061.603784146457
 30
0.0
 10
2123.158031088459
 20
1061.603784146457
 30
0.0
 10
2123.174739150641
 20
1061.603784146457
 30
0.0
 10
2123.19143252825
 20
1061.603784146457
 30
0.0
  0
ARC
  5
37C
330
347
100
AcDbEntity
  8
0
  6
Continuous
 62
     7
370
    15
100
AcDbCircle
 10
2121.571693264111
 20
1062.003784146457
 30
0.0
 40
1.668399018158753
100
AcDbArc
 50
346.1281671269283
 51
13.8718328730717
  0
SPLINE
  5
37D
330
347
100
AcDbEntity
  8
0
  6
Continuous
 62
     7
370
    15
100
AcDbSpline
210
0.0
220
0.0
230
1.0
 70
    24
 71
     3
 72
    11
 73
     7
 74
     0
 42
0.0000000001
 43
0.0000000001
 40
0.0024391081540269
 40
0.0024391081540269
 40
0.0024391081540269
 40
0.0024391081540269
 40
0.0029656472492669
 40
0.0029656472492669
 40
0.0029656472492669
 40
0.0034436785480733
 40
0.0034436785480733
 40
0.0034436785480733
 40
0.0034436785480733
 10
2123.19143252825
 20
1062.403784146457
 30
0.0
 10
2123.174739150641
 20
1062.403784146457
 30
0.0
 10
2123.158031088459
 20
1062.403784146457
 30
0.0
 10
2123.141306889666
 20
1062.403784146457
 30
0.0
 10
2123.126123420067
 20
1062.403784146457
 30
0.0
 10
2123.110926649136
 20
1062.403784146457
 30
0.0
 10
2123.095715347423
 20
1062.403784146457
 30
0.0
  0
ARC
  5
37E
330
347
100
AcDbEntity
  8
0
  6
Continuous
 62
     7
370
    15
100
AcDbCircle
 10
2121.571693264111
 20
1062.003784146457
 30
0.0
 40
1.575640603189851
100
AcDbArc
 50
14.7063414185453
 51
165.2936585814547
  0
SPLINE
  5
37F
330
347
100
AcDbEntity
  8
0
  6
Continuous
 62
     7
370
    15
100
AcDbSpline
210
0.0
220
0.0
230
1.0
 70
    24
 71
     3
 72
    11
 73
     7
 74
     0
 42
0.0000000001
 43
0.0000000001
 40
0.0024876163239903
 40
0.0024876163239903
 40
0.0024876163239903
 40
0.0024876163239903
 40
0.0029656475715608
 40
0.0029656475715608
 40
0.0029656475715608
 40
0.0034921866351546
 40
0.0034921866351546
 40
0.0034921866351546
 40
0.0034921866351546
 10
2120.0476711808
 20
1062.403784146457
 30
0.0
 10
2120.032459879087
 20
1062.403784146457
 30
0.0
 10
2120.017263108156
 20
1062.403784146457
 30
0.0
 10
2120.002079638557
 20
1062.403784146457
 30
0.0
 10
2119.985355439764
 20
1062.403784146457
 30
0.0
 10
2119.968647377582
 20
1062.403784146457
 30
0.0
 10
2119.951953999972
 20
1062.403784146457
 30
0.0
  0
LINE
  5
380
330
347
100
AcDbEntity
  8
0
  6
Continuous
 62
     7
370
    15
100
AcDbLine
 10
2123.095715347423
 20
1062.403784146457
 30
0.0
 11
2120.0476711808
 21
1062.403784146457
 31
0.0
  0
ARC
  5
381
330
347
100
AcDbEntity
  8
0
  6
Continuous
 62
     7
370
    15
100
AcDbCircle
 10
2110.071693264111
 20
1062.003784146457
 30
0.0
 40
1.575640603189851
100
AcDbArc
 50
14.7063414185453
 51
165.2936585814547
  0
LINE
  5
382
330
347
100
AcDbEntity
  8
0
  6
Continuous
 62
     7
370
    15
100
AcDbLine
 10
2111.595715347423
 20
1062.403784146457
 30
0.0
 11
2108.5476711808
 21
1062.403784146457
 31
0.0
  0
CIRCLE
  5
383
330
347
100
AcDbEntity
  8
0
  6
Continuous
 62
     7
370
    15
100
AcDbCircle
 10
2110.071693264111
 20
1062.003784146457
 30
0.0
 40
1.760500289917331
  0
ARC
  5
384
330
347
100
AcDbEntity
  8
0
  6
Continuous
 62
     7
370
    15
100
AcDbCircle
 10
2110.071693264111
 20
1062.003784146457
 30
0.0
 40
1.668399018158753
100
AcDbArc
 50
166.1281671269283
 51
193.8718328730717
  0
SPLINE
  5
385
330
347
100
AcDbEntity
  8
0
  6
Continuous
 62
     7
370
    15
100
AcDbSpline
210
0.0
220
0.0
230
1.0
 70
    24
 71
     3
 72
    11
 73
     7
 74
     0
 42
0.0000000001
 43
0.0000000001
 40
0.0024391081540269
 40
0.0024391081540269
 40
0.0024391081540269
 40
0.0024391081540269
 40
0.0029656472492669
 40
0.0029656472492669
 40
0.0029656472492669
 40
0.0034436785480733
 40
0.0034436785480733
 40
0.0034436785480733
 40
0.0034436785480733
 10
2108.451953999972
 20
1061.603784146457
 30
0.0
 10
2108.468647377582
 20
1061.603784146457
 30
0.0
 10
2108.485355439764
 20
1061.603784146457
 30
0.0
 10
2108.502079638557
 20
1061.603784146457
 30
0.0
 10
2108.517263108156
 20
1061.603784146457
 30
0.0
 10
2108.532459879087
 20
1061.603784146457
 30
0.0
 10
2108.5476711808
 20
1061.603784146457
 30
0.0
  0
ARC
  5
386
330
347
100
AcDbEntity
  8
0
  6
Continuous
 62
     7
370
    15
100
AcDbCircle
 10
2110.071693264111
 20
1062.003784146457
 30
0.0
 40
1.575640603189858
100
AcDbArc
 50
194.7063414185453
 51
345.2936585814547
  0
SPLINE
  5
387
330
347
100
AcDbEntity
  8
0
  6
Continuous
 62
     7
370
    15
100
AcDbSpline
210
0.0
220
0.0
230
1.0
 70
    24
 71
     3
 72
    11
 73
     7
 74
     0
 42
0.0000000001
 43
0.0000000001
 40
0.0024876163239904
 40
0.0024876163239904
 40
0.0024876163239904
 40
0.0024876163239904
 40
0.0029656475715608
 40
0.0029656475715608
 40
0.0029656475715608
 40
0.0034921866351546
 40
0.0034921866351546
 40
0.0034921866351546
 40
0.0034921866351546
 10
2111.595715347423
 20
1061.603784146457
 30
0.0
 10
2111.610926649136
 20
1061.603784146457
 30
0.0
 10
2111.626123420067
 20
1061.603784146457
 30
0.0
 10
2111.641306889666
 20
1061.603784146457
 30
0.0
 10
2111.65803108846
 20
1061.603784146457
 30
0.0
 10
2111.674739150641
 20
1061.603784146457
 30
0.0
 10
2111.69143252825
 20
1061.603784146457
 30
0.0
  0
ARC
  5
388
330
347
100
AcDbEntity
  8
0
  6
Continuous
 62
     7
370
    15
100
AcDbCircle
 10
2110.071693264111
 20
1062.003784146457
 30
0.0
 40
1.668399018158753
100
AcDbArc
 50
346.1281671269283
 51
13.8718328730717
  0
SPLINE
  5
389
330
347
100
AcDbEntity
  8
0
  6
Continuous
 62
     7
370
    15
100
AcDbSpline
210
0.0
220
0.0
230
1.0
 70
    24
 71
     3
 72
    11
 73
     7
 74
     0
 42
0.0000000001
 43
0.0000000001
 40
0.0024391081540269
 40
0.0024391081540269
 40
0.0024391081540269
 40
0.0024391081540269
 40
0.0029656472492669
 40
0.0029656472492669
 40
0.0029656472492669
 40
0.0034436785480733
 40
0.0034436785480733
 40
0.0034436785480733
 40
0.0034436785480733
 10
2111.69143252825
 20
1062.403784146457
 30
0.0
 10
2111.674739150641
 20
1062.403784146457
 30
0.0
 10
2111.65803108846
 20
1062.403784146457
 30
0.0
 10
2111.641306889666
 20
1062.403784146457
 30
0.0
 10
2111.626123420067
 20
1062.403784146457
 30
0.0
 10
2111.610926649136
 20
1062.403784146457
 30
0.0
 10
2111.595715347423
 20
1062.403784146457
 30
0.0
  0
SPLINE
  5
38A
330
347
100
AcDbEntity
  8
0
  6
Continuous
 62
     7
370
    15
100
AcDbSpline
210
0.0
220
0.0
230
1.0
 70
    24
 71
     3
 72
    11
 73
     7
 74
     0
 42
0.0000000001
 43
0.0000000001
 40
0.0024876163239903
 40
0.0024876163239903
 40
0.0024876163239903
 40
0.0024876163239903
 40
0.0029656475715608
 40
0.0029656475715608
 40
0.0029656475715608
 40
0.0034921866351546
 40
0.0034921866351546
 40
0.0034921866351546
 40
0.0034921866351546
 10
2108.5476711808
 20
1062.403784146457
 30
0.0
 10
2108.532459879087
 20
1062.403784146457
 30
0.0
 10
2108.517263108156
 20
1062.403784146457
 30
0.0
 10
2108.502079638557
 20
1062.403784146457
 30
0.0
 10
2108.485355439764
 20
1062.403784146457
 30
0.0
 10
2108.468647377582
 20
1062.403784146457
 30
0.0
 10
2108.451953999972
 20
1062.403784146457
 30
0.0
  0
LINE
  5
38B
330
347
100
AcDbEntity
  8
0
  6
Continuous
 62
     7
370
    15
100
AcDbLine
 10
2120.0476711808
 20
1061.603784146457
 30
0.0
 11
2123.095715347423
 21
1061.603784146457
 31
0.0
  0
LINE
  5
38C
330
347
100
AcDbEntity
  8
0
  6
Continuous
 62
     7
370
    15
100
AcDbLine
 10
2108.5476711808
 20
1061.603784146457
 30
0.0
 11
2111.595715347423
 21
1061.603784146457
 31
0.0
  0
CIRCLE
  5
38D
330
347
100
AcDbEntity
  8
0
  6
Continuous
 62
     7
370
    15
100
AcDbCircle
 10
2115.821693264112
 20
1065.058703066583
 30
0.0
 40
2.150000000000005
  0
ENDBLK
  5
349
330
347
100
AcDbEntity
  8
0
100
AcDbBlockEnd
  0
BLOCK
  5
390
330
38F
100
AcDbEntity
  8
0
100
AcDbBlockBegin
  2
4
 70
     0
 10
0.0
 20
0.0
 30
0.0
  3
4
  1

  0
LINE
  5
392
330
38F
100
AcDbEntity
  8
0
  6
Continuous
 62
     7
370
    15
100
AcDbLine
 10
2156.671972886289
 20
1089.373304458948
 30
0.0
 11
2171.238372578732
 21
1097.782308010722
 31
0.0
  0
LINE
  5
393
330
38F
100
AcDbEntity
  8
0
  6
Continuous
 62
     7
370
    15
100
AcDbLine
 10
2171.238372578732
 20
1097.782308010722
 30
0.0
 11
2172.228322072393
 21
1097.210729442402
 31
0.0
  0
LINE
  5
394
330
38F
100
AcDbEntity
  8
0
  6
Continuous
 62
     7
370
    15
100
AcDbLine
 10
2172.228322072393
 20
1097.210729442402
 30
0.0
 11
2156.671972886289
 21
1088.230240212352
 31
0.0
  0
LINE
  5
395
330
38F
100
AcDbEntity
  8
0
  6
Continuous
 62
     7
370
    15
100
AcDbLine
 10
2156.671972886289
 20
1089.373304458948
 30
0.0
 11
2156.671972886289
 21
1088.230240212352
 31
0.0
  0
LINE
  5
396
330
38F
100
AcDbEntity
  8
0
  6
Continuous
 62
     7
370
    15
100
AcDbLine
 10
2144.580446927999
 20
1096.353593815032
 30
0.0
 11
2156.671972886289
 21
1089.373304458948
 31
0.0
  0
LINE
  5
397
330
38F
100
AcDbEntity
  8
0
  6
Continuous
 62
     7
370
    15
100
AcDbLine
 10
2156.671972886289
 20
1088.230240212352
 30
0.0
 11
2143.590497434338
 21
1095.782015246712
 31
0.0
  0
LINE
  5
398
330
38F
100
AcDbEntity
  8
0
  6
Continuous
 62
     7
370
    15
100
AcDbLine
 10
2143.590497434338
 20
1095.782015246712
 30
0.0
 11
2144.580446927999
 21
1096.353593815032
 31
0.0
  0
LINE
  5
399
330
38F
100
AcDbEntity
  8
0
  6
Continuous
 62
     7
370
    15
100
AcDbLine
 10
2161.97506418593
 20
1082.88127929328
 30
0.0
 11
2161.97506418593
 21
1085.943307337851
 31
0.0
  0
LINE
  5
39A
330
38F
100
AcDbEntity
  8
0
  6
Continuous
 62
     7
370
    15
100
AcDbLine
 10
2161.97506418593
 20
1085.943307337851
 30
0.0
 11
2158.793083670591
 21
1084.10638908625
 31
0.0
  0
LINE
  5
39B
330
38F
100
AcDbEntity
  8
0
  6
Continuous
 62
     7
370
    15
100
AcDbLine
 10
2158.793083670591
 20
1084.10638908625
 30
0.0
 11
2158.793083670591
 21
1081.044361041678
 31
0.0
  0
LWPOLYLINE
  5
39C
330
38F
100
AcDbEntity
  8
0
  6
Continuous
 62
     7
370
    15
100
AcDbPolyline
 90
       32
 70
   128
 43
0.0
 10
2158.793083670591
 20
1081.044361041678
 10
2158.80124652709
 20
1080.863205214942
 10
2158.825651334632
 20
1080.693332925635
 10
2158.866047666867
 20
1080.536487293321
 10
2158.922021002763
 20
1080.394277766432
 10
2158.992996980148
 20
1080.268163607154
 10
2159.078247289448
 20
1080.159438917423
 10
2159.176897147128
 20
1080.069219359682
 10
2159.287934272154
 20
1079.99843070868
 10
2159.410219273366
 20
1079.947799351769
 10
2159.542497341172
 20
1079.917844835186
 10
2159.683411123598
 20
1079.908874532806
 10
2159.831514654547
 20
1079.92098049207
 10
2159.985288191377
 20
1079.954038489455
 10
2160.14315380951
 20
1080.007709305172
 10
2160.303491594079
 20
1080.081442204024
 10
2160.464656262442
 20
1080.174480586692
 10
2160.624994047011
 20
1080.28586975347
 10
2160.782859665145
 20
1080.414466700771
 10
2160.936633201974
 20
1080.558951849898
 10
2161.084736732924
 20
1080.717842587701
 10
2161.225650515348
 20
1080.889508480196
 10
2161.357928583155
 20
1081.072188003025
 10
2161.480213584367
 20
1081.264006617079
 10
2161.591250709392
 20
1081.462996003807
 10
2161.689900567072
 20
1081.667114262824
 10
2161.775150876373
 20
1081.874266864576
 10
2161.846126853758
 20
1082.082328143048
 10
2161.902100189653
 20
1082.289163107971
 10
2161.942496521889
 20
1082.492649352712
 10
2161.966901329432
 20
1082.690698833039
 10
2161.97506418593
 20
1082.88127929328
  0
LINE
  5
39D
330
38F
100
AcDbEntity
  8
0
  6
Continuous
 62
     7
370
    15
100
AcDbLine
 10
2170.106792169575
 20
1090.637653980832
 30
0.0
 11
2166.924811654236
 21
1088.80073572923
 31
0.0
  0
LINE
  5
39E
330
38F
100
AcDbEntity
  8
0
  6
Continuous
 62
     7
370
    15
100
AcDbLine
 10
2166.924811654236
 20
1088.80073572923
 30
0.0
 11
2166.924811654236
 21
1085.738707684659
 31
0.0
  0
LWPOLYLINE
  5
39F
330
38F
100
AcDbEntity
  8
0
  6
Continuous
 62
     7
370
    15
100
AcDbPolyline
 90
       32
 70
   128
 43
0.0
 10
2166.924811654236
 20
1085.738707684659
 10
2166.932974510735
 20
1085.557551857922
 10
2166.957379318277
 20
1085.387679568616
 10
2166.997775650512
 20
1085.230833936301
 10
2167.053748986408
 20
1085.088624409412
 10
2167.124724963793
 20
1084.962510250135
 10
2167.209975273094
 20
1084.853785560404
 10
2167.308625130774
 20
1084.763566002662
 10
2167.419662255799
 20
1084.69277735166
 10
2167.541947257011
 20
1084.642145994749
 10
2167.674225324818
 20
1084.612191478167
 10
2167.815139107243
 20
1084.603221175787
 10
2167.963242638192
 20
1084.615327135051
 10
2168.117016175022
 20
1084.648385132435
 10
2168.274881793155
 20
1084.702055948153
 10
2168.435219577725
 20
1084.775788847005
 10
2168.596384246087
 20
1084.868827229673
 10
2168.756722030656
 20
1084.98021639645
 10
2168.91458764879
 20
1085.108813343752
 10
2169.068361185619
 20
1085.253298492879
 10
2169.216464716569
 20
1085.412189230681
 10
2169.357378498994
 20
1085.583855123176
 10
2169.489656566801
 20
1085.766534646006
 10
2169.611941568012
 20
1085.95835326006
 10
2169.722978693037
 20
1086.157342646787
 10
2169.821628550718
 20
1086.361460905804
 10
2169.906878860018
 20
1086.568613507557
 10
2169.977854837403
 20
1086.776674786029
 10
2170.033828173298
 20
1086.983509750952
 10
2170.074224505534
 20
1087.186995995692
 10
2170.098629313077
 20
1087.385045476019
 10
2170.106792169575
 20
1087.57562593626
  0
LINE
  5
3A0
330
38F
100
AcDbEntity
  8
0
  6
Continuous
 62
     7
370
    15
100
AcDbLine
 10
2170.106792169575
 20
1087.57562593626
 30
0.0
 11
2170.106792169575
 21
1090.637653980832
 31
0.0
  0
LINE
  5
3A1
330
38F
100
AcDbEntity
  8
0
  6
Continuous
 62
     7
370
    15
100
AcDbLine
 10
2172.228322072393
 20
1097.210729442402
 30
0.0
 11
2172.228322072393
 21
1084.880963182927
 31
0.0
  0
LINE
  5
3A2
330
38F
100
AcDbEntity
  8
0
  6
Continuous
 62
     7
370
    15
100
AcDbLine
 10
2156.671972886289
 20
1075.900473952877
 30
0.0
 11
2172.228322072393
 21
1084.880963182927
 31
0.0
  0
LINE
  5
3A3
330
38F
100
AcDbEntity
  8
0
  6
Continuous
 62
     7
370
    15
100
AcDbLine
 10
2156.671972886289
 20
1088.230240212352
 30
0.0
 11
2156.671972886289
 21
1075.900473952877
 31
0.0
  0
LINE
  5
3A4
330
38F
100
AcDbEntity
  8
0
  6
Continuous
 62
     7
370
    15
100
AcDbLine
 10
2143.590497434338
 20
1083.452248987238
 30
0.0
 11
2156.671972886289
 21
1075.900473952877
 31
0.0
  0
LINE
  5
3A5
330
38F
100
AcDbEntity
  8
0
  6
Continuous
 62
     7
370
    15
100
AcDbLine
 10
2143.590497434338
 20
1095.782015246712
 30
0.0
 11
2143.590497434338
 21
1083.452248987238
 31
0.0
  0
LWPOLYLINE
  5
3A6
330
38F
100
AcDbEntity
  8
0
  6
Continuous
 62
     7
370
    15
100
AcDbPolyline
 90
       63
 70
   128
 43
0.0
 10
2158.227607804899
 20
1099.741687479096
 10
2158.396728476065
 20
1099.653480827277
 10
2158.580439453285
 20
1099.575603928573
 10
2158.776855613332
 20
1099.508855905349
 10
2158.983961460612
 20
1099.453921682647
 10
2159.199631808871
 20
1099.41136495993
 10
2159.421653588489
 20
1099.381622426763
 10
2159.647748555562
 20
1099.364999281783
 10
2159.875596669774
 20
1099.361666100952
 10
2160.102859901144
 20
1099.371657087217
 10
2160.327206221382
 20
1099.394869719538
 10
2160.546333533655
 20
1099.431065804896
 10
2160.75799329521
 20
1099.479873922473
 10
2160.960013590474
 20
1099.540793234937
 10
2161.15032141784
 20
1099.613198627704
 10
2161.326963961471
 20
1099.696347123464
 10
2161.488128629834
 20
1099.789385506132
 10
2161.632161655341
 20
1099.891359076002
 10
2161.757585064242
 20
1100.001221446254
 10
2161.863111842638
 20
1100.117845280301
 10
2161.947659142981
 20
1100.24003385979
 10
2162.010359395559
 20
1100.366533364547
 10
2162.050569210933
 20
1100.496045738473
 10
2162.067875981986
 20
1100.627242009351
 10
2162.062102117826
 20
1100.758775925908
 10
2162.033306866113
 20
1100.889297772163
 10
2161.981785705097
 20
1101.017468217352
 10
2161.908067311606
 20
1101.141972059263
 10
2161.812908136118
 20
1101.261531719999
 10
2161.697284640542
 20
1101.374920355649
 10
2161.562383278407
 20
1101.480974445374
 10
2161.409588320239
 20
1101.578605730697
 10
2161.240467649073
 20
1101.666812382516
 10
2161.056756671853
 20
1101.74468928122
 10
2160.860340511806
 20
1101.811437304445
 10
2160.653234664526
 20
1101.866371527147
 10
2160.437564316266
 20
1101.908928249863
 10
2160.215542536649
 20
1101.938670783031
 10
2159.989447569576
 20
1101.955293928011
 10
2159.761599455364
 20
1101.958627108841
 10
2159.534336223994
 20
1101.948636122577
 10
2159.309989903756
 20
1101.925423490256
 10
2159.090862591483
 20
1101.889227404898
 10
2158.879202829928
 20
1101.84041928732
 10
2158.677182534664
 20
1101.779499974856
 10
2158.486874707298
 20
1101.707094582089
 10
2158.310232163668
 20
1101.62394608633
 10
2158.149067495304
 20
1101.530907703661
 10
2158.005034469798
 20
1101.428934133792
 10
2157.879611060896
 20
1101.31907176354
 10
2157.7740842825
 20
1101.202447929492
 10
2157.689536982157
 20
1101.080259350003
 10
2157.626836729579
 20
1100.953759845246
 10
2157.586626914205
 20
1100.824247471321
 10
2157.569320143152
 20
1100.693051200442
 10
2157.575094007312
 20
1100.561517283886
 10
2157.603889259025
 20
1100.43099543763
 10
2157.655410420042
 20
1100.302824992441
 10
2157.729128813531
 20
1100.17832115053
 10
2157.82428798902
 20
1100.058761489794
 10
2157.939911484596
 20
1099.945372854144
 10
2158.074812846731
 20
1099.83931876442
 10
2158.227607804899
 20
1099.741687479096
  0
LWPOLYLINE
  5
3A7
330
38F
100
AcDbEntity
  8
0
  6
Continuous
 62
     7
370
    15
100
AcDbPolyline
 90
       63
 70
   128
 43
0.0
 10
2162.540959170137
 20
1097.251642738037
 10
2162.710079841303
 20
1097.163436086218
 10
2162.893790818523
 20
1097.085559187513
 10
2163.09020697857
 20
1097.018811164289
 10
2163.29731282585
 20
1096.963876941587
 10
2163.51298317411
 20
1096.921320218871
 10
2163.735004953727
 20
1096.891577685704
 10
2163.9610999208
 20
1096.874954540723
 10
2164.188948035012
 20
1096.871621359893
 10
2164.416211266382
 20
1096.881612346157
 10
2164.64055758662
 20
1096.904824978478
 10
2164.859684898893
 20
1096.941021063836
 10
2165.071344660448
 20
1096.989829181414
 10
2165.273364955712
 20
1097.050748493878
 10
2165.463672783078
 20
1097.123153886645
 10
2165.640315326708
 20
1097.206302382405
 10
2165.801479995072
 20
1097.299340765073
 10
2165.945513020579
 20
1097.401314334942
 10
2166.07093642948
 20
1097.511176705194
 10
2166.176463207876
 20
1097.627800539242
 10
2166.261010508219
 20
1097.749989118731
 10
2166.323710760797
 20
1097.876488623488
 10
2166.363920576171
 20
1098.006000997413
 10
2166.381227347224
 20
1098.137197268292
 10
2166.375453483064
 20
1098.268731184848
 10
2166.346658231351
 20
1098.399253031104
 10
2166.295137070335
 20
1098.527423476292
 10
2166.221418676845
 20
1098.651927318204
 10
2166.126259501356
 20
1098.77148697894
 10
2166.01063600578
 20
1098.88487561459
 10
2165.875734643645
 20
1098.990929704315
 10
2165.722939685476
 20
1099.088560989638
 10
2165.553819014311
 20
1099.176767641457
 10
2165.370108037091
 20
1099.254644540161
 10
2165.173691877043
 20
1099.321392563386
 10
2164.966586029764
 20
1099.376326786088
 10
2164.750915681505
 20
1099.418883508804
 10
2164.528893901887
 20
1099.448626041971
 10
2164.302798934814
 20
1099.465249186952
 10
2164.074950820602
 20
1099.468582367782
 10
2163.847687589232
 20
1099.458591381518
 10
2163.623341268994
 20
1099.435378749197
 10
2163.404213956721
 20
1099.399182663839
 10
2163.192554195166
 20
1099.35037454626
 10
2162.990533899902
 20
1099.289455233797
 10
2162.800226072536
 20
1099.21704984103
 10
2162.623583528906
 20
1099.133901345271
 10
2162.462418860542
 20
1099.040862962602
 10
2162.318385835035
 20
1098.938889392733
 10
2162.192962426134
 20
1098.829027022481
 10
2162.087435647738
 20
1098.712403188433
 10
2162.002888347395
 20
1098.590214608944
 10
2161.940188094817
 20
1098.463715104187
 10
2161.899978279443
 20
1098.334202730262
 10
2161.88267150839
 20
1098.203006459383
 10
2161.88844537255
 20
1098.071472542827
 10
2161.917240624262
 20
1097.940950696571
 10
2161.96876178528
 20
1097.812780251382
 10
2162.04248017877
 20
1097.688276409471
 10
2162.137639354258
 20
1097.568716748735
 10
2162.253262849834
 20
1097.455328113085
 10
2162.388164211969
 20
1097.34927402336
 10
2162.540959170137
 20
1097.251642738037
  0
LWPOLYLINE
  5
3A8
330
38F
100
AcDbEntity
  8
0
  6
Continuous
 62
     7
370
    15
100
AcDbPolyline
 90
       63
 70
   128
 43
0.0
 10
2150.095879821254
 20
1095.047340836116
 10
2150.265000492419
 20
1094.959134184297
 10
2150.44871146964
 20
1094.881257285592
 10
2150.645127629687
 20
1094.814509262368
 10
2150.852233476967
 20
1094.759575039666
 10
2151.067903825226
 20
1094.71701831695
 10
2151.289925604844
 20
1094.687275783782
 10
2151.516020571917
 20
1094.670652638802
 10
2151.743868686128
 20
1094.667319457971
 10
2151.971131917498
 20
1094.677310444236
 10
2152.195478237737
 20
1094.700523076557
 10
2152.41460555001
 20
1094.736719161915
 10
2152.626265311565
 20
1094.785527279493
 10
2152.828285606829
 20
1094.846446591957
 10
2153.018593434194
 20
1094.918851984723
 10
2153.195235977825
 20
1095.002000480483
 10
2153.356400646188
 20
1095.095038863151
 10
2153.500433671695
 20
1095.197012433021
 10
2153.625857080597
 20
1095.306874803273
 10
2153.731383858992
 20
1095.423498637321
 10
2153.815931159336
 20
1095.54568721681
 10
2153.878631411913
 20
1095.672186721567
 10
2153.918841227288
 20
1095.801699095492
 10
2153.936147998341
 20
1095.932895366371
 10
2153.930374134181
 20
1096.064429282927
 10
2153.901578882468
 20
1096.194951129183
 10
2153.850057721451
 20
1096.323121574371
 10
2153.776339327961
 20
1096.447625416283
 10
2153.681180152473
 20
1096.567185077018
 10
2153.565556656896
 20
1096.680573712669
 10
2153.430655294762
 20
1096.786627802393
 10
2153.277860336594
 20
1096.884259087717
 10
2153.108739665428
 20
1096.972465739536
 10
2152.925028688208
 20
1097.05034263824
 10
2152.72861252816
 20
1097.117090661464
 10
2152.52150668088
 20
1097.172024884166
 10
2152.305836332621
 20
1097.214581606883
 10
2152.083814553004
 20
1097.24432414005
 10
2151.85771958593
 20
1097.26094728503
 10
2151.629871471719
 20
1097.264280465861
 10
2151.402608240349
 20
1097.254289479596
 10
2151.17826192011
 20
1097.231076847275
 10
2150.959134607838
 20
1097.194880761917
 10
2150.747474846282
 20
1097.146072644339
 10
2150.545454551018
 20
1097.085153331875
 10
2150.355146723653
 20
1097.012747939109
 10
2150.178504180022
 20
1096.929599443349
 10
2150.017339511659
 20
1096.836561060681
 10
2149.873306486152
 20
1096.734587490811
 10
2149.747883077251
 20
1096.62472512056
 10
2149.642356298855
 20
1096.508101286512
 10
2149.557808998512
 20
1096.385912707023
 10
2149.495108745934
 20
1096.259413202266
 10
2149.45489893056
 20
1096.12990082834
 10
2149.437592159507
 20
1095.998704557461
 10
2149.443366023666
 20
1095.867170640905
 10
2149.472161275379
 20
1095.73664879465
 10
2149.523682436396
 20
1095.608478349461
 10
2149.597400829886
 20
1095.483974507549
 10
2149.692560005375
 20
1095.364414846814
 10
2149.808183500951
 20
1095.251026211164
 10
2149.943084863086
 20
1095.144972121439
 10
2150.095879821254
 20
1095.047340836116
  0
LWPOLYLINE
  5
3A9
330
38F
100
AcDbEntity
  8
0
  6
Continuous
 62
     7
370
    15
100
AcDbPolyline
 90
       63
 70
   128
 43
0.0
 10
2154.409231186492
 20
1092.557296095056
 10
2154.578351857658
 20
1092.469089443237
 10
2154.762062834878
 20
1092.391212544533
 10
2154.958478994925
 20
1092.324464521309
 10
2155.165584842205
 20
1092.269530298607
 10
2155.381255190464
 20
1092.226973575891
 10
2155.603276970081
 20
1092.197231042723
 10
2155.829371937155
 20
1092.180607897743
 10
2156.057220051366
 20
1092.177274716912
 10
2156.284483282736
 20
1092.187265703177
 10
2156.508829602975
 20
1092.210478335498
 10
2156.727956915247
 20
1092.246674420856
 10
2156.939616676803
 20
1092.295482538434
 10
2157.141636972067
 20
1092.356401850897
 10
2157.331944799432
 20
1092.428807243664
 10
2157.508587343063
 20
1092.511955739424
 10
2157.669752011426
 20
1092.604994122092
 10
2157.813785036933
 20
1092.706967691962
 10
2157.939208445835
 20
1092.816830062214
 10
2158.044735224231
 20
1092.933453896261
 10
2158.129282524573
 20
1093.05564247575
 10
2158.191982777151
 20
1093.182141980507
 10
2158.232192592526
 20
1093.311654354433
 10
2158.249499363579
 20
1093.442850625311
 10
2158.243725499419
 20
1093.574384541868
 10
2158.214930247706
 20
1093.704906388124
 10
2158.163409086689
 20
1093.833076833312
 10
2158.089690693199
 20
1093.957580675223
 10
2157.994531517711
 20
1094.077140335959
 10
2157.878908022135
 20
1094.190528971609
 10
2157.744006659999
 20
1094.296583061334
 10
2157.591211701832
 20
1094.394214346658
 10
2157.422091030666
 20
1094.482420998477
 10
2157.238380053446
 20
1094.560297897181
 10
2157.041963893398
 20
1094.627045920405
 10
2156.834858046118
 20
1094.681980143107
 10
2156.619187697859
 20
1094.724536865823
 10
2156.397165918242
 20
1094.754279398991
 10
2156.171070951168
 20
1094.770902543971
 10
2155.943222836957
 20
1094.774235724802
 10
2155.715959605587
 20
1094.764244738537
 10
2155.491613285348
 20
1094.741032106216
 10
2155.272485973076
 20
1094.704836020858
 10
2155.06082621152
 20
1094.65602790328
 10
2154.858805916256
 20
1094.595108590816
 10
2154.668498088891
 20
1094.52270319805
 10
2154.49185554526
 20
1094.43955470229
 10
2154.330690876897
 20
1094.346516319622
 10
2154.18665785139
 20
1094.244542749752
 10
2154.061234442488
 20
1094.1346803795
 10
2153.955707664093
 20
1094.018056545452
 10
2153.87116036375
 20
1093.895867965963
 10
2153.808460111172
 20
1093.769368461206
 10
2153.768250295797
 20
1093.639856087281
 10
2153.750943524745
 20
1093.508659816402
 10
2153.756717388904
 20
1093.377125899846
 10
2153.785512640617
 20
1093.24660405359
 10
2153.837033801634
 20
1093.118433608402
 10
2153.910752195124
 20
1092.99392976649
 10
2154.005911370612
 20
1092.874370105755
 10
2154.121534866189
 20
1092.760981470104
 10
2154.256436228324
 20
1092.65492738038
 10
2154.409231186492
 20
1092.557296095056
  0
LWPOLYLINE
  5
3AA
330
38F
100
AcDbEntity
  8
0
  6
Continuous
 62
     7
370
    15
100
AcDbPolyline
 90
       79
 70
   128
 43
0.0
 10
2155.431057817436
 20
1095.641244640334
 10
2155.638227667756
 20
1095.530913791231
 10
2155.860104447954
 20
1095.430564239823
 10
2156.095249201967
 20
1095.34084679146
 10
2156.342136925832
 20
1095.26234329822
 10
2156.599166457924
 20
1095.195562885382
 10
2156.864670863095
 20
1095.140938649548
 10
2157.136928243395
 20
1095.098824849851
 10
2157.41417290524
 20
1095.06949461044
 10
2157.69460681061
 20
1095.053138149173
 10
2157.976411238017
 20
1095.049861543978
 10
2158.257758577613
 20
1095.059686044897
 10
2158.536824183937
 20
1095.082547936272
 10
2158.811798209447
 20
1095.118298949964
 10
2159.080897342072
 20
1095.16670722693
 10
2159.342376370673
 20
1095.22745882092
 10
2159.594539503413
 20
1095.300159734532
 10
2159.835751365614
 20
1095.384338474446
 10
2160.064447605788
 20
1095.47944910923
 10
2160.27914504106
 20
1095.584874809921
 10
2160.478451276175
 20
1095.699931850396
 10
2160.66107373372
 20
1095.823874041594
 10
2160.825828036978
 20
1095.955897570847
 10
2160.971645691073
 20
1096.095146214905
 10
2161.09758101256
 20
1096.240716892877
 10
2161.202817262557
 20
1096.391665523056
 10
2161.286671943599
 20
1096.547013145653
 10
2161.348601225903
 20
1096.705752271723
 10
2161.388203474308
 20
1096.86685341712
 10
2161.405221853035
 20
1097.029271779096
 10
2161.39954599137
 20
1097.19195401225
 10
2161.371212699453
 20
1097.353845059872
 10
2161.320405729553
 20
1097.513894996396
 10
2161.247454584368
 20
1097.671065836568
 10
2161.152832380068
 20
1097.824338267178
 10
2161.037152777956
 20
1097.972718257697
 10
2160.901166004643
 20
1098.11524350695
 10
2160.745753986537
 20
1098.250989684003
 10
2160.571924630209
 20
1098.379076422808
 10
2160.380805285742
 20
1098.498673031713
 10
2160.17363543542
 20
1098.609003880816
 10
2159.951758655223
 20
1098.709353432224
 10
2159.71661390121
 20
1098.799070880587
 10
2159.469726177344
 20
1098.877574373827
 10
2159.212696645253
 20
1098.944354786665
 10
2158.947192240081
 20
1098.998979022498
 10
2158.674934859781
 20
1099.041092822196
 10
2158.397690197936
 20
1099.070423061607
 10
2158.117256292566
 20
1099.086779522874
 10
2157.835451865159
 20
1099.090056128069
 10
2157.554104525564
 20
1099.080231627149
 10
2157.275038919239
 20
1099.057369735775
 10
2157.000064893729
 20
1099.021618722083
 10
2156.730965761105
 20
1098.973210445116
 10
2156.469486732504
 20
1098.912458851127
 10
2156.217323599763
 20
1098.839757937514
 10
2155.976111737563
 20
1098.755579197601
 10
2155.747415497389
 20
1098.660468562816
 10
2155.532718062117
 20
1098.555042862125
 10
2155.333411827001
 20
1098.439985821651
 10
2155.150789369457
 20
1098.316043630452
 10
2154.986035066198
 20
1098.1840201012
 10
2154.840217412104
 20
1098.044771457142
 10
2154.714282090615
 20
1097.89920077917
 10
2154.609045840619
 20
1097.74825214899
 10
2154.525191159577
 20
1097.592904526393
 10
2154.463261877273
 20
1097.434165400324
 10
2154.423659628869
 20
1097.273064254927
 10
2154.406641250141
 20
1097.11064589295
 10
2154.412317111807
 20
1096.947963659797
 10
2154.440650403724
 20
1096.786072612175
 10
2154.491457373623
 20
1096.62602267565
 10
2154.564408518808
 20
1096.468851835478
 10
2154.659030723109
 20
1096.315579404869
 10
2154.77471032522
 20
1096.167199414349
 10
2154.910697098533
 20
1096.024674165096
 10
2155.06610911664
 20
1095.888927988043
 10
2155.239938472968
 20
1095.760841249239
 10
2155.431057817436
 20
1095.641244640334
  0
LINE
  5
3AB
330
38F
100
AcDbEntity
  8
0
  6
Continuous
 62
     7
370
    15
100
AcDbLine
 10
2159.146846620442
 20
1104.762597366806
 30
0.0
 11
2144.580446927999
 21
1096.353593815032
 31
0.0
  0
LINE
  5
3AC
330
38F
100
AcDbEntity
  8
0
  6
Continuous
 62
     7
370
    15
100
AcDbLine
 10
2171.238372578732
 20
1097.782308010722
 30
0.0
 11
2159.146846620442
 21
1104.762597366806
 31
0.0
  0
ARC
  5
3AD
330
38F
100
AcDbEntity
  8
0
  6
Continuous
 62
     7
370
    15
100
AcDbCircle
 10
2157.905931551589
 20
1092.869501456106
 30
0.0
 40
4.658351760142654
100
AcDbArc
 50
46.58704424945685
 51
133.4129557505431
  0
LINE
  5
3AE
330
38F
100
AcDbEntity
  8
0
  6
Continuous
 62
     7
370
    15
100
AcDbLine
 10
2159.146846620442
 20
1084.310114464954
 30
0.0
 11
2159.146846620442
 21
1084.31061209019
 31
0.0
  0
ARC
  5
3AF
330
38F
100
AcDbEntity
  8
0
  6
Continuous
 62
     7
370
    15
100
AcDbCircle
 10
2156.38592118737
 20
1084.38753404829
 30
0.0
 40
2.762010687681789
100
AcDbArc
 50
330.6363881568102
 51
358.3937801311409
  0
LINE
  5
3B0
330
38F
100
AcDbEntity
  8
0
  6
Continuous
 62
     7
370
    15
100
AcDbLine
 10
2160.786469287035
 20
1095.922258834956
 30
0.0
 11
2160.355421294371
 21
1096.85093754164
 31
0.0
  0
LINE
  5
3B1
330
38F
100
AcDbEntity
  8
0
  6
Continuous
 62
     7
370
    15
100
AcDbLine
 10
2160.355421294371
 20
1096.85093754164
 30
0.0
 11
2157.00935607942
 21
1097.36851954468
 31
0.0
  0
LINE
  5
3B2
330
38F
100
AcDbEntity
  8
0
  6
Continuous
 62
     7
370
    15
100
AcDbLine
 10
2157.00935607942
 20
1097.36851954468
 30
0.0
 11
2154.827277872119
 21
1096.108832608795
 31
0.0
  0
LINE
  5
3B3
330
38F
100
AcDbEntity
  8
0
  6
Continuous
 62
     7
370
    15
100
AcDbLine
 10
2171.238372578731
 20
1084.309384614607
 30
0.0
 11
2172.228322072393
 21
1084.880963182927
 31
0.0
  0
LINE
  5
3B4
330
38F
100
AcDbEntity
  8
0
  6
Continuous
 62
     7
370
    15
100
AcDbLine
 10
2171.238372578731
 20
1084.309384614607
 30
0.0
 11
2156.671972886289
 21
1075.900381062833
 31
0.0
  0
LINE
  5
3B5
330
38F
100
AcDbEntity
  8
0
  6
Continuous
 62
     7
370
    15
100
AcDbLine
 10
2156.671972886289
 20
1075.900473952877
 30
0.0
 11
2156.671972886289
 21
1075.900381062833
 31
0.0
  0
LINE
  5
3B6
330
38F
100
AcDbEntity
  8
0
  6
Continuous
 62
     7
370
    15
100
AcDbLine
 10
2156.671972886289
 20
1075.900381062833
 30
0.0
 11
2144.580446927999
 21
1082.880670418918
 31
0.0
  0
LINE
  5
3B7
330
38F
100
AcDbEntity
  8
0
  6
Continuous
 62
     7
370
    15
100
AcDbLine
 10
2143.590497434338
 20
1083.452248987238
 30
0.0
 11
2144.580446927999
 21
1082.880670418918
 31
0.0
  0
LINE
  5
3B8
330
38F
100
AcDbEntity
  8
0
  6
Continuous
 62
     7
370
    15
100
AcDbLine
 10
2160.355421294371
 20
1095.626739555809
 30
0.0
 11
2160.355421294371
 21
1096.85093754164
 31
0.0
  0
LINE
  5
3B9
330
38F
100
AcDbEntity
  8
0
  6
Continuous
 62
     7
370
    15
100
AcDbLine
 10
2157.00935607942
 20
1095.11686964808
 30
0.0
 11
2157.00935607942
 21
1097.36851954468
 31
0.0
  0
LINE
  5
3BA
330
38F
100
AcDbEntity
  8
0
  6
Continuous
 62
     7
370
    15
100
AcDbLine
 10
2167.278574604087
 20
1089.004461107934
 30
0.0
 11
2167.278574604087
 21
1089.004958733171
 31
0.0
  0
ARC
  5
3BB
330
38F
100
AcDbEntity
  8
0
  6
Continuous
 62
     7
370
    15
100
AcDbCircle
 10
2164.517649171015
 20
1089.08188069127
 30
0.0
 40
2.762010687681772
100
AcDbArc
 50
330.6363881568102
 51
358.3937801311539
  0
LINE
  5
3BC
330
38F
100
AcDbEntity
  8
0
  6
Continuous
 62
     8
370
    15
100
AcDbLine
 10
2161.97506418593
 20
1082.88127929328
 30
0.0
 11
2159.322982753684
 21
1084.412293315565
 31
0.0
  0
LINE
  5
3BD
330
38F
100
AcDbEntity
  8
0
  6
Continuous
 62
     8
370
    15
100
AcDbLine
 10
2170.106792169575
 20
1087.57562593626
 30
0.0
 11
2167.45471073733
 21
1089.106639958546
 31
0.0
  0
ENDBLK
  5
391
330
38F
100
AcDbEntity
  8
0
100
AcDbBlockEnd
  0
ENDSEC
  0
SECTION
  2
ENTITIES
  0
INSERT
  5
338
330
1F
100
AcDbEntity
  8
0
100
AcDbBlockReference
  2
1
 10
0.0
 20
0.0
 30
0.0
  0
INSERT
  5
346
330
1F
100
AcDbEntity
  8
0
100
AcDbBlockReference
  2
2
 10
0.0
 20
0.0
 30
0.0
  0
INSERT
  5
38E
330
1F
100
AcDbEntity
  8
0
100
AcDbBlockReference
  2
3
 10
0.0
 20
0.0
 30
0.0
  0
INSERT
  5
3BE
330
1F
100
AcDbEntity
  8
0
100
AcDbBlockReference
  2
4
 10
0.0
 20
0.0
 30
0.0
  0
ENDSEC
  0
SECTION
  2
OBJECTS
  0
DICTIONARY
  5
C
330
0
100
AcDbDictionary
281
     1
  3
ACAD_COLOR
350
6B
  3
ACAD_GROUP
350
D
  3
ACAD_LAYOUT
350
1A
  3
ACAD_MATERIAL
350
6A
  3
ACAD_MLEADERSTYLE
350
12D
  3
ACAD_MLINESTYLE
350
17
  3
ACAD_PLOTSETTINGS
350
19
  3
ACAD_PLOTSTYLENAME
350
E
  3
ACAD_SCALELIST
350
10C
  3
ACAD_TABLESTYLE
350
7E
  3
ACAD_VISUALSTYLE
350
EF
  3
ACDB_RECOMPOSE_DATA
350
15D
  3
AcDbVariableDictionary
350
5E
  3
DWGPROPS
350
3CC
  0
DICTIONARY
  5
13C
330
10
100
AcDbDictionary
280
     1
281
     1
  3
ADSK_XREC_LAYER_RECONCILED
360
3BF
  0
DICTIONARY
  5
6B
102
{ACAD_REACTORS
330
C
102
}
330
C
100
AcDbDictionary
281
     1
  0
DICTIONARY
  5
D
102
{ACAD_REACTORS
330
C
102
}
330
C
100
AcDbDictionary
281
     1
  0
DICTIONARY
  5
1A
102
{ACAD_REACTORS
330
C
102
}
330
C
100
AcDbDictionary
281
     1
  3
Layout1
350
D3
  3
Layout2
350
D7
  3
Model
350
22
  0
DICTIONARY
  5
6A
102
{ACAD_REACTORS
330
C
102
}
330
C
100
AcDbDictionary
281
     1
  3
ByBlock
350
ED
  3
ByLayer
350
EC
  3
Global
350
EE
  0
DICTIONARY
  5
12D
102
{ACAD_REACTORS
330
C
102
}
330
C
100
AcDbDictionary
281
     1
  3
Annotative
350
13B
  3
Standard
350
12E
  0
DICTIONARY
  5
17
102
{ACAD_REACTORS
330
C
102
}
330
C
100
AcDbDictionary
281
     1
  3
Standard
350
18
  0
DICTIONARY
  5
19
102
{ACAD_REACTORS
330
C
102
}
330
C
100
AcDbDictionary
281
     1
  0
ACDBDICTIONARYWDFLT
  5
E
102
{ACAD_REACTORS
330
C
102
}
330
C
100
AcDbDictionary
281
     1
  3
Normal
350
F
100
AcDbDictionaryWithDefault
340
F
  0
DICTIONARY
  5
10C
102
{ACAD_REACTORS
330
C
102
}
330
C
100
AcDbDictionary
281
     1
  3
A0
350
10D
  3
A1
350
188
  3
A2
350
189
  3
A3
350
18A
  3
A4
350
18B
  3
A5
350
18C
  3
A6
350
18D
  3
A7
350
18E
  3
A8
350
18F
  3
A9
350
190
  3
B0
350
191
  3
B1
350
192
  3
B2
350
193
  3
B3
350
194
  3
B4
350
195
  3
B5
350
196
  3
B6
350
197
  3
B7
350
198
  3
B8
350
199
  3
B9
350
19A
  3
C0
350
19B
  3
C1
350
19C
  3
C2
350
19D
  3
C3
350
19E
  3
C4
350
19F
  3
C5
350
1A0
  3
C6
350
1A1
  3
C7
350
1A2
  3
C8
350
1A3
  3
C9
350
1A4
  3
D0
350
1A5
  3
D1
350
1A6
  3
D2
350
1A7
  0
DICTIONARY
  5
7E
102
{ACAD_REACTORS
330
C
102
}
330
C
100
AcDbDictionary
281
     1
  3
Standard
350
7F
  0
DICTIONARY
  5
EF
102
{ACAD_REACTORS
330
C
102
}
330
C
100
AcDbDictionary
281
     1
  3
2dWireframe
350
F5
  3
3D Hidden
350
F7
  3
3dWireframe
350
F6
  3
Basic
350
F4
  3
Brighten
350
FB
  3
ColorChange
350
FF
  3
Conceptual
350
F8
  3
Dim
350
FA
  3
Facepattern
350
FE
  3
Flat
350
F0
  3
FlatWithEdges
350
F1
  3
Gouraud
350
F2
  3
GouraudWithEdges
350
F3
  3
Linepattern
350
FD
  3
Realistic
350
F9
  3
Thicken
350
FC
  0
XRECORD
  5
15D
102
{ACAD_REACTORS
330
C
102
}
330
C
100
AcDbXrecord
280
     1
 90
        1
330
7F
  0
DICTIONARY
  5
5E
102
{ACAD_REACTORS
330
C
102
}
330
C
100
AcDbDictionary
281
     1
  3
CANNOSCALE
350
146
  3
CMLEADERSTYLE
350
145
  3
CTABLESTYLE
350
84
  3
DIMASSOC
350
5F
  3
HIDETEXT
350
63
  3
INDEXCTL
350
3C8
  3
LIGHTINGUNITS
350
3C6
  3
MSLTSCALE
350
3C5
  3
PSOLHEIGHT
350
3CA
  3
PSOLWIDTH
350
3C9
  3
SORTENTS
350
3C7
  0
XRECORD
  5
3CC
102
{ACAD_REACTORS
330
C
102
}
330
C
100
AcDbXrecord
280
     1
  1
DWGPROPS COOKIE
  2

  3

  4

  6

  7

  8
orhan kara
  9

300
=
301
=
302
=
303
=
304
=
305
=
306
=
307
=
308
=
309
=
 40
0.0003194907407407
 41
2458522.577544468
 42
2459083.676847952
  1

 90
        0
  0
XRECORD
  5
3BF
102
{ACAD_REACTORS
330
13C
102
}
330
13C
100
AcDbXrecord
280
     1
290
     1
  0
LAYOUT
  5
D3
102
{ACAD_XDICTIONARY
360
3D0
102
}
102
{ACAD_REACTORS
330
1A
102
}
330
1A
100
AcDbPlotSettings
  1

  2
C:\Documents and Settings\basas\Application Data\Autodesk\AutoCAD 2005\R16.1\enu\plotters\Default Windows System Printer.pc3
  4

  6

 40
0.0
 41
0.0
 42
0.0
 43
0.0
 44
0.0
 45
0.0
 46
0.0
 47
0.0
 48
0.0
 49
0.0
140
0.0
141
0.0
142
1.0
143
1.0
 70
   688
 72
     0
 73
     0
 74
     5
  7

 75
    16
147
1.0
148
0.0
149
0.0
100
AcDbLayout
  1
Layout1
 70
     1
 71
     1
 10
0.0
 20
0.0
 11
12.0
 21
9.0
 12
0.0
 22
0.0
 32
0.0
 14
0.0
 24
0.0
 34
0.0
 15
0.0
 25
0.0
 35
0.0
146
0.0
 13
0.0
 23
0.0
 33
0.0
 16
1.0
 26
0.0
 36
0.0
 17
0.0
 27
1.0
 37
0.0
 76
     0
330
D2
  0
LAYOUT
  5
D7
102
{ACAD_XDICTIONARY
360
3D2
102
}
102
{ACAD_REACTORS
330
1A
102
}
330
1A
100
AcDbPlotSettings
  1

  2
C:\Documents and Settings\basas\Application Data\Autodesk\AutoCAD 2005\R16.1\enu\plotters\Default Windows System Printer.pc3
  4

  6

 40
0.0
 41
0.0
 42
0.0
 43
0.0
 44
0.0
 45
0.0
 46
0.0
 47
0.0
 48
0.0
 49
0.0
140
0.0
141
0.0
142
1.0
143
1.0
 70
   688
 72
     0
 73
     0
 74
     5
  7

 75
    16
147
1.0
148
0.0
149
0.0
100
AcDbLayout
  1
Layout2
 70
     1
 71
     2
 10
0.0
 20
0.0
 11
12.0
 21
9.0
 12
0.0
 22
0.0
 32
0.0
 14
0.0
 24
0.0
 34
0.0
 15
0.0
 25
0.0
 35
0.0
146
0.0
 13
0.0
 23
0.0
 33
0.0
 16
1.0
 26
0.0
 36
0.0
 17
0.0
 27
1.0
 37
0.0
 76
     0
330
D6
  0
LAYOUT
  5
22
102
{ACAD_XDICTIONARY
360
3CD
102
}
102
{ACAD_REACTORS
330
1A
102
}
330
1A
100
AcDbPlotSettings
  1

  2
none_device
  4
ISO_A4_(210.00_x_297.00_MM)
  6

 40
7.5
 41
20.0
 42
7.5
 43
20.0
 44
210.0
 45
297.0
 46
11.54999923706054
 47
-13.65000009536743
 48
0.0
 49
0.0
140
0.0
141
0.0
142
1.0
143
8.704084754739808
 70
 11952
 72
     1
 73
     0
 74
     0
  7

 75
     0
147
0.1148885871608098
148
0.0
149
0.0
100
AcDbLayout
  1
Model
 70
     1
 71
     0
 10
0.0
 20
0.0
 11
12.0
 21
9.0
 12
0.0
 22
0.0
 32
0.0
 14
0.0
 24
0.0
 34
0.0
 15
0.0
 25
0.0
 35
0.0
146
0.0
 13
0.0
 23
0.0
 33
0.0
 16
1.0
 26
0.0
 36
0.0
 17
0.0
 27
1.0
 37
0.0
 76
     0
330
1F
331
EA
1001
ACAD_PSEXT
1000
None
1000
None
1000
Not applicable
1000
The layout will not be plotted unless a new plotter configuration name is selected.
1070
     0
  0
MATERIAL
  5
ED
102
{ACAD_XDICTIONARY
360
3D6
102
}
102
{ACAD_REACTORS
330
6A
102
}
330
6A
100
AcDbMaterial
  1
ByBlock
  0
MATERIAL
  5
EC
102
{ACAD_XDICTIONARY
360
3D4
102
}
102
{ACAD_REACTORS
330
6A
102
}
330
6A
100
AcDbMaterial
  1
ByLayer
  0
MATERIAL
  5
EE
102
{ACAD_XDICTIONARY
360
173
102
}
102
{ACAD_REACTORS
330
6A
102
}
330
6A
100
AcDbMaterial
  1
Global
 43
0.0007999999797903
 43
0.0
 43
0.0
 43
0.0
 43
0.0
 43
0.0007999999797903
 43
0.0
 43
0.0
 43
0.0
 43
0.0
 43
1.0
 43
0.0
 43
0.0
 43
0.0
 43
0.0
 43
1.0
 49
0.0007999999797903
 49
0.0
 49
0.0
 49
0.0
 49
0.0
 49
0.0007999999797903
 49
0.0
 49
0.0
 49
0.0
 49
0.0
 49
1.0
 49
0.0
 49
0.0
 49
0.0
 49
0.0
 49
1.0
142
0.0007999999797903
142
0.0
142
0.0
142
0.0
142
0.0
142
0.0007999999797903
142
0.0
142
0.0
142
0.0
142
0.0
142
1.0
142
0.0
142
0.0
142
0.0
142
0.0
142
1.0
144
0.0007999999797903
144
0.0
144
0.0
144
0.0
144
0.0
144
0.0007999999797903
144
0.0
144
0.0
144
0.0
144
0.0
144
1.0
144
0.0
144
0.0
144
0.0
144
0.0
144
1.0
1001
ACAD
1070
    -1
1070
     3
1070
     0
1000

1071
        0
1070
     0
  0
MLEADERSTYLE
  5
13B
102
{ACAD_REACTORS
330
12D
102
}
330
12D
100
AcDbMLeaderStyle
170
     2
171
     1
172
     0
 90
        2
 40
0.0
 41
0.0
173
     1
 91
-1056964608
340
14
 92
       -2
290
     1
 42
2.0
291
     1
 43
8.0
  3
Standard
 44
4.0
300

342
11
174
     1
178
     1
175
     1
176
     0
 93
-1056964608
 45
4.0
292
     0
297
     0
 46
4.0
 94
-1056964608
 47
1.0
 49
1.0
140
1.0
293
     1
141
0.0
294
     1
177
     0
142
1.0
295
     0
296
     1
143
3.75
1001
ACAD_MLEADERVER
1070
     2
  0
MLEADERSTYLE
  5
12E
102
{ACAD_REACTORS
330
12D
102
}
330
12D
100
AcDbMLeaderStyle
170
     2
171
     1
172
     0
 90
        2
 40
0.0
 41
0.0
173
     1
 91
-1056964608
340
14
 92
       -2
290
     1
 42
2.0
291
     1
 43
8.0
  3
Standard
 44
4.0
300

342
11
174
     1
178
     1
175
     1
176
     0
 93
-1056964608
 45
4.0
292
     0
297
     0
 46
4.0
 94
-1056964608
 47
1.0
 49
1.0
140
1.0
293
     1
141
0.0
294
     1
177
     0
142
1.0
295
     0
296
     0
143
3.75
1001
ACAD_MLEADERVER
1070
     2
  0
MLINESTYLE
  5
18
102
{ACAD_REACTORS
330
17
102
}
330
17
100
AcDbMlineStyle
  2
STANDARD
 70
     0
  3

 62
   256
 51
90.0
 52
90.0
 71
     2
 49
0.5
 62
   256
  6
BYLAYER
 49
-0.5
 62
   256
  6
BYLAYER
  0
ACDBPLACEHOLDER
  5
F
102
{ACAD_REACTORS
330
E
102
}
330
E
  0
SCALE
  5
10D
102
{ACAD_REACTORS
330
10C
102
}
330
10C
100
AcDbScale
 70
     0
300
1:1
140
1.0
141
1.0
290
     1
  0
SCALE
  5
188
102
{ACAD_REACTORS
330
10C
102
}
330
10C
100
AcDbScale
 70
     0
300
1:2
140
1.0
141
2.0
290
     0
  0
SCALE
  5
189
102
{ACAD_REACTORS
330
10C
102
}
330
10C
100
AcDbScale
 70
     0
300
1:4
140
1.0
141
4.0
290
     0
  0
SCALE
  5
18A
102
{ACAD_REACTORS
330
10C
102
}
330
10C
100
AcDbScale
 70
     0
300
1:5
140
1.0
141
5.0
290
     0
  0
SCALE
  5
18B
102
{ACAD_REACTORS
330
10C
102
}
330
10C
100
AcDbScale
 70
     0
300
1:8
140
1.0
141
8.0
290
     0
  0
SCALE
  5
18C
102
{ACAD_REACTORS
330
10C
102
}
330
10C
100
AcDbScale
 70
     0
300
1:10
140
1.0
141
10.0
290
     0
  0
SCALE
  5
18D
102
{ACAD_REACTORS
330
10C
102
}
330
10C
100
AcDbScale
 70
     0
300
1:16
140
1.0
141
16.0
290
     0
  0
SCALE
  5
18E
102
{ACAD_REACTORS
330
10C
102
}
330
10C
100
AcDbScale
 70
     0
300
1:20
140
1.0
141
20.0
290
     0
  0
SCALE
  5
18F
102
{ACAD_REACTORS
330
10C
102
}
330
10C
100
AcDbScale
 70
     0
300
1:30
140
1.0
141
30.0
290
     0
  0
SCALE
  5
190
102
{ACAD_REACTORS
330
10C
102
}
330
10C
100
AcDbScale
 70
     0
300
1:40
140
1.0
141
40.0
290
     0
  0
SCALE
  5
191
102
{ACAD_REACTORS
330
10C
102
}
330
10C
100
AcDbScale
 70
     0
300
1:50
140
1.0
141
50.0
290
     0
  0
SCALE
  5
192
102
{ACAD_REACTORS
330
10C
102
}
330
10C
100
AcDbScale
 70
     0
300
1:100
140
1.0
141
100.0
290
     0
  0
SCALE
  5
193
102
{ACAD_REACTORS
330
10C
102
}
330
10C
100
AcDbScale
 70
     0
300
2:1
140
2.0
141
1.0
290
     0
  0
SCALE
  5
194
102
{ACAD_REACTORS
330
10C
102
}
330
10C
100
AcDbScale
 70
     0
300
4:1
140
4.0
141
1.0
290
     0
  0
SCALE
  5
195
102
{ACAD_REACTORS
330
10C
102
}
330
10C
100
AcDbScale
 70
     0
300
8:1
140
8.0
141
1.0
290
     0
  0
SCALE
  5
196
102
{ACAD_REACTORS
330
10C
102
}
330
10C
100
AcDbScale
 70
     0
300
10:1
140
10.0
141
1.0
290
     0
  0
SCALE
  5
197
102
{ACAD_REACTORS
330
10C
102
}
330
10C
100
AcDbScale
 70
     0
300
100:1
140
100.0
141
1.0
290
     0
  0
SCALE
  5
198
102
{ACAD_REACTORS
330
10C
102
}
330
10C
100
AcDbScale
 70
     0
300
1/128" = 1'-0"
140
0.0078125
141
12.0
290
     0
  0
SCALE
  5
199
102
{ACAD_REACTORS
330
10C
102
}
330
10C
100
AcDbScale
 70
     0
300
1/64" = 1'-0"
140
0.015625
141
12.0
290
     0
  0
SCALE
  5
19A
102
{ACAD_REACTORS
330
10C
102
}
330
10C
100
AcDbScale
 70
     0
300
1/32" = 1'-0"
140
0.03125
141
12.0
290
     0
  0
SCALE
  5
19B
102
{ACAD_REACTORS
330
10C
102
}
330
10C
100
AcDbScale
 70
     0
300
1/16" = 1'-0"
140
0.0625
141
12.0
290
     0
  0
SCALE
  5
19C
102
{ACAD_REACTORS
330
10C
102
}
330
10C
100
AcDbScale
 70
     0
300
3/32" = 1'-0"
140
0.09375
141
12.0
290
     0
  0
SCALE
  5
19D
102
{ACAD_REACTORS
330
10C
102
}
330
10C
100
AcDbScale
 70
     0
300
1/8" = 1'-0"
140
0.125
141
12.0
290
     0
  0
SCALE
  5
19E
102
{ACAD_REACTORS
330
10C
102
}
330
10C
100
AcDbScale
 70
     0
300
3/16" = 1'-0"
140
0.1875
141
12.0
290
     0
  0
SCALE
  5
19F
102
{ACAD_REACTORS
330
10C
102
}
330
10C
100
AcDbScale
 70
     0
300
1/4" = 1'-0"
140
0.25
141
12.0
290
     0
  0
SCALE
  5
1A0
102
{ACAD_REACTORS
330
10C
102
}
330
10C
100
AcDbScale
 70
     0
300
3/8" = 1'-0"
140
0.375
141
12.0
290
     0
  0
SCALE
  5
1A1
102
{ACAD_REACTORS
330
10C
102
}
330
10C
100
AcDbScale
 70
     0
300
1/2" = 1'-0"
140
0.5
141
12.0
290
     0
  0
SCALE
  5
1A2
102
{ACAD_REACTORS
330
10C
102
}
330
10C
100
AcDbScale
 70
     0
300
3/4" = 1'-0"
140
0.75
141
12.0
290
     0
  0
SCALE
  5
1A3
102
{ACAD_REACTORS
330
10C
102
}
330
10C
100
AcDbScale
 70
     0
300
1" = 1'-0"
140
1.0
141
12.0
290
     0
  0
SCALE
  5
1A4
102
{ACAD_REACTORS
330
10C
102
}
330
10C
100
AcDbScale
 70
     0
300
1-1/2" = 1'-0"
140
1.5
141
12.0
290
     0
  0
SCALE
  5
1A5
102
{ACAD_REACTORS
330
10C
102
}
330
10C
100
AcDbScale
 70
     0
300
3" = 1'-0"
140
3.0
141
12.0
290
     0
  0
SCALE
  5
1A6
102
{ACAD_REACTORS
330
10C
102
}
330
10C
100
AcDbScale
 70
     0
300
6" = 1'-0"
140
6.0
141
12.0
290
     0
  0
SCALE
  5
1A7
102
{ACAD_REACTORS
330
10C
102
}
330
10C
100
AcDbScale
 70
     0
300
1'-0" = 1'-0"
140
12.0
141
12.0
290
     0
  0
TABLESTYLE
  5
7F
102
{ACAD_XDICTIONARY
360
162
102
}
102
{ACAD_REACTORS
330
7E
102
}
330
7E
100
AcDbTableStyle
  3
Standard
 70
     0
 71
     0
 40
1.5
 41
1.5
280
     0
281
     0
  7
Standard
140
4.5
170
     2
 62
     0
 63
     7
283
     0
274
    -2
284
     1
 64
     0
275
    -2
285
     1
 65
     0
276
    -2
286
     1
 66
     0
277
    -2
287
     1
 67
     0
278
    -2
288
     1
 68
     0
279
    -2
289
     1
 69
     0
  7
Standard
140
6.0
170
     5
 62
     0
 63
     7
283
     0
274
    -2
284
     1
 64
     0
275
    -2
285
     1
 65
     0
276
    -2
286
     1
 66
     0
277
    -2
287
     1
 67
     0
278
    -2
288
     1
 68
     0
279
    -2
289
     1
 69
     0
  7
Standard
140
4.5
170
     5
 62
     0
 63
     7
283
     0
274
    -2
284
     1
 64
     0
275
    -2
285
     1
 65
     0
276
    -2
286
     1
 66
     0
277
    -2
287
     1
 67
     0
278
    -2
288
     1
 68
     0
279
    -2
289
     1
 69
     0
  0
VISUALSTYLE
  5
F5
102
{ACAD_REACTORS
330
EF
102
}
330
EF
100
AcDbVisualStyle
  2
2dWireframe
 70
     4
 71
     0
 72
     2
 73
     1
 90
        0
 40
-0.6
 41
-30.0
 62
     5
 63
     7
 74
     1
 91
        4
 64
     7
 65
   257
 75
     1
175
     1
 42
1.0
 92
        0
 66
   257
 43
1.0
 76
     1
 77
     6
 78
     2
 67
     7
 79
     5
170
     0
171
     0
290
     0
174
     0
 93
        1
 44
0.0
173
     0
291
     0
 45
0.0
1001
ACAD
1000
AcDbSavedByObjectVersion
1070
     0
  0
VISUALSTYLE
  5
F7
102
{ACAD_REACTORS
330
EF
102
}
330
EF
100
AcDbVisualStyle
  2
3D Hidden
 70
     6
 71
     1
 72
     2
 73
     2
 90
        0
 40
-0.6
 41
-30.0
 62
     5
 63
     7
 74
     2
 91
        2
 64
     7
 65
   257
 75
     2
175
     1
 42
40.0
 92
        0
 66
   257
 43
1.0
 76
     1
 77
     6
 78
     2
 67
     7
 79
     3
170
     0
171
     0
290
     0
174
     0
 93
        1
 44
0.0
173
     0
291
     0
 45
0.0
1001
ACAD
1000
AcDbSavedByObjectVersion
1070
     0
  0
VISUALSTYLE
  5
F6
102
{ACAD_REACTORS
330
EF
102
}
330
EF
100
AcDbVisualStyle
  2
3dWireframe
 70
     5
 71
     0
 72
     2
 73
     1
 90
        0
 40
-0.6
 41
-30.0
 62
     5
 63
     7
 74
     1
 91
        4
 64
     7
 65
   257
 75
     1
175
     1
 42
1.0
 92
        0
 66
   257
 43
1.0
 76
     1
 77
     6
 78
     2
 67
     7
 79
     5
170
     0
171
     0
290
     0
174
     0
 93
        1
 44
0.0
173
     0
291
     0
 45
0.0
1001
ACAD
1000
AcDbSavedByObjectVersion
1070
     0
  0
VISUALSTYLE
  5
F4
102
{ACAD_REACTORS
330
EF
102
}
330
EF
100
AcDbVisualStyle
  2
Basic
 70
     7
 71
     1
 72
     0
 73
     1
 90
        0
 40
-0.6
 41
-30.0
 62
     5
 63
     7
 74
     0
 91
        4
 64
     7
 65
   257
 75
     1
175
     1
 42
1.0
 92
        8
 66
     7
 43
1.0
 76
     1
 77
     6
 78
     2
 67
     7
 79
     5
170
     0
171
     0
290
     0
174
     0
 93
        1
 44
0.0
173
     0
291
     1
 45
0.0
1001
ACAD
1000
AcDbSavedByObjectVersion
1070
     0
  0
VISUALSTYLE
  5
FB
102
{ACAD_REACTORS
330
EF
102
}
330
EF
100
AcDbVisualStyle
  2
Brighten
 70
    12
 71
     2
 72
     2
 73
     1
 90
        0
 40
-0.6
 41
-30.0
 62
     5
 63
     7
 74
     1
 91
        4
 64
     7
 65
   257
 75
     1
175
     1
 42
1.0
 92
        8
 66
     7
 43
1.0
 76
     1
 77
     6
 78
     2
 67
     7
 79
     5
170
     0
171
     0
290
     0
174
     0
 93
        1
 44
50.0
173
     0
291
     1
 45
0.0
1001
ACAD
1000
AcDbSavedByObjectVersion
1070
     0
  0
VISUALSTYLE
  5
FF
102
{ACAD_REACTORS
330
EF
102
}
330
EF
100
AcDbVisualStyle
  2
ColorChange
 70
    16
 71
     2
 72
     2
 73
     3
 90
        0
 40
-0.6
 41
-30.0
 62
     5
 63
     8
 74
     1
 91
        4
 64
     7
 65
   257
 75
     1
175
     1
 42
1.0
 92
        8
 66
     8
 43
1.0
 76
     1
 77
     6
 78
     2
 67
     7
 79
     5
170
     0
171
     0
290
     0
174
     0
 93
        1
 44
0.0
173
     0
291
     1
 45
0.0
1001
ACAD
1000
AcDbSavedByObjectVersion
1070
     0
  0
VISUALSTYLE
  5
F8
102
{ACAD_REACTORS
330
EF
102
}
330
EF
100
AcDbVisualStyle
  2
Conceptual
 70
     9
 71
     3
 72
     2
 73
     1
 90
        0
 40
-0.6
 41
-30.0
 62
     5
 63
     7
 74
     2
 91
        2
 64
     7
 65
   257
 75
     1
175
     1
 42
40.0
 92
        8
 66
     7
 43
1.0
 76
     1
 77
     6
 78
     2
 67
     7
 79
     3
170
     0
171
     0
290
     0
174
     0
 93
        1
 44
0.0
173
     0
291
     0
 45
0.0
1001
ACAD
1000
AcDbSavedByObjectVersion
1070
     0
  0
VISUALSTYLE
  5
FA
102
{ACAD_REACTORS
330
EF
102
}
330
EF
100
AcDbVisualStyle
  2
Dim
 70
    11
 71
     2
 72
     2
 73
     1
 90
        0
 40
-0.6
 41
-30.0
 62
     5
 63
     7
 74
     1
 91
        4
 64
     7
 65
   257
 75
     1
175
     1
 42
1.0
 92
        8
 66
     7
 43
1.0
 76
     1
 77
     6
 78
     2
 67
     7
 79
     5
170
     0
171
     0
290
     0
174
     0
 93
        1
 44
-50.0
173
     0
291
     1
 45
0.0
1001
ACAD
1000
AcDbSavedByObjectVersion
1070
     0
  0
VISUALSTYLE
  5
FE
102
{ACAD_REACTORS
330
EF
102
}
330
EF
100
AcDbVisualStyle
  2
Facepattern
 70
    15
 71
     2
 72
     2
 73
     1
 90
        0
 40
-0.6
 41
-30.0
 62
     5
 63
     7
 74
     1
 91
        4
 64
     7
 65
   257
 75
     1
175
     1
 42
1.0
 92
        8
 66
     7
 43
1.0
 76
     1
 77
     6
 78
     2
 67
     7
 79
     5
170
     0
171
     0
290
     0
174
     0
 93
        1
 44
0.0
173
     0
291
     1
 45
0.0
1001
ACAD
1000
AcDbSavedByObjectVersion
1070
     0
  0
VISUALSTYLE
  5
F0
102
{ACAD_REACTORS
330
EF
102
}
330
EF
100
AcDbVisualStyle
  2
Flat
 70
     0
 71
     2
 72
     1
 73
     1
 90
        2
 40
-0.6
 41
30.0
 62
     5
 63
     7
 74
     0
 91
        4
 64
     7
 65
   257
 75
     1
175
     1
 42
1.0
 92
        8
 66
     7
 43
1.0
 76
     1
 77
     6
 78
     2
 67
     7
 79
     5
170
     0
171
     0
290
     0
174
     0
 93
        1
 44
0.0
173
     0
291
     1
 45
0.0
1001
ACAD
1000
AcDbSavedByObjectVersion
1070
     0
  0
VISUALSTYLE
  5
F1
102
{ACAD_REACTORS
330
EF
102
}
330
EF
100
AcDbVisualStyle
  2
FlatWithEdges
 70
     1
 71
     2
 72
     1
 73
     1
 90
        2
 40
-0.6
 41
30.0
 62
     5
 63
     7
 74
     1
 91
        4
 64
     7
 65
   257
 75
     1
175
     1
 42
1.0
 92
        0
 66
   257
 43
1.0
 76
     1
 77
     6
 78
     2
 67
     7
 79
     5
170
     0
171
     0
290
     0
174
     0
 93
        1
 44
0.0
173
     0
291
     1
 45
0.0
1001
ACAD
1000
AcDbSavedByObjectVersion
1070
     0
  0
VISUALSTYLE
  5
F2
102
{ACAD_REACTORS
330
EF
102
}
330
EF
100
AcDbVisualStyle
  2
Gouraud
 70
     2
 71
     2
 72
     2
 73
     1
 90
        2
 40
-0.6
 41
30.0
 62
     5
 63
     7
 74
     0
 91
        4
 64
     7
 65
   257
 75
     1
175
     1
 42
1.0
 92
        0
 66
     7
 43
1.0
 76
     1
 77
     6
 78
     2
 67
     7
 79
     5
170
     0
171
     0
290
     0
174
     0
 93
        1
 44
0.0
173
     0
291
     1
 45
0.0
1001
ACAD
1000
AcDbSavedByObjectVersion
1070
     0
  0
VISUALSTYLE
  5
F3
102
{ACAD_REACTORS
330
EF
102
}
330
EF
100
AcDbVisualStyle
  2
GouraudWithEdges
 70
     3
 71
     2
 72
     2
 73
     1
 90
        2
 40
-0.6
 41
30.0
 62
     5
 63
     7
 74
     1
 91
        4
 64
     7
 65
   257
 75
     1
175
     1
 42
1.0
 92
        0
 66
   257
 43
1.0
 76
     1
 77
     6
 78
     2
 67
     7
 79
     5
170
     0
171
     0
290
     0
174
     0
 93
        1
 44
0.0
173
     0
291
     1
 45
0.0
1001
ACAD
1000
AcDbSavedByObjectVersion
1070
     0
  0
VISUALSTYLE
  5
FD
102
{ACAD_REACTORS
330
EF
102
}
330
EF
100
AcDbVisualStyle
  2
Linepattern
 70
    14
 71
     2
 72
     2
 73
     1
 90
        0
 40
-0.6
 41
-30.0
 62
     5
 63
     7
 74
     1
 91
        4
 64
     7
 65
   257
 75
     7
175
     7
 42
1.0
 92
        8
 66
     7
 43
1.0
 76
     1
 77
     6
 78
     2
 67
     7
 79
     5
170
     0
171
     0
290
     0
174
     0
 93
        1
 44
0.0
173
     0
291
     1
 45
0.0
1001
ACAD
1000
AcDbSavedByObjectVersion
1070
     0
  0
VISUALSTYLE
  5
F9
102
{ACAD_REACTORS
330
EF
102
}
330
EF
100
AcDbVisualStyle
  2
Realistic
 70
     8
 71
     2
 72
     2
 73
     1
 90
        0
 40
-0.6
 41
-30.0
 62
     5
 63
     7
 74
     1
 91
        0
 64
     7
 65
   257
 75
     1
175
     1
 42
1.0
 92
        8
 66
     8
 43
1.0
 76
     1
 77
     6
 78
     2
 67
     7
 79
     5
170
     0
171
     0
290
     0
174
     0
 93
       13
 44
0.0
173
     0
291
     0
 45
0.0
1001
ACAD
1000
AcDbSavedByObjectVersion
1070
     0
  0
VISUALSTYLE
  5
FC
102
{ACAD_REACTORS
330
EF
102
}
330
EF
100
AcDbVisualStyle
  2
Thicken
 70
    13
 71
     2
 72
     2
 73
     1
 90
        0
 40
-0.6
 41
-30.0
 62
     5
 63
     7
 74
     1
 91
        4
 64
     7
 65
   257
 75
     1
175
     1
 42
1.0
 92
       12
 66
     7
 43
1.0
 76
     1
 77
     6
 78
     2
 67
     7
 79
     5
170
     0
171
     0
290
     0
174
     0
 93
        1
 44
0.0
173
     0
291
     1
 45
0.0
1001
ACAD
1000
AcDbSavedByObjectVersion
1070
     0
  0
DICTIONARYVAR
  5
146
102
{ACAD_REACTORS
330
5E
102
}
330
5E
100
DictionaryVariables
280
     0
  1
1:1
  0
DICTIONARYVAR
  5
145
102
{ACAD_REACTORS
330
5E
102
}
330
5E
100
DictionaryVariables
280
     0
  1
STANDARD
  0
DICTIONARYVAR
  5
84
102
{ACAD_REACTORS
330
5E
102
}
330
5E
100
DictionaryVariables
280
     0
  1
STANDARD
  0
DICTIONARYVAR
  5
5F
102
{ACAD_REACTORS
330
5E
102
}
330
5E
100
DictionaryVariables
280
     0
  1
2
  0
DICTIONARYVAR
  5
63
102
{ACAD_REACTORS
330
5E
102
}
330
5E
100
DictionaryVariables
280
     0
  1
1
  0
DICTIONARYVAR
  5
3C8
102
{ACAD_REACTORS
330
5E
102
}
330
5E
100
DictionaryVariables
280
     0
  1
0
  0
DICTIONARYVAR
  5
3C6
102
{ACAD_REACTORS
330
5E
102
}
330
5E
100
DictionaryVariables
280
     0
  1
2
  0
DICTIONARYVAR
  5
3C5
102
{ACAD_REACTORS
330
5E
102
}
330
5E
100
DictionaryVariables
280
     0
  1
1
  0
DICTIONARYVAR
  5
3CA
102
{ACAD_REACTORS
330
5E
102
}
330
5E
100
DictionaryVariables
280
     0
  1
80.000000
  0
DICTIONARYVAR
  5
3C9
102
{ACAD_REACTORS
330
5E
102
}
330
5E
100
DictionaryVariables
280
     0
  1
5.000000
  0
DICTIONARYVAR
  5
3C7
102
{ACAD_REACTORS
330
5E
102
}
330
5E
100
DictionaryVariables
280
     0
  1
127
  0
DICTIONARY
  5
3D0
330
D3
100
AcDbDictionary
280
     1
281
     1
  3
ACAD_XREC_ROUNDTRIP
360
3D1
  0
DICTIONARY
  5
3D2
330
D7
100
AcDbDictionary
280
     1
281
     1
  3
ACAD_XREC_ROUNDTRIP
360
3D3
  0
DICTIONARY
  5
3CD
330
22
100
AcDbDictionary
280
     1
281
     1
  3
ACAD_XREC_ROUNDTRIP
360
3CE
  0
DICTIONARY
  5
3D6
330
ED
100
AcDbDictionary
280
     1
281
     1
  3
ACAD_XREC_ROUNDTRIP
360
3D7
  0
DICTIONARY
  5
3D4
330
EC
100
AcDbDictionary
280
     1
281
     1
  3
ACAD_XREC_ROUNDTRIP
360
3D5
  0
DICTIONARY
  5
173
330
EE
100
AcDbDictionary
280
     1
281
     1
  3
ACAD_XREC_ROUNDTRIP
360
3D8
  3
BUMPTILE
360
175
  3
DIFFUSETILE
360
174
  3
OPACITYTILE
360
176
  3
REFLECTIONTILE
360
177
  0
DICTIONARY
  5
162
330
7F
100
AcDbDictionary
280
     1
281
     1
  3
ACAD_ROUNDTRIP_2008_TABLESTYLE_CELLSTYLEMAP
360
3CB
  3
ACAD_XREC_ROUNDTRIP
360
3CF
  0
XRECORD
  5
3D1
102
{ACAD_REACTORS
330
3D0
102
}
330
3D0
100
AcDbXrecord
280
     1
102
SHADEPLOT
 70
     0
102
SHADEPLOTRESLEVEL
 70
     2
102
SHADEPLOTCUSTOMDPI
 70
   300
  0
XRECORD
  5
3D3
102
{ACAD_REACTORS
330
3D2
102
}
330
3D2
100
AcDbXrecord
280
     1
102
SHADEPLOT
 70
     0
102
SHADEPLOTRESLEVEL
 70
     2
102
SHADEPLOTCUSTOMDPI
 70
   300
  0
XRECORD
  5
3CE
102
{ACAD_REACTORS
330
3CD
102
}
330
3CD
100
AcDbXrecord
280
     1
102
SHADEPLOT
 70
     0
102
SHADEPLOTRESLEVEL
 70
     2
102
SHADEPLOTCUSTOMDPI
 70
   300
  0
XRECORD
  5
3D7
102
{ACAD_REACTORS
330
3D6
102
}
330
3D6
100
AcDbXrecord
280
     1
102
MATERIAL
148
0.0
149
0.0
149
0.0
 93
        0
 94
       63
282
     0
 72
     1
 77
     1
171
     1
175
     1
179
     1
273
     0
  0
XRECORD
  5
3D5
102
{ACAD_REACTORS
330
3D4
102
}
330
3D4
100
AcDbXrecord
280
     1
102
MATERIAL
148
0.0
149
0.0
149
0.0
 93
        0
 94
       63
282
     0
 72
     1
 77
     1
171
     1
175
     1
179
     1
273
     0
  0
XRECORD
  5
3D8
102
{ACAD_REACTORS
330
173
102
}
330
173
100
AcDbXrecord
280
     1
102
MATERIAL
148
0.0
149
0.0
149
0.0
 93
        0
 94
       63
282
     0
 72
     1
 77
     1
171
     1
175
     1
179
     1
273
     0
  0
XRECORD
  5
175
102
{ACAD_REACTORS
330
173
102
}
330
173
100
AcDbXrecord
280
     1
270
     1
271
     1
  0
XRECORD
  5
174
102
{ACAD_REACTORS
330
173
102
}
330
173
100
AcDbXrecord
280
     1
270
     1
271
     1
  0
XRECORD
  5
176
102
{ACAD_REACTORS
330
173
102
}
330
173
100
AcDbXrecord
280
     1
270
     1
271
     1
  0
XRECORD
  5
177
102
{ACAD_REACTORS
330
173
102
}
330
173
100
AcDbXrecord
280
     1
270
     1
271
     1
  0
CELLSTYLEMAP
  5
3CB
102
{ACAD_REACTORS
330
162
102
}
330
162
100
AcDbCellStyleMap
 90
        3
300
CELLSTYLE
  1
TABLEFORMAT_BEGIN
 90
        5
170
     1
 91
        0
 92
    32768
 62
   257
 93
        1
300
CONTENTFORMAT
  1
CONTENTFORMAT_BEGIN
 90
        0
 91
        0
 92
      512
 93
        0
300

 40
0.0
140
1.0
 94
        5
 62
     0
340
11
144
6.0
309
CONTENTFORMAT_END
171
     1
301
MARGIN
  1
CELLMARGIN_BEGIN
 40
1.5
 40
1.5
 40
1.5
 40
1.5
 40
4.5
 40
4.5
309
CELLMARGIN_END
 94
        6
 95
        1
302
GRIDFORMAT
  1
GRIDFORMAT_BEGIN
 90
        0
 91
        1
 62
     0
 92
       -2
340
14
 93
        0
 40
1.125
309
GRIDFORMAT_END
 95
        2
302
GRIDFORMAT
  1
GRIDFORMAT_BEGIN
 90
        0
 91
        1
 62
     0
 92
       -2
340
14
 93
        0
 40
1.125
309
GRIDFORMAT_END
 95
        4
302
GRIDFORMAT
  1
GRIDFORMAT_BEGIN
 90
        0
 91
        1
 62
     0
 92
       -2
340
14
 93
        0
 40
1.125
309
GRIDFORMAT_END
 95
        8
302
GRIDFORMAT
  1
GRIDFORMAT_BEGIN
 90
        0
 91
        1
 62
     0
 92
       -2
340
14
 93
        0
 40
1.125
309
GRIDFORMAT_END
 95
       16
302
GRIDFORMAT
  1
GRIDFORMAT_BEGIN
 90
        0
 91
        1
 62
     0
 92
       -2
340
14
 93
        0
 40
1.125
309
GRIDFORMAT_END
 95
       32
302
GRIDFORMAT
  1
GRIDFORMAT_BEGIN
 90
        0
 91
        1
 62
     0
 92
       -2
340
14
 93
        0
 40
1.125
309
GRIDFORMAT_END
309
TABLEFORMAT_END
  1
CELLSTYLE_BEGIN
 90
        1
 91
        1
300
_TITLE
309
CELLSTYLE_END
300
CELLSTYLE
  1
TABLEFORMAT_BEGIN
 90
        5
170
     1
 91
        0
 92
        0
 62
   257
 93
        1
300
CONTENTFORMAT
  1
CONTENTFORMAT_BEGIN
 90
        0
 91
        0
 92
      512
 93
        0
300

 40
0.0
140
1.0
 94
        5
 62
     0
340
11
144
4.5
309
CONTENTFORMAT_END
171
     1
301
MARGIN
  1
CELLMARGIN_BEGIN
 40
1.5
 40
1.5
 40
1.5
 40
1.5
 40
4.5
 40
4.5
309
CELLMARGIN_END
 94
        6
 95
        1
302
GRIDFORMAT
  1
GRIDFORMAT_BEGIN
 90
        0
 91
        1
 62
     0
 92
       -2
340
14
 93
        0
 40
1.125
309
GRIDFORMAT_END
 95
        2
302
GRIDFORMAT
  1
GRIDFORMAT_BEGIN
 90
        0
 91
        1
 62
     0
 92
       -2
340
14
 93
        0
 40
1.125
309
GRIDFORMAT_END
 95
        4
302
GRIDFORMAT
  1
GRIDFORMAT_BEGIN
 90
        0
 91
        1
 62
     0
 92
       -2
340
14
 93
        0
 40
1.125
309
GRIDFORMAT_END
 95
        8
302
GRIDFORMAT
  1
GRIDFORMAT_BEGIN
 90
        0
 91
        1
 62
     0
 92
       -2
340
14
 93
        0
 40
1.125
309
GRIDFORMAT_END
 95
       16
302
GRIDFORMAT
  1
GRIDFORMAT_BEGIN
 90
        0
 91
        1
 62
     0
 92
       -2
340
14
 93
        0
 40
1.125
309
GRIDFORMAT_END
 95
       32
302
GRIDFORMAT
  1
GRIDFORMAT_BEGIN
 90
        0
 91
        1
 62
     0
 92
       -2
340
14
 93
        0
 40
1.125
309
GRIDFORMAT_END
309
TABLEFORMAT_END
  1
CELLSTYLE_BEGIN
 90
        2
 91
        1
300
_HEADER
309
CELLSTYLE_END
300
CELLSTYLE
  1
TABLEFORMAT_BEGIN
 90
        5
170
     1
 91
        0
 92
        0
 62
   257
 93
        1
300
CONTENTFORMAT
  1
CONTENTFORMAT_BEGIN
 90
        0
 91
        0
 92
      512
 93
        0
300

 40
0.0
140
1.0
 94
        2
 62
     0
340
11
144
4.5
309
CONTENTFORMAT_END
171
     1
301
MARGIN
  1
CELLMARGIN_BEGIN
 40
1.5
 40
1.5
 40
1.5
 40
1.5
 40
4.5
 40
4.5
309
CELLMARGIN_END
 94
        6
 95
        1
302
GRIDFORMAT
  1
GRIDFORMAT_BEGIN
 90
        0
 91
        1
 62
     0
 92
       -2
340
14
 93
        0
 40
1.125
309
GRIDFORMAT_END
 95
        2
302
GRIDFORMAT
  1
GRIDFORMAT_BEGIN
 90
        0
 91
        1
 62
     0
 92
       -2
340
14
 93
        0
 40
1.125
309
GRIDFORMAT_END
 95
        4
302
GRIDFORMAT
  1
GRIDFORMAT_BEGIN
 90
        0
 91
        1
 62
     0
 92
       -2
340
14
 93
        0
 40
1.125
309
GRIDFORMAT_END
 95
        8
302
GRIDFORMAT
  1
GRIDFORMAT_BEGIN
 90
        0
 91
        1
 62
     0
 92
       -2
340
14
 93
        0
 40
1.125
309
GRIDFORMAT_END
 95
       16
302
GRIDFORMAT
  1
GRIDFORMAT_BEGIN
 90
        0
 91
        1
 62
     0
 92
       -2
340
14
 93
        0
 40
1.125
309
GRIDFORMAT_END
 95
       32
302
GRIDFORMAT
  1
GRIDFORMAT_BEGIN
 90
        0
 91
        1
 62
     0
 92
       -2
340
14
 93
        0
 40
1.125
309
GRIDFORMAT_END
309
TABLEFORMAT_END
  1
CELLSTYLE_BEGIN
 90
        3
 91
        2
300
_DATA
309
CELLSTYLE_END
  0
XRECORD
  5
3CF
102
{ACAD_REACTORS
330
162
102
}
330
162
100
AcDbXrecord
280
     1
102
ACAD_ROUNDTRIP_PRE2007_TABLESTYLE
 90
      512
 91
        0
  1

 92
      512
 93
        0
  2

 94
      512
 95
        0
  3

  0
ENDSEC
  0
EOF
