  0
SECTION
  2
HEADER
  9
$ACADVER
  1
AC1015
  9
$ACADMAINTVER
 70
    20
  9
$DWGCODEPAGE
  3
ANSI_1254
  9
$INSBASE
 10
0.0
 20
0.0
 30
0.0
  9
$EXTMIN
 10
2056.298032145623
 20
1181.293604403489
 30
0.0
  9
$EXTMAX
 10
3849.552363264105
 20
2224.810793632818
 30
0.0
  9
$LIMMIN
 10
0.0
 20
0.0
  9
$LIMMAX
 10
420.0
 20
297.0
  9
$ORTHOMODE
 70
     0
  9
$REGENMODE
 70
     1
  9
$FILLMODE
 70
     1
  9
$QTEXTMODE
 70
     0
  9
$MIRRTEXT
 70
     0
  9
$LTSCALE
 40
1.0
  9
$ATTMODE
 70
     1
  9
$TEXTSIZE
 40
2.5
  9
$TRACEWID
 40
1.0
  9
$TEXTSTYLE
  7
Standard
  9
$CLAYER
  8
0
  9
$CELTYPE
  6
ByLayer
  9
$CECOLOR
 62
   256
  9
$CELTSCALE
 40
1.0
  9
$DISPSILH
 70
     0
  9
$DIMSCALE
 40
1.0
  9
$DIMASZ
 40
2.5
  9
$DIMEXO
 40
0.625
  9
$DIMDLI
 40
3.75
  9
$DIMRND
 40
0.0
  9
$DIMDLE
 40
0.0
  9
$DIMEXE
 40
1.25
  9
$DIMTP
 40
0.0
  9
$DIMTM
 40
0.0
  9
$DIMTXT
 40
2.5
  9
$DIMCEN
 40
2.5
  9
$DIMTSZ
 40
0.0
  9
$DIMTOL
 70
     0
  9
$DIMLIM
 70
     0
  9
$DIMTIH
 70
     0
  9
$DIMTOH
 70
     0
  9
$DIMSE1
 70
     0
  9
$DIMSE2
 70
     0
  9
$DIMTAD
 70
     1
  9
$DIMZIN
 70
     8
  9
$DIMBLK
  1

  9
$DIMASO
 70
     1
  9
$DIMSHO
 70
     1
  9
$DIMPOST
  1

  9
$DIMAPOST
  1

  9
$DIMALT
 70
     0
  9
$DIMALTD
 70
     3
  9
$DIMALTF
 40
0.03937007874016
  9
$DIMLFAC
 40
1.0
  9
$DIMTOFL
 70
     1
  9
$DIMTVP
 40
0.0
  9
$DIMTIX
 70
     0
  9
$DIMSOXD
 70
     0
  9
$DIMSAH
 70
     0
  9
$DIMBLK1
  1

  9
$DIMBLK2
  1

  9
$DIMSTYLE
  2
ISO-25
  9
$DIMCLRD
 70
     0
  9
$DIMCLRE
 70
     0
  9
$DIMCLRT
 70
     0
  9
$DIMTFAC
 40
1.0
  9
$DIMGAP
 40
0.625
  9
$DIMJUST
 70
     0
  9
$DIMSD1
 70
     0
  9
$DIMSD2
 70
     0
  9
$DIMTOLJ
 70
     0
  9
$DIMTZIN
 70
     8
  9
$DIMALTZ
 70
     0
  9
$DIMALTTZ
 70
     0
  9
$DIMUPT
 70
     0
  9
$DIMDEC
 70
     2
  9
$DIMTDEC
 70
     2
  9
$DIMALTU
 70
     2
  9
$DIMALTTD
 70
     3
  9
$DIMTXSTY
  7
Standard
  9
$DIMAUNIT
 70
     0
  9
$DIMADEC
 70
     0
  9
$DIMALTRND
 40
0.0
  9
$DIMAZIN
 70
     0
  9
$DIMDSEP
 70
    44
  9
$DIMATFIT
 70
     3
  9
$DIMFRAC
 70
     0
  9
$DIMLDRBLK
  1

  9
$DIMLUNIT
 70
     2
  9
$DIMLWD
 70
    -2
  9
$DIMLWE
 70
    -2
  9
$DIMTMOVE
 70
     0
  9
$LUNITS
 70
     2
  9
$LUPREC
 70
     4
  9
$SKETCHINC
 40
1.0
  9
$FILLETRAD
 40
0.0
  9
$AUNITS
 70
     0
  9
$AUPREC
 70
     0
  9
$MENU
  1
.
  9
$ELEVATION
 40
0.0
  9
$PELEVATION
 40
0.0
  9
$THICKNESS
 40
0.0
  9
$LIMCHECK
 70
     0
  9
$CHAMFERA
 40
0.0
  9
$CHAMFERB
 40
0.0
  9
$CHAMFERC
 40
0.0
  9
$CHAMFERD
 40
0.0
  9
$SKPOLY
 70
     0
  9
$TDCREATE
 40
2458570.492838993
  9
$TDUCREATE
 40
2458570.367838993
  9
$TDUPDATE
 40
2459082.551613449
  9
$TDUUPDATE
 40
2459082.426613449
  9
$TDINDWG
 40
0.0023920718
  9
$TDUSRTIMER
 40
0.0023920718
  9
$USRTIMER
 70
     1
  9
$ANGBASE
 50
0.0
  9
$ANGDIR
 70
     0
  9
$PDMODE
 70
     0
  9
$PDSIZE
 40
0.0
  9
$PLINEWID
 40
0.0
  9
$SPLFRAME
 70
     0
  9
$SPLINETYPE
 70
     6
  9
$SPLINESEGS
 70
     8
  9
$HANDSEED
  5
BA9
  9
$SURFTAB1
 70
     6
  9
$SURFTAB2
 70
     6
  9
$SURFTYPE
 70
     6
  9
$SURFU
 70
     6
  9
$SURFV
 70
     6
  9
$UCSBASE
  2

  9
$UCSNAME
  2

  9
$UCSORG
 10
0.0
 20
0.0
 30
0.0
  9
$UCSXDIR
 10
1.0
 20
0.0
 30
0.0
  9
$UCSYDIR
 10
0.0
 20
1.0
 30
0.0
  9
$UCSORTHOREF
  2

  9
$UCSORTHOVIEW
 70
     0
  9
$UCSORGTOP
 10
0.0
 20
0.0
 30
0.0
  9
$UCSORGBOTTOM
 10
0.0
 20
0.0
 30
0.0
  9
$UCSORGLEFT
 10
0.0
 20
0.0
 30
0.0
  9
$UCSORGRIGHT
 10
0.0
 20
0.0
 30
0.0
  9
$UCSORGFRONT
 10
0.0
 20
0.0
 30
0.0
  9
$UCSORGBACK
 10
0.0
 20
0.0
 30
0.0
  9
$PUCSBASE
  2

  9
$PUCSNAME
  2

  9
$PUCSORG
 10
0.0
 20
0.0
 30
0.0
  9
$PUCSXDIR
 10
1.0
 20
0.0
 30
0.0
  9
$PUCSYDIR
 10
0.0
 20
1.0
 30
0.0
  9
$PUCSORTHOREF
  2

  9
$PUCSORTHOVIEW
 70
     0
  9
$PUCSORGTOP
 10
0.0
 20
0.0
 30
0.0
  9
$PUCSORGBOTTOM
 10
0.0
 20
0.0
 30
0.0
  9
$PUCSORGLEFT
 10
0.0
 20
0.0
 30
0.0
  9
$PUCSORGRIGHT
 10
0.0
 20
0.0
 30
0.0
  9
$PUCSORGFRONT
 10
0.0
 20
0.0
 30
0.0
  9
$PUCSORGBACK
 10
0.0
 20
0.0
 30
0.0
  9
$USERI1
 70
     0
  9
$USERI2
 70
     0
  9
$USERI3
 70
     0
  9
$USERI4
 70
     0
  9
$USERI5
 70
     0
  9
$USERR1
 40
0.0
  9
$USERR2
 40
0.0
  9
$USERR3
 40
0.0
  9
$USERR4
 40
0.0
  9
$USERR5
 40
0.0
  9
$WORLDVIEW
 70
     1
  9
$SHADEDGE
 70
     3
  9
$SHADEDIF
 70
    70
  9
$TILEMODE
 70
     1
  9
$MAXACTVP
 70
    64
  9
$PINSBASE
 10
0.0
 20
0.0
 30
0.0
  9
$PLIMCHECK
 70
     0
  9
$PEXTMIN
 10
0.0
 20
0.0
 30
0.0
  9
$PEXTMAX
 10
0.0
 20
0.0
 30
0.0
  9
$PLIMMIN
 10
0.0
 20
0.0
  9
$PLIMMAX
 10
12.0
 20
9.0
  9
$UNITMODE
 70
     0
  9
$VISRETAIN
 70
     1
  9
$PLINEGEN
 70
     0
  9
$PSLTSCALE
 70
     1
  9
$TREEDEPTH
 70
  3020
  9
$CMLSTYLE
  2
Standard
  9
$CMLJUST
 70
     0
  9
$CMLSCALE
 40
20.0
  9
$PROXYGRAPHICS
 70
     1
  9
$MEASUREMENT
 70
     1
  9
$CELWEIGHT
370
    -1
  9
$ENDCAPS
280
     0
  9
$JOINSTYLE
280
     0
  9
$LWDISPLAY
290
     0
  9
$INSUNITS
 70
     4
  9
$HYPERLINKBASE
  1

  9
$STYLESHEET
  1

  9
$XEDIT
290
     1
  9
$CEPSNTYPE
380
     0
  9
$PSTYLEMODE
290
     1
  9
$FINGERPRINTGUID
  2
{AE09090A-732E-4EAA-93F2-B64914F23057}
  9
$VERSIONGUID
  2
{460F9F17-B278-4F60-A36A-AA003647E34D}
  9
$EXTNAMES
290
     1
  9
$PSVPSCALE
 40
0.0
  9
$OLESTARTUP
290
     0
  0
ENDSEC
  0
SECTION
  2
CLASSES
  0
CLASS
  1
ACDBDICTIONARYWDFLT
  2
AcDbDictionaryWithDefault
  3
ObjectDBX Classes
 90
        0
280
     0
281
     0
  0
CLASS
  1
ACDBPLACEHOLDER
  2
AcDbPlaceHolder
  3
ObjectDBX Classes
 90
        0
280
     0
281
     0
  0
CLASS
  1
LAYOUT
  2
AcDbLayout
  3
ObjectDBX Classes
 90
        0
280
     0
281
     0
  0
CLASS
  1
DICTIONARYVAR
  2
AcDbDictionaryVar
  3
ObjectDBX Classes
 90
        0
280
     0
281
     0
  0
CLASS
  1
TABLESTYLE
  2
AcDbTableStyle
  3
ObjectDBX Classes
 90
     4095
280
     0
281
     0
  0
CLASS
  1
MATERIAL
  2
AcDbMaterial
  3
ObjectDBX Classes
 90
     1153
280
     0
281
     0
  0
CLASS
  1
VISUALSTYLE
  2
AcDbVisualStyle
  3
ObjectDBX Classes
 90
     4095
280
     0
281
     0
  0
CLASS
  1
SCALE
  2
AcDbScale
  3
ObjectDBX Classes
 90
     1153
280
     0
281
     0
  0
CLASS
  1
MLEADERSTYLE
  2
AcDbMLeaderStyle
  3
ACDB_MLEADERSTYLE_CLASS
 90
     4095
280
     0
281
     0
  0
CLASS
  1
CELLSTYLEMAP
  2
AcDbCellStyleMap
  3
ObjectDBX Classes
 90
     1152
280
     0
281
     0
  0
CLASS
  1
ACAD_EVALUATION_GRAPH
  2
AcDbEvalGraph
  3
ObjectDBX Classes
 90
    33921
280
     0
281
     0
  0
CLASS
  1
ACAECUSTOBJ
  2
AcAeEditorObj
  3
AcAeEditorObj
 90
    33792
280
     0
281
     0
  0
CLASS
  1
ACDB_DYNAMICBLOCKPURGEPREVENTER_VERSION
  2
AcDbDynamicBlockPurgePreventer
  3
ObjectDBX Classes
 90
    33921
280
     0
281
     0
  0
ENDSEC
  0
SECTION
  2
TABLES
  0
TABLE
  2
VPORT
  5
8
330
0
100
AcDbSymbolTable
 70
     1
  0
VPORT
  5
EA
330
8
100
AcDbSymbolTableRecord
100
AcDbViewportTableRecord
  2
*Active
 70
     0
 10
0.0
 20
0.0
 11
1.0
 21
1.0
 12
3069.998692044729
 22
2127.152488157925
 13
0.0
 23
0.0
 14
10.0
 24
10.0
 15
10.0
 25
10.0
 16
0.0
 26
0.0
 36
1.0
 17
0.0
 27
0.0
 37
0.0
 40
366.4048921410857
 41
1.903110047846889
 42
50.0
 43
0.0
 44
0.0
 50
0.0
 51
0.0
 71
     0
 72
  1000
 73
     1
 74
     3
 75
     0
 76
     0
 77
     0
 78
     0
281
     0
 65
     1
110
0.0
120
0.0
130
0.0
111
1.0
121
0.0
131
0.0
112
0.0
122
1.0
132
0.0
 79
     0
146
0.0
  0
ENDTAB
  0
TABLE
  2
LTYPE
  5
5
330
0
100
AcDbSymbolTable
 70
     1
  0
LTYPE
  5
14
330
5
100
AcDbSymbolTableRecord
100
AcDbLinetypeTableRecord
  2
ByBlock
 70
     0
  3

 72
    65
 73
     0
 40
0.0
  0
LTYPE
  5
15
330
5
100
AcDbSymbolTableRecord
100
AcDbLinetypeTableRecord
  2
ByLayer
 70
     0
  3

 72
    65
 73
     0
 40
0.0
  0
LTYPE
  5
16
330
5
100
AcDbSymbolTableRecord
100
AcDbLinetypeTableRecord
  2
Continuous
 70
     0
  3
Solid line
 72
    65
 73
     0
 40
0.0
  0
ENDTAB
  0
TABLE
  2
LAYER
  5
2
330
0
100
AcDbSymbolTable
 70
     1
  0
LAYER
  5
10
102
{ACAD_XDICTIONARY
360
13C
102
}
330
2
100
AcDbSymbolTableRecord
100
AcDbLayerTableRecord
  2
0
 70
     0
 62
     7
  6
Continuous
370
    -3
390
F
  0
ENDTAB
  0
TABLE
  2
STYLE
  5
3
330
0
100
AcDbSymbolTable
 70
     2
  0
STYLE
  5
11
330
3
100
AcDbSymbolTableRecord
100
AcDbTextStyleTableRecord
  2
Standard
 70
     0
 40
0.0
 41
1.0
 50
0.0
 71
     0
 42
2.5
  3
txt
  4

  0
STYLE
  5
132
330
3
100
AcDbSymbolTableRecord
100
AcDbTextStyleTableRecord
  2
Annotative
 70
     0
 40
0.0
 41
1.0
 50
0.0
 71
     0
 42
2.5
  3
txt.shx
  4

1001
AcadAnnotative
1000
AnnotativeData
1002
{
1070
     1
1070
     1
1002
}
  0
ENDTAB
  0
TABLE
  2
VIEW
  5
6
330
0
100
AcDbSymbolTable
 70
     0
  0
ENDTAB
  0
TABLE
  2
UCS
  5
7
330
0
100
AcDbSymbolTable
 70
     0
  0
ENDTAB
  0
TABLE
  2
APPID
  5
9
330
0
100
AcDbSymbolTable
 70
    11
  0
APPID
  5
12
330
9
100
AcDbSymbolTableRecord
100
AcDbRegAppTableRecord
  2
ACAD
 70
     0
  0
APPID
  5
9E
330
9
100
AcDbSymbolTableRecord
100
AcDbRegAppTableRecord
  2
ACAD_PSEXT
 70
     0
  0
APPID
  5
133
330
9
100
AcDbSymbolTableRecord
100
AcDbRegAppTableRecord
  2
AcadAnnoPO
 70
     0
  0
APPID
  5
134
330
9
100
AcDbSymbolTableRecord
100
AcDbRegAppTableRecord
  2
AcadAnnotative
 70
     0
  0
APPID
  5
135
330
9
100
AcDbSymbolTableRecord
100
AcDbRegAppTableRecord
  2
ACAD_DSTYLE_DIMJAG
 70
     0
  0
APPID
  5
136
330
9
100
AcDbSymbolTableRecord
100
AcDbRegAppTableRecord
  2
ACAD_DSTYLE_DIMTALN
 70
     0
  0
APPID
  5
165
330
9
100
AcDbSymbolTableRecord
100
AcDbRegAppTableRecord
  2
ACAD_MLEADERVER
 70
     0
  0
APPID
  5
9E9
330
9
100
AcDbSymbolTableRecord
100
AcDbRegAppTableRecord
  2
ACAUTHENVIRON
 70
     0
  0
APPID
  5
9ED
330
9
100
AcDbSymbolTableRecord
100
AcDbRegAppTableRecord
  2
AcDbDynamicBlockTrueName
 70
     0
  0
APPID
  5
9EE
330
9
100
AcDbSymbolTableRecord
100
AcDbRegAppTableRecord
  2
AcDbDynamicBlockGUID
 70
     0
  0
APPID
  5
9F0
330
9
100
AcDbSymbolTableRecord
100
AcDbRegAppTableRecord
  2
AcDbBlockRepETag
 70
     0
  0
ENDTAB
  0
TABLE
  2
DIMSTYLE
  5
A
330
0
100
AcDbSymbolTable
 70
     2
100
AcDbDimStyleTable
 71
     2
340
27
340
137
  0
DIMSTYLE
105
27
330
A
100
AcDbSymbolTableRecord
100
AcDbDimStyleTableRecord
  2
ISO-25
 70
     0
 41
2.5
 42
0.625
 43
3.75
 44
1.25
 73
     0
 74
     0
 77
     1
 78
     8
140
2.5
141
2.5
143
0.03937007874016
147
0.625
171
     3
172
     1
271
     2
272
     2
274
     3
278
    44
283
     0
284
     8
340
11
  0
DIMSTYLE
105
137
330
A
100
AcDbSymbolTableRecord
100
AcDbDimStyleTableRecord
  2
Annotative
 70
     0
 40
0.0
 41
2.5
 42
0.625
 43
3.75
 44
1.25
 73
     0
 74
     0
 77
     1
 78
     8
140
2.5
141
2.5
143
0.03937007874016
147
0.625
171
     3
172
     1
271
     2
272
     2
274
     3
278
    44
283
     0
284
     8
340
11
1001
AcadAnnotative
1000
AnnotativeData
1002
{
1070
     1
1070
     1
1002
}
1001
ACAD_DSTYLE_DIMJAG
1070
   388
1040
1.5
1001
ACAD_DSTYLE_DIMTALN
1070
   392
1070
     0
  0
ENDTAB
  0
TABLE
  2
BLOCK_RECORD
  5
1
330
0
100
AcDbSymbolTable
 70
     5
  0
BLOCK_RECORD
  5
1F
330
1
100
AcDbSymbolTableRecord
100
AcDbBlockTableRecord
  2
*Model_Space
340
22
  0
BLOCK_RECORD
  5
D2
330
1
100
AcDbSymbolTableRecord
100
AcDbBlockTableRecord
  2
*Paper_Space
340
D3
  0
BLOCK_RECORD
  5
D6
330
1
100
AcDbSymbolTableRecord
100
AcDbBlockTableRecord
  2
*Paper_Space0
340
D7
  0
BLOCK_RECORD
  5
69F
330
1
100
AcDbSymbolTableRecord
100
AcDbBlockTableRecord
  2
1
340
0
310
2800000020000000200000000100080000000000000400000000000000000000000000000000000000000000000080000080000000808000800000008000800080800000C0C0C000C0DCC000F0CAA6000020400000206000002080000020A0000020C0000020E00000400000004020000040400000406000004080000040A0
310
000040C0000040E00000600000006020000060400000606000006080000060A0000060C0000060E00000800000008020000080400000806000008080000080A0000080C0000080E00000A0000000A0200000A0400000A0600000A0800000A0A00000A0C00000A0E00000C0000000C0200000C0400000C0600000C0800000C0
310
A00000C0C00000C0E00000E0000000E0200000E0400000E0600000E0800000E0A00000E0C00000E0E00040000000400020004000400040006000400080004000A0004000C0004000E00040200000402020004020400040206000402080004020A0004020C0004020E000404000004040200040404000404060004040800040
310
40A0004040C0004040E00040600000406020004060400040606000406080004060A0004060C0004060E00040800000408020004080400040806000408080004080A0004080C0004080E00040A0000040A0200040A0400040A0600040A0800040A0A00040A0C00040A0E00040C0000040C0200040C0400040C0600040C08000
310
40C0A00040C0C00040C0E00040E0000040E0200040E0400040E0600040E0800040E0A00040E0C00040E0E00080000000800020008000400080006000800080008000A0008000C0008000E00080200000802020008020400080206000802080008020A0008020C0008020E00080400000804020008040400080406000804080
310
008040A0008040C0008040E00080600000806020008060400080606000806080008060A0008060C0008060E00080800000808020008080400080806000808080008080A0008080C0008080E00080A0000080A0200080A0400080A0600080A0800080A0A00080A0C00080A0E00080C0000080C0200080C0400080C0600080C0
310
800080C0A00080C0C00080C0E00080E0000080E0200080E0400080E0600080E0800080E0A00080E0C00080E0E000C0000000C0002000C0004000C0006000C0008000C000A000C000C000C000E000C0200000C0202000C0204000C0206000C0208000C020A000C020C000C020E000C0400000C0402000C0404000C0406000C0
310
408000C040A000C040C000C040E000C0600000C0602000C0604000C0606000C0608000C060A000C060C000C060E000C0800000C0802000C0804000C0806000C0808000C080A000C080C000C080E000C0A00000C0A02000C0A04000C0A06000C0A08000C0A0A000C0A0C000C0A0E000C0C00000C0C02000C0C04000C0C06000
310
C0C08000C0C0A000F0FBFF00A4A0A000808080000000FF0000FF000000FFFF00FF000000FF00FF00FFFF0000FFFFFF0000000000000000000000000000000000000000000000000000000000000000000000000000000000000000000000000000000000000000000000000000000000000000000000000000000000000000
310
00000000000000000000000000000000000000000000000000000000000000000000000000000000000000000000000000000000000000000000000000000000000000000000000000000000000000000000000000000000000000000000000000000000000000000000000000000000000000000000000000000000000000
310
00000000000000000000000000000000000000000000000000000000000000000000000000000000000000000000000000000000000000000000000000000000000000000000000000000000000000000000000000000000000000000000000000000000000000000000000000000000000000000000000000000000000000
310
000000000000000000000000000000000000000000000000000000000000000000000000000000000000000000000000000000000000000000FFFFFFFFFFFFFFFFFFFFFFFFFFFFFFFFFFFFFFFF000000000000000000000000FFFFFFFFFFFFFFFFFFFFFFFFFFFFFFFFFFFFFFFFFF00000000000000000000FF000000000000
310
0000000000000000000000000000FF00000000000000000000FF0000000000000000000000000000000000000000FF00000000000000000000FF0000000000000000000000000000000000000000FF00000000000000000000FF0000000000000000000000000000000000000000FF000000000000FFFFFFFFFF0000000000
310
00000000000000000000000000000000FFFFFFFF0000FFFFFFFF00000000000000000000000000000000000000000000FFFFFFFF000000000000000000000000000000000000000000000000000000000000000000000000000000000000000000000000000000000000000000000000000000000000000000000000000000
310
00000000000000000000000000000000000000000000000000000000000000000000000000000000000000000000000000000000000000000000000000000000000000000000000000000000000000000000000000000000000000000000000000000000000000000000000000000000000000000000000000000000000000
310
00000000000000000000000000000000000000000000000000000000000000000000000000000000000000000000000000000000000000000000000000000000000000000000000000000000000000000000000000000000000000000000000000000000000000000000000000000000000000000000000000000000000000
310
0000000000000000000000000000000000000000000000000000000000000000000000000000000000000000000000000000000000000000
102
{BLKREFS
331
6BC
102
}
1001
ACAD
1000
DesignCenter Data
1002
{
1070
     1
1070
     4
1002
}
  0
BLOCK_RECORD
  5
6BD
330
1
100
AcDbSymbolTableRecord
100
AcDbBlockTableRecord
  2
2
340
0
310
2800000020000000200000000100080000000000000400000000000000000000000000000000000000000000000080000080000000808000800000008000800080800000C0C0C000C0DCC000F0CAA6000020400000206000002080000020A0000020C0000020E00000400000004020000040400000406000004080000040A0
310
000040C0000040E00000600000006020000060400000606000006080000060A0000060C0000060E00000800000008020000080400000806000008080000080A0000080C0000080E00000A0000000A0200000A0400000A0600000A0800000A0A00000A0C00000A0E00000C0000000C0200000C0400000C0600000C0800000C0
310
A00000C0C00000C0E00000E0000000E0200000E0400000E0600000E0800000E0A00000E0C00000E0E00040000000400020004000400040006000400080004000A0004000C0004000E00040200000402020004020400040206000402080004020A0004020C0004020E000404000004040200040404000404060004040800040
310
40A0004040C0004040E00040600000406020004060400040606000406080004060A0004060C0004060E00040800000408020004080400040806000408080004080A0004080C0004080E00040A0000040A0200040A0400040A0600040A0800040A0A00040A0C00040A0E00040C0000040C0200040C0400040C0600040C08000
310
40C0A00040C0C00040C0E00040E0000040E0200040E0400040E0600040E0800040E0A00040E0C00040E0E00080000000800020008000400080006000800080008000A0008000C0008000E00080200000802020008020400080206000802080008020A0008020C0008020E00080400000804020008040400080406000804080
310
008040A0008040C0008040E00080600000806020008060400080606000806080008060A0008060C0008060E00080800000808020008080400080806000808080008080A0008080C0008080E00080A0000080A0200080A0400080A0600080A0800080A0A00080A0C00080A0E00080C0000080C0200080C0400080C0600080C0
310
800080C0A00080C0C00080C0E00080E0000080E0200080E0400080E0600080E0800080E0A00080E0C00080E0E000C0000000C0002000C0004000C0006000C0008000C000A000C000C000C000E000C0200000C0202000C0204000C0206000C0208000C020A000C020C000C020E000C0400000C0402000C0404000C0406000C0
310
408000C040A000C040C000C040E000C0600000C0602000C0604000C0606000C0608000C060A000C060C000C060E000C0800000C0802000C0804000C0806000C0808000C080A000C080C000C080E000C0A00000C0A02000C0A04000C0A06000C0A08000C0A0A000C0A0C000C0A0E000C0C00000C0C02000C0C04000C0C06000
310
C0C08000C0C0A000F0FBFF00A4A0A000808080000000FF0000FF000000FFFF00FF000000FF00FF00FFFF0000FFFFFF0000000000000000000000000000000000000000000000000000000000000000000000000000000000000000000000000000000000000000000000000000000000000000000000000000000000000000
310
00000000000000000000000000000000000000000000000000000000000000000000000000000000000000000000000000000000000000000000000000000000000000000000000000000000000000000000000000000000000000000000000000000000000000000000000000000000000000000000000000000000000000
310
00000000000000000000000000000000000000000000000000000000000000000000000000000000000000000000000000000000000000000000000000000000000000000000000000000000000000000000000000000000000000000000000000000000000000000000000000000000000000000000000000000000000000
310
00000000000000000000000000000000000000000000000000000000000000000000000000000000000000000000000000000000000000000000000000000000000000000000000000000000000000000000000000000000000000000000000000000000000000000000000000000000000000000000000000000000000000
310
000000000000000000000000000000000000000000FFFFFFFFFFFFFFFFFFFFFFFFFFFFFFFFFFFFFFFFFFFFFFFFFFFFFFFFFFFF0000FFFFFFFFFFFFFFFFFFFFFFFFFFFFFFFFFFFFFFFFFFFFFFFFFFFFFFFFFFFF0000000000000000000000000000000000000000000000000000000000000000000000000000000000000000
310
00000000000000000000000000000000000000000000000000000000000000000000000000000000000000000000000000000000000000000000000000000000000000000000000000000000000000000000000000000000000000000000000000000000000000000000000000000000000000000000000000000000000000
310
00000000000000000000000000000000000000000000000000000000000000000000000000000000000000000000000000000000000000000000000000000000000000000000000000000000000000000000000000000000000000000000000000000000000000000000000000000000000000000000000000000000000000
310
00000000000000000000000000000000000000000000000000000000000000000000000000000000000000000000000000000000000000000000000000000000000000000000000000000000000000000000000000000000000000000000000000000000000000000000000000000000000000000000000000000000000000
310
0000000000000000000000000000000000000000000000000000000000000000000000000000000000000000000000000000000000000000
102
{BLKREFS
331
6CD
102
}
1001
ACAD
1000
DesignCenter Data
1002
{
1070
     1
1070
     4
1002
}
  0
BLOCK_RECORD
  5
6CE
102
{ACAD_XDICTIONARY
360
9EA
102
}
330
1
100
AcDbSymbolTableRecord
100
AcDbBlockTableRecord
  2
3
340
0
310
2800000020000000200000000100080000000000000400000000000000000000000000000000000000000000000080000080000000808000800000008000800080800000C0C0C000C0DCC000F0CAA6000020400000206000002080000020A0000020C0000020E00000400000004020000040400000406000004080000040A0
310
000040C0000040E00000600000006020000060400000606000006080000060A0000060C0000060E00000800000008020000080400000806000008080000080A0000080C0000080E00000A0000000A0200000A0400000A0600000A0800000A0A00000A0C00000A0E00000C0000000C0200000C0400000C0600000C0800000C0
310
A00000C0C00000C0E00000E0000000E0200000E0400000E0600000E0800000E0A00000E0C00000E0E00040000000400020004000400040006000400080004000A0004000C0004000E00040200000402020004020400040206000402080004020A0004020C0004020E000404000004040200040404000404060004040800040
310
40A0004040C0004040E00040600000406020004060400040606000406080004060A0004060C0004060E00040800000408020004080400040806000408080004080A0004080C0004080E00040A0000040A0200040A0400040A0600040A0800040A0A00040A0C00040A0E00040C0000040C0200040C0400040C0600040C08000
310
40C0A00040C0C00040C0E00040E0000040E0200040E0400040E0600040E0800040E0A00040E0C00040E0E00080000000800020008000400080006000800080008000A0008000C0008000E00080200000802020008020400080206000802080008020A0008020C0008020E00080400000804020008040400080406000804080
310
008040A0008040C0008040E00080600000806020008060400080606000806080008060A0008060C0008060E00080800000808020008080400080806000808080008080A0008080C0008080E00080A0000080A0200080A0400080A0600080A0800080A0A00080A0C00080A0E00080C0000080C0200080C0400080C0600080C0
310
800080C0A00080C0C00080C0E00080E0000080E0200080E0400080E0600080E0800080E0A00080E0C00080E0E000C0000000C0002000C0004000C0006000C0008000C000A000C000C000C000E000C0200000C0202000C0204000C0206000C0208000C020A000C020C000C020E000C0400000C0402000C0404000C0406000C0
310
408000C040A000C040C000C040E000C0600000C0602000C0604000C0606000C0608000C060A000C060C000C060E000C0800000C0802000C0804000C0806000C0808000C080A000C080C000C080E000C0A00000C0A02000C0A04000C0A06000C0A08000C0A0A000C0A0C000C0A0E000C0C00000C0C02000C0C04000C0C06000
310
C0C08000C0C0A000F0FBFF00A4A0A000808080000000FF0000FF000000FFFF00FF000000FF00FF00FFFF0000FFFFFF000000000000000000000000000000000000000000000000000000000000000000000000000000000000000000000000FFFF000000000000000000000000000000000000000000000000000000000000
310
FFFF000000000000000000000000000000000000000000000000000000000000FFFF000000000000000000000000000000000000000000000000000000000000FFFF000000000000000000000000000000000000000000000000000000000000FFFF0000000000000000000000000000000000000000000000000000000000
310
00FFFF000000000000000000000000000000000000000000000000000000000000FFFF000000000000000000000000000000000000000000000000000000000000FFFF000000000000000000000000000000000000000000000000000000000000FFFF00000000000000000000000000000000000000000000000000000000
310
0000FFFF000000000000000000000000000000000000000000000000000000000000FFFF000000000000000000000000000000000000000000000000000000000000FFFF000000000000000000000000000000000000000000000000000000000000FFFF000000000000000000000000000000000000000000000000000000
310
000000FFFF000000000000000000000000000000000000000000000000000000000000FFFF000000000000000000000000000000000000000000000000000000000000FFFF000000000000000000000000000000000000000000000000000000000000FFFF0000000000000000000000000000000000000000000000000000
310
00000000FFFF000000000000000000000000000000000000000000000000000000000000FFFF000000000000000000000000000000000000000000000000000000000000FFFF000000000000000000000000000000000000000000000000000000000000FFFF00000000000000000000000000000000000000000000000000
310
0000000000FFFF000000000000000000000000000000000000000000000000000000000000FFFF000000000000000000000000000000000000000000000000000000000000FFFF000000000000000000000000000000000000000000000000000000000000FFFF000000000000000000000000000000000000000000000000
310
000000000000FFFF000000000000000000000000000000000000000000000000000000000000FFFF000000000000000000000000000000000000000000000000000000000000FFFF000000000000000000000000000000000000000000000000000000000000FFFF0000000000000000000000000000000000000000000000
310
00000000000000FFFF0000000000000000000000000000000000000000000000000000000000000000000000000000000000000000000000
102
{BLKREFS
331
789
102
}
1001
AcDbDynamicBlockGUID
1000
{717836D3-CD46-4680-9126-6FCE807F9731}
1001
AcDbBlockRepETag
1070
     1
1071
      183
1001
ACAD
1000
DesignCenter Data
1002
{
1070
     1
1070
     4
1002
}
  0
BLOCK_RECORD
  5
78A
102
{ACAD_XDICTIONARY
360
B8C
102
}
330
1
100
AcDbSymbolTableRecord
100
AcDbBlockTableRecord
  2
4
340
0
310
2800000020000000200000000100080000000000000400000000000000000000000000000000000000000000000080000080000000808000800000008000800080800000C0C0C000C0DCC000F0CAA6000020400000206000002080000020A0000020C0000020E00000400000004020000040400000406000004080000040A0
310
000040C0000040E00000600000006020000060400000606000006080000060A0000060C0000060E00000800000008020000080400000806000008080000080A0000080C0000080E00000A0000000A0200000A0400000A0600000A0800000A0A00000A0C00000A0E00000C0000000C0200000C0400000C0600000C0800000C0
310
A00000C0C00000C0E00000E0000000E0200000E0400000E0600000E0800000E0A00000E0C00000E0E00040000000400020004000400040006000400080004000A0004000C0004000E00040200000402020004020400040206000402080004020A0004020C0004020E000404000004040200040404000404060004040800040
310
40A0004040C0004040E00040600000406020004060400040606000406080004060A0004060C0004060E00040800000408020004080400040806000408080004080A0004080C0004080E00040A0000040A0200040A0400040A0600040A0800040A0A00040A0C00040A0E00040C0000040C0200040C0400040C0600040C08000
310
40C0A00040C0C00040C0E00040E0000040E0200040E0400040E0600040E0800040E0A00040E0C00040E0E00080000000800020008000400080006000800080008000A0008000C0008000E00080200000802020008020400080206000802080008020A0008020C0008020E00080400000804020008040400080406000804080
310
008040A0008040C0008040E00080600000806020008060400080606000806080008060A0008060C0008060E00080800000808020008080400080806000808080008080A0008080C0008080E00080A0000080A0200080A0400080A0600080A0800080A0A00080A0C00080A0E00080C0000080C0200080C0400080C0600080C0
310
800080C0A00080C0C00080C0E00080E0000080E0200080E0400080E0600080E0800080E0A00080E0C00080E0E000C0000000C0002000C0004000C0006000C0008000C000A000C000C000C000E000C0200000C0202000C0204000C0206000C0208000C020A000C020C000C020E000C0400000C0402000C0404000C0406000C0
310
408000C040A000C040C000C040E000C0600000C0602000C0604000C0606000C0608000C060A000C060C000C060E000C0800000C0802000C0804000C0806000C0808000C080A000C080C000C080E000C0A00000C0A02000C0A04000C0A06000C0A08000C0A0A000C0A0C000C0A0E000C0C00000C0C02000C0C04000C0C06000
310
C0C08000C0C0A000F0FBFF00A4A0A000808080000000FF0000FF000000FFFF00FF000000FF00FF00FFFF0000FFFFFF0000000000000000000000000000000000000000000000000000000000000000000000000000000000000000000000000000000000000000000000000000000000000000000000000000000000000000
310
00000000000000000000000000000000000000000000000000000000000000000000000000000000000000000000000000000000000000000000000000000000000000000000000000000000000000000000000000000000000000000000000000000000000000000000000000000000000000000000000000000000000000
310
000000000000000000000000000000000000000000000000000000000000000000000000000000000000000000000000000000FFFFFF000000000000000000000000000000000000000000000000000000000000FFFFFFFF000000000000000000000000000000000000000000000000000000000000FFFFFFFF0000000000
310
00000000000000000000000000000000000000000000000000FFFFFFFF000000000000000000000000000000000000000000000000000000000000FFFFFFFF000000000000000000000000000000000000000000000000000000000000FFFFFF000000000000000000000000000000000000000000000000000000000000FF
310
FFFFFF000000000000000000000000000000000000000000000000000000000000FFFFFFFF000000000000000000000000000000000000000000000000000000000000FFFFFFFF000000000000000000000000000000000000000000000000000000000000FFFFFFFF00000000000000000000000000000000000000000000
310
0000000000000000FFFFFF000000000000000000000000000000000000000000000000000000000000FFFFFFFF000000000000000000000000000000000000000000000000000000000000FFFFFFFF000000000000000000000000000000000000000000000000000000000000FFFFFFFF0000000000000000000000000000
310
00000000000000000000000000000000FFFFFFFF000000000000000000000000000000000000000000000000000000000000FFFFFF0000000000000000000000000000000000000000000000000000000000000000000000000000000000000000000000000000000000000000000000000000000000000000000000000000
310
00000000000000000000000000000000000000000000000000000000000000000000000000000000000000000000000000000000000000000000000000000000000000000000000000000000000000000000000000000000000000000000000000000000000000000000000000000000000000000000000000000000000000
310
0000000000000000000000000000000000000000000000000000000000000000000000000000000000000000000000000000000000000000
102
{BLKREFS
331
925
102
}
1001
AcDbDynamicBlockGUID
1000
{CB6CF9C6-88C4-4720-BA2A-2B31CF1BDE87}
1001
AcDbBlockRepETag
1070
     1
1071
      402
1001
ACAD
1000
DesignCenter Data
1002
{
1070
     1
1070
     4
1002
}
  0
ENDTAB
  0
ENDSEC
  0
SECTION
  2
BLOCKS
  0
BLOCK
  5
20
330
1F
100
AcDbEntity
  8
0
100
AcDbBlockBegin
  2
*Model_Space
 70
     0
 10
0.0
 20
0.0
 30
0.0
  3
*Model_Space
  1

  0
ENDBLK
  5
21
330
1F
100
AcDbEntity
  8
0
100
AcDbBlockEnd
  0
BLOCK
  5
D4
330
D2
100
AcDbEntity
 67
     1
  8
0
100
AcDbBlockBegin
  2
*Paper_Space
 70
     0
 10
0.0
 20
0.0
 30
0.0
  3
*Paper_Space
  1

  0
ENDBLK
  5
D5
330
D2
100
AcDbEntity
 67
     1
  8
0
100
AcDbBlockEnd
  0
BLOCK
  5
D8
330
D6
100
AcDbEntity
 67
     1
  8
0
100
AcDbBlockBegin
  2
*Paper_Space0
 70
     0
 10
0.0
 20
0.0
 30
0.0
  3
*Paper_Space0
  1

  0
ENDBLK
  5
D9
330
D6
100
AcDbEntity
 67
     1
  8
0
100
AcDbBlockEnd
  0
BLOCK
  5
6A0
330
69F
100
AcDbEntity
  8
0
100
AcDbBlockBegin
  2
1
 70
     0
 10
0.0
 20
0.0
 30
0.0
  3
1
  1

  0
LINE
  5
6A2
330
69F
100
AcDbEntity
  8
0
  6
Continuous
 62
     7
370
    15
100
AcDbLine
 10
3115.097161011404
 20
2206.753442947723
 30
0.0
 11
3115.097161011404
 21
2202.853442947723
 31
0.0
  0
ARC
  5
6A3
330
69F
100
AcDbEntity
  8
0
  6
Continuous
 62
     7
370
    15
100
AcDbCircle
 10
3116.897161011404
 20
2206.753442947723
 30
0.0
 40
1.800000000000068
100
AcDbArc
 50
90.0
 51
180.0
  0
LINE
  5
6A4
330
69F
100
AcDbEntity
  8
0
  6
Continuous
 62
     7
370
    15
100
AcDbLine
 10
3119.997161011404
 20
2208.553442947723
 30
0.0
 11
3116.897161011404
 21
2208.553442947723
 31
0.0
  0
LINE
  5
6A5
330
69F
100
AcDbEntity
  8
0
  6
Continuous
 62
     7
370
    15
100
AcDbLine
 10
3119.997161011404
 20
2208.553442947723
 30
0.0
 11
3119.997161011404
 21
2207.553442947723
 31
0.0
  0
LINE
  5
6A6
330
69F
100
AcDbEntity
  8
0
  6
Continuous
 62
     7
370
    15
100
AcDbLine
 10
3116.897161011404
 20
2207.553442947723
 30
0.0
 11
3119.997161011404
 21
2207.553442947723
 31
0.0
  0
ARC
  5
6A7
330
69F
100
AcDbEntity
  8
0
  6
Continuous
 62
     7
370
    15
100
AcDbCircle
 10
3116.897161011404
 20
2206.753442947723
 30
0.0
 40
0.8000000000000682
100
AcDbArc
 50
90.0
 51
180.0
  0
LINE
  5
6A8
330
69F
100
AcDbEntity
  8
0
  6
Continuous
 62
     7
370
    15
100
AcDbLine
 10
3116.097161011404
 20
2202.853442947723
 30
0.0
 11
3116.097161011404
 21
2206.753442947723
 31
0.0
  0
ARC
  5
6A9
330
69F
100
AcDbEntity
  8
0
  6
Continuous
 62
     7
370
    15
100
AcDbCircle
 10
3114.297161011404
 20
2202.853442947723
 30
0.0
 40
1.800000000000011
100
AcDbArc
 50
270.0
 51
0.0
  0
LINE
  5
6AA
330
69F
100
AcDbEntity
  8
0
  6
Continuous
 62
     7
370
    15
100
AcDbLine
 10
3105.647161011404
 20
2201.053442947723
 30
0.0
 11
3114.297161011404
 21
2201.053442947723
 31
0.0
  0
LINE
  5
6AB
330
69F
100
AcDbEntity
  8
0
  6
Continuous
 62
     7
370
    15
100
AcDbLine
 10
3105.647161011404
 20
2202.053442947723
 30
0.0
 11
3105.647161011404
 21
2201.053442947723
 31
0.0
  0
LINE
  5
6AC
330
69F
100
AcDbEntity
  8
0
  6
Continuous
 62
     7
370
    15
100
AcDbLine
 10
3114.297161011404
 20
2202.053442947723
 30
0.0
 11
3105.647161011404
 21
2202.053442947723
 31
0.0
  0
ARC
  5
6AD
330
69F
100
AcDbEntity
  8
0
  6
Continuous
 62
     7
370
    15
100
AcDbCircle
 10
3114.297161011404
 20
2202.853442947723
 30
0.0
 40
0.7999999999999546
100
AcDbArc
 50
270.0
 51
0.0
  0
LINE
  5
6AE
330
69F
100
AcDbEntity
  8
0
  6
Continuous
 62
     7
370
    15
100
AcDbLine
 10
3088.897161011404
 20
2206.753442947723
 30
0.0
 11
3088.897161011404
 21
2202.853442947723
 31
0.0
  0
ARC
  5
6AF
330
69F
100
AcDbEntity
  8
0
  6
Continuous
 62
     7
370
    15
100
AcDbCircle
 10
3088.097161011404
 20
2206.753442947723
 30
0.0
 40
0.8000000000000113
100
AcDbArc
 50
0.0
 51
90.0
  0
LINE
  5
6B0
330
69F
100
AcDbEntity
  8
0
  6
Continuous
 62
     7
370
    15
100
AcDbLine
 10
3084.997161011404
 20
2207.553442947723
 30
0.0
 11
3088.097161011404
 21
2207.553442947723
 31
0.0
  0
LINE
  5
6B1
330
69F
100
AcDbEntity
  8
0
  6
Continuous
 62
     7
370
    15
100
AcDbLine
 10
3088.097161011404
 20
2208.553442947723
 30
0.0
 11
3084.997161011404
 21
2208.553442947723
 31
0.0
  0
ARC
  5
6B2
330
69F
100
AcDbEntity
  8
0
  6
Continuous
 62
     7
370
    15
100
AcDbCircle
 10
3088.097161011404
 20
2206.753442947723
 30
0.0
 40
1.800000000000011
100
AcDbArc
 50
0.0
 51
90.0
  0
LINE
  5
6B3
330
69F
100
AcDbEntity
  8
0
  6
Continuous
 62
     7
370
    15
100
AcDbLine
 10
3089.897161011404
 20
2202.853442947723
 30
0.0
 11
3089.897161011404
 21
2206.753442947723
 31
0.0
  0
ARC
  5
6B4
330
69F
100
AcDbEntity
  8
0
  6
Continuous
 62
     7
370
    15
100
AcDbCircle
 10
3090.697161011404
 20
2202.853442947723
 30
0.0
 40
0.7999999999999546
100
AcDbArc
 50
180.0
 51
270.0
  0
LINE
  5
6B5
330
69F
100
AcDbEntity
  8
0
  6
Continuous
 62
     7
370
    15
100
AcDbLine
 10
3099.347161011404
 20
2202.053442947723
 30
0.0
 11
3090.697161011404
 21
2202.053442947723
 31
0.0
  0
LINE
  5
6B6
330
69F
100
AcDbEntity
  8
0
  6
Continuous
 62
     7
370
    15
100
AcDbLine
 10
3099.347161011404
 20
2201.053442947723
 30
0.0
 11
3099.347161011404
 21
2202.053442947723
 31
0.0
  0
LINE
  5
6B7
330
69F
100
AcDbEntity
  8
0
  6
Continuous
 62
     7
370
    15
100
AcDbLine
 10
3090.697161011404
 20
2201.053442947723
 30
0.0
 11
3099.347161011404
 21
2201.053442947723
 31
0.0
  0
ARC
  5
6B8
330
69F
100
AcDbEntity
  8
0
  6
Continuous
 62
     7
370
    15
100
AcDbCircle
 10
3090.697161011404
 20
2202.853442947723
 30
0.0
 40
1.800000000000011
100
AcDbArc
 50
180.0
 51
270.0
  0
LINE
  5
6B9
330
69F
100
AcDbEntity
  8
0
  6
Continuous
 62
     7
370
    15
100
AcDbLine
 10
3084.997161011404
 20
2208.553442947723
 30
0.0
 11
3084.997161011404
 21
2207.553442947723
 31
0.0
  0
LINE
  5
6BA
330
69F
100
AcDbEntity
  8
0
  6
Continuous
 62
     7
370
    15
100
AcDbLine
 10
3099.347161011404
 20
2201.053442947723
 30
0.0
 11
3105.647161011404
 21
2201.053442947723
 31
0.0
  0
LINE
  5
6BB
330
69F
100
AcDbEntity
  8
0
  6
Continuous
 62
     7
370
    15
100
AcDbLine
 10
3099.347161011404
 20
2202.053442947723
 30
0.0
 11
3105.647161011404
 21
2202.053442947723
 31
0.0
  0
ENDBLK
  5
6A1
330
69F
100
AcDbEntity
  8
0
100
AcDbBlockEnd
  0
BLOCK
  5
6BE
330
6BD
100
AcDbEntity
  8
0
100
AcDbBlockBegin
  2
2
 70
     0
 10
0.0
 20
0.0
 30
0.0
  3
2
  1

  0
LINE
  5
6C0
330
6BD
100
AcDbEntity
  8
0
  6
Continuous
 62
     7
370
    15
100
AcDbLine
 10
2056.298032145623
 20
2208.553442947723
 30
0.0
 11
3056.298032145623
 21
2208.553442947723
 31
0.0
  0
LINE
  5
6C1
330
6BD
100
AcDbEntity
  8
0
  6
Continuous
 62
     7
370
    15
100
AcDbLine
 10
2056.298032145623
 20
2208.553442947723
 30
0.0
 11
2056.298032145623
 21
2207.553442947723
 31
0.0
  0
LINE
  5
6C2
330
6BD
100
AcDbEntity
  8
0
  6
Continuous
 62
     7
370
    15
100
AcDbLine
 10
2056.298032145623
 20
2207.553442947723
 30
0.0
 11
3056.298032145623
 21
2207.553442947723
 31
0.0
  0
LINE
  5
6C3
330
6BD
100
AcDbEntity
  8
0
  6
Continuous
 62
     7
370
    15
100
AcDbLine
 10
3056.298032145623
 20
2207.553442947723
 30
0.0
 11
3056.298032145623
 21
2208.553442947723
 31
0.0
  0
LINE
  5
6C4
330
6BD
100
AcDbEntity
  8
0
  6
Continuous
 62
     7
370
    15
100
AcDbLine
 10
3056.298032145623
 20
2206.753442947723
 30
0.0
 11
2056.298032145623
 21
2206.753442947723
 31
0.0
  0
LINE
  5
6C5
330
6BD
100
AcDbEntity
  8
0
  6
Continuous
 62
     7
370
    15
100
AcDbLine
 10
2056.298032145623
 20
2206.753442947723
 30
0.0
 11
2056.298032145623
 21
2207.553442947723
 31
0.0
  0
LINE
  5
6C6
330
6BD
100
AcDbEntity
  8
0
  6
Continuous
 62
     7
370
    15
100
AcDbLine
 10
3056.298032145623
 20
2207.553442947723
 30
0.0
 11
3056.298032145623
 21
2206.753442947723
 31
0.0
  0
LINE
  5
6C7
330
6BD
100
AcDbEntity
  8
0
  6
Continuous
 62
     7
370
    15
100
AcDbLine
 10
3056.298032145623
 20
2202.853442947723
 30
0.0
 11
2056.298032145623
 21
2202.853442947723
 31
0.0
  0
LINE
  5
6C8
330
6BD
100
AcDbEntity
  8
0
  6
Continuous
 62
     7
370
    15
100
AcDbLine
 10
2056.298032145623
 20
2202.853442947723
 30
0.0
 11
2056.298032145623
 21
2206.753442947723
 31
0.0
  0
LINE
  5
6C9
330
6BD
100
AcDbEntity
  8
0
  6
Continuous
 62
     7
370
    15
100
AcDbLine
 10
3056.298032145623
 20
2202.853442947723
 30
0.0
 11
3056.298032145623
 21
2206.753442947723
 31
0.0
  0
LINE
  5
6CA
330
6BD
100
AcDbEntity
  8
0
  6
Continuous
 62
     7
370
    15
100
AcDbLine
 10
2056.298032145623
 20
2201.053442947723
 30
0.0
 11
3056.298032145623
 21
2201.053442947723
 31
0.0
  0
LINE
  5
6CB
330
6BD
100
AcDbEntity
  8
0
  6
Continuous
 62
     7
370
    15
100
AcDbLine
 10
2056.298032145623
 20
2201.053442947723
 30
0.0
 11
2056.298032145623
 21
2202.853442947723
 31
0.0
  0
LINE
  5
6CC
330
6BD
100
AcDbEntity
  8
0
  6
Continuous
 62
     7
370
    15
100
AcDbLine
 10
3056.298032145623
 20
2201.053442947723
 30
0.0
 11
3056.298032145623
 21
2202.853442947723
 31
0.0
  0
ENDBLK
  5
6BF
330
6BD
100
AcDbEntity
  8
0
100
AcDbBlockEnd
  0
BLOCK
  5
6CF
330
6CE
100
AcDbEntity
  8
0
100
AcDbBlockBegin
  2
3
 70
     0
 10
0.0
 20
0.0
 30
0.0
  3
3
  1

  0
LINE
  5
931
330
6CE
100
AcDbEntity
  8
0
  6
Continuous
 62
     7
370
    15
100
AcDbLine
 10
3116.897161011404
 20
1181.293604403489
 30
0.0
 11
3116.897161011404
 21
2181.293604403489
 31
0.0
1001
AcDbBlockRepETag
1070
     1
1071
        0
1005
931
  0
LINE
  5
932
330
6CE
100
AcDbEntity
  8
0
  6
Continuous
 62
     7
370
    15
100
AcDbLine
 10
3119.997161011404
 20
1181.293604403489
 30
0.0
 11
3116.897161011404
 21
1181.293604403489
 31
0.0
1001
AcDbBlockRepETag
1070
     1
1071
        1
1005
932
  0
LINE
  5
933
330
6CE
100
AcDbEntity
  8
0
  6
Continuous
 62
     7
370
    15
100
AcDbLine
 10
3119.997161011404
 20
1181.293604403489
 30
0.0
 11
3119.997161011404
 21
2181.293604403489
 31
0.0
1001
AcDbBlockRepETag
1070
     1
1071
        2
1005
933
  0
LINE
  5
934
330
6CE
100
AcDbEntity
  8
0
  6
Continuous
 62
     7
370
    15
100
AcDbLine
 10
3119.997161011404
 20
2181.293604403489
 30
0.0
 11
3116.897161011404
 21
2181.293604403489
 31
0.0
1001
AcDbBlockRepETag
1070
     1
1071
        3
1005
934
  0
LINE
  5
935
330
6CE
100
AcDbEntity
  8
0
  6
Continuous
 62
     7
370
    15
100
AcDbLine
 10
3088.097161011404
 20
1181.293604403489
 30
0.0
 11
3088.097161011404
 21
2181.293604403489
 31
0.0
1001
AcDbBlockRepETag
1070
     1
1071
        4
1005
935
  0
LINE
  5
936
330
6CE
100
AcDbEntity
  8
0
  6
Continuous
 62
     7
370
    15
100
AcDbLine
 10
3088.097161011404
 20
1181.293604403489
 30
0.0
 11
3084.997161011404
 21
1181.293604403489
 31
0.0
1001
AcDbBlockRepETag
1070
     1
1071
        5
1005
936
  0
LINE
  5
937
330
6CE
100
AcDbEntity
  8
0
  6
Continuous
 62
     7
370
    15
100
AcDbLine
 10
3084.997161011404
 20
2181.293604403489
 30
0.0
 11
3084.997161011404
 21
1181.293604403489
 31
0.0
1001
AcDbBlockRepETag
1070
     1
1071
        6
1005
937
  0
LINE
  5
938
330
6CE
100
AcDbEntity
  8
0
  6
Continuous
 62
     7
370
    15
100
AcDbLine
 10
3088.097161011404
 20
2181.293604403489
 30
0.0
 11
3084.997161011404
 21
2181.293604403489
 31
0.0
1001
AcDbBlockRepETag
1070
     1
1071
        7
1005
938
  0
LINE
  5
939
330
6CE
100
AcDbEntity
  8
0
  6
Continuous
 62
     7
370
    15
100
AcDbLine
 10
3115.097161011404
 20
2181.293604403489
 30
0.0
 11
3115.097161011404
 21
1181.293604403489
 31
0.0
1001
AcDbBlockRepETag
1070
     1
1071
        8
1005
939
  0
LINE
  5
93A
330
6CE
100
AcDbEntity
  8
0
  6
Continuous
 62
     7
370
    15
100
AcDbLine
 10
3116.897161011404
 20
1181.293604403489
 30
0.0
 11
3115.097161011404
 21
1181.293604403489
 31
0.0
1001
AcDbBlockRepETag
1070
     1
1071
        9
1005
93A
  0
LINE
  5
93B
330
6CE
100
AcDbEntity
  8
0
  6
Continuous
 62
     7
370
    15
100
AcDbLine
 10
3116.897161011404
 20
2181.293604403489
 30
0.0
 11
3115.097161011404
 21
2181.293604403489
 31
0.0
1001
AcDbBlockRepETag
1070
     1
1071
       10
1005
93B
  0
LINE
  5
93C
330
6CE
100
AcDbEntity
  8
0
  6
Continuous
 62
     7
370
    15
100
AcDbLine
 10
3089.897161011404
 20
1181.293604403489
 30
0.0
 11
3089.897161011404
 21
2181.293604403489
 31
0.0
1001
AcDbBlockRepETag
1070
     1
1071
       11
1005
93C
  0
LINE
  5
93D
330
6CE
100
AcDbEntity
  8
0
  6
Continuous
 62
     7
370
    15
100
AcDbLine
 10
3089.897161011404
 20
1181.293604403489
 30
0.0
 11
3088.097161011404
 21
1181.293604403489
 31
0.0
1001
AcDbBlockRepETag
1070
     1
1071
       12
1005
93D
  0
LINE
  5
93E
330
6CE
100
AcDbEntity
  8
0
  6
Continuous
 62
     7
370
    15
100
AcDbLine
 10
3089.897161011404
 20
2181.293604403489
 30
0.0
 11
3088.097161011404
 21
2181.293604403489
 31
0.0
1001
AcDbBlockRepETag
1070
     1
1071
       13
1005
93E
  0
LINE
  5
93F
330
6CE
100
AcDbEntity
  8
0
  6
Continuous
 62
     7
370
    15
100
AcDbLine
 10
3114.297161011404
 20
1181.293604403489
 30
0.0
 11
3114.297161011404
 21
2181.293604403489
 31
0.0
1001
AcDbBlockRepETag
1070
     1
1071
       14
1005
93F
  0
LINE
  5
940
330
6CE
100
AcDbEntity
  8
0
  6
Continuous
 62
     7
370
    15
100
AcDbLine
 10
3115.097161011404
 20
1181.293604403489
 30
0.0
 11
3114.297161011404
 21
1181.293604403489
 31
0.0
1001
AcDbBlockRepETag
1070
     1
1071
       15
1005
940
  0
LINE
  5
941
330
6CE
100
AcDbEntity
  8
0
  6
Continuous
 62
     7
370
    15
100
AcDbLine
 10
3114.297161011404
 20
2181.293604403489
 30
0.0
 11
3115.097161011404
 21
2181.293604403489
 31
0.0
1001
AcDbBlockRepETag
1070
     1
1071
       16
1005
941
  0
LINE
  5
942
330
6CE
100
AcDbEntity
  8
0
  6
Continuous
 62
     7
370
    15
100
AcDbLine
 10
3090.697161011404
 20
2181.293604403489
 30
0.0
 11
3090.697161011404
 21
1181.293604403489
 31
0.0
1001
AcDbBlockRepETag
1070
     1
1071
       17
1005
942
  0
LINE
  5
943
330
6CE
100
AcDbEntity
  8
0
  6
Continuous
 62
     7
370
    15
100
AcDbLine
 10
3090.697161011404
 20
1181.293604403489
 30
0.0
 11
3089.897161011404
 21
1181.293604403489
 31
0.0
1001
AcDbBlockRepETag
1070
     1
1071
       18
1005
943
  0
LINE
  5
944
330
6CE
100
AcDbEntity
  8
0
  6
Continuous
 62
     7
370
    15
100
AcDbLine
 10
3089.897161011404
 20
2181.293604403489
 30
0.0
 11
3090.697161011404
 21
2181.293604403489
 31
0.0
1001
AcDbBlockRepETag
1070
     1
1071
       19
1005
944
  0
LINE
  5
945
330
6CE
100
AcDbEntity
  8
0
  6
Continuous
 62
     7
370
    15
100
AcDbLine
 10
3105.647161011404
 20
1211.293604403489
 30
0.0
 11
3105.647161011404
 21
1199.593604403489
 31
0.0
1001
AcDbBlockRepETag
1070
     1
1071
       20
1005
945
  0
ARC
  5
946
330
6CE
100
AcDbEntity
  8
0
  6
Continuous
 62
     7
370
    15
100
AcDbCircle
 10
3102.497161011404
 20
1211.293604403489
 30
0.0
 40
3.150000000000034
100
AcDbArc
 50
0.0
 51
180.0
1001
AcDbBlockRepETag
1070
     1
1071
       21
1005
946
  0
LINE
  5
947
330
6CE
100
AcDbEntity
  8
0
  6
Continuous
 62
     7
370
    15
100
AcDbLine
 10
3099.347161011404
 20
1199.593604403489
 30
0.0
 11
3099.347161011404
 21
1211.293604403489
 31
0.0
1001
AcDbBlockRepETag
1070
     1
1071
       22
1005
947
  0
ARC
  5
948
330
6CE
100
AcDbEntity
  8
0
  6
Continuous
 62
     7
370
    15
100
AcDbCircle
 10
3102.497161011404
 20
1199.593604403489
 30
0.0
 40
3.150000000000034
100
AcDbArc
 50
180.0
 51
0.0
1001
AcDbBlockRepETag
1070
     1
1071
       23
1005
948
  0
LINE
  5
949
330
6CE
100
AcDbEntity
  8
0
  6
Continuous
 62
     7
370
    15
100
AcDbLine
 10
3105.647161011404
 20
1224.593604403489
 30
0.0
 11
3105.647161011404
 21
1236.293604403489
 31
0.0
1001
AcDbBlockRepETag
1070
     1
1071
       24
1005
949
  0
ARC
  5
94A
330
6CE
100
AcDbEntity
  8
0
  6
Continuous
 62
     7
370
    15
100
AcDbCircle
 10
3102.497161011404
 20
1236.293604403489
 30
0.0
 40
3.15000000000009
100
AcDbArc
 50
0.0
 51
180.0
1001
AcDbBlockRepETag
1070
     1
1071
       25
1005
94A
  0
LINE
  5
94B
330
6CE
100
AcDbEntity
  8
0
  6
Continuous
 62
     7
370
    15
100
AcDbLine
 10
3099.347161011404
 20
1236.293604403489
 30
0.0
 11
3099.347161011404
 21
1224.593604403489
 31
0.0
1001
AcDbBlockRepETag
1070
     1
1071
       26
1005
94B
  0
ARC
  5
94C
330
6CE
100
AcDbEntity
  8
0
  6
Continuous
 62
     7
370
    15
100
AcDbCircle
 10
3102.497161011404
 20
1224.593604403489
 30
0.0
 40
3.15000000000009
100
AcDbArc
 50
180.0
 51
0.0
1001
AcDbBlockRepETag
1070
     1
1071
       27
1005
94C
  0
LINE
  5
94D
330
6CE
100
AcDbEntity
  8
0
  6
Continuous
 62
     7
370
    15
100
AcDbLine
 10
3105.647161011404
 20
1249.593604403489
 30
0.0
 11
3105.647161011404
 21
1261.293604403489
 31
0.0
1001
AcDbBlockRepETag
1070
     1
1071
       28
1005
94D
  0
ARC
  5
94E
330
6CE
100
AcDbEntity
  8
0
  6
Continuous
 62
     7
370
    15
100
AcDbCircle
 10
3102.497161011404
 20
1261.293604403489
 30
0.0
 40
3.15000000000009
100
AcDbArc
 50
0.0
 51
180.0
1001
AcDbBlockRepETag
1070
     1
1071
       29
1005
94E
  0
LINE
  5
94F
330
6CE
100
AcDbEntity
  8
0
  6
Continuous
 62
     7
370
    15
100
AcDbLine
 10
3099.347161011404
 20
1261.293604403489
 30
0.0
 11
3099.347161011404
 21
1249.593604403489
 31
0.0
1001
AcDbBlockRepETag
1070
     1
1071
       30
1005
94F
  0
ARC
  5
950
330
6CE
100
AcDbEntity
  8
0
  6
Continuous
 62
     7
370
    15
100
AcDbCircle
 10
3102.497161011404
 20
1249.593604403489
 30
0.0
 40
3.15000000000009
100
AcDbArc
 50
180.0
 51
0.0
1001
AcDbBlockRepETag
1070
     1
1071
       31
1005
950
  0
LINE
  5
951
330
6CE
100
AcDbEntity
  8
0
  6
Continuous
 62
     7
370
    15
100
AcDbLine
 10
3105.647161011404
 20
1274.593604403489
 30
0.0
 11
3105.647161011404
 21
1286.293604403489
 31
0.0
1001
AcDbBlockRepETag
1070
     1
1071
       32
1005
951
  0
ARC
  5
952
330
6CE
100
AcDbEntity
  8
0
  6
Continuous
 62
     7
370
    15
100
AcDbCircle
 10
3102.497161011404
 20
1286.293604403489
 30
0.0
 40
3.15000000000009
100
AcDbArc
 50
0.0
 51
180.0
1001
AcDbBlockRepETag
1070
     1
1071
       33
1005
952
  0
LINE
  5
953
330
6CE
100
AcDbEntity
  8
0
  6
Continuous
 62
     7
370
    15
100
AcDbLine
 10
3099.347161011404
 20
1286.293604403489
 30
0.0
 11
3099.347161011404
 21
1274.593604403489
 31
0.0
1001
AcDbBlockRepETag
1070
     1
1071
       34
1005
953
  0
ARC
  5
954
330
6CE
100
AcDbEntity
  8
0
  6
Continuous
 62
     7
370
    15
100
AcDbCircle
 10
3102.497161011404
 20
1274.593604403489
 30
0.0
 40
3.15000000000009
100
AcDbArc
 50
180.0
 51
0.0
1001
AcDbBlockRepETag
1070
     1
1071
       35
1005
954
  0
LINE
  5
955
330
6CE
100
AcDbEntity
  8
0
  6
Continuous
 62
     7
370
    15
100
AcDbLine
 10
3105.647161011404
 20
1299.593604403489
 30
0.0
 11
3105.647161011404
 21
1311.293604403489
 31
0.0
1001
AcDbBlockRepETag
1070
     1
1071
       36
1005
955
  0
ARC
  5
956
330
6CE
100
AcDbEntity
  8
0
  6
Continuous
 62
     7
370
    15
100
AcDbCircle
 10
3102.497161011404
 20
1311.293604403489
 30
0.0
 40
3.15000000000009
100
AcDbArc
 50
0.0
 51
180.0
1001
AcDbBlockRepETag
1070
     1
1071
       37
1005
956
  0
LINE
  5
957
330
6CE
100
AcDbEntity
  8
0
  6
Continuous
 62
     7
370
    15
100
AcDbLine
 10
3099.347161011404
 20
1311.293604403489
 30
0.0
 11
3099.347161011404
 21
1299.593604403489
 31
0.0
1001
AcDbBlockRepETag
1070
     1
1071
       38
1005
957
  0
ARC
  5
958
330
6CE
100
AcDbEntity
  8
0
  6
Continuous
 62
     7
370
    15
100
AcDbCircle
 10
3102.497161011404
 20
1299.593604403489
 30
0.0
 40
3.15000000000009
100
AcDbArc
 50
180.0
 51
0.0
1001
AcDbBlockRepETag
1070
     1
1071
       39
1005
958
  0
LINE
  5
959
330
6CE
100
AcDbEntity
  8
0
  6
Continuous
 62
     7
370
    15
100
AcDbLine
 10
3105.647161011404
 20
1324.593604403489
 30
0.0
 11
3105.647161011404
 21
1336.293604403489
 31
0.0
1001
AcDbBlockRepETag
1070
     1
1071
       40
1005
959
  0
ARC
  5
95A
330
6CE
100
AcDbEntity
  8
0
  6
Continuous
 62
     7
370
    15
100
AcDbCircle
 10
3102.497161011404
 20
1336.293604403489
 30
0.0
 40
3.15000000000009
100
AcDbArc
 50
0.0
 51
180.0
1001
AcDbBlockRepETag
1070
     1
1071
       41
1005
95A
  0
LINE
  5
95B
330
6CE
100
AcDbEntity
  8
0
  6
Continuous
 62
     7
370
    15
100
AcDbLine
 10
3099.347161011404
 20
1336.293604403489
 30
0.0
 11
3099.347161011404
 21
1324.593604403489
 31
0.0
1001
AcDbBlockRepETag
1070
     1
1071
       42
1005
95B
  0
ARC
  5
95C
330
6CE
100
AcDbEntity
  8
0
  6
Continuous
 62
     7
370
    15
100
AcDbCircle
 10
3102.497161011404
 20
1324.593604403489
 30
0.0
 40
3.15000000000009
100
AcDbArc
 50
180.0
 51
0.0
1001
AcDbBlockRepETag
1070
     1
1071
       43
1005
95C
  0
LINE
  5
95D
330
6CE
100
AcDbEntity
  8
0
  6
Continuous
 62
     7
370
    15
100
AcDbLine
 10
3105.647161011404
 20
1349.593604403489
 30
0.0
 11
3105.647161011404
 21
1361.293604403489
 31
0.0
1001
AcDbBlockRepETag
1070
     1
1071
       44
1005
95D
  0
ARC
  5
95E
330
6CE
100
AcDbEntity
  8
0
  6
Continuous
 62
     7
370
    15
100
AcDbCircle
 10
3102.497161011404
 20
1361.293604403489
 30
0.0
 40
3.15000000000009
100
AcDbArc
 50
0.0
 51
180.0
1001
AcDbBlockRepETag
1070
     1
1071
       45
1005
95E
  0
LINE
  5
95F
330
6CE
100
AcDbEntity
  8
0
  6
Continuous
 62
     7
370
    15
100
AcDbLine
 10
3099.347161011404
 20
1361.293604403489
 30
0.0
 11
3099.347161011404
 21
1349.593604403489
 31
0.0
1001
AcDbBlockRepETag
1070
     1
1071
       46
1005
95F
  0
ARC
  5
960
330
6CE
100
AcDbEntity
  8
0
  6
Continuous
 62
     7
370
    15
100
AcDbCircle
 10
3102.497161011404
 20
1349.593604403489
 30
0.0
 40
3.15000000000009
100
AcDbArc
 50
180.0
 51
0.0
1001
AcDbBlockRepETag
1070
     1
1071
       47
1005
960
  0
LINE
  5
961
330
6CE
100
AcDbEntity
  8
0
  6
Continuous
 62
     7
370
    15
100
AcDbLine
 10
3105.647161011404
 20
1374.593604403489
 30
0.0
 11
3105.647161011404
 21
1386.293604403489
 31
0.0
1001
AcDbBlockRepETag
1070
     1
1071
       48
1005
961
  0
ARC
  5
962
330
6CE
100
AcDbEntity
  8
0
  6
Continuous
 62
     7
370
    15
100
AcDbCircle
 10
3102.497161011404
 20
1386.293604403489
 30
0.0
 40
3.15000000000009
100
AcDbArc
 50
0.0
 51
180.0
1001
AcDbBlockRepETag
1070
     1
1071
       49
1005
962
  0
LINE
  5
963
330
6CE
100
AcDbEntity
  8
0
  6
Continuous
 62
     7
370
    15
100
AcDbLine
 10
3099.347161011404
 20
1386.293604403489
 30
0.0
 11
3099.347161011404
 21
1374.593604403489
 31
0.0
1001
AcDbBlockRepETag
1070
     1
1071
       50
1005
963
  0
ARC
  5
964
330
6CE
100
AcDbEntity
  8
0
  6
Continuous
 62
     7
370
    15
100
AcDbCircle
 10
3102.497161011404
 20
1374.593604403489
 30
0.0
 40
3.15000000000009
100
AcDbArc
 50
180.0
 51
0.0
1001
AcDbBlockRepETag
1070
     1
1071
       51
1005
964
  0
LINE
  5
965
330
6CE
100
AcDbEntity
  8
0
  6
Continuous
 62
     7
370
    15
100
AcDbLine
 10
3105.647161011404
 20
1399.593604403489
 30
0.0
 11
3105.647161011404
 21
1411.293604403489
 31
0.0
1001
AcDbBlockRepETag
1070
     1
1071
       52
1005
965
  0
ARC
  5
966
330
6CE
100
AcDbEntity
  8
0
  6
Continuous
 62
     7
370
    15
100
AcDbCircle
 10
3102.497161011404
 20
1411.293604403489
 30
0.0
 40
3.15000000000009
100
AcDbArc
 50
0.0
 51
180.0
1001
AcDbBlockRepETag
1070
     1
1071
       53
1005
966
  0
LINE
  5
967
330
6CE
100
AcDbEntity
  8
0
  6
Continuous
 62
     7
370
    15
100
AcDbLine
 10
3099.347161011404
 20
1411.293604403489
 30
0.0
 11
3099.347161011404
 21
1399.593604403489
 31
0.0
1001
AcDbBlockRepETag
1070
     1
1071
       54
1005
967
  0
ARC
  5
968
330
6CE
100
AcDbEntity
  8
0
  6
Continuous
 62
     7
370
    15
100
AcDbCircle
 10
3102.497161011404
 20
1399.593604403489
 30
0.0
 40
3.15000000000009
100
AcDbArc
 50
180.0
 51
0.0
1001
AcDbBlockRepETag
1070
     1
1071
       55
1005
968
  0
LINE
  5
969
330
6CE
100
AcDbEntity
  8
0
  6
Continuous
 62
     7
370
    15
100
AcDbLine
 10
3105.647161011404
 20
1424.593604403488
 30
0.0
 11
3105.647161011404
 21
1436.293604403489
 31
0.0
1001
AcDbBlockRepETag
1070
     1
1071
       56
1005
969
  0
ARC
  5
96A
330
6CE
100
AcDbEntity
  8
0
  6
Continuous
 62
     7
370
    15
100
AcDbCircle
 10
3102.497161011404
 20
1436.293604403489
 30
0.0
 40
3.15000000000009
100
AcDbArc
 50
0.0
 51
180.0
1001
AcDbBlockRepETag
1070
     1
1071
       57
1005
96A
  0
LINE
  5
96B
330
6CE
100
AcDbEntity
  8
0
  6
Continuous
 62
     7
370
    15
100
AcDbLine
 10
3099.347161011404
 20
1436.293604403489
 30
0.0
 11
3099.347161011404
 21
1424.593604403488
 31
0.0
1001
AcDbBlockRepETag
1070
     1
1071
       58
1005
96B
  0
ARC
  5
96C
330
6CE
100
AcDbEntity
  8
0
  6
Continuous
 62
     7
370
    15
100
AcDbCircle
 10
3102.497161011404
 20
1424.593604403488
 30
0.0
 40
3.15000000000009
100
AcDbArc
 50
180.0
 51
0.0
1001
AcDbBlockRepETag
1070
     1
1071
       59
1005
96C
  0
LINE
  5
96D
330
6CE
100
AcDbEntity
  8
0
  6
Continuous
 62
     7
370
    15
100
AcDbLine
 10
3105.647161011404
 20
1449.593604403489
 30
0.0
 11
3105.647161011404
 21
1461.293604403489
 31
0.0
1001
AcDbBlockRepETag
1070
     1
1071
       60
1005
96D
  0
ARC
  5
96E
330
6CE
100
AcDbEntity
  8
0
  6
Continuous
 62
     7
370
    15
100
AcDbCircle
 10
3102.497161011404
 20
1461.293604403489
 30
0.0
 40
3.15000000000009
100
AcDbArc
 50
0.0
 51
180.0
1001
AcDbBlockRepETag
1070
     1
1071
       61
1005
96E
  0
LINE
  5
96F
330
6CE
100
AcDbEntity
  8
0
  6
Continuous
 62
     7
370
    15
100
AcDbLine
 10
3099.347161011404
 20
1461.293604403489
 30
0.0
 11
3099.347161011404
 21
1449.593604403489
 31
0.0
1001
AcDbBlockRepETag
1070
     1
1071
       62
1005
96F
  0
ARC
  5
970
330
6CE
100
AcDbEntity
  8
0
  6
Continuous
 62
     7
370
    15
100
AcDbCircle
 10
3102.497161011404
 20
1449.593604403489
 30
0.0
 40
3.15000000000009
100
AcDbArc
 50
180.0
 51
359.999999999987
1001
AcDbBlockRepETag
1070
     1
1071
       63
1005
970
  0
LINE
  5
971
330
6CE
100
AcDbEntity
  8
0
  6
Continuous
 62
     7
370
    15
100
AcDbLine
 10
3105.647161011404
 20
1474.593604403489
 30
0.0
 11
3105.647161011404
 21
1486.293604403489
 31
0.0
1001
AcDbBlockRepETag
1070
     1
1071
       64
1005
971
  0
ARC
  5
972
330
6CE
100
AcDbEntity
  8
0
  6
Continuous
 62
     7
370
    15
100
AcDbCircle
 10
3102.497161011404
 20
1486.293604403489
 30
0.0
 40
3.15000000000009
100
AcDbArc
 50
0.0
 51
180.0
1001
AcDbBlockRepETag
1070
     1
1071
       65
1005
972
  0
LINE
  5
973
330
6CE
100
AcDbEntity
  8
0
  6
Continuous
 62
     7
370
    15
100
AcDbLine
 10
3099.347161011404
 20
1486.293604403489
 30
0.0
 11
3099.347161011404
 21
1474.593604403489
 31
0.0
1001
AcDbBlockRepETag
1070
     1
1071
       66
1005
973
  0
ARC
  5
974
330
6CE
100
AcDbEntity
  8
0
  6
Continuous
 62
     7
370
    15
100
AcDbCircle
 10
3102.497161011404
 20
1474.593604403489
 30
0.0
 40
3.15000000000009
100
AcDbArc
 50
180.0
 51
0.0
1001
AcDbBlockRepETag
1070
     1
1071
       67
1005
974
  0
LINE
  5
975
330
6CE
100
AcDbEntity
  8
0
  6
Continuous
 62
     7
370
    15
100
AcDbLine
 10
3105.647161011404
 20
1499.593604403489
 30
0.0
 11
3105.647161011404
 21
1511.293604403489
 31
0.0
1001
AcDbBlockRepETag
1070
     1
1071
       68
1005
975
  0
ARC
  5
976
330
6CE
100
AcDbEntity
  8
0
  6
Continuous
 62
     7
370
    15
100
AcDbCircle
 10
3102.497161011404
 20
1511.293604403489
 30
0.0
 40
3.15000000000009
100
AcDbArc
 50
0.0
 51
180.0
1001
AcDbBlockRepETag
1070
     1
1071
       69
1005
976
  0
LINE
  5
977
330
6CE
100
AcDbEntity
  8
0
  6
Continuous
 62
     7
370
    15
100
AcDbLine
 10
3099.347161011404
 20
1511.293604403489
 30
0.0
 11
3099.347161011404
 21
1499.593604403489
 31
0.0
1001
AcDbBlockRepETag
1070
     1
1071
       70
1005
977
  0
ARC
  5
978
330
6CE
100
AcDbEntity
  8
0
  6
Continuous
 62
     7
370
    15
100
AcDbCircle
 10
3102.497161011404
 20
1499.593604403489
 30
0.0
 40
3.15000000000009
100
AcDbArc
 50
180.0
 51
359.999999999987
1001
AcDbBlockRepETag
1070
     1
1071
       71
1005
978
  0
LINE
  5
979
330
6CE
100
AcDbEntity
  8
0
  6
Continuous
 62
     7
370
    15
100
AcDbLine
 10
3105.647161011404
 20
1524.593604403489
 30
0.0
 11
3105.647161011404
 21
1536.293604403489
 31
0.0
1001
AcDbBlockRepETag
1070
     1
1071
       72
1005
979
  0
ARC
  5
97A
330
6CE
100
AcDbEntity
  8
0
  6
Continuous
 62
     7
370
    15
100
AcDbCircle
 10
3102.497161011404
 20
1536.293604403489
 30
0.0
 40
3.15000000000009
100
AcDbArc
 50
0.0
 51
180.0
1001
AcDbBlockRepETag
1070
     1
1071
       73
1005
97A
  0
LINE
  5
97B
330
6CE
100
AcDbEntity
  8
0
  6
Continuous
 62
     7
370
    15
100
AcDbLine
 10
3099.347161011404
 20
1536.293604403489
 30
0.0
 11
3099.347161011404
 21
1524.593604403489
 31
0.0
1001
AcDbBlockRepETag
1070
     1
1071
       74
1005
97B
  0
ARC
  5
97C
330
6CE
100
AcDbEntity
  8
0
  6
Continuous
 62
     7
370
    15
100
AcDbCircle
 10
3102.497161011404
 20
1524.593604403489
 30
0.0
 40
3.15000000000009
100
AcDbArc
 50
180.0
 51
0.0
1001
AcDbBlockRepETag
1070
     1
1071
       75
1005
97C
  0
LINE
  5
97D
330
6CE
100
AcDbEntity
  8
0
  6
Continuous
 62
     7
370
    15
100
AcDbLine
 10
3105.647161011404
 20
1549.593604403488
 30
0.0
 11
3105.647161011404
 21
1561.293604403489
 31
0.0
1001
AcDbBlockRepETag
1070
     1
1071
       76
1005
97D
  0
ARC
  5
97E
330
6CE
100
AcDbEntity
  8
0
  6
Continuous
 62
     7
370
    15
100
AcDbCircle
 10
3102.497161011404
 20
1561.293604403489
 30
0.0
 40
3.15000000000009
100
AcDbArc
 50
0.0
 51
180.0
1001
AcDbBlockRepETag
1070
     1
1071
       77
1005
97E
  0
LINE
  5
97F
330
6CE
100
AcDbEntity
  8
0
  6
Continuous
 62
     7
370
    15
100
AcDbLine
 10
3099.347161011404
 20
1561.293604403489
 30
0.0
 11
3099.347161011404
 21
1549.593604403488
 31
0.0
1001
AcDbBlockRepETag
1070
     1
1071
       78
1005
97F
  0
ARC
  5
980
330
6CE
100
AcDbEntity
  8
0
  6
Continuous
 62
     7
370
    15
100
AcDbCircle
 10
3102.497161011404
 20
1549.593604403488
 30
0.0
 40
3.15000000000009
100
AcDbArc
 50
180.0
 51
0.0
1001
AcDbBlockRepETag
1070
     1
1071
       79
1005
980
  0
LINE
  5
981
330
6CE
100
AcDbEntity
  8
0
  6
Continuous
 62
     7
370
    15
100
AcDbLine
 10
3105.647161011404
 20
1574.593604403489
 30
0.0
 11
3105.647161011404
 21
1586.293604403489
 31
0.0
1001
AcDbBlockRepETag
1070
     1
1071
       80
1005
981
  0
ARC
  5
982
330
6CE
100
AcDbEntity
  8
0
  6
Continuous
 62
     7
370
    15
100
AcDbCircle
 10
3102.497161011404
 20
1586.293604403489
 30
0.0
 40
3.15000000000009
100
AcDbArc
 50
0.0
 51
180.0
1001
AcDbBlockRepETag
1070
     1
1071
       81
1005
982
  0
LINE
  5
983
330
6CE
100
AcDbEntity
  8
0
  6
Continuous
 62
     7
370
    15
100
AcDbLine
 10
3099.347161011404
 20
1586.293604403489
 30
0.0
 11
3099.347161011404
 21
1574.593604403489
 31
0.0
1001
AcDbBlockRepETag
1070
     1
1071
       82
1005
983
  0
ARC
  5
984
330
6CE
100
AcDbEntity
  8
0
  6
Continuous
 62
     7
370
    15
100
AcDbCircle
 10
3102.497161011404
 20
1574.593604403489
 30
0.0
 40
3.15000000000009
100
AcDbArc
 50
180.0
 51
0.0
1001
AcDbBlockRepETag
1070
     1
1071
       83
1005
984
  0
LINE
  5
985
330
6CE
100
AcDbEntity
  8
0
  6
Continuous
 62
     7
370
    15
100
AcDbLine
 10
3105.647161011404
 20
1599.593604403489
 30
0.0
 11
3105.647161011404
 21
1611.293604403489
 31
0.0
1001
AcDbBlockRepETag
1070
     1
1071
       84
1005
985
  0
ARC
  5
986
330
6CE
100
AcDbEntity
  8
0
  6
Continuous
 62
     7
370
    15
100
AcDbCircle
 10
3102.497161011404
 20
1611.293604403489
 30
0.0
 40
3.15000000000009
100
AcDbArc
 50
0.0
 51
180.0
1001
AcDbBlockRepETag
1070
     1
1071
       85
1005
986
  0
LINE
  5
987
330
6CE
100
AcDbEntity
  8
0
  6
Continuous
 62
     7
370
    15
100
AcDbLine
 10
3099.347161011404
 20
1611.293604403489
 30
0.0
 11
3099.347161011404
 21
1599.593604403489
 31
0.0
1001
AcDbBlockRepETag
1070
     1
1071
       86
1005
987
  0
ARC
  5
988
330
6CE
100
AcDbEntity
  8
0
  6
Continuous
 62
     7
370
    15
100
AcDbCircle
 10
3102.497161011404
 20
1599.593604403489
 30
0.0
 40
3.15000000000009
100
AcDbArc
 50
180.0
 51
0.0
1001
AcDbBlockRepETag
1070
     1
1071
       87
1005
988
  0
LINE
  5
989
330
6CE
100
AcDbEntity
  8
0
  6
Continuous
 62
     7
370
    15
100
AcDbLine
 10
3105.647161011404
 20
1624.593604403489
 30
0.0
 11
3105.647161011404
 21
1636.293604403489
 31
0.0
1001
AcDbBlockRepETag
1070
     1
1071
       88
1005
989
  0
ARC
  5
98A
330
6CE
100
AcDbEntity
  8
0
  6
Continuous
 62
     7
370
    15
100
AcDbCircle
 10
3102.497161011404
 20
1636.293604403489
 30
0.0
 40
3.15000000000009
100
AcDbArc
 50
0.0
 51
180.0
1001
AcDbBlockRepETag
1070
     1
1071
       89
1005
98A
  0
LINE
  5
98B
330
6CE
100
AcDbEntity
  8
0
  6
Continuous
 62
     7
370
    15
100
AcDbLine
 10
3099.347161011404
 20
1636.293604403489
 30
0.0
 11
3099.347161011404
 21
1624.593604403489
 31
0.0
1001
AcDbBlockRepETag
1070
     1
1071
       90
1005
98B
  0
ARC
  5
98C
330
6CE
100
AcDbEntity
  8
0
  6
Continuous
 62
     7
370
    15
100
AcDbCircle
 10
3102.497161011404
 20
1624.593604403489
 30
0.0
 40
3.15000000000009
100
AcDbArc
 50
180.0
 51
0.0
1001
AcDbBlockRepETag
1070
     1
1071
       91
1005
98C
  0
LINE
  5
98D
330
6CE
100
AcDbEntity
  8
0
  6
Continuous
 62
     7
370
    15
100
AcDbLine
 10
3105.647161011404
 20
1649.593604403489
 30
0.0
 11
3105.647161011404
 21
1661.293604403489
 31
0.0
1001
AcDbBlockRepETag
1070
     1
1071
       92
1005
98D
  0
ARC
  5
98E
330
6CE
100
AcDbEntity
  8
0
  6
Continuous
 62
     7
370
    15
100
AcDbCircle
 10
3102.497161011404
 20
1661.293604403489
 30
0.0
 40
3.15000000000009
100
AcDbArc
 50
0.0
 51
180.0
1001
AcDbBlockRepETag
1070
     1
1071
       93
1005
98E
  0
LINE
  5
98F
330
6CE
100
AcDbEntity
  8
0
  6
Continuous
 62
     7
370
    15
100
AcDbLine
 10
3099.347161011404
 20
1661.293604403489
 30
0.0
 11
3099.347161011404
 21
1649.593604403489
 31
0.0
1001
AcDbBlockRepETag
1070
     1
1071
       94
1005
98F
  0
ARC
  5
990
330
6CE
100
AcDbEntity
  8
0
  6
Continuous
 62
     7
370
    15
100
AcDbCircle
 10
3102.497161011404
 20
1649.593604403489
 30
0.0
 40
3.15000000000009
100
AcDbArc
 50
180.0
 51
0.0
1001
AcDbBlockRepETag
1070
     1
1071
       95
1005
990
  0
LINE
  5
991
330
6CE
100
AcDbEntity
  8
0
  6
Continuous
 62
     7
370
    15
100
AcDbLine
 10
3105.647161011404
 20
1674.593604403488
 30
0.0
 11
3105.647161011404
 21
1686.293604403489
 31
0.0
1001
AcDbBlockRepETag
1070
     1
1071
       96
1005
991
  0
ARC
  5
992
330
6CE
100
AcDbEntity
  8
0
  6
Continuous
 62
     7
370
    15
100
AcDbCircle
 10
3102.497161011404
 20
1686.293604403489
 30
0.0
 40
3.15000000000009
100
AcDbArc
 50
0.0
 51
180.0
1001
AcDbBlockRepETag
1070
     1
1071
       97
1005
992
  0
LINE
  5
993
330
6CE
100
AcDbEntity
  8
0
  6
Continuous
 62
     7
370
    15
100
AcDbLine
 10
3099.347161011404
 20
1686.293604403489
 30
0.0
 11
3099.347161011404
 21
1674.593604403488
 31
0.0
1001
AcDbBlockRepETag
1070
     1
1071
       98
1005
993
  0
ARC
  5
994
330
6CE
100
AcDbEntity
  8
0
  6
Continuous
 62
     7
370
    15
100
AcDbCircle
 10
3102.497161011404
 20
1674.593604403488
 30
0.0
 40
3.15000000000009
100
AcDbArc
 50
180.0
 51
0.0
1001
AcDbBlockRepETag
1070
     1
1071
       99
1005
994
  0
LINE
  5
995
330
6CE
100
AcDbEntity
  8
0
  6
Continuous
 62
     7
370
    15
100
AcDbLine
 10
3105.647161011404
 20
1699.593604403489
 30
0.0
 11
3105.647161011404
 21
1711.293604403489
 31
0.0
1001
AcDbBlockRepETag
1070
     1
1071
      100
1005
995
  0
ARC
  5
996
330
6CE
100
AcDbEntity
  8
0
  6
Continuous
 62
     7
370
    15
100
AcDbCircle
 10
3102.497161011404
 20
1711.293604403489
 30
0.0
 40
3.15000000000009
100
AcDbArc
 50
0.0
 51
180.0
1001
AcDbBlockRepETag
1070
     1
1071
      101
1005
996
  0
LINE
  5
997
330
6CE
100
AcDbEntity
  8
0
  6
Continuous
 62
     7
370
    15
100
AcDbLine
 10
3099.347161011404
 20
1711.293604403489
 30
0.0
 11
3099.347161011404
 21
1699.593604403489
 31
0.0
1001
AcDbBlockRepETag
1070
     1
1071
      102
1005
997
  0
ARC
  5
998
330
6CE
100
AcDbEntity
  8
0
  6
Continuous
 62
     7
370
    15
100
AcDbCircle
 10
3102.497161011404
 20
1699.593604403489
 30
0.0
 40
3.15000000000009
100
AcDbArc
 50
180.0
 51
0.0
1001
AcDbBlockRepETag
1070
     1
1071
      103
1005
998
  0
LINE
  5
999
330
6CE
100
AcDbEntity
  8
0
  6
Continuous
 62
     7
370
    15
100
AcDbLine
 10
3105.647161011404
 20
1724.593604403489
 30
0.0
 11
3105.647161011404
 21
1736.293604403489
 31
0.0
1001
AcDbBlockRepETag
1070
     1
1071
      104
1005
999
  0
ARC
  5
99A
330
6CE
100
AcDbEntity
  8
0
  6
Continuous
 62
     7
370
    15
100
AcDbCircle
 10
3102.497161011404
 20
1736.293604403489
 30
0.0
 40
3.15000000000009
100
AcDbArc
 50
0.0
 51
180.0
1001
AcDbBlockRepETag
1070
     1
1071
      105
1005
99A
  0
LINE
  5
99B
330
6CE
100
AcDbEntity
  8
0
  6
Continuous
 62
     7
370
    15
100
AcDbLine
 10
3099.347161011404
 20
1736.293604403489
 30
0.0
 11
3099.347161011404
 21
1724.593604403489
 31
0.0
1001
AcDbBlockRepETag
1070
     1
1071
      106
1005
99B
  0
ARC
  5
99C
330
6CE
100
AcDbEntity
  8
0
  6
Continuous
 62
     7
370
    15
100
AcDbCircle
 10
3102.497161011404
 20
1724.593604403489
 30
0.0
 40
3.15000000000009
100
AcDbArc
 50
180.0
 51
0.0
1001
AcDbBlockRepETag
1070
     1
1071
      107
1005
99C
  0
LINE
  5
99D
330
6CE
100
AcDbEntity
  8
0
  6
Continuous
 62
     7
370
    15
100
AcDbLine
 10
3105.647161011404
 20
1749.593604403489
 30
0.0
 11
3105.647161011404
 21
1761.293604403489
 31
0.0
1001
AcDbBlockRepETag
1070
     1
1071
      108
1005
99D
  0
ARC
  5
99E
330
6CE
100
AcDbEntity
  8
0
  6
Continuous
 62
     7
370
    15
100
AcDbCircle
 10
3102.497161011404
 20
1761.293604403489
 30
0.0
 40
3.15000000000009
100
AcDbArc
 50
0.0
 51
180.0
1001
AcDbBlockRepETag
1070
     1
1071
      109
1005
99E
  0
LINE
  5
99F
330
6CE
100
AcDbEntity
  8
0
  6
Continuous
 62
     7
370
    15
100
AcDbLine
 10
3099.347161011404
 20
1761.293604403489
 30
0.0
 11
3099.347161011404
 21
1749.593604403489
 31
0.0
1001
AcDbBlockRepETag
1070
     1
1071
      110
1005
99F
  0
ARC
  5
9A0
330
6CE
100
AcDbEntity
  8
0
  6
Continuous
 62
     7
370
    15
100
AcDbCircle
 10
3102.497161011404
 20
1749.593604403489
 30
0.0
 40
3.15000000000009
100
AcDbArc
 50
180.0
 51
0.0
1001
AcDbBlockRepETag
1070
     1
1071
      111
1005
9A0
  0
LINE
  5
9A1
330
6CE
100
AcDbEntity
  8
0
  6
Continuous
 62
     7
370
    15
100
AcDbLine
 10
3105.647161011404
 20
1774.593604403489
 30
0.0
 11
3105.647161011404
 21
1786.293604403489
 31
0.0
1001
AcDbBlockRepETag
1070
     1
1071
      112
1005
9A1
  0
ARC
  5
9A2
330
6CE
100
AcDbEntity
  8
0
  6
Continuous
 62
     7
370
    15
100
AcDbCircle
 10
3102.497161011404
 20
1786.293604403489
 30
0.0
 40
3.15000000000009
100
AcDbArc
 50
0.0
 51
180.0
1001
AcDbBlockRepETag
1070
     1
1071
      113
1005
9A2
  0
LINE
  5
9A3
330
6CE
100
AcDbEntity
  8
0
  6
Continuous
 62
     7
370
    15
100
AcDbLine
 10
3099.347161011404
 20
1786.293604403489
 30
0.0
 11
3099.347161011404
 21
1774.593604403489
 31
0.0
1001
AcDbBlockRepETag
1070
     1
1071
      114
1005
9A3
  0
ARC
  5
9A4
330
6CE
100
AcDbEntity
  8
0
  6
Continuous
 62
     7
370
    15
100
AcDbCircle
 10
3102.497161011404
 20
1774.593604403489
 30
0.0
 40
3.15000000000009
100
AcDbArc
 50
180.0
 51
0.0
1001
AcDbBlockRepETag
1070
     1
1071
      115
1005
9A4
  0
LINE
  5
9A5
330
6CE
100
AcDbEntity
  8
0
  6
Continuous
 62
     7
370
    15
100
AcDbLine
 10
3105.647161011404
 20
1799.593604403489
 30
0.0
 11
3105.647161011404
 21
1811.293604403489
 31
0.0
1001
AcDbBlockRepETag
1070
     1
1071
      116
1005
9A5
  0
ARC
  5
9A6
330
6CE
100
AcDbEntity
  8
0
  6
Continuous
 62
     7
370
    15
100
AcDbCircle
 10
3102.497161011404
 20
1811.293604403489
 30
0.0
 40
3.15000000000009
100
AcDbArc
 50
0.0
 51
180.0
1001
AcDbBlockRepETag
1070
     1
1071
      117
1005
9A6
  0
LINE
  5
9A7
330
6CE
100
AcDbEntity
  8
0
  6
Continuous
 62
     7
370
    15
100
AcDbLine
 10
3099.347161011404
 20
1811.293604403489
 30
0.0
 11
3099.347161011404
 21
1799.593604403489
 31
0.0
1001
AcDbBlockRepETag
1070
     1
1071
      118
1005
9A7
  0
ARC
  5
9A8
330
6CE
100
AcDbEntity
  8
0
  6
Continuous
 62
     7
370
    15
100
AcDbCircle
 10
3102.497161011404
 20
1799.593604403489
 30
0.0
 40
3.15000000000009
100
AcDbArc
 50
180.0
 51
0.0
1001
AcDbBlockRepETag
1070
     1
1071
      119
1005
9A8
  0
LINE
  5
9A9
330
6CE
100
AcDbEntity
  8
0
  6
Continuous
 62
     7
370
    15
100
AcDbLine
 10
3105.647161011404
 20
1824.593604403489
 30
0.0
 11
3105.647161011404
 21
1836.293604403489
 31
0.0
1001
AcDbBlockRepETag
1070
     1
1071
      120
1005
9A9
  0
ARC
  5
9AA
330
6CE
100
AcDbEntity
  8
0
  6
Continuous
 62
     7
370
    15
100
AcDbCircle
 10
3102.497161011404
 20
1836.293604403489
 30
0.0
 40
3.15000000000009
100
AcDbArc
 50
0.0
 51
180.0
1001
AcDbBlockRepETag
1070
     1
1071
      121
1005
9AA
  0
LINE
  5
9AB
330
6CE
100
AcDbEntity
  8
0
  6
Continuous
 62
     7
370
    15
100
AcDbLine
 10
3099.347161011404
 20
1836.293604403489
 30
0.0
 11
3099.347161011404
 21
1824.593604403489
 31
0.0
1001
AcDbBlockRepETag
1070
     1
1071
      122
1005
9AB
  0
ARC
  5
9AC
330
6CE
100
AcDbEntity
  8
0
  6
Continuous
 62
     7
370
    15
100
AcDbCircle
 10
3102.497161011404
 20
1824.593604403489
 30
0.0
 40
3.15000000000009
100
AcDbArc
 50
180.0
 51
0.0
1001
AcDbBlockRepETag
1070
     1
1071
      123
1005
9AC
  0
LINE
  5
9AD
330
6CE
100
AcDbEntity
  8
0
  6
Continuous
 62
     7
370
    15
100
AcDbLine
 10
3105.647161011404
 20
1849.593604403489
 30
0.0
 11
3105.647161011404
 21
1861.293604403489
 31
0.0
1001
AcDbBlockRepETag
1070
     1
1071
      124
1005
9AD
  0
ARC
  5
9AE
330
6CE
100
AcDbEntity
  8
0
  6
Continuous
 62
     7
370
    15
100
AcDbCircle
 10
3102.497161011404
 20
1861.293604403489
 30
0.0
 40
3.15000000000009
100
AcDbArc
 50
0.0
 51
180.0
1001
AcDbBlockRepETag
1070
     1
1071
      125
1005
9AE
  0
LINE
  5
9AF
330
6CE
100
AcDbEntity
  8
0
  6
Continuous
 62
     7
370
    15
100
AcDbLine
 10
3099.347161011404
 20
1861.293604403489
 30
0.0
 11
3099.347161011404
 21
1849.593604403489
 31
0.0
1001
AcDbBlockRepETag
1070
     1
1071
      126
1005
9AF
  0
ARC
  5
9B0
330
6CE
100
AcDbEntity
  8
0
  6
Continuous
 62
     7
370
    15
100
AcDbCircle
 10
3102.497161011404
 20
1849.593604403489
 30
0.0
 40
3.15000000000009
100
AcDbArc
 50
180.0
 51
0.0
1001
AcDbBlockRepETag
1070
     1
1071
      127
1005
9B0
  0
LINE
  5
9B1
330
6CE
100
AcDbEntity
  8
0
  6
Continuous
 62
     7
370
    15
100
AcDbLine
 10
3105.647161011404
 20
1874.593604403489
 30
0.0
 11
3105.647161011404
 21
1886.293604403489
 31
0.0
1001
AcDbBlockRepETag
1070
     1
1071
      128
1005
9B1
  0
ARC
  5
9B2
330
6CE
100
AcDbEntity
  8
0
  6
Continuous
 62
     7
370
    15
100
AcDbCircle
 10
3102.497161011404
 20
1886.293604403489
 30
0.0
 40
3.15000000000009
100
AcDbArc
 50
0.0
 51
180.0
1001
AcDbBlockRepETag
1070
     1
1071
      129
1005
9B2
  0
LINE
  5
9B3
330
6CE
100
AcDbEntity
  8
0
  6
Continuous
 62
     7
370
    15
100
AcDbLine
 10
3099.347161011404
 20
1886.293604403489
 30
0.0
 11
3099.347161011404
 21
1874.593604403489
 31
0.0
1001
AcDbBlockRepETag
1070
     1
1071
      130
1005
9B3
  0
ARC
  5
9B4
330
6CE
100
AcDbEntity
  8
0
  6
Continuous
 62
     7
370
    15
100
AcDbCircle
 10
3102.497161011404
 20
1874.593604403489
 30
0.0
 40
3.15000000000009
100
AcDbArc
 50
180.0
 51
0.0
1001
AcDbBlockRepETag
1070
     1
1071
      131
1005
9B4
  0
LINE
  5
9B5
330
6CE
100
AcDbEntity
  8
0
  6
Continuous
 62
     7
370
    15
100
AcDbLine
 10
3105.647161011404
 20
1899.593604403489
 30
0.0
 11
3105.647161011404
 21
1911.293604403489
 31
0.0
1001
AcDbBlockRepETag
1070
     1
1071
      132
1005
9B5
  0
ARC
  5
9B6
330
6CE
100
AcDbEntity
  8
0
  6
Continuous
 62
     7
370
    15
100
AcDbCircle
 10
3102.497161011404
 20
1911.293604403489
 30
0.0
 40
3.15000000000009
100
AcDbArc
 50
0.0
 51
180.0
1001
AcDbBlockRepETag
1070
     1
1071
      133
1005
9B6
  0
LINE
  5
9B7
330
6CE
100
AcDbEntity
  8
0
  6
Continuous
 62
     7
370
    15
100
AcDbLine
 10
3099.347161011404
 20
1911.293604403489
 30
0.0
 11
3099.347161011404
 21
1899.593604403489
 31
0.0
1001
AcDbBlockRepETag
1070
     1
1071
      134
1005
9B7
  0
ARC
  5
9B8
330
6CE
100
AcDbEntity
  8
0
  6
Continuous
 62
     7
370
    15
100
AcDbCircle
 10
3102.497161011404
 20
1899.593604403489
 30
0.0
 40
3.15000000000009
100
AcDbArc
 50
180.0
 51
0.0
1001
AcDbBlockRepETag
1070
     1
1071
      135
1005
9B8
  0
LINE
  5
9B9
330
6CE
100
AcDbEntity
  8
0
  6
Continuous
 62
     7
370
    15
100
AcDbLine
 10
3105.647161011404
 20
1924.593604403489
 30
0.0
 11
3105.647161011404
 21
1936.293604403489
 31
0.0
1001
AcDbBlockRepETag
1070
     1
1071
      136
1005
9B9
  0
ARC
  5
9BA
330
6CE
100
AcDbEntity
  8
0
  6
Continuous
 62
     7
370
    15
100
AcDbCircle
 10
3102.497161011404
 20
1936.293604403489
 30
0.0
 40
3.15000000000009
100
AcDbArc
 50
0.0
 51
180.0
1001
AcDbBlockRepETag
1070
     1
1071
      137
1005
9BA
  0
LINE
  5
9BB
330
6CE
100
AcDbEntity
  8
0
  6
Continuous
 62
     7
370
    15
100
AcDbLine
 10
3099.347161011404
 20
1936.293604403489
 30
0.0
 11
3099.347161011404
 21
1924.593604403489
 31
0.0
1001
AcDbBlockRepETag
1070
     1
1071
      138
1005
9BB
  0
ARC
  5
9BC
330
6CE
100
AcDbEntity
  8
0
  6
Continuous
 62
     7
370
    15
100
AcDbCircle
 10
3102.497161011404
 20
1924.593604403489
 30
0.0
 40
3.15000000000009
100
AcDbArc
 50
180.0
 51
0.0
1001
AcDbBlockRepETag
1070
     1
1071
      139
1005
9BC
  0
LINE
  5
9BD
330
6CE
100
AcDbEntity
  8
0
  6
Continuous
 62
     7
370
    15
100
AcDbLine
 10
3105.647161011404
 20
1949.593604403489
 30
0.0
 11
3105.647161011404
 21
1961.293604403489
 31
0.0
1001
AcDbBlockRepETag
1070
     1
1071
      140
1005
9BD
  0
ARC
  5
9BE
330
6CE
100
AcDbEntity
  8
0
  6
Continuous
 62
     7
370
    15
100
AcDbCircle
 10
3102.497161011404
 20
1961.293604403489
 30
0.0
 40
3.15000000000009
100
AcDbArc
 50
0.0
 51
180.0
1001
AcDbBlockRepETag
1070
     1
1071
      141
1005
9BE
  0
LINE
  5
9BF
330
6CE
100
AcDbEntity
  8
0
  6
Continuous
 62
     7
370
    15
100
AcDbLine
 10
3099.347161011404
 20
1961.293604403489
 30
0.0
 11
3099.347161011404
 21
1949.593604403489
 31
0.0
1001
AcDbBlockRepETag
1070
     1
1071
      142
1005
9BF
  0
ARC
  5
9C0
330
6CE
100
AcDbEntity
  8
0
  6
Continuous
 62
     7
370
    15
100
AcDbCircle
 10
3102.497161011404
 20
1949.593604403489
 30
0.0
 40
3.15000000000009
100
AcDbArc
 50
180.0
 51
0.0
1001
AcDbBlockRepETag
1070
     1
1071
      143
1005
9C0
  0
LINE
  5
9C1
330
6CE
100
AcDbEntity
  8
0
  6
Continuous
 62
     7
370
    15
100
AcDbLine
 10
3105.647161011404
 20
1974.593604403489
 30
0.0
 11
3105.647161011404
 21
1986.293604403489
 31
0.0
1001
AcDbBlockRepETag
1070
     1
1071
      144
1005
9C1
  0
ARC
  5
9C2
330
6CE
100
AcDbEntity
  8
0
  6
Continuous
 62
     7
370
    15
100
AcDbCircle
 10
3102.497161011404
 20
1986.293604403489
 30
0.0
 40
3.15000000000009
100
AcDbArc
 50
0.0
 51
180.0
1001
AcDbBlockRepETag
1070
     1
1071
      145
1005
9C2
  0
LINE
  5
9C3
330
6CE
100
AcDbEntity
  8
0
  6
Continuous
 62
     7
370
    15
100
AcDbLine
 10
3099.347161011404
 20
1986.293604403489
 30
0.0
 11
3099.347161011404
 21
1974.593604403489
 31
0.0
1001
AcDbBlockRepETag
1070
     1
1071
      146
1005
9C3
  0
ARC
  5
9C4
330
6CE
100
AcDbEntity
  8
0
  6
Continuous
 62
     7
370
    15
100
AcDbCircle
 10
3102.497161011404
 20
1974.593604403489
 30
0.0
 40
3.15000000000009
100
AcDbArc
 50
180.0
 51
0.0
1001
AcDbBlockRepETag
1070
     1
1071
      147
1005
9C4
  0
LINE
  5
9C5
330
6CE
100
AcDbEntity
  8
0
  6
Continuous
 62
     7
370
    15
100
AcDbLine
 10
3105.647161011404
 20
1999.593604403489
 30
0.0
 11
3105.647161011404
 21
2011.293604403489
 31
0.0
1001
AcDbBlockRepETag
1070
     1
1071
      148
1005
9C5
  0
ARC
  5
9C6
330
6CE
100
AcDbEntity
  8
0
  6
Continuous
 62
     7
370
    15
100
AcDbCircle
 10
3102.497161011404
 20
2011.293604403489
 30
0.0
 40
3.15000000000009
100
AcDbArc
 50
0.0
 51
180.0
1001
AcDbBlockRepETag
1070
     1
1071
      149
1005
9C6
  0
LINE
  5
9C7
330
6CE
100
AcDbEntity
  8
0
  6
Continuous
 62
     7
370
    15
100
AcDbLine
 10
3099.347161011404
 20
2011.293604403489
 30
0.0
 11
3099.347161011404
 21
1999.593604403489
 31
0.0
1001
AcDbBlockRepETag
1070
     1
1071
      150
1005
9C7
  0
ARC
  5
9C8
330
6CE
100
AcDbEntity
  8
0
  6
Continuous
 62
     7
370
    15
100
AcDbCircle
 10
3102.497161011404
 20
1999.593604403489
 30
0.0
 40
3.15000000000009
100
AcDbArc
 50
180.0
 51
0.0
1001
AcDbBlockRepETag
1070
     1
1071
      151
1005
9C8
  0
LINE
  5
9C9
330
6CE
100
AcDbEntity
  8
0
  6
Continuous
 62
     7
370
    15
100
AcDbLine
 10
3105.647161011404
 20
2024.593604403489
 30
0.0
 11
3105.647161011404
 21
2036.293604403489
 31
0.0
1001
AcDbBlockRepETag
1070
     1
1071
      152
1005
9C9
  0
ARC
  5
9CA
330
6CE
100
AcDbEntity
  8
0
  6
Continuous
 62
     7
370
    15
100
AcDbCircle
 10
3102.497161011404
 20
2036.293604403489
 30
0.0
 40
3.15000000000009
100
AcDbArc
 50
0.0
 51
180.0
1001
AcDbBlockRepETag
1070
     1
1071
      153
1005
9CA
  0
LINE
  5
9CB
330
6CE
100
AcDbEntity
  8
0
  6
Continuous
 62
     7
370
    15
100
AcDbLine
 10
3099.347161011404
 20
2036.293604403489
 30
0.0
 11
3099.347161011404
 21
2024.593604403489
 31
0.0
1001
AcDbBlockRepETag
1070
     1
1071
      154
1005
9CB
  0
ARC
  5
9CC
330
6CE
100
AcDbEntity
  8
0
  6
Continuous
 62
     7
370
    15
100
AcDbCircle
 10
3102.497161011404
 20
2024.593604403489
 30
0.0
 40
3.15000000000009
100
AcDbArc
 50
180.0
 51
0.0
1001
AcDbBlockRepETag
1070
     1
1071
      155
1005
9CC
  0
LINE
  5
9CD
330
6CE
100
AcDbEntity
  8
0
  6
Continuous
 62
     7
370
    15
100
AcDbLine
 10
3105.647161011404
 20
2049.593604403489
 30
0.0
 11
3105.647161011404
 21
2061.293604403489
 31
0.0
1001
AcDbBlockRepETag
1070
     1
1071
      156
1005
9CD
  0
ARC
  5
9CE
330
6CE
100
AcDbEntity
  8
0
  6
Continuous
 62
     7
370
    15
100
AcDbCircle
 10
3102.497161011404
 20
2061.293604403489
 30
0.0
 40
3.15000000000009
100
AcDbArc
 50
0.0
 51
180.0
1001
AcDbBlockRepETag
1070
     1
1071
      157
1005
9CE
  0
LINE
  5
9CF
330
6CE
100
AcDbEntity
  8
0
  6
Continuous
 62
     7
370
    15
100
AcDbLine
 10
3099.347161011404
 20
2061.293604403489
 30
0.0
 11
3099.347161011404
 21
2049.593604403489
 31
0.0
1001
AcDbBlockRepETag
1070
     1
1071
      158
1005
9CF
  0
ARC
  5
9D0
330
6CE
100
AcDbEntity
  8
0
  6
Continuous
 62
     7
370
    15
100
AcDbCircle
 10
3102.497161011404
 20
2049.593604403489
 30
0.0
 40
3.15000000000009
100
AcDbArc
 50
180.0
 51
0.0
1001
AcDbBlockRepETag
1070
     1
1071
      159
1005
9D0
  0
LINE
  5
9D1
330
6CE
100
AcDbEntity
  8
0
  6
Continuous
 62
     7
370
    15
100
AcDbLine
 10
3105.647161011404
 20
2074.593604403489
 30
0.0
 11
3105.647161011404
 21
2086.293604403489
 31
0.0
1001
AcDbBlockRepETag
1070
     1
1071
      160
1005
9D1
  0
ARC
  5
9D2
330
6CE
100
AcDbEntity
  8
0
  6
Continuous
 62
     7
370
    15
100
AcDbCircle
 10
3102.497161011404
 20
2086.293604403489
 30
0.0
 40
3.15000000000009
100
AcDbArc
 50
0.0
 51
180.0
1001
AcDbBlockRepETag
1070
     1
1071
      161
1005
9D2
  0
LINE
  5
9D3
330
6CE
100
AcDbEntity
  8
0
  6
Continuous
 62
     7
370
    15
100
AcDbLine
 10
3099.347161011404
 20
2086.293604403489
 30
0.0
 11
3099.347161011404
 21
2074.593604403489
 31
0.0
1001
AcDbBlockRepETag
1070
     1
1071
      162
1005
9D3
  0
ARC
  5
9D4
330
6CE
100
AcDbEntity
  8
0
  6
Continuous
 62
     7
370
    15
100
AcDbCircle
 10
3102.497161011404
 20
2074.593604403489
 30
0.0
 40
3.15000000000009
100
AcDbArc
 50
180.0
 51
0.0
1001
AcDbBlockRepETag
1070
     1
1071
      163
1005
9D4
  0
LINE
  5
9D5
330
6CE
100
AcDbEntity
  8
0
  6
Continuous
 62
     7
370
    15
100
AcDbLine
 10
3105.647161011404
 20
2099.593604403489
 30
0.0
 11
3105.647161011404
 21
2111.293604403489
 31
0.0
1001
AcDbBlockRepETag
1070
     1
1071
      164
1005
9D5
  0
ARC
  5
9D6
330
6CE
100
AcDbEntity
  8
0
  6
Continuous
 62
     7
370
    15
100
AcDbCircle
 10
3102.497161011404
 20
2111.293604403489
 30
0.0
 40
3.15000000000009
100
AcDbArc
 50
0.0
 51
180.0
1001
AcDbBlockRepETag
1070
     1
1071
      165
1005
9D6
  0
LINE
  5
9D7
330
6CE
100
AcDbEntity
  8
0
  6
Continuous
 62
     7
370
    15
100
AcDbLine
 10
3099.347161011404
 20
2111.293604403489
 30
0.0
 11
3099.347161011404
 21
2099.593604403489
 31
0.0
1001
AcDbBlockRepETag
1070
     1
1071
      166
1005
9D7
  0
ARC
  5
9D8
330
6CE
100
AcDbEntity
  8
0
  6
Continuous
 62
     7
370
    15
100
AcDbCircle
 10
3102.497161011404
 20
2099.593604403489
 30
0.0
 40
3.15000000000009
100
AcDbArc
 50
180.0
 51
0.0
1001
AcDbBlockRepETag
1070
     1
1071
      167
1005
9D8
  0
LINE
  5
9D9
330
6CE
100
AcDbEntity
  8
0
  6
Continuous
 62
     7
370
    15
100
AcDbLine
 10
3105.647161011404
 20
2124.593604403489
 30
0.0
 11
3105.647161011404
 21
2136.293604403489
 31
0.0
1001
AcDbBlockRepETag
1070
     1
1071
      168
1005
9D9
  0
ARC
  5
9DA
330
6CE
100
AcDbEntity
  8
0
  6
Continuous
 62
     7
370
    15
100
AcDbCircle
 10
3102.497161011404
 20
2136.293604403489
 30
0.0
 40
3.15000000000009
100
AcDbArc
 50
0.0
 51
180.0
1001
AcDbBlockRepETag
1070
     1
1071
      169
1005
9DA
  0
LINE
  5
9DB
330
6CE
100
AcDbEntity
  8
0
  6
Continuous
 62
     7
370
    15
100
AcDbLine
 10
3099.347161011404
 20
2136.293604403489
 30
0.0
 11
3099.347161011404
 21
2124.593604403489
 31
0.0
1001
AcDbBlockRepETag
1070
     1
1071
      170
1005
9DB
  0
ARC
  5
9DC
330
6CE
100
AcDbEntity
  8
0
  6
Continuous
 62
     7
370
    15
100
AcDbCircle
 10
3102.497161011404
 20
2124.593604403489
 30
0.0
 40
3.15000000000009
100
AcDbArc
 50
180.0
 51
0.0
1001
AcDbBlockRepETag
1070
     1
1071
      171
1005
9DC
  0
LINE
  5
9DD
330
6CE
100
AcDbEntity
  8
0
  6
Continuous
 62
     7
370
    15
100
AcDbLine
 10
3099.347161011404
 20
2161.293604403489
 30
0.0
 11
3099.347161011404
 21
2149.593604403489
 31
0.0
1001
AcDbBlockRepETag
1070
     1
1071
      172
1005
9DD
  0
LINE
  5
9DE
330
6CE
100
AcDbEntity
  8
0
  6
Continuous
 62
     7
370
    15
100
AcDbLine
 10
3105.647161011404
 20
2174.593604403489
 30
0.0
 11
3105.647161011404
 21
2181.293604403489
 31
0.0
1001
AcDbBlockRepETag
1070
     1
1071
      173
1005
9DE
  0
ARC
  5
9E0
330
6CE
100
AcDbEntity
  8
0
  6
Continuous
 62
     7
370
    15
100
AcDbCircle
 10
3102.497161011404
 20
2149.593604403489
 30
0.0
 40
3.15000000000009
100
AcDbArc
 50
180.0
 51
0.0
1001
AcDbBlockRepETag
1070
     1
1071
      174
1005
9E0
  0
ARC
  5
9E1
330
6CE
100
AcDbEntity
  8
0
  6
Continuous
 62
     7
370
    15
100
AcDbCircle
 10
3102.497161011404
 20
2174.593604403489
 30
0.0
 40
3.15000000000009
100
AcDbArc
 50
180.0
 51
0.0
1001
AcDbBlockRepETag
1070
     1
1071
      175
1005
9E1
  0
LINE
  5
9E2
330
6CE
100
AcDbEntity
  8
0
  6
Continuous
 62
     7
370
    15
100
AcDbLine
 10
3105.647161011404
 20
2149.593604403489
 30
0.0
 11
3105.647161011404
 21
2161.293604403489
 31
0.0
1001
AcDbBlockRepETag
1070
     1
1071
      176
1005
9E2
  0
ARC
  5
9E3
330
6CE
100
AcDbEntity
  8
0
  6
Continuous
 62
     7
370
    15
100
AcDbCircle
 10
3102.497161011404
 20
2161.293604403489
 30
0.0
 40
3.15000000000009
100
AcDbArc
 50
0.0
 51
180.0
1001
AcDbBlockRepETag
1070
     1
1071
      177
1005
9E3
  0
LINE
  5
9E4
330
6CE
100
AcDbEntity
  8
0
  6
Continuous
 62
     7
370
    15
100
AcDbLine
 10
3099.347161011404
 20
2181.293604403489
 30
0.0
 11
3099.347161011404
 21
2174.593604403489
 31
0.0
1001
AcDbBlockRepETag
1070
     1
1071
      178
1005
9E4
  0
LINE
  5
9E5
330
6CE
100
AcDbEntity
  8
0
  6
Continuous
 62
     7
370
    15
100
AcDbLine
 10
3114.297161011403
 20
1181.293604403489
 30
0.0
 11
3089.897161011404
 21
1181.293604403489
 31
0.0
1001
AcDbBlockRepETag
1070
     1
1071
      179
1005
9E5
  0
LINE
  5
9E6
330
6CE
100
AcDbEntity
  8
0
  6
Continuous
 62
     7
370
    15
100
AcDbLine
 10
3114.297161011404
 20
1181.293604403489
 30
0.0
 11
3105.647161011404
 21
1181.293604403489
 31
0.0
1001
AcDbBlockRepETag
1070
     1
1071
      180
1005
9E6
  0
LINE
  5
9E7
330
6CE
100
AcDbEntity
  8
0
  6
Continuous
 62
     7
370
    15
100
AcDbLine
 10
3114.297161011404
 20
2181.293604403489
 30
0.0
 11
3105.647161011404
 21
2181.293604403489
 31
0.0
1001
AcDbBlockRepETag
1070
     1
1071
      181
1005
9E7
  0
LINE
  5
9E8
330
6CE
100
AcDbEntity
  8
0
  6
Continuous
 62
     7
370
    15
100
AcDbLine
 10
3099.347161011404
 20
2181.293604403489
 30
0.0
 11
3090.697161011404
 21
2181.293604403489
 31
0.0
1001
AcDbBlockRepETag
1070
     1
1071
      182
1005
9E8
  0
ENDBLK
  5
6D0
330
6CE
100
AcDbEntity
  8
0
100
AcDbBlockEnd
  0
BLOCK
  5
78B
330
78A
100
AcDbEntity
  8
0
100
AcDbBlockBegin
  2
4
 70
     0
 10
0.0
 20
0.0
 30
0.0
  3
4
  1

  0
LINE
  5
9F4
330
78A
100
AcDbEntity
  8
0
  6
Continuous
 62
     7
370
    15
100
AcDbLine
 10
2852.86592312899
 20
2020.846221702003
 30
0.0
 11
2221.899916778194
 21
1676.462479172558
 31
0.0
1001
AcDbBlockRepETag
1070
     1
1071
        0
1005
9F4
  0
LINE
  5
9F5
330
78A
100
AcDbEntity
  8
0
  6
Continuous
 62
     7
370
    15
100
AcDbLine
 10
2221.579735533435
 20
1670.567700267846
 30
0.0
 11
2852.545741884231
 21
2014.951442797291
 31
0.0
1001
AcDbBlockRepETag
1070
     1
1071
        1
1005
9F5
  0
LINE
  5
9F6
330
78A
100
AcDbEntity
  8
0
  6
Continuous
 62
     7
370
    15
100
AcDbLine
 10
2221.365876473421
 20
1675.401495938778
 30
0.0
 11
2221.337998291918
 21
1671.917014981154
 31
0.0
1001
AcDbBlockRepETag
1070
     1
1071
        2
1005
9F6
  0
ARC
  5
9F7
330
78A
100
AcDbEntity
  8
0
  6
Continuous
 62
     7
370
    15
100
AcDbCircle
 10
2222.386422897552
 20
1675.537372341579
 30
0.0
 40
1.029552038822448
100
AcDbArc
 50
67.81723399722235
 51
187.5838063910491
1001
AcDbBlockRepETag
1070
     1
1071
        3
1005
9F7
  0
LINE
  5
9F8
330
78A
100
AcDbEntity
  8
0
  6
Continuous
 62
     7
370
    15
100
AcDbLine
 10
2225.180053303244
 20
1675.596893669537
 30
0.0
 11
2222.775142909745
 21
1676.490721256071
 31
0.0
1001
AcDbBlockRepETag
1070
     1
1071
        4
1005
9F8
  0
LINE
  5
9F9
330
78A
100
AcDbEntity
  8
0
  6
Continuous
 62
     7
370
    15
100
AcDbLine
 10
2225.180053303244
 20
1675.596893669537
 30
0.0
 11
2225.172905051576
 21
1674.703437013736
 31
0.0
1001
AcDbBlockRepETag
1070
     1
1071
        5
1005
9F9
  0
LINE
  5
9FA
330
78A
100
AcDbEntity
  8
0
  6
Continuous
 62
     7
370
    15
100
AcDbLine
 10
2222.767994658077
 20
1675.59726460027
 30
0.0
 11
2225.172905051576
 21
1674.703437013736
 31
0.0
1001
AcDbBlockRepETag
1070
     1
1071
        6
1005
9FA
  0
ARC
  5
9FB
330
78A
100
AcDbEntity
  8
0
  6
Continuous
 62
     7
370
    15
100
AcDbCircle
 10
2222.595230208214
 20
1675.173553971606
 30
0.0
 40
0.4575786839213249
100
AcDbArc
 50
67.81723399722235
 51
187.5838063910362
1001
AcDbBlockRepETag
1070
     1
1071
        7
1005
9FB
  0
LINE
  5
9FC
330
78A
100
AcDbEntity
  8
0
  6
Continuous
 62
     7
370
    15
100
AcDbLine
 10
2222.113775838208
 20
1671.628683501626
 30
0.0
 11
2222.141654019711
 21
1675.113164459251
 31
0.0
1001
AcDbBlockRepETag
1070
     1
1071
        8
1005
9FC
  0
ARC
  5
9FD
330
78A
100
AcDbEntity
  8
0
  6
Continuous
 62
     7
370
    15
100
AcDbCircle
 10
2221.093229414078
 20
1671.492807098826
 30
0.0
 40
1.029552038822553
100
AcDbArc
 50
247.8172339972223
 51
7.583806391049138
1001
AcDbBlockRepETag
1070
     1
1071
        9
1005
9FD
  0
ARC
  5
A01
330
78A
100
AcDbEntity
  8
0
  6
Continuous
 62
     7
370
    15
100
AcDbCircle
 10
2220.884422103415
 20
1671.856625468798
 30
0.0
 40
0.457578683921544
100
AcDbArc
 50
247.8172339971933
 51
7.583806391010397
1001
AcDbBlockRepETag
1070
     1
1071
       10
1005
A01
  0
LINE
  5
A02
330
78A
100
AcDbEntity
  8
0
  6
Continuous
 62
     7
370
    15
100
AcDbLine
 10
2225.180053303244
 20
1675.596893669537
 30
0.0
 11
2856.14605965404
 21
2019.980636198981
 31
0.0
1001
AcDbBlockRepETag
1070
     1
1071
       11
1005
A02
  0
LINE
  5
A03
330
78A
100
AcDbEntity
  8
0
  6
Continuous
 62
     7
370
    15
100
AcDbLine
 10
2856.138911402372
 20
2019.087179543181
 30
0.0
 11
2856.14605965404
 21
2019.980636198981
 31
0.0
1001
AcDbBlockRepETag
1070
     1
1071
       12
1005
A03
  0
LINE
  5
A04
330
78A
100
AcDbEntity
  8
0
  6
Continuous
 62
     7
370
    15
100
AcDbLine
 10
2225.172905051576
 20
1674.703437013736
 30
0.0
 11
2856.138911402372
 21
2019.087179543181
 31
0.0
1001
AcDbBlockRepETag
1070
     1
1071
       13
1005
A04
  0
LINE
  5
A05
330
78A
100
AcDbEntity
  8
0
  6
Continuous
 62
     7
370
    15
100
AcDbLine
 10
2222.775142909745
 20
1676.490721256071
 30
0.0
 11
2853.74114926054
 21
2020.874463785515
 31
0.0
1001
AcDbBlockRepETag
1070
     1
1071
       14
1005
A05
  0
LINE
  5
A06
330
78A
100
AcDbEntity
  8
0
  6
Continuous
 62
     7
370
    15
100
AcDbLine
 10
2856.14605965404
 20
2019.980636198981
 30
0.0
 11
2853.74114926054
 21
2020.874463785515
 31
0.0
1001
AcDbBlockRepETag
1070
     1
1071
       15
1005
A06
  0
ARC
  5
A07
330
78A
100
AcDbEntity
  8
0
  6
Continuous
 62
     7
370
    15
100
AcDbCircle
 10
2853.333735840177
 20
2019.924451494214
 30
0.0
 40
1.033687113547864
100
AcDbArc
 50
66.78789350781643
 51
116.9085018608768
1001
AcDbBlockRepETag
1070
     1
1071
       16
1005
A07
  0
LINE
  5
A08
330
78A
100
AcDbEntity
  8
0
  6
Continuous
 62
     7
370
    15
100
AcDbLine
 10
2853.079782189003
 20
2016.012426031071
 30
0.0
 11
2222.113775838208
 21
1671.628683501626
 31
0.0
1001
AcDbBlockRepETag
1070
     1
1071
       17
1005
A08
  0
LINE
  5
A09
330
78A
100
AcDbEntity
  8
0
  6
Continuous
 62
     7
370
    15
100
AcDbLine
 10
2853.079782189003
 20
2016.012426031071
 30
0.0
 11
2853.091072984184
 21
2017.423657276504
 31
0.0
1001
AcDbBlockRepETag
1070
     1
1071
       18
1005
A09
  0
ARC
  5
A0A
330
78A
100
AcDbEntity
  8
0
  6
Continuous
 62
     7
370
    15
100
AcDbCircle
 10
2851.91419365349
 20
2015.934224062034
 30
0.0
 40
1.168208963362416
100
AcDbArc
 50
302.7253360993038
 51
3.838350950012597
1001
AcDbBlockRepETag
1070
     1
1071
       19
1005
A0A
  0
LINE
  5
A0B
330
78A
100
AcDbEntity
  8
0
  6
Continuous
 62
     7
370
    15
100
AcDbLine
 10
2232.930162068667
 20
1684.258494413927
 30
0.0
 11
2225.547859794362
 21
1680.229204626332
 31
0.0
1001
AcDbBlockRepETag
1070
     1
1071
       20
1005
A0B
  0
LWPOLYLINE
  5
A0C
330
78A
100
AcDbEntity
  8
0
  6
Continuous
 62
     7
370
    15
100
AcDbPolyline
 90
       10
 70
   128
 43
0.0
 10
2228.042763527039
 20
1686.074982734947
 10
2228.869916340015
 20
1686.391235367424
 10
2229.892048513491
 20
1686.559795615018
 10
2230.985875822282
 20
1686.560332624187
 10
2232.019466549775
 20
1686.392781623697
 10
2232.868154400061
 20
1686.077351736999
 10
2233.429575093096
 20
1685.652088463676
 10
2233.636013007613
 20
1685.168284830711
 10
2233.462568684422
 20
1684.684294696417
 10
2232.930162068667
 20
1684.258494413927
1001
AcDbBlockRepETag
1070
     1
1071
       21
1005
A0C
  0
LINE
  5
A0D
330
78A
100
AcDbEntity
  8
0
  6
Continuous
 62
     7
370
    15
100
AcDbLine
 10
2220.660461252734
 20
1682.045692947352
 30
0.0
 11
2228.042763527039
 21
1686.074982734947
 31
0.0
1001
AcDbBlockRepETag
1070
     1
1071
       22
1005
A0D
  0
LWPOLYLINE
  5
A0E
330
78A
100
AcDbEntity
  8
0
  6
Continuous
 62
     7
370
    15
100
AcDbPolyline
 90
       10
 70
   128
 43
0.0
 10
2225.547859794362
 20
1680.229204626332
 10
2224.720706981386
 20
1679.912951993855
 10
2223.69857480791
 20
1679.74439174626
 10
2222.604747499119
 20
1679.743854737093
 10
2221.571156771626
 20
1679.911405737582
 10
2220.722468921341
 20
1680.22683562428
 10
2220.161048228305
 20
1680.652098897603
 10
2219.954610313788
 20
1681.135902530569
 10
2220.128054636979
 20
1681.619892664862
 10
2220.660461252734
 20
1682.045692947352
1001
AcDbBlockRepETag
1070
     1
1071
       23
1005
A0E
  0
LINE
  5
A0F
330
78A
100
AcDbEntity
  8
0
  6
Continuous
 62
     7
370
    15
100
AcDbLine
 10
2241.322009953132
 20
1688.838798189568
 30
0.0
 11
2248.704312227436
 21
1692.868087977162
 31
0.0
1001
AcDbBlockRepETag
1070
     1
1071
       24
1005
A0F
  0
LWPOLYLINE
  5
A10
330
78A
100
AcDbEntity
  8
0
  6
Continuous
 62
     7
370
    15
100
AcDbPolyline
 90
       10
 70
   128
 43
0.0
 10
2248.704312227436
 20
1692.868087977162
 10
2249.236718843192
 20
1693.293888259653
 10
2249.410163166382
 20
1693.777878393946
 10
2249.203725251866
 20
1694.261682026913
 10
2248.642304558831
 20
1694.686945300235
 10
2247.793616708546
 20
1695.002375186933
 10
2246.760025981052
 20
1695.169926187423
 10
2245.666198672261
 20
1695.169389178255
 10
2244.644066498785
 20
1695.00082893066
 10
2243.816913685809
 20
1694.684576298183
1001
AcDbBlockRepETag
1070
     1
1071
       25
1005
A10
  0
LINE
  5
A11
330
78A
100
AcDbEntity
  8
0
  6
Continuous
 62
     7
370
    15
100
AcDbLine
 10
2243.816913685809
 20
1694.684576298183
 30
0.0
 11
2236.434611411505
 21
1690.655286510589
 31
0.0
1001
AcDbBlockRepETag
1070
     1
1071
       26
1005
A11
  0
LWPOLYLINE
  5
A12
330
78A
100
AcDbEntity
  8
0
  6
Continuous
 62
     7
370
    15
100
AcDbPolyline
 90
       10
 70
   128
 43
0.0
 10
2236.434611411505
 20
1690.655286510589
 10
2235.902204795749
 20
1690.229486228098
 10
2235.728760472558
 20
1689.745496093805
 10
2235.935198387075
 20
1689.261692460839
 10
2236.49661908011
 20
1688.836429187516
 10
2237.345306930396
 20
1688.520999300818
 10
2238.378897657889
 20
1688.353448300329
 10
2239.472724966679
 20
1688.353985309496
 10
2240.494857140156
 20
1688.522545557091
 10
2241.322009953132
 20
1688.838798189568
1001
AcDbBlockRepETag
1070
     1
1071
       27
1005
A12
  0
LINE
  5
A13
330
78A
100
AcDbEntity
  8
0
  6
Continuous
 62
     7
370
    15
100
AcDbLine
 10
2257.096160111902
 20
1697.448391752804
 30
0.0
 11
2264.478462386206
 21
1701.477681540399
 31
0.0
1001
AcDbBlockRepETag
1070
     1
1071
       28
1005
A13
  0
LWPOLYLINE
  5
A14
330
78A
100
AcDbEntity
  8
0
  6
Continuous
 62
     7
370
    15
100
AcDbPolyline
 90
       10
 70
   128
 43
0.0
 10
2264.478462386206
 20
1701.477681540399
 10
2265.010869001963
 20
1701.903481822889
 10
2265.184313325153
 20
1702.387471957183
 10
2264.977875410636
 20
1702.871275590149
 10
2264.416454717601
 20
1703.296538863471
 10
2263.567766867315
 20
1703.611968750169
 10
2262.534176139822
 20
1703.779519750659
 10
2261.440348831031
 20
1703.778982741491
 10
2260.418216657555
 20
1703.610422493896
 10
2259.591063844579
 20
1703.294169861419
1001
AcDbBlockRepETag
1070
     1
1071
       29
1005
A14
  0
LINE
  5
A15
330
78A
100
AcDbEntity
  8
0
  6
Continuous
 62
     7
370
    15
100
AcDbLine
 10
2259.591063844579
 20
1703.294169861419
 30
0.0
 11
2252.208761570274
 21
1699.264880073824
 31
0.0
1001
AcDbBlockRepETag
1070
     1
1071
       30
1005
A15
  0
LWPOLYLINE
  5
A16
330
78A
100
AcDbEntity
  8
0
  6
Continuous
 62
     7
370
    15
100
AcDbPolyline
 90
       10
 70
   128
 43
0.0
 10
2252.208761570274
 20
1699.264880073824
 10
2251.676354954518
 20
1698.839079791334
 10
2251.502910631328
 20
1698.355089657041
 10
2251.709348545845
 20
1697.871286024075
 10
2252.27076923888
 20
1697.446022750753
 10
2253.119457089166
 20
1697.130592864054
 10
2254.153047816659
 20
1696.963041863565
 10
2255.246875125449
 20
1696.963578872733
 10
2256.269007298926
 20
1697.132139120327
 10
2257.096160111902
 20
1697.448391752804
1001
AcDbBlockRepETag
1070
     1
1071
       31
1005
A16
  0
LINE
  5
A17
330
78A
100
AcDbEntity
  8
0
  6
Continuous
 62
     7
370
    15
100
AcDbLine
 10
2272.870310270672
 20
1706.05798531604
 30
0.0
 11
2280.252612544976
 21
1710.087275103635
 31
0.0
1001
AcDbBlockRepETag
1070
     1
1071
       32
1005
A17
  0
LWPOLYLINE
  5
A18
330
78A
100
AcDbEntity
  8
0
  6
Continuous
 62
     7
370
    15
100
AcDbPolyline
 90
       10
 70
   128
 43
0.0
 10
2280.252612544976
 20
1710.087275103635
 10
2280.785019160732
 20
1710.513075386125
 10
2280.958463483923
 20
1710.997065520419
 10
2280.752025569405
 20
1711.480869153385
 10
2280.19060487637
 20
1711.906132426707
 10
2279.341917026085
 20
1712.221562313406
 10
2278.308326298592
 20
1712.389113313895
 10
2277.214498989801
 20
1712.388576304727
 10
2276.192366816325
 20
1712.220016057132
 10
2275.365214003349
 20
1711.903763424655
1001
AcDbBlockRepETag
1070
     1
1071
       33
1005
A18
  0
LINE
  5
A19
330
78A
100
AcDbEntity
  8
0
  6
Continuous
 62
     7
370
    15
100
AcDbLine
 10
2275.365214003349
 20
1711.903763424655
 30
0.0
 11
2267.982911729044
 21
1707.874473637061
 31
0.0
1001
AcDbBlockRepETag
1070
     1
1071
       34
1005
A19
  0
LWPOLYLINE
  5
A1A
330
78A
100
AcDbEntity
  8
0
  6
Continuous
 62
     7
370
    15
100
AcDbPolyline
 90
       10
 70
   128
 43
0.0
 10
2267.982911729044
 20
1707.874473637061
 10
2267.450505113288
 20
1707.44867335457
 10
2267.277060790098
 20
1706.964683220277
 10
2267.483498704615
 20
1706.480879587311
 10
2268.04491939765
 20
1706.055616313988
 10
2268.893607247935
 20
1705.74018642729
 10
2269.927197975428
 20
1705.572635426801
 10
2271.02102528422
 20
1705.573172435969
 10
2272.043157457696
 20
1705.741732683564
 10
2272.870310270672
 20
1706.05798531604
1001
AcDbBlockRepETag
1070
     1
1071
       35
1005
A1A
  0
LINE
  5
A1B
330
78A
100
AcDbEntity
  8
0
  6
Continuous
 62
     7
370
    15
100
AcDbLine
 10
2288.644460429442
 20
1714.667578879276
 30
0.0
 11
2296.026762703746
 21
1718.696868666871
 31
0.0
1001
AcDbBlockRepETag
1070
     1
1071
       36
1005
A1B
  0
LWPOLYLINE
  5
A1C
330
78A
100
AcDbEntity
  8
0
  6
Continuous
 62
     7
370
    15
100
AcDbPolyline
 90
       10
 70
   128
 43
0.0
 10
2296.026762703746
 20
1718.696868666871
 10
2296.559169319502
 20
1719.122668949362
 10
2296.732613642692
 20
1719.606659083655
 10
2296.526175728175
 20
1720.090462716621
 10
2295.964755035141
 20
1720.515725989943
 10
2295.116067184855
 20
1720.831155876641
 10
2294.082476457361
 20
1720.998706877131
 10
2292.988649148571
 20
1720.998169867963
 10
2291.966516975095
 20
1720.829609620368
 10
2291.139364162118
 20
1720.513356987892
1001
AcDbBlockRepETag
1070
     1
1071
       37
1005
A1C
  0
LINE
  5
A1D
330
78A
100
AcDbEntity
  8
0
  6
Continuous
 62
     7
370
    15
100
AcDbLine
 10
2291.139364162118
 20
1720.513356987892
 30
0.0
 11
2283.757061887814
 21
1716.484067200297
 31
0.0
1001
AcDbBlockRepETag
1070
     1
1071
       38
1005
A1D
  0
LWPOLYLINE
  5
A1E
330
78A
100
AcDbEntity
  8
0
  6
Continuous
 62
     7
370
    15
100
AcDbPolyline
 90
       10
 70
   128
 43
0.0
 10
2283.757061887814
 20
1716.484067200297
 10
2283.224655272058
 20
1716.058266917806
 10
2283.051210948868
 20
1715.574276783513
 10
2283.257648863385
 20
1715.090473150547
 10
2283.81906955642
 20
1714.665209877225
 10
2284.667757406706
 20
1714.349779990526
 10
2285.701348134198
 20
1714.182228990037
 10
2286.795175442989
 20
1714.182765999205
 10
2287.817307616466
 20
1714.3513262468
 10
2288.644460429442
 20
1714.667578879276
1001
AcDbBlockRepETag
1070
     1
1071
       39
1005
A1E
  0
LINE
  5
A1F
330
78A
100
AcDbEntity
  8
0
  6
Continuous
 62
     7
370
    15
100
AcDbLine
 10
2304.418610588212
 20
1723.277172442513
 30
0.0
 11
2311.800912862516
 21
1727.306462230107
 31
0.0
1001
AcDbBlockRepETag
1070
     1
1071
       40
1005
A1F
  0
LWPOLYLINE
  5
A20
330
78A
100
AcDbEntity
  8
0
  6
Continuous
 62
     7
370
    15
100
AcDbPolyline
 90
       10
 70
   128
 43
0.0
 10
2311.800912862516
 20
1727.306462230107
 10
2312.333319478272
 20
1727.732262512598
 10
2312.506763801462
 20
1728.216252646891
 10
2312.300325886945
 20
1728.700056279857
 10
2311.738905193911
 20
1729.125319553179
 10
2310.890217343624
 20
1729.440749439878
 10
2309.856626616132
 20
1729.608300440367
 10
2308.762799307341
 20
1729.607763431199
 10
2307.740667133865
 20
1729.439203183604
 10
2306.913514320888
 20
1729.122950551127
1001
AcDbBlockRepETag
1070
     1
1071
       41
1005
A20
  0
LINE
  5
A21
330
78A
100
AcDbEntity
  8
0
  6
Continuous
 62
     7
370
    15
100
AcDbLine
 10
2306.913514320888
 20
1729.122950551127
 30
0.0
 11
2299.531212046584
 21
1725.093660763533
 31
0.0
1001
AcDbBlockRepETag
1070
     1
1071
       42
1005
A21
  0
LWPOLYLINE
  5
A22
330
78A
100
AcDbEntity
  8
0
  6
Continuous
 62
     7
370
    15
100
AcDbPolyline
 90
       10
 70
   128
 43
0.0
 10
2299.531212046584
 20
1725.093660763533
 10
2298.998805430828
 20
1724.667860481043
 10
2298.825361107638
 20
1724.18387034675
 10
2299.031799022155
 20
1723.700066713783
 10
2299.59321971519
 20
1723.274803440461
 10
2300.441907565475
 20
1722.959373553762
 10
2301.475498292969
 20
1722.791822553273
 10
2302.569325601759
 20
1722.792359562441
 10
2303.591457775235
 20
1722.960919810036
 10
2304.418610588212
 20
1723.277172442513
1001
AcDbBlockRepETag
1070
     1
1071
       43
1005
A22
  0
LINE
  5
A23
330
78A
100
AcDbEntity
  8
0
  6
Continuous
 62
     7
370
    15
100
AcDbLine
 10
2320.192760746982
 20
1731.886766005748
 30
0.0
 11
2327.575063021286
 21
1735.916055793343
 31
0.0
1001
AcDbBlockRepETag
1070
     1
1071
       44
1005
A23
  0
LWPOLYLINE
  5
A24
330
78A
100
AcDbEntity
  8
0
  6
Continuous
 62
     7
370
    15
100
AcDbPolyline
 90
       10
 70
   128
 43
0.0
 10
2327.575063021286
 20
1735.916055793343
 10
2328.107469637041
 20
1736.341856075834
 10
2328.280913960233
 20
1736.825846210127
 10
2328.074476045715
 20
1737.309649843093
 10
2327.513055352681
 20
1737.734913116415
 10
2326.664367502395
 20
1738.050343003114
 10
2325.630776774902
 20
1738.217894003603
 10
2324.536949466111
 20
1738.217356994435
 10
2323.514817292635
 20
1738.048796746841
 10
2322.687664479659
 20
1737.732544114364
1001
AcDbBlockRepETag
1070
     1
1071
       45
1005
A24
  0
LINE
  5
A25
330
78A
100
AcDbEntity
  8
0
  6
Continuous
 62
     7
370
    15
100
AcDbLine
 10
2322.687664479659
 20
1737.732544114364
 30
0.0
 11
2315.305362205354
 21
1733.703254326769
 31
0.0
1001
AcDbBlockRepETag
1070
     1
1071
       46
1005
A25
  0
LWPOLYLINE
  5
A26
330
78A
100
AcDbEntity
  8
0
  6
Continuous
 62
     7
370
    15
100
AcDbPolyline
 90
       10
 70
   128
 43
0.0
 10
2315.305362205354
 20
1733.703254326769
 10
2314.772955589598
 20
1733.277454044278
 10
2314.599511266408
 20
1732.793463909986
 10
2314.805949180925
 20
1732.309660277019
 10
2315.36736987396
 20
1731.884397003697
 10
2316.216057724245
 20
1731.568967116998
 10
2317.249648451738
 20
1731.401416116509
 10
2318.343475760529
 20
1731.401953125677
 10
2319.365607934006
 20
1731.570513373272
 10
2320.192760746982
 20
1731.886766005748
1001
AcDbBlockRepETag
1070
     1
1071
       47
1005
A26
  0
LINE
  5
A27
330
78A
100
AcDbEntity
  8
0
  6
Continuous
 62
     7
370
    15
100
AcDbLine
 10
2335.966910905751
 20
1740.496359568985
 30
0.0
 11
2343.349213180056
 21
1744.525649356579
 31
0.0
1001
AcDbBlockRepETag
1070
     1
1071
       48
1005
A27
  0
LWPOLYLINE
  5
A28
330
78A
100
AcDbEntity
  8
0
  6
Continuous
 62
     7
370
    15
100
AcDbPolyline
 90
       10
 70
   128
 43
0.0
 10
2343.349213180056
 20
1744.525649356579
 10
2343.881619795812
 20
1744.95144963907
 10
2344.055064119002
 20
1745.435439773363
 10
2343.848626204485
 20
1745.919243406329
 10
2343.287205511451
 20
1746.344506679651
 10
2342.438517661165
 20
1746.65993656635
 10
2341.404926933671
 20
1746.827487566839
 10
2340.311099624881
 20
1746.826950557671
 10
2339.288967451405
 20
1746.658390310076
 10
2338.461814638428
 20
1746.3421376776
1001
AcDbBlockRepETag
1070
     1
1071
       49
1005
A28
  0
LINE
  5
A29
330
78A
100
AcDbEntity
  8
0
  6
Continuous
 62
     7
370
    15
100
AcDbLine
 10
2338.461814638428
 20
1746.3421376776
 30
0.0
 11
2331.079512364124
 21
1742.312847890005
 31
0.0
1001
AcDbBlockRepETag
1070
     1
1071
       50
1005
A29
  0
LWPOLYLINE
  5
A2A
330
78A
100
AcDbEntity
  8
0
  6
Continuous
 62
     7
370
    15
100
AcDbPolyline
 90
       10
 70
   128
 43
0.0
 10
2331.079512364124
 20
1742.312847890005
 10
2330.547105748368
 20
1741.887047607515
 10
2330.373661425177
 20
1741.403057473222
 10
2330.580099339695
 20
1740.919253840256
 10
2331.141520032729
 20
1740.493990566933
 10
2331.990207883015
 20
1740.178560680235
 10
2333.023798610509
 20
1740.011009679745
 10
2334.117625919299
 20
1740.011546688913
 10
2335.139758092775
 20
1740.180106936508
 10
2335.966910905751
 20
1740.496359568985
1001
AcDbBlockRepETag
1070
     1
1071
       51
1005
A2A
  0
LINE
  5
A2B
330
78A
100
AcDbEntity
  8
0
  6
Continuous
 62
     7
370
    15
100
AcDbLine
 10
2351.741061064521
 20
1749.105953132221
 30
0.0
 11
2359.123363338825
 21
1753.135242919815
 31
0.0
1001
AcDbBlockRepETag
1070
     1
1071
       52
1005
A2B
  0
LWPOLYLINE
  5
A2C
330
78A
100
AcDbEntity
  8
0
  6
Continuous
 62
     7
370
    15
100
AcDbPolyline
 90
       10
 70
   128
 43
0.0
 10
2359.123363338825
 20
1753.135242919815
 10
2359.655769954581
 20
1753.561043202306
 10
2359.829214277772
 20
1754.045033336599
 10
2359.622776363255
 20
1754.528836969565
 10
2359.06135567022
 20
1754.954100242888
 10
2358.212667819935
 20
1755.269530129586
 10
2357.179077092441
 20
1755.437081130075
 10
2356.08524978365
 20
1755.436544120907
 10
2355.063117610174
 20
1755.267983873312
 10
2354.235964797198
 20
1754.951731240836
1001
AcDbBlockRepETag
1070
     1
1071
       53
1005
A2C
  0
LINE
  5
A2D
330
78A
100
AcDbEntity
  8
0
  6
Continuous
 62
     7
370
    15
100
AcDbLine
 10
2354.235964797198
 20
1754.951731240836
 30
0.0
 11
2346.853662522894
 21
1750.922441453241
 31
0.0
1001
AcDbBlockRepETag
1070
     1
1071
       54
1005
A2D
  0
LWPOLYLINE
  5
A2E
330
78A
100
AcDbEntity
  8
0
  6
Continuous
 62
     7
370
    15
100
AcDbPolyline
 90
       10
 70
   128
 43
0.0
 10
2346.853662522894
 20
1750.922441453241
 10
2346.321255907138
 20
1750.496641170751
 10
2346.147811583947
 20
1750.012651036457
 10
2346.354249498464
 20
1749.528847403492
 10
2346.915670191499
 20
1749.103584130169
 10
2347.764358041785
 20
1748.78815424347
 10
2348.797948769278
 20
1748.620603242981
 10
2349.891776078069
 20
1748.62114025215
 10
2350.913908251545
 20
1748.789700499744
 10
2351.741061064521
 20
1749.105953132221
1001
AcDbBlockRepETag
1070
     1
1071
       55
1005
A2E
  0
LINE
  5
A2F
330
78A
100
AcDbEntity
  8
0
  6
Continuous
 62
     7
370
    15
100
AcDbLine
 10
2367.515211223291
 20
1757.715546695457
 30
0.0
 11
2374.897513497595
 21
1761.744836483051
 31
0.0
1001
AcDbBlockRepETag
1070
     1
1071
       56
1005
A2F
  0
LWPOLYLINE
  5
A30
330
78A
100
AcDbEntity
  8
0
  6
Continuous
 62
     7
370
    15
100
AcDbPolyline
 90
       10
 70
   128
 43
0.0
 10
2374.897513497595
 20
1761.744836483051
 10
2375.429920113351
 20
1762.170636765542
 10
2375.603364436542
 20
1762.654626899835
 10
2375.396926522025
 20
1763.138430532801
 10
2374.83550582899
 20
1763.563693806124
 10
2373.986817978705
 20
1763.879123692822
 10
2372.953227251211
 20
1764.046674693312
 10
2371.85939994242
 20
1764.046137684143
 10
2370.837267768944
 20
1763.877577436549
 10
2370.010114955968
 20
1763.561324804072
1001
AcDbBlockRepETag
1070
     1
1071
       57
1005
A30
  0
LINE
  5
A31
330
78A
100
AcDbEntity
  8
0
  6
Continuous
 62
     7
370
    15
100
AcDbLine
 10
2370.010114955968
 20
1763.561324804072
 30
0.0
 11
2362.627812681663
 21
1759.532035016477
 31
0.0
1001
AcDbBlockRepETag
1070
     1
1071
       58
1005
A31
  0
LWPOLYLINE
  5
A32
330
78A
100
AcDbEntity
  8
0
  6
Continuous
 62
     7
370
    15
100
AcDbPolyline
 90
       10
 70
   128
 43
0.0
 10
2362.627812681663
 20
1759.532035016477
 10
2362.095406065908
 20
1759.106234733987
 10
2361.921961742717
 20
1758.622244599694
 10
2362.128399657234
 20
1758.138440966728
 10
2362.689820350269
 20
1757.713177693405
 10
2363.538508200555
 20
1757.397747806707
 10
2364.572098928048
 20
1757.230196806218
 10
2365.665926236839
 20
1757.230733815386
 10
2366.688058410315
 20
1757.39929406298
 10
2367.515211223291
 20
1757.715546695457
1001
AcDbBlockRepETag
1070
     1
1071
       59
1005
A32
  0
LINE
  5
A33
330
78A
100
AcDbEntity
  8
0
  6
Continuous
 62
     7
370
    15
100
AcDbLine
 10
2383.289361382061
 20
1766.325140258693
 30
0.0
 11
2390.671663656365
 21
1770.354430046287
 31
0.0
1001
AcDbBlockRepETag
1070
     1
1071
       60
1005
A33
  0
LWPOLYLINE
  5
A34
330
78A
100
AcDbEntity
  8
0
  6
Continuous
 62
     7
370
    15
100
AcDbPolyline
 90
       10
 70
   128
 43
0.0
 10
2390.671663656365
 20
1770.354430046287
 10
2391.204070272121
 20
1770.780230328778
 10
2391.377514595312
 20
1771.264220463071
 10
2391.171076680794
 20
1771.748024096037
 10
2390.60965598776
 20
1772.17328736936
 10
2389.760968137474
 20
1772.488717256058
 10
2388.727377409981
 20
1772.656268256548
 10
2387.63355010119
 20
1772.65573124738
 10
2386.611417927714
 20
1772.487170999785
 10
2385.784265114738
 20
1772.170918367308
1001
AcDbBlockRepETag
1070
     1
1071
       61
1005
A34
  0
LINE
  5
A35
330
78A
100
AcDbEntity
  8
0
  6
Continuous
 62
     7
370
    15
100
AcDbLine
 10
2385.784265114738
 20
1772.170918367308
 30
0.0
 11
2378.401962840433
 21
1768.141628579714
 31
0.0
1001
AcDbBlockRepETag
1070
     1
1071
       62
1005
A35
  0
LWPOLYLINE
  5
A36
330
78A
100
AcDbEntity
  8
0
  6
Continuous
 62
     7
370
    15
100
AcDbPolyline
 90
       10
 70
   128
 43
0.0
 10
2378.401962840433
 20
1768.141628579714
 10
2377.869556224678
 20
1767.715828297223
 10
2377.696111901487
 20
1767.23183816293
 10
2377.902549816004
 20
1766.748034529963
 10
2378.463970509039
 20
1766.322771256641
 10
2379.312658359324
 20
1766.007341369943
 10
2380.346249086818
 20
1765.839790369453
 10
2381.440076395608
 20
1765.840327378622
 10
2382.462208569084
 20
1766.008887626216
 10
2383.289361382061
 20
1766.325140258693
1001
AcDbBlockRepETag
1070
     1
1071
       63
1005
A36
  0
LINE
  5
A37
330
78A
100
AcDbEntity
  8
0
  6
Continuous
 62
     7
370
    15
100
AcDbLine
 10
2399.063511540831
 20
1774.934733821929
 30
0.0
 11
2406.445813815135
 21
1778.964023609524
 31
0.0
1001
AcDbBlockRepETag
1070
     1
1071
       64
1005
A37
  0
LWPOLYLINE
  5
A38
330
78A
100
AcDbEntity
  8
0
  6
Continuous
 62
     7
370
    15
100
AcDbPolyline
 90
       10
 70
   128
 43
0.0
 10
2406.445813815135
 20
1778.964023609524
 10
2406.978220430892
 20
1779.389823892014
 10
2407.151664754082
 20
1779.873814026307
 10
2406.945226839564
 20
1780.357617659274
 10
2406.383806146529
 20
1780.782880932596
 10
2405.535118296244
 20
1781.098310819294
 10
2404.501527568751
 20
1781.265861819784
 10
2403.40770025996
 20
1781.265324810616
 10
2402.385568086484
 20
1781.096764563021
 10
2401.558415273508
 20
1780.780511930544
1001
AcDbBlockRepETag
1070
     1
1071
       65
1005
A38
  0
LINE
  5
A39
330
78A
100
AcDbEntity
  8
0
  6
Continuous
 62
     7
370
    15
100
AcDbLine
 10
2401.558415273508
 20
1780.780511930544
 30
0.0
 11
2394.176112999204
 21
1776.75122214295
 31
0.0
1001
AcDbBlockRepETag
1070
     1
1071
       66
1005
A39
  0
LWPOLYLINE
  5
A3A
330
78A
100
AcDbEntity
  8
0
  6
Continuous
 62
     7
370
    15
100
AcDbPolyline
 90
       10
 70
   128
 43
0.0
 10
2394.176112999204
 20
1776.75122214295
 10
2393.643706383448
 20
1776.325421860459
 10
2393.470262060256
 20
1775.841431726166
 10
2393.676699974774
 20
1775.3576280932
 10
2394.238120667809
 20
1774.932364819878
 10
2395.086808518095
 20
1774.616934933179
 10
2396.120399245587
 20
1774.44938393269
 10
2397.214226554378
 20
1774.449920941858
 10
2398.236358727855
 20
1774.618481189452
 10
2399.063511540831
 20
1774.934733821929
1001
AcDbBlockRepETag
1070
     1
1071
       67
1005
A3A
  0
LINE
  5
A3B
330
78A
100
AcDbEntity
  8
0
  6
Continuous
 62
     7
370
    15
100
AcDbLine
 10
2414.837661699601
 20
1783.544327385165
 30
0.0
 11
2422.219963973905
 21
1787.57361717276
 31
0.0
1001
AcDbBlockRepETag
1070
     1
1071
       68
1005
A3B
  0
LWPOLYLINE
  5
A3C
330
78A
100
AcDbEntity
  8
0
  6
Continuous
 62
     7
370
    15
100
AcDbPolyline
 90
       10
 70
   128
 43
0.0
 10
2422.219963973905
 20
1787.57361717276
 10
2422.752370589661
 20
1787.999417455251
 10
2422.925814912852
 20
1788.483407589543
 10
2422.719376998334
 20
1788.96721122251
 10
2422.1579563053
 20
1789.392474495832
 10
2421.309268455014
 20
1789.707904382531
 10
2420.275677727521
 20
1789.87545538302
 10
2419.181850418731
 20
1789.874918373852
 10
2418.159718245254
 20
1789.706358126257
 10
2417.332565432278
 20
1789.390105493781
1001
AcDbBlockRepETag
1070
     1
1071
       69
1005
A3C
  0
LINE
  5
A3D
330
78A
100
AcDbEntity
  8
0
  6
Continuous
 62
     7
370
    15
100
AcDbLine
 10
2417.332565432278
 20
1789.390105493781
 30
0.0
 11
2409.950263157974
 21
1785.360815706186
 31
0.0
1001
AcDbBlockRepETag
1070
     1
1071
       70
1005
A3D
  0
LWPOLYLINE
  5
A3E
330
78A
100
AcDbEntity
  8
0
  6
Continuous
 62
     7
370
    15
100
AcDbPolyline
 90
       10
 70
   128
 43
0.0
 10
2409.950263157974
 20
1785.360815706186
 10
2409.417856542218
 20
1784.935015423695
 10
2409.244412219027
 20
1784.451025289402
 10
2409.450850133544
 20
1783.967221656436
 10
2410.012270826579
 20
1783.541958383113
 10
2410.860958676865
 20
1783.226528496415
 10
2411.894549404358
 20
1783.058977495926
 10
2412.988376713148
 20
1783.059514505094
 10
2414.010508886625
 20
1783.228074752688
 10
2414.837661699601
 20
1783.544327385165
1001
AcDbBlockRepETag
1070
     1
1071
       71
1005
A3E
  0
LINE
  5
A3F
330
78A
100
AcDbEntity
  8
0
  6
Continuous
 62
     7
370
    15
100
AcDbLine
 10
2430.611811858371
 20
1792.153920948402
 30
0.0
 11
2437.994114132675
 21
1796.183210735996
 31
0.0
1001
AcDbBlockRepETag
1070
     1
1071
       72
1005
A3F
  0
LWPOLYLINE
  5
A40
330
78A
100
AcDbEntity
  8
0
  6
Continuous
 62
     7
370
    15
100
AcDbPolyline
 90
       10
 70
   128
 43
0.0
 10
2437.994114132675
 20
1796.183210735996
 10
2438.526520748431
 20
1796.609011018487
 10
2438.699965071622
 20
1797.09300115278
 10
2438.493527157105
 20
1797.576804785746
 10
2437.932106464069
 20
1798.002068059068
 10
2437.083418613784
 20
1798.317497945767
 10
2436.049827886291
 20
1798.485048946256
 10
2434.9560005775
 20
1798.484511937088
 10
2433.933868404024
 20
1798.315951689493
 10
2433.106715591048
 20
1797.999699057017
1001
AcDbBlockRepETag
1070
     1
1071
       73
1005
A40
  0
LINE
  5
A41
330
78A
100
AcDbEntity
  8
0
  6
Continuous
 62
     7
370
    15
100
AcDbLine
 10
2433.106715591048
 20
1797.999699057017
 30
0.0
 11
2425.724413316743
 21
1793.970409269422
 31
0.0
1001
AcDbBlockRepETag
1070
     1
1071
       74
1005
A41
  0
LWPOLYLINE
  5
A42
330
78A
100
AcDbEntity
  8
0
  6
Continuous
 62
     7
370
    15
100
AcDbPolyline
 90
       10
 70
   128
 43
0.0
 10
2425.724413316743
 20
1793.970409269422
 10
2425.192006700987
 20
1793.544608986931
 10
2425.018562377797
 20
1793.060618852639
 10
2425.225000292314
 20
1792.576815219672
 10
2425.786420985349
 20
1792.15155194635
 10
2426.635108835634
 20
1791.836122059651
 10
2427.668699563128
 20
1791.668571059162
 10
2428.762526871919
 20
1791.66910806833
 10
2429.784659045395
 20
1791.837668315925
 10
2430.611811858371
 20
1792.153920948402
1001
AcDbBlockRepETag
1070
     1
1071
       75
1005
A42
  0
LINE
  5
A43
330
78A
100
AcDbEntity
  8
0
  6
Continuous
 62
     7
370
    15
100
AcDbLine
 10
2446.385962017141
 20
1800.763514511638
 30
0.0
 11
2453.768264291445
 21
1804.792804299232
 31
0.0
1001
AcDbBlockRepETag
1070
     1
1071
       76
1005
A43
  0
LWPOLYLINE
  5
A44
330
78A
100
AcDbEntity
  8
0
  6
Continuous
 62
     7
370
    15
100
AcDbPolyline
 90
       10
 70
   128
 43
0.0
 10
2453.768264291445
 20
1804.792804299232
 10
2454.300670907201
 20
1805.218604581722
 10
2454.474115230392
 20
1805.702594716015
 10
2454.267677315874
 20
1806.186398348982
 10
2453.70625662284
 20
1806.611661622304
 10
2452.857568772554
 20
1806.927091509003
 10
2451.823978045061
 20
1807.094642509492
 10
2450.73015073627
 20
1807.094105500324
 10
2449.708018562794
 20
1806.925545252729
 10
2448.880865749818
 20
1806.609292620253
1001
AcDbBlockRepETag
1070
     1
1071
       77
1005
A44
  0
LINE
  5
A45
330
78A
100
AcDbEntity
  8
0
  6
Continuous
 62
     7
370
    15
100
AcDbLine
 10
2448.880865749818
 20
1806.609292620253
 30
0.0
 11
2441.498563475513
 21
1802.580002832658
 31
0.0
1001
AcDbBlockRepETag
1070
     1
1071
       78
1005
A45
  0
LWPOLYLINE
  5
A46
330
78A
100
AcDbEntity
  8
0
  6
Continuous
 62
     7
370
    15
100
AcDbPolyline
 90
       10
 70
   128
 43
0.0
 10
2441.498563475513
 20
1802.580002832658
 10
2440.966156859757
 20
1802.154202550168
 10
2440.792712536567
 20
1801.670212415874
 10
2440.999150451084
 20
1801.186408782908
 10
2441.560571144119
 20
1800.761145509586
 10
2442.409258994404
 20
1800.445715622887
 10
2443.442849721897
 20
1800.278164622398
 10
2444.536677030689
 20
1800.278701631566
 10
2445.558809204165
 20
1800.447261879161
 10
2446.385962017141
 20
1800.763514511638
1001
AcDbBlockRepETag
1070
     1
1071
       79
1005
A46
  0
LINE
  5
A47
330
78A
100
AcDbEntity
  8
0
  6
Continuous
 62
     7
370
    15
100
AcDbLine
 10
2462.160112175911
 20
1809.373108074874
 30
0.0
 11
2469.542414450215
 21
1813.402397862468
 31
0.0
1001
AcDbBlockRepETag
1070
     1
1071
       80
1005
A47
  0
LWPOLYLINE
  5
A48
330
78A
100
AcDbEntity
  8
0
  6
Continuous
 62
     7
370
    15
100
AcDbPolyline
 90
       10
 70
   128
 43
0.0
 10
2469.542414450215
 20
1813.402397862468
 10
2470.074821065971
 20
1813.828198144959
 10
2470.248265389161
 20
1814.312188279252
 10
2470.041827474644
 20
1814.795991912218
 10
2469.48040678161
 20
1815.22125518554
 10
2468.631718931324
 20
1815.536685072239
 10
2467.59812820383
 20
1815.704236072728
 10
2466.50430089504
 20
1815.70369906356
 10
2465.482168721564
 20
1815.535138815965
 10
2464.655015908587
 20
1815.218886183489
1001
AcDbBlockRepETag
1070
     1
1071
       81
1005
A48
  0
LINE
  5
A49
330
78A
100
AcDbEntity
  8
0
  6
Continuous
 62
     7
370
    15
100
AcDbLine
 10
2464.655015908587
 20
1815.218886183489
 30
0.0
 11
2457.272713634283
 21
1811.189596395895
 31
0.0
1001
AcDbBlockRepETag
1070
     1
1071
       82
1005
A49
  0
LWPOLYLINE
  5
A4A
330
78A
100
AcDbEntity
  8
0
  6
Continuous
 62
     7
370
    15
100
AcDbPolyline
 90
       10
 70
   128
 43
0.0
 10
2457.272713634283
 20
1811.189596395895
 10
2456.740307018528
 20
1810.763796113404
 10
2456.566862695337
 20
1810.279805979111
 10
2456.773300609853
 20
1809.796002346144
 10
2457.334721302888
 20
1809.370739072822
 10
2458.183409153174
 20
1809.055309186123
 10
2459.216999880668
 20
1808.887758185634
 10
2460.310827189458
 20
1808.888295194802
 10
2461.332959362934
 20
1809.056855442397
 10
2462.160112175911
 20
1809.373108074874
1001
AcDbBlockRepETag
1070
     1
1071
       83
1005
A4A
  0
LINE
  5
A4B
330
78A
100
AcDbEntity
  8
0
  6
Continuous
 62
     7
370
    15
100
AcDbLine
 10
2477.93426233468
 20
1817.98270163811
 30
0.0
 11
2485.316564608985
 21
1822.011991425704
 31
0.0
1001
AcDbBlockRepETag
1070
     1
1071
       84
1005
A4B
  0
LWPOLYLINE
  5
A4C
330
78A
100
AcDbEntity
  8
0
  6
Continuous
 62
     7
370
    15
100
AcDbPolyline
 90
       10
 70
   128
 43
0.0
 10
2485.316564608985
 20
1822.011991425704
 10
2485.84897122474
 20
1822.437791708195
 10
2486.022415547931
 20
1822.921781842488
 10
2485.815977633414
 20
1823.405585475454
 10
2485.254556940379
 20
1823.830848748777
 10
2484.405869090094
 20
1824.146278635475
 10
2483.3722783626
 20
1824.313829635964
 10
2482.27845105381
 20
1824.313292626796
 10
2481.256318880334
 20
1824.144732379201
 10
2480.429166067357
 20
1823.828479746725
1001
AcDbBlockRepETag
1070
     1
1071
       85
1005
A4C
  0
LINE
  5
A4D
330
78A
100
AcDbEntity
  8
0
  6
Continuous
 62
     7
370
    15
100
AcDbLine
 10
2480.429166067357
 20
1823.828479746725
 30
0.0
 11
2473.046863793053
 21
1819.79918995913
 31
0.0
1001
AcDbBlockRepETag
1070
     1
1071
       86
1005
A4D
  0
LWPOLYLINE
  5
A4E
330
78A
100
AcDbEntity
  8
0
  6
Continuous
 62
     7
370
    15
100
AcDbPolyline
 90
       10
 70
   128
 43
0.0
 10
2473.046863793053
 20
1819.79918995913
 10
2472.514457177297
 20
1819.37338967664
 10
2472.341012854107
 20
1818.889399542347
 10
2472.547450768623
 20
1818.40559590938
 10
2473.108871461658
 20
1817.980332636058
 10
2473.957559311944
 20
1817.664902749359
 10
2474.991150039438
 20
1817.49735174887
 10
2476.084977348228
 20
1817.497888758038
 10
2477.107109521704
 20
1817.666449005633
 10
2477.93426233468
 20
1817.98270163811
1001
AcDbBlockRepETag
1070
     1
1071
       87
1005
A4E
  0
LINE
  5
A4F
330
78A
100
AcDbEntity
  8
0
  6
Continuous
 62
     7
370
    15
100
AcDbLine
 10
2493.70841249345
 20
1826.592295201346
 30
0.0
 11
2501.090714767755
 21
1830.62158498894
 31
0.0
1001
AcDbBlockRepETag
1070
     1
1071
       88
1005
A4F
  0
LWPOLYLINE
  5
A50
330
78A
100
AcDbEntity
  8
0
  6
Continuous
 62
     7
370
    15
100
AcDbPolyline
 90
       10
 70
   128
 43
0.0
 10
2501.090714767755
 20
1830.62158498894
 10
2501.623121383511
 20
1831.047385271431
 10
2501.796565706701
 20
1831.531375405724
 10
2501.590127792184
 20
1832.01517903869
 10
2501.028707099149
 20
1832.440442312013
 10
2500.180019248864
 20
1832.755872198711
 10
2499.14642852137
 20
1832.9234231992
 10
2498.05260121258
 20
1832.922886190032
 10
2497.030469039103
 20
1832.754325942438
 10
2496.203316226127
 20
1832.438073309961
1001
AcDbBlockRepETag
1070
     1
1071
       89
1005
A50
  0
LINE
  5
A51
330
78A
100
AcDbEntity
  8
0
  6
Continuous
 62
     7
370
    15
100
AcDbLine
 10
2496.203316226127
 20
1832.438073309961
 30
0.0
 11
2488.821013951823
 21
1828.408783522366
 31
0.0
1001
AcDbBlockRepETag
1070
     1
1071
       90
1005
A51
  0
LWPOLYLINE
  5
A52
330
78A
100
AcDbEntity
  8
0
  6
Continuous
 62
     7
370
    15
100
AcDbPolyline
 90
       10
 70
   128
 43
0.0
 10
2488.821013951823
 20
1828.408783522366
 10
2488.288607336067
 20
1827.982983239876
 10
2488.115163012877
 20
1827.498993105583
 10
2488.321600927394
 20
1827.015189472616
 10
2488.883021620428
 20
1826.589926199294
 10
2489.731709470714
 20
1826.274496312596
 10
2490.765300198207
 20
1826.106945312106
 10
2491.859127506998
 20
1826.107482321275
 10
2492.881259680475
 20
1826.276042568869
 10
2493.70841249345
 20
1826.592295201346
1001
AcDbBlockRepETag
1070
     1
1071
       91
1005
A52
  0
LINE
  5
A53
330
78A
100
AcDbEntity
  8
0
  6
Continuous
 62
     7
370
    15
100
AcDbLine
 10
2509.48256265222
 20
1835.201888764582
 30
0.0
 11
2516.864864926525
 21
1839.231178552176
 31
0.0
1001
AcDbBlockRepETag
1070
     1
1071
       92
1005
A53
  0
LWPOLYLINE
  5
A54
330
78A
100
AcDbEntity
  8
0
  6
Continuous
 62
     7
370
    15
100
AcDbPolyline
 90
       10
 70
   128
 43
0.0
 10
2516.864864926525
 20
1839.231178552176
 10
2517.397271542281
 20
1839.656978834667
 10
2517.570715865471
 20
1840.14096896896
 10
2517.364277950954
 20
1840.624772601927
 10
2516.802857257919
 20
1841.050035875249
 10
2515.954169407633
 20
1841.365465761947
 10
2514.92057868014
 20
1841.533016762436
 10
2513.826751371349
 20
1841.532479753269
 10
2512.804619197873
 20
1841.363919505674
 10
2511.977466384897
 20
1841.047666873197
1001
AcDbBlockRepETag
1070
     1
1071
       93
1005
A54
  0
LINE
  5
A55
330
78A
100
AcDbEntity
  8
0
  6
Continuous
 62
     7
370
    15
100
AcDbLine
 10
2511.977466384897
 20
1841.047666873197
 30
0.0
 11
2504.595164110593
 21
1837.018377085603
 31
0.0
1001
AcDbBlockRepETag
1070
     1
1071
       94
1005
A55
  0
LWPOLYLINE
  5
A56
330
78A
100
AcDbEntity
  8
0
  6
Continuous
 62
     7
370
    15
100
AcDbPolyline
 90
       10
 70
   128
 43
0.0
 10
2504.595164110593
 20
1837.018377085603
 10
2504.062757494837
 20
1836.592576803112
 10
2503.889313171646
 20
1836.108586668819
 10
2504.095751086163
 20
1835.624783035853
 10
2504.657171779198
 20
1835.19951976253
 10
2505.505859629484
 20
1834.884089875832
 10
2506.539450356977
 20
1834.716538875342
 10
2507.633277665768
 20
1834.71707588451
 10
2508.655409839244
 20
1834.885636132105
 10
2509.48256265222
 20
1835.201888764582
1001
AcDbBlockRepETag
1070
     1
1071
       95
1005
A56
  0
LINE
  5
A57
330
78A
100
AcDbEntity
  8
0
  6
Continuous
 62
     7
370
    15
100
AcDbLine
 10
2525.25671281099
 20
1843.811482327818
 30
0.0
 11
2532.639015085294
 21
1847.840772115413
 31
0.0
1001
AcDbBlockRepETag
1070
     1
1071
       96
1005
A57
  0
LWPOLYLINE
  5
A58
330
78A
100
AcDbEntity
  8
0
  6
Continuous
 62
     7
370
    15
100
AcDbPolyline
 90
       10
 70
   128
 43
0.0
 10
2532.639015085294
 20
1847.840772115413
 10
2533.17142170105
 20
1848.266572397903
 10
2533.344866024241
 20
1848.750562532196
 10
2533.138428109724
 20
1849.234366165163
 10
2532.577007416689
 20
1849.659629438485
 10
2531.728319566403
 20
1849.975059325183
 10
2530.69472883891
 20
1850.142610325673
 10
2529.60090153012
 20
1850.142073316504
 10
2528.578769356643
 20
1849.97351306891
 10
2527.751616543667
 20
1849.657260436433
1001
AcDbBlockRepETag
1070
     1
1071
       97
1005
A58
  0
LINE
  5
A59
330
78A
100
AcDbEntity
  8
0
  6
Continuous
 62
     7
370
    15
100
AcDbLine
 10
2527.751616543667
 20
1849.657260436433
 30
0.0
 11
2520.369314269363
 21
1845.627970648839
 31
0.0
1001
AcDbBlockRepETag
1070
     1
1071
       98
1005
A59
  0
LWPOLYLINE
  5
A5A
330
78A
100
AcDbEntity
  8
0
  6
Continuous
 62
     7
370
    15
100
AcDbPolyline
 90
       10
 70
   128
 43
0.0
 10
2520.369314269363
 20
1845.627970648839
 10
2519.836907653607
 20
1845.202170366348
 10
2519.663463330416
 20
1844.718180232055
 10
2519.869901244934
 20
1844.234376599089
 10
2520.431321937968
 20
1843.809113325766
 10
2521.280009788254
 20
1843.493683439068
 10
2522.313600515747
 20
1843.326132438578
 10
2523.407427824538
 20
1843.326669447747
 10
2524.429559998014
 20
1843.495229695341
 10
2525.25671281099
 20
1843.811482327818
1001
AcDbBlockRepETag
1070
     1
1071
       99
1005
A5A
  0
LINE
  5
A5B
330
78A
100
AcDbEntity
  8
0
  6
Continuous
 62
     7
370
    15
100
AcDbLine
 10
2541.03086296976
 20
1852.421075891054
 30
0.0
 11
2548.413165244064
 21
1856.450365678649
 31
0.0
1001
AcDbBlockRepETag
1070
     1
1071
      100
1005
A5B
  0
LWPOLYLINE
  5
A5C
330
78A
100
AcDbEntity
  8
0
  6
Continuous
 62
     7
370
    15
100
AcDbPolyline
 90
       10
 70
   128
 43
0.0
 10
2548.413165244064
 20
1856.450365678649
 10
2548.94557185982
 20
1856.876165961139
 10
2549.119016183011
 20
1857.360156095433
 10
2548.912578268494
 20
1857.843959728398
 10
2548.351157575459
 20
1858.269223001721
 10
2547.502469725173
 20
1858.584652888419
 10
2546.46887899768
 20
1858.752203888909
 10
2545.37505168889
 20
1858.75166687974
 10
2544.352919515413
 20
1858.583106632146
 10
2543.525766702437
 20
1858.266853999669
1001
AcDbBlockRepETag
1070
     1
1071
      101
1005
A5C
  0
LINE
  5
A5D
330
78A
100
AcDbEntity
  8
0
  6
Continuous
 62
     7
370
    15
100
AcDbLine
 10
2543.525766702437
 20
1858.266853999669
 30
0.0
 11
2536.143464428133
 21
1854.237564212074
 31
0.0
1001
AcDbBlockRepETag
1070
     1
1071
      102
1005
A5D
  0
LWPOLYLINE
  5
A5E
330
78A
100
AcDbEntity
  8
0
  6
Continuous
 62
     7
370
    15
100
AcDbPolyline
 90
       10
 70
   128
 43
0.0
 10
2536.143464428133
 20
1854.237564212074
 10
2535.611057812376
 20
1853.811763929584
 10
2535.437613489186
 20
1853.327773795291
 10
2535.644051403703
 20
1852.843970162325
 10
2536.205472096738
 20
1852.418706889002
 10
2537.054159947024
 20
1852.103277002304
 10
2538.087750674517
 20
1851.935726001815
 10
2539.181577983308
 20
1851.936263010983
 10
2540.203710156784
 20
1852.104823258578
 10
2541.03086296976
 20
1852.421075891054
1001
AcDbBlockRepETag
1070
     1
1071
      103
1005
A5E
  0
LINE
  5
A5F
330
78A
100
AcDbEntity
  8
0
  6
Continuous
 62
     7
370
    15
100
AcDbLine
 10
2556.80501312853
 20
1861.03066945429
 30
0.0
 11
2564.187315402834
 21
1865.059959241885
 31
0.0
1001
AcDbBlockRepETag
1070
     1
1071
      104
1005
A5F
  0
LWPOLYLINE
  5
A60
330
78A
100
AcDbEntity
  8
0
  6
Continuous
 62
     7
370
    15
100
AcDbPolyline
 90
       10
 70
   128
 43
0.0
 10
2564.187315402834
 20
1865.059959241885
 10
2564.71972201859
 20
1865.485759524375
 10
2564.893166341781
 20
1865.969749658668
 10
2564.686728427263
 20
1866.453553291634
 10
2564.125307734228
 20
1866.878816564957
 10
2563.276619883943
 20
1867.194246451656
 10
2562.24302915645
 20
1867.361797452145
 10
2561.149201847659
 20
1867.361260442977
 10
2560.127069674183
 20
1867.192700195382
 10
2559.299916861207
 20
1866.876447562905
1001
AcDbBlockRepETag
1070
     1
1071
      105
1005
A60
  0
LINE
  5
A61
330
78A
100
AcDbEntity
  8
0
  6
Continuous
 62
     7
370
    15
100
AcDbLine
 10
2559.299916861207
 20
1866.876447562905
 30
0.0
 11
2551.917614586903
 21
1862.847157775311
 31
0.0
1001
AcDbBlockRepETag
1070
     1
1071
      106
1005
A61
  0
LWPOLYLINE
  5
A62
330
78A
100
AcDbEntity
  8
0
  6
Continuous
 62
     7
370
    15
100
AcDbPolyline
 90
       10
 70
   128
 43
0.0
 10
2551.917614586903
 20
1862.847157775311
 10
2551.385207971147
 20
1862.42135749282
 10
2551.211763647956
 20
1861.937367358527
 10
2551.418201562473
 20
1861.453563725561
 10
2551.979622255508
 20
1861.028300452238
 10
2552.828310105793
 20
1860.71287056554
 10
2553.861900833287
 20
1860.545319565051
 10
2554.955728142078
 20
1860.545856574219
 10
2555.977860315553
 20
1860.714416821814
 10
2556.80501312853
 20
1861.03066945429
1001
AcDbBlockRepETag
1070
     1
1071
      107
1005
A62
  0
LINE
  5
A63
330
78A
100
AcDbEntity
  8
0
  6
Continuous
 62
     7
370
    15
100
AcDbLine
 10
2572.5791632873
 20
1869.640263017526
 30
0.0
 11
2579.961465561604
 21
1873.669552805121
 31
0.0
1001
AcDbBlockRepETag
1070
     1
1071
      108
1005
A63
  0
LWPOLYLINE
  5
A64
330
78A
100
AcDbEntity
  8
0
  6
Continuous
 62
     7
370
    15
100
AcDbPolyline
 90
       10
 70
   128
 43
0.0
 10
2579.961465561604
 20
1873.669552805121
 10
2580.49387217736
 20
1874.095353087612
 10
2580.667316500551
 20
1874.579343221905
 10
2580.460878586033
 20
1875.063146854871
 10
2579.899457892998
 20
1875.488410128193
 10
2579.050770042713
 20
1875.803840014891
 10
2578.01717931522
 20
1875.971391015381
 10
2576.923352006429
 20
1875.970854006213
 10
2575.901219832953
 20
1875.802293758618
 10
2575.074067019977
 20
1875.486041126141
1001
AcDbBlockRepETag
1070
     1
1071
      109
1005
A64
  0
LINE
  5
A65
330
78A
100
AcDbEntity
  8
0
  6
Continuous
 62
     7
370
    15
100
AcDbLine
 10
2575.074067019977
 20
1875.486041126141
 30
0.0
 11
2567.691764745672
 21
1871.456751338547
 31
0.0
1001
AcDbBlockRepETag
1070
     1
1071
      110
1005
A65
  0
LWPOLYLINE
  5
A66
330
78A
100
AcDbEntity
  8
0
  6
Continuous
 62
     7
370
    15
100
AcDbPolyline
 90
       10
 70
   128
 43
0.0
 10
2567.691764745672
 20
1871.456751338547
 10
2567.159358129917
 20
1871.030951056056
 10
2566.985913806726
 20
1870.546960921763
 10
2567.192351721243
 20
1870.063157288797
 10
2567.753772414278
 20
1869.637894015475
 10
2568.602460264563
 20
1869.322464128776
 10
2569.636050992057
 20
1869.154913128287
 10
2570.729878300847
 20
1869.155450137455
 10
2571.752010474324
 20
1869.32401038505
 10
2572.5791632873
 20
1869.640263017526
1001
AcDbBlockRepETag
1070
     1
1071
      111
1005
A66
  0
LINE
  5
A67
330
78A
100
AcDbEntity
  8
0
  6
Continuous
 62
     7
370
    15
100
AcDbLine
 10
2588.35331344607
 20
1878.249856580763
 30
0.0
 11
2595.735615720374
 21
1882.279146368357
 31
0.0
1001
AcDbBlockRepETag
1070
     1
1071
      112
1005
A67
  0
LWPOLYLINE
  5
A68
330
78A
100
AcDbEntity
  8
0
  6
Continuous
 62
     7
370
    15
100
AcDbPolyline
 90
       10
 70
   128
 43
0.0
 10
2595.735615720374
 20
1882.279146368357
 10
2596.26802233613
 20
1882.704946650848
 10
2596.44146665932
 20
1883.188936785141
 10
2596.235028744804
 20
1883.672740418107
 10
2595.673608051769
 20
1884.098003691429
 10
2594.824920201483
 20
1884.413433578128
 10
2593.791329473989
 20
1884.580984578617
 10
2592.697502165199
 20
1884.580447569449
 10
2591.675369991723
 20
1884.411887321854
 10
2590.848217178747
 20
1884.095634689377
1001
AcDbBlockRepETag
1070
     1
1071
      113
1005
A68
  0
LINE
  5
A69
330
78A
100
AcDbEntity
  8
0
  6
Continuous
 62
     7
370
    15
100
AcDbLine
 10
2590.848217178747
 20
1884.095634689377
 30
0.0
 11
2583.465914904442
 21
1880.066344901783
 31
0.0
1001
AcDbBlockRepETag
1070
     1
1071
      114
1005
A69
  0
LWPOLYLINE
  5
A6A
330
78A
100
AcDbEntity
  8
0
  6
Continuous
 62
     7
370
    15
100
AcDbPolyline
 90
       10
 70
   128
 43
0.0
 10
2583.465914904442
 20
1880.066344901783
 10
2582.933508288686
 20
1879.640544619292
 10
2582.760063965496
 20
1879.156554484999
 10
2582.966501880012
 20
1878.672750852033
 10
2583.527922573047
 20
1878.247487578711
 10
2584.376610423333
 20
1877.932057692012
 10
2585.410201150827
 20
1877.764506691523
 10
2586.504028459617
 20
1877.765043700691
 10
2587.526160633093
 20
1877.933603948286
 10
2588.35331344607
 20
1878.249856580763
1001
AcDbBlockRepETag
1070
     1
1071
      115
1005
A6A
  0
LINE
  5
A6B
330
78A
100
AcDbEntity
  8
0
  6
Continuous
 62
     7
370
    15
100
AcDbLine
 10
2604.127463604839
 20
1886.859450143999
 30
0.0
 11
2611.509765879144
 21
1890.888739931593
 31
0.0
1001
AcDbBlockRepETag
1070
     1
1071
      116
1005
A6B
  0
LWPOLYLINE
  5
A6C
330
78A
100
AcDbEntity
  8
0
  6
Continuous
 62
     7
370
    15
100
AcDbPolyline
 90
       10
 70
   128
 43
0.0
 10
2611.509765879144
 20
1890.888739931593
 10
2612.0421724949
 20
1891.314540214084
 10
2612.21561681809
 20
1891.798530348377
 10
2612.009178903573
 20
1892.282333981343
 10
2611.447758210538
 20
1892.707597254665
 10
2610.599070360253
 20
1893.023027141364
 10
2609.56547963276
 20
1893.190578141853
 10
2608.471652323969
 20
1893.190041132685
 10
2607.449520150492
 20
1893.02148088509
 10
2606.622367337517
 20
1892.705228252614
1001
AcDbBlockRepETag
1070
     1
1071
      117
1005
A6C
  0
LINE
  5
A6D
330
78A
100
AcDbEntity
  8
0
  6
Continuous
 62
     7
370
    15
100
AcDbLine
 10
2606.622367337517
 20
1892.705228252614
 30
0.0
 11
2599.240065063212
 21
1888.675938465019
 31
0.0
1001
AcDbBlockRepETag
1070
     1
1071
      118
1005
A6D
  0
LWPOLYLINE
  5
A6E
330
78A
100
AcDbEntity
  8
0
  6
Continuous
 62
     7
370
    15
100
AcDbPolyline
 90
       10
 70
   128
 43
0.0
 10
2599.240065063212
 20
1888.675938465019
 10
2598.707658447456
 20
1888.250138182528
 10
2598.534214124266
 20
1887.766148048235
 10
2598.740652038783
 20
1887.282344415269
 10
2599.302072731817
 20
1886.857081141947
 10
2600.150760582103
 20
1886.541651255248
 10
2601.184351309596
 20
1886.374100254759
 10
2602.278178618387
 20
1886.374637263927
 10
2603.300310791863
 20
1886.543197511522
 10
2604.127463604839
 20
1886.859450143999
1001
AcDbBlockRepETag
1070
     1
1071
      119
1005
A6E
  0
LINE
  5
A6F
330
78A
100
AcDbEntity
  8
0
  6
Continuous
 62
     7
370
    15
100
AcDbLine
 10
2619.901613763609
 20
1895.469043707235
 30
0.0
 11
2627.283916037914
 21
1899.498333494829
 31
0.0
1001
AcDbBlockRepETag
1070
     1
1071
      120
1005
A6F
  0
LWPOLYLINE
  5
A70
330
78A
100
AcDbEntity
  8
0
  6
Continuous
 62
     7
370
    15
100
AcDbPolyline
 90
       10
 70
   128
 43
0.0
 10
2627.283916037914
 20
1899.498333494829
 10
2627.81632265367
 20
1899.92413377732
 10
2627.98976697686
 20
1900.408123911613
 10
2627.783329062343
 20
1900.891927544579
 10
2627.221908369308
 20
1901.317190817901
 10
2626.373220519023
 20
1901.6326207046
 10
2625.339629791529
 20
1901.80017170509
 10
2624.245802482739
 20
1901.799634695921
 10
2623.223670309262
 20
1901.631074448326
 10
2622.396517496286
 20
1901.31482181585
1001
AcDbBlockRepETag
1070
     1
1071
      121
1005
A70
  0
LINE
  5
A71
330
78A
100
AcDbEntity
  8
0
  6
Continuous
 62
     7
370
    15
100
AcDbLine
 10
2622.396517496286
 20
1901.31482181585
 30
0.0
 11
2615.014215221982
 21
1897.285532028255
 31
0.0
1001
AcDbBlockRepETag
1070
     1
1071
      122
1005
A71
  0
LWPOLYLINE
  5
A72
330
78A
100
AcDbEntity
  8
0
  6
Continuous
 62
     7
370
    15
100
AcDbPolyline
 90
       10
 70
   128
 43
0.0
 10
2615.014215221982
 20
1897.285532028255
 10
2614.481808606226
 20
1896.859731745765
 10
2614.308364283035
 20
1896.375741611471
 10
2614.514802197553
 20
1895.891937978506
 10
2615.076222890588
 20
1895.466674705183
 10
2615.924910740873
 20
1895.151244818485
 10
2616.958501468366
 20
1894.983693817995
 10
2618.052328777157
 20
1894.984230827163
 10
2619.074460950634
 20
1895.152791074758
 10
2619.901613763609
 20
1895.469043707235
1001
AcDbBlockRepETag
1070
     1
1071
      123
1005
A72
  0
LINE
  5
A73
330
78A
100
AcDbEntity
  8
0
  6
Continuous
 62
     7
370
    15
100
AcDbLine
 10
2635.67576392238
 20
1904.078637270471
 30
0.0
 11
2643.058066196684
 21
1908.107927058065
 31
0.0
1001
AcDbBlockRepETag
1070
     1
1071
      124
1005
A73
  0
LWPOLYLINE
  5
A74
330
78A
100
AcDbEntity
  8
0
  6
Continuous
 62
     7
370
    15
100
AcDbPolyline
 90
       10
 70
   128
 43
0.0
 10
2643.058066196684
 20
1908.107927058065
 10
2643.590472812439
 20
1908.533727340556
 10
2643.76391713563
 20
1909.017717474849
 10
2643.557479221113
 20
1909.501521107815
 10
2642.996058528078
 20
1909.926784381137
 10
2642.147370677792
 20
1910.242214267836
 10
2641.113779950299
 20
1910.409765268325
 10
2640.019952641509
 20
1910.409228259157
 10
2638.997820468032
 20
1910.240668011563
 10
2638.170667655056
 20
1909.924415379086
1001
AcDbBlockRepETag
1070
     1
1071
      125
1005
A74
  0
LINE
  5
A75
330
78A
100
AcDbEntity
  8
0
  6
Continuous
 62
     7
370
    15
100
AcDbLine
 10
2638.170667655056
 20
1909.924415379086
 30
0.0
 11
2630.788365380752
 21
1905.895125591491
 31
0.0
1001
AcDbBlockRepETag
1070
     1
1071
      126
1005
A75
  0
LWPOLYLINE
  5
A76
330
78A
100
AcDbEntity
  8
0
  6
Continuous
 62
     7
370
    15
100
AcDbPolyline
 90
       10
 70
   128
 43
0.0
 10
2630.788365380752
 20
1905.895125591491
 10
2630.255958764996
 20
1905.469325309001
 10
2630.082514441805
 20
1904.985335174708
 10
2630.288952356322
 20
1904.501531541741
 10
2630.850373049357
 20
1904.076268268419
 10
2631.699060899643
 20
1903.76083838172
 10
2632.732651627136
 20
1903.593287381231
 10
2633.826478935926
 20
1903.5938243904
 10
2634.848611109403
 20
1903.762384637994
 10
2635.67576392238
 20
1904.078637270471
1001
AcDbBlockRepETag
1070
     1
1071
      127
1005
A76
  0
LINE
  5
A77
330
78A
100
AcDbEntity
  8
0
  6
Continuous
 62
     7
370
    15
100
AcDbLine
 10
2651.449914081149
 20
1912.688230833707
 30
0.0
 11
2658.832216355454
 21
1916.717520621302
 31
0.0
1001
AcDbBlockRepETag
1070
     1
1071
      128
1005
A77
  0
LWPOLYLINE
  5
A78
330
78A
100
AcDbEntity
  8
0
  6
Continuous
 62
     7
370
    15
100
AcDbPolyline
 90
       10
 70
   128
 43
0.0
 10
2658.832216355454
 20
1916.717520621302
 10
2659.36462297121
 20
1917.143320903792
 10
2659.5380672944
 20
1917.627311038085
 10
2659.331629379883
 20
1918.111114671051
 10
2658.770208686848
 20
1918.536377944374
 10
2657.921520836562
 20
1918.851807831072
 10
2656.887930109069
 20
1919.019358831561
 10
2655.794102800279
 20
1919.018821822394
 10
2654.771970626802
 20
1918.850261574799
 10
2653.944817813826
 20
1918.534008942322
1001
AcDbBlockRepETag
1070
     1
1071
      129
1005
A78
  0
LINE
  5
A79
330
78A
100
AcDbEntity
  8
0
  6
Continuous
 62
     7
370
    15
100
AcDbLine
 10
2653.944817813826
 20
1918.534008942322
 30
0.0
 11
2646.562515539522
 21
1914.504719154727
 31
0.0
1001
AcDbBlockRepETag
1070
     1
1071
      130
1005
A79
  0
LWPOLYLINE
  5
A7A
330
78A
100
AcDbEntity
  8
0
  6
Continuous
 62
     7
370
    15
100
AcDbPolyline
 90
       10
 70
   128
 43
0.0
 10
2646.562515539522
 20
1914.504719154727
 10
2646.030108923766
 20
1914.078918872237
 10
2645.856664600576
 20
1913.594928737944
 10
2646.063102515093
 20
1913.111125104978
 10
2646.624523208127
 20
1912.685861831656
 10
2647.473211058413
 20
1912.370431944957
 10
2648.506801785906
 20
1912.202880944467
 10
2649.600629094697
 20
1912.203417953636
 10
2650.622761268173
 20
1912.37197820123
 10
2651.449914081149
 20
1912.688230833707
1001
AcDbBlockRepETag
1070
     1
1071
      131
1005
A7A
  0
LINE
  5
A7B
330
78A
100
AcDbEntity
  8
0
  6
Continuous
 62
     7
370
    15
100
AcDbLine
 10
2667.224064239919
 20
1921.297824396943
 30
0.0
 11
2674.606366514224
 21
1925.327114184537
 31
0.0
1001
AcDbBlockRepETag
1070
     1
1071
      132
1005
A7B
  0
LWPOLYLINE
  5
A7C
330
78A
100
AcDbEntity
  8
0
  6
Continuous
 62
     7
370
    15
100
AcDbPolyline
 90
       10
 70
   128
 43
0.0
 10
2674.606366514224
 20
1925.327114184537
 10
2675.13877312998
 20
1925.752914467028
 10
2675.31221745317
 20
1926.236904601321
 10
2675.105779538653
 20
1926.720708234288
 10
2674.544358845618
 20
1927.145971507609
 10
2673.695670995332
 20
1927.461401394308
 10
2672.662080267839
 20
1927.628952394798
 10
2671.568252959048
 20
1927.628415385629
 10
2670.546120785572
 20
1927.459855138035
 10
2669.718967972596
 20
1927.143602505558
1001
AcDbBlockRepETag
1070
     1
1071
      133
1005
A7C
  0
LINE
  5
A7D
330
78A
100
AcDbEntity
  8
0
  6
Continuous
 62
     7
370
    15
100
AcDbLine
 10
2669.718967972596
 20
1927.143602505558
 30
0.0
 11
2662.336665698292
 21
1923.114312717964
 31
0.0
1001
AcDbBlockRepETag
1070
     1
1071
      134
1005
A7D
  0
LWPOLYLINE
  5
A7E
330
78A
100
AcDbEntity
  8
0
  6
Continuous
 62
     7
370
    15
100
AcDbPolyline
 90
       10
 70
   128
 43
0.0
 10
2662.336665698292
 20
1923.114312717964
 10
2661.804259082535
 20
1922.688512435473
 10
2661.630814759345
 20
1922.20452230118
 10
2661.837252673862
 20
1921.720718668214
 10
2662.398673366897
 20
1921.295455394891
 10
2663.247361217182
 20
1920.980025508193
 10
2664.280951944676
 20
1920.812474507703
 10
2665.374779253466
 20
1920.813011516872
 10
2666.396911426943
 20
1920.981571764466
 10
2667.224064239919
 20
1921.297824396943
1001
AcDbBlockRepETag
1070
     1
1071
      135
1005
A7E
  0
LINE
  5
A7F
330
78A
100
AcDbEntity
  8
0
  6
Continuous
 62
     7
370
    15
100
AcDbLine
 10
2682.998214398689
 20
1929.907417960179
 30
0.0
 11
2690.380516672993
 21
1933.936707747774
 31
0.0
1001
AcDbBlockRepETag
1070
     1
1071
      136
1005
A7F
  0
LWPOLYLINE
  5
A80
330
78A
100
AcDbEntity
  8
0
  6
Continuous
 62
     7
370
    15
100
AcDbPolyline
 90
       10
 70
   128
 43
0.0
 10
2690.380516672993
 20
1933.936707747774
 10
2690.912923288749
 20
1934.362508030264
 10
2691.08636761194
 20
1934.846498164557
 10
2690.879929697423
 20
1935.330301797523
 10
2690.318509004388
 20
1935.755565070846
 10
2689.469821154102
 20
1936.070994957544
 10
2688.436230426609
 20
1936.238545958033
 10
2687.342403117819
 20
1936.238008948866
 10
2686.320270944342
 20
1936.069448701271
 10
2685.493118131366
 20
1935.753196068794
1001
AcDbBlockRepETag
1070
     1
1071
      137
1005
A80
  0
LINE
  5
A81
330
78A
100
AcDbEntity
  8
0
  6
Continuous
 62
     7
370
    15
100
AcDbLine
 10
2685.493118131366
 20
1935.753196068794
 30
0.0
 11
2678.110815857062
 21
1931.7239062812
 31
0.0
1001
AcDbBlockRepETag
1070
     1
1071
      138
1005
A81
  0
LWPOLYLINE
  5
A82
330
78A
100
AcDbEntity
  8
0
  6
Continuous
 62
     7
370
    15
100
AcDbPolyline
 90
       10
 70
   128
 43
0.0
 10
2678.110815857062
 20
1931.7239062812
 10
2677.578409241306
 20
1931.298105998709
 10
2677.404964918115
 20
1930.814115864416
 10
2677.611402832632
 20
1930.33031223145
 10
2678.172823525667
 20
1929.905048958127
 10
2679.021511375952
 20
1929.589619071429
 10
2680.055102103446
 20
1929.422068070939
 10
2681.148929412237
 20
1929.422605080108
 10
2682.171061585713
 20
1929.591165327703
 10
2682.998214398689
 20
1929.907417960179
1001
AcDbBlockRepETag
1070
     1
1071
      139
1005
A82
  0
LINE
  5
A83
330
78A
100
AcDbEntity
  8
0
  6
Continuous
 62
     7
370
    15
100
AcDbLine
 10
2698.772364557459
 20
1938.517011523416
 30
0.0
 11
2706.154666831763
 21
1942.54630131101
 31
0.0
1001
AcDbBlockRepETag
1070
     1
1071
      140
1005
A83
  0
LWPOLYLINE
  5
A84
330
78A
100
AcDbEntity
  8
0
  6
Continuous
 62
     7
370
    15
100
AcDbPolyline
 90
       10
 70
   128
 43
0.0
 10
2706.154666831763
 20
1942.54630131101
 10
2706.687073447519
 20
1942.9721015935
 10
2706.86051777071
 20
1943.456091727793
 10
2706.654079856193
 20
1943.93989536076
 10
2706.092659163158
 20
1944.365158634082
 10
2705.243971312872
 20
1944.680588520781
 10
2704.210380585378
 20
1944.84813952127
 10
2703.116553276589
 20
1944.847602512101
 10
2702.094421103112
 20
1944.679042264507
 10
2701.267268290136
 20
1944.36278963203
1001
AcDbBlockRepETag
1070
     1
1071
      141
1005
A84
  0
LINE
  5
A85
330
78A
100
AcDbEntity
  8
0
  6
Continuous
 62
     7
370
    15
100
AcDbLine
 10
2701.267268290136
 20
1944.36278963203
 30
0.0
 11
2693.884966015831
 21
1940.333499844436
 31
0.0
1001
AcDbBlockRepETag
1070
     1
1071
      142
1005
A85
  0
LWPOLYLINE
  5
A86
330
78A
100
AcDbEntity
  8
0
  6
Continuous
 62
     7
370
    15
100
AcDbPolyline
 90
       10
 70
   128
 43
0.0
 10
2693.884966015831
 20
1940.333499844436
 10
2693.352559400076
 20
1939.907699561945
 10
2693.179115076885
 20
1939.423709427652
 10
2693.385552991402
 20
1938.939905794686
 10
2693.946973684437
 20
1938.514642521363
 10
2694.795661534722
 20
1938.199212634665
 10
2695.829252262216
 20
1938.031661634176
 10
2696.923079571007
 20
1938.032198643344
 10
2697.945211744483
 20
1938.200758890939
 10
2698.772364557459
 20
1938.517011523416
1001
AcDbBlockRepETag
1070
     1
1071
      143
1005
A86
  0
LINE
  5
A87
330
78A
100
AcDbEntity
  8
0
  6
Continuous
 62
     7
370
    15
100
AcDbLine
 10
2714.546514716229
 20
1947.126605086651
 30
0.0
 11
2721.928816990533
 21
1951.155894874246
 31
0.0
1001
AcDbBlockRepETag
1070
     1
1071
      144
1005
A87
  0
LWPOLYLINE
  5
A88
330
78A
100
AcDbEntity
  8
0
  6
Continuous
 62
     7
370
    15
100
AcDbPolyline
 90
       10
 70
   128
 43
0.0
 10
2721.928816990533
 20
1951.155894874246
 10
2722.461223606289
 20
1951.581695156736
 10
2722.634667929479
 20
1952.065685291029
 10
2722.428230014962
 20
1952.549488923996
 10
2721.866809321928
 20
1952.974752197318
 10
2721.018121471642
 20
1953.290182084017
 10
2719.984530744148
 20
1953.457733084506
 10
2718.890703435358
 20
1953.457196075338
 10
2717.868571261882
 20
1953.288635827743
 10
2717.041418448906
 20
1952.972383195266
1001
AcDbBlockRepETag
1070
     1
1071
      145
1005
A88
  0
LINE
  5
A89
330
78A
100
AcDbEntity
  8
0
  6
Continuous
 62
     7
370
    15
100
AcDbLine
 10
2717.041418448906
 20
1952.972383195266
 30
0.0
 11
2709.659116174601
 21
1948.943093407672
 31
0.0
1001
AcDbBlockRepETag
1070
     1
1071
      146
1005
A89
  0
LWPOLYLINE
  5
A8A
330
78A
100
AcDbEntity
  8
0
  6
Continuous
 62
     7
370
    15
100
AcDbPolyline
 90
       10
 70
   128
 43
0.0
 10
2709.659116174601
 20
1948.943093407672
 10
2709.126709558846
 20
1948.517293125181
 10
2708.953265235655
 20
1948.033302990888
 10
2709.159703150172
 20
1947.549499357922
 10
2709.721123843207
 20
1947.1242360846
 10
2710.569811693492
 20
1946.808806197901
 10
2711.603402420986
 20
1946.641255197412
 10
2712.697229729776
 20
1946.64179220658
 10
2713.719361903252
 20
1946.810352454175
 10
2714.546514716229
 20
1947.126605086651
1001
AcDbBlockRepETag
1070
     1
1071
      147
1005
A8A
  0
LINE
  5
A8B
330
78A
100
AcDbEntity
  8
0
  6
Continuous
 62
     7
370
    15
100
AcDbLine
 10
2730.320664874998
 20
1955.736198649887
 30
0.0
 11
2737.702967149303
 21
1959.765488437482
 31
0.0
1001
AcDbBlockRepETag
1070
     1
1071
      148
1005
A8B
  0
LWPOLYLINE
  5
A8C
330
78A
100
AcDbEntity
  8
0
  6
Continuous
 62
     7
370
    15
100
AcDbPolyline
 90
       10
 70
   128
 43
0.0
 10
2737.702967149303
 20
1959.765488437482
 10
2738.235373765059
 20
1960.191288719973
 10
2738.408818088249
 20
1960.675278854266
 10
2738.202380173732
 20
1961.159082487232
 10
2737.640959480697
 20
1961.584345760554
 10
2736.792271630412
 20
1961.899775647253
 10
2735.758680902919
 20
1962.067326647742
 10
2734.664853594128
 20
1962.066789638574
 10
2733.642721420652
 20
1961.898229390979
 10
2732.815568607675
 20
1961.581976758503
1001
AcDbBlockRepETag
1070
     1
1071
      149
1005
A8C
  0
LINE
  5
A8D
330
78A
100
AcDbEntity
  8
0
  6
Continuous
 62
     7
370
    15
100
AcDbLine
 10
2732.815568607675
 20
1961.581976758503
 30
0.0
 11
2725.433266333371
 21
1957.552686970908
 31
0.0
1001
AcDbBlockRepETag
1070
     1
1071
      150
1005
A8D
  0
LWPOLYLINE
  5
A8E
330
78A
100
AcDbEntity
  8
0
  6
Continuous
 62
     7
370
    15
100
AcDbPolyline
 90
       10
 70
   128
 43
0.0
 10
2725.433266333371
 20
1957.552686970908
 10
2724.900859717616
 20
1957.126886688417
 10
2724.727415394425
 20
1956.642896554124
 10
2724.933853308942
 20
1956.159092921158
 10
2725.495274001977
 20
1955.733829647836
 10
2726.343961852262
 20
1955.418399761137
 10
2727.377552579756
 20
1955.250848760648
 10
2728.471379888546
 20
1955.251385769816
 10
2729.493512062022
 20
1955.419946017411
 10
2730.320664874998
 20
1955.736198649887
1001
AcDbBlockRepETag
1070
     1
1071
      151
1005
A8E
  0
LINE
  5
A8F
330
78A
100
AcDbEntity
  8
0
  6
Continuous
 62
     7
370
    15
100
AcDbLine
 10
2746.094815033768
 20
1964.345792213124
 30
0.0
 11
2753.477117308073
 21
1968.375082000718
 31
0.0
1001
AcDbBlockRepETag
1070
     1
1071
      152
1005
A8F
  0
LWPOLYLINE
  5
A90
330
78A
100
AcDbEntity
  8
0
  6
Continuous
 62
     7
370
    15
100
AcDbPolyline
 90
       10
 70
   128
 43
0.0
 10
2753.477117308073
 20
1968.375082000718
 10
2754.009523923829
 20
1968.800882283209
 10
2754.182968247019
 20
1969.284872417502
 10
2753.976530332503
 20
1969.768676050468
 10
2753.415109639468
 20
1970.19393932379
 10
2752.566421789182
 20
1970.509369210489
 10
2751.532831061688
 20
1970.676920210978
 10
2750.439003752898
 20
1970.67638320181
 10
2749.416871579422
 20
1970.507822954215
 10
2748.589718766445
 20
1970.191570321739
1001
AcDbBlockRepETag
1070
     1
1071
      153
1005
A90
  0
LINE
  5
A91
330
78A
100
AcDbEntity
  8
0
  6
Continuous
 62
     7
370
    15
100
AcDbLine
 10
2748.589718766445
 20
1970.191570321739
 30
0.0
 11
2741.207416492141
 21
1966.162280534144
 31
0.0
1001
AcDbBlockRepETag
1070
     1
1071
      154
1005
A91
  0
LWPOLYLINE
  5
A92
330
78A
100
AcDbEntity
  8
0
  6
Continuous
 62
     7
370
    15
100
AcDbPolyline
 90
       10
 70
   128
 43
0.0
 10
2741.207416492141
 20
1966.162280534144
 10
2740.675009876385
 20
1965.736480251653
 10
2740.501565553195
 20
1965.252490117361
 10
2740.708003467712
 20
1964.768686484394
 10
2741.269424160746
 20
1964.343423211072
 10
2742.118112011032
 20
1964.027993324373
 10
2743.151702738526
 20
1963.860442323884
 10
2744.245530047316
 20
1963.860979333052
 10
2745.267662220792
 20
1964.029539580647
 10
2746.094815033768
 20
1964.345792213124
1001
AcDbBlockRepETag
1070
     1
1071
      155
1005
A92
  0
LINE
  5
A93
330
78A
100
AcDbEntity
  8
0
  6
Continuous
 62
     7
370
    15
100
AcDbLine
 10
2761.868965192538
 20
1972.95538577636
 30
0.0
 11
2769.251267466843
 21
1976.984675563954
 31
0.0
1001
AcDbBlockRepETag
1070
     1
1071
      156
1005
A93
  0
LWPOLYLINE
  5
A94
330
78A
100
AcDbEntity
  8
0
  6
Continuous
 62
     7
370
    15
100
AcDbPolyline
 90
       10
 70
   128
 43
0.0
 10
2769.251267466843
 20
1976.984675563954
 10
2769.783674082598
 20
1977.410475846445
 10
2769.957118405789
 20
1977.894465980738
 10
2769.750680491272
 20
1978.378269613704
 10
2769.189259798237
 20
1978.803532887027
 10
2768.340571947952
 20
1979.118962773725
 10
2767.306981220458
 20
1979.286513774214
 10
2766.213153911668
 20
1979.285976765046
 10
2765.191021738191
 20
1979.117416517452
 10
2764.363868925216
 20
1978.801163884975
1001
AcDbBlockRepETag
1070
     1
1071
      157
1005
A94
  0
LINE
  5
A95
330
78A
100
AcDbEntity
  8
0
  6
Continuous
 62
     7
370
    15
100
AcDbLine
 10
2764.363868925216
 20
1978.801163884975
 30
0.0
 11
2756.981566650911
 21
1974.77187409738
 31
0.0
1001
AcDbBlockRepETag
1070
     1
1071
      158
1005
A95
  0
LWPOLYLINE
  5
A96
330
78A
100
AcDbEntity
  8
0
  6
Continuous
 62
     7
370
    15
100
AcDbPolyline
 90
       10
 70
   128
 43
0.0
 10
2756.981566650911
 20
1974.77187409738
 10
2756.449160035155
 20
1974.34607381489
 10
2756.275715711965
 20
1973.862083680597
 10
2756.482153626481
 20
1973.37828004763
 10
2757.043574319516
 20
1972.953016774308
 10
2757.892262169802
 20
1972.63758688761
 10
2758.925852897295
 20
1972.470035887121
 10
2760.019680206086
 20
1972.470572896288
 10
2761.041812379562
 20
1972.639133143883
 10
2761.868965192538
 20
1972.95538577636
1001
AcDbBlockRepETag
1070
     1
1071
      159
1005
A96
  0
LINE
  5
A97
330
78A
100
AcDbEntity
  8
0
  6
Continuous
 62
     7
370
    15
100
AcDbLine
 10
2777.643115351308
 20
1981.564979339596
 30
0.0
 11
2785.025417625612
 21
1985.59426912719
 31
0.0
1001
AcDbBlockRepETag
1070
     1
1071
      160
1005
A97
  0
LWPOLYLINE
  5
A98
330
78A
100
AcDbEntity
  8
0
  6
Continuous
 62
     7
370
    15
100
AcDbPolyline
 90
       10
 70
   128
 43
0.0
 10
2785.025417625612
 20
1985.59426912719
 10
2785.557824241369
 20
1986.020069409681
 10
2785.731268564559
 20
1986.504059543974
 10
2785.524830650042
 20
1986.98786317694
 10
2784.963409957007
 20
1987.413126450262
 10
2784.114722106722
 20
1987.728556336961
 10
2783.081131379228
 20
1987.896107337451
 10
2781.987304070438
 20
1987.895570328282
 10
2780.965171896961
 20
1987.727010080688
 10
2780.138019083985
 20
1987.410757448211
1001
AcDbBlockRepETag
1070
     1
1071
      161
1005
A98
  0
LINE
  5
A99
330
78A
100
AcDbEntity
  8
0
  6
Continuous
 62
     7
370
    15
100
AcDbLine
 10
2780.138019083985
 20
1987.410757448211
 30
0.0
 11
2772.755716809681
 21
1983.381467660617
 31
0.0
1001
AcDbBlockRepETag
1070
     1
1071
      162
1005
A99
  0
LWPOLYLINE
  5
A9A
330
78A
100
AcDbEntity
  8
0
  6
Continuous
 62
     7
370
    15
100
AcDbPolyline
 90
       10
 70
   128
 43
0.0
 10
2772.755716809681
 20
1983.381467660617
 10
2772.223310193925
 20
1982.955667378126
 10
2772.049865870734
 20
1982.471677243833
 10
2772.256303785252
 20
1981.987873610867
 10
2772.817724478286
 20
1981.562610337544
 10
2773.666412328572
 20
1981.247180450845
 10
2774.700003056065
 20
1981.079629450356
 10
2775.793830364856
 20
1981.080166459524
 10
2776.815962538332
 20
1981.248726707119
 10
2777.643115351308
 20
1981.564979339596
1001
AcDbBlockRepETag
1070
     1
1071
      163
1005
A9A
  0
LINE
  5
A9B
330
78A
100
AcDbEntity
  8
0
  6
Continuous
 62
     7
370
    15
100
AcDbLine
 10
2793.417265510078
 20
1990.174572902832
 30
0.0
 11
2800.799567784383
 21
1994.203862690427
 31
0.0
1001
AcDbBlockRepETag
1070
     1
1071
      164
1005
A9B
  0
LWPOLYLINE
  5
A9C
330
78A
100
AcDbEntity
  8
0
  6
Continuous
 62
     7
370
    15
100
AcDbPolyline
 90
       10
 70
   128
 43
0.0
 10
2800.799567784383
 20
1994.203862690427
 10
2801.331974400138
 20
1994.629662972917
 10
2801.505418723328
 20
1995.11365310721
 10
2801.298980808812
 20
1995.597456740176
 10
2800.737560115777
 20
1996.022720013499
 10
2799.888872265491
 20
1996.338149900197
 10
2798.855281537998
 20
1996.505700900686
 10
2797.761454229207
 20
1996.505163891518
 10
2796.739322055731
 20
1996.336603643924
 10
2795.912169242755
 20
1996.020351011447
1001
AcDbBlockRepETag
1070
     1
1071
      165
1005
A9C
  0
LINE
  5
A9D
330
78A
100
AcDbEntity
  8
0
  6
Continuous
 62
     7
370
    15
100
AcDbLine
 10
2795.912169242755
 20
1996.020351011447
 30
0.0
 11
2788.529866968451
 21
1991.991061223852
 31
0.0
1001
AcDbBlockRepETag
1070
     1
1071
      166
1005
A9D
  0
LWPOLYLINE
  5
A9E
330
78A
100
AcDbEntity
  8
0
  6
Continuous
 62
     7
370
    15
100
AcDbPolyline
 90
       10
 70
   128
 43
0.0
 10
2788.529866968451
 20
1991.991061223852
 10
2787.997460352695
 20
1991.565260941362
 10
2787.824016029504
 20
1991.081270807069
 10
2788.030453944021
 20
1990.597467174103
 10
2788.591874637056
 20
1990.17220390078
 10
2789.440562487342
 20
1989.856774014082
 10
2790.474153214835
 20
1989.689223013593
 10
2791.567980523625
 20
1989.689760022761
 10
2792.590112697102
 20
1989.858320270355
 10
2793.417265510078
 20
1990.174572902832
1001
AcDbBlockRepETag
1070
     1
1071
      167
1005
A9E
  0
LINE
  5
A9F
330
78A
100
AcDbEntity
  8
0
  6
Continuous
 62
     7
370
    15
100
AcDbLine
 10
2809.191415668848
 20
1998.784166466068
 30
0.0
 11
2816.573717943152
 21
2002.813456253663
 31
0.0
1001
AcDbBlockRepETag
1070
     1
1071
      168
1005
A9F
  0
LWPOLYLINE
  5
AA0
330
78A
100
AcDbEntity
  8
0
  6
Continuous
 62
     7
370
    15
100
AcDbPolyline
 90
       10
 70
   128
 43
0.0
 10
2816.573717943152
 20
2002.813456253663
 10
2817.106124558908
 20
2003.239256536153
 10
2817.279568882099
 20
2003.723246670446
 10
2817.073130967582
 20
2004.207050303413
 10
2816.511710274547
 20
2004.632313576735
 10
2815.663022424261
 20
2004.947743463433
 10
2814.629431696768
 20
2005.115294463923
 10
2813.535604387977
 20
2005.114757454755
 10
2812.513472214501
 20
2004.94619720716
 10
2811.686319401525
 20
2004.629944574683
1001
AcDbBlockRepETag
1070
     1
1071
      169
1005
AA0
  0
LINE
  5
AA1
330
78A
100
AcDbEntity
  8
0
  6
Continuous
 62
     7
370
    15
100
AcDbLine
 10
2811.686319401525
 20
2004.629944574683
 30
0.0
 11
2804.304017127221
 21
2000.600654787089
 31
0.0
1001
AcDbBlockRepETag
1070
     1
1071
      170
1005
AA1
  0
LWPOLYLINE
  5
AA2
330
78A
100
AcDbEntity
  8
0
  6
Continuous
 62
     7
370
    15
100
AcDbPolyline
 90
       10
 70
   128
 43
0.0
 10
2804.304017127221
 20
2000.600654787089
 10
2803.771610511465
 20
2000.174854504598
 10
2803.598166188274
 20
1999.690864370305
 10
2803.804604102791
 20
1999.207060737339
 10
2804.366024795826
 20
1998.781797464016
 10
2805.214712646112
 20
1998.466367577318
 10
2806.248303373605
 20
1998.298816576829
 10
2807.342130682396
 20
1998.299353585997
 10
2808.364262855871
 20
1998.467913833591
 10
2809.191415668848
 20
1998.784166466068
1001
AcDbBlockRepETag
1070
     1
1071
      171
1005
AA2
  0
LINE
  5
AA3
330
78A
100
AcDbEntity
  8
0
  6
Continuous
 62
     7
370
    15
100
AcDbLine
 10
2824.965565827618
 20
2007.393760029304
 30
0.0
 11
2832.347868101922
 21
2011.423049816899
 31
0.0
1001
AcDbBlockRepETag
1070
     1
1071
      172
1005
AA3
  0
LWPOLYLINE
  5
AA4
330
78A
100
AcDbEntity
  8
0
  6
Continuous
 62
     7
370
    15
100
AcDbPolyline
 90
       10
 70
   128
 43
0.0
 10
2832.347868101922
 20
2011.423049816899
 10
2832.880274717678
 20
2011.84885009939
 10
2833.053719040869
 20
2012.332840233682
 10
2832.847281126352
 20
2012.816643866649
 10
2832.285860433317
 20
2013.241907139971
 10
2831.437172583031
 20
2013.55733702667
 10
2830.403581855538
 20
2013.724888027159
 10
2829.309754546747
 20
2013.724351017991
 10
2828.287622373271
 20
2013.555790770396
 10
2827.460469560295
 20
2013.23953813792
1001
AcDbBlockRepETag
1070
     1
1071
      173
1005
AA4
  0
LINE
  5
AA5
330
78A
100
AcDbEntity
  8
0
  6
Continuous
 62
     7
370
    15
100
AcDbLine
 10
2827.460469560295
 20
2013.23953813792
 30
0.0
 11
2820.07816728599
 21
2009.210248350325
 31
0.0
1001
AcDbBlockRepETag
1070
     1
1071
      174
1005
AA5
  0
LWPOLYLINE
  5
AA6
330
78A
100
AcDbEntity
  8
0
  6
Continuous
 62
     7
370
    15
100
AcDbPolyline
 90
       10
 70
   128
 43
0.0
 10
2820.07816728599
 20
2009.210248350325
 10
2819.545760670234
 20
2008.784448067834
 10
2819.372316347044
 20
2008.300457933541
 10
2819.578754261561
 20
2007.816654300575
 10
2820.140174954596
 20
2007.391391027253
 10
2820.988862804881
 20
2007.075961140554
 10
2822.022453532375
 20
2006.908410140065
 10
2823.116280841166
 20
2006.908947149233
 10
2824.138413014642
 20
2007.077507396827
 10
2824.965565827618
 20
2007.393760029304
1001
AcDbBlockRepETag
1070
     1
1071
      175
1005
AA6
  0
LWPOLYLINE
  5
AA7
330
78A
100
AcDbEntity
  8
0
  6
Continuous
 62
     7
370
    15
100
AcDbPolyline
 90
       10
 70
   128
 43
0.0
 10
2835.85231744476
 20
2017.819841913561
 10
2835.319910829005
 20
2017.39404163107
 10
2835.146466505814
 20
2016.910051496777
 10
2835.352904420331
 20
2016.426247863811
 10
2835.914325113366
 20
2016.000984590489
 10
2836.763012963651
 20
2015.68555470379
 10
2837.796603691145
 20
2015.518003703301
 10
2838.890430999935
 20
2015.518540712469
 10
2839.912563173412
 20
2015.687100960064
 10
2840.739715986387
 20
2016.003353592541
1001
AcDbBlockRepETag
1070
     1
1071
      176
1005
AA7
  0
LINE
  5
AA8
330
78A
100
AcDbEntity
  8
0
  6
Continuous
 62
     7
370
    15
100
AcDbLine
 10
2840.739715986387
 20
2016.003353592541
 30
0.0
 11
2844.967188228938
 21
2018.310724667488
 31
0.0
1001
AcDbBlockRepETag
1070
     1
1071
      177
1005
AA8
  0
LINE
  5
AA9
330
78A
100
AcDbEntity
  8
0
  6
Continuous
 62
     7
370
    15
100
AcDbLine
 10
2846.902576263436
 20
2017.591403390255
 30
0.0
 11
2844.967188228938
 21
2018.310724667488
 31
0.0
1001
AcDbBlockRepETag
1070
     1
1071
      178
1005
AA9
  0
LINE
  5
AAB
330
78A
100
AcDbEntity
  8
0
  6
Continuous
 62
     7
370
    15
100
AcDbLine
 10
2220.711657653524
 20
1671.432914840145
 30
0.0
 11
2202.403307561106
 21
1678.237537756973
 31
0.0
1001
AcDbBlockRepETag
1070
     1
1071
      179
1005
AAB
  0
LINE
  5
AAC
330
78A
100
AcDbEntity
  8
0
  6
Continuous
 62
     7
370
    15
100
AcDbLine
 10
2833.369313911902
 20
2022.621280286417
 30
0.0
 11
2202.403307561106
 21
1678.237537756973
 31
0.0
1001
AcDbBlockRepETag
1070
     1
1071
      180
1005
AAC
  0
LINE
  5
AAD
330
78A
100
AcDbEntity
  8
0
  6
Continuous
 62
     7
370
    15
100
AcDbLine
 10
2840.07978968731
 20
2020.127212988509
 30
0.0
 11
2833.369313911902
 21
2022.621280286417
 31
0.0
1001
AcDbBlockRepETag
1070
     1
1071
      181
1005
AAD
  0
LINE
  5
AAE
330
78A
100
AcDbEntity
  8
0
  6
Continuous
 62
     7
370
    15
100
AcDbLine
 10
2840.07978968731
 20
2020.127212988509
 30
0.0
 11
2835.85231744476
 21
2017.819841913561
 31
0.0
1001
AcDbBlockRepETag
1070
     1
1071
      182
1005
AAE
  0
LINE
  5
AB1
330
78A
100
AcDbEntity
  8
0
  6
Continuous
 62
     7
370
    15
100
AcDbLine
 10
2201.040504760622
 20
1682.955780702387
 30
0.0
 11
2201.012626579118
 21
1679.471299744762
 31
0.0
1001
AcDbBlockRepETag
1070
     1
1071
      183
1005
AB1
  0
ARC
  5
AB2
330
78A
100
AcDbEntity
  8
0
  6
Continuous
 62
     7
370
    15
100
AcDbCircle
 10
2199.99865120874
 20
1682.95084455117
 30
0.0
 40
1.041865245200668
100
AcDbArc
 50
0.2714570728793928
 51
65.80810574755372
1001
AcDbBlockRepETag
1070
     1
1071
      184
1005
AB2
  0
LINE
  5
AB3
330
78A
100
AcDbEntity
  8
0
  6
Continuous
 62
     7
370
    15
100
AcDbLine
 10
2198.020690931425
 20
1684.795038797183
 30
0.0
 11
2200.425601324924
 21
1683.901211210649
 31
0.0
1001
AcDbBlockRepETag
1070
     1
1071
      185
1005
AB3
  0
LINE
  5
AB4
330
78A
100
AcDbEntity
  8
0
  6
Continuous
 62
     7
370
    15
100
AcDbLine
 10
2198.027839183092
 20
1685.688495452984
 30
0.0
 11
2198.020690931425
 21
1684.795038797183
 31
0.0
1001
AcDbBlockRepETag
1070
     1
1071
      186
1005
AB4
  0
LINE
  5
AB5
330
78A
100
AcDbEntity
  8
0
  6
Continuous
 62
     7
370
    15
100
AcDbLine
 10
2200.432749576591
 20
1684.79466786645
 30
0.0
 11
2198.027839183092
 21
1685.688495452984
 31
0.0
1001
AcDbBlockRepETag
1070
     1
1071
      187
1005
AB5
  0
ARC
  5
AB6
330
78A
100
AcDbEntity
  8
0
  6
Continuous
 62
     7
370
    15
100
AcDbCircle
 10
2199.472111815178
 20
1682.656342882623
 30
0.0
 40
2.344196801701653
100
AcDbArc
 50
0.2714570728793928
 51
65.80810574758283
1001
AcDbBlockRepETag
1070
     1
1071
      188
1005
AB6
  0
LINE
  5
AB7
330
78A
100
AcDbEntity
  8
0
  6
Continuous
 62
     7
370
    15
100
AcDbLine
 10
2201.788404125409
 20
1679.182968265235
 30
0.0
 11
2201.816282306912
 21
1682.667449222859
 31
0.0
1001
AcDbBlockRepETag
1070
     1
1071
      189
1005
AB7
  0
ARC
  5
AB8
330
78A
100
AcDbEntity
  8
0
  6
Continuous
 62
     7
370
    15
100
AcDbCircle
 10
2202.830257677289
 20
1679.187904416451
 30
0.0
 40
1.041865245199982
100
AcDbArc
 50
180.2714570728403
 51
245.8081057475828
1001
AcDbBlockRepETag
1070
     1
1071
      190
1005
AB8
  0
ARC
  5
AB9
330
78A
100
AcDbEntity
  8
0
  6
Continuous
 62
     7
370
    15
100
AcDbCircle
 10
2203.356797070854
 20
1679.482406084999
 30
0.0
 40
2.344196801703664
100
AcDbArc
 50
180.2714570728924
 51
245.8081057475247
1001
AcDbBlockRepETag
1070
     1
1071
      191
1005
AB9
  0
LINE
  5
ABA
330
78A
100
AcDbEntity
  8
0
  6
Continuous
 62
     7
370
    15
100
AcDbLine
 10
2202.396159309438
 20
1677.344081101172
 30
0.0
 11
2220.704509401873
 21
1670.539458184338
 31
0.0
1001
AcDbBlockRepETag
1070
     1
1071
      192
1005
ABA
  0
LINE
  5
ABB
330
78A
100
AcDbEntity
  8
0
  6
Continuous
 62
     7
370
    15
100
AcDbLine
 10
2201.816282306912
 20
1682.667449222859
 30
0.0
 11
2832.782288657707
 21
2027.051191752303
 31
0.0
1001
AcDbBlockRepETag
1070
     1
1071
      193
1005
ABB
  0
LINE
  5
ABC
330
78A
100
AcDbEntity
  8
0
  6
Continuous
 62
     7
370
    15
100
AcDbLine
 10
2200.432749576591
 20
1684.79466786645
 30
0.0
 11
2831.398755927386
 21
2029.178410395894
 31
0.0
1001
AcDbBlockRepETag
1070
     1
1071
      194
1005
ABC
  0
ARC
  5
ABD
330
78A
100
AcDbEntity
  8
0
  6
Continuous
 62
     7
370
    15
100
AcDbCircle
 10
2830.438118165973
 20
2027.040085412068
 30
0.0
 40
2.344196801701841
100
AcDbArc
 50
0.2714570728793928
 51
65.80810574755372
1001
AcDbBlockRepETag
1070
     1
1071
      195
1005
ABD
  0
LINE
  5
ABE
330
78A
100
AcDbEntity
  8
0
  6
Continuous
 62
     7
370
    15
100
AcDbLine
 10
2832.754410476204
 20
2023.56671079468
 30
0.0
 11
2832.782288657707
 21
2027.051191752303
 31
0.0
1001
AcDbBlockRepETag
1070
     1
1071
      196
1005
ABE
  0
LINE
  5
ABF
330
78A
100
AcDbEntity
  8
0
  6
Continuous
 62
     7
370
    15
100
AcDbLine
 10
2201.788404125409
 20
1679.182968265235
 30
0.0
 11
2832.754410476204
 21
2023.56671079468
 31
0.0
1001
AcDbBlockRepETag
1070
     1
1071
      197
1005
ABF
  0
LINE
  5
AC0
330
78A
100
AcDbEntity
  8
0
  6
Continuous
 62
     7
370
    15
100
AcDbLine
 10
2828.993845533887
 20
2030.072237982428
 30
0.0
 11
2198.027839183092
 21
1685.688495452984
 31
0.0
1001
AcDbBlockRepETag
1070
     1
1071
      198
1005
AC0
  0
LINE
  5
AC1
330
78A
100
AcDbEntity
  8
0
  6
Continuous
 62
     7
370
    15
100
AcDbLine
 10
2831.398755927386
 20
2029.178410395894
 30
0.0
 11
2828.993845533887
 21
2030.072237982428
 31
0.0
1001
AcDbBlockRepETag
1070
     1
1071
      199
1005
AC1
  0
ARC
  5
AC2
330
78A
100
AcDbEntity
  8
0
  6
Continuous
 62
     7
370
    15
100
AcDbCircle
 10
2833.796264028086
 20
2023.571646945895
 30
0.0
 40
1.041865245200552
100
AcDbArc
 50
180.2714570728664
 51
245.8081057475538
1001
AcDbBlockRepETag
1070
     1
1071
      200
1005
AC2
  0
LINE
  5
AC3
330
78A
100
AcDbEntity
  8
0
  6
Continuous
 62
     7
370
    15
100
AcDbLine
 10
2220.653313001067
 20
1681.152236291552
 30
0.0
 11
2220.660461252734
 21
1682.045692947352
 31
0.0
1001
AcDbBlockRepETag
1070
     1
1071
      201
1005
AC3
  0
LWPOLYLINE
  5
AC4
330
78A
100
AcDbEntity
  8
0
  6
Continuous
 62
     7
370
    15
100
AcDbPolyline
 90
        3
 70
   128
 43
0.0
 10
2220.11187998722
 20
1680.714632112002
 10
2220.120906385311
 20
1680.726436009061
 10
2220.653313001067
 20
1681.152236291552
1001
AcDbBlockRepETag
1070
     1
1071
      202
1005
AC4
  0
LINE
  5
AC5
330
78A
100
AcDbEntity
  8
0
  6
Continuous
 62
     7
370
    15
100
AcDbLine
 10
2228.035615275372
 20
1685.181526079146
 30
0.0
 11
2228.042763527039
 21
1686.074982734947
 31
0.0
1001
AcDbBlockRepETag
1070
     1
1071
      203
1005
AC5
  0
LINE
  5
AC6
330
78A
100
AcDbEntity
  8
0
  6
Continuous
 62
     7
370
    15
100
AcDbLine
 10
2220.653313001067
 20
1681.152236291552
 30
0.0
 11
2228.035615275372
 21
1685.181526079146
 31
0.0
1001
AcDbBlockRepETag
1070
     1
1071
      204
1005
AC6
  0
LWPOLYLINE
  5
AC7
330
78A
100
AcDbEntity
  8
0
  6
Continuous
 62
     7
370
    15
100
AcDbPolyline
 90
        8
 70
   128
 43
0.0
 10
2228.035615275372
 20
1685.181526079146
 10
2228.862768088347
 20
1685.497778711622
 10
2229.884900261824
 20
1685.666338959218
 10
2230.978727570615
 20
1685.666875968385
 10
2232.012318298108
 20
1685.499324967896
 10
2232.861006148393
 20
1685.183895081198
 10
2233.422426841428
 20
1684.758631807875
 10
2233.471595082584
 20
1684.696098593368
1001
AcDbBlockRepETag
1070
     1
1071
      205
1005
AC7
  0
LINE
  5
AC8
330
78A
100
AcDbEntity
  8
0
  6
Continuous
 62
     7
370
    15
100
AcDbLine
 10
2236.427463159837
 20
1689.761829854788
 30
0.0
 11
2236.434611411505
 21
1690.655286510589
 31
0.0
1001
AcDbBlockRepETag
1070
     1
1071
      206
1005
AC8
  0
LWPOLYLINE
  5
AC9
330
78A
100
AcDbEntity
  8
0
  6
Continuous
 62
     7
370
    15
100
AcDbPolyline
 90
        3
 70
   128
 43
0.0
 10
2236.427463159837
 20
1689.761829854788
 10
2235.895056544081
 20
1689.336029572297
 10
2235.886030145961
 20
1689.324225675199
1001
AcDbBlockRepETag
1070
     1
1071
      207
1005
AC9
  0
LINE
  5
ACA
330
78A
100
AcDbEntity
  8
0
  6
Continuous
 62
     7
370
    15
100
AcDbLine
 10
2243.809765434142
 20
1693.791119642382
 30
0.0
 11
2243.816913685809
 21
1694.684576298183
 31
0.0
1001
AcDbBlockRepETag
1070
     1
1071
      208
1005
ACA
  0
LINE
  5
ACB
330
78A
100
AcDbEntity
  8
0
  6
Continuous
 62
     7
370
    15
100
AcDbLine
 10
2243.809765434142
 20
1693.791119642382
 30
0.0
 11
2236.427463159837
 21
1689.761829854788
 31
0.0
1001
AcDbBlockRepETag
1070
     1
1071
      209
1005
ACB
  0
ARC
  5
ACC
330
78A
100
AcDbEntity
  8
0
  6
Continuous
 62
     7
370
    15
100
AcDbCircle
 10
2246.154244611353
 20
1689.365707502315
 30
0.0
 40
5.008078995166749
100
AcDbArc
 50
51.88057103284314
 51
117.9135896462101
1001
AcDbBlockRepETag
1070
     1
1071
      210
1005
ACC
  0
LINE
  5
ACD
330
78A
100
AcDbEntity
  8
0
  6
Continuous
 62
     7
370
    15
100
AcDbLine
 10
2252.201613318607
 20
1698.371423418024
 30
0.0
 11
2252.208761570274
 21
1699.264880073824
 31
0.0
1001
AcDbBlockRepETag
1070
     1
1071
      211
1005
ACD
  0
LWPOLYLINE
  5
ACE
330
78A
100
AcDbEntity
  8
0
  6
Continuous
 62
     7
370
    15
100
AcDbPolyline
 90
        3
 70
   128
 43
0.0
 10
2252.201613318607
 20
1698.371423418024
 10
2251.669206702851
 20
1697.945623135533
 10
2251.66018030472
 20
1697.933819238421
1001
AcDbBlockRepETag
1070
     1
1071
      212
1005
ACE
  0
LINE
  5
ACF
330
78A
100
AcDbEntity
  8
0
  6
Continuous
 62
     7
370
    15
100
AcDbLine
 10
2259.583915592911
 20
1702.400713205619
 30
0.0
 11
2259.591063844579
 21
1703.294169861419
 31
0.0
1001
AcDbBlockRepETag
1070
     1
1071
      213
1005
ACF
  0
LINE
  5
AD0
330
78A
100
AcDbEntity
  8
0
  6
Continuous
 62
     7
370
    15
100
AcDbLine
 10
2259.583915592911
 20
1702.400713205619
 30
0.0
 11
2252.201613318607
 21
1698.371423418024
 31
0.0
1001
AcDbBlockRepETag
1070
     1
1071
      214
1005
AD0
  0
ARC
  5
AD1
330
78A
100
AcDbEntity
  8
0
  6
Continuous
 62
     7
370
    15
100
AcDbCircle
 10
2261.928394770079
 20
1697.975301065892
 30
0.0
 40
5.008078994844656
100
AcDbArc
 50
51.88057102675539
 51
117.9135896475971
1001
AcDbBlockRepETag
1070
     1
1071
      215
1005
AD1
  0
LINE
  5
AD2
330
78A
100
AcDbEntity
  8
0
  6
Continuous
 62
     7
370
    15
100
AcDbLine
 10
2267.975763477377
 20
1706.981016981259
 30
0.0
 11
2267.982911729044
 21
1707.874473637061
 31
0.0
1001
AcDbBlockRepETag
1070
     1
1071
      216
1005
AD2
  0
LWPOLYLINE
  5
AD3
330
78A
100
AcDbEntity
  8
0
  6
Continuous
 62
     7
370
    15
100
AcDbPolyline
 90
        3
 70
   128
 43
0.0
 10
2267.975763477377
 20
1706.981016981259
 10
2267.443356861621
 20
1706.555216698769
 10
2267.434330463343
 20
1706.543412801462
1001
AcDbBlockRepETag
1070
     1
1071
      217
1005
AD3
  0
LINE
  5
AD4
330
78A
100
AcDbEntity
  8
0
  6
Continuous
 62
     7
370
    15
100
AcDbLine
 10
2275.358065751682
 20
1711.010306768854
 30
0.0
 11
2275.365214003349
 21
1711.903763424655
 31
0.0
1001
AcDbBlockRepETag
1070
     1
1071
      218
1005
AD4
  0
LINE
  5
AD5
330
78A
100
AcDbEntity
  8
0
  6
Continuous
 62
     7
370
    15
100
AcDbLine
 10
2275.358065751682
 20
1711.010306768854
 30
0.0
 11
2267.975763477377
 21
1706.981016981259
 31
0.0
1001
AcDbBlockRepETag
1070
     1
1071
      219
1005
AD5
  0
ARC
  5
AD6
330
78A
100
AcDbEntity
  8
0
  6
Continuous
 62
     7
370
    15
100
AcDbCircle
 10
2277.702544928903
 20
1706.584894628711
 30
0.0
 40
5.008078995238884
100
AcDbArc
 50
51.88057103420629
 51
117.9135896459127
1001
AcDbBlockRepETag
1070
     1
1071
      220
1005
AD6
  0
LINE
  5
AD7
330
78A
100
AcDbEntity
  8
0
  6
Continuous
 62
     7
370
    15
100
AcDbLine
 10
2283.749913636146
 20
1715.590610544496
 30
0.0
 11
2283.757061887814
 21
1716.484067200297
 31
0.0
1001
AcDbBlockRepETag
1070
     1
1071
      221
1005
AD7
  0
LWPOLYLINE
  5
AD8
330
78A
100
AcDbEntity
  8
0
  6
Continuous
 62
     7
370
    15
100
AcDbPolyline
 90
        3
 70
   128
 43
0.0
 10
2283.749913636146
 20
1715.590610544496
 10
2283.217507020391
 20
1715.164810262005
 10
2283.208480622228
 20
1715.153006364851
1001
AcDbBlockRepETag
1070
     1
1071
      222
1005
AD8
  0
LINE
  5
AD9
330
78A
100
AcDbEntity
  8
0
  6
Continuous
 62
     7
370
    15
100
AcDbLine
 10
2291.132215910451
 20
1719.619900332091
 30
0.0
 11
2291.139364162118
 21
1720.513356987892
 31
0.0
1001
AcDbBlockRepETag
1070
     1
1071
      223
1005
AD9
  0
LINE
  5
ADA
330
78A
100
AcDbEntity
  8
0
  6
Continuous
 62
     7
370
    15
100
AcDbLine
 10
2291.132215910451
 20
1719.619900332091
 30
0.0
 11
2283.749913636146
 21
1715.590610544496
 31
0.0
1001
AcDbBlockRepETag
1070
     1
1071
      224
1005
ADA
  0
ARC
  5
ADB
330
78A
100
AcDbEntity
  8
0
  6
Continuous
 62
     7
370
    15
100
AcDbCircle
 10
2293.476695087595
 20
1715.194488192543
 30
0.0
 40
5.008078994676171
100
AcDbArc
 50
51.88057102356518
 51
117.9135896483082
1001
AcDbBlockRepETag
1070
     1
1071
      225
1005
ADB
  0
LINE
  5
ADC
330
78A
100
AcDbEntity
  8
0
  6
Continuous
 62
     7
370
    15
100
AcDbLine
 10
2299.524063794916
 20
1724.200204107732
 30
0.0
 11
2299.531212046584
 21
1725.093660763533
 31
0.0
1001
AcDbBlockRepETag
1070
     1
1071
      226
1005
ADC
  0
LWPOLYLINE
  5
ADD
330
78A
100
AcDbEntity
  8
0
  6
Continuous
 62
     7
370
    15
100
AcDbPolyline
 90
        3
 70
   128
 43
0.0
 10
2299.524063794916
 20
1724.200204107732
 10
2298.991657179161
 20
1723.774403825242
 10
2298.982630780985
 20
1723.76259992807
1001
AcDbBlockRepETag
1070
     1
1071
      227
1005
ADD
  0
LINE
  5
ADE
330
78A
100
AcDbEntity
  8
0
  6
Continuous
 62
     7
370
    15
100
AcDbLine
 10
2306.906366069221
 20
1728.229493895327
 30
0.0
 11
2306.913514320888
 21
1729.122950551127
 31
0.0
1001
AcDbBlockRepETag
1070
     1
1071
      228
1005
ADE
  0
LINE
  5
ADF
330
78A
100
AcDbEntity
  8
0
  6
Continuous
 62
     7
370
    15
100
AcDbLine
 10
2306.906366069221
 20
1728.229493895327
 30
0.0
 11
2299.524063794916
 21
1724.200204107732
 31
0.0
1001
AcDbBlockRepETag
1070
     1
1071
      229
1005
ADF
  0
ARC
  5
AE0
330
78A
100
AcDbEntity
  8
0
  6
Continuous
 62
     7
370
    15
100
AcDbCircle
 10
2309.250845246424
 20
1723.804081755328
 30
0.0
 40
5.008078995102635
100
AcDbArc
 50
51.88057103164681
 51
117.9135896464783
1001
AcDbBlockRepETag
1070
     1
1071
      230
1005
AE0
  0
LINE
  5
AE1
330
78A
100
AcDbEntity
  8
0
  6
Continuous
 62
     7
370
    15
100
AcDbLine
 10
2315.298213953687
 20
1732.809797670968
 30
0.0
 11
2315.305362205354
 21
1733.703254326769
 31
0.0
1001
AcDbBlockRepETag
1070
     1
1071
      231
1005
AE1
  0
LWPOLYLINE
  5
AE2
330
78A
100
AcDbEntity
  8
0
  6
Continuous
 62
     7
370
    15
100
AcDbPolyline
 90
        3
 70
   128
 43
0.0
 10
2315.298213953687
 20
1732.809797670968
 10
2314.765807337931
 20
1732.383997388478
 10
2314.756780939744
 20
1732.372193491292
1001
AcDbBlockRepETag
1070
     1
1071
      232
1005
AE2
  0
LINE
  5
AE3
330
78A
100
AcDbEntity
  8
0
  6
Continuous
 62
     7
370
    15
100
AcDbLine
 10
2322.680516227991
 20
1736.839087458563
 30
0.0
 11
2322.687664479659
 21
1737.732544114364
 31
0.0
1001
AcDbBlockRepETag
1070
     1
1071
      233
1005
AE3
  0
LINE
  5
AE4
330
78A
100
AcDbEntity
  8
0
  6
Continuous
 62
     7
370
    15
100
AcDbLine
 10
2322.680516227991
 20
1736.839087458563
 30
0.0
 11
2315.298213953687
 21
1732.809797670968
 31
0.0
1001
AcDbBlockRepETag
1070
     1
1071
      234
1005
AE4
  0
ARC
  5
AE5
330
78A
100
AcDbEntity
  8
0
  6
Continuous
 62
     7
370
    15
100
AcDbCircle
 10
2325.024995405202
 20
1732.413675318501
 30
0.0
 40
5.008078995162101
100
AcDbArc
 50
51.88057103274948
 51
117.9135896462161
1001
AcDbBlockRepETag
1070
     1
1071
      235
1005
AE5
  0
LINE
  5
AE6
330
78A
100
AcDbEntity
  8
0
  6
Continuous
 62
     7
370
    15
100
AcDbLine
 10
2331.072364112456
 20
1741.419391234204
 30
0.0
 11
2331.079512364124
 21
1742.312847890005
 31
0.0
1001
AcDbBlockRepETag
1070
     1
1071
      236
1005
AE6
  0
LWPOLYLINE
  5
AE7
330
78A
100
AcDbEntity
  8
0
  6
Continuous
 62
     7
370
    15
100
AcDbPolyline
 90
        3
 70
   128
 43
0.0
 10
2331.072364112456
 20
1741.419391234204
 10
2330.5399574967
 20
1740.993590951714
 10
2330.530931098672
 20
1740.981787054738
1001
AcDbBlockRepETag
1070
     1
1071
      237
1005
AE7
  0
LINE
  5
AE8
330
78A
100
AcDbEntity
  8
0
  6
Continuous
 62
     7
370
    15
100
AcDbLine
 10
2338.454666386761
 20
1745.448681021799
 30
0.0
 11
2338.461814638428
 21
1746.3421376776
 31
0.0
1001
AcDbBlockRepETag
1070
     1
1071
      238
1005
AE8
  0
LINE
  5
AE9
330
78A
100
AcDbEntity
  8
0
  6
Continuous
 62
     7
370
    15
100
AcDbLine
 10
2338.454666386761
 20
1745.448681021799
 30
0.0
 11
2331.072364112456
 21
1741.419391234204
 31
0.0
1001
AcDbBlockRepETag
1070
     1
1071
      239
1005
AE9
  0
ARC
  5
AEA
330
78A
100
AcDbEntity
  8
0
  6
Continuous
 62
     7
370
    15
100
AcDbCircle
 10
2340.799145563979
 20
1741.023268881686
 30
0.0
 40
5.008078995209806
100
AcDbArc
 50
51.88057103366922
 51
117.9135896460353
1001
AcDbBlockRepETag
1070
     1
1071
      240
1005
AEA
  0
LINE
  5
AEB
330
78A
100
AcDbEntity
  8
0
  6
Continuous
 62
     7
370
    15
100
AcDbLine
 10
2346.846514271226
 20
1750.028984797441
 30
0.0
 11
2346.853662522894
 21
1750.922441453241
 31
0.0
1001
AcDbBlockRepETag
1070
     1
1071
      241
1005
AEB
  0
LWPOLYLINE
  5
AEC
330
78A
100
AcDbEntity
  8
0
  6
Continuous
 62
     7
370
    15
100
AcDbPolyline
 90
        3
 70
   128
 43
0.0
 10
2346.846514271226
 20
1750.028984797441
 10
2346.31410765547
 20
1749.60318451495
 10
2346.30508125732
 20
1749.591380617811
1001
AcDbBlockRepETag
1070
     1
1071
      242
1005
AEC
  0
LINE
  5
AED
330
78A
100
AcDbEntity
  8
0
  6
Continuous
 62
     7
370
    15
100
AcDbLine
 10
2354.22881654553
 20
1754.058274585035
 30
0.0
 11
2354.235964797198
 21
1754.951731240836
 31
0.0
1001
AcDbBlockRepETag
1070
     1
1071
      243
1005
AED
  0
LINE
  5
AEE
330
78A
100
AcDbEntity
  8
0
  6
Continuous
 62
     7
370
    15
100
AcDbLine
 10
2354.22881654553
 20
1754.058274585035
 30
0.0
 11
2346.846514271226
 21
1750.028984797441
 31
0.0
1001
AcDbBlockRepETag
1070
     1
1071
      244
1005
AEE
  0
ARC
  5
AEF
330
78A
100
AcDbEntity
  8
0
  6
Continuous
 62
     7
370
    15
100
AcDbCircle
 10
2356.573295722714
 20
1749.632862445183
 30
0.0
 40
5.008078994964172
100
AcDbArc
 50
51.88057102903026
 51
117.9135896470668
1001
AcDbBlockRepETag
1070
     1
1071
      245
1005
AEF
  0
LINE
  5
AF0
330
78A
100
AcDbEntity
  8
0
  6
Continuous
 62
     7
370
    15
100
AcDbLine
 10
2362.620664429996
 20
1758.638578360676
 30
0.0
 11
2362.627812681663
 21
1759.532035016477
 31
0.0
1001
AcDbBlockRepETag
1070
     1
1071
      246
1005
AF0
  0
LWPOLYLINE
  5
AF1
330
78A
100
AcDbEntity
  8
0
  6
Continuous
 62
     7
370
    15
100
AcDbPolyline
 90
        3
 70
   128
 43
0.0
 10
2362.620664429996
 20
1758.638578360676
 10
2362.08825781424
 20
1758.212778078186
 10
2362.079231416096
 20
1758.200974181056
1001
AcDbBlockRepETag
1070
     1
1071
      247
1005
AF1
  0
LINE
  5
AF2
330
78A
100
AcDbEntity
  8
0
  6
Continuous
 62
     7
370
    15
100
AcDbLine
 10
2370.0029667043
 20
1762.667868148271
 30
0.0
 11
2370.010114955968
 21
1763.561324804072
 31
0.0
1001
AcDbBlockRepETag
1070
     1
1071
      248
1005
AF2
  0
LINE
  5
AF3
330
78A
100
AcDbEntity
  8
0
  6
Continuous
 62
     7
370
    15
100
AcDbLine
 10
2370.0029667043
 20
1762.667868148271
 30
0.0
 11
2362.620664429996
 21
1758.638578360676
 31
0.0
1001
AcDbBlockRepETag
1070
     1
1071
      249
1005
AF3
  0
ARC
  5
AF4
330
78A
100
AcDbEntity
  8
0
  6
Continuous
 62
     7
370
    15
100
AcDbCircle
 10
2372.347445881471
 20
1758.242456008515
 30
0.0
 40
5.008078994873139
100
AcDbArc
 50
51.88057102728442
 51
117.9135896474576
1001
AcDbBlockRepETag
1070
     1
1071
      250
1005
AF4
  0
LINE
  5
AF5
330
78A
100
AcDbEntity
  8
0
  6
Continuous
 62
     7
370
    15
100
AcDbLine
 10
2378.394814588766
 20
1767.248171923913
 30
0.0
 11
2378.401962840433
 21
1768.141628579714
 31
0.0
1001
AcDbBlockRepETag
1070
     1
1071
      251
1005
AF5
  0
LWPOLYLINE
  5
AF6
330
78A
100
AcDbEntity
  8
0
  6
Continuous
 62
     7
370
    15
100
AcDbPolyline
 90
        3
 70
   128
 43
0.0
 10
2378.394814588766
 20
1767.248171923913
 10
2377.86240797301
 20
1766.822371641422
 10
2377.853381574769
 20
1766.810567744164
1001
AcDbBlockRepETag
1070
     1
1071
      252
1005
AF6
  0
LINE
  5
AF7
330
78A
100
AcDbEntity
  8
0
  6
Continuous
 62
     7
370
    15
100
AcDbLine
 10
2385.777116863071
 20
1771.277461711507
 30
0.0
 11
2385.784265114738
 21
1772.170918367308
 31
0.0
1001
AcDbBlockRepETag
1070
     1
1071
      253
1005
AF7
  0
LINE
  5
AF8
330
78A
100
AcDbEntity
  8
0
  6
Continuous
 62
     7
370
    15
100
AcDbLine
 10
2385.777116863071
 20
1771.277461711507
 30
0.0
 11
2378.394814588766
 21
1767.248171923913
 31
0.0
1001
AcDbBlockRepETag
1070
     1
1071
      254
1005
AF8
  0
ARC
  5
AF9
330
78A
100
AcDbEntity
  8
0
  6
Continuous
 62
     7
370
    15
100
AcDbCircle
 10
2388.121596040275
 20
1766.852049571496
 30
0.0
 40
5.008078995114361
100
AcDbArc
 50
51.88057103185022
 51
117.9135896464261
1001
AcDbBlockRepETag
1070
     1
1071
      255
1005
AF9
  0
LINE
  5
AFA
330
78A
100
AcDbEntity
  8
0
  6
Continuous
 62
     7
370
    15
100
AcDbLine
 10
2394.168964747536
 20
1775.857765487149
 30
0.0
 11
2394.176112999204
 21
1776.75122214295
 31
0.0
1001
AcDbBlockRepETag
1070
     1
1071
      256
1005
AFA
  0
LWPOLYLINE
  5
AFB
330
78A
100
AcDbEntity
  8
0
  6
Continuous
 62
     7
370
    15
100
AcDbPolyline
 90
        3
 70
   128
 43
0.0
 10
2394.168964747536
 20
1775.857765487149
 10
2393.63655813178
 20
1775.431965204658
 10
2393.627531733792
 20
1775.420161307736
1001
AcDbBlockRepETag
1070
     1
1071
      257
1005
AFB
  0
LINE
  5
AFC
330
78A
100
AcDbEntity
  8
0
  6
Continuous
 62
     7
370
    15
100
AcDbLine
 10
2401.551267021841
 20
1779.887055274743
 30
0.0
 11
2401.558415273508
 21
1780.780511930544
 31
0.0
1001
AcDbBlockRepETag
1070
     1
1071
      258
1005
AFC
  0
LINE
  5
AFD
330
78A
100
AcDbEntity
  8
0
  6
Continuous
 62
     7
370
    15
100
AcDbLine
 10
2401.551267021841
 20
1779.887055274743
 30
0.0
 11
2394.168964747536
 21
1775.857765487149
 31
0.0
1001
AcDbBlockRepETag
1070
     1
1071
      259
1005
AFD
  0
ARC
  5
AFE
330
78A
100
AcDbEntity
  8
0
  6
Continuous
 62
     7
370
    15
100
AcDbCircle
 10
2403.895746199007
 20
1775.46164313502
 30
0.0
 40
5.008078994842082
100
AcDbArc
 50
51.8805710267188
 51
117.9135896475971
1001
AcDbBlockRepETag
1070
     1
1071
      260
1005
AFE
  0
LINE
  5
AFF
330
78A
100
AcDbEntity
  8
0
  6
Continuous
 62
     7
370
    15
100
AcDbLine
 10
2409.943114906306
 20
1784.467359050385
 30
0.0
 11
2409.950263157974
 21
1785.360815706186
 31
0.0
1001
AcDbBlockRepETag
1070
     1
1071
      261
1005
AFF
  0
LWPOLYLINE
  5
B00
330
78A
100
AcDbEntity
  8
0
  6
Continuous
 62
     7
370
    15
100
AcDbPolyline
 90
        3
 70
   128
 43
0.0
 10
2409.943114906306
 20
1784.467359050385
 10
2409.41070829055
 20
1784.041558767894
 10
2409.401681892456
 20
1784.029754870831
1001
AcDbBlockRepETag
1070
     1
1071
      262
1005
B00
  0
LINE
  5
B01
330
78A
100
AcDbEntity
  8
0
  6
Continuous
 62
     7
370
    15
100
AcDbLine
 10
2417.32541718061
 20
1788.496648837979
 30
0.0
 11
2417.332565432278
 21
1789.390105493781
 31
0.0
1001
AcDbBlockRepETag
1070
     1
1071
      263
1005
B01
  0
LINE
  5
B02
330
78A
100
AcDbEntity
  8
0
  6
Continuous
 62
     7
370
    15
100
AcDbLine
 10
2417.32541718061
 20
1788.496648837979
 30
0.0
 11
2409.943114906306
 21
1784.467359050385
 31
0.0
1001
AcDbBlockRepETag
1070
     1
1071
      264
1005
B02
  0
ARC
  5
B03
330
78A
100
AcDbEntity
  8
0
  6
Continuous
 62
     7
370
    15
100
AcDbCircle
 10
2419.669896357792
 20
1784.071236698142
 30
0.0
 40
5.008078994950179
100
AcDbArc
 50
51.88057102874123
 51
117.9135896471251
1001
AcDbBlockRepETag
1070
     1
1071
      265
1005
B03
  0
LINE
  5
B04
330
78A
100
AcDbEntity
  8
0
  6
Continuous
 62
     7
370
    15
100
AcDbLine
 10
2425.717265065076
 20
1793.076952613621
 30
0.0
 11
2425.724413316743
 21
1793.970409269422
 31
0.0
1001
AcDbBlockRepETag
1070
     1
1071
      266
1005
B04
  0
LWPOLYLINE
  5
B05
330
78A
100
AcDbEntity
  8
0
  6
Continuous
 62
     7
370
    15
100
AcDbPolyline
 90
        3
 70
   128
 43
0.0
 10
2425.717265065076
 20
1793.076952613621
 10
2425.18485844932
 20
1792.65115233113
 10
2425.175832051369
 20
1792.639348434257
1001
AcDbBlockRepETag
1070
     1
1071
      267
1005
B05
  0
LINE
  5
B06
330
78A
100
AcDbEntity
  8
0
  6
Continuous
 62
     7
370
    15
100
AcDbLine
 10
2433.09956733938
 20
1797.106242401216
 30
0.0
 11
2433.106715591048
 21
1797.999699057017
 31
0.0
1001
AcDbBlockRepETag
1070
     1
1071
      268
1005
B06
  0
LINE
  5
B07
330
78A
100
AcDbEntity
  8
0
  6
Continuous
 62
     7
370
    15
100
AcDbLine
 10
2433.09956733938
 20
1797.106242401216
 30
0.0
 11
2425.717265065076
 21
1793.076952613621
 31
0.0
1001
AcDbBlockRepETag
1070
     1
1071
      269
1005
B07
  0
ARC
  5
B08
330
78A
100
AcDbEntity
  8
0
  6
Continuous
 62
     7
370
    15
100
AcDbCircle
 10
2435.444046516615
 20
1792.680830260969
 30
0.0
 40
5.008078995336489
100
AcDbArc
 50
51.88057103605385
 51
117.913589645482
1001
AcDbBlockRepETag
1070
     1
1071
      270
1005
B08
  0
LINE
  5
B09
330
78A
100
AcDbEntity
  8
0
  6
Continuous
 62
     7
370
    15
100
AcDbLine
 10
2441.491415223846
 20
1801.686546176857
 30
0.0
 11
2441.498563475513
 21
1802.580002832658
 31
0.0
1001
AcDbBlockRepETag
1070
     1
1071
      271
1005
B09
  0
LWPOLYLINE
  5
B0A
330
78A
100
AcDbEntity
  8
0
  6
Continuous
 62
     7
370
    15
100
AcDbPolyline
 90
        3
 70
   128
 43
0.0
 10
2441.491415223846
 20
1801.686546176857
 10
2440.95900860809
 20
1801.260745894366
 10
2440.949982209976
 20
1801.248941997277
1001
AcDbBlockRepETag
1070
     1
1071
      272
1005
B0A
  0
LINE
  5
B0B
330
78A
100
AcDbEntity
  8
0
  6
Continuous
 62
     7
370
    15
100
AcDbLine
 10
2448.87371749815
 20
1805.715835964452
 30
0.0
 11
2448.880865749818
 21
1806.609292620253
 31
0.0
1001
AcDbBlockRepETag
1070
     1
1071
      273
1005
B0B
  0
LINE
  5
B0C
330
78A
100
AcDbEntity
  8
0
  6
Continuous
 62
     7
370
    15
100
AcDbLine
 10
2448.87371749815
 20
1805.715835964452
 30
0.0
 11
2441.491415223846
 21
1801.686546176857
 31
0.0
1001
AcDbBlockRepETag
1070
     1
1071
      274
1005
B0C
  0
ARC
  5
B0D
330
78A
100
AcDbEntity
  8
0
  6
Continuous
 62
     7
370
    15
100
AcDbCircle
 10
2451.218196675367
 20
1801.290423824348
 30
0.0
 40
5.008078995201633
100
AcDbArc
 50
51.88057103351044
 51
117.9135896460644
1001
AcDbBlockRepETag
1070
     1
1071
      275
1005
B0D
  0
LINE
  5
B0E
330
78A
100
AcDbEntity
  8
0
  6
Continuous
 62
     7
370
    15
100
AcDbLine
 10
2457.265565382616
 20
1810.296139740093
 30
0.0
 11
2457.272713634283
 21
1811.189596395895
 31
0.0
1001
AcDbBlockRepETag
1070
     1
1071
      276
1005
B0E
  0
LWPOLYLINE
  5
B0F
330
78A
100
AcDbEntity
  8
0
  6
Continuous
 62
     7
370
    15
100
AcDbPolyline
 90
        3
 70
   128
 43
0.0
 10
2457.265565382616
 20
1810.296139740093
 10
2456.73315876686
 20
1809.870339457603
 10
2456.72413236887
 20
1809.858535560678
1001
AcDbBlockRepETag
1070
     1
1071
      277
1005
B0F
  0
LINE
  5
B10
330
78A
100
AcDbEntity
  8
0
  6
Continuous
 62
     7
370
    15
100
AcDbLine
 10
2464.64786765692
 20
1814.325429527688
 30
0.0
 11
2464.655015908587
 21
1815.218886183489
 31
0.0
1001
AcDbBlockRepETag
1070
     1
1071
      278
1005
B10
  0
LINE
  5
B11
330
78A
100
AcDbEntity
  8
0
  6
Continuous
 62
     7
370
    15
100
AcDbLine
 10
2464.64786765692
 20
1814.325429527688
 30
0.0
 11
2457.265565382616
 21
1810.296139740093
 31
0.0
1001
AcDbBlockRepETag
1070
     1
1071
      279
1005
B11
  0
ARC
  5
B12
330
78A
100
AcDbEntity
  8
0
  6
Continuous
 62
     7
370
    15
100
AcDbCircle
 10
2466.992346834093
 20
1809.900017387917
 30
0.0
 40
5.008078994887174
100
AcDbArc
 50
51.88057102755294
 51
117.9135896473993
1001
AcDbBlockRepETag
1070
     1
1071
      280
1005
B12
  0
LINE
  5
B13
330
78A
100
AcDbEntity
  8
0
  6
Continuous
 62
     7
370
    15
100
AcDbLine
 10
2473.039715541386
 20
1818.905733303329
 30
0.0
 11
2473.046863793053
 21
1819.79918995913
 31
0.0
1001
AcDbBlockRepETag
1070
     1
1071
      281
1005
B13
  0
LWPOLYLINE
  5
B14
330
78A
100
AcDbEntity
  8
0
  6
Continuous
 62
     7
370
    15
100
AcDbPolyline
 90
        3
 70
   128
 43
0.0
 10
2473.039715541386
 20
1818.905733303329
 10
2472.50730892563
 20
1818.479933020839
 10
2472.498282527545
 20
1818.468129123789
1001
AcDbBlockRepETag
1070
     1
1071
      282
1005
B14
  0
LINE
  5
B15
330
78A
100
AcDbEntity
  8
0
  6
Continuous
 62
     7
370
    15
100
AcDbLine
 10
2480.42201781569
 20
1822.935023090924
 30
0.0
 11
2480.429166067357
 21
1823.828479746725
 31
0.0
1001
AcDbBlockRepETag
1070
     1
1071
      283
1005
B15
  0
LINE
  5
B16
330
78A
100
AcDbEntity
  8
0
  6
Continuous
 62
     7
370
    15
100
AcDbLine
 10
2480.42201781569
 20
1822.935023090924
 30
0.0
 11
2473.039715541386
 21
1818.905733303329
 31
0.0
1001
AcDbBlockRepETag
1070
     1
1071
      284
1005
B16
  0
ARC
  5
B17
330
78A
100
AcDbEntity
  8
0
  6
Continuous
 62
     7
370
    15
100
AcDbCircle
 10
2482.766496992907
 20
1818.509610950819
 30
0.0
 40
5.008078995202895
100
AcDbArc
 50
51.88057103356753
 51
117.9135896460644
1001
AcDbBlockRepETag
1070
     1
1071
      285
1005
B17
  0
LINE
  5
B18
330
78A
100
AcDbEntity
  8
0
  6
Continuous
 62
     7
370
    15
100
AcDbLine
 10
2488.813865700155
 20
1827.515326866565
 30
0.0
 11
2488.821013951823
 21
1828.408783522366
 31
0.0
1001
AcDbBlockRepETag
1070
     1
1071
      286
1005
B18
  0
LWPOLYLINE
  5
B19
330
78A
100
AcDbEntity
  8
0
  6
Continuous
 62
     7
370
    15
100
AcDbPolyline
 90
        3
 70
   128
 43
0.0
 10
2488.813865700155
 20
1827.515326866565
 10
2488.2814590844
 20
1827.089526584074
 10
2488.272432686026
 20
1827.077722686642
1001
AcDbBlockRepETag
1070
     1
1071
      287
1005
B19
  0
LINE
  5
B1A
330
78A
100
AcDbEntity
  8
0
  6
Continuous
 62
     7
370
    15
100
AcDbLine
 10
2496.19616797446
 20
1831.54461665416
 30
0.0
 11
2496.203316226127
 21
1832.438073309961
 31
0.0
1001
AcDbBlockRepETag
1070
     1
1071
      288
1005
B1A
  0
LINE
  5
B1B
330
78A
100
AcDbEntity
  8
0
  6
Continuous
 62
     7
370
    15
100
AcDbLine
 10
2496.19616797446
 20
1831.54461665416
 30
0.0
 11
2488.813865700155
 21
1827.515326866565
 31
0.0
1001
AcDbBlockRepETag
1070
     1
1071
      289
1005
B1B
  0
ARC
  5
B1C
330
78A
100
AcDbEntity
  8
0
  6
Continuous
 62
     7
370
    15
100
AcDbCircle
 10
2498.540647151664
 20
1827.119204514143
 30
0.0
 40
5.008078995119352
100
AcDbArc
 50
51.88057103195191
 51
117.9135896464139
1001
AcDbBlockRepETag
1070
     1
1071
      290
1005
B1C
  0
LINE
  5
B1D
330
78A
100
AcDbEntity
  8
0
  6
Continuous
 62
     7
370
    15
100
AcDbLine
 10
2504.588015858925
 20
1836.124920429801
 30
0.0
 11
2504.595164110593
 21
1837.018377085603
 31
0.0
1001
AcDbBlockRepETag
1070
     1
1071
      291
1005
B1D
  0
LWPOLYLINE
  5
B1E
330
78A
100
AcDbEntity
  8
0
  6
Continuous
 62
     7
370
    15
100
AcDbPolyline
 90
        3
 70
   128
 43
0.0
 10
2504.588015858925
 20
1836.124920429801
 10
2504.055609243169
 20
1835.699120147311
 10
2504.046582845032
 20
1835.68731625019
1001
AcDbBlockRepETag
1070
     1
1071
      292
1005
B1E
  0
LINE
  5
B1F
330
78A
100
AcDbEntity
  8
0
  6
Continuous
 62
     7
370
    15
100
AcDbLine
 10
2511.97031813323
 20
1840.154210217396
 30
0.0
 11
2511.977466384897
 21
1841.047666873197
 31
0.0
1001
AcDbBlockRepETag
1070
     1
1071
      293
1005
B1F
  0
LINE
  5
B20
330
78A
100
AcDbEntity
  8
0
  6
Continuous
 62
     7
370
    15
100
AcDbLine
 10
2511.97031813323
 20
1840.154210217396
 30
0.0
 11
2504.588015858925
 21
1836.124920429801
 31
0.0
1001
AcDbBlockRepETag
1070
     1
1071
      294
1005
B20
  0
ARC
  5
B21
330
78A
100
AcDbEntity
  8
0
  6
Continuous
 62
     7
370
    15
100
AcDbCircle
 10
2514.314797310423
 20
1835.728798077472
 30
0.0
 40
5.008078995031974
100
AcDbArc
 50
51.8805710302917
 51
117.9135896467756
1001
AcDbBlockRepETag
1070
     1
1071
      295
1005
B21
  0
LINE
  5
B22
330
78A
100
AcDbEntity
  8
0
  6
Continuous
 62
     7
370
    15
100
AcDbLine
 10
2520.362166017695
 20
1844.734513993038
 30
0.0
 11
2520.369314269363
 21
1845.627970648839
 31
0.0
1001
AcDbBlockRepETag
1070
     1
1071
      296
1005
B22
  0
LWPOLYLINE
  5
B23
330
78A
100
AcDbEntity
  8
0
  6
Continuous
 62
     7
370
    15
100
AcDbPolyline
 90
        3
 70
   128
 43
0.0
 10
2520.362166017695
 20
1844.734513993038
 10
2519.829759401939
 20
1844.308713710547
 10
2519.820733003698
 20
1844.296909813289
1001
AcDbBlockRepETag
1070
     1
1071
      297
1005
B23
  0
LINE
  5
B24
330
78A
100
AcDbEntity
  8
0
  6
Continuous
 62
     7
370
    15
100
AcDbLine
 10
2527.744468291999
 20
1848.763803780632
 30
0.0
 11
2527.751616543667
 21
1849.657260436433
 31
0.0
1001
AcDbBlockRepETag
1070
     1
1071
      298
1005
B24
  0
LINE
  5
B25
330
78A
100
AcDbEntity
  8
0
  6
Continuous
 62
     7
370
    15
100
AcDbLine
 10
2527.744468291999
 20
1848.763803780632
 30
0.0
 11
2520.362166017695
 21
1844.734513993038
 31
0.0
1001
AcDbBlockRepETag
1070
     1
1071
      299
1005
B25
  0
ARC
  5
B26
330
78A
100
AcDbEntity
  8
0
  6
Continuous
 62
     7
370
    15
100
AcDbCircle
 10
2530.088947469212
 20
1844.338391640556
 30
0.0
 40
5.00807899517581
100
AcDbArc
 50
51.88057103301801
 51
117.9135896461579
1001
AcDbBlockRepETag
1070
     1
1071
      300
1005
B26
  0
LINE
  5
B27
330
78A
100
AcDbEntity
  8
0
  6
Continuous
 62
     7
370
    15
100
AcDbLine
 10
2536.136316176465
 20
1853.344107556274
 30
0.0
 11
2536.143464428133
 21
1854.237564212074
 31
0.0
1001
AcDbBlockRepETag
1070
     1
1071
      301
1005
B27
  0
LWPOLYLINE
  5
B28
330
78A
100
AcDbEntity
  8
0
  6
Continuous
 62
     7
370
    15
100
AcDbPolyline
 90
        3
 70
   128
 43
0.0
 10
2536.136316176465
 20
1853.344107556274
 10
2535.603909560709
 20
1852.918307273783
 10
2535.594883162543
 20
1852.906503376624
1001
AcDbBlockRepETag
1070
     1
1071
      302
1005
B28
  0
LINE
  5
B29
330
78A
100
AcDbEntity
  8
0
  6
Continuous
 62
     7
370
    15
100
AcDbLine
 10
2543.518618450769
 20
1857.373397343868
 30
0.0
 11
2543.525766702437
 21
1858.266853999669
 31
0.0
1001
AcDbBlockRepETag
1070
     1
1071
      303
1005
B29
  0
LINE
  5
B2A
330
78A
100
AcDbEntity
  8
0
  6
Continuous
 62
     7
370
    15
100
AcDbLine
 10
2543.518618450769
 20
1857.373397343868
 30
0.0
 11
2536.136316176465
 21
1853.344107556274
 31
0.0
1001
AcDbBlockRepETag
1070
     1
1071
      304
1005
B2A
  0
ARC
  5
B2B
330
78A
100
AcDbEntity
  8
0
  6
Continuous
 62
     7
370
    15
100
AcDbCircle
 10
2545.86309762796
 20
1852.947985203958
 30
0.0
 40
5.008078995018863
100
AcDbArc
 50
51.88057103005975
 51
117.9135896468338
1001
AcDbBlockRepETag
1070
     1
1071
      305
1005
B2B
  0
LINE
  5
B2C
330
78A
100
AcDbEntity
  8
0
  6
Continuous
 62
     7
370
    15
100
AcDbLine
 10
2551.910466335235
 20
1861.95370111951
 30
0.0
 11
2551.917614586903
 21
1862.847157775311
 31
0.0
1001
AcDbBlockRepETag
1070
     1
1071
      306
1005
B2C
  0
LWPOLYLINE
  5
B2D
330
78A
100
AcDbEntity
  8
0
  6
Continuous
 62
     7
370
    15
100
AcDbPolyline
 90
        3
 70
   128
 43
0.0
 10
2551.910466335235
 20
1861.95370111951
 10
2551.378059719479
 20
1861.527900837019
 10
2551.369033321264
 20
1861.516096939796
1001
AcDbBlockRepETag
1070
     1
1071
      307
1005
B2D
  0
LINE
  5
B2E
330
78A
100
AcDbEntity
  8
0
  6
Continuous
 62
     7
370
    15
100
AcDbLine
 10
2559.292768609539
 20
1865.982990907104
 30
0.0
 11
2559.299916861207
 21
1866.876447562905
 31
0.0
1001
AcDbBlockRepETag
1070
     1
1071
      308
1005
B2E
  0
LINE
  5
B2F
330
78A
100
AcDbEntity
  8
0
  6
Continuous
 62
     7
370
    15
100
AcDbLine
 10
2559.292768609539
 20
1865.982990907104
 30
0.0
 11
2551.910466335235
 21
1861.95370111951
 31
0.0
1001
AcDbBlockRepETag
1070
     1
1071
      309
1005
B2F
  0
ARC
  5
B30
330
78A
100
AcDbEntity
  8
0
  6
Continuous
 62
     7
370
    15
100
AcDbCircle
 10
2561.637247786798
 20
1861.557578766673
 30
0.0
 40
5.00807899551085
100
AcDbArc
 50
51.88057103936625
 51
117.9135896447417
1001
AcDbBlockRepETag
1070
     1
1071
      310
1005
B30
  0
LINE
  5
B31
330
78A
100
AcDbEntity
  8
0
  6
Continuous
 62
     7
370
    15
100
AcDbLine
 10
2567.684616494005
 20
1870.563294682746
 30
0.0
 11
2567.691764745672
 21
1871.456751338547
 31
0.0
1001
AcDbBlockRepETag
1070
     1
1071
      311
1005
B31
  0
LWPOLYLINE
  5
B32
330
78A
100
AcDbEntity
  8
0
  6
Continuous
 62
     7
370
    15
100
AcDbPolyline
 90
        3
 70
   128
 43
0.0
 10
2567.684616494005
 20
1870.563294682746
 10
2567.152209878249
 20
1870.137494400255
 10
2567.14318348007
 20
1870.125690503081
1001
AcDbBlockRepETag
1070
     1
1071
      312
1005
B32
  0
LINE
  5
B33
330
78A
100
AcDbEntity
  8
0
  6
Continuous
 62
     7
370
    15
100
AcDbLine
 10
2575.066918768309
 20
1874.592584470341
 30
0.0
 11
2575.074067019977
 21
1875.486041126141
 31
0.0
1001
AcDbBlockRepETag
1070
     1
1071
      313
1005
B33
  0
LINE
  5
B34
330
78A
100
AcDbEntity
  8
0
  6
Continuous
 62
     7
370
    15
100
AcDbLine
 10
2575.066918768309
 20
1874.592584470341
 30
0.0
 11
2567.684616494005
 21
1870.563294682746
 31
0.0
1001
AcDbBlockRepETag
1070
     1
1071
      314
1005
B34
  0
ARC
  5
B35
330
78A
100
AcDbEntity
  8
0
  6
Continuous
 62
     7
370
    15
100
AcDbCircle
 10
2577.411397945525
 20
1870.167172330242
 30
0.0
 40
5.008078995196872
100
AcDbArc
 50
51.88057103340875
 51
117.9135896460705
1001
AcDbBlockRepETag
1070
     1
1071
      315
1005
B35
  0
LINE
  5
B36
330
78A
100
AcDbEntity
  8
0
  6
Continuous
 62
     7
370
    15
100
AcDbLine
 10
2583.458766652774
 20
1879.172888245982
 30
0.0
 11
2583.465914904442
 21
1880.066344901783
 31
0.0
1001
AcDbBlockRepETag
1070
     1
1071
      316
1005
B36
  0
LWPOLYLINE
  5
B37
330
78A
100
AcDbEntity
  8
0
  6
Continuous
 62
     7
370
    15
100
AcDbPolyline
 90
        3
 70
   128
 43
0.0
 10
2583.458766652774
 20
1879.172888245982
 10
2582.926360037019
 20
1878.747087963492
 10
2582.917333638987
 20
1878.735284066511
1001
AcDbBlockRepETag
1070
     1
1071
      317
1005
B37
  0
LINE
  5
B38
330
78A
100
AcDbEntity
  8
0
  6
Continuous
 62
     7
370
    15
100
AcDbLine
 10
2590.841068927079
 20
1883.202178033577
 30
0.0
 11
2590.848217178747
 21
1884.095634689377
 31
0.0
1001
AcDbBlockRepETag
1070
     1
1071
      318
1005
B38
  0
LINE
  5
B39
330
78A
100
AcDbEntity
  8
0
  6
Continuous
 62
     7
370
    15
100
AcDbLine
 10
2590.841068927079
 20
1883.202178033577
 30
0.0
 11
2583.458766652774
 21
1879.172888245982
 31
0.0
1001
AcDbBlockRepETag
1070
     1
1071
      319
1005
B39
  0
ARC
  5
B3A
330
78A
100
AcDbEntity
  8
0
  6
Continuous
 62
     7
370
    15
100
AcDbCircle
 10
2593.185548104246
 20
1878.776765893851
 30
0.0
 40
5.008078994844084
100
AcDbArc
 50
51.88057102675539
 51
117.9135896475971
1001
AcDbBlockRepETag
1070
     1
1071
      320
1005
B3A
  0
LINE
  5
B3B
330
78A
100
AcDbEntity
  8
0
  6
Continuous
 62
     7
370
    15
100
AcDbLine
 10
2599.232916811545
 20
1887.782481809218
 30
0.0
 11
2599.240065063212
 21
1888.675938465019
 31
0.0
1001
AcDbBlockRepETag
1070
     1
1071
      321
1005
B3B
  0
LWPOLYLINE
  5
B3C
330
78A
100
AcDbEntity
  8
0
  6
Continuous
 62
     7
370
    15
100
AcDbPolyline
 90
        3
 70
   128
 43
0.0
 10
2599.232916811545
 20
1887.782481809218
 10
2598.700510195789
 20
1887.356681526728
 10
2598.691483797633
 20
1887.344877629582
1001
AcDbBlockRepETag
1070
     1
1071
      322
1005
B3C
  0
LINE
  5
B3D
330
78A
100
AcDbEntity
  8
0
  6
Continuous
 62
     7
370
    15
100
AcDbLine
 10
2606.615219085849
 20
1891.811771596813
 30
0.0
 11
2606.622367337517
 21
1892.705228252614
 31
0.0
1001
AcDbBlockRepETag
1070
     1
1071
      323
1005
B3D
  0
LINE
  5
B3E
330
78A
100
AcDbEntity
  8
0
  6
Continuous
 62
     7
370
    15
100
AcDbLine
 10
2606.615219085849
 20
1891.811771596813
 30
0.0
 11
2599.232916811545
 21
1887.782481809218
 31
0.0
1001
AcDbBlockRepETag
1070
     1
1071
      324
1005
B3E
  0
ARC
  5
B3F
330
78A
100
AcDbEntity
  8
0
  6
Continuous
 62
     7
370
    15
100
AcDbCircle
 10
2608.959698263068
 20
1887.386359456686
 30
0.0
 40
5.008078995223288
100
AcDbArc
 50
51.88057103390118
 51
117.9135896459541
1001
AcDbBlockRepETag
1070
     1
1071
      325
1005
B3F
  0
LINE
  5
B40
330
78A
100
AcDbEntity
  8
0
  6
Continuous
 62
     7
370
    15
100
AcDbLine
 10
2615.007066970314
 20
1896.392075372454
 30
0.0
 11
2615.014215221982
 21
1897.285532028255
 31
0.0
1001
AcDbBlockRepETag
1070
     1
1071
      326
1005
B40
  0
LWPOLYLINE
  5
B41
330
78A
100
AcDbEntity
  8
0
  6
Continuous
 62
     7
370
    15
100
AcDbPolyline
 90
        3
 70
   128
 43
0.0
 10
2615.007066970314
 20
1896.392075372454
 10
2614.474660354558
 20
1895.966275089964
 10
2614.46563395653
 20
1895.954471192987
1001
AcDbBlockRepETag
1070
     1
1071
      327
1005
B41
  0
LINE
  5
B42
330
78A
100
AcDbEntity
  8
0
  6
Continuous
 62
     7
370
    15
100
AcDbLine
 10
2622.389369244619
 20
1900.421365160049
 30
0.0
 11
2622.396517496286
 21
1901.31482181585
 31
0.0
1001
AcDbBlockRepETag
1070
     1
1071
      328
1005
B42
  0
LINE
  5
B43
330
78A
100
AcDbEntity
  8
0
  6
Continuous
 62
     7
370
    15
100
AcDbLine
 10
2622.389369244619
 20
1900.421365160049
 30
0.0
 11
2615.007066970314
 21
1896.392075372454
 31
0.0
1001
AcDbBlockRepETag
1070
     1
1071
      329
1005
B43
  0
ARC
  5
B44
330
78A
100
AcDbEntity
  8
0
  6
Continuous
 62
     7
370
    15
100
AcDbCircle
 10
2624.73384842185
 20
1895.995953019827
 30
0.0
 40
5.008078995313337
100
AcDbArc
 50
51.88057103561847
 51
117.9135896455924
1001
AcDbBlockRepETag
1070
     1
1071
      330
1005
B44
  0
LINE
  5
B45
330
78A
100
AcDbEntity
  8
0
  6
Continuous
 62
     7
370
    15
100
AcDbLine
 10
2630.781217129084
 20
1905.00166893569
 30
0.0
 11
2630.788365380752
 21
1905.895125591491
 31
0.0
1001
AcDbBlockRepETag
1070
     1
1071
      331
1005
B45
  0
LWPOLYLINE
  5
B46
330
78A
100
AcDbEntity
  8
0
  6
Continuous
 62
     7
370
    15
100
AcDbPolyline
 90
        3
 70
   128
 43
0.0
 10
2630.781217129084
 20
1905.00166893569
 10
2630.248810513328
 20
1904.5758686532
 10
2630.239784115012
 20
1904.564064755842
1001
AcDbBlockRepETag
1070
     1
1071
      332
1005
B46
  0
LINE
  5
B47
330
78A
100
AcDbEntity
  8
0
  6
Continuous
 62
     7
370
    15
100
AcDbLine
 10
2638.163519403388
 20
1909.030958723285
 30
0.0
 11
2638.170667655056
 21
1909.924415379086
 31
0.0
1001
AcDbBlockRepETag
1070
     1
1071
      333
1005
B47
  0
LINE
  5
B48
330
78A
100
AcDbEntity
  8
0
  6
Continuous
 62
     7
370
    15
100
AcDbLine
 10
2638.163519403388
 20
1909.030958723285
 30
0.0
 11
2630.781217129084
 21
1905.00166893569
 31
0.0
1001
AcDbBlockRepETag
1070
     1
1071
      334
1005
B48
  0
ARC
  5
B49
330
78A
100
AcDbEntity
  8
0
  6
Continuous
 62
     7
370
    15
100
AcDbCircle
 10
2640.507998580635
 20
1904.605546582947
 30
0.0
 40
5.008078995422809
100
AcDbArc
 50
51.88057103767748
 51
117.9135896451203
1001
AcDbBlockRepETag
1070
     1
1071
      335
1005
B49
  0
LINE
  5
B4A
330
78A
100
AcDbEntity
  8
0
  6
Continuous
 62
     7
370
    15
100
AcDbLine
 10
2646.555367287855
 20
1913.611262498926
 30
0.0
 11
2646.562515539522
 21
1914.504719154727
 31
0.0
1001
AcDbBlockRepETag
1070
     1
1071
      336
1005
B4A
  0
LWPOLYLINE
  5
B4B
330
78A
100
AcDbEntity
  8
0
  6
Continuous
 62
     7
370
    15
100
AcDbPolyline
 90
        3
 70
   128
 43
0.0
 10
2646.555367287855
 20
1913.611262498926
 10
2646.022960672099
 20
1913.185462216436
 10
2646.013934274175
 20
1913.173658319599
1001
AcDbBlockRepETag
1070
     1
1071
      337
1005
B4B
  0
LINE
  5
B4C
330
78A
100
AcDbEntity
  8
0
  6
Continuous
 62
     7
370
    15
100
AcDbLine
 10
2653.937669562159
 20
1917.640552286521
 30
0.0
 11
2653.944817813826
 21
1918.534008942322
 31
0.0
1001
AcDbBlockRepETag
1070
     1
1071
      338
1005
B4C
  0
LINE
  5
B4D
330
78A
100
AcDbEntity
  8
0
  6
Continuous
 62
     7
370
    15
100
AcDbLine
 10
2653.937669562159
 20
1917.640552286521
 30
0.0
 11
2646.555367287855
 21
1913.611262498926
 31
0.0
1001
AcDbBlockRepETag
1070
     1
1071
      339
1005
B4D
  0
ARC
  5
B4E
330
78A
100
AcDbEntity
  8
0
  6
Continuous
 62
     7
370
    15
100
AcDbCircle
 10
2656.282148739407
 20
1913.215140146173
 30
0.0
 40
5.008078995432457
100
AcDbArc
 50
51.88057103788089
 51
117.9135896450621
1001
AcDbBlockRepETag
1070
     1
1071
      340
1005
B4E
  0
LINE
  5
B4F
330
78A
100
AcDbEntity
  8
0
  6
Continuous
 62
     7
370
    15
100
AcDbLine
 10
2662.329517446624
 20
1922.220856062162
 30
0.0
 11
2662.336665698292
 21
1923.114312717964
 31
0.0
1001
AcDbBlockRepETag
1070
     1
1071
      341
1005
B4F
  0
LWPOLYLINE
  5
B50
330
78A
100
AcDbEntity
  8
0
  6
Continuous
 62
     7
370
    15
100
AcDbPolyline
 90
        3
 70
   128
 43
0.0
 10
2662.329517446624
 20
1922.220856062162
 10
2661.797110830868
 20
1921.795055779672
 10
2661.788084432809
 20
1921.783251882656
1001
AcDbBlockRepETag
1070
     1
1071
      342
1005
B50
  0
LINE
  5
B51
330
78A
100
AcDbEntity
  8
0
  6
Continuous
 62
     7
370
    15
100
AcDbLine
 10
2669.711819720929
 20
1926.250145849757
 30
0.0
 11
2669.718967972596
 21
1927.143602505558
 31
0.0
1001
AcDbBlockRepETag
1070
     1
1071
      343
1005
B51
  0
LINE
  5
B52
330
78A
100
AcDbEntity
  8
0
  6
Continuous
 62
     7
370
    15
100
AcDbLine
 10
2669.711819720929
 20
1926.250145849757
 30
0.0
 11
2662.329517446624
 21
1922.220856062162
 31
0.0
1001
AcDbBlockRepETag
1070
     1
1071
      344
1005
B52
  0
ARC
  5
B53
330
78A
100
AcDbEntity
  8
0
  6
Continuous
 62
     7
370
    15
100
AcDbCircle
 10
2672.056298898179
 20
1921.824733709393
 30
0.0
 40
5.008078995446918
100
AcDbArc
 50
51.88057103814138
 51
117.9135896450038
1001
AcDbBlockRepETag
1070
     1
1071
      345
1005
B53
  0
LINE
  5
B54
330
78A
100
AcDbEntity
  8
0
  6
Continuous
 62
     7
370
    15
100
AcDbLine
 10
2678.103667605394
 20
1930.830449625398
 30
0.0
 11
2678.110815857062
 21
1931.7239062812
 31
0.0
1001
AcDbBlockRepETag
1070
     1
1071
      346
1005
B54
  0
LWPOLYLINE
  5
B55
330
78A
100
AcDbEntity
  8
0
  6
Continuous
 62
     7
370
    15
100
AcDbPolyline
 90
        3
 70
   128
 43
0.0
 10
2678.103667605394
 20
1930.830449625398
 10
2677.571260989638
 20
1930.404649342908
 10
2677.562234591747
 20
1930.392845446114
1001
AcDbBlockRepETag
1070
     1
1071
      347
1005
B55
  0
LINE
  5
B56
330
78A
100
AcDbEntity
  8
0
  6
Continuous
 62
     7
370
    15
100
AcDbLine
 10
2685.485969879698
 20
1934.859739412993
 30
0.0
 11
2685.493118131366
 21
1935.753196068794
 31
0.0
1001
AcDbBlockRepETag
1070
     1
1071
      348
1005
B56
  0
LINE
  5
B57
330
78A
100
AcDbEntity
  8
0
  6
Continuous
 62
     7
370
    15
100
AcDbLine
 10
2685.485969879698
 20
1934.859739412993
 30
0.0
 11
2678.103667605394
 21
1930.830449625398
 31
0.0
1001
AcDbBlockRepETag
1070
     1
1071
      349
1005
B57
  0
ARC
  5
B58
330
78A
100
AcDbEntity
  8
0
  6
Continuous
 62
     7
370
    15
100
AcDbCircle
 10
2687.830449056909
 20
1930.434327272929
 30
0.0
 40
5.00807899516434
100
AcDbArc
 50
51.88057103280655
 51
117.9135896462161
1001
AcDbBlockRepETag
1070
     1
1071
      350
1005
B58
  0
LINE
  5
B59
330
78A
100
AcDbEntity
  8
0
  6
Continuous
 62
     7
370
    15
100
AcDbLine
 10
2693.877817764164
 20
1939.440043188635
 30
0.0
 11
2693.884966015831
 21
1940.333499844436
 31
0.0
1001
AcDbBlockRepETag
1070
     1
1071
      351
1005
B59
  0
LWPOLYLINE
  5
B5A
330
78A
100
AcDbEntity
  8
0
  6
Continuous
 62
     7
370
    15
100
AcDbPolyline
 90
        3
 70
   128
 43
0.0
 10
2693.877817764164
 20
1939.440043188635
 10
2693.345411148408
 20
1939.014242906144
 10
2693.33638475011
 20
1939.002439008811
1001
AcDbBlockRepETag
1070
     1
1071
      352
1005
B5A
  0
LINE
  5
B5B
330
78A
100
AcDbEntity
  8
0
  6
Continuous
 62
     7
370
    15
100
AcDbLine
 10
2701.260120038468
 20
1943.469332976229
 30
0.0
 11
2701.267268290136
 21
1944.36278963203
 31
0.0
1001
AcDbBlockRepETag
1070
     1
1071
      353
1005
B5B
  0
LINE
  5
B5C
330
78A
100
AcDbEntity
  8
0
  6
Continuous
 62
     7
370
    15
100
AcDbLine
 10
2701.260120038468
 20
1943.469332976229
 30
0.0
 11
2693.877817764164
 21
1939.440043188635
 31
0.0
1001
AcDbBlockRepETag
1070
     1
1071
      354
1005
B5C
  0
ARC
  5
B5D
330
78A
100
AcDbEntity
  8
0
  6
Continuous
 62
     7
370
    15
100
AcDbCircle
 10
2703.604599215648
 20
1939.043920836409
 30
0.0
 40
5.008078994934027
100
AcDbArc
 50
51.88057102846465
 51
117.9135896471894
1001
AcDbBlockRepETag
1070
     1
1071
      355
1005
B5D
  0
LINE
  5
B5E
330
78A
100
AcDbEntity
  8
0
  6
Continuous
 62
     7
370
    15
100
AcDbLine
 10
2709.651967922933
 20
1948.049636751871
 30
0.0
 11
2709.659116174601
 21
1948.943093407672
 31
0.0
1001
AcDbBlockRepETag
1070
     1
1071
      356
1005
B5E
  0
LWPOLYLINE
  5
B5F
330
78A
100
AcDbEntity
  8
0
  6
Continuous
 62
     7
370
    15
100
AcDbPolyline
 90
        3
 70
   128
 43
0.0
 10
2709.651967922933
 20
1948.049636751871
 10
2709.119561307178
 20
1947.62383646938
 10
2709.110534908928
 20
1947.612032572111
1001
AcDbBlockRepETag
1070
     1
1071
      357
1005
B5F
  0
LINE
  5
B60
330
78A
100
AcDbEntity
  8
0
  6
Continuous
 62
     7
370
    15
100
AcDbLine
 10
2717.034270197238
 20
1952.078926539465
 30
0.0
 11
2717.041418448906
 21
1952.972383195266
 31
0.0
1001
AcDbBlockRepETag
1070
     1
1071
      358
1005
B60
  0
LINE
  5
B61
330
78A
100
AcDbEntity
  8
0
  6
Continuous
 62
     7
370
    15
100
AcDbLine
 10
2717.034270197238
 20
1952.078926539465
 30
0.0
 11
2709.651967922933
 21
1948.049636751871
 31
0.0
1001
AcDbBlockRepETag
1070
     1
1071
      359
1005
B61
  0
ARC
  5
B62
330
78A
100
AcDbEntity
  8
0
  6
Continuous
 62
     7
370
    15
100
AcDbCircle
 10
2719.378749374424
 20
1947.653514399599
 30
0.0
 40
5.008078994977654
100
AcDbArc
 50
51.88057102927023
 51
117.9135896470085
1001
AcDbBlockRepETag
1070
     1
1071
      360
1005
B62
  0
LINE
  5
B63
330
78A
100
AcDbEntity
  8
0
  6
Continuous
 62
     7
370
    15
100
AcDbLine
 10
2725.426118081704
 20
1956.659230315107
 30
0.0
 11
2725.433266333371
 21
1957.552686970908
 31
0.0
1001
AcDbBlockRepETag
1070
     1
1071
      361
1005
B63
  0
LWPOLYLINE
  5
B64
330
78A
100
AcDbEntity
  8
0
  6
Continuous
 62
     7
370
    15
100
AcDbPolyline
 90
        3
 70
   128
 43
0.0
 10
2725.426118081704
 20
1956.659230315107
 10
2724.893711465948
 20
1956.233430032616
 10
2724.884685068057
 20
1956.221626135823
1001
AcDbBlockRepETag
1070
     1
1071
      362
1005
B64
  0
LINE
  5
B65
330
78A
100
AcDbEntity
  8
0
  6
Continuous
 62
     7
370
    15
100
AcDbLine
 10
2732.808420356008
 20
1960.688520102701
 30
0.0
 11
2732.815568607675
 21
1961.581976758503
 31
0.0
1001
AcDbBlockRepETag
1070
     1
1071
      363
1005
B65
  0
LINE
  5
B66
330
78A
100
AcDbEntity
  8
0
  6
Continuous
 62
     7
370
    15
100
AcDbLine
 10
2732.808420356008
 20
1960.688520102701
 30
0.0
 11
2725.426118081704
 21
1956.659230315107
 31
0.0
1001
AcDbBlockRepETag
1070
     1
1071
      364
1005
B66
  0
ARC
  5
B67
330
78A
100
AcDbEntity
  8
0
  6
Continuous
 62
     7
370
    15
100
AcDbCircle
 10
2735.152899533166
 20
1956.263107963048
 30
0.0
 40
5.008078994776506
100
AcDbArc
 50
51.8805710254859
 51
117.9135896478883
1001
AcDbBlockRepETag
1070
     1
1071
      365
1005
B67
  0
LINE
  5
B68
330
78A
100
AcDbEntity
  8
0
  6
Continuous
 62
     7
370
    15
100
AcDbLine
 10
2741.200268240473
 20
1965.268823878344
 30
0.0
 11
2741.207416492141
 21
1966.162280534144
 31
0.0
1001
AcDbBlockRepETag
1070
     1
1071
      366
1005
B68
  0
LWPOLYLINE
  5
B69
330
78A
100
AcDbEntity
  8
0
  6
Continuous
 62
     7
370
    15
100
AcDbPolyline
 90
        3
 70
   128
 43
0.0
 10
2741.200268240473
 20
1965.268823878344
 10
2740.667861624717
 20
1964.843023595852
 10
2740.658835226788
 20
1964.831219699007
1001
AcDbBlockRepETag
1070
     1
1071
      367
1005
B69
  0
LINE
  5
B6A
330
78A
100
AcDbEntity
  8
0
  6
Continuous
 62
     7
370
    15
100
AcDbLine
 10
2748.582570514778
 20
1969.298113665938
 30
0.0
 11
2748.589718766445
 21
1970.191570321739
 31
0.0
1001
AcDbBlockRepETag
1070
     1
1071
      368
1005
B6A
  0
LINE
  5
B6B
330
78A
100
AcDbEntity
  8
0
  6
Continuous
 62
     7
370
    15
100
AcDbLine
 10
2748.582570514778
 20
1969.298113665938
 30
0.0
 11
2741.200268240473
 21
1965.268823878344
 31
0.0
1001
AcDbBlockRepETag
1070
     1
1071
      369
1005
B6B
  0
ARC
  5
B6C
330
78A
100
AcDbEntity
  8
0
  6
Continuous
 62
     7
370
    15
100
AcDbCircle
 10
2750.927049691941
 20
1964.87270152624
 30
0.0
 40
5.008078994817379
100
AcDbArc
 50
51.88057102622638
 51
117.9135896476906
1001
AcDbBlockRepETag
1070
     1
1071
      370
1005
B6C
  0
LINE
  5
B6D
330
78A
100
AcDbEntity
  8
0
  6
Continuous
 62
     7
370
    15
100
AcDbLine
 10
2756.974418399244
 20
1973.878417441579
 30
0.0
 11
2756.981566650911
 21
1974.77187409738
 31
0.0
1001
AcDbBlockRepETag
1070
     1
1071
      371
1005
B6D
  0
LWPOLYLINE
  5
B6E
330
78A
100
AcDbEntity
  8
0
  6
Continuous
 62
     7
370
    15
100
AcDbPolyline
 90
        3
 70
   128
 43
0.0
 10
2756.974418399244
 20
1973.878417441579
 10
2756.442011783487
 20
1973.452617159088
 10
2756.432985385246
 20
1973.440813261829
1001
AcDbBlockRepETag
1070
     1
1071
      372
1005
B6E
  0
LINE
  5
B6F
330
78A
100
AcDbEntity
  8
0
  6
Continuous
 62
     7
370
    15
100
AcDbLine
 10
2764.356720673548
 20
1977.907707229174
 30
0.0
 11
2764.363868925216
 21
1978.801163884975
 31
0.0
1001
AcDbBlockRepETag
1070
     1
1071
      373
1005
B6F
  0
LINE
  5
B70
330
78A
100
AcDbEntity
  8
0
  6
Continuous
 62
     7
370
    15
100
AcDbLine
 10
2764.356720673548
 20
1977.907707229174
 30
0.0
 11
2756.974418399244
 21
1973.878417441579
 31
0.0
1001
AcDbBlockRepETag
1070
     1
1071
      374
1005
B70
  0
ARC
  5
B71
330
78A
100
AcDbEntity
  8
0
  6
Continuous
 62
     7
370
    15
100
AcDbCircle
 10
2766.701199850755
 20
1973.482295089136
 30
0.0
 40
5.00807899513908
100
AcDbArc
 50
51.88057103232217
 51
117.9135896463265
1001
AcDbBlockRepETag
1070
     1
1071
      375
1005
B71
  0
LINE
  5
B72
330
78A
100
AcDbEntity
  8
0
  6
Continuous
 62
     7
370
    15
100
AcDbLine
 10
2772.748568558013
 20
1982.488011004815
 30
0.0
 11
2772.755716809681
 21
1983.381467660617
 31
0.0
1001
AcDbBlockRepETag
1070
     1
1071
      376
1005
B72
  0
LWPOLYLINE
  5
B73
330
78A
100
AcDbEntity
  8
0
  6
Continuous
 62
     7
370
    15
100
AcDbPolyline
 90
        3
 70
   128
 43
0.0
 10
2772.748568558013
 20
1982.488011004815
 10
2772.216161942257
 20
1982.062210722325
 10
2772.207135544124
 20
1982.050406825209
1001
AcDbBlockRepETag
1070
     1
1071
      377
1005
B73
  0
LINE
  5
B74
330
78A
100
AcDbEntity
  8
0
  6
Continuous
 62
     7
370
    15
100
AcDbLine
 10
2780.130870832318
 20
1986.51730079241
 30
0.0
 11
2780.138019083985
 21
1987.410757448211
 31
0.0
1001
AcDbBlockRepETag
1070
     1
1071
      378
1005
B74
  0
LINE
  5
B75
330
78A
100
AcDbEntity
  8
0
  6
Continuous
 62
     7
370
    15
100
AcDbLine
 10
2780.130870832318
 20
1986.51730079241
 30
0.0
 11
2772.748568558013
 21
1982.488011004815
 31
0.0
1001
AcDbBlockRepETag
1070
     1
1071
      379
1005
B75
  0
ARC
  5
B76
330
78A
100
AcDbEntity
  8
0
  6
Continuous
 62
     7
370
    15
100
AcDbCircle
 10
2782.475350009505
 20
1982.091888652532
 30
0.0
 40
5.008078994988383
100
AcDbArc
 50
51.88057102947365
 51
117.9135896469794
1001
AcDbBlockRepETag
1070
     1
1071
      380
1005
B76
  0
LINE
  5
B77
330
78A
100
AcDbEntity
  8
0
  6
Continuous
 62
     7
370
    15
100
AcDbLine
 10
2788.522718716783
 20
1991.097604568052
 30
0.0
 11
2788.529866968451
 21
1991.991061223852
 31
0.0
1001
AcDbBlockRepETag
1070
     1
1071
      381
1005
B77
  0
LWPOLYLINE
  5
B78
330
78A
100
AcDbEntity
  8
0
  6
Continuous
 62
     7
370
    15
100
AcDbPolyline
 90
        3
 70
   128
 43
0.0
 10
2788.522718716783
 20
1991.097604568052
 10
2787.990312101027
 20
1990.671804285561
 10
2787.981285702695
 20
1990.660000388182
1001
AcDbBlockRepETag
1070
     1
1071
      382
1005
B78
  0
LINE
  5
B79
330
78A
100
AcDbEntity
  8
0
  6
Continuous
 62
     7
370
    15
100
AcDbLine
 10
2795.905020991087
 20
1995.126894355646
 30
0.0
 11
2795.912169242755
 21
1996.020351011447
 31
0.0
1001
AcDbBlockRepETag
1070
     1
1071
      383
1005
B79
  0
LINE
  5
B7A
330
78A
100
AcDbEntity
  8
0
  6
Continuous
 62
     7
370
    15
100
AcDbLine
 10
2795.905020991087
 20
1995.126894355646
 30
0.0
 11
2788.522718716783
 21
1991.097604568052
 31
0.0
1001
AcDbBlockRepETag
1070
     1
1071
      384
1005
B7A
  0
ARC
  5
B7B
330
78A
100
AcDbEntity
  8
0
  6
Continuous
 62
     7
370
    15
100
AcDbCircle
 10
2798.249500168289
 20
1990.701482215655
 30
0.0
 40
5.008078995094779
100
AcDbArc
 50
51.88057103148803
 51
117.9135896465074
1001
AcDbBlockRepETag
1070
     1
1071
      385
1005
B7B
  0
LINE
  5
B7C
330
78A
100
AcDbEntity
  8
0
  6
Continuous
 62
     7
370
    15
100
AcDbLine
 10
2804.296868875553
 20
1999.707198131288
 30
0.0
 11
2804.304017127221
 21
2000.600654787089
 31
0.0
1001
AcDbBlockRepETag
1070
     1
1071
      386
1005
B7C
  0
LWPOLYLINE
  5
B7D
330
78A
100
AcDbEntity
  8
0
  6
Continuous
 62
     7
370
    15
100
AcDbPolyline
 90
        3
 70
   128
 43
0.0
 10
2804.296868875553
 20
1999.707198131288
 10
2803.764462259798
 20
1999.281397848797
 10
2803.755435861818
 20
1999.269593951885
1001
AcDbBlockRepETag
1070
     1
1071
      387
1005
B7D
  0
LINE
  5
B7E
330
78A
100
AcDbEntity
  8
0
  6
Continuous
 62
     7
370
    15
100
AcDbLine
 10
2811.679171149857
 20
2003.736487918882
 30
0.0
 11
2811.686319401525
 21
2004.629944574683
 31
0.0
1001
AcDbBlockRepETag
1070
     1
1071
      388
1005
B7E
  0
LINE
  5
B7F
330
78A
100
AcDbEntity
  8
0
  6
Continuous
 62
     7
370
    15
100
AcDbLine
 10
2811.679171149857
 20
2003.736487918882
 30
0.0
 11
2804.296868875553
 21
1999.707198131288
 31
0.0
1001
AcDbBlockRepETag
1070
     1
1071
      389
1005
B7F
  0
ARC
  5
B80
330
78A
100
AcDbEntity
  8
0
  6
Continuous
 62
     7
370
    15
100
AcDbCircle
 10
2814.023650327116
 20
1999.311075778447
 30
0.0
 40
5.008078995514122
100
AcDbArc
 50
51.88057103941087
 51
117.9135896447126
1001
AcDbBlockRepETag
1070
     1
1071
      390
1005
B80
  0
LINE
  5
B81
330
78A
100
AcDbEntity
  8
0
  6
Continuous
 62
     7
370
    15
100
AcDbLine
 10
2820.071019034323
 20
2008.316791694524
 30
0.0
 11
2820.07816728599
 21
2009.210248350325
 31
0.0
1001
AcDbBlockRepETag
1070
     1
1071
      391
1005
B81
  0
LWPOLYLINE
  5
B82
330
78A
100
AcDbEntity
  8
0
  6
Continuous
 62
     7
370
    15
100
AcDbPolyline
 90
        3
 70
   128
 43
0.0
 10
2820.071019034323
 20
2008.316791694524
 10
2819.538612418567
 20
2007.890991412033
 10
2819.529586020631
 20
2007.87918751518
1001
AcDbBlockRepETag
1070
     1
1071
      392
1005
B82
  0
LINE
  5
B83
330
78A
100
AcDbEntity
  8
0
  6
Continuous
 62
     7
370
    15
100
AcDbLine
 10
2827.453321308627
 20
2012.346081482118
 30
0.0
 11
2827.460469560295
 21
2013.23953813792
 31
0.0
1001
AcDbBlockRepETag
1070
     1
1071
      393
1005
B83
  0
LINE
  5
B84
330
78A
100
AcDbEntity
  8
0
  6
Continuous
 62
     7
370
    15
100
AcDbLine
 10
2827.453321308627
 20
2012.346081482118
 30
0.0
 11
2820.071019034323
 21
2008.316791694524
 31
0.0
1001
AcDbBlockRepETag
1070
     1
1071
      394
1005
B84
  0
ARC
  5
B85
330
78A
100
AcDbEntity
  8
0
  6
Continuous
 62
     7
370
    15
100
AcDbCircle
 10
2829.797800485804
 20
2007.92066934232
 30
0.0
 40
5.008078994912765
100
AcDbArc
 50
51.88057102804538
 51
117.9135896472998
1001
AcDbBlockRepETag
1070
     1
1071
      395
1005
B85
  0
LINE
  5
B86
330
78A
100
AcDbEntity
  8
0
  6
Continuous
 62
     7
370
    15
100
AcDbLine
 10
2835.845169193093
 20
2016.92638525776
 30
0.0
 11
2835.85231744476
 21
2017.819841913561
 31
0.0
1001
AcDbBlockRepETag
1070
     1
1071
      396
1005
B86
  0
LWPOLYLINE
  5
B87
330
78A
100
AcDbEntity
  8
0
  6
Continuous
 62
     7
370
    15
100
AcDbPolyline
 90
        3
 70
   128
 43
0.0
 10
2835.845169193093
 20
2016.92638525776
 10
2835.312762577337
 20
2016.500584975269
 10
2835.303736179122
 20
2016.488781078046
1001
AcDbBlockRepETag
1070
     1
1071
      397
1005
B87
  0
LINE
  5
B88
330
78A
100
AcDbEntity
  8
0
  6
Continuous
 62
     7
370
    15
100
AcDbLine
 10
2840.07978968731
 20
2020.127212988509
 30
0.0
 11
2840.072641435643
 21
2019.233756332707
 31
0.0
1001
AcDbBlockRepETag
1070
     1
1071
      398
1005
B88
  0
LINE
  5
B89
330
78A
100
AcDbEntity
  8
0
  6
Continuous
 62
     7
370
    15
100
AcDbLine
 10
2840.072641435643
 20
2019.233756332707
 30
0.0
 11
2835.845169193093
 21
2016.92638525776
 31
0.0
1001
AcDbBlockRepETag
1070
     1
1071
      399
1005
B89
  0
LINE
  5
B8A
330
78A
100
AcDbEntity
  8
0
  6
Continuous
 62
     8
370
    15
100
AcDbLine
 10
2222.923030442597
 20
1675.539642802187
 30
0.0
 11
2222.141654019711
 21
1675.113164459251
 31
0.0
1001
AcDbBlockRepETag
1070
     1
1071
      400
1005
B8A
  0
LINE
  5
B8B
330
78A
100
AcDbEntity
  8
0
  6
Continuous
 62
     8
370
    15
100
AcDbLine
 10
2220.711657653552
 20
1671.432914840135
 30
0.0
 11
2221.321627213541
 21
1671.765838639172
 31
0.0
1001
AcDbBlockRepETag
1070
     1
1071
      401
1005
B8B
  0
ENDBLK
  5
78C
330
78A
100
AcDbEntity
  8
0
100
AcDbBlockEnd
  0
ENDSEC
  0
SECTION
  2
ENTITIES
  0
INSERT
  5
6BC
330
1F
100
AcDbEntity
  8
0
100
AcDbBlockReference
  2
1
 10
0.0
 20
0.0
 30
0.0
  0
INSERT
  5
6CD
330
1F
100
AcDbEntity
  8
0
100
AcDbBlockReference
  2
2
 10
0.0
 20
0.0
 30
0.0
  0
INSERT
  5
789
330
1F
100
AcDbEntity
  8
0
100
AcDbBlockReference
  2
3
 10
0.0
 20
0.0
 30
0.0
  0
INSERT
  5
925
330
1F
100
AcDbEntity
  8
0
100
AcDbBlockReference
  2
4
 10
993.4063036100656
 20
194.7385556503902
 30
0.0
  0
ENDSEC
  0
SECTION
  2
OBJECTS
  0
DICTIONARY
  5
C
330
0
100
AcDbDictionary
281
     1
  3
ACAD_COLOR
350
6B
  3
ACAD_GROUP
350
D
  3
ACAD_LAYOUT
350
1A
  3
ACAD_MATERIAL
350
6A
  3
ACAD_MLEADERSTYLE
350
12D
  3
ACAD_MLINESTYLE
350
17
  3
ACAD_PLOTSETTINGS
350
19
  3
ACAD_PLOTSTYLENAME
350
E
  3
ACAD_SCALELIST
350
10C
  3
ACAD_TABLESTYLE
350
7E
  3
ACAD_VISUALSTYLE
350
EF
  3
ACDB_RECOMPOSE_DATA
350
15D
  3
AcDbVariableDictionary
350
5E
  3
DWGPROPS
350
B9C
  0
DICTIONARY
  5
13C
330
10
100
AcDbDictionary
280
     1
281
     1
  3
ADSK_XREC_LAYER_RECONCILED
360
926
  0
DICTIONARY
  5
9EA
330
6CE
100
AcDbDictionary
280
     1
281
     1
  0
DICTIONARY
  5
B8C
330
78A
100
AcDbDictionary
280
     1
281
     1
  0
DICTIONARY
  5
6B
102
{ACAD_REACTORS
330
C
102
}
330
C
100
AcDbDictionary
281
     1
  0
DICTIONARY
  5
D
102
{ACAD_REACTORS
330
C
102
}
330
C
100
AcDbDictionary
281
     1
  0
DICTIONARY
  5
1A
102
{ACAD_REACTORS
330
C
102
}
330
C
100
AcDbDictionary
281
     1
  3
Layout1
350
D3
  3
Layout2
350
D7
  3
Model
350
22
  0
DICTIONARY
  5
6A
102
{ACAD_REACTORS
330
C
102
}
330
C
100
AcDbDictionary
281
     1
  3
ByBlock
350
ED
  3
ByLayer
350
EC
  3
Global
350
EE
  0
DICTIONARY
  5
12D
102
{ACAD_REACTORS
330
C
102
}
330
C
100
AcDbDictionary
281
     1
  3
Annotative
350
13B
  3
Standard
350
12E
  0
DICTIONARY
  5
17
102
{ACAD_REACTORS
330
C
102
}
330
C
100
AcDbDictionary
281
     1
  3
Standard
350
18
  0
DICTIONARY
  5
19
102
{ACAD_REACTORS
330
C
102
}
330
C
100
AcDbDictionary
281
     1
  0
ACDBDICTIONARYWDFLT
  5
E
102
{ACAD_REACTORS
330
C
102
}
330
C
100
AcDbDictionary
281
     1
  3
Normal
350
F
100
AcDbDictionaryWithDefault
340
F
  0
DICTIONARY
  5
10C
102
{ACAD_REACTORS
330
C
102
}
330
C
100
AcDbDictionary
281
     1
  3
A0
350
10D
  3
A1
350
188
  3
A2
350
189
  3
A3
350
18A
  3
A4
350
18B
  3
A5
350
18C
  3
A6
350
18D
  3
A7
350
18E
  3
A8
350
18F
  3
A9
350
190
  3
B0
350
191
  3
B1
350
192
  3
B2
350
193
  3
B3
350
194
  3
B4
350
195
  3
B5
350
196
  3
B6
350
197
  3
B7
350
198
  3
B8
350
199
  3
B9
350
19A
  3
C0
350
19B
  3
C1
350
19C
  3
C2
350
19D
  3
C3
350
19E
  3
C4
350
19F
  3
C5
350
1A0
  3
C6
350
1A1
  3
C7
350
1A2
  3
C8
350
1A3
  3
C9
350
1A4
  3
D0
350
1A5
  3
D1
350
1A6
  3
D2
350
1A7
  0
DICTIONARY
  5
7E
102
{ACAD_REACTORS
330
C
102
}
330
C
100
AcDbDictionary
281
     1
  3
Standard
350
7F
  0
DICTIONARY
  5
EF
102
{ACAD_REACTORS
330
C
102
}
330
C
100
AcDbDictionary
281
     1
  3
2dWireframe
350
F5
  3
3D Hidden
350
F7
  3
3dWireframe
350
F6
  3
Basic
350
F4
  3
Brighten
350
FB
  3
ColorChange
350
FF
  3
Conceptual
350
F8
  3
Dim
350
FA
  3
Facepattern
350
FE
  3
Flat
350
F0
  3
FlatWithEdges
350
F1
  3
Gouraud
350
F2
  3
GouraudWithEdges
350
F3
  3
Linepattern
350
FD
  3
Realistic
350
F9
  3
Thicken
350
FC
  0
XRECORD
  5
15D
102
{ACAD_REACTORS
330
C
102
}
330
C
100
AcDbXrecord
280
     1
 90
        1
330
7F
  0
DICTIONARY
  5
5E
102
{ACAD_REACTORS
330
C
102
}
330
C
100
AcDbDictionary
281
     1
  3
CANNOSCALE
350
146
  3
CMLEADERSTYLE
350
145
  3
CTABLESTYLE
350
84
  3
DIMASSOC
350
5F
  3
HIDETEXT
350
63
  3
INDEXCTL
350
B98
  3
LIGHTINGUNITS
350
B96
  3
MSLTSCALE
350
B95
  3
PSOLHEIGHT
350
B9A
  3
PSOLWIDTH
350
B99
  3
SORTENTS
350
B97
  0
XRECORD
  5
B9C
102
{ACAD_REACTORS
330
C
102
}
330
C
100
AcDbXrecord
280
     1
  1
DWGPROPS COOKIE
  2

  3

  4

  6

  7

  8
orhan kara
  9

300
=
301
=
302
=
303
=
304
=
305
=
306
=
307
=
308
=
309
=
 40
0.0023920138888889
 41
2458570.492838993
 42
2459082.551613449
  1

 90
        0
  0
XRECORD
  5
926
102
{ACAD_REACTORS
330
13C
102
}
330
13C
100
AcDbXrecord
280
     1
290
     1
  0
LAYOUT
  5
D3
102
{ACAD_XDICTIONARY
360
BA0
102
}
102
{ACAD_REACTORS
330
1A
102
}
330
1A
100
AcDbPlotSettings
  1

  2
C:\Documents and Settings\basas\Application Data\Autodesk\AutoCAD 2005\R16.1\enu\plotters\Default Windows System Printer.pc3
  4

  6

 40
0.0
 41
0.0
 42
0.0
 43
0.0
 44
0.0
 45
0.0
 46
0.0
 47
0.0
 48
0.0
 49
0.0
140
0.0
141
0.0
142
1.0
143
1.0
 70
   688
 72
     0
 73
     0
 74
     5
  7

 75
    16
147
1.0
148
0.0
149
0.0
100
AcDbLayout
  1
Layout1
 70
     1
 71
     1
 10
0.0
 20
0.0
 11
12.0
 21
9.0
 12
0.0
 22
0.0
 32
0.0
 14
0.0
 24
0.0
 34
0.0
 15
0.0
 25
0.0
 35
0.0
146
0.0
 13
0.0
 23
0.0
 33
0.0
 16
1.0
 26
0.0
 36
0.0
 17
0.0
 27
1.0
 37
0.0
 76
     0
330
D2
  0
LAYOUT
  5
D7
102
{ACAD_XDICTIONARY
360
BA2
102
}
102
{ACAD_REACTORS
330
1A
102
}
330
1A
100
AcDbPlotSettings
  1

  2
C:\Documents and Settings\basas\Application Data\Autodesk\AutoCAD 2005\R16.1\enu\plotters\Default Windows System Printer.pc3
  4

  6

 40
0.0
 41
0.0
 42
0.0
 43
0.0
 44
0.0
 45
0.0
 46
0.0
 47
0.0
 48
0.0
 49
0.0
140
0.0
141
0.0
142
1.0
143
1.0
 70
   688
 72
     0
 73
     0
 74
     5
  7

 75
    16
147
1.0
148
0.0
149
0.0
100
AcDbLayout
  1
Layout2
 70
     1
 71
     2
 10
0.0
 20
0.0
 11
12.0
 21
9.0
 12
0.0
 22
0.0
 32
0.0
 14
0.0
 24
0.0
 34
0.0
 15
0.0
 25
0.0
 35
0.0
146
0.0
 13
0.0
 23
0.0
 33
0.0
 16
1.0
 26
0.0
 36
0.0
 17
0.0
 27
1.0
 37
0.0
 76
     0
330
D6
  0
LAYOUT
  5
22
102
{ACAD_XDICTIONARY
360
B9D
102
}
102
{ACAD_REACTORS
330
1A
102
}
330
1A
100
AcDbPlotSettings
  1

  2
none_device
  4
ISO_A4_(210.00_x_297.00_MM)
  6

 40
7.5
 41
20.0
 42
7.5
 43
20.0
 44
210.0
 45
297.0
 46
11.54999923706054
 47
-13.65000009536743
 48
0.0
 49
0.0
140
0.0
141
0.0
142
1.0
143
8.704084754739808
 70
 11952
 72
     1
 73
     0
 74
     0
  7

 75
     0
147
0.1148885871608098
148
0.0
149
0.0
100
AcDbLayout
  1
Model
 70
     1
 71
     0
 10
0.0
 20
0.0
 11
12.0
 21
9.0
 12
0.0
 22
0.0
 32
0.0
 14
0.0
 24
0.0
 34
0.0
 15
0.0
 25
0.0
 35
0.0
146
0.0
 13
0.0
 23
0.0
 33
0.0
 16
1.0
 26
0.0
 36
0.0
 17
0.0
 27
1.0
 37
0.0
 76
     0
330
1F
331
EA
1001
ACAD_PSEXT
1000
None
1000
None
1000
Not applicable
1000
The layout will not be plotted unless a new plotter configuration name is selected.
1070
     0
  0
MATERIAL
  5
ED
102
{ACAD_XDICTIONARY
360
BA6
102
}
102
{ACAD_REACTORS
330
6A
102
}
330
6A
100
AcDbMaterial
  1
ByBlock
  0
MATERIAL
  5
EC
102
{ACAD_XDICTIONARY
360
BA4
102
}
102
{ACAD_REACTORS
330
6A
102
}
330
6A
100
AcDbMaterial
  1
ByLayer
  0
MATERIAL
  5
EE
102
{ACAD_XDICTIONARY
360
173
102
}
102
{ACAD_REACTORS
330
6A
102
}
330
6A
100
AcDbMaterial
  1
Global
 43
0.0007999999797903
 43
0.0
 43
0.0
 43
0.0
 43
0.0
 43
0.0007999999797903
 43
0.0
 43
0.0
 43
0.0
 43
0.0
 43
1.0
 43
0.0
 43
0.0
 43
0.0
 43
0.0
 43
1.0
 49
0.0007999999797903
 49
0.0
 49
0.0
 49
0.0
 49
0.0
 49
0.0007999999797903
 49
0.0
 49
0.0
 49
0.0
 49
0.0
 49
1.0
 49
0.0
 49
0.0
 49
0.0
 49
0.0
 49
1.0
142
0.0007999999797903
142
0.0
142
0.0
142
0.0
142
0.0
142
0.0007999999797903
142
0.0
142
0.0
142
0.0
142
0.0
142
1.0
142
0.0
142
0.0
142
0.0
142
0.0
142
1.0
144
0.0007999999797903
144
0.0
144
0.0
144
0.0
144
0.0
144
0.0007999999797903
144
0.0
144
0.0
144
0.0
144
0.0
144
1.0
144
0.0
144
0.0
144
0.0
144
0.0
144
1.0
1001
ACAD
1070
    -1
1070
     3
1070
     0
1000

1071
        0
1070
     0
  0
MLEADERSTYLE
  5
13B
102
{ACAD_REACTORS
330
12D
102
}
330
12D
100
AcDbMLeaderStyle
170
     2
171
     1
172
     0
 90
        2
 40
0.0
 41
0.0
173
     1
 91
-1056964608
340
14
 92
       -2
290
     1
 42
2.0
291
     1
 43
8.0
  3
Standard
 44
4.0
300

342
11
174
     1
178
     1
175
     1
176
     0
 93
-1056964608
 45
4.0
292
     0
297
     0
 46
4.0
 94
-1056964608
 47
1.0
 49
1.0
140
1.0
293
     1
141
0.0
294
     1
177
     0
142
1.0
295
     0
296
     1
143
3.75
1001
ACAD_MLEADERVER
1070
     2
  0
MLEADERSTYLE
  5
12E
102
{ACAD_REACTORS
330
12D
102
}
330
12D
100
AcDbMLeaderStyle
170
     2
171
     1
172
     0
 90
        2
 40
0.0
 41
0.0
173
     1
 91
-1056964608
340
14
 92
       -2
290
     1
 42
2.0
291
     1
 43
8.0
  3
Standard
 44
4.0
300

342
11
174
     1
178
     1
175
     1
176
     0
 93
-1056964608
 45
4.0
292
     0
297
     0
 46
4.0
 94
-1056964608
 47
1.0
 49
1.0
140
1.0
293
     1
141
0.0
294
     1
177
     0
142
1.0
295
     0
296
     0
143
3.75
1001
ACAD_MLEADERVER
1070
     2
  0
MLINESTYLE
  5
18
102
{ACAD_REACTORS
330
17
102
}
330
17
100
AcDbMlineStyle
  2
STANDARD
 70
     0
  3

 62
   256
 51
90.0
 52
90.0
 71
     2
 49
0.5
 62
   256
  6
BYLAYER
 49
-0.5
 62
   256
  6
BYLAYER
  0
ACDBPLACEHOLDER
  5
F
102
{ACAD_REACTORS
330
E
102
}
330
E
  0
SCALE
  5
10D
102
{ACAD_REACTORS
330
10C
102
}
330
10C
100
AcDbScale
 70
     0
300
1:1
140
1.0
141
1.0
290
     1
  0
SCALE
  5
188
102
{ACAD_REACTORS
330
10C
102
}
330
10C
100
AcDbScale
 70
     0
300
1:2
140
1.0
141
2.0
290
     0
  0
SCALE
  5
189
102
{ACAD_REACTORS
330
10C
102
}
330
10C
100
AcDbScale
 70
     0
300
1:4
140
1.0
141
4.0
290
     0
  0
SCALE
  5
18A
102
{ACAD_REACTORS
330
10C
102
}
330
10C
100
AcDbScale
 70
     0
300
1:5
140
1.0
141
5.0
290
     0
  0
SCALE
  5
18B
102
{ACAD_REACTORS
330
10C
102
}
330
10C
100
AcDbScale
 70
     0
300
1:8
140
1.0
141
8.0
290
     0
  0
SCALE
  5
18C
102
{ACAD_REACTORS
330
10C
102
}
330
10C
100
AcDbScale
 70
     0
300
1:10
140
1.0
141
10.0
290
     0
  0
SCALE
  5
18D
102
{ACAD_REACTORS
330
10C
102
}
330
10C
100
AcDbScale
 70
     0
300
1:16
140
1.0
141
16.0
290
     0
  0
SCALE
  5
18E
102
{ACAD_REACTORS
330
10C
102
}
330
10C
100
AcDbScale
 70
     0
300
1:20
140
1.0
141
20.0
290
     0
  0
SCALE
  5
18F
102
{ACAD_REACTORS
330
10C
102
}
330
10C
100
AcDbScale
 70
     0
300
1:30
140
1.0
141
30.0
290
     0
  0
SCALE
  5
190
102
{ACAD_REACTORS
330
10C
102
}
330
10C
100
AcDbScale
 70
     0
300
1:40
140
1.0
141
40.0
290
     0
  0
SCALE
  5
191
102
{ACAD_REACTORS
330
10C
102
}
330
10C
100
AcDbScale
 70
     0
300
1:50
140
1.0
141
50.0
290
     0
  0
SCALE
  5
192
102
{ACAD_REACTORS
330
10C
102
}
330
10C
100
AcDbScale
 70
     0
300
1:100
140
1.0
141
100.0
290
     0
  0
SCALE
  5
193
102
{ACAD_REACTORS
330
10C
102
}
330
10C
100
AcDbScale
 70
     0
300
2:1
140
2.0
141
1.0
290
     0
  0
SCALE
  5
194
102
{ACAD_REACTORS
330
10C
102
}
330
10C
100
AcDbScale
 70
     0
300
4:1
140
4.0
141
1.0
290
     0
  0
SCALE
  5
195
102
{ACAD_REACTORS
330
10C
102
}
330
10C
100
AcDbScale
 70
     0
300
8:1
140
8.0
141
1.0
290
     0
  0
SCALE
  5
196
102
{ACAD_REACTORS
330
10C
102
}
330
10C
100
AcDbScale
 70
     0
300
10:1
140
10.0
141
1.0
290
     0
  0
SCALE
  5
197
102
{ACAD_REACTORS
330
10C
102
}
330
10C
100
AcDbScale
 70
     0
300
100:1
140
100.0
141
1.0
290
     0
  0
SCALE
  5
198
102
{ACAD_REACTORS
330
10C
102
}
330
10C
100
AcDbScale
 70
     0
300
1/128" = 1'-0"
140
0.0078125
141
12.0
290
     0
  0
SCALE
  5
199
102
{ACAD_REACTORS
330
10C
102
}
330
10C
100
AcDbScale
 70
     0
300
1/64" = 1'-0"
140
0.015625
141
12.0
290
     0
  0
SCALE
  5
19A
102
{ACAD_REACTORS
330
10C
102
}
330
10C
100
AcDbScale
 70
     0
300
1/32" = 1'-0"
140
0.03125
141
12.0
290
     0
  0
SCALE
  5
19B
102
{ACAD_REACTORS
330
10C
102
}
330
10C
100
AcDbScale
 70
     0
300
1/16" = 1'-0"
140
0.0625
141
12.0
290
     0
  0
SCALE
  5
19C
102
{ACAD_REACTORS
330
10C
102
}
330
10C
100
AcDbScale
 70
     0
300
3/32" = 1'-0"
140
0.09375
141
12.0
290
     0
  0
SCALE
  5
19D
102
{ACAD_REACTORS
330
10C
102
}
330
10C
100
AcDbScale
 70
     0
300
1/8" = 1'-0"
140
0.125
141
12.0
290
     0
  0
SCALE
  5
19E
102
{ACAD_REACTORS
330
10C
102
}
330
10C
100
AcDbScale
 70
     0
300
3/16" = 1'-0"
140
0.1875
141
12.0
290
     0
  0
SCALE
  5
19F
102
{ACAD_REACTORS
330
10C
102
}
330
10C
100
AcDbScale
 70
     0
300
1/4" = 1'-0"
140
0.25
141
12.0
290
     0
  0
SCALE
  5
1A0
102
{ACAD_REACTORS
330
10C
102
}
330
10C
100
AcDbScale
 70
     0
300
3/8" = 1'-0"
140
0.375
141
12.0
290
     0
  0
SCALE
  5
1A1
102
{ACAD_REACTORS
330
10C
102
}
330
10C
100
AcDbScale
 70
     0
300
1/2" = 1'-0"
140
0.5
141
12.0
290
     0
  0
SCALE
  5
1A2
102
{ACAD_REACTORS
330
10C
102
}
330
10C
100
AcDbScale
 70
     0
300
3/4" = 1'-0"
140
0.75
141
12.0
290
     0
  0
SCALE
  5
1A3
102
{ACAD_REACTORS
330
10C
102
}
330
10C
100
AcDbScale
 70
     0
300
1" = 1'-0"
140
1.0
141
12.0
290
     0
  0
SCALE
  5
1A4
102
{ACAD_REACTORS
330
10C
102
}
330
10C
100
AcDbScale
 70
     0
300
1-1/2" = 1'-0"
140
1.5
141
12.0
290
     0
  0
SCALE
  5
1A5
102
{ACAD_REACTORS
330
10C
102
}
330
10C
100
AcDbScale
 70
     0
300
3" = 1'-0"
140
3.0
141
12.0
290
     0
  0
SCALE
  5
1A6
102
{ACAD_REACTORS
330
10C
102
}
330
10C
100
AcDbScale
 70
     0
300
6" = 1'-0"
140
6.0
141
12.0
290
     0
  0
SCALE
  5
1A7
102
{ACAD_REACTORS
330
10C
102
}
330
10C
100
AcDbScale
 70
     0
300
1'-0" = 1'-0"
140
12.0
141
12.0
290
     0
  0
TABLESTYLE
  5
7F
102
{ACAD_XDICTIONARY
360
162
102
}
102
{ACAD_REACTORS
330
7E
102
}
330
7E
100
AcDbTableStyle
  3
Standard
 70
     0
 71
     0
 40
1.5
 41
1.5
280
     0
281
     0
  7
Standard
140
4.5
170
     2
 62
     0
 63
     7
283
     0
274
    -2
284
     1
 64
     0
275
    -2
285
     1
 65
     0
276
    -2
286
     1
 66
     0
277
    -2
287
     1
 67
     0
278
    -2
288
     1
 68
     0
279
    -2
289
     1
 69
     0
  7
Standard
140
6.0
170
     5
 62
     0
 63
     7
283
     0
274
    -2
284
     1
 64
     0
275
    -2
285
     1
 65
     0
276
    -2
286
     1
 66
     0
277
    -2
287
     1
 67
     0
278
    -2
288
     1
 68
     0
279
    -2
289
     1
 69
     0
  7
Standard
140
4.5
170
     5
 62
     0
 63
     7
283
     0
274
    -2
284
     1
 64
     0
275
    -2
285
     1
 65
     0
276
    -2
286
     1
 66
     0
277
    -2
287
     1
 67
     0
278
    -2
288
     1
 68
     0
279
    -2
289
     1
 69
     0
  0
VISUALSTYLE
  5
F5
102
{ACAD_REACTORS
330
EF
102
}
330
EF
100
AcDbVisualStyle
  2
2dWireframe
 70
     4
 71
     0
 72
     2
 73
     1
 90
        0
 40
-0.6
 41
-30.0
 62
     5
 63
     7
 74
     1
 91
        4
 64
     7
 65
   257
 75
     1
175
     1
 42
1.0
 92
        0
 66
   257
 43
1.0
 76
     1
 77
     6
 78
     2
 67
     7
 79
     5
170
     0
171
     0
290
     0
174
     0
 93
        1
 44
0.0
173
     0
291
     0
 45
0.0
1001
ACAD
1000
AcDbSavedByObjectVersion
1070
     0
  0
VISUALSTYLE
  5
F7
102
{ACAD_REACTORS
330
EF
102
}
330
EF
100
AcDbVisualStyle
  2
3D Hidden
 70
     6
 71
     1
 72
     2
 73
     2
 90
        0
 40
-0.6
 41
-30.0
 62
     5
 63
     7
 74
     2
 91
        2
 64
     7
 65
   257
 75
     2
175
     1
 42
40.0
 92
        0
 66
   257
 43
1.0
 76
     1
 77
     6
 78
     2
 67
     7
 79
     3
170
     0
171
     0
290
     0
174
     0
 93
        1
 44
0.0
173
     0
291
     0
 45
0.0
1001
ACAD
1000
AcDbSavedByObjectVersion
1070
     0
  0
VISUALSTYLE
  5
F6
102
{ACAD_REACTORS
330
EF
102
}
330
EF
100
AcDbVisualStyle
  2
3dWireframe
 70
     5
 71
     0
 72
     2
 73
     1
 90
        0
 40
-0.6
 41
-30.0
 62
     5
 63
     7
 74
     1
 91
        4
 64
     7
 65
   257
 75
     1
175
     1
 42
1.0
 92
        0
 66
   257
 43
1.0
 76
     1
 77
     6
 78
     2
 67
     7
 79
     5
170
     0
171
     0
290
     0
174
     0
 93
        1
 44
0.0
173
     0
291
     0
 45
0.0
1001
ACAD
1000
AcDbSavedByObjectVersion
1070
     0
  0
VISUALSTYLE
  5
F4
102
{ACAD_REACTORS
330
EF
102
}
330
EF
100
AcDbVisualStyle
  2
Basic
 70
     7
 71
     1
 72
     0
 73
     1
 90
        0
 40
-0.6
 41
-30.0
 62
     5
 63
     7
 74
     0
 91
        4
 64
     7
 65
   257
 75
     1
175
     1
 42
1.0
 92
        8
 66
     7
 43
1.0
 76
     1
 77
     6
 78
     2
 67
     7
 79
     5
170
     0
171
     0
290
     0
174
     0
 93
        1
 44
0.0
173
     0
291
     1
 45
0.0
1001
ACAD
1000
AcDbSavedByObjectVersion
1070
     0
  0
VISUALSTYLE
  5
FB
102
{ACAD_REACTORS
330
EF
102
}
330
EF
100
AcDbVisualStyle
  2
Brighten
 70
    12
 71
     2
 72
     2
 73
     1
 90
        0
 40
-0.6
 41
-30.0
 62
     5
 63
     7
 74
     1
 91
        4
 64
     7
 65
   257
 75
     1
175
     1
 42
1.0
 92
        8
 66
     7
 43
1.0
 76
     1
 77
     6
 78
     2
 67
     7
 79
     5
170
     0
171
     0
290
     0
174
     0
 93
        1
 44
50.0
173
     0
291
     1
 45
0.0
1001
ACAD
1000
AcDbSavedByObjectVersion
1070
     0
  0
VISUALSTYLE
  5
FF
102
{ACAD_REACTORS
330
EF
102
}
330
EF
100
AcDbVisualStyle
  2
ColorChange
 70
    16
 71
     2
 72
     2
 73
     3
 90
        0
 40
-0.6
 41
-30.0
 62
     5
 63
     8
 74
     1
 91
        4
 64
     7
 65
   257
 75
     1
175
     1
 42
1.0
 92
        8
 66
     8
 43
1.0
 76
     1
 77
     6
 78
     2
 67
     7
 79
     5
170
     0
171
     0
290
     0
174
     0
 93
        1
 44
0.0
173
     0
291
     1
 45
0.0
1001
ACAD
1000
AcDbSavedByObjectVersion
1070
     0
  0
VISUALSTYLE
  5
F8
102
{ACAD_REACTORS
330
EF
102
}
330
EF
100
AcDbVisualStyle
  2
Conceptual
 70
     9
 71
     3
 72
     2
 73
     1
 90
        0
 40
-0.6
 41
-30.0
 62
     5
 63
     7
 74
     2
 91
        2
 64
     7
 65
   257
 75
     1
175
     1
 42
40.0
 92
        8
 66
     7
 43
1.0
 76
     1
 77
     6
 78
     2
 67
     7
 79
     3
170
     0
171
     0
290
     0
174
     0
 93
        1
 44
0.0
173
     0
291
     0
 45
0.0
1001
ACAD
1000
AcDbSavedByObjectVersion
1070
     0
  0
VISUALSTYLE
  5
FA
102
{ACAD_REACTORS
330
EF
102
}
330
EF
100
AcDbVisualStyle
  2
Dim
 70
    11
 71
     2
 72
     2
 73
     1
 90
        0
 40
-0.6
 41
-30.0
 62
     5
 63
     7
 74
     1
 91
        4
 64
     7
 65
   257
 75
     1
175
     1
 42
1.0
 92
        8
 66
     7
 43
1.0
 76
     1
 77
     6
 78
     2
 67
     7
 79
     5
170
     0
171
     0
290
     0
174
     0
 93
        1
 44
-50.0
173
     0
291
     1
 45
0.0
1001
ACAD
1000
AcDbSavedByObjectVersion
1070
     0
  0
VISUALSTYLE
  5
FE
102
{ACAD_REACTORS
330
EF
102
}
330
EF
100
AcDbVisualStyle
  2
Facepattern
 70
    15
 71
     2
 72
     2
 73
     1
 90
        0
 40
-0.6
 41
-30.0
 62
     5
 63
     7
 74
     1
 91
        4
 64
     7
 65
   257
 75
     1
175
     1
 42
1.0
 92
        8
 66
     7
 43
1.0
 76
     1
 77
     6
 78
     2
 67
     7
 79
     5
170
     0
171
     0
290
     0
174
     0
 93
        1
 44
0.0
173
     0
291
     1
 45
0.0
1001
ACAD
1000
AcDbSavedByObjectVersion
1070
     0
  0
VISUALSTYLE
  5
F0
102
{ACAD_REACTORS
330
EF
102
}
330
EF
100
AcDbVisualStyle
  2
Flat
 70
     0
 71
     2
 72
     1
 73
     1
 90
        2
 40
-0.6
 41
30.0
 62
     5
 63
     7
 74
     0
 91
        4
 64
     7
 65
   257
 75
     1
175
     1
 42
1.0
 92
        8
 66
     7
 43
1.0
 76
     1
 77
     6
 78
     2
 67
     7
 79
     5
170
     0
171
     0
290
     0
174
     0
 93
        1
 44
0.0
173
     0
291
     1
 45
0.0
1001
ACAD
1000
AcDbSavedByObjectVersion
1070
     0
  0
VISUALSTYLE
  5
F1
102
{ACAD_REACTORS
330
EF
102
}
330
EF
100
AcDbVisualStyle
  2
FlatWithEdges
 70
     1
 71
     2
 72
     1
 73
     1
 90
        2
 40
-0.6
 41
30.0
 62
     5
 63
     7
 74
     1
 91
        4
 64
     7
 65
   257
 75
     1
175
     1
 42
1.0
 92
        0
 66
   257
 43
1.0
 76
     1
 77
     6
 78
     2
 67
     7
 79
     5
170
     0
171
     0
290
     0
174
     0
 93
        1
 44
0.0
173
     0
291
     1
 45
0.0
1001
ACAD
1000
AcDbSavedByObjectVersion
1070
     0
  0
VISUALSTYLE
  5
F2
102
{ACAD_REACTORS
330
EF
102
}
330
EF
100
AcDbVisualStyle
  2
Gouraud
 70
     2
 71
     2
 72
     2
 73
     1
 90
        2
 40
-0.6
 41
30.0
 62
     5
 63
     7
 74
     0
 91
        4
 64
     7
 65
   257
 75
     1
175
     1
 42
1.0
 92
        0
 66
     7
 43
1.0
 76
     1
 77
     6
 78
     2
 67
     7
 79
     5
170
     0
171
     0
290
     0
174
     0
 93
        1
 44
0.0
173
     0
291
     1
 45
0.0
1001
ACAD
1000
AcDbSavedByObjectVersion
1070
     0
  0
VISUALSTYLE
  5
F3
102
{ACAD_REACTORS
330
EF
102
}
330
EF
100
AcDbVisualStyle
  2
GouraudWithEdges
 70
     3
 71
     2
 72
     2
 73
     1
 90
        2
 40
-0.6
 41
30.0
 62
     5
 63
     7
 74
     1
 91
        4
 64
     7
 65
   257
 75
     1
175
     1
 42
1.0
 92
        0
 66
   257
 43
1.0
 76
     1
 77
     6
 78
     2
 67
     7
 79
     5
170
     0
171
     0
290
     0
174
     0
 93
        1
 44
0.0
173
     0
291
     1
 45
0.0
1001
ACAD
1000
AcDbSavedByObjectVersion
1070
     0
  0
VISUALSTYLE
  5
FD
102
{ACAD_REACTORS
330
EF
102
}
330
EF
100
AcDbVisualStyle
  2
Linepattern
 70
    14
 71
     2
 72
     2
 73
     1
 90
        0
 40
-0.6
 41
-30.0
 62
     5
 63
     7
 74
     1
 91
        4
 64
     7
 65
   257
 75
     7
175
     7
 42
1.0
 92
        8
 66
     7
 43
1.0
 76
     1
 77
     6
 78
     2
 67
     7
 79
     5
170
     0
171
     0
290
     0
174
     0
 93
        1
 44
0.0
173
     0
291
     1
 45
0.0
1001
ACAD
1000
AcDbSavedByObjectVersion
1070
     0
  0
VISUALSTYLE
  5
F9
102
{ACAD_REACTORS
330
EF
102
}
330
EF
100
AcDbVisualStyle
  2
Realistic
 70
     8
 71
     2
 72
     2
 73
     1
 90
        0
 40
-0.6
 41
-30.0
 62
     5
 63
     7
 74
     1
 91
        0
 64
     7
 65
   257
 75
     1
175
     1
 42
1.0
 92
        8
 66
     8
 43
1.0
 76
     1
 77
     6
 78
     2
 67
     7
 79
     5
170
     0
171
     0
290
     0
174
     0
 93
       13
 44
0.0
173
     0
291
     0
 45
0.0
1001
ACAD
1000
AcDbSavedByObjectVersion
1070
     0
  0
VISUALSTYLE
  5
FC
102
{ACAD_REACTORS
330
EF
102
}
330
EF
100
AcDbVisualStyle
  2
Thicken
 70
    13
 71
     2
 72
     2
 73
     1
 90
        0
 40
-0.6
 41
-30.0
 62
     5
 63
     7
 74
     1
 91
        4
 64
     7
 65
   257
 75
     1
175
     1
 42
1.0
 92
       12
 66
     7
 43
1.0
 76
     1
 77
     6
 78
     2
 67
     7
 79
     5
170
     0
171
     0
290
     0
174
     0
 93
        1
 44
0.0
173
     0
291
     1
 45
0.0
1001
ACAD
1000
AcDbSavedByObjectVersion
1070
     0
  0
DICTIONARYVAR
  5
146
102
{ACAD_REACTORS
330
5E
102
}
330
5E
100
DictionaryVariables
280
     0
  1
1:1
  0
DICTIONARYVAR
  5
145
102
{ACAD_REACTORS
330
5E
102
}
330
5E
100
DictionaryVariables
280
     0
  1
STANDARD
  0
DICTIONARYVAR
  5
84
102
{ACAD_REACTORS
330
5E
102
}
330
5E
100
DictionaryVariables
280
     0
  1
STANDARD
  0
DICTIONARYVAR
  5
5F
102
{ACAD_REACTORS
330
5E
102
}
330
5E
100
DictionaryVariables
280
     0
  1
2
  0
DICTIONARYVAR
  5
63
102
{ACAD_REACTORS
330
5E
102
}
330
5E
100
DictionaryVariables
280
     0
  1
1
  0
DICTIONARYVAR
  5
B98
102
{ACAD_REACTORS
330
5E
102
}
330
5E
100
DictionaryVariables
280
     0
  1
0
  0
DICTIONARYVAR
  5
B96
102
{ACAD_REACTORS
330
5E
102
}
330
5E
100
DictionaryVariables
280
     0
  1
2
  0
DICTIONARYVAR
  5
B95
102
{ACAD_REACTORS
330
5E
102
}
330
5E
100
DictionaryVariables
280
     0
  1
1
  0
DICTIONARYVAR
  5
B9A
102
{ACAD_REACTORS
330
5E
102
}
330
5E
100
DictionaryVariables
280
     0
  1
80.000000
  0
DICTIONARYVAR
  5
B99
102
{ACAD_REACTORS
330
5E
102
}
330
5E
100
DictionaryVariables
280
     0
  1
5.000000
  0
DICTIONARYVAR
  5
B97
102
{ACAD_REACTORS
330
5E
102
}
330
5E
100
DictionaryVariables
280
     0
  1
127
  0
DICTIONARY
  5
BA0
330
D3
100
AcDbDictionary
280
     1
281
     1
  3
ACAD_XREC_ROUNDTRIP
360
BA1
  0
DICTIONARY
  5
BA2
330
D7
100
AcDbDictionary
280
     1
281
     1
  3
ACAD_XREC_ROUNDTRIP
360
BA3
  0
DICTIONARY
  5
B9D
330
22
100
AcDbDictionary
280
     1
281
     1
  3
ACAD_XREC_ROUNDTRIP
360
B9E
  0
DICTIONARY
  5
BA6
330
ED
100
AcDbDictionary
280
     1
281
     1
  3
ACAD_XREC_ROUNDTRIP
360
BA7
  0
DICTIONARY
  5
BA4
330
EC
100
AcDbDictionary
280
     1
281
     1
  3
ACAD_XREC_ROUNDTRIP
360
BA5
  0
DICTIONARY
  5
173
330
EE
100
AcDbDictionary
280
     1
281
     1
  3
ACAD_XREC_ROUNDTRIP
360
BA8
  3
BUMPTILE
360
175
  3
DIFFUSETILE
360
174
  3
OPACITYTILE
360
176
  3
REFLECTIONTILE
360
177
  0
DICTIONARY
  5
162
330
7F
100
AcDbDictionary
280
     1
281
     1
  3
ACAD_ROUNDTRIP_2008_TABLESTYLE_CELLSTYLEMAP
360
B9B
  3
ACAD_XREC_ROUNDTRIP
360
B9F
  0
XRECORD
  5
BA1
102
{ACAD_REACTORS
330
BA0
102
}
330
BA0
100
AcDbXrecord
280
     1
102
SHADEPLOT
 70
     0
102
SHADEPLOTRESLEVEL
 70
     2
102
SHADEPLOTCUSTOMDPI
 70
   300
  0
XRECORD
  5
BA3
102
{ACAD_REACTORS
330
BA2
102
}
330
BA2
100
AcDbXrecord
280
     1
102
SHADEPLOT
 70
     0
102
SHADEPLOTRESLEVEL
 70
     2
102
SHADEPLOTCUSTOMDPI
 70
   300
  0
XRECORD
  5
B9E
102
{ACAD_REACTORS
330
B9D
102
}
330
B9D
100
AcDbXrecord
280
     1
102
SHADEPLOT
 70
     0
102
SHADEPLOTRESLEVEL
 70
     2
102
SHADEPLOTCUSTOMDPI
 70
   300
  0
XRECORD
  5
BA7
102
{ACAD_REACTORS
330
BA6
102
}
330
BA6
100
AcDbXrecord
280
     1
102
MATERIAL
148
0.0
149
0.0
149
0.0
 93
        0
 94
       63
282
     0
 72
     1
 77
     1
171
     1
175
     1
179
     1
273
     0
  0
XRECORD
  5
BA5
102
{ACAD_REACTORS
330
BA4
102
}
330
BA4
100
AcDbXrecord
280
     1
102
MATERIAL
148
0.0
149
0.0
149
0.0
 93
        0
 94
       63
282
     0
 72
     1
 77
     1
171
     1
175
     1
179
     1
273
     0
  0
XRECORD
  5
BA8
102
{ACAD_REACTORS
330
173
102
}
330
173
100
AcDbXrecord
280
     1
102
MATERIAL
148
0.0
149
0.0
149
0.0
 93
        0
 94
       63
282
     0
 72
     1
 77
     1
171
     1
175
     1
179
     1
273
     0
  0
XRECORD
  5
175
102
{ACAD_REACTORS
330
173
102
}
330
173
100
AcDbXrecord
280
     1
270
     1
271
     1
  0
XRECORD
  5
174
102
{ACAD_REACTORS
330
173
102
}
330
173
100
AcDbXrecord
280
     1
270
     1
271
     1
  0
XRECORD
  5
176
102
{ACAD_REACTORS
330
173
102
}
330
173
100
AcDbXrecord
280
     1
270
     1
271
     1
  0
XRECORD
  5
177
102
{ACAD_REACTORS
330
173
102
}
330
173
100
AcDbXrecord
280
     1
270
     1
271
     1
  0
CELLSTYLEMAP
  5
B9B
102
{ACAD_REACTORS
330
162
102
}
330
162
100
AcDbCellStyleMap
 90
        3
300
CELLSTYLE
  1
TABLEFORMAT_BEGIN
 90
        5
170
     1
 91
        0
 92
    32768
 62
   257
 93
        1
300
CONTENTFORMAT
  1
CONTENTFORMAT_BEGIN
 90
        0
 91
        0
 92
      512
 93
        0
300

 40
0.0
140
1.0
 94
        5
 62
     0
340
11
144
6.0
309
CONTENTFORMAT_END
171
     1
301
MARGIN
  1
CELLMARGIN_BEGIN
 40
1.5
 40
1.5
 40
1.5
 40
1.5
 40
4.5
 40
4.5
309
CELLMARGIN_END
 94
        6
 95
        1
302
GRIDFORMAT
  1
GRIDFORMAT_BEGIN
 90
        0
 91
        1
 62
     0
 92
       -2
340
14
 93
        0
 40
1.125
309
GRIDFORMAT_END
 95
        2
302
GRIDFORMAT
  1
GRIDFORMAT_BEGIN
 90
        0
 91
        1
 62
     0
 92
       -2
340
14
 93
        0
 40
1.125
309
GRIDFORMAT_END
 95
        4
302
GRIDFORMAT
  1
GRIDFORMAT_BEGIN
 90
        0
 91
        1
 62
     0
 92
       -2
340
14
 93
        0
 40
1.125
309
GRIDFORMAT_END
 95
        8
302
GRIDFORMAT
  1
GRIDFORMAT_BEGIN
 90
        0
 91
        1
 62
     0
 92
       -2
340
14
 93
        0
 40
1.125
309
GRIDFORMAT_END
 95
       16
302
GRIDFORMAT
  1
GRIDFORMAT_BEGIN
 90
        0
 91
        1
 62
     0
 92
       -2
340
14
 93
        0
 40
1.125
309
GRIDFORMAT_END
 95
       32
302
GRIDFORMAT
  1
GRIDFORMAT_BEGIN
 90
        0
 91
        1
 62
     0
 92
       -2
340
14
 93
        0
 40
1.125
309
GRIDFORMAT_END
309
TABLEFORMAT_END
  1
CELLSTYLE_BEGIN
 90
        1
 91
        1
300
_TITLE
309
CELLSTYLE_END
300
CELLSTYLE
  1
TABLEFORMAT_BEGIN
 90
        5
170
     1
 91
        0
 92
        0
 62
   257
 93
        1
300
CONTENTFORMAT
  1
CONTENTFORMAT_BEGIN
 90
        0
 91
        0
 92
      512
 93
        0
300

 40
0.0
140
1.0
 94
        5
 62
     0
340
11
144
4.5
309
CONTENTFORMAT_END
171
     1
301
MARGIN
  1
CELLMARGIN_BEGIN
 40
1.5
 40
1.5
 40
1.5
 40
1.5
 40
4.5
 40
4.5
309
CELLMARGIN_END
 94
        6
 95
        1
302
GRIDFORMAT
  1
GRIDFORMAT_BEGIN
 90
        0
 91
        1
 62
     0
 92
       -2
340
14
 93
        0
 40
1.125
309
GRIDFORMAT_END
 95
        2
302
GRIDFORMAT
  1
GRIDFORMAT_BEGIN
 90
        0
 91
        1
 62
     0
 92
       -2
340
14
 93
        0
 40
1.125
309
GRIDFORMAT_END
 95
        4
302
GRIDFORMAT
  1
GRIDFORMAT_BEGIN
 90
        0
 91
        1
 62
     0
 92
       -2
340
14
 93
        0
 40
1.125
309
GRIDFORMAT_END
 95
        8
302
GRIDFORMAT
  1
GRIDFORMAT_BEGIN
 90
        0
 91
        1
 62
     0
 92
       -2
340
14
 93
        0
 40
1.125
309
GRIDFORMAT_END
 95
       16
302
GRIDFORMAT
  1
GRIDFORMAT_BEGIN
 90
        0
 91
        1
 62
     0
 92
       -2
340
14
 93
        0
 40
1.125
309
GRIDFORMAT_END
 95
       32
302
GRIDFORMAT
  1
GRIDFORMAT_BEGIN
 90
        0
 91
        1
 62
     0
 92
       -2
340
14
 93
        0
 40
1.125
309
GRIDFORMAT_END
309
TABLEFORMAT_END
  1
CELLSTYLE_BEGIN
 90
        2
 91
        1
300
_HEADER
309
CELLSTYLE_END
300
CELLSTYLE
  1
TABLEFORMAT_BEGIN
 90
        5
170
     1
 91
        0
 92
        0
 62
   257
 93
        1
300
CONTENTFORMAT
  1
CONTENTFORMAT_BEGIN
 90
        0
 91
        0
 92
      512
 93
        0
300

 40
0.0
140
1.0
 94
        2
 62
     0
340
11
144
4.5
309
CONTENTFORMAT_END
171
     1
301
MARGIN
  1
CELLMARGIN_BEGIN
 40
1.5
 40
1.5
 40
1.5
 40
1.5
 40
4.5
 40
4.5
309
CELLMARGIN_END
 94
        6
 95
        1
302
GRIDFORMAT
  1
GRIDFORMAT_BEGIN
 90
        0
 91
        1
 62
     0
 92
       -2
340
14
 93
        0
 40
1.125
309
GRIDFORMAT_END
 95
        2
302
GRIDFORMAT
  1
GRIDFORMAT_BEGIN
 90
        0
 91
        1
 62
     0
 92
       -2
340
14
 93
        0
 40
1.125
309
GRIDFORMAT_END
 95
        4
302
GRIDFORMAT
  1
GRIDFORMAT_BEGIN
 90
        0
 91
        1
 62
     0
 92
       -2
340
14
 93
        0
 40
1.125
309
GRIDFORMAT_END
 95
        8
302
GRIDFORMAT
  1
GRIDFORMAT_BEGIN
 90
        0
 91
        1
 62
     0
 92
       -2
340
14
 93
        0
 40
1.125
309
GRIDFORMAT_END
 95
       16
302
GRIDFORMAT
  1
GRIDFORMAT_BEGIN
 90
        0
 91
        1
 62
     0
 92
       -2
340
14
 93
        0
 40
1.125
309
GRIDFORMAT_END
 95
       32
302
GRIDFORMAT
  1
GRIDFORMAT_BEGIN
 90
        0
 91
        1
 62
     0
 92
       -2
340
14
 93
        0
 40
1.125
309
GRIDFORMAT_END
309
TABLEFORMAT_END
  1
CELLSTYLE_BEGIN
 90
        3
 91
        2
300
_DATA
309
CELLSTYLE_END
  0
XRECORD
  5
B9F
102
{ACAD_REACTORS
330
162
102
}
330
162
100
AcDbXrecord
280
     1
102
ACAD_ROUNDTRIP_PRE2007_TABLESTYLE
 90
      512
 91
        0
  1

 92
      512
 93
        0
  2

 94
      512
 95
        0
  3

  0
ENDSEC
  0
EOF
