  0
SECTION
  2
HEADER
  9
$ACADVER
  1
AC1015
  9
$ACADMAINTVER
 70
    20
  9
$DWGCODEPAGE
  3
ANSI_1254
  9
$INSBASE
 10
0.0
 20
0.0
 30
0.0
  9
$EXTMIN
 10
1881.597456974817
 20
1155.959433825889
 30
0.0
  9
$EXTMAX
 10
7374.702987673268
 20
4186.593687380708
 30
0.0
  9
$LIMMIN
 10
0.0
 20
0.0
  9
$LIMMAX
 10
420.0
 20
297.0
  9
$ORTHOMODE
 70
     0
  9
$REGENMODE
 70
     1
  9
$FILLMODE
 70
     1
  9
$QTEXTMODE
 70
     0
  9
$MIRRTEXT
 70
     0
  9
$LTSCALE
 40
1.0
  9
$ATTMODE
 70
     1
  9
$TEXTSIZE
 40
2.5
  9
$TRACEWID
 40
1.0
  9
$TEXTSTYLE
  7
Standard
  9
$CLAYER
  8
0
  9
$CELTYPE
  6
ByLayer
  9
$CECOLOR
 62
   256
  9
$CELTSCALE
 40
1.0
  9
$DISPSILH
 70
     0
  9
$DIMSCALE
 40
1.0
  9
$DIMASZ
 40
2.5
  9
$DIMEXO
 40
0.625
  9
$DIMDLI
 40
3.75
  9
$DIMRND
 40
0.0
  9
$DIMDLE
 40
0.0
  9
$DIMEXE
 40
1.25
  9
$DIMTP
 40
0.0
  9
$DIMTM
 40
0.0
  9
$DIMTXT
 40
2.5
  9
$DIMCEN
 40
2.5
  9
$DIMTSZ
 40
0.0
  9
$DIMTOL
 70
     0
  9
$DIMLIM
 70
     0
  9
$DIMTIH
 70
     0
  9
$DIMTOH
 70
     0
  9
$DIMSE1
 70
     0
  9
$DIMSE2
 70
     0
  9
$DIMTAD
 70
     1
  9
$DIMZIN
 70
     8
  9
$DIMBLK
  1

  9
$DIMASO
 70
     1
  9
$DIMSHO
 70
     1
  9
$DIMPOST
  1

  9
$DIMAPOST
  1

  9
$DIMALT
 70
     0
  9
$DIMALTD
 70
     3
  9
$DIMALTF
 40
0.03937007874016
  9
$DIMLFAC
 40
1.0
  9
$DIMTOFL
 70
     1
  9
$DIMTVP
 40
0.0
  9
$DIMTIX
 70
     0
  9
$DIMSOXD
 70
     0
  9
$DIMSAH
 70
     0
  9
$DIMBLK1
  1

  9
$DIMBLK2
  1

  9
$DIMSTYLE
  2
ISO-25
  9
$DIMCLRD
 70
     0
  9
$DIMCLRE
 70
     0
  9
$DIMCLRT
 70
     0
  9
$DIMTFAC
 40
1.0
  9
$DIMGAP
 40
0.625
  9
$DIMJUST
 70
     0
  9
$DIMSD1
 70
     0
  9
$DIMSD2
 70
     0
  9
$DIMTOLJ
 70
     0
  9
$DIMTZIN
 70
     8
  9
$DIMALTZ
 70
     0
  9
$DIMALTTZ
 70
     0
  9
$DIMUPT
 70
     0
  9
$DIMDEC
 70
     2
  9
$DIMTDEC
 70
     2
  9
$DIMALTU
 70
     2
  9
$DIMALTTD
 70
     3
  9
$DIMTXSTY
  7
Standard
  9
$DIMAUNIT
 70
     0
  9
$DIMADEC
 70
     0
  9
$DIMALTRND
 40
0.0
  9
$DIMAZIN
 70
     0
  9
$DIMDSEP
 70
    44
  9
$DIMATFIT
 70
     3
  9
$DIMFRAC
 70
     0
  9
$DIMLDRBLK
  1

  9
$DIMLUNIT
 70
     2
  9
$DIMLWD
 70
    -2
  9
$DIMLWE
 70
    -2
  9
$DIMTMOVE
 70
     0
  9
$LUNITS
 70
     2
  9
$LUPREC
 70
     4
  9
$SKETCHINC
 40
1.0
  9
$FILLETRAD
 40
0.0
  9
$AUNITS
 70
     0
  9
$AUPREC
 70
     0
  9
$MENU
  1
.
  9
$ELEVATION
 40
0.0
  9
$PELEVATION
 40
0.0
  9
$THICKNESS
 40
0.0
  9
$LIMCHECK
 70
     0
  9
$CHAMFERA
 40
0.0
  9
$CHAMFERB
 40
0.0
  9
$CHAMFERC
 40
0.0
  9
$CHAMFERD
 40
0.0
  9
$SKPOLY
 70
     0
  9
$TDCREATE
 40
2458489.349844155
  9
$TDUCREATE
 40
2458489.224844155
  9
$TDUPDATE
 40
2459082.591101296
  9
$TDUUPDATE
 40
2459082.466101296
  9
$TDINDWG
 40
0.0025135764
  9
$TDUSRTIMER
 40
0.0025135764
  9
$USRTIMER
 70
     1
  9
$ANGBASE
 50
0.0
  9
$ANGDIR
 70
     0
  9
$PDMODE
 70
     0
  9
$PDSIZE
 40
0.0
  9
$PLINEWID
 40
0.0
  9
$SPLFRAME
 70
     0
  9
$SPLINETYPE
 70
     6
  9
$SPLINESEGS
 70
     8
  9
$HANDSEED
  5
724
  9
$SURFTAB1
 70
     6
  9
$SURFTAB2
 70
     6
  9
$SURFTYPE
 70
     6
  9
$SURFU
 70
     6
  9
$SURFV
 70
     6
  9
$UCSBASE
  2

  9
$UCSNAME
  2

  9
$UCSORG
 10
0.0
 20
0.0
 30
0.0
  9
$UCSXDIR
 10
1.0
 20
0.0
 30
0.0
  9
$UCSYDIR
 10
0.0
 20
1.0
 30
0.0
  9
$UCSORTHOREF
  2

  9
$UCSORTHOVIEW
 70
     0
  9
$UCSORGTOP
 10
0.0
 20
0.0
 30
0.0
  9
$UCSORGBOTTOM
 10
0.0
 20
0.0
 30
0.0
  9
$UCSORGLEFT
 10
0.0
 20
0.0
 30
0.0
  9
$UCSORGRIGHT
 10
0.0
 20
0.0
 30
0.0
  9
$UCSORGFRONT
 10
0.0
 20
0.0
 30
0.0
  9
$UCSORGBACK
 10
0.0
 20
0.0
 30
0.0
  9
$PUCSBASE
  2

  9
$PUCSNAME
  2

  9
$PUCSORG
 10
0.0
 20
0.0
 30
0.0
  9
$PUCSXDIR
 10
1.0
 20
0.0
 30
0.0
  9
$PUCSYDIR
 10
0.0
 20
1.0
 30
0.0
  9
$PUCSORTHOREF
  2

  9
$PUCSORTHOVIEW
 70
     0
  9
$PUCSORGTOP
 10
0.0
 20
0.0
 30
0.0
  9
$PUCSORGBOTTOM
 10
0.0
 20
0.0
 30
0.0
  9
$PUCSORGLEFT
 10
0.0
 20
0.0
 30
0.0
  9
$PUCSORGRIGHT
 10
0.0
 20
0.0
 30
0.0
  9
$PUCSORGFRONT
 10
0.0
 20
0.0
 30
0.0
  9
$PUCSORGBACK
 10
0.0
 20
0.0
 30
0.0
  9
$USERI1
 70
     0
  9
$USERI2
 70
     0
  9
$USERI3
 70
     0
  9
$USERI4
 70
     0
  9
$USERI5
 70
     0
  9
$USERR1
 40
0.0
  9
$USERR2
 40
0.0
  9
$USERR3
 40
0.0
  9
$USERR4
 40
0.0
  9
$USERR5
 40
0.0
  9
$WORLDVIEW
 70
     1
  9
$SHADEDGE
 70
     3
  9
$SHADEDIF
 70
    70
  9
$TILEMODE
 70
     1
  9
$MAXACTVP
 70
    64
  9
$PINSBASE
 10
0.0
 20
0.0
 30
0.0
  9
$PLIMCHECK
 70
     0
  9
$PEXTMIN
 10
0.0
 20
0.0
 30
0.0
  9
$PEXTMAX
 10
0.0
 20
0.0
 30
0.0
  9
$PLIMMIN
 10
0.0
 20
0.0
  9
$PLIMMAX
 10
12.0
 20
9.0
  9
$UNITMODE
 70
     0
  9
$VISRETAIN
 70
     1
  9
$PLINEGEN
 70
     0
  9
$PSLTSCALE
 70
     1
  9
$TREEDEPTH
 70
  3020
  9
$CMLSTYLE
  2
Standard
  9
$CMLJUST
 70
     0
  9
$CMLSCALE
 40
20.0
  9
$PROXYGRAPHICS
 70
     1
  9
$MEASUREMENT
 70
     1
  9
$CELWEIGHT
370
    -1
  9
$ENDCAPS
280
     0
  9
$JOINSTYLE
280
     0
  9
$LWDISPLAY
290
     0
  9
$INSUNITS
 70
     4
  9
$HYPERLINKBASE
  1

  9
$STYLESHEET
  1

  9
$XEDIT
290
     1
  9
$CEPSNTYPE
380
     0
  9
$PSTYLEMODE
290
     1
  9
$FINGERPRINTGUID
  2
{8B73DBC2-9016-4FA2-8EDD-B71CC899F737}
  9
$VERSIONGUID
  2
{3B32E6AC-7471-4E5C-BEA7-7D8D032D67B0}
  9
$EXTNAMES
290
     1
  9
$PSVPSCALE
 40
0.0
  9
$OLESTARTUP
290
     0
  0
ENDSEC
  0
SECTION
  2
CLASSES
  0
CLASS
  1
ACDBDICTIONARYWDFLT
  2
AcDbDictionaryWithDefault
  3
ObjectDBX Classes
 90
        0
280
     0
281
     0
  0
CLASS
  1
ACDBPLACEHOLDER
  2
AcDbPlaceHolder
  3
ObjectDBX Classes
 90
        0
280
     0
281
     0
  0
CLASS
  1
LAYOUT
  2
AcDbLayout
  3
ObjectDBX Classes
 90
        0
280
     0
281
     0
  0
CLASS
  1
DICTIONARYVAR
  2
AcDbDictionaryVar
  3
ObjectDBX Classes
 90
        0
280
     0
281
     0
  0
CLASS
  1
TABLESTYLE
  2
AcDbTableStyle
  3
ObjectDBX Classes
 90
     4095
280
     0
281
     0
  0
CLASS
  1
MATERIAL
  2
AcDbMaterial
  3
ObjectDBX Classes
 90
     1153
280
     0
281
     0
  0
CLASS
  1
VISUALSTYLE
  2
AcDbVisualStyle
  3
ObjectDBX Classes
 90
     4095
280
     0
281
     0
  0
CLASS
  1
SCALE
  2
AcDbScale
  3
ObjectDBX Classes
 90
     1153
280
     0
281
     0
  0
CLASS
  1
MLEADERSTYLE
  2
AcDbMLeaderStyle
  3
ACDB_MLEADERSTYLE_CLASS
 90
     4095
280
     0
281
     0
  0
CLASS
  1
CELLSTYLEMAP
  2
AcDbCellStyleMap
  3
ObjectDBX Classes
 90
     1152
280
     0
281
     0
  0
ENDSEC
  0
SECTION
  2
TABLES
  0
TABLE
  2
VPORT
  5
8
330
0
100
AcDbSymbolTable
 70
     1
  0
VPORT
  5
EA
330
8
100
AcDbSymbolTableRecord
100
AcDbViewportTableRecord
  2
*Active
 70
     0
 10
0.0
 20
0.0
 11
1.0
 21
1.0
 12
4628.211055740794
 22
2741.84861953236
 13
0.0
 23
0.0
 14
10.0
 24
10.0
 15
10.0
 25
10.0
 16
0.0
 26
0.0
 36
1.0
 17
0.0
 27
0.0
 37
0.0
 40
3194.39071597486
 41
1.90311004784689
 42
50.0
 43
0.0
 44
0.0
 50
0.0
 51
0.0
 71
     0
 72
  1000
 73
     1
 74
     3
 75
     0
 76
     0
 77
     0
 78
     0
281
     0
 65
     1
110
0.0
120
0.0
130
0.0
111
1.0
121
0.0
131
0.0
112
0.0
122
1.0
132
0.0
 79
     0
146
0.0
  0
ENDTAB
  0
TABLE
  2
LTYPE
  5
5
330
0
100
AcDbSymbolTable
 70
     1
  0
LTYPE
  5
14
330
5
100
AcDbSymbolTableRecord
100
AcDbLinetypeTableRecord
  2
ByBlock
 70
     0
  3

 72
    65
 73
     0
 40
0.0
  0
LTYPE
  5
15
330
5
100
AcDbSymbolTableRecord
100
AcDbLinetypeTableRecord
  2
ByLayer
 70
     0
  3

 72
    65
 73
     0
 40
0.0
  0
LTYPE
  5
16
330
5
100
AcDbSymbolTableRecord
100
AcDbLinetypeTableRecord
  2
Continuous
 70
     0
  3
Solid line
 72
    65
 73
     0
 40
0.0
  0
ENDTAB
  0
TABLE
  2
LAYER
  5
2
330
0
100
AcDbSymbolTable
 70
     1
  0
LAYER
  5
10
102
{ACAD_XDICTIONARY
360
13C
102
}
330
2
100
AcDbSymbolTableRecord
100
AcDbLayerTableRecord
  2
0
 70
     0
 62
     7
  6
Continuous
370
    -3
390
F
  0
ENDTAB
  0
TABLE
  2
STYLE
  5
3
330
0
100
AcDbSymbolTable
 70
     2
  0
STYLE
  5
11
330
3
100
AcDbSymbolTableRecord
100
AcDbTextStyleTableRecord
  2
Standard
 70
     0
 40
0.0
 41
1.0
 50
0.0
 71
     0
 42
2.5
  3
txt
  4

  0
STYLE
  5
132
330
3
100
AcDbSymbolTableRecord
100
AcDbTextStyleTableRecord
  2
Annotative
 70
     0
 40
0.0
 41
1.0
 50
0.0
 71
     0
 42
2.5
  3
txt.shx
  4

1001
AcadAnnotative
1000
AnnotativeData
1002
{
1070
     1
1070
     1
1002
}
  0
ENDTAB
  0
TABLE
  2
VIEW
  5
6
330
0
100
AcDbSymbolTable
 70
     0
  0
ENDTAB
  0
TABLE
  2
UCS
  5
7
330
0
100
AcDbSymbolTable
 70
     0
  0
ENDTAB
  0
TABLE
  2
APPID
  5
9
330
0
100
AcDbSymbolTable
 70
     7
  0
APPID
  5
12
330
9
100
AcDbSymbolTableRecord
100
AcDbRegAppTableRecord
  2
ACAD
 70
     0
  0
APPID
  5
9E
330
9
100
AcDbSymbolTableRecord
100
AcDbRegAppTableRecord
  2
ACAD_PSEXT
 70
     0
  0
APPID
  5
133
330
9
100
AcDbSymbolTableRecord
100
AcDbRegAppTableRecord
  2
AcadAnnoPO
 70
     0
  0
APPID
  5
134
330
9
100
AcDbSymbolTableRecord
100
AcDbRegAppTableRecord
  2
AcadAnnotative
 70
     0
  0
APPID
  5
135
330
9
100
AcDbSymbolTableRecord
100
AcDbRegAppTableRecord
  2
ACAD_DSTYLE_DIMJAG
 70
     0
  0
APPID
  5
136
330
9
100
AcDbSymbolTableRecord
100
AcDbRegAppTableRecord
  2
ACAD_DSTYLE_DIMTALN
 70
     0
  0
APPID
  5
165
330
9
100
AcDbSymbolTableRecord
100
AcDbRegAppTableRecord
  2
ACAD_MLEADERVER
 70
     0
  0
ENDTAB
  0
TABLE
  2
DIMSTYLE
  5
A
330
0
100
AcDbSymbolTable
 70
     2
100
AcDbDimStyleTable
 71
     2
340
27
340
137
  0
DIMSTYLE
105
27
330
A
100
AcDbSymbolTableRecord
100
AcDbDimStyleTableRecord
  2
ISO-25
 70
     0
 41
2.5
 42
0.625
 43
3.75
 44
1.25
 73
     0
 74
     0
 77
     1
 78
     8
140
2.5
141
2.5
143
0.03937007874016
147
0.625
171
     3
172
     1
271
     2
272
     2
274
     3
278
    44
283
     0
284
     8
340
11
  0
DIMSTYLE
105
137
330
A
100
AcDbSymbolTableRecord
100
AcDbDimStyleTableRecord
  2
Annotative
 70
     0
 40
0.0
 41
2.5
 42
0.625
 43
3.75
 44
1.25
 73
     0
 74
     0
 77
     1
 78
     8
140
2.5
141
2.5
143
0.03937007874016
147
0.625
171
     3
172
     1
271
     2
272
     2
274
     3
278
    44
283
     0
284
     8
340
11
1001
AcadAnnotative
1000
AnnotativeData
1002
{
1070
     1
1070
     1
1002
}
1001
ACAD_DSTYLE_DIMJAG
1070
   388
1040
1.5
1001
ACAD_DSTYLE_DIMTALN
1070
   392
1070
     0
  0
ENDTAB
  0
TABLE
  2
BLOCK_RECORD
  5
1
330
0
100
AcDbSymbolTable
 70
     5
  0
BLOCK_RECORD
  5
1F
330
1
100
AcDbSymbolTableRecord
100
AcDbBlockTableRecord
  2
*Model_Space
340
22
  0
BLOCK_RECORD
  5
D2
330
1
100
AcDbSymbolTableRecord
100
AcDbBlockTableRecord
  2
*Paper_Space
340
D3
  0
BLOCK_RECORD
  5
D6
330
1
100
AcDbSymbolTableRecord
100
AcDbBlockTableRecord
  2
*Paper_Space0
340
D7
  0
BLOCK_RECORD
  5
537
330
1
100
AcDbSymbolTableRecord
100
AcDbBlockTableRecord
  2
1
340
0
310
2800000020000000200000000100080000000000000400000000000000000000000000000000000000000000000080000080000000808000800000008000800080800000C0C0C000C0DCC000F0CAA6000020400000206000002080000020A0000020C0000020E00000400000004020000040400000406000004080000040A0
310
000040C0000040E00000600000006020000060400000606000006080000060A0000060C0000060E00000800000008020000080400000806000008080000080A0000080C0000080E00000A0000000A0200000A0400000A0600000A0800000A0A00000A0C00000A0E00000C0000000C0200000C0400000C0600000C0800000C0
310
A00000C0C00000C0E00000E0000000E0200000E0400000E0600000E0800000E0A00000E0C00000E0E00040000000400020004000400040006000400080004000A0004000C0004000E00040200000402020004020400040206000402080004020A0004020C0004020E000404000004040200040404000404060004040800040
310
40A0004040C0004040E00040600000406020004060400040606000406080004060A0004060C0004060E00040800000408020004080400040806000408080004080A0004080C0004080E00040A0000040A0200040A0400040A0600040A0800040A0A00040A0C00040A0E00040C0000040C0200040C0400040C0600040C08000
310
40C0A00040C0C00040C0E00040E0000040E0200040E0400040E0600040E0800040E0A00040E0C00040E0E00080000000800020008000400080006000800080008000A0008000C0008000E00080200000802020008020400080206000802080008020A0008020C0008020E00080400000804020008040400080406000804080
310
008040A0008040C0008040E00080600000806020008060400080606000806080008060A0008060C0008060E00080800000808020008080400080806000808080008080A0008080C0008080E00080A0000080A0200080A0400080A0600080A0800080A0A00080A0C00080A0E00080C0000080C0200080C0400080C0600080C0
310
800080C0A00080C0C00080C0E00080E0000080E0200080E0400080E0600080E0800080E0A00080E0C00080E0E000C0000000C0002000C0004000C0006000C0008000C000A000C000C000C000E000C0200000C0202000C0204000C0206000C0208000C020A000C020C000C020E000C0400000C0402000C0404000C0406000C0
310
408000C040A000C040C000C040E000C0600000C0602000C0604000C0606000C0608000C060A000C060C000C060E000C0800000C0802000C0804000C0806000C0808000C080A000C080C000C080E000C0A00000C0A02000C0A04000C0A06000C0A08000C0A0A000C0A0C000C0A0E000C0C00000C0C02000C0C04000C0C06000
310
C0C08000C0C0A000F0FBFF00A4A0A000808080000000FF0000FF000000FFFF00FF000000FF00FF00FFFF0000FFFFFF0000000000000000000000000000000000000000000000000000000000000000000000000000000000000000000000000000000000000000000000000000000000000000000000000000000000000000
310
0000000000000000000000000000000000000000000000000000000000000000000000000000000000000000000000000000000000000000000000000000000000000000000000000000000000000000000000000000000000000000000000000000000000000000000000000000000000000000FFFFFFFFFFFFFFFFFFFFFF
310
FFFFFFFFFFFFFFFFFFFFFFFFFFFFFF00000000FFFF00FFFFFFFFFFFFFFFFFFFFFFFFFFFFFFFFFFFFFFFFFFFFFFFF00FFFF0000FF00FF000000000000000000000000000000000000000000000000FF00FF0000FF00FF000000000000000000000000000000000000000000000000FF00FF0000FF00FF000000000000000000
310
000000000000000000000000000000FF00FF0000FF00FF000000000000000000000000000000000000000000000000FF00FF0000FF00FF000000000000000000000000000000000000000000000000FF00FF0000FF00FF000000000000000000000000000000000000000000000000FF00FF0000FF00FF0000000000000000
310
00000000000000000000000000000000FF00FF0000FF00FF000000000000000000000000000000000000000000000000FF00FF0000FF00FF000000000000000000000000000000000000000000000000FF00FF0000FF00FF000000000000000000000000000000000000000000000000FF00FF0000FF00FF00000000000000
310
0000000000000000000000000000000000FF00FF0000FF00FF000000000000000000000000000000000000000000000000FF00FF0000FF00FF000000000000000000000000000000000000000000000000FF00FF0000FF00FF000000000000000000000000000000000000000000000000FF00FF0000FF00FF000000000000
310
000000000000000000000000000000000000FF00FF0000FF00FF000000000000000000000000000000000000000000000000FF00FF0000FF0000FFFFFFFFFF0000000000000000000000000000FFFFFFFFFF0000FF000000FFFFFFFFFFFFFF0000000000000000000000000000FFFFFFFFFFFFFF0000000000000000000000
310
00000000000000000000000000000000000000000000000000000000000000000000000000000000000000000000000000000000000000000000000000000000000000000000000000000000000000000000000000000000000000000000000000000000000000000000000000000000000000000000000000000000000000
310
0000000000000000000000000000000000000000000000000000000000000000000000000000000000000000000000000000000000000000
102
{BLKREFS
331
54E
102
}
1001
ACAD
1000
DesignCenter Data
1002
{
1070
     1
1070
     4
1002
}
  0
BLOCK_RECORD
  5
54F
330
1
100
AcDbSymbolTableRecord
100
AcDbBlockTableRecord
  2
2
340
0
310
2800000020000000200000000100080000000000000400000000000000000000000000000000000000000000000080000080000000808000800000008000800080800000C0C0C000C0DCC000F0CAA6000020400000206000002080000020A0000020C0000020E00000400000004020000040400000406000004080000040A0
310
000040C0000040E00000600000006020000060400000606000006080000060A0000060C0000060E00000800000008020000080400000806000008080000080A0000080C0000080E00000A0000000A0200000A0400000A0600000A0800000A0A00000A0C00000A0E00000C0000000C0200000C0400000C0600000C0800000C0
310
A00000C0C00000C0E00000E0000000E0200000E0400000E0600000E0800000E0A00000E0C00000E0E00040000000400020004000400040006000400080004000A0004000C0004000E00040200000402020004020400040206000402080004020A0004020C0004020E000404000004040200040404000404060004040800040
310
40A0004040C0004040E00040600000406020004060400040606000406080004060A0004060C0004060E00040800000408020004080400040806000408080004080A0004080C0004080E00040A0000040A0200040A0400040A0600040A0800040A0A00040A0C00040A0E00040C0000040C0200040C0400040C0600040C08000
310
40C0A00040C0C00040C0E00040E0000040E0200040E0400040E0600040E0800040E0A00040E0C00040E0E00080000000800020008000400080006000800080008000A0008000C0008000E00080200000802020008020400080206000802080008020A0008020C0008020E00080400000804020008040400080406000804080
310
008040A0008040C0008040E00080600000806020008060400080606000806080008060A0008060C0008060E00080800000808020008080400080806000808080008080A0008080C0008080E00080A0000080A0200080A0400080A0600080A0800080A0A00080A0C00080A0E00080C0000080C0200080C0400080C0600080C0
310
800080C0A00080C0C00080C0E00080E0000080E0200080E0400080E0600080E0800080E0A00080E0C00080E0E000C0000000C0002000C0004000C0006000C0008000C000A000C000C000C000E000C0200000C0202000C0204000C0206000C0208000C020A000C020C000C020E000C0400000C0402000C0404000C0406000C0
310
408000C040A000C040C000C040E000C0600000C0602000C0604000C0606000C0608000C060A000C060C000C060E000C0800000C0802000C0804000C0806000C0808000C080A000C080C000C080E000C0A00000C0A02000C0A04000C0A06000C0A08000C0A0A000C0A0C000C0A0E000C0C00000C0C02000C0C04000C0C06000
310
C0C08000C0C0A000F0FBFF00A4A0A000808080000000FF0000FF000000FFFF00FF000000FF00FF00FFFF0000FFFFFF0000000000000000000000000000000000000000000000000000000000000000000000000000000000000000000000000000000000000000000000000000000000000000000000000000000000000000
310
00000000000000000000000000000000000000000000000000000000000000000000000000000000000000000000000000000000000000000000000000000000000000000000000000000000000000000000000000000000000000000000000000000000000000000000000000000000000000000000000000000000000000
310
00000000000000000000000000000000000000000000000000000000000000000000000000000000000000000000000000000000000000000000000000000000000000000000000000000000000000000000000000000000000000000000000000000000000000000000000000000000000000000000000000000000000000
310
00000000000000000000000000000000000000000000000000000000000000000000000000000000000000000000000000000000000000000000000000000000000000000000000000000000000000000000000000000000000000000000000000000000000000000000000000000000000000000000000000000000000000
310
000000000000000000000000000000000000000000FFFFFFFFFFFFFFFFFFFFFFFFFFFFFFFFFFFFFFFFFFFFFFFFFFFFFFFFFFFF0000FFFFFFFFFFFFFFFFFFFFFFFFFFFFFFFFFFFFFFFFFFFFFFFFFFFFFFFFFFFF0000000000000000000000000000000000000000000000000000000000000000000000000000000000000000
310
00000000000000000000000000000000000000000000000000000000000000000000000000000000000000000000000000000000000000000000000000000000000000000000000000000000000000000000000000000000000000000000000000000000000000000000000000000000000000000000000000000000000000
310
00000000000000000000000000000000000000000000000000000000000000000000000000000000000000000000000000000000000000000000000000000000000000000000000000000000000000000000000000000000000000000000000000000000000000000000000000000000000000000000000000000000000000
310
00000000000000000000000000000000000000000000000000000000000000000000000000000000000000000000000000000000000000000000000000000000000000000000000000000000000000000000000000000000000000000000000000000000000000000000000000000000000000000000000000000000000000
310
0000000000000000000000000000000000000000000000000000000000000000000000000000000000000000000000000000000000000000
102
{BLKREFS
331
55C
102
}
1001
ACAD
1000
DesignCenter Data
1002
{
1070
     1
1070
     4
1002
}
  0
BLOCK_RECORD
  5
55D
330
1
100
AcDbSymbolTableRecord
100
AcDbBlockTableRecord
  2
3
340
0
310
2800000020000000200000000100080000000000000400000000000000000000000000000000000000000000000080000080000000808000800000008000800080800000C0C0C000C0DCC000F0CAA6000020400000206000002080000020A0000020C0000020E00000400000004020000040400000406000004080000040A0
310
000040C0000040E00000600000006020000060400000606000006080000060A0000060C0000060E00000800000008020000080400000806000008080000080A0000080C0000080E00000A0000000A0200000A0400000A0600000A0800000A0A00000A0C00000A0E00000C0000000C0200000C0400000C0600000C0800000C0
310
A00000C0C00000C0E00000E0000000E0200000E0400000E0600000E0800000E0A00000E0C00000E0E00040000000400020004000400040006000400080004000A0004000C0004000E00040200000402020004020400040206000402080004020A0004020C0004020E000404000004040200040404000404060004040800040
310
40A0004040C0004040E00040600000406020004060400040606000406080004060A0004060C0004060E00040800000408020004080400040806000408080004080A0004080C0004080E00040A0000040A0200040A0400040A0600040A0800040A0A00040A0C00040A0E00040C0000040C0200040C0400040C0600040C08000
310
40C0A00040C0C00040C0E00040E0000040E0200040E0400040E0600040E0800040E0A00040E0C00040E0E00080000000800020008000400080006000800080008000A0008000C0008000E00080200000802020008020400080206000802080008020A0008020C0008020E00080400000804020008040400080406000804080
310
008040A0008040C0008040E00080600000806020008060400080606000806080008060A0008060C0008060E00080800000808020008080400080806000808080008080A0008080C0008080E00080A0000080A0200080A0400080A0600080A0800080A0A00080A0C00080A0E00080C0000080C0200080C0400080C0600080C0
310
800080C0A00080C0C00080C0E00080E0000080E0200080E0400080E0600080E0800080E0A00080E0C00080E0E000C0000000C0002000C0004000C0006000C0008000C000A000C000C000C000E000C0200000C0202000C0204000C0206000C0208000C020A000C020C000C020E000C0400000C0402000C0404000C0406000C0
310
408000C040A000C040C000C040E000C0600000C0602000C0604000C0606000C0608000C060A000C060C000C060E000C0800000C0802000C0804000C0806000C0808000C080A000C080C000C080E000C0A00000C0A02000C0A04000C0A06000C0A08000C0A0A000C0A0C000C0A0E000C0C00000C0C02000C0C04000C0C06000
310
C0C08000C0C0A000F0FBFF00A4A0A000808080000000FF0000FF000000FFFF00FF000000FF00FF00FFFF0000FFFFFF000000000000000000000000000000000000000000000000000000000000000000000000000000000000000000000000FFFF000000000000000000000000000000000000000000000000000000000000
310
FFFF000000000000000000000000000000000000000000000000000000000000FFFF000000000000000000000000000000000000000000000000000000000000FFFF000000000000000000000000000000000000000000000000000000000000FFFF0000000000000000000000000000000000000000000000000000000000
310
00FFFF000000000000000000000000000000000000000000000000000000000000FFFF000000000000000000000000000000000000000000000000000000000000FFFF000000000000000000000000000000000000000000000000000000000000FFFF00000000000000000000000000000000000000000000000000000000
310
0000FFFF000000000000000000000000000000000000000000000000000000000000FFFF000000000000000000000000000000000000000000000000000000000000FFFF000000000000000000000000000000000000000000000000000000000000FFFF000000000000000000000000000000000000000000000000000000
310
000000FFFF000000000000000000000000000000000000000000000000000000000000FFFF000000000000000000000000000000000000000000000000000000000000FFFF000000000000000000000000000000000000000000000000000000000000FFFF0000000000000000000000000000000000000000000000000000
310
00000000FFFF000000000000000000000000000000000000000000000000000000000000FFFF000000000000000000000000000000000000000000000000000000000000FFFF000000000000000000000000000000000000000000000000000000000000FFFF00000000000000000000000000000000000000000000000000
310
0000000000FFFF000000000000000000000000000000000000000000000000000000000000FFFF000000000000000000000000000000000000000000000000000000000000FFFF000000000000000000000000000000000000000000000000000000000000FFFF000000000000000000000000000000000000000000000000
310
000000000000FFFF000000000000000000000000000000000000000000000000000000000000FFFF000000000000000000000000000000000000000000000000000000000000FFFF000000000000000000000000000000000000000000000000000000000000FFFF0000000000000000000000000000000000000000000000
310
00000000000000FFFF0000000000000000000000000000000000000000000000000000000000000000000000000000000000000000000000
102
{BLKREFS
331
5E9
102
}
1001
ACAD
1000
DesignCenter Data
1002
{
1070
     1
1070
     4
1002
}
  0
BLOCK_RECORD
  5
5EA
330
1
100
AcDbSymbolTableRecord
100
AcDbBlockTableRecord
  2
4
340
0
310
2800000020000000200000000100080000000000000400000000000000000000000000000000000000000000000080000080000000808000800000008000800080800000C0C0C000C0DCC000F0CAA6000020400000206000002080000020A0000020C0000020E00000400000004020000040400000406000004080000040A0
310
000040C0000040E00000600000006020000060400000606000006080000060A0000060C0000060E00000800000008020000080400000806000008080000080A0000080C0000080E00000A0000000A0200000A0400000A0600000A0800000A0A00000A0C00000A0E00000C0000000C0200000C0400000C0600000C0800000C0
310
A00000C0C00000C0E00000E0000000E0200000E0400000E0600000E0800000E0A00000E0C00000E0E00040000000400020004000400040006000400080004000A0004000C0004000E00040200000402020004020400040206000402080004020A0004020C0004020E000404000004040200040404000404060004040800040
310
40A0004040C0004040E00040600000406020004060400040606000406080004060A0004060C0004060E00040800000408020004080400040806000408080004080A0004080C0004080E00040A0000040A0200040A0400040A0600040A0800040A0A00040A0C00040A0E00040C0000040C0200040C0400040C0600040C08000
310
40C0A00040C0C00040C0E00040E0000040E0200040E0400040E0600040E0800040E0A00040E0C00040E0E00080000000800020008000400080006000800080008000A0008000C0008000E00080200000802020008020400080206000802080008020A0008020C0008020E00080400000804020008040400080406000804080
310
008040A0008040C0008040E00080600000806020008060400080606000806080008060A0008060C0008060E00080800000808020008080400080806000808080008080A0008080C0008080E00080A0000080A0200080A0400080A0600080A0800080A0A00080A0C00080A0E00080C0000080C0200080C0400080C0600080C0
310
800080C0A00080C0C00080C0E00080E0000080E0200080E0400080E0600080E0800080E0A00080E0C00080E0E000C0000000C0002000C0004000C0006000C0008000C000A000C000C000C000E000C0200000C0202000C0204000C0206000C0208000C020A000C020C000C020E000C0400000C0402000C0404000C0406000C0
310
408000C040A000C040C000C040E000C0600000C0602000C0604000C0606000C0608000C060A000C060C000C060E000C0800000C0802000C0804000C0806000C0808000C080A000C080C000C080E000C0A00000C0A02000C0A04000C0A06000C0A08000C0A0A000C0A0C000C0A0E000C0C00000C0C02000C0C04000C0C06000
310
C0C08000C0C0A000F0FBFF00A4A0A000808080000000FF0000FF000000FFFF00FF000000FF00FF00FFFF0000FFFFFF0000000000000000000000000000000000000000000000000000000000000000000000000000000000000000000000000000000000000000000000000000000000000000000000000000000000000000
310
0000000000000000000000000000000000000000000000000000000000000000000000000000000000000000000000000000FFFF00000000000000000000000000000000000000000000000000000000000000FFFFFF000000000000000000000000000000000000000000000000000000000000FFFFFF0000000000000000
310
0000000000000000000000000000000000000000000000FFFF00000000000000000000000000000000000000000000000000000000000000FFFF00000000000000000000000000000000000000000000000000000000000000FFFF00000000000000000000000000000000000000000000000000000000000000FFFFFF0000
310
00000000000000000000000000000000000000000000000000000000FFFFFF00000000000000000000000000000000000000000000000000000000000000FFFF00000000000000000000000000000000000000000000000000000000000000FFFF000000000000000000000000000000000000000000000000000000000000
310
00FFFF00000000000000000000000000000000000000000000000000000000000000FFFF00000000000000000000000000000000000000000000000000000000000000FFFFFF00000000000000000000000000000000000000000000000000000000000000FFFF000000000000000000000000000000000000000000000000
310
00000000000000FFFF00000000000000000000000000000000000000000000000000000000000000FFFF00000000000000000000000000000000000000000000000000000000000000FFFFFF00000000000000000000000000000000000000000000000000000000000000FFFF000000000000000000000000000000000000
310
00000000000000000000000000FFFF00000000000000000000000000000000000000000000000000000000000000FFFF00000000000000000000000000000000000000000000000000000000000000FFFF00000000000000000000000000000000000000000000000000000000000000FFFFFF000000000000000000000000
310
00000000000000000000000000000000000000FFFF00000000000000000000000000000000000000000000000000000000000000FFFF00000000000000000000000000000000000000000000000000000000000000000000000000000000000000000000000000000000000000000000000000000000000000000000000000
310
0000000000000000000000000000000000000000000000000000000000000000000000000000000000000000000000000000000000000000
102
{BLKREFS
331
709
102
}
1001
ACAD
1000
DesignCenter Data
1002
{
1070
     1
1070
     4
1002
}
  0
ENDTAB
  0
ENDSEC
  0
SECTION
  2
BLOCKS
  0
BLOCK
  5
20
330
1F
100
AcDbEntity
  8
0
100
AcDbBlockBegin
  2
*Model_Space
 70
     0
 10
0.0
 20
0.0
 30
0.0
  3
*Model_Space
  1

  0
ENDBLK
  5
21
330
1F
100
AcDbEntity
  8
0
100
AcDbBlockEnd
  0
BLOCK
  5
D4
330
D2
100
AcDbEntity
 67
     1
  8
0
100
AcDbBlockBegin
  2
*Paper_Space
 70
     0
 10
0.0
 20
0.0
 30
0.0
  3
*Paper_Space
  1

  0
ENDBLK
  5
D5
330
D2
100
AcDbEntity
 67
     1
  8
0
100
AcDbBlockEnd
  0
BLOCK
  5
D8
330
D6
100
AcDbEntity
 67
     1
  8
0
100
AcDbBlockBegin
  2
*Paper_Space0
 70
     0
 10
0.0
 20
0.0
 30
0.0
  3
*Paper_Space0
  1

  0
ENDBLK
  5
D9
330
D6
100
AcDbEntity
 67
     1
  8
0
100
AcDbBlockEnd
  0
BLOCK
  5
538
330
537
100
AcDbEntity
  8
0
100
AcDbBlockBegin
  2
1
 70
     0
 10
0.0
 20
0.0
 30
0.0
  3
1
  1

  0
LINE
  5
53A
330
537
100
AcDbEntity
  8
0
  6
Continuous
 62
     7
370
    15
100
AcDbLine
 10
4910.499398227284
 20
4185.593687380706
 30
0.0
 11
4910.499398227284
 21
4173.293687380707
 31
0.0
  0
ARC
  5
53B
330
537
100
AcDbEntity
  8
0
  6
Continuous
 62
     7
370
    15
100
AcDbCircle
 10
4911.499398227284
 20
4185.593687380706
 30
0.0
 40
0.9999999999997726
100
AcDbArc
 50
90.0
 51
180.0
  0
LINE
  5
53C
330
537
100
AcDbEntity
  8
0
  6
Continuous
 62
     7
370
    15
100
AcDbLine
 10
4915.099398227283
 20
4186.593687380706
 30
0.0
 11
4911.499398227284
 21
4186.593687380706
 31
0.0
  0
LINE
  5
53D
330
537
100
AcDbEntity
  8
0
  6
Continuous
 62
     7
370
    15
100
AcDbLine
 10
4915.099398227283
 20
4185.393687380709
 30
0.0
 11
4915.099398227283
 21
4186.593687380706
 31
0.0
  0
LINE
  5
53E
330
537
100
AcDbEntity
  8
0
  6
Continuous
 62
     7
370
    15
100
AcDbLine
 10
4912.199398227284
 20
4185.393687380709
 30
0.0
 11
4915.099398227283
 21
4185.393687380709
 31
0.0
  0
ARC
  5
53F
330
537
100
AcDbEntity
  8
0
  6
Continuous
 62
     7
370
    15
100
AcDbCircle
 10
4912.199398227284
 20
4184.893687380709
 30
0.0
 40
0.4999999999990337
100
AcDbArc
 50
90.0
 51
180.0
  0
LINE
  5
540
330
537
100
AcDbEntity
  8
0
  6
Continuous
 62
     7
370
    15
100
AcDbLine
 10
4911.699398227285
 20
4173.993687380703
 30
0.0
 11
4911.699398227285
 21
4184.893687380709
 31
0.0
  0
ARC
  5
541
330
537
100
AcDbEntity
  8
0
  6
Continuous
 62
     7
370
    15
100
AcDbCircle
 10
4912.199398227286
 20
4173.993687380703
 30
0.0
 40
0.4999999999998295
100
AcDbArc
 50
180.0
 51
270.0
  0
LINE
  5
542
330
537
100
AcDbEntity
  8
0
  6
Continuous
 62
     7
370
    15
100
AcDbLine
 10
4928.999398227285
 20
4173.493687380704
 30
0.0
 11
4912.199398227286
 21
4173.493687380704
 31
0.0
  0
ARC
  5
543
330
537
100
AcDbEntity
  8
0
  6
Continuous
 62
     7
370
    15
100
AcDbCircle
 10
4928.999398227285
 20
4173.993687380703
 30
0.0
 40
0.4999999999994316
100
AcDbArc
 50
270.0
 51
0.0
  0
LINE
  5
544
330
537
100
AcDbEntity
  8
0
  6
Continuous
 62
     7
370
    15
100
AcDbLine
 10
4929.499398227284
 20
4184.89368738071
 30
0.0
 11
4929.499398227284
 21
4173.993687380703
 31
0.0
  0
ARC
  5
545
330
537
100
AcDbEntity
  8
0
  6
Continuous
 62
     7
370
    15
100
AcDbCircle
 10
4928.999398227285
 20
4184.89368738071
 30
0.0
 40
0.4999999999994884
100
AcDbArc
 50
0.0
 51
90.0
  0
LINE
  5
546
330
537
100
AcDbEntity
  8
0
  6
Continuous
 62
     7
370
    15
100
AcDbLine
 10
4926.099398227285
 20
4185.39368738071
 30
0.0
 11
4928.999398227285
 21
4185.39368738071
 31
0.0
  0
LINE
  5
547
330
537
100
AcDbEntity
  8
0
  6
Continuous
 62
     7
370
    15
100
AcDbLine
 10
4926.099398227285
 20
4186.593687380708
 30
0.0
 11
4926.099398227285
 21
4185.39368738071
 31
0.0
  0
LINE
  5
548
330
537
100
AcDbEntity
  8
0
  6
Continuous
 62
     7
370
    15
100
AcDbLine
 10
4929.699398227284
 20
4186.593687380708
 30
0.0
 11
4926.099398227285
 21
4186.593687380708
 31
0.0
  0
ARC
  5
549
330
537
100
AcDbEntity
  8
0
  6
Continuous
 62
     7
370
    15
100
AcDbCircle
 10
4929.699398227284
 20
4185.593687380707
 30
0.0
 40
0.9999999999997726
100
AcDbArc
 50
0.0
 51
90.0
  0
LINE
  5
54A
330
537
100
AcDbEntity
  8
0
  6
Continuous
 62
     7
370
    15
100
AcDbLine
 10
4930.699398227283
 20
4173.293687380705
 30
0.0
 11
4930.699398227283
 21
4185.593687380707
 31
0.0
  0
ARC
  5
54B
330
537
100
AcDbEntity
  8
0
  6
Continuous
 62
     7
370
    15
100
AcDbCircle
 10
4929.699398227285
 20
4173.293687380705
 30
0.0
 40
0.9999999999988631
100
AcDbArc
 50
270.0
 51
0.0
  0
LINE
  5
54C
330
537
100
AcDbEntity
  8
0
  6
Continuous
 62
     7
370
    15
100
AcDbLine
 10
4911.499398227284
 20
4172.293687380706
 30
0.0
 11
4929.699398227285
 21
4172.293687380706
 31
0.0
  0
ARC
  5
54D
330
537
100
AcDbEntity
  8
0
  6
Continuous
 62
     7
370
    15
100
AcDbCircle
 10
4911.499398227284
 20
4173.293687380707
 30
0.0
 40
0.9999999999997157
100
AcDbArc
 50
180.0
 51
270.0
  0
ENDBLK
  5
539
330
537
100
AcDbEntity
  8
0
100
AcDbBlockEnd
  0
BLOCK
  5
550
330
54F
100
AcDbEntity
  8
0
100
AcDbBlockBegin
  2
2
 70
     0
 10
0.0
 20
0.0
 30
0.0
  3
2
  1

  0
LINE
  5
552
330
54F
100
AcDbEntity
  8
0
  6
Continuous
 62
     7
370
    15
100
AcDbLine
 10
1881.597456974817
 20
4185.593687380707
 30
0.0
 11
4881.597456974817
 21
4185.593687380707
 31
0.0
  0
LINE
  5
553
330
54F
100
AcDbEntity
  8
0
  6
Continuous
 62
     7
370
    15
100
AcDbLine
 10
1881.597456974817
 20
4185.593687380707
 30
0.0
 11
1881.597456974817
 21
4186.593687380708
 31
0.0
  0
LINE
  5
554
330
54F
100
AcDbEntity
  8
0
  6
Continuous
 62
     7
370
    15
100
AcDbLine
 10
1881.597456974817
 20
4186.593687380708
 30
0.0
 11
4881.597456974817
 21
4186.593687380708
 31
0.0
  0
LINE
  5
555
330
54F
100
AcDbEntity
  8
0
  6
Continuous
 62
     7
370
    15
100
AcDbLine
 10
4881.597456974817
 20
4185.593687380707
 30
0.0
 11
4881.597456974817
 21
4186.593687380708
 31
0.0
  0
LINE
  5
556
330
54F
100
AcDbEntity
  8
0
  6
Continuous
 62
     7
370
    15
100
AcDbLine
 10
1881.597456974817
 20
4172.293687380706
 30
0.0
 11
4881.597456974817
 21
4172.293687380706
 31
0.0
  0
LINE
  5
557
330
54F
100
AcDbEntity
  8
0
  6
Continuous
 62
     7
370
    15
100
AcDbLine
 10
1881.597456974817
 20
4172.293687380706
 30
0.0
 11
1881.597456974817
 21
4173.293687380705
 31
0.0
  0
LINE
  5
558
330
54F
100
AcDbEntity
  8
0
  6
Continuous
 62
     7
370
    15
100
AcDbLine
 10
1881.597456974817
 20
4173.293687380705
 30
0.0
 11
4881.597456974817
 21
4173.293687380705
 31
0.0
  0
LINE
  5
559
330
54F
100
AcDbEntity
  8
0
  6
Continuous
 62
     7
370
    15
100
AcDbLine
 10
4881.597456974817
 20
4172.293687380706
 30
0.0
 11
4881.597456974817
 21
4173.293687380705
 31
0.0
  0
LINE
  5
55A
330
54F
100
AcDbEntity
  8
0
  6
Continuous
 62
     7
370
    15
100
AcDbLine
 10
1881.597456974817
 20
4173.293687380705
 30
0.0
 11
1881.597456974817
 21
4185.593687380707
 31
0.0
  0
LINE
  5
55B
330
54F
100
AcDbEntity
  8
0
  6
Continuous
 62
     7
370
    15
100
AcDbLine
 10
4881.597456974817
 20
4173.293687380705
 30
0.0
 11
4881.597456974817
 21
4185.593687380707
 31
0.0
  0
ENDBLK
  5
551
330
54F
100
AcDbEntity
  8
0
100
AcDbBlockEnd
  0
BLOCK
  5
55E
330
55D
100
AcDbEntity
  8
0
100
AcDbBlockBegin
  2
3
 70
     0
 10
0.0
 20
0.0
 30
0.0
  3
3
  1

  0
LINE
  5
560
330
55D
100
AcDbEntity
  8
0
  6
Continuous
 62
     7
370
    15
100
AcDbLine
 10
4930.699398227283
 20
1155.959433825889
 30
0.0
 11
4930.699398227283
 21
4155.95943382589
 31
0.0
  0
LINE
  5
561
330
55D
100
AcDbEntity
  8
0
  6
Continuous
 62
     7
370
    15
100
AcDbLine
 10
4930.699398227283
 20
1155.959433825889
 30
0.0
 11
4929.699398227284
 21
1155.959433825889
 31
0.0
  0
LINE
  5
562
330
55D
100
AcDbEntity
  8
0
  6
Continuous
 62
     7
370
    15
100
AcDbLine
 10
4929.699398227284
 20
1155.959433825889
 30
0.0
 11
4929.699398227284
 21
4155.95943382589
 31
0.0
  0
LINE
  5
563
330
55D
100
AcDbEntity
  8
0
  6
Continuous
 62
     7
370
    15
100
AcDbLine
 10
4930.699398227283
 20
4155.95943382589
 30
0.0
 11
4929.699398227284
 21
4155.95943382589
 31
0.0
  0
LINE
  5
564
330
55D
100
AcDbEntity
  8
0
  6
Continuous
 62
     7
370
    15
100
AcDbLine
 10
4929.699398227284
 20
1155.959433825889
 30
0.0
 11
4926.099398227285
 21
1155.959433825889
 31
0.0
  0
LINE
  5
565
330
55D
100
AcDbEntity
  8
0
  6
Continuous
 62
     7
370
    15
100
AcDbLine
 10
4926.099398227285
 20
1155.959433825889
 30
0.0
 11
4926.099398227285
 21
4155.95943382589
 31
0.0
  0
LINE
  5
566
330
55D
100
AcDbEntity
  8
0
  6
Continuous
 62
     7
370
    15
100
AcDbLine
 10
4929.699398227284
 20
4155.95943382589
 30
0.0
 11
4926.099398227285
 21
4155.95943382589
 31
0.0
  0
LINE
  5
567
330
55D
100
AcDbEntity
  8
0
  6
Continuous
 62
     7
370
    15
100
AcDbLine
 10
4915.099398227283
 20
1155.959433825889
 30
0.0
 11
4915.099398227283
 21
4155.95943382589
 31
0.0
  0
LINE
  5
568
330
55D
100
AcDbEntity
  8
0
  6
Continuous
 62
     7
370
    15
100
AcDbLine
 10
4915.099398227283
 20
1155.959433825889
 30
0.0
 11
4911.499398227284
 21
1155.959433825889
 31
0.0
  0
LINE
  5
569
330
55D
100
AcDbEntity
  8
0
  6
Continuous
 62
     7
370
    15
100
AcDbLine
 10
4911.499398227284
 20
1155.959433825889
 30
0.0
 11
4911.499398227284
 21
4155.95943382589
 31
0.0
  0
LINE
  5
56A
330
55D
100
AcDbEntity
  8
0
  6
Continuous
 62
     7
370
    15
100
AcDbLine
 10
4915.099398227283
 20
4155.95943382589
 30
0.0
 11
4911.499398227284
 21
4155.95943382589
 31
0.0
  0
LINE
  5
56B
330
55D
100
AcDbEntity
  8
0
  6
Continuous
 62
     7
370
    15
100
AcDbLine
 10
4911.499398227284
 20
1155.959433825889
 30
0.0
 11
4910.499398227284
 21
1155.959433825889
 31
0.0
  0
LINE
  5
56C
330
55D
100
AcDbEntity
  8
0
  6
Continuous
 62
     7
370
    15
100
AcDbLine
 10
4910.499398227284
 20
1155.959433825889
 30
0.0
 11
4910.499398227284
 21
4155.95943382589
 31
0.0
  0
LINE
  5
56D
330
55D
100
AcDbEntity
  8
0
  6
Continuous
 62
     7
370
    15
100
AcDbLine
 10
4911.499398227284
 20
4155.95943382589
 30
0.0
 11
4910.499398227284
 21
4155.95943382589
 31
0.0
  0
CIRCLE
  5
56E
330
55D
100
AcDbEntity
  8
0
  6
Continuous
 62
     7
370
    15
100
AcDbCircle
 10
4920.599398227285
 20
1168.45943382589
 30
0.0
 40
4.5
  0
CIRCLE
  5
56F
330
55D
100
AcDbEntity
  8
0
  6
Continuous
 62
     7
370
    15
100
AcDbCircle
 10
4920.599398227285
 20
4143.459433825884
 30
0.0
 40
4.50000000000017
  0
ARC
  5
570
330
55D
100
AcDbEntity
  8
0
  6
Continuous
 62
     7
370
    15
100
AcDbCircle
 10
4920.599398227285
 20
1272.959433825889
 30
0.0
 40
4.49999999999998
100
AcDbArc
 50
298.9550243718493
 51
241.0449756281507
  0
ARC
  5
571
330
55D
100
AcDbEntity
  8
0
  6
Continuous
 62
     7
370
    15
100
AcDbCircle
 10
4920.599398227285
 20
1268.459433825889
 30
0.0
 40
2.24999999999996
100
AcDbArc
 50
14.47751218592945
 51
165.5224878140705
  0
CIRCLE
  5
572
330
55D
100
AcDbEntity
  8
0
  6
Continuous
 62
     7
370
    15
100
AcDbCircle
 10
4920.599398227285
 20
1193.459433825889
 30
0.0
 40
2.250000000000454
  0
CIRCLE
  5
573
330
55D
100
AcDbEntity
  8
0
  6
Continuous
 62
     7
370
    15
100
AcDbCircle
 10
4920.599398227285
 20
1218.459433825889
 30
0.0
 40
2.25
  0
CIRCLE
  5
574
330
55D
100
AcDbEntity
  8
0
  6
Continuous
 62
     7
370
    15
100
AcDbCircle
 10
4920.599398227285
 20
1243.459433825889
 30
0.0
 40
2.25
  0
CIRCLE
  5
575
330
55D
100
AcDbEntity
  8
0
  6
Continuous
 62
     7
370
    15
100
AcDbCircle
 10
4920.599398227285
 20
1293.459433825889
 30
0.0
 40
2.25
  0
CIRCLE
  5
576
330
55D
100
AcDbEntity
  8
0
  6
Continuous
 62
     7
370
    15
100
AcDbCircle
 10
4920.599398227285
 20
1318.459433825889
 30
0.0
 40
2.250000000000454
  0
CIRCLE
  5
577
330
55D
100
AcDbEntity
  8
0
  6
Continuous
 62
     7
370
    15
100
AcDbCircle
 10
4920.599398227285
 20
1343.459433825889
 30
0.0
 40
2.25
  0
CIRCLE
  5
578
330
55D
100
AcDbEntity
  8
0
  6
Continuous
 62
     7
370
    15
100
AcDbCircle
 10
4920.599398227285
 20
1368.459433825889
 30
0.0
 40
2.25
  0
CIRCLE
  5
579
330
55D
100
AcDbEntity
  8
0
  6
Continuous
 62
     7
370
    15
100
AcDbCircle
 10
4920.599398227285
 20
1393.459433825889
 30
0.0
 40
2.25
  0
CIRCLE
  5
57A
330
55D
100
AcDbEntity
  8
0
  6
Continuous
 62
     7
370
    15
100
AcDbCircle
 10
4920.599398227285
 20
1418.459433825889
 30
0.0
 40
2.25
  0
CIRCLE
  5
57B
330
55D
100
AcDbEntity
  8
0
  6
Continuous
 62
     7
370
    15
100
AcDbCircle
 10
4920.599398227285
 20
1443.459433825889
 30
0.0
 40
2.25
  0
CIRCLE
  5
57C
330
55D
100
AcDbEntity
  8
0
  6
Continuous
 62
     7
370
    15
100
AcDbCircle
 10
4920.599398227285
 20
1468.459433825889
 30
0.0
 40
2.25
  0
CIRCLE
  5
57D
330
55D
100
AcDbEntity
  8
0
  6
Continuous
 62
     7
370
    15
100
AcDbCircle
 10
4920.599398227285
 20
1493.459433825889
 30
0.0
 40
2.25
  0
CIRCLE
  5
57E
330
55D
100
AcDbEntity
  8
0
  6
Continuous
 62
     7
370
    15
100
AcDbCircle
 10
4920.599398227285
 20
1518.459433825889
 30
0.0
 40
2.25
  0
CIRCLE
  5
57F
330
55D
100
AcDbEntity
  8
0
  6
Continuous
 62
     7
370
    15
100
AcDbCircle
 10
4920.599398227285
 20
1543.459433825889
 30
0.0
 40
2.25
  0
CIRCLE
  5
580
330
55D
100
AcDbEntity
  8
0
  6
Continuous
 62
     7
370
    15
100
AcDbCircle
 10
4920.599398227285
 20
1568.459433825889
 30
0.0
 40
2.25
  0
CIRCLE
  5
581
330
55D
100
AcDbEntity
  8
0
  6
Continuous
 62
     7
370
    15
100
AcDbCircle
 10
4920.599398227285
 20
1593.459433825889
 30
0.0
 40
2.25
  0
CIRCLE
  5
582
330
55D
100
AcDbEntity
  8
0
  6
Continuous
 62
     7
370
    15
100
AcDbCircle
 10
4920.599398227285
 20
1618.459433825889
 30
0.0
 40
2.25
  0
CIRCLE
  5
583
330
55D
100
AcDbEntity
  8
0
  6
Continuous
 62
     7
370
    15
100
AcDbCircle
 10
4920.599398227285
 20
1643.459433825889
 30
0.0
 40
2.25
  0
CIRCLE
  5
584
330
55D
100
AcDbEntity
  8
0
  6
Continuous
 62
     7
370
    15
100
AcDbCircle
 10
4920.599398227285
 20
1668.459433825889
 30
0.0
 40
2.25
  0
CIRCLE
  5
585
330
55D
100
AcDbEntity
  8
0
  6
Continuous
 62
     7
370
    15
100
AcDbCircle
 10
4920.599398227285
 20
1693.459433825889
 30
0.0
 40
2.25
  0
CIRCLE
  5
586
330
55D
100
AcDbEntity
  8
0
  6
Continuous
 62
     7
370
    15
100
AcDbCircle
 10
4920.599398227285
 20
1718.459433825888
 30
0.0
 40
2.250000000000454
  0
CIRCLE
  5
587
330
55D
100
AcDbEntity
  8
0
  6
Continuous
 62
     7
370
    15
100
AcDbCircle
 10
4920.599398227285
 20
1743.459433825889
 30
0.0
 40
2.25
  0
CIRCLE
  5
588
330
55D
100
AcDbEntity
  8
0
  6
Continuous
 62
     7
370
    15
100
AcDbCircle
 10
4920.599398227285
 20
1768.459433825889
 30
0.0
 40
2.25
  0
CIRCLE
  5
589
330
55D
100
AcDbEntity
  8
0
  6
Continuous
 62
     7
370
    15
100
AcDbCircle
 10
4920.599398227285
 20
1793.459433825889
 30
0.0
 40
2.25
  0
CIRCLE
  5
58A
330
55D
100
AcDbEntity
  8
0
  6
Continuous
 62
     7
370
    15
100
AcDbCircle
 10
4920.599398227285
 20
1818.459433825889
 30
0.0
 40
2.25
  0
CIRCLE
  5
58B
330
55D
100
AcDbEntity
  8
0
  6
Continuous
 62
     7
370
    15
100
AcDbCircle
 10
4920.599398227285
 20
1843.459433825888
 30
0.0
 40
2.25
  0
CIRCLE
  5
58C
330
55D
100
AcDbEntity
  8
0
  6
Continuous
 62
     7
370
    15
100
AcDbCircle
 10
4920.599398227285
 20
1868.459433825888
 30
0.0
 40
2.250000000000227
  0
CIRCLE
  5
58D
330
55D
100
AcDbEntity
  8
0
  6
Continuous
 62
     7
370
    15
100
AcDbCircle
 10
4920.599398227285
 20
1893.459433825888
 30
0.0
 40
2.25
  0
CIRCLE
  5
58E
330
55D
100
AcDbEntity
  8
0
  6
Continuous
 62
     7
370
    15
100
AcDbCircle
 10
4920.599398227285
 20
1918.459433825888
 30
0.0
 40
2.250000000000227
  0
CIRCLE
  5
58F
330
55D
100
AcDbEntity
  8
0
  6
Continuous
 62
     7
370
    15
100
AcDbCircle
 10
4920.599398227285
 20
1943.459433825888
 30
0.0
 40
2.25
  0
CIRCLE
  5
590
330
55D
100
AcDbEntity
  8
0
  6
Continuous
 62
     7
370
    15
100
AcDbCircle
 10
4920.599398227285
 20
1968.459433825888
 30
0.0
 40
2.25
  0
CIRCLE
  5
591
330
55D
100
AcDbEntity
  8
0
  6
Continuous
 62
     7
370
    15
100
AcDbCircle
 10
4920.599398227285
 20
1993.459433825888
 30
0.0
 40
2.250000000000227
  0
CIRCLE
  5
592
330
55D
100
AcDbEntity
  8
0
  6
Continuous
 62
     7
370
    15
100
AcDbCircle
 10
4920.599398227285
 20
2018.459433825888
 30
0.0
 40
2.25
  0
CIRCLE
  5
593
330
55D
100
AcDbEntity
  8
0
  6
Continuous
 62
     7
370
    15
100
AcDbCircle
 10
4920.599398227285
 20
2043.459433825888
 30
0.0
 40
2.250000000000227
  0
CIRCLE
  5
594
330
55D
100
AcDbEntity
  8
0
  6
Continuous
 62
     7
370
    15
100
AcDbCircle
 10
4920.599398227285
 20
2068.459433825889
 30
0.0
 40
2.25
  0
CIRCLE
  5
595
330
55D
100
AcDbEntity
  8
0
  6
Continuous
 62
     7
370
    15
100
AcDbCircle
 10
4920.599398227285
 20
2093.459433825889
 30
0.0
 40
2.25
  0
CIRCLE
  5
596
330
55D
100
AcDbEntity
  8
0
  6
Continuous
 62
     7
370
    15
100
AcDbCircle
 10
4920.599398227285
 20
2118.459433825888
 30
0.0
 40
2.250000000000227
  0
CIRCLE
  5
597
330
55D
100
AcDbEntity
  8
0
  6
Continuous
 62
     7
370
    15
100
AcDbCircle
 10
4920.599398227285
 20
2143.459433825888
 30
0.0
 40
2.25
  0
CIRCLE
  5
598
330
55D
100
AcDbEntity
  8
0
  6
Continuous
 62
     7
370
    15
100
AcDbCircle
 10
4920.599398227285
 20
2168.459433825889
 30
0.0
 40
2.249999999999772
  0
CIRCLE
  5
599
330
55D
100
AcDbEntity
  8
0
  6
Continuous
 62
     7
370
    15
100
AcDbCircle
 10
4920.599398227285
 20
2193.459433825889
 30
0.0
 40
2.249999999999772
  0
CIRCLE
  5
59A
330
55D
100
AcDbEntity
  8
0
  6
Continuous
 62
     7
370
    15
100
AcDbCircle
 10
4920.599398227285
 20
2218.459433825889
 30
0.0
 40
2.249999999999772
  0
CIRCLE
  5
59B
330
55D
100
AcDbEntity
  8
0
  6
Continuous
 62
     7
370
    15
100
AcDbCircle
 10
4920.599398227285
 20
2243.459433825888
 30
0.0
 40
2.25
  0
CIRCLE
  5
59C
330
55D
100
AcDbEntity
  8
0
  6
Continuous
 62
     7
370
    15
100
AcDbCircle
 10
4920.599398227285
 20
2268.459433825888
 30
0.0
 40
2.249999999999772
  0
CIRCLE
  5
59D
330
55D
100
AcDbEntity
  8
0
  6
Continuous
 62
     7
370
    15
100
AcDbCircle
 10
4920.599398227285
 20
2293.459433825888
 30
0.0
 40
2.249999999999772
  0
CIRCLE
  5
59E
330
55D
100
AcDbEntity
  8
0
  6
Continuous
 62
     7
370
    15
100
AcDbCircle
 10
4920.599398227285
 20
2318.459433825888
 30
0.0
 40
2.25
  0
CIRCLE
  5
59F
330
55D
100
AcDbEntity
  8
0
  6
Continuous
 62
     7
370
    15
100
AcDbCircle
 10
4920.599398227285
 20
2343.459433825888
 30
0.0
 40
2.249999999999772
  0
CIRCLE
  5
5A0
330
55D
100
AcDbEntity
  8
0
  6
Continuous
 62
     7
370
    15
100
AcDbCircle
 10
4920.599398227285
 20
2368.459433825888
 30
0.0
 40
2.25
  0
CIRCLE
  5
5A1
330
55D
100
AcDbEntity
  8
0
  6
Continuous
 62
     7
370
    15
100
AcDbCircle
 10
4920.599398227285
 20
2393.459433825888
 30
0.0
 40
2.249999999999772
  0
CIRCLE
  5
5A2
330
55D
100
AcDbEntity
  8
0
  6
Continuous
 62
     7
370
    15
100
AcDbCircle
 10
4920.599398227285
 20
2418.459433825888
 30
0.0
 40
2.249999999999772
  0
CIRCLE
  5
5A3
330
55D
100
AcDbEntity
  8
0
  6
Continuous
 62
     7
370
    15
100
AcDbCircle
 10
4920.599398227285
 20
2443.459433825888
 30
0.0
 40
2.25
  0
CIRCLE
  5
5A4
330
55D
100
AcDbEntity
  8
0
  6
Continuous
 62
     7
370
    15
100
AcDbCircle
 10
4920.599398227285
 20
2468.459433825888
 30
0.0
 40
2.249999999999772
  0
CIRCLE
  5
5A5
330
55D
100
AcDbEntity
  8
0
  6
Continuous
 62
     7
370
    15
100
AcDbCircle
 10
4920.599398227285
 20
2493.459433825888
 30
0.0
 40
2.25
  0
CIRCLE
  5
5A6
330
55D
100
AcDbEntity
  8
0
  6
Continuous
 62
     7
370
    15
100
AcDbCircle
 10
4920.599398227285
 20
2518.459433825888
 30
0.0
 40
2.249999999999772
  0
CIRCLE
  5
5A7
330
55D
100
AcDbEntity
  8
0
  6
Continuous
 62
     7
370
    15
100
AcDbCircle
 10
4920.599398227285
 20
2543.459433825888
 30
0.0
 40
2.249999999999772
  0
CIRCLE
  5
5A8
330
55D
100
AcDbEntity
  8
0
  6
Continuous
 62
     7
370
    15
100
AcDbCircle
 10
4920.599398227285
 20
2568.459433825888
 30
0.0
 40
2.25
  0
CIRCLE
  5
5A9
330
55D
100
AcDbEntity
  8
0
  6
Continuous
 62
     7
370
    15
100
AcDbCircle
 10
4920.599398227285
 20
2593.459433825888
 30
0.0
 40
2.249999999999772
  0
CIRCLE
  5
5AA
330
55D
100
AcDbEntity
  8
0
  6
Continuous
 62
     7
370
    15
100
AcDbCircle
 10
4920.599398227285
 20
2618.459433825888
 30
0.0
 40
2.25
  0
CIRCLE
  5
5AB
330
55D
100
AcDbEntity
  8
0
  6
Continuous
 62
     7
370
    15
100
AcDbCircle
 10
4920.599398227285
 20
2643.459433825888
 30
0.0
 40
2.249999999999772
  0
CIRCLE
  5
5AC
330
55D
100
AcDbEntity
  8
0
  6
Continuous
 62
     7
370
    15
100
AcDbCircle
 10
4920.599398227285
 20
2668.459433825888
 30
0.0
 40
2.249999999999772
  0
CIRCLE
  5
5AD
330
55D
100
AcDbEntity
  8
0
  6
Continuous
 62
     7
370
    15
100
AcDbCircle
 10
4920.599398227285
 20
2693.459433825888
 30
0.0
 40
2.25
  0
CIRCLE
  5
5AE
330
55D
100
AcDbEntity
  8
0
  6
Continuous
 62
     7
370
    15
100
AcDbCircle
 10
4920.599398227285
 20
2718.459433825888
 30
0.0
 40
2.249999999999772
  0
CIRCLE
  5
5AF
330
55D
100
AcDbEntity
  8
0
  6
Continuous
 62
     7
370
    15
100
AcDbCircle
 10
4920.599398227285
 20
2743.459433825888
 30
0.0
 40
2.25
  0
CIRCLE
  5
5B0
330
55D
100
AcDbEntity
  8
0
  6
Continuous
 62
     7
370
    15
100
AcDbCircle
 10
4920.599398227285
 20
2768.459433825888
 30
0.0
 40
2.249999999999772
  0
CIRCLE
  5
5B1
330
55D
100
AcDbEntity
  8
0
  6
Continuous
 62
     7
370
    15
100
AcDbCircle
 10
4920.599398227285
 20
2793.459433825888
 30
0.0
 40
2.249999999999772
  0
CIRCLE
  5
5B2
330
55D
100
AcDbEntity
  8
0
  6
Continuous
 62
     7
370
    15
100
AcDbCircle
 10
4920.599398227285
 20
2818.459433825887
 30
0.0
 40
2.25
  0
CIRCLE
  5
5B3
330
55D
100
AcDbEntity
  8
0
  6
Continuous
 62
     7
370
    15
100
AcDbCircle
 10
4920.599398227285
 20
2843.459433825887
 30
0.0
 40
2.249999999999772
  0
CIRCLE
  5
5B4
330
55D
100
AcDbEntity
  8
0
  6
Continuous
 62
     7
370
    15
100
AcDbCircle
 10
4920.599398227285
 20
2868.459433825887
 30
0.0
 40
2.249999999999886
  0
CIRCLE
  5
5B5
330
55D
100
AcDbEntity
  8
0
  6
Continuous
 62
     7
370
    15
100
AcDbCircle
 10
4920.599398227285
 20
2893.459433825887
 30
0.0
 40
2.249999999999886
  0
CIRCLE
  5
5B6
330
55D
100
AcDbEntity
  8
0
  6
Continuous
 62
     7
370
    15
100
AcDbCircle
 10
4920.599398227285
 20
2918.459433825887
 30
0.0
 40
2.249999999999886
  0
CIRCLE
  5
5B7
330
55D
100
AcDbEntity
  8
0
  6
Continuous
 62
     7
370
    15
100
AcDbCircle
 10
4920.599398227285
 20
2943.459433825887
 30
0.0
 40
2.249999999999886
  0
CIRCLE
  5
5B8
330
55D
100
AcDbEntity
  8
0
  6
Continuous
 62
     7
370
    15
100
AcDbCircle
 10
4920.599398227285
 20
2968.459433825887
 30
0.0
 40
2.249999999999772
  0
CIRCLE
  5
5B9
330
55D
100
AcDbEntity
  8
0
  6
Continuous
 62
     7
370
    15
100
AcDbCircle
 10
4920.599398227285
 20
2993.459433825887
 30
0.0
 40
2.249999999999886
  0
CIRCLE
  5
5BA
330
55D
100
AcDbEntity
  8
0
  6
Continuous
 62
     7
370
    15
100
AcDbCircle
 10
4920.599398227285
 20
3018.459433825887
 30
0.0
 40
2.249999999999886
  0
CIRCLE
  5
5BB
330
55D
100
AcDbEntity
  8
0
  6
Continuous
 62
     7
370
    15
100
AcDbCircle
 10
4920.599398227285
 20
3043.459433825887
 30
0.0
 40
2.249999999999886
  0
CIRCLE
  5
5BC
330
55D
100
AcDbEntity
  8
0
  6
Continuous
 62
     7
370
    15
100
AcDbCircle
 10
4920.599398227285
 20
3068.459433825887
 30
0.0
 40
2.249999999999886
  0
CIRCLE
  5
5BD
330
55D
100
AcDbEntity
  8
0
  6
Continuous
 62
     7
370
    15
100
AcDbCircle
 10
4920.599398227285
 20
3093.459433825887
 30
0.0
 40
2.249999999999772
  0
CIRCLE
  5
5BE
330
55D
100
AcDbEntity
  8
0
  6
Continuous
 62
     7
370
    15
100
AcDbCircle
 10
4920.599398227285
 20
3118.459433825887
 30
0.0
 40
2.249999999999886
  0
CIRCLE
  5
5BF
330
55D
100
AcDbEntity
  8
0
  6
Continuous
 62
     7
370
    15
100
AcDbCircle
 10
4920.599398227285
 20
3143.459433825887
 30
0.0
 40
2.249999999999886
  0
CIRCLE
  5
5C0
330
55D
100
AcDbEntity
  8
0
  6
Continuous
 62
     7
370
    15
100
AcDbCircle
 10
4920.599398227285
 20
3168.459433825887
 30
0.0
 40
2.25
  0
CIRCLE
  5
5C1
330
55D
100
AcDbEntity
  8
0
  6
Continuous
 62
     7
370
    15
100
AcDbCircle
 10
4920.599398227285
 20
3193.459433825887
 30
0.0
 40
2.249999999999886
  0
CIRCLE
  5
5C2
330
55D
100
AcDbEntity
  8
0
  6
Continuous
 62
     7
370
    15
100
AcDbCircle
 10
4920.599398227285
 20
3218.459433825887
 30
0.0
 40
2.25
  0
CIRCLE
  5
5C3
330
55D
100
AcDbEntity
  8
0
  6
Continuous
 62
     7
370
    15
100
AcDbCircle
 10
4920.599398227285
 20
3243.459433825887
 30
0.0
 40
2.25
  0
CIRCLE
  5
5C4
330
55D
100
AcDbEntity
  8
0
  6
Continuous
 62
     7
370
    15
100
AcDbCircle
 10
4920.599398227285
 20
3268.459433825887
 30
0.0
 40
2.25
  0
CIRCLE
  5
5C5
330
55D
100
AcDbEntity
  8
0
  6
Continuous
 62
     7
370
    15
100
AcDbCircle
 10
4920.599398227285
 20
3293.459433825887
 30
0.0
 40
2.25
  0
CIRCLE
  5
5C6
330
55D
100
AcDbEntity
  8
0
  6
Continuous
 62
     7
370
    15
100
AcDbCircle
 10
4920.599398227285
 20
3318.459433825887
 30
0.0
 40
2.249999999999886
  0
CIRCLE
  5
5C7
330
55D
100
AcDbEntity
  8
0
  6
Continuous
 62
     7
370
    15
100
AcDbCircle
 10
4920.599398227285
 20
3343.459433825887
 30
0.0
 40
2.25
  0
CIRCLE
  5
5C8
330
55D
100
AcDbEntity
  8
0
  6
Continuous
 62
     7
370
    15
100
AcDbCircle
 10
4920.599398227285
 20
3368.459433825886
 30
0.0
 40
2.25
  0
CIRCLE
  5
5C9
330
55D
100
AcDbEntity
  8
0
  6
Continuous
 62
     7
370
    15
100
AcDbCircle
 10
4920.599398227285
 20
3393.459433825886
 30
0.0
 40
2.25
  0
CIRCLE
  5
5CA
330
55D
100
AcDbEntity
  8
0
  6
Continuous
 62
     7
370
    15
100
AcDbCircle
 10
4920.599398227285
 20
3418.459433825886
 30
0.0
 40
2.249999999999943
  0
CIRCLE
  5
5CB
330
55D
100
AcDbEntity
  8
0
  6
Continuous
 62
     7
370
    15
100
AcDbCircle
 10
4920.599398227285
 20
3443.459433825887
 30
0.0
 40
2.25
  0
CIRCLE
  5
5CC
330
55D
100
AcDbEntity
  8
0
  6
Continuous
 62
     7
370
    15
100
AcDbCircle
 10
4920.599398227285
 20
3468.459433825887
 30
0.0
 40
2.249999999999943
  0
CIRCLE
  5
5CD
330
55D
100
AcDbEntity
  8
0
  6
Continuous
 62
     7
370
    15
100
AcDbCircle
 10
4920.599398227285
 20
3493.459433825886
 30
0.0
 40
2.25
  0
CIRCLE
  5
5CE
330
55D
100
AcDbEntity
  8
0
  6
Continuous
 62
     7
370
    15
100
AcDbCircle
 10
4920.599398227285
 20
3518.459433825886
 30
0.0
 40
2.25
  0
CIRCLE
  5
5CF
330
55D
100
AcDbEntity
  8
0
  6
Continuous
 62
     7
370
    15
100
AcDbCircle
 10
4920.599398227285
 20
3543.459433825886
 30
0.0
 40
2.249999999999943
  0
CIRCLE
  5
5D0
330
55D
100
AcDbEntity
  8
0
  6
Continuous
 62
     7
370
    15
100
AcDbCircle
 10
4920.599398227285
 20
3568.459433825886
 30
0.0
 40
2.25
  0
CIRCLE
  5
5D1
330
55D
100
AcDbEntity
  8
0
  6
Continuous
 62
     7
370
    15
100
AcDbCircle
 10
4920.599398227285
 20
3593.459433825886
 30
0.0
 40
2.249999999999943
  0
CIRCLE
  5
5D2
330
55D
100
AcDbEntity
  8
0
  6
Continuous
 62
     7
370
    15
100
AcDbCircle
 10
4920.599398227285
 20
3618.459433825886
 30
0.0
 40
2.249999999999971
  0
CIRCLE
  5
5D3
330
55D
100
AcDbEntity
  8
0
  6
Continuous
 62
     7
370
    15
100
AcDbCircle
 10
4920.599398227285
 20
3643.459433825886
 30
0.0
 40
2.249999999999971
  0
CIRCLE
  5
5D4
330
55D
100
AcDbEntity
  8
0
  6
Continuous
 62
     7
370
    15
100
AcDbCircle
 10
4920.599398227285
 20
3668.459433825886
 30
0.0
 40
2.249999999999857
  0
CIRCLE
  5
5D5
330
55D
100
AcDbEntity
  8
0
  6
Continuous
 62
     7
370
    15
100
AcDbCircle
 10
4920.599398227285
 20
3693.459433825886
 30
0.0
 40
2.249999999999857
  0
CIRCLE
  5
5D6
330
55D
100
AcDbEntity
  8
0
  6
Continuous
 62
     7
370
    15
100
AcDbCircle
 10
4920.599398227285
 20
3718.459433825886
 30
0.0
 40
2.249999999999857
  0
CIRCLE
  5
5D7
330
55D
100
AcDbEntity
  8
0
  6
Continuous
 62
     7
370
    15
100
AcDbCircle
 10
4920.599398227285
 20
3743.459433825886
 30
0.0
 40
2.249999999999872
  0
CIRCLE
  5
5D8
330
55D
100
AcDbEntity
  8
0
  6
Continuous
 62
     7
370
    15
100
AcDbCircle
 10
4920.599398227285
 20
3768.459433825886
 30
0.0
 40
2.249999999999872
  0
CIRCLE
  5
5D9
330
55D
100
AcDbEntity
  8
0
  6
Continuous
 62
     7
370
    15
100
AcDbCircle
 10
4920.599398227285
 20
3793.459433825886
 30
0.0
 40
2.249999999999872
  0
CIRCLE
  5
5DA
330
55D
100
AcDbEntity
  8
0
  6
Continuous
 62
     7
370
    15
100
AcDbCircle
 10
4920.599398227285
 20
3818.459433825886
 30
0.0
 40
2.249999999999864
  0
CIRCLE
  5
5DB
330
55D
100
AcDbEntity
  8
0
  6
Continuous
 62
     7
370
    15
100
AcDbCircle
 10
4920.599398227285
 20
3843.459433825886
 30
0.0
 40
2.249999999999861
  0
CIRCLE
  5
5DC
330
55D
100
AcDbEntity
  8
0
  6
Continuous
 62
     7
370
    15
100
AcDbCircle
 10
4920.599398227285
 20
3868.459433825886
 30
0.0
 40
2.249999999999863
  0
CIRCLE
  5
5DD
330
55D
100
AcDbEntity
  8
0
  6
Continuous
 62
     7
370
    15
100
AcDbCircle
 10
4920.599398227285
 20
3893.459433825886
 30
0.0
 40
2.249999999999864
  0
CIRCLE
  5
5DE
330
55D
100
AcDbEntity
  8
0
  6
Continuous
 62
     7
370
    15
100
AcDbCircle
 10
4920.599398227285
 20
3918.459433825886
 30
0.0
 40
2.249999999999864
  0
CIRCLE
  5
5DF
330
55D
100
AcDbEntity
  8
0
  6
Continuous
 62
     7
370
    15
100
AcDbCircle
 10
4920.599398227285
 20
3943.459433825886
 30
0.0
 40
2.249999999999857
  0
CIRCLE
  5
5E0
330
55D
100
AcDbEntity
  8
0
  6
Continuous
 62
     7
370
    15
100
AcDbCircle
 10
4920.599398227285
 20
3968.459433825886
 30
0.0
 40
2.249999999999857
  0
CIRCLE
  5
5E1
330
55D
100
AcDbEntity
  8
0
  6
Continuous
 62
     7
370
    15
100
AcDbCircle
 10
4920.599398227285
 20
3993.459433825885
 30
0.0
 40
2.249999999999857
  0
CIRCLE
  5
5E2
330
55D
100
AcDbEntity
  8
0
  6
Continuous
 62
     7
370
    15
100
AcDbCircle
 10
4920.599398227285
 20
4018.459433825885
 30
0.0
 40
2.249999999999857
  0
CIRCLE
  5
5E3
330
55D
100
AcDbEntity
  8
0
  6
Continuous
 62
     7
370
    15
100
AcDbCircle
 10
4920.599398227285
 20
4043.459433825885
 30
0.0
 40
2.249999999999886
  0
CIRCLE
  5
5E4
330
55D
100
AcDbEntity
  8
0
  6
Continuous
 62
     7
370
    15
100
AcDbCircle
 10
4920.599398227285
 20
4068.459433825885
 30
0.0
 40
2.249999999999886
  0
CIRCLE
  5
5E5
330
55D
100
AcDbEntity
  8
0
  6
Continuous
 62
     7
370
    15
100
AcDbCircle
 10
4920.599398227285
 20
4093.459433825886
 30
0.0
 40
2.249999999999857
  0
CIRCLE
  5
5E6
330
55D
100
AcDbEntity
  8
0
  6
Continuous
 62
     7
370
    15
100
AcDbCircle
 10
4920.599398227285
 20
4118.459433825885
 30
0.0
 40
2.249999999999857
  0
LINE
  5
5E7
330
55D
100
AcDbEntity
  8
0
  6
Continuous
 62
     7
370
    15
100
AcDbLine
 10
4926.099398227285
 20
1155.959433825889
 30
0.0
 11
4915.099398227283
 21
1155.959433825889
 31
0.0
  0
LINE
  5
5E8
330
55D
100
AcDbEntity
  8
0
  6
Continuous
 62
     7
370
    15
100
AcDbLine
 10
4926.099398227285
 20
4155.95943382589
 30
0.0
 11
4915.099398227283
 21
4155.95943382589
 31
0.0
  0
ENDBLK
  5
55F
330
55D
100
AcDbEntity
  8
0
100
AcDbBlockEnd
  0
BLOCK
  5
5EB
330
5EA
100
AcDbEntity
  8
0
100
AcDbBlockBegin
  2
4
 70
     0
 10
0.0
 20
0.0
 30
0.0
  3
4
  1

  0
LINE
  5
5ED
330
5EA
100
AcDbEntity
  8
0
  6
Continuous
 62
     7
370
    15
100
AcDbLine
 10
4541.583214524335
 20
3827.813522933888
 30
0.0
 11
2486.283762224203
 21
2116.386632312606
 31
0.0
  0
LINE
  5
5EE
330
5EA
100
AcDbEntity
  8
0
  6
Continuous
 62
     7
370
    15
100
AcDbLine
 10
2500.164728733624
 20
2097.149701557945
 30
0.0
 11
4555.464181033756
 21
3808.576592179228
 31
0.0
  0
LINE
  5
5EF
330
5EA
100
AcDbEntity
  8
0
  6
Continuous
 62
     7
370
    15
100
AcDbLine
 10
2500.875880268162
 20
2104.509893605299
 30
0.0
 11
4556.175332568295
 21
3815.936784226581
 31
0.0
  0
ARC
  5
5F0
330
5EA
100
AcDbEntity
  8
0
  6
Continuous
 62
     7
370
    15
100
AcDbCircle
 10
2499.248372266553
 20
2104.340216876304
 30
0.0
 40
1.636328966821922
100
AcDbArc
 50
5.951900534920739
 51
54.44105716864225
  0
LINE
  5
5F1
330
5EA
100
AcDbEntity
  8
0
  6
Continuous
 62
     7
370
    15
100
AcDbLine
 10
2500.199963286778
 20
2105.671399440001
 30
0.0
 11
4555.49941558691
 21
3817.098290061282
 31
0.0
  0
ARC
  5
5F2
330
5EA
100
AcDbEntity
  8
0
  6
Continuous
 62
     7
370
    15
100
AcDbCircle
 10
4554.547824566683
 20
3815.767107497585
 30
0.0
 40
1.636328966824399
100
AcDbArc
 50
5.951900534972569
 51
54.44105716862408
  0
LINE
  5
5F3
330
5EA
100
AcDbEntity
  8
0
  6
Continuous
 62
     7
370
    15
100
AcDbLine
 10
2486.196976308766
 20
2116.196723827483
 30
0.0
 11
2485.572610689665
 21
2109.026440265254
 31
0.0
  0
LWPOLYLINE
  5
5F4
330
5EA
100
AcDbEntity
  8
0
  6
Continuous
 62
     7
370
    15
100
AcDbPolyline
 90
        9
 70
   128
 43
0.0
 10
2486.974416155045
 20
2116.201117758998
 10
2486.831672862598
 20
2116.302787207356
 10
2486.692464381446
 20
2116.378147118744
 10
2486.562140415452
 20
2116.424301454031
 10
2486.445709241542
 20
2116.439476527995
 10
2486.347645244434
 20
2116.423089171054
 10
2486.271716968542
 20
2116.375769140145
 10
2486.220842294928
 20
2116.299334917517
 10
2486.196976308766
 20
2116.196723827483
  0
LINE
  5
5F5
330
5EA
100
AcDbEntity
  8
0
  6
Continuous
 62
     7
370
    15
100
AcDbLine
 10
2489.590458444838
 20
2114.118316333263
 30
0.0
 11
2486.974416155045
 21
2116.201117758998
 31
0.0
  0
LINE
  5
5F6
330
5EA
100
AcDbEntity
  8
0
  6
Continuous
 62
     7
370
    15
100
AcDbLine
 10
2489.529544725901
 20
2113.418776473534
 30
0.0
 11
2489.590458444838
 21
2114.118316333263
 31
0.0
  0
LINE
  5
5F7
330
5EA
100
AcDbEntity
  8
0
  6
Continuous
 62
     7
370
    15
100
AcDbLine
 10
2487.42217732579
 20
2115.096588733154
 30
0.0
 11
2489.529544725901
 21
2113.418776473534
 31
0.0
  0
LWPOLYLINE
  5
5F8
330
5EA
100
AcDbEntity
  8
0
  6
Continuous
 62
     7
370
    15
100
AcDbPolyline
 90
        9
 70
   128
 43
0.0
 10
2487.033457402652
 20
2115.094391767397
 10
2487.045390395732
 20
2115.145697312414
 10
2487.070827732539
 20
2115.183914423727
 10
2487.108791870486
 20
2115.207574439182
 10
2487.15782386904
 20
2115.215768117652
 10
2487.216039455994
 20
2115.208180580671
 10
2487.281201438991
 20
2115.185103413027
 10
2487.350805679567
 20
2115.147423457333
 10
2487.42217732579
 20
2115.096588733154
  0
LINE
  5
5F9
330
5EA
100
AcDbEntity
  8
0
  6
Continuous
 62
     7
370
    15
100
AcDbLine
 10
2486.480157788976
 20
2108.740238041515
 30
0.0
 11
2487.033457402652
 21
2115.094391767397
 31
0.0
  0
ARC
  5
5FA
330
5EA
100
AcDbEntity
  8
0
  6
Continuous
 62
     7
370
    15
100
AcDbCircle
 10
2487.293911789785
 20
2108.825076406017
 30
0.0
 40
0.8181644834162622
100
AcDbArc
 50
185.9519005351553
 51
234.4410571685484
  0
LINE
  5
5FB
330
5EA
100
AcDbEntity
  8
0
  6
Continuous
 62
     7
370
    15
100
AcDbLine
 10
2499.026313632037
 20
2098.439745137397
 30
0.0
 11
2486.818116279668
 21
2108.159485124165
 31
0.0
  0
LWPOLYLINE
  5
5FC
330
5EA
100
AcDbEntity
  8
0
  6
Continuous
 62
     7
370
    15
100
AcDbPolyline
 90
        9
 70
   128
 43
0.0
 10
2499.415033555176
 20
2098.441942103154
 10
2499.403100562096
 20
2098.390636558137
 10
2499.377663225289
 20
2098.352419446824
 10
2499.339699087343
 20
2098.328759431369
 10
2499.290667088789
 20
2098.320565752899
 10
2499.232451501833
 20
2098.328153289881
 10
2499.167289518836
 20
2098.351230457524
 10
2499.097685278261
 20
2098.388910413218
 10
2499.026313632037
 20
2098.439745137397
  0
LINE
  5
5FD
330
5EA
100
AcDbEntity
  8
0
  6
Continuous
 62
     7
370
    15
100
AcDbLine
 10
2499.968333168852
 20
2104.796095829037
 30
0.0
 11
2499.415033555176
 21
2098.441942103154
 31
0.0
  0
ARC
  5
5FE
330
5EA
100
AcDbEntity
  8
0
  6
Continuous
 62
     7
370
    15
100
AcDbCircle
 10
2499.154579168049
 20
2104.71125746454
 30
0.0
 40
0.8181644834097713
100
AcDbArc
 50
5.951900534893474
 51
54.44105716864225
  0
LINE
  5
5FF
330
5EA
100
AcDbEntity
  8
0
  6
Continuous
 62
     7
370
    15
100
AcDbLine
 10
2497.523007278049
 20
2107.054661006007
 30
0.0
 11
2499.63037467816
 21
2105.376848746387
 31
0.0
  0
LINE
  5
600
330
5EA
100
AcDbEntity
  8
0
  6
Continuous
 62
     7
370
    15
100
AcDbLine
 10
2497.583920996985
 20
2107.754200865736
 30
0.0
 11
2497.523007278049
 21
2107.054661006007
 31
0.0
  0
LINE
  5
601
330
5EA
100
AcDbEntity
  8
0
  6
Continuous
 62
     7
370
    15
100
AcDbLine
 10
2500.199963286778
 20
2105.671399440001
 30
0.0
 11
2497.583920996985
 21
2107.754200865736
 31
0.0
  0
LINE
  5
602
330
5EA
100
AcDbEntity
  8
0
  6
Continuous
 62
     7
370
    15
100
AcDbLine
 10
2500.25151464906
 20
2097.339610043068
 30
0.0
 11
2500.875880268162
 21
2104.509893605299
 31
0.0
  0
LWPOLYLINE
  5
603
330
5EA
100
AcDbEntity
  8
0
  6
Continuous
 62
     7
370
    15
100
AcDbPolyline
 90
        9
 70
   128
 43
0.0
 10
2499.474074802782
 20
2097.335216111554
 10
2499.61681809523
 20
2097.233546663196
 10
2499.756026576381
 20
2097.158186751808
 10
2499.886350542375
 20
2097.112032416521
 10
2500.002781716285
 20
2097.096857342557
 10
2500.100845713393
 20
2097.113244699498
 10
2500.176773989285
 20
2097.160564730408
 10
2500.227648662899
 20
2097.236998953034
 10
2500.25151464906
 20
2097.339610043068
  0
LINE
  5
604
330
5EA
100
AcDbEntity
  8
0
  6
Continuous
 62
     7
370
    15
100
AcDbLine
 10
2486.248527671049
 20
2107.864934430552
 30
0.0
 11
2499.474074802782
 21
2097.335216111554
 31
0.0
  0
ARC
  5
605
330
5EA
100
AcDbEntity
  8
0
  6
Continuous
 62
     7
370
    15
100
AcDbCircle
 10
2487.200118691276
 20
2109.196116994251
 30
0.0
 40
1.636328966825371
100
AcDbArc
 50
185.9519005349985
 51
234.4410571686241
  0
LINE
  5
606
330
5EA
100
AcDbEntity
  8
0
  6
Continuous
 62
     7
370
    15
100
AcDbLine
 10
2497.583920996985
 20
2107.754200865736
 30
0.0
 11
4552.883373297118
 21
3819.181091487017
 31
0.0
  0
LINE
  5
607
330
5EA
100
AcDbEntity
  8
0
  6
Continuous
 62
     7
370
    15
100
AcDbLine
 10
4555.49941558691
 20
3817.098290061282
 30
0.0
 11
4552.883373297118
 21
3819.181091487017
 31
0.0
  0
LINE
  5
608
330
5EA
100
AcDbEntity
  8
0
  6
Continuous
 62
     7
370
    15
100
AcDbLine
 10
2500.25151464906
 20
2097.339610043068
 30
0.0
 11
4555.550966949193
 21
3808.766500664351
 31
0.0
  0
LINE
  5
609
330
5EA
100
AcDbEntity
  8
0
  6
Continuous
 62
     7
370
    15
100
AcDbLine
 10
4555.550966949193
 20
3808.766500664351
 30
0.0
 11
4556.175332568295
 21
3815.936784226581
 31
0.0
  0
LINE
  5
60A
330
5EA
100
AcDbEntity
  8
0
  6
Continuous
 62
     7
370
    15
100
AcDbLine
 10
2489.590458444838
 20
2114.118316333263
 30
0.0
 11
4544.88991074497
 21
3825.545206954545
 31
0.0
  0
LINE
  5
60B
330
5EA
100
AcDbEntity
  8
0
  6
Continuous
 62
     7
370
    15
100
AcDbLine
 10
2486.974416155045
 20
2116.201117758998
 30
0.0
 11
4542.273868455178
 21
3827.62800838028
 31
0.0
  0
LINE
  5
60C
330
5EA
100
AcDbEntity
  8
0
  6
Continuous
 62
     7
370
    15
100
AcDbLine
 10
4544.88991074497
 20
3825.545206954545
 30
0.0
 11
4542.273868455178
 21
3827.62800838028
 31
0.0
  0
LINE
  5
60D
330
5EA
100
AcDbEntity
  8
0
  6
Continuous
 62
     7
370
    15
100
AcDbLine
 10
2489.529544725901
 20
2113.418776473534
 30
0.0
 11
4544.828997026034
 21
3824.845667094816
 31
0.0
  0
LINE
  5
60E
330
5EA
100
AcDbEntity
  8
0
  6
Continuous
 62
     7
370
    15
100
AcDbLine
 10
4544.828997026034
 20
3824.845667094816
 30
0.0
 11
4544.88991074497
 21
3825.545206954545
 31
0.0
  0
LWPOLYLINE
  5
60F
330
5EA
100
AcDbEntity
  8
0
  6
Continuous
 62
     7
370
    15
100
AcDbPolyline
 90
        7
 70
   128
 43
0.0
 10
4542.273868455178
 20
3827.62800838028
 10
4542.13112516273
 20
3827.729677828638
 10
4541.991916681578
 20
3827.805037740026
 10
4541.861592715584
 20
3827.851192075313
 10
4541.745161541673
 20
3827.866367149277
 10
4541.647097544566
 20
3827.849979792335
 10
4541.583214524335
 20
3827.813522933888
  0
LINE
  5
610
330
5EA
100
AcDbEntity
  8
0
  6
Continuous
 62
     7
370
    15
100
AcDbLine
 10
2486.480157788976
 20
2108.740238041515
 30
0.0
 11
4541.779610089108
 21
3820.167128662798
 31
0.0
  0
LINE
  5
611
330
5EA
100
AcDbEntity
  8
0
  6
Continuous
 62
     7
370
    15
100
AcDbLine
 10
4541.779610089108
 20
3820.167128662798
 30
0.0
 11
4541.980460769682
 21
3822.473720008189
 31
0.0
  0
ARC
  5
612
330
5EA
100
AcDbEntity
  8
0
  6
Continuous
 62
     7
370
    15
100
AcDbCircle
 10
4555.293558716796
 20
3808.769348852883
 30
0.0
 40
0.2574239893322214
100
AcDbArc
 50
311.5142723064221
 51
359.3660555401513
  0
LINE
  5
613
330
5EA
100
AcDbEntity
  8
0
  6
Continuous
 62
     7
370
    15
100
AcDbLine
 10
2486.818116279668
 20
2108.159485124165
 30
0.0
 11
4542.1175685798
 21
3819.586375745447
 31
0.0
  0
LINE
  5
614
330
5EA
100
AcDbEntity
  8
0
  6
Continuous
 62
     7
370
    15
100
AcDbLine
 10
4547.869990331508
 20
3815.006498626244
 30
0.0
 11
4542.1175685798
 21
3819.586375745447
 31
0.0
  0
LWPOLYLINE
  5
615
330
5EA
100
AcDbEntity
  8
0
  6
Continuous
 62
     7
370
    15
100
AcDbPolyline
 90
       12
 70
   128
 43
0.0
 10
2498.0692169119
 20
2108.158301824243
 10
2497.60661424515
 20
2108.700898607593
 10
2497.124496733294
 20
2109.678503963253
 10
2496.995719253298
 20
2110.717036467547
 10
2497.230714590723
 20
2111.732360393366
 10
2497.810444820903
 20
2112.642220234604
 10
2498.687943648374
 20
2113.372904558071
 10
2499.792121336824
 20
2113.865217665424
 10
2501.03352397673
 20
2114.079275276605
 10
2502.311580509115
 20
2113.997735717006
 10
2503.522750394617
 20
2113.627204836811
 10
2504.199354586688
 20
2113.262804940858
  0
LWPOLYLINE
  5
616
330
5EA
100
AcDbEntity
  8
0
  6
Continuous
 62
     7
370
    15
100
AcDbPolyline
 90
       12
 70
   128
 43
0.0
 10
4536.241173776196
 20
3805.323301690346
 10
4535.778571109445
 20
3805.865898473695
 10
4535.296453597589
 20
3806.843503829356
 10
4535.167676117593
 20
3807.882036333649
 10
4535.402671455019
 20
3808.897360259468
 10
4535.982401685198
 20
3809.807220100707
 10
4536.859900512669
 20
3810.537904424173
 10
4537.964078201119
 20
3811.030217531526
 10
4539.205480841025
 20
3811.244275142707
 10
4540.483537373409
 20
3811.162735583108
 10
4541.694707258911
 20
3810.792204702913
 10
4542.371311450983
 20
3810.427804806959
  0
LWPOLYLINE
  5
617
330
5EA
100
AcDbEntity
  8
0
  6
Continuous
 62
     7
370
    15
100
AcDbPolyline
 90
       10
 70
   128
 43
0.0
 10
2568.798205529829
 20
2169.059430951591
 10
2568.585311600994
 20
2170.118052802422
 10
2568.75521382193
 20
2171.17047395968
 10
2569.293438679946
 20
2172.127041498947
 10
2570.154136248725
 20
2172.906268007404
 10
2571.263986020074
 20
2173.441773277102
 10
2572.528442880582
 20
2173.687939056128
 10
2573.839791155243
 20
2173.623795144643
 10
2575.086320615743
 20
2173.254805789738
 10
2575.792285508475
 20
2172.877508297499
  0
ARC
  5
618
330
5EA
100
AcDbEntity
  8
0
  6
Continuous
 62
     7
370
    15
100
AcDbCircle
 10
2569.924882810962
 20
2166.621871685117
 30
0.0
 40
2.685348557151889
100
AcDbArc
 50
62.86444525826384
 51
114.8071039887352
  0
LWPOLYLINE
  5
619
330
5EA
100
AcDbEntity
  8
0
  6
Continuous
 62
     7
370
    15
100
AcDbPolyline
 90
        9
 70
   128
 43
0.0
 10
2516.756385805076
 20
2123.718916759245
 10
2516.563623760064
 20
2124.004745555907
 10
2516.367332697671
 20
2124.705306976152
 10
2516.512993868069
 20
2125.403911230691
 10
2516.978431678483
 20
2125.994202154632
 10
2517.692787441484
 20
2126.386313305808
 10
2518.547306967807
 20
2126.520549315947
 10
2519.411897405806
 20
2126.376473969358
 10
2519.767176565181
 20
2126.22597151621
  0
LWPOLYLINE
  5
61A
330
5EA
100
AcDbEntity
  8
0
  6
Continuous
 62
     7
370
    15
100
AcDbPolyline
 90
        9
 70
   128
 43
0.0
 10
2533.883881240911
 20
2137.980807514423
 10
2533.691119195899
 20
2138.266636311084
 10
2533.494828133505
 20
2138.967197731329
 10
2533.640489303903
 20
2139.665801985868
 10
2534.105927114318
 20
2140.25609290981
 10
2534.820282877319
 20
2140.648204060985
 10
2535.674802403642
 20
2140.782440071124
 10
2536.53939284164
 20
2140.638364724535
 10
2536.894672001015
 20
2140.487862271387
  0
LWPOLYLINE
  5
61B
330
5EA
100
AcDbEntity
  8
0
  6
Continuous
 62
     7
370
    15
100
AcDbPolyline
 90
        9
 70
   128
 43
0.0
 10
2551.011376676745
 20
2152.2426982696
 10
2550.818614631733
 20
2152.528527066261
 10
2550.62232356934
 20
2153.229088486506
 10
2550.767984739737
 20
2153.927692741046
 10
2551.233422550152
 20
2154.517983664987
 10
2551.947778313154
 20
2154.910094816163
 10
2552.802297839475
 20
2155.044330826301
 10
2553.666888277475
 20
2154.900255479713
 10
2554.022167436849
 20
2154.749753026564
  0
LWPOLYLINE
  5
61C
330
5EA
100
AcDbEntity
  8
0
  6
Continuous
 62
     7
370
    15
100
AcDbPolyline
 90
        9
 70
   128
 43
0.0
 10
2585.266367548414
 20
2180.766479779954
 10
2585.073605503402
 20
2181.052308576616
 10
2584.877314441009
 20
2181.752869996861
 10
2585.022975611406
 20
2182.4514742514
 10
2585.48841342182
 20
2183.041765175341
 10
2586.202769184822
 20
2183.433876326517
 10
2587.057288711144
 20
2183.568112336656
 10
2587.921879149144
 20
2183.424036990067
 10
2588.277158308518
 20
2183.273534536919
  0
LWPOLYLINE
  5
61D
330
5EA
100
AcDbEntity
  8
0
  6
Continuous
 62
     7
370
    15
100
AcDbPolyline
 90
        9
 70
   128
 43
0.0
 10
2602.393862984249
 20
2195.028370535132
 10
2602.201100939236
 20
2195.314199331793
 10
2602.004809876844
 20
2196.014760752039
 10
2602.150471047241
 20
2196.713365006577
 10
2602.615908857655
 20
2197.303655930519
 10
2603.330264620657
 20
2197.695767081695
 10
2604.18478414698
 20
2197.830003091834
 10
2605.049374584978
 20
2197.685927745245
 10
2605.404653744353
 20
2197.535425292097
  0
LWPOLYLINE
  5
61E
330
5EA
100
AcDbEntity
  8
0
  6
Continuous
 62
     7
370
    15
100
AcDbPolyline
 90
        9
 70
   128
 43
0.0
 10
2619.521358420083
 20
2209.290261290309
 10
2619.32859637507
 20
2209.57609008697
 10
2619.132305312678
 20
2210.276651507216
 10
2619.277966483075
 20
2210.975255761755
 10
2619.74340429349
 20
2211.565546685696
 10
2620.457760056492
 20
2211.957657836872
 10
2621.312279582813
 20
2212.091893847011
 10
2622.176870020812
 20
2211.947818500422
 10
2622.532149180187
 20
2211.797316047274
  0
LWPOLYLINE
  5
61F
330
5EA
100
AcDbEntity
  8
0
  6
Continuous
 62
     7
370
    15
100
AcDbPolyline
 90
        9
 70
   128
 43
0.0
 10
2636.648853855917
 20
2223.552152045487
 10
2636.456091810905
 20
2223.837980842148
 10
2636.259800748512
 20
2224.538542262394
 10
2636.405461918909
 20
2225.237146516932
 10
2636.870899729324
 20
2225.827437440874
 10
2637.585255492326
 20
2226.219548592049
 10
2638.439775018648
 20
2226.353784602189
 10
2639.304365456647
 20
2226.2097092556
 10
2639.659644616022
 20
2226.059206802452
  0
LWPOLYLINE
  5
620
330
5EA
100
AcDbEntity
  8
0
  6
Continuous
 62
     7
370
    15
100
AcDbPolyline
 90
        9
 70
   128
 43
0.0
 10
2653.776349291752
 20
2237.814042800664
 10
2653.583587246739
 20
2238.099871597325
 10
2653.387296184347
 20
2238.800433017571
 10
2653.532957354743
 20
2239.49903727211
 10
2653.998395165158
 20
2240.089328196051
 10
2654.71275092816
 20
2240.481439347226
 10
2655.567270454482
 20
2240.615675357366
 10
2656.431860892482
 20
2240.471600010776
 10
2656.787140051856
 20
2240.321097557629
  0
LWPOLYLINE
  5
621
330
5EA
100
AcDbEntity
  8
0
  6
Continuous
 62
     7
370
    15
100
AcDbPolyline
 90
        9
 70
   128
 43
0.0
 10
2670.903844727586
 20
2252.075933555841
 10
2670.711082682573
 20
2252.361762352502
 10
2670.514791620181
 20
2253.062323772748
 10
2670.660452790579
 20
2253.760928027286
 10
2671.125890600993
 20
2254.351218951228
 10
2671.840246363994
 20
2254.743330102404
 10
2672.694765890316
 20
2254.877566112543
 10
2673.559356328316
 20
2254.733490765954
 10
2673.914635487691
 20
2254.582988312806
  0
LWPOLYLINE
  5
622
330
5EA
100
AcDbEntity
  8
0
  6
Continuous
 62
     7
370
    15
100
AcDbPolyline
 90
        9
 70
   128
 43
0.0
 10
2688.031340163421
 20
2266.337824311019
 10
2687.838578118407
 20
2266.62365310768
 10
2687.642287056015
 20
2267.324214527925
 10
2687.787948226412
 20
2268.022818782464
 10
2688.253386036827
 20
2268.613109706405
 10
2688.967741799829
 20
2269.005220857581
 10
2689.822261326151
 20
2269.13945686772
 10
2690.68685176415
 20
2268.995381521131
 10
2691.042130923525
 20
2268.844879067983
  0
LWPOLYLINE
  5
623
330
5EA
100
AcDbEntity
  8
0
  6
Continuous
 62
     7
370
    15
100
AcDbPolyline
 90
        9
 70
   128
 43
0.0
 10
2705.158835599255
 20
2280.599715066196
 10
2704.966073554242
 20
2280.885543862857
 10
2704.76978249185
 20
2281.586105283103
 10
2704.915443662247
 20
2282.284709537641
 10
2705.380881472661
 20
2282.875000461583
 10
2706.095237235663
 20
2283.267111612758
 10
2706.949756761985
 20
2283.401347622898
 10
2707.814347199985
 20
2283.257272276309
 10
2708.169626359359
 20
2283.10676982316
  0
LWPOLYLINE
  5
624
330
5EA
100
AcDbEntity
  8
0
  6
Continuous
 62
     7
370
    15
100
AcDbPolyline
 90
        9
 70
   128
 43
0.0
 10
2722.286331035089
 20
2294.861605821373
 10
2722.093568990077
 20
2295.147434618034
 10
2721.897277927684
 20
2295.847996038279
 10
2722.042939098081
 20
2296.546600292819
 10
2722.508376908496
 20
2297.13689121676
 10
2723.222732671497
 20
2297.529002367936
 10
2724.07725219782
 20
2297.663238378075
 10
2724.94184263582
 20
2297.519163031486
 10
2725.297121795193
 20
2297.368660578338
  0
LWPOLYLINE
  5
625
330
5EA
100
AcDbEntity
  8
0
  6
Continuous
 62
     7
370
    15
100
AcDbPolyline
 90
        9
 70
   128
 43
0.0
 10
2739.413826470924
 20
2309.12349657655
 10
2739.221064425911
 20
2309.409325373212
 10
2739.024773363519
 20
2310.109886793457
 10
2739.170434533916
 20
2310.808491047996
 10
2739.635872344331
 20
2311.398781971938
 10
2740.350228107332
 20
2311.790893123113
 10
2741.204747633654
 20
2311.925129133252
 10
2742.069338071654
 20
2311.781053786663
 10
2742.424617231028
 20
2311.630551333516
  0
LWPOLYLINE
  5
626
330
5EA
100
AcDbEntity
  8
0
  6
Continuous
 62
     7
370
    15
100
AcDbPolyline
 90
        9
 70
   128
 43
0.0
 10
2756.541321906759
 20
2323.385387331728
 10
2756.348559861745
 20
2323.671216128389
 10
2756.152268799353
 20
2324.371777548635
 10
2756.29792996975
 20
2325.070381803174
 10
2756.763367780165
 20
2325.660672727115
 10
2757.477723543167
 20
2326.05278387829
 10
2758.332243069489
 20
2326.18701988843
 10
2759.196833507488
 20
2326.04294454184
 10
2759.552112666863
 20
2325.892442088692
  0
LWPOLYLINE
  5
627
330
5EA
100
AcDbEntity
  8
0
  6
Continuous
 62
     7
370
    15
100
AcDbPolyline
 90
        9
 70
   128
 43
0.0
 10
2773.668817342592
 20
2337.647278086905
 10
2773.47605529758
 20
2337.933106883566
 10
2773.279764235188
 20
2338.633668303812
 10
2773.425425405585
 20
2339.332272558351
 10
2773.890863215999
 20
2339.922563482292
 10
2774.605218979
 20
2340.314674633468
 10
2775.459738505323
 20
2340.448910643607
 10
2776.324328943323
 20
2340.304835297018
 10
2776.679608102697
 20
2340.15433284387
  0
LWPOLYLINE
  5
628
330
5EA
100
AcDbEntity
  8
0
  6
Continuous
 62
     7
370
    15
100
AcDbPolyline
 90
        9
 70
   128
 43
0.0
 10
2790.796312778427
 20
2351.909168842082
 10
2790.603550733415
 20
2352.194997638743
 10
2790.407259671022
 20
2352.895559058989
 10
2790.552920841419
 20
2353.594163313528
 10
2791.018358651834
 20
2354.18445423747
 10
2791.732714414835
 20
2354.576565388645
 10
2792.587233941157
 20
2354.710801398784
 10
2793.451824379157
 20
2354.566726052195
 10
2793.807103538531
 20
2354.416223599047
  0
LWPOLYLINE
  5
629
330
5EA
100
AcDbEntity
  8
0
  6
Continuous
 62
     7
370
    15
100
AcDbPolyline
 90
        9
 70
   128
 43
0.0
 10
2807.923808214262
 20
2366.17105959726
 10
2807.731046169248
 20
2366.456888393921
 10
2807.534755106857
 20
2367.157449814166
 10
2807.680416277253
 20
2367.856054068705
 10
2808.145854087669
 20
2368.446344992647
 10
2808.860209850669
 20
2368.838456143822
 10
2809.714729376992
 20
2368.972692153962
 10
2810.579319814991
 20
2368.828616807373
 10
2810.934598974366
 20
2368.678114354225
  0
LWPOLYLINE
  5
62A
330
5EA
100
AcDbEntity
  8
0
  6
Continuous
 62
     7
370
    15
100
AcDbPolyline
 90
        9
 70
   128
 43
0.0
 10
2825.051303650096
 20
2380.432950352437
 10
2824.858541605083
 20
2380.718779149098
 10
2824.66225054269
 20
2381.419340569344
 10
2824.807911713087
 20
2382.117944823883
 10
2825.273349523503
 20
2382.708235747824
 10
2825.987705286504
 20
2383.100346899
 10
2826.842224812827
 20
2383.234582909139
 10
2827.706815250826
 20
2383.09050756255
 10
2828.0620944102
 20
2382.940005109402
  0
LWPOLYLINE
  5
62B
330
5EA
100
AcDbEntity
  8
0
  6
Continuous
 62
     7
370
    15
100
AcDbPolyline
 90
        9
 70
   128
 43
0.0
 10
2842.17879908593
 20
2394.694841107614
 10
2841.986037040918
 20
2394.980669904276
 10
2841.789745978525
 20
2395.681231324521
 10
2841.935407148922
 20
2396.37983557906
 10
2842.400844959337
 20
2396.970126503002
 10
2843.115200722338
 20
2397.362237654177
 10
2843.969720248661
 20
2397.496473664316
 10
2844.83431068666
 20
2397.352398317727
 10
2845.189589846035
 20
2397.201895864579
  0
LWPOLYLINE
  5
62C
330
5EA
100
AcDbEntity
  8
0
  6
Continuous
 62
     7
370
    15
100
AcDbPolyline
 90
        9
 70
   128
 43
0.0
 10
2859.306294521764
 20
2408.956731862792
 10
2859.113532476752
 20
2409.242560659453
 10
2858.91724141436
 20
2409.943122079698
 10
2859.062902584757
 20
2410.641726334237
 10
2859.528340395171
 20
2411.232017258179
 10
2860.242696158172
 20
2411.624128409354
 10
2861.097215684495
 20
2411.758364419494
 10
2861.961806122495
 20
2411.614289072904
 10
2862.317085281869
 20
2411.463786619757
  0
LWPOLYLINE
  5
62D
330
5EA
100
AcDbEntity
  8
0
  6
Continuous
 62
     7
370
    15
100
AcDbPolyline
 90
        9
 70
   128
 43
0.0
 10
2876.433789957599
 20
2423.218622617969
 10
2876.241027912586
 20
2423.50445141463
 10
2876.044736850193
 20
2424.205012834875
 10
2876.190398020591
 20
2424.903617089415
 10
2876.655835831006
 20
2425.493908013356
 10
2877.370191594007
 20
2425.886019164532
 10
2878.22471112033
 20
2426.020255174671
 10
2879.089301558329
 20
2425.876179828082
 10
2879.444580717703
 20
2425.725677374934
  0
LWPOLYLINE
  5
62E
330
5EA
100
AcDbEntity
  8
0
  6
Continuous
 62
     7
370
    15
100
AcDbPolyline
 90
        9
 70
   128
 43
0.0
 10
2893.561285393434
 20
2437.480513373146
 10
2893.368523348421
 20
2437.766342169808
 10
2893.172232286028
 20
2438.466903590053
 10
2893.317893456425
 20
2439.165507844592
 10
2893.78333126684
 20
2439.755798768534
 10
2894.497687029842
 20
2440.147909919709
 10
2895.352206556164
 20
2440.282145929848
 10
2896.216796994164
 20
2440.138070583259
 10
2896.572076153537
 20
2439.987568130111
  0
LWPOLYLINE
  5
62F
330
5EA
100
AcDbEntity
  8
0
  6
Continuous
 62
     7
370
    15
100
AcDbPolyline
 90
        9
 70
   128
 43
0.0
 10
2910.688780829268
 20
2451.742404128324
 10
2910.496018784256
 20
2452.028232924985
 10
2910.299727721863
 20
2452.72879434523
 10
2910.44538889226
 20
2453.427398599769
 10
2910.910826702675
 20
2454.017689523711
 10
2911.625182465676
 20
2454.409800674886
 10
2912.479701991999
 20
2454.544036685025
 10
2913.344292429998
 20
2454.399961338436
 10
2913.699571589373
 20
2454.249458885289
  0
LWPOLYLINE
  5
630
330
5EA
100
AcDbEntity
  8
0
  6
Continuous
 62
     7
370
    15
100
AcDbPolyline
 90
        9
 70
   128
 43
0.0
 10
2927.816276265102
 20
2466.004294883501
 10
2927.62351422009
 20
2466.290123680163
 10
2927.427223157698
 20
2466.990685100408
 10
2927.572884328094
 20
2467.689289354947
 10
2928.038322138509
 20
2468.279580278889
 10
2928.75267790151
 20
2468.671691430064
 10
2929.607197427833
 20
2468.805927440202
 10
2930.471787865833
 20
2468.661852093614
 10
2930.827067025207
 20
2468.511349640466
  0
LWPOLYLINE
  5
631
330
5EA
100
AcDbEntity
  8
0
  6
Continuous
 62
     7
370
    15
100
AcDbPolyline
 90
        9
 70
   128
 43
0.0
 10
2944.943771700936
 20
2480.266185638678
 10
2944.751009655924
 20
2480.552014435339
 10
2944.554718593531
 20
2481.252575855585
 10
2944.700379763929
 20
2481.951180110124
 10
2945.165817574343
 20
2482.541471034066
 10
2945.880173337345
 20
2482.933582185241
 10
2946.734692863668
 20
2483.06781819538
 10
2947.599283301667
 20
2482.923742848792
 10
2947.954562461041
 20
2482.773240395644
  0
LWPOLYLINE
  5
632
330
5EA
100
AcDbEntity
  8
0
  6
Continuous
 62
     7
370
    15
100
AcDbPolyline
 90
        9
 70
   128
 43
0.0
 10
2962.071267136772
 20
2494.528076393855
 10
2961.878505091759
 20
2494.813905190517
 10
2961.682214029366
 20
2495.514466610763
 10
2961.827875199763
 20
2496.213070865302
 10
2962.293313010178
 20
2496.803361789244
 10
2963.00766877318
 20
2497.195472940419
 10
2963.862188299502
 20
2497.329708950557
 10
2964.726778737501
 20
2497.185633603968
 10
2965.082057896875
 20
2497.03513115082
  0
LWPOLYLINE
  5
633
330
5EA
100
AcDbEntity
  8
0
  6
Continuous
 62
     7
370
    15
100
AcDbPolyline
 90
        9
 70
   128
 43
0.0
 10
2979.198762572605
 20
2508.789967149033
 10
2979.006000527594
 20
2509.075795945694
 10
2978.8097094652
 20
2509.77635736594
 10
2978.955370635598
 20
2510.474961620478
 10
2979.420808446013
 20
2511.06525254442
 10
2980.135164209014
 20
2511.457363695596
 10
2980.989683735336
 20
2511.591599705735
 10
2981.854274173335
 20
2511.447524359146
 10
2982.20955333271
 20
2511.297021905998
  0
LWPOLYLINE
  5
634
330
5EA
100
AcDbEntity
  8
0
  6
Continuous
 62
     7
370
    15
100
AcDbPolyline
 90
        9
 70
   128
 43
0.0
 10
2996.32625800844
 20
2523.05185790421
 10
2996.133495963428
 20
2523.337686700871
 10
2995.937204901035
 20
2524.038248121117
 10
2996.082866071432
 20
2524.736852375656
 10
2996.548303881846
 20
2525.327143299598
 10
2997.262659644848
 20
2525.719254450773
 10
2998.117179171171
 20
2525.853490460912
 10
2998.98176960917
 20
2525.709415114323
 10
2999.337048768544
 20
2525.558912661175
  0
LWPOLYLINE
  5
635
330
5EA
100
AcDbEntity
  8
0
  6
Continuous
 62
     7
370
    15
100
AcDbPolyline
 90
        9
 70
   128
 43
0.0
 10
3013.453753444274
 20
2537.313748659388
 10
3013.260991399262
 20
2537.599577456049
 10
3013.064700336869
 20
2538.300138876294
 10
3013.210361507266
 20
2538.998743130834
 10
3013.675799317681
 20
2539.589034054776
 10
3014.390155080683
 20
2539.98114520595
 10
3015.244674607006
 20
2540.115381216089
 10
3016.109265045005
 20
2539.971305869501
 10
3016.464544204378
 20
2539.820803416353
  0
LWPOLYLINE
  5
636
330
5EA
100
AcDbEntity
  8
0
  6
Continuous
 62
     7
370
    15
100
AcDbPolyline
 90
        9
 70
   128
 43
0.0
 10
3030.581248880109
 20
2551.575639414565
 10
3030.388486835096
 20
2551.861468211226
 10
3030.192195772703
 20
2552.562029631471
 10
3030.337856943101
 20
2553.260633886011
 10
3030.803294753515
 20
2553.850924809952
 10
3031.517650516517
 20
2554.243035961127
 10
3032.37217004284
 20
2554.377271971267
 10
3033.236760480839
 20
2554.233196624677
 10
3033.592039640213
 20
2554.08269417153
  0
LWPOLYLINE
  5
637
330
5EA
100
AcDbEntity
  8
0
  6
Continuous
 62
     7
370
    15
100
AcDbPolyline
 90
        9
 70
   128
 43
0.0
 10
3047.708744315943
 20
2565.837530169743
 10
3047.515982270931
 20
2566.123358966404
 10
3047.319691208538
 20
2566.823920386649
 10
3047.465352378936
 20
2567.522524641188
 10
3047.93079018935
 20
2568.112815565129
 10
3048.645145952351
 20
2568.504926716305
 10
3049.499665478674
 20
2568.639162726444
 10
3050.364255916674
 20
2568.495087379855
 10
3050.719535076048
 20
2568.344584926708
  0
LWPOLYLINE
  5
638
330
5EA
100
AcDbEntity
  8
0
  6
Continuous
 62
     7
370
    15
100
AcDbPolyline
 90
        9
 70
   128
 43
0.0
 10
3064.836239751778
 20
2580.09942092492
 10
3064.643477706765
 20
2580.385249721581
 10
3064.447186644373
 20
2581.085811141826
 10
3064.59284781477
 20
2581.784415396365
 10
3065.058285625184
 20
2582.374706320307
 10
3065.772641388186
 20
2582.766817471482
 10
3066.627160914509
 20
2582.901053481621
 10
3067.491751352508
 20
2582.756978135032
 10
3067.847030511882
 20
2582.606475681885
  0
LWPOLYLINE
  5
639
330
5EA
100
AcDbEntity
  8
0
  6
Continuous
 62
     7
370
    15
100
AcDbPolyline
 90
        9
 70
   128
 43
0.0
 10
3081.963735187612
 20
2594.361311680097
 10
3081.7709731426
 20
2594.647140476758
 10
3081.574682080208
 20
2595.347701897003
 10
3081.720343250604
 20
2596.046306151543
 10
3082.185781061019
 20
2596.636597075484
 10
3082.90013682402
 20
2597.028708226659
 10
3083.754656350343
 20
2597.162944236798
 10
3084.619246788342
 20
2597.01886889021
 10
3084.974525947716
 20
2596.868366437062
  0
LWPOLYLINE
  5
63A
330
5EA
100
AcDbEntity
  8
0
  6
Continuous
 62
     7
370
    15
100
AcDbPolyline
 90
        9
 70
   128
 43
0.0
 10
3099.091230623446
 20
2608.623202435274
 10
3098.898468578434
 20
2608.909031231935
 10
3098.702177516041
 20
2609.609592652181
 10
3098.847838686439
 20
2610.30819690672
 10
3099.313276496853
 20
2610.898487830662
 10
3100.027632259855
 20
2611.290598981837
 10
3100.882151786178
 20
2611.424834991976
 10
3101.746742224177
 20
2611.280759645387
 10
3102.102021383551
 20
2611.13025719224
  0
LWPOLYLINE
  5
63B
330
5EA
100
AcDbEntity
  8
0
  6
Continuous
 62
     7
370
    15
100
AcDbPolyline
 90
        9
 70
   128
 43
0.0
 10
3116.218726059281
 20
2622.885093190452
 10
3116.025964014268
 20
2623.170921987113
 10
3115.829672951876
 20
2623.871483407358
 10
3115.975334122273
 20
2624.570087661898
 10
3116.440771932687
 20
2625.160378585839
 10
3117.155127695689
 20
2625.552489737014
 10
3118.009647222012
 20
2625.686725747153
 10
3118.874237660011
 20
2625.542650400565
 10
3119.229516819386
 20
2625.392147947417
  0
LWPOLYLINE
  5
63C
330
5EA
100
AcDbEntity
  8
0
  6
Continuous
 62
     7
370
    15
100
AcDbPolyline
 90
        9
 70
   128
 43
0.0
 10
3133.346221495115
 20
2637.146983945628
 10
3133.153459450103
 20
2637.43281274229
 10
3132.95716838771
 20
2638.133374162535
 10
3133.102829558107
 20
2638.831978417075
 10
3133.568267368522
 20
2639.422269341017
 10
3134.282623131523
 20
2639.814380492192
 10
3135.137142657846
 20
2639.94861650233
 10
3136.001733095846
 20
2639.804541155742
 10
3136.357012255219
 20
2639.654038702594
  0
LWPOLYLINE
  5
63D
330
5EA
100
AcDbEntity
  8
0
  6
Continuous
 62
     7
370
    15
100
AcDbPolyline
 90
        9
 70
   128
 43
0.0
 10
3150.47371693095
 20
2651.408874700806
 10
3150.280954885937
 20
2651.694703497467
 10
3150.084663823545
 20
2652.395264917713
 10
3150.230324993942
 20
2653.093869172252
 10
3150.695762804357
 20
2653.684160096194
 10
3151.410118567358
 20
2654.076271247369
 10
3152.264638093681
 20
2654.210507257508
 10
3153.12922853168
 20
2654.066431910919
 10
3153.484507691054
 20
2653.915929457771
  0
LWPOLYLINE
  5
63E
330
5EA
100
AcDbEntity
  8
0
  6
Continuous
 62
     7
370
    15
100
AcDbPolyline
 90
        9
 70
   128
 43
0.0
 10
3167.601212366784
 20
2665.670765455984
 10
3167.408450321772
 20
2665.956594252645
 10
3167.212159259379
 20
2666.65715567289
 10
3167.357820429776
 20
2667.355759927429
 10
3167.823258240191
 20
2667.946050851372
 10
3168.537614003193
 20
2668.338162002547
 10
3169.392133529515
 20
2668.472398012685
 10
3170.256723967514
 20
2668.328322666097
 10
3170.612003126889
 20
2668.177820212949
  0
LWPOLYLINE
  5
63F
330
5EA
100
AcDbEntity
  8
0
  6
Continuous
 62
     7
370
    15
100
AcDbPolyline
 90
        9
 70
   128
 43
0.0
 10
3184.728707802618
 20
2679.932656211161
 10
3184.535945757606
 20
2680.218485007822
 10
3184.339654695214
 20
2680.919046428068
 10
3184.485315865611
 20
2681.617650682606
 10
3184.950753676025
 20
2682.207941606548
 10
3185.665109439027
 20
2682.600052757724
 10
3186.519628965349
 20
2682.734288767863
 10
3187.384219403349
 20
2682.590213421274
 10
3187.739498562723
 20
2682.439710968126
  0
LWPOLYLINE
  5
640
330
5EA
100
AcDbEntity
  8
0
  6
Continuous
 62
     7
370
    15
100
AcDbPolyline
 90
        9
 70
   128
 43
0.0
 10
3201.856203238453
 20
2694.194546966339
 10
3201.663441193441
 20
2694.480375763
 10
3201.467150131048
 20
2695.180937183245
 10
3201.612811301445
 20
2695.879541437784
 10
3202.07824911186
 20
2696.469832361726
 10
3202.792604874861
 20
2696.861943512901
 10
3203.647124401184
 20
2696.99617952304
 10
3204.511714839183
 20
2696.852104176451
 10
3204.866993998557
 20
2696.701601723304
  0
LWPOLYLINE
  5
641
330
5EA
100
AcDbEntity
  8
0
  6
Continuous
 62
     7
370
    15
100
AcDbPolyline
 90
        9
 70
   128
 43
0.0
 10
3218.983698674287
 20
2708.456437721516
 10
3218.790936629275
 20
2708.742266518177
 10
3218.594645566883
 20
2709.442827938423
 10
3218.740306737279
 20
2710.141432192961
 10
3219.205744547695
 20
2710.731723116903
 10
3219.920100310696
 20
2711.123834268078
 10
3220.774619837018
 20
2711.258070278217
 10
3221.639210275018
 20
2711.113994931629
 10
3221.994489434391
 20
2710.963492478481
  0
LWPOLYLINE
  5
642
330
5EA
100
AcDbEntity
  8
0
  6
Continuous
 62
     7
370
    15
100
AcDbPolyline
 90
        9
 70
   128
 43
0.0
 10
3236.111194110121
 20
2722.718328476693
 10
3235.91843206511
 20
2723.004157273354
 10
3235.722141002717
 20
2723.7047186936
 10
3235.867802173114
 20
2724.403322948139
 10
3236.333239983529
 20
2724.99361387208
 10
3237.04759574653
 20
2725.385725023256
 10
3237.902115272853
 20
2725.519961033394
 10
3238.766705710852
 20
2725.375885686806
 10
3239.121984870226
 20
2725.225383233658
  0
LWPOLYLINE
  5
643
330
5EA
100
AcDbEntity
  8
0
  6
Continuous
 62
     7
370
    15
100
AcDbPolyline
 90
        9
 70
   128
 43
0.0
 10
3253.238689545956
 20
2736.98021923187
 10
3253.045927500944
 20
2737.266048028531
 10
3252.849636438551
 20
2737.966609448777
 10
3252.995297608948
 20
2738.665213703316
 10
3253.460735419363
 20
2739.255504627257
 10
3254.175091182365
 20
2739.647615778433
 10
3255.029610708687
 20
2739.781851788572
 10
3255.894201146686
 20
2739.637776441983
 10
3256.24948030606
 20
2739.487273988836
  0
LWPOLYLINE
  5
644
330
5EA
100
AcDbEntity
  8
0
  6
Continuous
 62
     7
370
    15
100
AcDbPolyline
 90
        9
 70
   128
 43
0.0
 10
3270.366184981791
 20
2751.242109987048
 10
3270.173422936777
 20
2751.527938783709
 10
3269.977131874386
 20
2752.228500203955
 10
3270.122793044782
 20
2752.927104458493
 10
3270.588230855197
 20
2753.517395382435
 10
3271.302586618199
 20
2753.90950653361
 10
3272.157106144521
 20
2754.043742543748
 10
3273.02169658252
 20
2753.89966719716
 10
3273.376975741894
 20
2753.749164744013
  0
LWPOLYLINE
  5
645
330
5EA
100
AcDbEntity
  8
0
  6
Continuous
 62
     7
370
    15
100
AcDbPolyline
 90
        9
 70
   128
 43
0.0
 10
3287.493680417625
 20
2765.504000742226
 10
3287.300918372613
 20
2765.789829538886
 10
3287.10462731022
 20
2766.490390959131
 10
3287.250288480617
 20
2767.188995213671
 10
3287.715726291033
 20
2767.779286137612
 10
3288.430082054034
 20
2768.171397288787
 10
3289.284601580356
 20
2768.305633298926
 10
3290.149192018354
 20
2768.161557952338
 10
3290.50447117773
 20
2768.01105549919
  0
LWPOLYLINE
  5
646
330
5EA
100
AcDbEntity
  8
0
  6
Continuous
 62
     7
370
    15
100
AcDbPolyline
 90
        9
 70
   128
 43
0.0
 10
3304.621175853459
 20
2779.765891497403
 10
3304.428413808447
 20
2780.051720294064
 10
3304.232122746054
 20
2780.752281714309
 10
3304.377783916451
 20
2781.450885968848
 10
3304.843221726866
 20
2782.04117689279
 10
3305.557577489868
 20
2782.433288043965
 10
3306.41209701619
 20
2782.567524054104
 10
3307.27668745419
 20
2782.423448707515
 10
3307.631966613563
 20
2782.272946254368
  0
LWPOLYLINE
  5
647
330
5EA
100
AcDbEntity
  8
0
  6
Continuous
 62
     7
370
    15
100
AcDbPolyline
 90
        9
 70
   128
 43
0.0
 10
3321.748671289294
 20
2794.02778225258
 10
3321.555909244281
 20
2794.313611049241
 10
3321.359618181889
 20
2795.014172469486
 10
3321.505279352286
 20
2795.712776724025
 10
3321.970717162701
 20
2796.303067647967
 10
3322.685072925703
 20
2796.695178799142
 10
3323.539592452025
 20
2796.829414809281
 10
3324.404182890024
 20
2796.685339462693
 10
3324.759462049398
 20
2796.534837009545
  0
LWPOLYLINE
  5
648
330
5EA
100
AcDbEntity
  8
0
  6
Continuous
 62
     7
370
    15
100
AcDbPolyline
 90
        9
 70
   128
 43
0.0
 10
3338.876166725128
 20
2808.289673007758
 10
3338.683404680117
 20
2808.575501804418
 10
3338.487113617724
 20
2809.276063224664
 10
3338.63277478812
 20
2809.974667479202
 10
3339.098212598536
 20
2810.564958403144
 10
3339.812568361537
 20
2810.95706955432
 10
3340.667087887859
 20
2811.091305564458
 10
3341.531678325858
 20
2810.947230217869
 10
3341.886957485233
 20
2810.796727764722
  0
LWPOLYLINE
  5
649
330
5EA
100
AcDbEntity
  8
0
  6
Continuous
 62
     7
370
    15
100
AcDbPolyline
 90
        9
 70
   128
 43
0.0
 10
3356.003662160963
 20
2822.551563762934
 10
3355.81090011595
 20
2822.837392559595
 10
3355.614609053558
 20
2823.537953979841
 10
3355.760270223955
 20
2824.23655823438
 10
3356.22570803437
 20
2824.826849158322
 10
3356.940063797371
 20
2825.218960309497
 10
3357.794583323694
 20
2825.353196319636
 10
3358.659173761692
 20
2825.209120973047
 10
3359.014452921067
 20
2825.058618519899
  0
LWPOLYLINE
  5
64A
330
5EA
100
AcDbEntity
  8
0
  6
Continuous
 62
     7
370
    15
100
AcDbPolyline
 90
        9
 70
   128
 43
0.0
 10
3373.131157596797
 20
2836.813454518112
 10
3372.938395551784
 20
2837.099283314773
 10
3372.742104489392
 20
2837.799844735018
 10
3372.887765659789
 20
2838.498448989557
 10
3373.353203470204
 20
2839.088739913499
 10
3374.067559233206
 20
2839.480851064675
 10
3374.922078759528
 20
2839.615087074813
 10
3375.786669197527
 20
2839.471011728224
 10
3376.141948356901
 20
2839.320509275077
  0
LWPOLYLINE
  5
64B
330
5EA
100
AcDbEntity
  8
0
  6
Continuous
 62
     7
370
    15
100
AcDbPolyline
 90
        9
 70
   128
 43
0.0
 10
3390.258653032631
 20
2851.075345273289
 10
3390.065890987619
 20
2851.36117406995
 10
3389.869599925227
 20
2852.061735490195
 10
3390.015261095624
 20
2852.760339744733
 10
3390.480698906038
 20
2853.350630668676
 10
3391.19505466904
 20
2853.742741819852
 10
3392.049574195362
 20
2853.87697782999
 10
3392.914164633361
 20
2853.732902483402
 10
3393.269443792735
 20
2853.582400030254
  0
LWPOLYLINE
  5
64C
330
5EA
100
AcDbEntity
  8
0
  6
Continuous
 62
     7
370
    15
100
AcDbPolyline
 90
        9
 70
   128
 43
0.0
 10
3407.386148468466
 20
2865.337236028466
 10
3407.193386423454
 20
2865.623064825127
 10
3406.997095361062
 20
2866.323626245373
 10
3407.142756531458
 20
2867.022230499912
 10
3407.608194341873
 20
2867.612521423853
 10
3408.322550104875
 20
2868.004632575029
 10
3409.177069631197
 20
2868.138868585167
 10
3410.041660069196
 20
2867.994793238579
 10
3410.39693922857
 20
2867.844290785431
  0
LWPOLYLINE
  5
64D
330
5EA
100
AcDbEntity
  8
0
  6
Continuous
 62
     7
370
    15
100
AcDbPolyline
 90
        9
 70
   128
 43
0.0
 10
3424.5136439043
 20
2879.599126783644
 10
3424.320881859288
 20
2879.884955580305
 10
3424.124590796895
 20
2880.58551700055
 10
3424.270251967293
 20
2881.284121255089
 10
3424.735689777707
 20
2881.874412179031
 10
3425.450045540709
 20
2882.266523330206
 10
3426.304565067031
 20
2882.400759340345
 10
3427.16915550503
 20
2882.256683993757
 10
3427.524434664404
 20
2882.106181540608
  0
LWPOLYLINE
  5
64E
330
5EA
100
AcDbEntity
  8
0
  6
Continuous
 62
     7
370
    15
100
AcDbPolyline
 90
        9
 70
   128
 43
0.0
 10
3441.641139340135
 20
2893.861017538821
 10
3441.448377295122
 20
2894.146846335483
 10
3441.252086232731
 20
2894.847407755728
 10
3441.397747403127
 20
2895.546012010266
 10
3441.863185213542
 20
2896.136302934208
 10
3442.577540976544
 20
2896.528414085384
 10
3443.432060502866
 20
2896.662650095522
 10
3444.296650940866
 20
2896.518574748934
 10
3444.651930100239
 20
2896.368072295786
  0
LWPOLYLINE
  5
64F
330
5EA
100
AcDbEntity
  8
0
  6
Continuous
 62
     7
370
    15
100
AcDbPolyline
 90
        9
 70
   128
 43
0.0
 10
3458.76863477597
 20
2908.122908293998
 10
3458.575872730957
 20
2908.408737090659
 10
3458.379581668565
 20
2909.109298510904
 10
3458.525242838962
 20
2909.807902765443
 10
3458.990680649377
 20
2910.398193689385
 10
3459.705036412378
 20
2910.790304840561
 10
3460.5595559387
 20
2910.9245408507
 10
3461.4241463767
 20
2910.780465504111
 10
3461.779425536074
 20
2910.629963050963
  0
LWPOLYLINE
  5
650
330
5EA
100
AcDbEntity
  8
0
  6
Continuous
 62
     7
370
    15
100
AcDbPolyline
 90
        9
 70
   128
 43
0.0
 10
3475.896130211803
 20
2922.384799049176
 10
3475.703368166791
 20
2922.670627845837
 10
3475.507077104399
 20
2923.371189266082
 10
3475.652738274796
 20
2924.069793520621
 10
3476.11817608521
 20
2924.660084444563
 10
3476.832531848212
 20
2925.052195595738
 10
3477.687051374534
 20
2925.186431605877
 10
3478.551641812533
 20
2925.042356259288
 10
3478.906920971907
 20
2924.891853806141
  0
LWPOLYLINE
  5
651
330
5EA
100
AcDbEntity
  8
0
  6
Continuous
 62
     7
370
    15
100
AcDbPolyline
 90
        9
 70
   128
 43
0.0
 10
3493.023625647638
 20
2936.646689804353
 10
3492.830863602625
 20
2936.932518601014
 10
3492.634572540234
 20
2937.633080021259
 10
3492.780233710631
 20
2938.331684275798
 10
3493.245671521045
 20
2938.92197519974
 10
3493.960027284046
 20
2939.314086350915
 10
3494.814546810368
 20
2939.448322361054
 10
3495.679137248368
 20
2939.304247014466
 10
3496.034416407741
 20
2939.153744561318
  0
LWPOLYLINE
  5
652
330
5EA
100
AcDbEntity
  8
0
  6
Continuous
 62
     7
370
    15
100
AcDbPolyline
 90
        9
 70
   128
 43
0.0
 10
3510.151121083473
 20
2950.908580559531
 10
3509.95835903846
 20
2951.194409356192
 10
3509.762067976068
 20
2951.894970776437
 10
3509.907729146465
 20
2952.593575030976
 10
3510.37316695688
 20
2953.183865954918
 10
3511.087522719881
 20
2953.575977106093
 10
3511.942042246204
 20
2953.710213116231
 10
3512.806632684203
 20
2953.566137769643
 10
3513.161911843577
 20
2953.415635316495
  0
LWPOLYLINE
  5
653
330
5EA
100
AcDbEntity
  8
0
  6
Continuous
 62
     7
370
    15
100
AcDbPolyline
 90
        9
 70
   128
 43
0.0
 10
3527.278616519307
 20
2965.170471314708
 10
3527.085854474294
 20
2965.456300111368
 10
3526.889563411902
 20
2966.156861531614
 10
3527.035224582299
 20
2966.855465786153
 10
3527.500662392714
 20
2967.445756710095
 10
3528.215018155716
 20
2967.83786786127
 10
3529.069537682038
 20
2967.972103871409
 10
3529.934128120037
 20
2967.82802852482
 10
3530.289407279411
 20
2967.677526071673
  0
LWPOLYLINE
  5
654
330
5EA
100
AcDbEntity
  8
0
  6
Continuous
 62
     7
370
    15
100
AcDbPolyline
 90
        9
 70
   128
 43
0.0
 10
3544.406111955141
 20
2979.432362069885
 10
3544.21334991013
 20
2979.718190866546
 10
3544.017058847736
 20
2980.418752286792
 10
3544.162720018133
 20
2981.11735654133
 10
3544.628157828548
 20
2981.707647465272
 10
3545.34251359155
 20
2982.099758616448
 10
3546.197033117872
 20
2982.233994626586
 10
3547.061623555871
 20
2982.089919279998
 10
3547.416902715246
 20
2981.93941682685
  0
LWPOLYLINE
  5
655
330
5EA
100
AcDbEntity
  8
0
  6
Continuous
 62
     7
370
    15
100
AcDbPolyline
 90
        9
 70
   128
 43
0.0
 10
3561.533607390976
 20
2993.694252825062
 10
3561.340845345963
 20
2993.980081621723
 10
3561.144554283571
 20
2994.680643041969
 10
3561.290215453968
 20
2995.379247296508
 10
3561.755653264383
 20
2995.969538220449
 10
3562.470009027384
 20
2996.361649371625
 10
3563.324528553706
 20
2996.495885381764
 10
3564.189118991706
 20
2996.351810035175
 10
3564.54439815108
 20
2996.201307582027
  0
LWPOLYLINE
  5
656
330
5EA
100
AcDbEntity
  8
0
  6
Continuous
 62
     7
370
    15
100
AcDbPolyline
 90
        9
 70
   128
 43
0.0
 10
3578.66110282681
 20
3007.95614358024
 10
3578.468340781797
 20
3008.241972376901
 10
3578.272049719405
 20
3008.942533797146
 10
3578.417710889802
 20
3009.641138051685
 10
3578.883148700217
 20
3010.231428975627
 10
3579.597504463219
 20
3010.623540126803
 10
3580.452023989541
 20
3010.757776136941
 10
3581.31661442754
 20
3010.613700790353
 10
3581.671893586914
 20
3010.463198337205
  0
LWPOLYLINE
  5
657
330
5EA
100
AcDbEntity
  8
0
  6
Continuous
 62
     7
370
    15
100
AcDbPolyline
 90
        9
 70
   128
 43
0.0
 10
3595.788598262644
 20
3022.218034335417
 10
3595.595836217632
 20
3022.503863132078
 10
3595.39954515524
 20
3023.204424552324
 10
3595.545206325637
 20
3023.903028806862
 10
3596.010644136052
 20
3024.493319730804
 10
3596.724999899053
 20
3024.885430881979
 10
3597.579519425375
 20
3025.019666892118
 10
3598.444109863375
 20
3024.87559154553
 10
3598.799389022748
 20
3024.725089092382
  0
LWPOLYLINE
  5
658
330
5EA
100
AcDbEntity
  8
0
  6
Continuous
 62
     7
370
    15
100
AcDbPolyline
 90
        9
 70
   128
 43
0.0
 10
3612.916093698479
 20
3036.479925090595
 10
3612.723331653466
 20
3036.765753887256
 10
3612.527040591074
 20
3037.466315307501
 10
3612.672701761471
 20
3038.164919562039
 10
3613.138139571886
 20
3038.755210485982
 10
3613.852495334888
 20
3039.147321637157
 10
3614.70701486121
 20
3039.281557647296
 10
3615.571605299209
 20
3039.137482300707
 10
3615.926884458583
 20
3038.986979847559
  0
LWPOLYLINE
  5
659
330
5EA
100
AcDbEntity
  8
0
  6
Continuous
 62
     7
370
    15
100
AcDbPolyline
 90
        9
 70
   128
 43
0.0
 10
3630.043589134313
 20
3050.741815845772
 10
3629.850827089301
 20
3051.027644642433
 10
3629.654536026909
 20
3051.728206062678
 10
3629.800197197306
 20
3052.426810317217
 10
3630.265635007721
 20
3053.017101241159
 10
3630.979990770722
 20
3053.409212392334
 10
3631.834510297045
 20
3053.543448402473
 10
3632.699100735044
 20
3053.399373055884
 10
3633.054379894417
 20
3053.248870602736
  0
LWPOLYLINE
  5
65A
330
5EA
100
AcDbEntity
  8
0
  6
Continuous
 62
     7
370
    15
100
AcDbPolyline
 90
        9
 70
   128
 43
0.0
 10
3647.171084570147
 20
3065.003706600949
 10
3646.978322525136
 20
3065.28953539761
 10
3646.782031462743
 20
3065.990096817856
 10
3646.92769263314
 20
3066.688701072394
 10
3647.393130443555
 20
3067.278991996336
 10
3648.107486206556
 20
3067.671103147512
 10
3648.962005732879
 20
3067.80533915765
 10
3649.826596170878
 20
3067.661263811062
 10
3650.181875330252
 20
3067.510761357914
  0
LWPOLYLINE
  5
65B
330
5EA
100
AcDbEntity
  8
0
  6
Continuous
 62
     7
370
    15
100
AcDbPolyline
 90
        9
 70
   128
 43
0.0
 10
3664.298580005982
 20
3079.265597356127
 10
3664.10581796097
 20
3079.551426152788
 10
3663.909526898578
 20
3080.251987573033
 10
3664.055188068975
 20
3080.950591827572
 10
3664.520625879389
 20
3081.540882751513
 10
3665.234981642391
 20
3081.932993902689
 10
3666.089501168713
 20
3082.067229912827
 10
3666.954091606712
 20
3081.923154566239
 10
3667.309370766087
 20
3081.772652113091
  0
LWPOLYLINE
  5
65C
330
5EA
100
AcDbEntity
  8
0
  6
Continuous
 62
     7
370
    15
100
AcDbPolyline
 90
        9
 70
   128
 43
0.0
 10
3681.426075441816
 20
3093.527488111304
 10
3681.233313396804
 20
3093.813316907965
 10
3681.037022334411
 20
3094.51387832821
 10
3681.182683504809
 20
3095.212482582749
 10
3681.648121315224
 20
3095.802773506691
 10
3682.362477078225
 20
3096.194884657866
 10
3683.216996604548
 20
3096.329120668005
 10
3684.081587042547
 20
3096.185045321416
 10
3684.436866201921
 20
3096.034542868269
  0
LWPOLYLINE
  5
65D
330
5EA
100
AcDbEntity
  8
0
  6
Continuous
 62
     7
370
    15
100
AcDbPolyline
 90
        9
 70
   128
 43
0.0
 10
3698.553570877651
 20
3107.789378866481
 10
3698.360808832639
 20
3108.075207663142
 10
3698.164517770246
 20
3108.775769083388
 10
3698.310178940643
 20
3109.474373337926
 10
3698.775616751059
 20
3110.064664261868
 10
3699.48997251406
 20
3110.456775413043
 10
3700.344492040382
 20
3110.591011423182
 10
3701.209082478381
 20
3110.446936076594
 10
3701.564361637755
 20
3110.296433623445
  0
LWPOLYLINE
  5
65E
330
5EA
100
AcDbEntity
  8
0
  6
Continuous
 62
     7
370
    15
100
AcDbPolyline
 90
        9
 70
   128
 43
0.0
 10
3715.681066313486
 20
3122.051269621659
 10
3715.488304268473
 20
3122.33709841832
 10
3715.292013206081
 20
3123.037659838565
 10
3715.437674376477
 20
3123.736264093103
 10
3715.903112186892
 20
3124.326555017045
 10
3716.617467949895
 20
3124.718666168221
 10
3717.471987476216
 20
3124.852902178359
 10
3718.336577914216
 20
3124.708826831771
 10
3718.691857073589
 20
3124.558324378623
  0
LWPOLYLINE
  5
65F
330
5EA
100
AcDbEntity
  8
0
  6
Continuous
 62
     7
370
    15
100
AcDbPolyline
 90
        9
 70
   128
 43
0.0
 10
3732.80856174932
 20
3136.313160376836
 10
3732.615799704308
 20
3136.598989173496
 10
3732.419508641915
 20
3137.299550593742
 10
3732.565169812312
 20
3137.998154848281
 10
3733.030607622727
 20
3138.588445772223
 10
3733.744963385729
 20
3138.980556923398
 10
3734.599482912051
 20
3139.114792933537
 10
3735.46407335005
 20
3138.970717586949
 10
3735.819352509424
 20
3138.820215133801
  0
LWPOLYLINE
  5
660
330
5EA
100
AcDbEntity
  8
0
  6
Continuous
 62
     7
370
    15
100
AcDbPolyline
 90
        9
 70
   128
 43
0.0
 10
3749.936057185154
 20
3150.575051132013
 10
3749.743295140142
 20
3150.860879928674
 10
3749.547004077749
 20
3151.561441348919
 10
3749.692665248146
 20
3152.260045603458
 10
3750.158103058562
 20
3152.8503365274
 10
3750.872458821563
 20
3153.242447678576
 10
3751.726978347885
 20
3153.376683688714
 10
3752.591568785884
 20
3153.232608342126
 10
3752.946847945259
 20
3153.082105888978
  0
LWPOLYLINE
  5
661
330
5EA
100
AcDbEntity
  8
0
  6
Continuous
 62
     7
370
    15
100
AcDbPolyline
 90
        9
 70
   128
 43
0.0
 10
3767.063552620989
 20
3164.836941887191
 10
3766.870790575976
 20
3165.122770683851
 10
3766.674499513584
 20
3165.823332104097
 10
3766.820160683981
 20
3166.521936358635
 10
3767.285598494396
 20
3167.112227282577
 10
3767.999954257397
 20
3167.504338433753
 10
3768.854473783719
 20
3167.638574443892
 10
3769.719064221719
 20
3167.494499097303
 10
3770.074343381093
 20
3167.343996644155
  0
LWPOLYLINE
  5
662
330
5EA
100
AcDbEntity
  8
0
  6
Continuous
 62
     7
370
    15
100
AcDbPolyline
 90
        9
 70
   128
 43
0.0
 10
3784.191048056823
 20
3179.098832642368
 10
3783.998286011811
 20
3179.384661439029
 10
3783.801994949418
 20
3180.085222859274
 10
3783.947656119816
 20
3180.783827113813
 10
3784.41309393023
 20
3181.374118037755
 10
3785.127449693232
 20
3181.766229188931
 10
3785.981969219554
 20
3181.900465199069
 10
3786.846559657553
 20
3181.75638985248
 10
3787.201838816927
 20
3181.605887399332
  0
LWPOLYLINE
  5
663
330
5EA
100
AcDbEntity
  8
0
  6
Continuous
 62
     7
370
    15
100
AcDbPolyline
 90
        9
 70
   128
 43
0.0
 10
3801.318543492658
 20
3193.360723397545
 10
3801.125781447645
 20
3193.646552194206
 10
3800.929490385253
 20
3194.347113614452
 10
3801.075151555649
 20
3195.04571786899
 10
3801.540589366065
 20
3195.636008792932
 10
3802.254945129067
 20
3196.028119944107
 10
3803.109464655388
 20
3196.162355954246
 10
3803.974055093388
 20
3196.018280607658
 10
3804.329334252761
 20
3195.86777815451
  0
LWPOLYLINE
  5
664
330
5EA
100
AcDbEntity
  8
0
  6
Continuous
 62
     7
370
    15
100
AcDbPolyline
 90
        9
 70
   128
 43
0.0
 10
3818.446038928492
 20
3207.622614152722
 10
3818.25327688348
 20
3207.908442949384
 10
3818.056985821087
 20
3208.609004369629
 10
3818.202646991485
 20
3209.307608624167
 10
3818.668084801899
 20
3209.897899548109
 10
3819.382440564901
 20
3210.290010699285
 10
3820.236960091223
 20
3210.424246709423
 10
3821.101550529222
 20
3210.280171362835
 10
3821.456829688596
 20
3210.129668909687
  0
LWPOLYLINE
  5
665
330
5EA
100
AcDbEntity
  8
0
  6
Continuous
 62
     7
370
    15
100
AcDbPolyline
 90
        9
 70
   128
 43
0.0
 10
3835.573534364327
 20
3221.8845049079
 10
3835.380772319314
 20
3222.170333704561
 10
3835.184481256922
 20
3222.870895124806
 10
3835.330142427319
 20
3223.569499379344
 10
3835.795580237734
 20
3224.159790303287
 10
3836.509936000735
 20
3224.551901454462
 10
3837.364455527057
 20
3224.6861374646
 10
3838.229045965056
 20
3224.542062118012
 10
3838.584325124431
 20
3224.391559664865
  0
LWPOLYLINE
  5
666
330
5EA
100
AcDbEntity
  8
0
  6
Continuous
 62
     7
370
    15
100
AcDbPolyline
 90
        9
 70
   128
 43
0.0
 10
3852.701029800161
 20
3236.146395663077
 10
3852.508267755148
 20
3236.432224459738
 10
3852.311976692756
 20
3237.132785879983
 10
3852.457637863153
 20
3237.831390134522
 10
3852.923075673568
 20
3238.421681058464
 10
3853.63743143657
 20
3238.813792209639
 10
3854.491950962892
 20
3238.948028219778
 10
3855.356541400891
 20
3238.80395287319
 10
3855.711820560265
 20
3238.653450420042
  0
LWPOLYLINE
  5
667
330
5EA
100
AcDbEntity
  8
0
  6
Continuous
 62
     7
370
    15
100
AcDbPolyline
 90
        9
 70
   128
 43
0.0
 10
3869.828525235995
 20
3250.408286418255
 10
3869.635763190983
 20
3250.694115214916
 10
3869.43947212859
 20
3251.394676635161
 10
3869.585133298987
 20
3252.093280889699
 10
3870.050571109402
 20
3252.683571813641
 10
3870.764926872404
 20
3253.075682964817
 10
3871.619446398726
 20
3253.209918974956
 10
3872.484036836726
 20
3253.065843628367
 10
3872.839315996099
 20
3252.915341175219
  0
LWPOLYLINE
  5
668
330
5EA
100
AcDbEntity
  8
0
  6
Continuous
 62
     7
370
    15
100
AcDbPolyline
 90
        9
 70
   128
 43
0.0
 10
3886.95602067183
 20
3264.670177173432
 10
3886.763258626817
 20
3264.956005970093
 10
3886.566967564425
 20
3265.656567390338
 10
3886.712628734822
 20
3266.355171644877
 10
3887.178066545236
 20
3266.945462568819
 10
3887.892422308238
 20
3267.337573719994
 10
3888.74694183456
 20
3267.471809730133
 10
3889.61153227256
 20
3267.327734383544
 10
3889.966811431933
 20
3267.177231930396
  0
LWPOLYLINE
  5
669
330
5EA
100
AcDbEntity
  8
0
  6
Continuous
 62
     7
370
    15
100
AcDbPolyline
 90
        9
 70
   128
 43
0.0
 10
3904.083516107664
 20
3278.93206792861
 10
3903.890754062652
 20
3279.21789672527
 10
3903.69446300026
 20
3279.918458145515
 10
3903.840124170656
 20
3280.617062400054
 10
3904.305561981071
 20
3281.207353323996
 10
3905.019917744072
 20
3281.599464475171
 10
3905.874437270395
 20
3281.73370048531
 10
3906.739027708395
 20
3281.589625138721
 10
3907.094306867768
 20
3281.439122685573
  0
LWPOLYLINE
  5
66A
330
5EA
100
AcDbEntity
  8
0
  6
Continuous
 62
     7
370
    15
100
AcDbPolyline
 90
        9
 70
   128
 43
0.0
 10
3921.211011543499
 20
3293.193958683787
 10
3921.018249498486
 20
3293.479787480448
 10
3920.821958436094
 20
3294.180348900692
 10
3920.967619606491
 20
3294.878953155232
 10
3921.433057416905
 20
3295.469244079173
 10
3922.147413179907
 20
3295.861355230349
 10
3923.00193270623
 20
3295.995591240488
 10
3923.866523144229
 20
3295.851515893899
 10
3924.221802303602
 20
3295.701013440751
  0
LWPOLYLINE
  5
66B
330
5EA
100
AcDbEntity
  8
0
  6
Continuous
 62
     7
370
    15
100
AcDbPolyline
 90
        9
 70
   128
 43
0.0
 10
3938.338506979333
 20
3307.455849438964
 10
3938.145744934321
 20
3307.741678235625
 10
3937.949453871929
 20
3308.44223965587
 10
3938.095115042325
 20
3309.140843910409
 10
3938.56055285274
 20
3309.73113483435
 10
3939.274908615742
 20
3310.123245985526
 10
3940.129428142064
 20
3310.257481995665
 10
3940.994018580063
 20
3310.113406649076
 10
3941.349297739437
 20
3309.962904195928
  0
LWPOLYLINE
  5
66C
330
5EA
100
AcDbEntity
  8
0
  6
Continuous
 62
     7
370
    15
100
AcDbPolyline
 90
        9
 70
   128
 43
0.0
 10
3955.466002415167
 20
3321.717740194141
 10
3955.273240370155
 20
3322.003568990802
 10
3955.076949307763
 20
3322.704130411047
 10
3955.222610478159
 20
3323.402734665586
 10
3955.688048288575
 20
3323.993025589528
 10
3956.402404051576
 20
3324.385136740704
 10
3957.256923577899
 20
3324.519372750842
 10
3958.121514015898
 20
3324.375297404254
 10
3958.476793175271
 20
3324.224794951105
  0
LWPOLYLINE
  5
66D
330
5EA
100
AcDbEntity
  8
0
  6
Continuous
 62
     7
370
    15
100
AcDbPolyline
 90
        9
 70
   128
 43
0.0
 10
3972.593497851001
 20
3335.979630949319
 10
3972.400735805989
 20
3336.265459745979
 10
3972.204444743596
 20
3336.966021166225
 10
3972.350105913994
 20
3337.664625420764
 10
3972.815543724408
 20
3338.254916344705
 10
3973.52989948741
 20
3338.647027495881
 10
3974.384419013733
 20
3338.78126350602
 10
3975.249009451732
 20
3338.637188159431
 10
3975.604288611105
 20
3338.486685706283
  0
LWPOLYLINE
  5
66E
330
5EA
100
AcDbEntity
  8
0
  6
Continuous
 62
     7
370
    15
100
AcDbPolyline
 90
        9
 70
   128
 43
0.0
 10
3989.720993286836
 20
3350.241521704496
 10
3989.528231241823
 20
3350.527350501157
 10
3989.331940179431
 20
3351.227911921402
 10
3989.477601349828
 20
3351.926516175941
 10
3989.943039160243
 20
3352.516807099882
 10
3990.657394923245
 20
3352.908918251058
 10
3991.511914449567
 20
3353.043154261197
 10
3992.376504887566
 20
3352.899078914608
 10
3992.73178404694
 20
3352.74857646146
  0
LWPOLYLINE
  5
66F
330
5EA
100
AcDbEntity
  8
0
  6
Continuous
 62
     7
370
    15
100
AcDbPolyline
 90
        9
 70
   128
 43
0.0
 10
4006.84848872267
 20
3364.503412459673
 10
4006.655726677658
 20
3364.789241256334
 10
4006.459435615266
 20
3365.48980267658
 10
4006.605096785662
 20
3366.188406931118
 10
4007.070534596077
 20
3366.77869785506
 10
4007.784890359078
 20
3367.170809006235
 10
4008.639409885401
 20
3367.305045016375
 10
4009.504000323401
 20
3367.160969669785
 10
4009.859279482774
 20
3367.010467216637
  0
LWPOLYLINE
  5
670
330
5EA
100
AcDbEntity
  8
0
  6
Continuous
 62
     7
370
    15
100
AcDbPolyline
 90
        9
 70
   128
 43
0.0
 10
4023.975984158504
 20
3378.76530321485
 10
4023.783222113492
 20
3379.051132011511
 10
4023.5869310511
 20
3379.751693431757
 10
4023.732592221497
 20
3380.450297686295
 10
4024.198030031912
 20
3381.040588610237
 10
4024.912385794913
 20
3381.432699761413
 10
4025.766905321236
 20
3381.566935771552
 10
4026.631495759235
 20
3381.422860424963
 10
4026.986774918609
 20
3381.272357971815
  0
LWPOLYLINE
  5
671
330
5EA
100
AcDbEntity
  8
0
  6
Continuous
 62
     7
370
    15
100
AcDbPolyline
 90
        9
 70
   128
 43
0.0
 10
4041.103479594339
 20
3393.027193970028
 10
4040.910717549326
 20
3393.313022766689
 10
4040.714426486935
 20
3394.013584186934
 10
4040.860087657331
 20
3394.712188441473
 10
4041.325525467746
 20
3395.302479365414
 10
4042.039881230747
 20
3395.69459051659
 10
4042.894400757069
 20
3395.828826526729
 10
4043.758991195068
 20
3395.68475118014
 10
4044.114270354443
 20
3395.534248726992
  0
LWPOLYLINE
  5
672
330
5EA
100
AcDbEntity
  8
0
  6
Continuous
 62
     7
370
    15
100
AcDbPolyline
 90
        9
 70
   128
 43
0.0
 10
4058.230975030173
 20
3407.289084725205
 10
4058.038212985161
 20
3407.574913521866
 10
4057.841921922769
 20
3408.275474942112
 10
4057.987583093166
 20
3408.97407919665
 10
4058.45302090358
 20
3409.564370120591
 10
4059.167376666581
 20
3409.956481271767
 10
4060.021896192905
 20
3410.090717281907
 10
4060.886486630904
 20
3409.946641935318
 10
4061.241765790278
 20
3409.79613948217
  0
LWPOLYLINE
  5
673
330
5EA
100
AcDbEntity
  8
0
  6
Continuous
 62
     7
370
    15
100
AcDbPolyline
 90
        9
 70
   128
 43
0.0
 10
4075.358470466007
 20
3421.550975480383
 10
4075.165708420995
 20
3421.836804277043
 10
4074.969417358603
 20
3422.537365697289
 10
4075.115078529
 20
3423.235969951828
 10
4075.580516339415
 20
3423.826260875769
 10
4076.294872102416
 20
3424.218372026945
 10
4077.149391628739
 20
3424.352608037084
 10
4078.013982066738
 20
3424.208532690495
 10
4078.369261226112
 20
3424.058030237347
  0
LWPOLYLINE
  5
674
330
5EA
100
AcDbEntity
  8
0
  6
Continuous
 62
     7
370
    15
100
AcDbPolyline
 90
        9
 70
   128
 43
0.0
 10
4092.485965901842
 20
3435.81286623556
 10
4092.29320385683
 20
3436.098695032221
 10
4092.096912794437
 20
3436.799256452466
 10
4092.242573964834
 20
3437.497860707005
 10
4092.70801177525
 20
3438.088151630946
 10
4093.422367538251
 20
3438.480262782122
 10
4094.276887064573
 20
3438.614498792261
 10
4095.141477502573
 20
3438.470423445672
 10
4095.496756661947
 20
3438.319920992525
  0
LWPOLYLINE
  5
675
330
5EA
100
AcDbEntity
  8
0
  6
Continuous
 62
     7
370
    15
100
AcDbPolyline
 90
        9
 70
   128
 43
0.0
 10
4109.613461337676
 20
3450.074756990737
 10
4109.420699292665
 20
3450.360585787398
 10
4109.224408230272
 20
3451.061147207644
 10
4109.370069400669
 20
3451.759751462182
 10
4109.835507211084
 20
3452.350042386124
 10
4110.549862974084
 20
3452.742153537299
 10
4111.404382500408
 20
3452.876389547439
 10
4112.268972938408
 20
3452.73231420085
 10
4112.624252097781
 20
3452.581811747702
  0
LWPOLYLINE
  5
676
330
5EA
100
AcDbEntity
  8
0
  6
Continuous
 62
     7
370
    15
100
AcDbPolyline
 90
        9
 70
   128
 43
0.0
 10
4126.740956773511
 20
3464.336647745914
 10
4126.548194728498
 20
3464.622476542575
 10
4126.351903666106
 20
3465.323037962821
 10
4126.497564836504
 20
3466.021642217359
 10
4126.963002646919
 20
3466.611933141301
 10
4127.677358409919
 20
3467.004044292476
 10
4128.531877936242
 20
3467.138280302616
 10
4129.396468374241
 20
3466.994204956026
 10
4129.751747533616
 20
3466.843702502879
  0
LWPOLYLINE
  5
677
330
5EA
100
AcDbEntity
  8
0
  6
Continuous
 62
     7
370
    15
100
AcDbPolyline
 90
        9
 70
   128
 43
0.0
 10
4143.868452209345
 20
3478.598538501092
 10
4143.675690164332
 20
3478.884367297752
 10
4143.479399101941
 20
3479.584928717998
 10
4143.625060272337
 20
3480.283532972536
 10
4144.090498082753
 20
3480.873823896479
 10
4144.804853845754
 20
3481.265935047654
 10
4145.659373372076
 20
3481.400171057793
 10
4146.523963810075
 20
3481.256095711204
 10
4146.87924296945
 20
3481.105593258057
  0
LWPOLYLINE
  5
678
330
5EA
100
AcDbEntity
  8
0
  6
Continuous
 62
     7
370
    15
100
AcDbPolyline
 90
        9
 70
   128
 43
0.0
 10
4160.99594764518
 20
3492.860429256269
 10
4160.803185600167
 20
3493.14625805293
 10
4160.606894537775
 20
3493.846819473175
 10
4160.752555708171
 20
3494.545423727714
 10
4161.217993518587
 20
3495.135714651656
 10
4161.932349281588
 20
3495.527825802831
 10
4162.78686880791
 20
3495.66206181297
 10
4163.65145924591
 20
3495.517986466381
 10
4164.006738405283
 20
3495.367484013234
  0
LWPOLYLINE
  5
679
330
5EA
100
AcDbEntity
  8
0
  6
Continuous
 62
     7
370
    15
100
AcDbPolyline
 90
        9
 70
   128
 43
0.0
 10
4178.123443081014
 20
3507.122320011446
 10
4177.930681036001
 20
3507.408148808107
 10
4177.734389973609
 20
3508.108710228353
 10
4177.880051144007
 20
3508.807314482891
 10
4178.345488954422
 20
3509.397605406833
 10
4179.059844717423
 20
3509.789716558009
 10
4179.914364243745
 20
3509.923952568148
 10
4180.778954681744
 20
3509.779877221558
 10
4181.134233841118
 20
3509.629374768411
  0
LWPOLYLINE
  5
67A
330
5EA
100
AcDbEntity
  8
0
  6
Continuous
 62
     7
370
    15
100
AcDbPolyline
 90
        9
 70
   128
 43
0.0
 10
4195.250938516848
 20
3521.384210766623
 10
4195.058176471836
 20
3521.670039563284
 10
4194.861885409443
 20
3522.37060098353
 10
4195.007546579841
 20
3523.069205238068
 10
4195.472984390256
 20
3523.659496162011
 10
4196.187340153257
 20
3524.051607313186
 10
4197.04185967958
 20
3524.185843323325
 10
4197.906450117579
 20
3524.041767976735
 10
4198.261729276953
 20
3523.891265523588
  0
LWPOLYLINE
  5
67B
330
5EA
100
AcDbEntity
  8
0
  6
Continuous
 62
     7
370
    15
100
AcDbPolyline
 90
        9
 70
   128
 43
0.0
 10
4212.378433952683
 20
3535.646101521801
 10
4212.185671907671
 20
3535.931930318462
 10
4211.989380845278
 20
3536.632491738707
 10
4212.135042015676
 20
3537.331095993246
 10
4212.60047982609
 20
3537.921386917188
 10
4213.314835589091
 20
3538.313498068363
 10
4214.169355115415
 20
3538.447734078502
 10
4215.033945553414
 20
3538.303658731913
 10
4215.389224712787
 20
3538.153156278766
  0
LWPOLYLINE
  5
67C
330
5EA
100
AcDbEntity
  8
0
  6
Continuous
 62
     7
370
    15
100
AcDbPolyline
 90
        9
 70
   128
 43
0.0
 10
4229.505929388518
 20
3549.907992276979
 10
4229.313167343505
 20
3550.193821073639
 10
4229.116876281113
 20
3550.894382493885
 10
4229.26253745151
 20
3551.592986748423
 10
4229.727975261925
 20
3552.183277672365
 10
4230.442331024927
 20
3552.575388823541
 10
4231.296850551249
 20
3552.70962483368
 10
4232.161440989248
 20
3552.565549487091
 10
4232.516720148622
 20
3552.415047033943
  0
LWPOLYLINE
  5
67D
330
5EA
100
AcDbEntity
  8
0
  6
Continuous
 62
     7
370
    15
100
AcDbPolyline
 90
        9
 70
   128
 43
0.0
 10
4246.633424824351
 20
3564.169883032156
 10
4246.440662779339
 20
3564.455711828816
 10
4246.244371716948
 20
3565.156273249062
 10
4246.390032887344
 20
3565.854877503601
 10
4246.855470697759
 20
3566.445168427543
 10
4247.56982646076
 20
3566.837279578718
 10
4248.424345987083
 20
3566.971515588857
 10
4249.288936425082
 20
3566.827440242268
 10
4249.644215584456
 20
3566.67693778912
  0
LWPOLYLINE
  5
67E
330
5EA
100
AcDbEntity
  8
0
  6
Continuous
 62
     7
370
    15
100
AcDbPolyline
 90
        9
 70
   128
 43
0.0
 10
4263.760920260187
 20
3578.431773787333
 10
4263.568158215174
 20
3578.717602583993
 10
4263.371867152782
 20
3579.418164004239
 10
4263.517528323178
 20
3580.116768258778
 10
4263.982966133593
 20
3580.70705918272
 10
4264.697321896595
 20
3581.099170333895
 10
4265.551841422917
 20
3581.233406344034
 10
4266.416431860917
 20
3581.089330997445
 10
4266.77171102029
 20
3580.938828544298
  0
LWPOLYLINE
  5
67F
330
5EA
100
AcDbEntity
  8
0
  6
Continuous
 62
     7
370
    15
100
AcDbPolyline
 90
        9
 70
   128
 43
0.0
 10
4280.888415696021
 20
3592.69366454251
 10
4280.695653651008
 20
3592.979493339171
 10
4280.499362588616
 20
3593.680054759416
 10
4280.645023759013
 20
3594.378659013955
 10
4281.110461569427
 20
3594.968949937897
 10
4281.82481733243
 20
3595.361061089073
 10
4282.679336858751
 20
3595.495297099211
 10
4283.543927296751
 20
3595.351221752622
 10
4283.899206456124
 20
3595.200719299475
  0
LWPOLYLINE
  5
680
330
5EA
100
AcDbEntity
  8
0
  6
Continuous
 62
     7
370
    15
100
AcDbPolyline
 90
        9
 70
   128
 43
0.0
 10
4298.015911131855
 20
3606.955555297688
 10
4297.823149086843
 20
3607.241384094348
 10
4297.62685802445
 20
3607.941945514594
 10
4297.772519194847
 20
3608.640549769133
 10
4298.237957005262
 20
3609.230840693074
 10
4298.952312768264
 20
3609.62295184425
 10
4299.806832294586
 20
3609.757187854389
 10
4300.671422732586
 20
3609.6131125078
 10
4301.026701891959
 20
3609.462610054652
  0
LWPOLYLINE
  5
681
330
5EA
100
AcDbEntity
  8
0
  6
Continuous
 62
     7
370
    15
100
AcDbPolyline
 90
        9
 70
   128
 43
0.0
 10
4315.143406567689
 20
3621.217446052865
 10
4314.950644522678
 20
3621.503274849525
 10
4314.754353460284
 20
3622.203836269771
 10
4314.900014630682
 20
3622.90244052431
 10
4315.365452441096
 20
3623.492731448252
 10
4316.079808204098
 20
3623.884842599427
 10
4316.934327730421
 20
3624.019078609566
 10
4317.79891816842
 20
3623.875003262977
 10
4318.154197327793
 20
3623.724500809829
  0
LWPOLYLINE
  5
682
330
5EA
100
AcDbEntity
  8
0
  6
Continuous
 62
     7
370
    15
100
AcDbPolyline
 90
        9
 70
   128
 43
0.0
 10
4332.270902003523
 20
3635.479336808042
 10
4332.078139958512
 20
3635.765165604703
 10
4331.881848896119
 20
3636.465727024948
 10
4332.027510066517
 20
3637.164331279487
 10
4332.492947876931
 20
3637.754622203429
 10
4333.207303639932
 20
3638.146733354604
 10
4334.061823166256
 20
3638.280969364743
 10
4334.926413604255
 20
3638.136894018155
 10
4335.281692763627
 20
3637.986391565007
  0
LWPOLYLINE
  5
683
330
5EA
100
AcDbEntity
  8
0
  6
Continuous
 62
     7
370
    15
100
AcDbPolyline
 90
        9
 70
   128
 43
0.0
 10
4349.398397439358
 20
3649.741227563219
 10
4349.205635394346
 20
3650.02705635988
 10
4349.009344331954
 20
3650.727617780126
 10
4349.155005502351
 20
3651.426222034665
 10
4349.620443312765
 20
3652.016512958606
 10
4350.334799075767
 20
3652.408624109782
 10
4351.18931860209
 20
3652.542860119921
 10
4352.053909040089
 20
3652.398784773332
 10
4352.409188199462
 20
3652.248282320185
  0
LWPOLYLINE
  5
684
330
5EA
100
AcDbEntity
  8
0
  6
Continuous
 62
     7
370
    15
100
AcDbPolyline
 90
        9
 70
   128
 43
0.0
 10
4366.525892875194
 20
3664.003118318397
 10
4366.33313083018
 20
3664.288947115057
 10
4366.136839767789
 20
3664.989508535303
 10
4366.282500938185
 20
3665.688112789843
 10
4366.7479387486
 20
3666.278403713783
 10
4367.462294511603
 20
3666.670514864959
 10
4368.316814037924
 20
3666.804750875098
 10
4369.181404475923
 20
3666.66067552851
 10
4369.536683635296
 20
3666.510173075361
  0
LWPOLYLINE
  5
685
330
5EA
100
AcDbEntity
  8
0
  6
Continuous
 62
     7
370
    15
100
AcDbPolyline
 90
        9
 70
   128
 43
0.0
 10
4383.653388311027
 20
3678.265009073574
 10
4383.460626266015
 20
3678.550837870235
 10
4383.264335203622
 20
3679.25139929048
 10
4383.40999637402
 20
3679.95000354502
 10
4383.875434184434
 20
3680.540294468961
 10
4384.589789947436
 20
3680.932405620136
 10
4385.444309473758
 20
3681.066641630275
 10
4386.308899911758
 20
3680.922566283687
 10
4386.664179071131
 20
3680.772063830539
  0
LWPOLYLINE
  5
686
330
5EA
100
AcDbEntity
  8
0
  6
Continuous
 62
     7
370
    15
100
AcDbPolyline
 90
        9
 70
   128
 43
0.0
 10
4400.780883746862
 20
3692.526899828751
 10
4400.58812170185
 20
3692.812728625412
 10
4400.391830639457
 20
3693.513290045658
 10
4400.537491809854
 20
3694.211894300197
 10
4401.002929620269
 20
3694.802185224138
 10
4401.717285383271
 20
3695.194296375313
 10
4402.571804909593
 20
3695.328532385453
 10
4403.436395347593
 20
3695.184457038864
 10
4403.791674506965
 20
3695.033954585716
  0
LWPOLYLINE
  5
687
330
5EA
100
AcDbEntity
  8
0
  6
Continuous
 62
     7
370
    15
100
AcDbPolyline
 90
        9
 70
   128
 43
0.0
 10
4417.908379182696
 20
3706.788790583929
 10
4417.715617137684
 20
3707.07461938059
 10
4417.519326075291
 20
3707.775180800835
 10
4417.664987245689
 20
3708.473785055374
 10
4418.130425056103
 20
3709.064075979315
 10
4418.844780819105
 20
3709.456187130491
 10
4419.699300345427
 20
3709.59042314063
 10
4420.563890783426
 20
3709.446347794042
 10
4420.9191699428
 20
3709.295845340893
  0
LWPOLYLINE
  5
688
330
5EA
100
AcDbEntity
  8
0
  6
Continuous
 62
     7
370
    15
100
AcDbPolyline
 90
        9
 70
   128
 43
0.0
 10
4435.03587461853
 20
3721.050681339106
 10
4434.843112573519
 20
3721.336510135767
 10
4434.646821511126
 20
3722.037071556012
 10
4434.792482681523
 20
3722.735675810552
 10
4435.257920491938
 20
3723.325966734493
 10
4435.972276254939
 20
3723.718077885668
 10
4436.826795781263
 20
3723.852313895807
 10
4437.691386219261
 20
3723.708238549218
 10
4438.046665378634
 20
3723.557736096071
  0
LWPOLYLINE
  5
689
330
5EA
100
AcDbEntity
  8
0
  6
Continuous
 62
     7
370
    15
100
AcDbPolyline
 90
        9
 70
   128
 43
0.0
 10
4452.163370054364
 20
3735.312572094283
 10
4451.970608009353
 20
3735.598400890944
 10
4451.77431694696
 20
3736.298962311189
 10
4451.919978117357
 20
3736.997566565729
 10
4452.385415927772
 20
3737.58785748967
 10
4453.099771690773
 20
3737.979968640845
 10
4453.954291217097
 20
3738.114204650984
 10
4454.818881655095
 20
3737.970129304396
 10
4455.174160814469
 20
3737.819626851248
  0
LWPOLYLINE
  5
68A
330
5EA
100
AcDbEntity
  8
0
  6
Continuous
 62
     7
370
    15
100
AcDbPolyline
 90
        9
 70
   128
 43
0.0
 10
4469.290865490199
 20
3749.574462849461
 10
4469.098103445187
 20
3749.860291646122
 10
4468.901812382795
 20
3750.560853066366
 10
4469.047473553191
 20
3751.259457320906
 10
4469.512911363607
 20
3751.849748244847
 10
4470.227267126608
 20
3752.241859396023
 10
4471.08178665293
 20
3752.376095406162
 10
4471.94637709093
 20
3752.232020059573
 10
4472.301656250303
 20
3752.081517606426
  0
LWPOLYLINE
  5
68B
330
5EA
100
AcDbEntity
  8
0
  6
Continuous
 62
     7
370
    15
100
AcDbPolyline
 90
        9
 70
   128
 43
0.0
 10
4486.418360926033
 20
3763.836353604638
 10
4486.225598881021
 20
3764.122182401299
 10
4486.029307818629
 20
3764.822743821544
 10
4486.174968989026
 20
3765.521348076083
 10
4486.64040679944
 20
3766.111639000025
 10
4487.354762562442
 20
3766.5037501512
 10
4488.209282088765
 20
3766.637986161339
 10
4489.073872526764
 20
3766.49391081475
 10
4489.429151686137
 20
3766.343408361603
  0
LWPOLYLINE
  5
68C
330
5EA
100
AcDbEntity
  8
0
  6
Continuous
 62
     7
370
    15
100
AcDbPolyline
 90
        9
 70
   128
 43
0.0
 10
4503.545856361869
 20
3778.098244359816
 10
4503.353094316856
 20
3778.384073156476
 10
4503.156803254464
 20
3779.084634576722
 10
4503.30246442486
 20
3779.783238831261
 10
4503.767902235276
 20
3780.373529755202
 10
4504.482257998278
 20
3780.765640906377
 10
4505.3367775246
 20
3780.899876916516
 10
4506.201367962598
 20
3780.755801569928
 10
4506.556647121971
 20
3780.605299116781
  0
LWPOLYLINE
  5
68D
330
5EA
100
AcDbEntity
  8
0
  6
Continuous
 62
     7
370
    15
100
AcDbPolyline
 90
        9
 70
   128
 43
0.0
 10
4520.673351797703
 20
3792.360135114993
 10
4520.48058975269
 20
3792.645963911654
 10
4520.284298690298
 20
3793.346525331899
 10
4520.429959860694
 20
3794.045129586438
 10
4520.89539767111
 20
3794.63542051038
 10
4521.609753434112
 20
3795.027531661555
 10
4522.464272960434
 20
3795.161767671693
 10
4523.328863398432
 20
3795.017692325105
 10
4523.684142557807
 20
3794.867189871958
  0
LWPOLYLINE
  5
68E
330
5EA
100
AcDbEntity
  8
0
  6
Continuous
 62
     7
370
    15
100
AcDbPolyline
 90
        9
 70
   128
 43
0.0
 10
2496.993267400481
 20
2110.46934818799
 10
2497.169800871787
 20
2111.032820533637
 10
2497.749531101966
 20
2111.942680374875
 10
2498.627029929437
 20
2112.673364698342
 10
2499.731207617887
 20
2113.165677805695
 10
2500.972610257794
 20
2113.379735416876
 10
2502.250666790178
 20
2113.298195857277
 10
2503.46183667568
 20
2112.927664977083
 10
2503.675810754972
 20
2112.826855332145
  0
ARC
  5
68F
330
5EA
100
AcDbEntity
  8
0
  6
Continuous
 62
     7
370
    15
100
AcDbCircle
 10
4542.593364089914
 20
3820.251967027296
 30
0.0
 40
0.8181644834132864
100
AcDbArc
 50
185.9519005350244
 51
234.4410571686241
  0
ARC
  5
690
330
5EA
100
AcDbEntity
  8
0
  6
Continuous
 62
     7
370
    15
100
AcDbCircle
 10
2518.436762843394
 20
2123.596348059866
 30
0.0
 40
2.257433919402452
100
AcDbArc
 50
70.98494938358687
 51
155.4518120067029
  0
ARC
  5
691
330
5EA
100
AcDbEntity
  8
0
  6
Continuous
 62
     7
370
    15
100
AcDbCircle
 10
2535.564258279241
 20
2137.858238814889
 30
0.0
 40
2.25743391954423
100
AcDbArc
 50
70.98494938515651
 51
155.4518119873713
  0
ARC
  5
692
330
5EA
100
AcDbEntity
  8
0
  6
Continuous
 62
     7
370
    15
100
AcDbCircle
 10
2552.691753715076
 20
2152.120129570055
 30
0.0
 40
2.257433919554857
100
AcDbArc
 50
70.98494938526778
 51
155.4518119858792
  0
LWPOLYLINE
  5
693
330
5EA
100
AcDbEntity
  8
0
  6
Continuous
 62
     7
370
    15
100
AcDbPolyline
 90
        9
 70
   128
 43
0.0
 10
2568.58619832266
 20
2170.084051546508
 10
2568.694300102993
 20
2170.470934099952
 10
2569.232524961009
 20
2171.427501639219
 10
2570.093222529788
 20
2172.206728147676
 10
2571.203072301137
 20
2172.742233417373
 10
2572.467529161646
 20
2172.988399196399
 10
2573.778877436306
 20
2172.924255284914
 10
2575.025406896807
 20
2172.55526593001
 10
2575.26874167676
 20
2172.441558688786
  0
ARC
  5
694
330
5EA
100
AcDbEntity
  8
0
  6
Continuous
 62
     7
370
    15
100
AcDbCircle
 10
2586.946744586745
 20
2180.643911080398
 30
0.0
 40
2.257433919565436
100
AcDbArc
 50
70.98494938540368
 51
155.4518119842468
  0
ARC
  5
695
330
5EA
100
AcDbEntity
  8
0
  6
Continuous
 62
     7
370
    15
100
AcDbCircle
 10
2604.07424002258
 20
2194.905801835585
 30
0.0
 40
2.257433919556008
100
AcDbArc
 50
70.98494938529666
 51
155.4518119856517
  0
ARC
  5
696
330
5EA
100
AcDbEntity
  8
0
  6
Continuous
 62
     7
370
    15
100
AcDbCircle
 10
2621.201735458416
 20
2209.167692590724
 30
0.0
 40
2.257433919591893
100
AcDbArc
 50
70.98494938567973
 51
155.4518119805799
  0
ARC
  5
697
330
5EA
100
AcDbEntity
  8
0
  6
Continuous
 62
     7
370
    15
100
AcDbCircle
 10
2638.329230894245
 20
2223.429583346001
 30
0.0
 40
2.257433919500533
100
AcDbArc
 50
70.98494938471569
 51
155.4518119937315
  0
ARC
  5
698
330
5EA
100
AcDbEntity
  8
0
  6
Continuous
 62
     7
370
    15
100
AcDbCircle
 10
2655.45672633008
 20
2237.691474101139
 30
0.0
 40
2.257433919536542
100
AcDbArc
 50
70.98494938507411
 51
155.4518119881412
  0
ARC
  5
699
330
5EA
100
AcDbEntity
  8
0
  6
Continuous
 62
     7
370
    15
100
AcDbCircle
 10
2672.58422176592
 20
2251.953364856244
 30
0.0
 40
2.257433919603123
100
AcDbArc
 50
70.984949385791
 51
155.4518119789476
  0
ARC
  5
69A
330
5EA
100
AcDbEntity
  8
0
  6
Continuous
 62
     7
370
    15
100
AcDbCircle
 10
2689.711717201755
 20
2266.215255611426
 30
0.0
 40
2.257433919598461
100
AcDbArc
 50
70.98494938576211
 51
155.4518119797756
  0
ARC
  5
69B
330
5EA
100
AcDbEntity
  8
0
  6
Continuous
 62
     7
370
    15
100
AcDbCircle
 10
2706.839212637591
 20
2280.477146366575
 30
0.0
 40
2.257433919624954
100
AcDbArc
 50
70.98494938603815
 51
155.4518119759686
  0
ARC
  5
69C
330
5EA
100
AcDbEntity
  8
0
  6
Continuous
 62
     7
370
    15
100
AcDbCircle
 10
2723.966708073412
 20
2294.739037121933
 30
0.0
 40
2.257433919458003
100
AcDbArc
 50
70.98494938422135
 51
155.4518119991126
  0
ARC
  5
69D
330
5EA
100
AcDbEntity
  8
0
  6
Continuous
 62
     7
370
    15
100
AcDbCircle
 10
2741.094203509261
 20
2309.000927876912
 30
0.0
 40
2.257433919641143
100
AcDbArc
 50
70.98494938620294
 51
155.4518119735028
  0
ARC
  5
69E
330
5EA
100
AcDbEntity
  8
0
  6
Continuous
 62
     7
370
    15
100
AcDbCircle
 10
2758.221698945098
 20
2323.26281863208
 30
0.0
 40
2.257433919649149
100
AcDbArc
 50
70.9849493863142
 51
155.451811972733
  0
ARC
  5
69F
330
5EA
100
AcDbEntity
  8
0
  6
Continuous
 62
     7
370
    15
100
AcDbCircle
 10
2775.349194380922
 20
2337.524709387373
 30
0.0
 40
2.257433919542694
100
AcDbArc
 50
70.98494938515651
 51
155.4518119874824
  0
ARC
  5
6A0
330
5EA
100
AcDbEntity
  8
0
  6
Continuous
 62
     7
370
    15
100
AcDbCircle
 10
2792.476689816767
 20
2351.786600142423
 30
0.0
 40
2.257433919659704
100
AcDbArc
 50
70.98494938645436
 51
155.4518119712409
  0
ARC
  5
6A1
330
5EA
100
AcDbEntity
  8
0
  6
Continuous
 62
     7
370
    15
100
AcDbCircle
 10
2809.604185252591
 20
2366.048490897735
 30
0.0
 40
2.25743391953662
100
AcDbArc
 50
70.98494938510299
 51
155.4518119882867
  0
ARC
  5
6A2
330
5EA
100
AcDbEntity
  8
0
  6
Continuous
 62
     7
370
    15
100
AcDbCircle
 10
2826.731680688434
 20
2380.310381652784
 30
0.0
 40
2.257433919654287
100
AcDbArc
 50
70.98494938637196
 51
155.4518119717304
  0
ARC
  5
6A3
330
5EA
100
AcDbEntity
  8
0
  6
Continuous
 62
     7
370
    15
100
AcDbCircle
 10
2843.859176124265
 20
2394.57227240802
 30
0.0
 40
2.25743391960061
100
AcDbArc
 50
70.984949385791
 51
155.4518119794608
  0
ARC
  5
6A4
330
5EA
100
AcDbEntity
  8
0
  6
Continuous
 62
     7
370
    15
100
AcDbCircle
 10
2860.986671560102
 20
2408.834163163149
 30
0.0
 40
2.257433919644716
100
AcDbArc
 50
70.98494938626069
 51
155.451811973188
  0
ARC
  5
6A5
330
5EA
100
AcDbEntity
  8
0
  6
Continuous
 62
     7
370
    15
100
AcDbCircle
 10
2878.114166995932
 20
2423.096053918396
 30
0.0
 40
2.25743391958121
100
AcDbArc
 50
70.9849493855727
 51
155.4518119819557
  0
ARC
  5
6A6
330
5EA
100
AcDbEntity
  8
0
  6
Continuous
 62
     7
370
    15
100
AcDbCircle
 10
2895.241662431775
 20
2437.357944673457
 30
0.0
 40
2.257433919688095
100
AcDbArc
 50
70.98494938675504
 51
155.4518119673465
  0
ARC
  5
6A7
330
5EA
100
AcDbEntity
  8
0
  6
Continuous
 62
     7
370
    15
100
AcDbCircle
 10
2912.369157867597
 20
2451.619835428815
 30
0.0
 40
2.257433919520595
100
AcDbArc
 50
70.98494938493821
 51
155.4518119908053
  0
ARC
  5
6A8
330
5EA
100
AcDbEntity
  8
0
  6
Continuous
 62
     7
370
    15
100
AcDbCircle
 10
2929.496653303445
 20
2465.881726183803
 30
0.0
 40
2.257433919695686
100
AcDbArc
 50
70.98494938683741
 51
155.4518119659999
  0
ARC
  5
6A9
330
5EA
100
AcDbEntity
  8
0
  6
Continuous
 62
     7
370
    15
100
AcDbCircle
 10
2946.624148739266
 20
2480.143616939159
 30
0.0
 40
2.257433919530952
100
AcDbArc
 50
70.98494938502061
 51
155.4518119890328
  0
ARC
  5
6AA
330
5EA
100
AcDbEntity
  8
0
  6
Continuous
 62
     7
370
    15
100
AcDbCircle
 10
2963.751644175106
 20
2494.405507694268
 30
0.0
 40
2.257433919594094
100
AcDbArc
 50
70.9849493857086
 51
155.4518119804926
  0
ARC
  5
6AB
330
5EA
100
AcDbEntity
  8
0
  6
Continuous
 62
     7
370
    15
100
AcDbCircle
 10
2980.87913961095
 20
2508.667398449311
 30
0.0
 40
2.257433919717732
100
AcDbArc
 50
70.98494938708883
 51
155.4518119631955
  0
ARC
  5
6AC
330
5EA
100
AcDbEntity
  8
0
  6
Continuous
 62
     7
370
    15
100
AcDbCircle
 10
2998.006635046775
 20
2522.929289204617
 30
0.0
 40
2.257433919599265
100
AcDbArc
 50
70.98494938576211
 51
155.4518119796064
  0
ARC
  5
6AD
330
5EA
100
AcDbEntity
  8
0
  6
Continuous
 62
     7
370
    15
100
AcDbCircle
 10
3015.134130482613
 20
2537.191179959735
 30
0.0
 40
2.257433919654738
100
AcDbArc
 50
70.98494938637196
 51
155.4518119717304
  0
ARC
  5
6AE
330
5EA
100
AcDbEntity
  8
0
  6
Continuous
 62
     7
370
    15
100
AcDbCircle
 10
3032.261625918451
 20
2551.453070714886
 30
0.0
 40
2.257433919677481
100
AcDbArc
 50
70.98494938667264
 51
155.4518119692646
  0
ARC
  5
6AF
330
5EA
100
AcDbEntity
  8
0
  6
Continuous
 62
     7
370
    15
100
AcDbCircle
 10
3049.38912135428
 20
2565.714961470112
 30
0.0
 40
2.257433919633538
100
AcDbArc
 50
70.98494938614942
 51
155.4518119746802
  0
ARC
  5
6B0
330
5EA
100
AcDbEntity
  8
0
  6
Continuous
 62
     7
370
    15
100
AcDbCircle
 10
3066.516616790102
 20
2579.976852225466
 30
0.0
 40
2.257433919471383
100
AcDbArc
 50
70.98494938438612
 51
155.4518119973347
  0
ARC
  5
6B1
330
5EA
100
AcDbEntity
  8
0
  6
Continuous
 62
     7
370
    15
100
AcDbCircle
 10
3083.644112225959
 20
2594.238742980344
 30
0.0
 40
2.257433919746656
100
AcDbArc
 50
70.98494938738951
 51
155.4518119590974
  0
ARC
  5
6B2
330
5EA
100
AcDbEntity
  8
0
  6
Continuous
 62
     7
370
    15
100
AcDbCircle
 10
3100.771607661793
 20
2608.500633735538
 30
0.0
 40
2.257433919731112
100
AcDbArc
 50
70.98494938725361
 51
155.4518119614468
  0
ARC
  5
6B3
330
5EA
100
AcDbEntity
  8
0
  6
Continuous
 62
     7
370
    15
100
AcDbCircle
 10
3117.899103097609
 20
2622.76252449095
 30
0.0
 40
2.257433919515907
100
AcDbArc
 50
70.98494938488046
 51
155.451811991091
  0
ARC
  5
6B4
330
5EA
100
AcDbEntity
  8
0
  6
Continuous
 62
     7
370
    15
100
AcDbCircle
 10
3135.026598533451
 20
2637.024415246019
 30
0.0
 40
2.257433919614502
100
AcDbArc
 50
70.9849493859269
 51
155.4518119773444
  0
ARC
  5
6B5
330
5EA
100
AcDbEntity
  8
0
  6
Continuous
 62
     7
370
    15
100
AcDbCircle
 10
3152.154093969289
 20
2651.28630600116
 30
0.0
 40
2.25743391964849
100
AcDbArc
 50
70.98494938634309
 51
155.4518119730479
  0
ARC
  5
6B6
330
5EA
100
AcDbEntity
  8
0
  6
Continuous
 62
     7
370
    15
100
AcDbCircle
 10
3169.281589405121
 20
2665.548196756363
 30
0.0
 40
2.257433919624376
100
AcDbArc
 50
70.98494938606704
 51
155.4518119760559
  0
ARC
  5
6B7
330
5EA
100
AcDbEntity
  8
0
  6
Continuous
 62
     7
370
    15
100
AcDbCircle
 10
3186.409084840977
 20
2679.81008751126
 30
0.0
 40
2.257433919882169
100
AcDbArc
 50
70.98494938890564
 51
155.4518119404774
  0
ARC
  5
6B8
330
5EA
100
AcDbEntity
  8
0
  6
Continuous
 62
     7
370
    15
100
AcDbCircle
 10
3203.536580276803
 20
2694.071978266544
 30
0.0
 40
2.257433919784743
100
AcDbArc
 50
70.98494938780146
 51
155.4518119537691
  0
ARC
  5
6B9
330
5EA
100
AcDbEntity
  8
0
  6
Continuous
 62
     7
370
    15
100
AcDbCircle
 10
3220.664075712646
 20
2708.333869021648
 30
0.0
 40
2.257433919850879
100
AcDbArc
 50
70.98494938860072
 51
155.4518119454036
  0
ARC
  5
6BA
330
5EA
100
AcDbEntity
  8
0
  6
Continuous
 62
     7
370
    15
100
AcDbCircle
 10
3237.791571148479
 20
2722.595759776824
 30
0.0
 40
2.25743391985303
100
AcDbArc
 50
70.98494938860072
 51
155.4518119447448
  0
ARC
  5
6BB
330
5EA
100
AcDbEntity
  8
0
  6
Continuous
 62
     7
370
    15
100
AcDbCircle
 10
3254.919066584309
 20
2736.857650532041
 30
0.0
 40
2.257433919816233
100
AcDbArc
 50
70.98494938818877
 51
155.4518119494435
  0
ARC
  5
6BC
330
5EA
100
AcDbEntity
  8
0
  6
Continuous
 62
     7
370
    15
100
AcDbCircle
 10
3272.04656202014
 20
2751.119541287283
 30
0.0
 40
2.257433919757168
100
AcDbArc
 50
70.98494938755429
 51
155.4518119580656
  0
ARC
  5
6BD
330
5EA
100
AcDbEntity
  8
0
  6
Continuous
 62
     7
370
    15
100
AcDbCircle
 10
3289.17405745598
 20
2765.381432042391
 30
0.0
 40
2.257433919820451
100
AcDbArc
 50
70.98494938824228
 51
155.451811949216
  0
ARC
  5
6BE
330
5EA
100
AcDbEntity
  8
0
  6
Continuous
 62
     7
370
    15
100
AcDbCircle
 10
3306.301552891817
 20
2779.643322797526
 30
0.0
 40
2.257433919859901
100
AcDbArc
 50
70.9849493886831
 51
155.4518119436893
  0
ARC
  5
6BF
330
5EA
100
AcDbEntity
  8
0
  6
Continuous
 62
     7
370
    15
100
AcDbCircle
 10
3323.429048327657
 20
2793.905213552641
 30
0.0
 40
2.257433919916957
100
AcDbArc
 50
70.98494938931757
 51
155.4518119358661
  0
ARC
  5
6C0
330
5EA
100
AcDbEntity
  8
0
  6
Continuous
 62
     7
370
    15
100
AcDbCircle
 10
3340.556543763489
 20
2808.167104307853
 30
0.0
 40
2.257433919885358
100
AcDbArc
 50
70.98494938895915
 51
155.4518119403491
  0
ARC
  5
6C1
330
5EA
100
AcDbEntity
  8
0
  6
Continuous
 62
     7
370
    15
100
AcDbCircle
 10
3357.684039199317
 20
2822.428995063095
 30
0.0
 40
2.257433919825395
100
AcDbArc
 50
70.98494938830002
 51
155.4518119485281
  0
ARC
  5
6C2
330
5EA
100
AcDbEntity
  8
0
  6
Continuous
 62
     7
370
    15
100
AcDbCircle
 10
3374.811534635143
 20
2836.690885818378
 30
0.0
 40
2.257433919728458
100
AcDbArc
 50
70.98494938722473
 51
155.4518119619017
  0
ARC
  5
6C3
330
5EA
100
AcDbEntity
  8
0
  6
Continuous
 62
     7
370
    15
100
AcDbCircle
 10
3391.939030070975
 20
2850.952776573602
 30
0.0
 40
2.257433919684868
100
AcDbArc
 50
70.98494938675504
 51
155.4518119681508
  0
ARC
  5
6C4
330
5EA
100
AcDbEntity
  8
0
  6
Continuous
 62
     7
370
    15
100
AcDbCircle
 10
3409.066525506807
 20
2865.214667328798
 30
0.0
 40
2.257433919668541
100
AcDbArc
 50
70.98494938656137
 51
155.4518119701562
  0
ARC
  5
6C5
330
5EA
100
AcDbEntity
  8
0
  6
Continuous
 62
     7
370
    15
100
AcDbCircle
 10
3426.194020942651
 20
2879.476558083858
 30
0.0
 40
2.257433919775987
100
AcDbArc
 50
70.98494938774795
 51
155.4518119554888
  0
ARC
  5
6C6
330
5EA
100
AcDbEntity
  8
0
  6
Continuous
 62
     7
370
    15
100
AcDbCircle
 10
3443.321516378484
 20
2893.738448839042
 30
0.0
 40
2.257433919769939
100
AcDbArc
 50
70.98494938769443
 51
155.4518119561184
  0
ARC
  5
6C7
330
5EA
100
AcDbEntity
  8
0
  6
Continuous
 62
     7
370
    15
100
AcDbCircle
 10
3460.449011814311
 20
2908.000339594321
 30
0.0
 40
2.257433919676203
100
AcDbArc
 50
70.98494938664376
 51
155.4518119692118
  0
ARC
  5
6C8
330
5EA
100
AcDbEntity
  8
0
  6
Continuous
 62
     7
370
    15
100
AcDbCircle
 10
3477.576507250149
 20
2922.262230349451
 30
0.0
 40
2.257433919720445
100
AcDbArc
 50
70.98494938714235
 51
155.4518119628807
  0
ARC
  5
6C9
330
5EA
100
AcDbEntity
  8
0
  6
Continuous
 62
     7
370
    15
100
AcDbCircle
 10
3494.704002685989
 20
2936.524121104566
 30
0.0
 40
2.257433919776997
100
AcDbArc
 50
70.98494938777682
 51
155.451811955174
  0
ARC
  5
6CA
330
5EA
100
AcDbEntity
  8
0
  6
Continuous
 62
     7
370
    15
100
AcDbCircle
 10
3511.831498121823
 20
2950.786011859742
 30
0.0
 40
2.257433919778179
100
AcDbArc
 50
70.98494938777682
 51
155.4518119550284
  0
ARC
  5
6CB
330
5EA
100
AcDbEntity
  8
0
  6
Continuous
 62
     7
370
    15
100
AcDbCircle
 10
3528.958993557654
 20
2965.047902614978
 30
0.0
 40
2.257433919724812
100
AcDbArc
 50
70.98494938719586
 51
155.4518119624786
  0
ARC
  5
6CC
330
5EA
100
AcDbEntity
  8
0
  6
Continuous
 62
     7
370
    15
100
AcDbCircle
 10
3546.086488993483
 20
2979.309793370217
 30
0.0
 40
2.257433919668218
100
AcDbArc
 50
70.98494938656137
 51
155.4518119702381
  0
ARC
  5
6CD
330
5EA
100
AcDbEntity
  8
0
  6
Continuous
 62
     7
370
    15
100
AcDbCircle
 10
3563.213984429321
 20
2993.57168412534
 30
0.0
 40
2.257433919717256
100
AcDbArc
 50
70.98494938711346
 51
155.4518119635104
  0
ARC
  5
6CE
330
5EA
100
AcDbEntity
  8
0
  6
Continuous
 62
     7
370
    15
100
AcDbCircle
 10
3580.34147986515
 20
3007.833574880584
 30
0.0
 40
2.257433919657088
100
AcDbArc
 50
70.98494938642547
 51
155.4518119717304
  0
ARC
  5
6CF
330
5EA
100
AcDbEntity
  8
0
  6
Continuous
 62
     7
370
    15
100
AcDbCircle
 10
3597.468975300993
 20
3022.095465635655
 30
0.0
 40
2.257433919754266
100
AcDbArc
 50
70.98494938752542
 51
155.4518119584387
  0
ARC
  5
6D0
330
5EA
100
AcDbEntity
  8
0
  6
Continuous
 62
     7
370
    15
100
AcDbCircle
 10
3614.596470736832
 20
3036.357356390784
 30
0.0
 40
2.257433919798398
100
AcDbArc
 50
70.98494938802398
 51
155.4518119524225
  0
ARC
  5
6D1
330
5EA
100
AcDbEntity
  8
0
  6
Continuous
 62
     7
370
    15
100
AcDbCircle
 10
3631.723966172661
 20
3050.619247146022
 30
0.0
 40
2.25743391974235
100
AcDbArc
 50
70.98494938738951
 51
155.4518119600128
  0
ARC
  5
6D2
330
5EA
100
AcDbEntity
  8
0
  6
Continuous
 62
     7
370
    15
100
AcDbCircle
 10
3648.851461608494
 20
3064.881137901203
 30
0.0
 40
2.257433919739422
100
AcDbArc
 50
70.98494938733598
 51
155.4518119601584
  0
ARC
  5
6D3
330
5EA
100
AcDbEntity
  8
0
  6
Continuous
 62
     7
370
    15
100
AcDbCircle
 10
3665.978957044325
 20
3079.143028656435
 30
0.0
 40
2.257433919689379
100
AcDbArc
 50
70.98494938680854
 51
155.4518119674338
  0
ARC
  5
6D4
330
5EA
100
AcDbEntity
  8
0
  6
Continuous
 62
     7
370
    15
100
AcDbCircle
 10
3683.106452480158
 20
3093.404919411631
 30
0.0
 40
2.257433919671765
100
AcDbArc
 50
70.98494938659026
 51
155.4518119696376
  0
ARC
  5
6D5
330
5EA
100
AcDbEntity
  8
0
  6
Continuous
 62
     7
370
    15
100
AcDbCircle
 10
3700.233947915999
 20
3107.666810166727
 30
0.0
 40
2.257433919746964
100
AcDbArc
 50
70.98494938744302
 51
155.4518119594123
  0
ARC
  5
6D6
330
5EA
100
AcDbEntity
  8
0
  6
Continuous
 62
     7
370
    15
100
AcDbCircle
 10
3717.361443351832
 20
3121.928700921919
 30
0.0
 40
2.257433919733039
100
AcDbArc
 50
70.98494938727824
 51
155.4518119614176
  0
ARC
  5
6D7
330
5EA
100
AcDbEntity
  8
0
  6
Continuous
 62
     7
370
    15
100
AcDbCircle
 10
3734.488938787666
 20
3136.190591677097
 30
0.0
 40
2.257433919732791
100
AcDbArc
 50
70.98494938727824
 51
155.4518119613012
  0
ARC
  5
6D8
330
5EA
100
AcDbEntity
  8
0
  6
Continuous
 62
     7
370
    15
100
AcDbCircle
 10
3751.61643422351
 20
3150.452482432172
 30
0.0
 40
2.257433919825957
100
AcDbArc
 50
70.98494938832468
 51
155.4518119485281
  0
ARC
  5
6D9
330
5EA
100
AcDbEntity
  8
0
  6
Continuous
 62
     7
370
    15
100
AcDbCircle
 10
3768.743929659338
 20
3164.714373187431
 30
0.0
 40
2.257433919752141
100
AcDbArc
 50
70.98494938750078
 51
155.4518119586953
  0
ARC
  5
6DA
330
5EA
100
AcDbEntity
  8
0
  6
Continuous
 62
     7
370
    15
100
AcDbCircle
 10
3785.871425095168
 20
3178.976263942649
 30
0.0
 40
2.257433919713681
100
AcDbArc
 50
70.98494938705996
 51
155.4518119638543
  0
ARC
  5
6DB
330
5EA
100
AcDbEntity
  8
0
  6
Continuous
 62
     7
370
    15
100
AcDbCircle
 10
3802.998920531003
 20
3193.238154697841
 30
0.0
 40
2.257433919700697
100
AcDbArc
 50
70.98494938691981
 51
155.4518119658888
  0
ARC
  5
6DC
330
5EA
100
AcDbEntity
  8
0
  6
Continuous
 62
     7
370
    15
100
AcDbCircle
 10
3820.126415966835
 20
3207.500045453035
 30
0.0
 40
2.257433919685542
100
AcDbArc
 50
70.98494938675504
 51
155.4518119678597
  0
ARC
  5
6DD
330
5EA
100
AcDbEntity
  8
0
  6
Continuous
 62
     7
370
    15
100
AcDbCircle
 10
3837.253911402672
 20
3221.761936208184
 30
0.0
 40
2.257433919711858
100
AcDbArc
 50
70.98494938703108
 51
155.45181196414
  0
ARC
  5
6DE
330
5EA
100
AcDbEntity
  8
0
  6
Continuous
 62
     7
370
    15
100
AcDbCircle
 10
3854.381406838505
 20
3236.023826963382
 30
0.0
 40
2.257433919692391
100
AcDbArc
 50
70.98494938683741
 51
155.4518119668915
  0
ARC
  5
6DF
330
5EA
100
AcDbEntity
  8
0
  6
Continuous
 62
     7
370
    15
100
AcDbCircle
 10
3871.508902274341
 20
3250.285717718532
 30
0.0
 40
2.257433919717649
100
AcDbArc
 50
70.98494938711346
 51
155.4518119632775
  0
ARC
  5
6E0
330
5EA
100
AcDbEntity
  8
0
  6
Continuous
 62
     7
370
    15
100
AcDbCircle
 10
3888.636397710176
 20
3264.547608473697
 30
0.0
 40
2.257433919729218
100
AcDbArc
 50
70.98494938722473
 51
155.4518119617034
  0
ARC
  5
6E1
330
5EA
100
AcDbEntity
  8
0
  6
Continuous
 62
     7
370
    15
100
AcDbCircle
 10
3905.763893146011
 20
3278.809499228876
 30
0.0
 40
2.257433919727571
100
AcDbArc
 50
70.98494938722473
 51
155.4518119620473
  0
ARC
  5
6E2
330
5EA
100
AcDbEntity
  8
0
  6
Continuous
 62
     7
370
    15
100
AcDbCircle
 10
3922.891388581845
 20
3293.071389984056
 30
0.0
 40
2.257433919725183
100
AcDbArc
 50
70.98494938719586
 51
155.4518119623912
  0
ARC
  5
6E3
330
5EA
100
AcDbEntity
  8
0
  6
Continuous
 62
     7
370
    15
100
AcDbCircle
 10
3940.018884017679
 20
3307.333280739234
 30
0.0
 40
2.257433919724455
100
AcDbArc
 50
70.98494938717123
 51
155.4518119623039
  0
ARC
  5
6E4
330
5EA
100
AcDbEntity
  8
0
  6
Continuous
 62
     7
370
    15
100
AcDbCircle
 10
3957.146379453514
 20
3321.595171494401
 30
0.0
 40
2.257433919734047
100
AcDbArc
 50
70.98494938727824
 51
155.4518119609864
  0
ARC
  5
6E5
330
5EA
100
AcDbEntity
  8
0
  6
Continuous
 62
     7
370
    15
100
AcDbCircle
 10
3974.273874889347
 20
3335.857062249594
 30
0.0
 40
2.257433919719827
100
AcDbArc
 50
70.98494938714235
 51
155.4518119630791
  0
ARC
  5
6E6
330
5EA
100
AcDbEntity
  8
0
  6
Continuous
 62
     7
370
    15
100
AcDbCircle
 10
3991.401370325181
 20
3350.118953004779
 30
0.0
 40
2.257433919712283
100
AcDbArc
 50
70.98494938703108
 51
155.4518119641109
  0
ARC
  5
6E7
330
5EA
100
AcDbEntity
  8
0
  6
Continuous
 62
     7
370
    15
100
AcDbCircle
 10
4008.528865761016
 20
3364.380843759928
 30
0.0
 40
2.257433919738046
100
AcDbArc
 50
70.98494938730713
 51
155.4518119602166
  0
ARC
  5
6E8
330
5EA
100
AcDbEntity
  8
0
  6
Continuous
 62
     7
370
    15
100
AcDbCircle
 10
4025.656361196848
 20
3378.642734515143
 30
0.0
 40
2.25743391970365
100
AcDbArc
 50
70.98494938694869
 51
155.4518119653702
  0
ARC
  5
6E9
330
5EA
100
AcDbEntity
  8
0
  6
Continuous
 62
     7
370
    15
100
AcDbCircle
 10
4042.783856632683
 20
3392.904625270311
 30
0.0
 40
2.257433919712643
100
AcDbArc
 50
70.98494938705996
 51
155.4518119640236
  0
ARC
  5
6EA
330
5EA
100
AcDbEntity
  8
0
  6
Continuous
 62
     7
370
    15
100
AcDbCircle
 10
4059.911352068521
 20
3407.166516025446
 30
0.0
 40
2.257433919751445
100
AcDbArc
 50
70.9849493874719
 51
155.4518119585788
  0
ARC
  5
6EB
330
5EA
100
AcDbEntity
  8
0
  6
Continuous
 62
     7
370
    15
100
AcDbCircle
 10
4077.038847504353
 20
3421.428406780651
 30
0.0
 40
2.257433919726235
100
AcDbArc
 50
70.98494938719586
 51
155.4518119620182
  0
ARC
  5
6EC
330
5EA
100
AcDbEntity
  8
0
  6
Continuous
 62
     7
370
    15
100
AcDbCircle
 10
4094.166342940186
 20
3435.690297535845
 30
0.0
 40
2.257433919710476
100
AcDbArc
 50
70.98494938703108
 51
155.4518119643093
  0
ARC
  5
6ED
330
5EA
100
AcDbEntity
  8
0
  6
Continuous
 62
     7
370
    15
100
AcDbCircle
 10
4111.293838376023
 20
3449.952188291002
 30
0.0
 40
2.257433919728586
100
AcDbArc
 50
70.98494938722473
 51
155.4518119617907
  0
ARC
  5
6EE
330
5EA
100
AcDbEntity
  8
0
  6
Continuous
 62
     7
370
    15
100
AcDbCircle
 10
4128.421333811858
 20
3464.214079046179
 30
0.0
 40
2.257433919729374
100
AcDbArc
 50
70.98494938722473
 51
155.4518119616743
  0
ARC
  5
6EF
330
5EA
100
AcDbEntity
  8
0
  6
Continuous
 62
     7
370
    15
100
AcDbCircle
 10
4145.548829247691
 20
3478.475969801367
 30
0.0
 40
2.257433919719961
100
AcDbArc
 50
70.98494938711346
 51
155.4518119629044
  0
ARC
  5
6F0
330
5EA
100
AcDbEntity
  8
0
  6
Continuous
 62
     7
370
    15
100
AcDbCircle
 10
4162.676324683525
 20
3492.737860556552
 30
0.0
 40
2.257433919712928
100
AcDbArc
 50
70.98494938705996
 51
155.4518119638834
  0
ARC
  5
6F1
330
5EA
100
AcDbEntity
  8
0
  6
Continuous
 62
     7
370
    15
100
AcDbCircle
 10
4179.803820119359
 20
3506.999751311724
 30
0.0
 40
2.257433919717873
100
AcDbArc
 50
70.98494938711346
 51
155.4518119632538
  0
ARC
  5
6F2
330
5EA
100
AcDbEntity
  8
0
  6
Continuous
 62
     7
370
    15
100
AcDbCircle
 10
4196.931315555195
 20
3521.261642066884
 30
0.0
 40
2.257433919732939
100
AcDbArc
 50
70.98494938725361
 51
155.4518119610446
  0
ARC
  5
6F3
330
5EA
100
AcDbEntity
  8
0
  6
Continuous
 62
     7
370
    15
100
AcDbCircle
 10
4214.05881099103
 20
3535.523532822062
 30
0.0
 40
2.257433919732578
100
AcDbArc
 50
70.98494938727824
 51
155.4518119613594
  0
ARC
  5
6F4
330
5EA
100
AcDbEntity
  8
0
  6
Continuous
 62
     7
370
    15
100
AcDbCircle
 10
4231.186306426863
 20
3549.785423577248
 30
0.0
 40
2.257433919724952
100
AcDbArc
 50
70.98494938719586
 51
155.451811962333
  0
ARC
  5
6F5
330
5EA
100
AcDbEntity
  8
0
  6
Continuous
 62
     7
370
    15
100
AcDbCircle
 10
4248.313801862699
 20
3564.047314332416
 30
0.0
 40
2.257433919733221
100
AcDbArc
 50
70.98494938727824
 51
155.4518119611902
  0
ARC
  5
6F6
330
5EA
100
AcDbEntity
  8
0
  6
Continuous
 62
     7
370
    15
100
AcDbCircle
 10
4265.441297298532
 20
3578.309205087601
 30
0.0
 40
2.257433919725758
100
AcDbArc
 50
70.98494938719586
 51
155.4518119621929
  0
ARC
  5
6F7
330
5EA
100
AcDbEntity
  8
0
  6
Continuous
 62
     7
370
    15
100
AcDbCircle
 10
4282.568792734367
 20
3592.571095842778
 30
0.0
 40
2.257433919726349
100
AcDbArc
 50
70.98494938719586
 51
155.4518119621347
  0
ARC
  5
6F8
330
5EA
100
AcDbEntity
  8
0
  6
Continuous
 62
     7
370
    15
100
AcDbCircle
 10
4299.696288170202
 20
3606.832986597956
 30
0.0
 40
2.257433919726114
100
AcDbArc
 50
70.98494938719586
 51
155.4518119621929
  0
ARC
  5
6F9
330
5EA
100
AcDbEntity
  8
0
  6
Continuous
 62
     7
370
    15
100
AcDbCircle
 10
4316.823783606036
 20
3621.094877353136
 30
0.0
 40
2.257433919724102
100
AcDbArc
 50
70.98494938717123
 51
155.4518119623621
  0
ARC
  5
6FA
330
5EA
100
AcDbEntity
  8
0
  6
Continuous
 62
     7
370
    15
100
AcDbCircle
 10
4333.95127904187
 20
3635.356768108313
 30
0.0
 40
2.257433919723769
100
AcDbArc
 50
70.98494938717123
 51
155.4518119624495
  0
ARC
  5
6FB
330
5EA
100
AcDbEntity
  8
0
  6
Continuous
 62
     7
370
    15
100
AcDbCircle
 10
4351.078774477705
 20
3649.618658863484
 30
0.0
 40
2.257433919729804
100
AcDbArc
 50
70.98494938725361
 51
155.4518119615869
  0
ARC
  5
6FC
330
5EA
100
AcDbEntity
  8
0
  6
Continuous
 62
     7
370
    15
100
AcDbCircle
 10
4368.206269913539
 20
3663.880549618666
 30
0.0
 40
2.25743391972583
100
AcDbArc
 50
70.98494938719586
 51
155.4518119621929
  0
ARC
  5
6FD
330
5EA
100
AcDbEntity
  8
0
  6
Continuous
 62
     7
370
    15
100
AcDbCircle
 10
4385.333765349374
 20
3678.142440373846
 30
0.0
 40
2.257433919723167
100
AcDbArc
 50
70.98494938717123
 51
155.4518119625659
  0
ARC
  5
6FE
330
5EA
100
AcDbEntity
  8
0
  6
Continuous
 62
     7
370
    15
100
AcDbCircle
 10
4402.461260785208
 20
3692.404331129023
 30
0.0
 40
2.257433919722839
100
AcDbArc
 50
70.98494938717123
 51
155.4518119625896
  0
ARC
  5
6FF
330
5EA
100
AcDbEntity
  8
0
  6
Continuous
 62
     7
370
    15
100
AcDbCircle
 10
4419.588756221043
 20
3706.666221884199
 30
0.0
 40
2.257433919724352
100
AcDbArc
 50
70.98494938719586
 51
155.4518119623621
  0
ARC
  5
700
330
5EA
100
AcDbEntity
  8
0
  6
Continuous
 62
     7
370
    15
100
AcDbCircle
 10
4436.716251656877
 20
3720.928112639376
 30
0.0
 40
2.257433919724596
100
AcDbArc
 50
70.98494938717123
 51
155.4518119622748
  0
ARC
  5
701
330
5EA
100
AcDbEntity
  8
0
  6
Continuous
 62
     7
370
    15
100
AcDbCircle
 10
4453.843747092711
 20
3735.190003394552
 30
0.0
 40
2.257433919725482
100
AcDbArc
 50
70.98494938719586
 51
155.4518119622511
  0
ARC
  5
702
330
5EA
100
AcDbEntity
  8
0
  6
Continuous
 62
     7
370
    15
100
AcDbCircle
 10
4470.971242528545
 20
3749.451894149732
 30
0.0
 40
2.257433919723682
100
AcDbArc
 50
70.98494938717123
 51
155.4518119623912
  0
ARC
  5
703
330
5EA
100
AcDbEntity
  8
0
  6
Continuous
 62
     7
370
    15
100
AcDbCircle
 10
4488.098737964379
 20
3763.713784904908
 30
0.0
 40
2.257433919724495
100
AcDbArc
 50
70.98494938719586
 51
155.4518119623039
  0
ARC
  5
704
330
5EA
100
AcDbEntity
  8
0
  6
Continuous
 62
     7
370
    15
100
AcDbCircle
 10
4505.226233400214
 20
3777.975675660086
 30
0.0
 40
2.257433919724225
100
AcDbArc
 50
70.98494938717123
 51
155.451811962333
  0
ARC
  5
705
330
5EA
100
AcDbEntity
  8
0
  6
Continuous
 62
     7
370
    15
100
AcDbCircle
 10
4522.35372883605
 20
3792.237566415263
 30
0.0
 40
2.257433919724656
100
AcDbArc
 50
70.98494938719586
 51
155.4518119623621
  0
LWPOLYLINE
  5
706
330
5EA
100
AcDbEntity
  8
0
  6
Continuous
 62
     7
370
    15
100
AcDbPolyline
 90
        9
 70
   128
 43
0.0
 10
4535.165224265049
 20
3807.634348055402
 10
4535.341757736082
 20
3808.197820399739
 10
4535.921487966262
 20
3809.107680240978
 10
4536.798986793733
 20
3809.838364564444
 10
4537.903164482183
 20
3810.330677671797
 10
4539.144567122089
 20
3810.544735282979
 10
4540.422623654473
 20
3810.46319572338
 10
4541.633793539975
 20
3810.092664843184
 10
4541.847767619267
 20
3809.991855198248
  0
LINE
  5
707
330
5EA
100
AcDbEntity
  8
0
  6
Continuous
 62
     8
370
    15
100
AcDbLine
 10
2487.033457402652
 20
2115.094391767397
 30
0.0
 11
2487.178092326393
 21
2115.214827793172
 31
0.0
  0
LINE
  5
708
330
5EA
100
AcDbEntity
  8
0
  6
Continuous
 62
     8
370
    15
100
AcDbLine
 10
2499.026313632037
 20
2098.439745137397
 30
0.0
 11
2499.445216022677
 21
2098.78856088543
 31
0.0
  0
ENDBLK
  5
5EC
330
5EA
100
AcDbEntity
  8
0
100
AcDbBlockEnd
  0
ENDSEC
  0
SECTION
  2
ENTITIES
  0
INSERT
  5
54E
330
1F
100
AcDbEntity
  8
0
100
AcDbBlockReference
  2
1
 10
0.0
 20
0.0
 30
0.0
  0
INSERT
  5
55C
330
1F
100
AcDbEntity
  8
0
100
AcDbBlockReference
  2
2
 10
0.0
 20
0.0
 30
0.0
  0
INSERT
  5
5E9
330
1F
100
AcDbEntity
  8
0
100
AcDbBlockReference
  2
3
 10
0.0
 20
0.0
 30
0.0
  0
INSERT
  5
709
330
1F
100
AcDbEntity
  8
0
100
AcDbBlockReference
  2
4
 10
2818.527655104973
 20
313.8483561627581
 30
0.0
  0
ENDSEC
  0
SECTION
  2
OBJECTS
  0
DICTIONARY
  5
C
330
0
100
AcDbDictionary
281
     1
  3
ACAD_COLOR
350
6B
  3
ACAD_GROUP
350
D
  3
ACAD_LAYOUT
350
1A
  3
ACAD_MATERIAL
350
6A
  3
ACAD_MLEADERSTYLE
350
12D
  3
ACAD_MLINESTYLE
350
17
  3
ACAD_PLOTSETTINGS
350
19
  3
ACAD_PLOTSTYLENAME
350
E
  3
ACAD_SCALELIST
350
10C
  3
ACAD_TABLESTYLE
350
7E
  3
ACAD_VISUALSTYLE
350
EF
  3
ACDB_RECOMPOSE_DATA
350
15D
  3
AcDbVariableDictionary
350
5E
  3
DWGPROPS
350
717
  0
DICTIONARY
  5
13C
330
10
100
AcDbDictionary
280
     1
281
     1
  3
ADSK_XREC_LAYER_RECONCILED
360
70A
  0
DICTIONARY
  5
6B
102
{ACAD_REACTORS
330
C
102
}
330
C
100
AcDbDictionary
281
     1
  0
DICTIONARY
  5
D
102
{ACAD_REACTORS
330
C
102
}
330
C
100
AcDbDictionary
281
     1
  0
DICTIONARY
  5
1A
102
{ACAD_REACTORS
330
C
102
}
330
C
100
AcDbDictionary
281
     1
  3
Layout1
350
D3
  3
Layout2
350
D7
  3
Model
350
22
  0
DICTIONARY
  5
6A
102
{ACAD_REACTORS
330
C
102
}
330
C
100
AcDbDictionary
281
     1
  3
ByBlock
350
ED
  3
ByLayer
350
EC
  3
Global
350
EE
  0
DICTIONARY
  5
12D
102
{ACAD_REACTORS
330
C
102
}
330
C
100
AcDbDictionary
281
     1
  3
Annotative
350
13B
  3
Standard
350
12E
  0
DICTIONARY
  5
17
102
{ACAD_REACTORS
330
C
102
}
330
C
100
AcDbDictionary
281
     1
  3
Standard
350
18
  0
DICTIONARY
  5
19
102
{ACAD_REACTORS
330
C
102
}
330
C
100
AcDbDictionary
281
     1
  0
ACDBDICTIONARYWDFLT
  5
E
102
{ACAD_REACTORS
330
C
102
}
330
C
100
AcDbDictionary
281
     1
  3
Normal
350
F
100
AcDbDictionaryWithDefault
340
F
  0
DICTIONARY
  5
10C
102
{ACAD_REACTORS
330
C
102
}
330
C
100
AcDbDictionary
281
     1
  3
A0
350
10D
  3
A1
350
188
  3
A2
350
189
  3
A3
350
18A
  3
A4
350
18B
  3
A5
350
18C
  3
A6
350
18D
  3
A7
350
18E
  3
A8
350
18F
  3
A9
350
190
  3
B0
350
191
  3
B1
350
192
  3
B2
350
193
  3
B3
350
194
  3
B4
350
195
  3
B5
350
196
  3
B6
350
197
  3
B7
350
198
  3
B8
350
199
  3
B9
350
19A
  3
C0
350
19B
  3
C1
350
19C
  3
C2
350
19D
  3
C3
350
19E
  3
C4
350
19F
  3
C5
350
1A0
  3
C6
350
1A1
  3
C7
350
1A2
  3
C8
350
1A3
  3
C9
350
1A4
  3
D0
350
1A5
  3
D1
350
1A6
  3
D2
350
1A7
  0
DICTIONARY
  5
7E
102
{ACAD_REACTORS
330
C
102
}
330
C
100
AcDbDictionary
281
     1
  3
Standard
350
7F
  0
DICTIONARY
  5
EF
102
{ACAD_REACTORS
330
C
102
}
330
C
100
AcDbDictionary
281
     1
  3
2dWireframe
350
F5
  3
3D Hidden
350
F7
  3
3dWireframe
350
F6
  3
Basic
350
F4
  3
Brighten
350
FB
  3
ColorChange
350
FF
  3
Conceptual
350
F8
  3
Dim
350
FA
  3
Facepattern
350
FE
  3
Flat
350
F0
  3
FlatWithEdges
350
F1
  3
Gouraud
350
F2
  3
GouraudWithEdges
350
F3
  3
Linepattern
350
FD
  3
Realistic
350
F9
  3
Thicken
350
FC
  0
XRECORD
  5
15D
102
{ACAD_REACTORS
330
C
102
}
330
C
100
AcDbXrecord
280
     1
 90
        1
330
7F
  0
DICTIONARY
  5
5E
102
{ACAD_REACTORS
330
C
102
}
330
C
100
AcDbDictionary
281
     1
  3
CANNOSCALE
350
146
  3
CMLEADERSTYLE
350
145
  3
CTABLESTYLE
350
84
  3
DIMASSOC
350
5F
  3
HIDETEXT
350
63
  3
INDEXCTL
350
713
  3
LIGHTINGUNITS
350
711
  3
MSLTSCALE
350
710
  3
PSOLHEIGHT
350
715
  3
PSOLWIDTH
350
714
  3
SORTENTS
350
712
  0
XRECORD
  5
717
102
{ACAD_REACTORS
330
C
102
}
330
C
100
AcDbXrecord
280
     1
  1
DWGPROPS COOKIE
  2

  3

  4

  6

  7

  8
orhan kara
  9

300
=
301
=
302
=
303
=
304
=
305
=
306
=
307
=
308
=
309
=
 40
0.0025135532407407
 41
2458489.349844155
 42
2459082.591101296
  1

 90
        0
  0
XRECORD
  5
70A
102
{ACAD_REACTORS
330
13C
102
}
330
13C
100
AcDbXrecord
280
     1
290
     1
  0
LAYOUT
  5
D3
102
{ACAD_XDICTIONARY
360
71B
102
}
102
{ACAD_REACTORS
330
1A
102
}
330
1A
100
AcDbPlotSettings
  1

  2
C:\Documents and Settings\basas\Application Data\Autodesk\AutoCAD 2005\R16.1\enu\plotters\Default Windows System Printer.pc3
  4

  6

 40
0.0
 41
0.0
 42
0.0
 43
0.0
 44
0.0
 45
0.0
 46
0.0
 47
0.0
 48
0.0
 49
0.0
140
0.0
141
0.0
142
1.0
143
1.0
 70
   688
 72
     0
 73
     0
 74
     5
  7

 75
    16
147
1.0
148
0.0
149
0.0
100
AcDbLayout
  1
Layout1
 70
     1
 71
     1
 10
0.0
 20
0.0
 11
12.0
 21
9.0
 12
0.0
 22
0.0
 32
0.0
 14
0.0
 24
0.0
 34
0.0
 15
0.0
 25
0.0
 35
0.0
146
0.0
 13
0.0
 23
0.0
 33
0.0
 16
1.0
 26
0.0
 36
0.0
 17
0.0
 27
1.0
 37
0.0
 76
     0
330
D2
  0
LAYOUT
  5
D7
102
{ACAD_XDICTIONARY
360
71D
102
}
102
{ACAD_REACTORS
330
1A
102
}
330
1A
100
AcDbPlotSettings
  1

  2
C:\Documents and Settings\basas\Application Data\Autodesk\AutoCAD 2005\R16.1\enu\plotters\Default Windows System Printer.pc3
  4

  6

 40
0.0
 41
0.0
 42
0.0
 43
0.0
 44
0.0
 45
0.0
 46
0.0
 47
0.0
 48
0.0
 49
0.0
140
0.0
141
0.0
142
1.0
143
1.0
 70
   688
 72
     0
 73
     0
 74
     5
  7

 75
    16
147
1.0
148
0.0
149
0.0
100
AcDbLayout
  1
Layout2
 70
     1
 71
     2
 10
0.0
 20
0.0
 11
12.0
 21
9.0
 12
0.0
 22
0.0
 32
0.0
 14
0.0
 24
0.0
 34
0.0
 15
0.0
 25
0.0
 35
0.0
146
0.0
 13
0.0
 23
0.0
 33
0.0
 16
1.0
 26
0.0
 36
0.0
 17
0.0
 27
1.0
 37
0.0
 76
     0
330
D6
  0
LAYOUT
  5
22
102
{ACAD_XDICTIONARY
360
718
102
}
102
{ACAD_REACTORS
330
1A
102
}
330
1A
100
AcDbPlotSettings
  1

  2
none_device
  4
ISO_A4_(210.00_x_297.00_MM)
  6

 40
7.5
 41
20.0
 42
7.5
 43
20.0
 44
210.0
 45
297.0
 46
11.54999923706054
 47
-13.65000009536743
 48
0.0
 49
0.0
140
0.0
141
0.0
142
1.0
143
8.704084754739808
 70
 11952
 72
     1
 73
     0
 74
     0
  7

 75
     0
147
0.1148885871608098
148
0.0
149
0.0
100
AcDbLayout
  1
Model
 70
     1
 71
     0
 10
0.0
 20
0.0
 11
12.0
 21
9.0
 12
0.0
 22
0.0
 32
0.0
 14
0.0
 24
0.0
 34
0.0
 15
0.0
 25
0.0
 35
0.0
146
0.0
 13
0.0
 23
0.0
 33
0.0
 16
1.0
 26
0.0
 36
0.0
 17
0.0
 27
1.0
 37
0.0
 76
     0
330
1F
331
EA
1001
ACAD_PSEXT
1000
None
1000
None
1000
Not applicable
1000
The layout will not be plotted unless a new plotter configuration name is selected.
1070
     0
  0
MATERIAL
  5
ED
102
{ACAD_XDICTIONARY
360
721
102
}
102
{ACAD_REACTORS
330
6A
102
}
330
6A
100
AcDbMaterial
  1
ByBlock
  0
MATERIAL
  5
EC
102
{ACAD_XDICTIONARY
360
71F
102
}
102
{ACAD_REACTORS
330
6A
102
}
330
6A
100
AcDbMaterial
  1
ByLayer
  0
MATERIAL
  5
EE
102
{ACAD_XDICTIONARY
360
173
102
}
102
{ACAD_REACTORS
330
6A
102
}
330
6A
100
AcDbMaterial
  1
Global
 43
0.0007999999797903
 43
0.0
 43
0.0
 43
0.0
 43
0.0
 43
0.0007999999797903
 43
0.0
 43
0.0
 43
0.0
 43
0.0
 43
1.0
 43
0.0
 43
0.0
 43
0.0
 43
0.0
 43
1.0
 49
0.0007999999797903
 49
0.0
 49
0.0
 49
0.0
 49
0.0
 49
0.0007999999797903
 49
0.0
 49
0.0
 49
0.0
 49
0.0
 49
1.0
 49
0.0
 49
0.0
 49
0.0
 49
0.0
 49
1.0
142
0.0007999999797903
142
0.0
142
0.0
142
0.0
142
0.0
142
0.0007999999797903
142
0.0
142
0.0
142
0.0
142
0.0
142
1.0
142
0.0
142
0.0
142
0.0
142
0.0
142
1.0
144
0.0007999999797903
144
0.0
144
0.0
144
0.0
144
0.0
144
0.0007999999797903
144
0.0
144
0.0
144
0.0
144
0.0
144
1.0
144
0.0
144
0.0
144
0.0
144
0.0
144
1.0
1001
ACAD
1070
    -1
1070
     3
1070
     0
1000

1071
        0
1070
     0
  0
MLEADERSTYLE
  5
13B
102
{ACAD_REACTORS
330
12D
102
}
330
12D
100
AcDbMLeaderStyle
170
     2
171
     1
172
     0
 90
        2
 40
0.0
 41
0.0
173
     1
 91
-1056964608
340
14
 92
       -2
290
     1
 42
2.0
291
     1
 43
8.0
  3
Standard
 44
4.0
300

342
11
174
     1
178
     1
175
     1
176
     0
 93
-1056964608
 45
4.0
292
     0
297
     0
 46
4.0
 94
-1056964608
 47
1.0
 49
1.0
140
1.0
293
     1
141
0.0
294
     1
177
     0
142
1.0
295
     0
296
     1
143
3.75
1001
ACAD_MLEADERVER
1070
     2
  0
MLEADERSTYLE
  5
12E
102
{ACAD_REACTORS
330
12D
102
}
330
12D
100
AcDbMLeaderStyle
170
     2
171
     1
172
     0
 90
        2
 40
0.0
 41
0.0
173
     1
 91
-1056964608
340
14
 92
       -2
290
     1
 42
2.0
291
     1
 43
8.0
  3
Standard
 44
4.0
300

342
11
174
     1
178
     1
175
     1
176
     0
 93
-1056964608
 45
4.0
292
     0
297
     0
 46
4.0
 94
-1056964608
 47
1.0
 49
1.0
140
1.0
293
     1
141
0.0
294
     1
177
     0
142
1.0
295
     0
296
     0
143
3.75
1001
ACAD_MLEADERVER
1070
     2
  0
MLINESTYLE
  5
18
102
{ACAD_REACTORS
330
17
102
}
330
17
100
AcDbMlineStyle
  2
STANDARD
 70
     0
  3

 62
   256
 51
90.0
 52
90.0
 71
     2
 49
0.5
 62
   256
  6
BYLAYER
 49
-0.5
 62
   256
  6
BYLAYER
  0
ACDBPLACEHOLDER
  5
F
102
{ACAD_REACTORS
330
E
102
}
330
E
  0
SCALE
  5
10D
102
{ACAD_REACTORS
330
10C
102
}
330
10C
100
AcDbScale
 70
     0
300
1:1
140
1.0
141
1.0
290
     1
  0
SCALE
  5
188
102
{ACAD_REACTORS
330
10C
102
}
330
10C
100
AcDbScale
 70
     0
300
1:2
140
1.0
141
2.0
290
     0
  0
SCALE
  5
189
102
{ACAD_REACTORS
330
10C
102
}
330
10C
100
AcDbScale
 70
     0
300
1:4
140
1.0
141
4.0
290
     0
  0
SCALE
  5
18A
102
{ACAD_REACTORS
330
10C
102
}
330
10C
100
AcDbScale
 70
     0
300
1:5
140
1.0
141
5.0
290
     0
  0
SCALE
  5
18B
102
{ACAD_REACTORS
330
10C
102
}
330
10C
100
AcDbScale
 70
     0
300
1:8
140
1.0
141
8.0
290
     0
  0
SCALE
  5
18C
102
{ACAD_REACTORS
330
10C
102
}
330
10C
100
AcDbScale
 70
     0
300
1:10
140
1.0
141
10.0
290
     0
  0
SCALE
  5
18D
102
{ACAD_REACTORS
330
10C
102
}
330
10C
100
AcDbScale
 70
     0
300
1:16
140
1.0
141
16.0
290
     0
  0
SCALE
  5
18E
102
{ACAD_REACTORS
330
10C
102
}
330
10C
100
AcDbScale
 70
     0
300
1:20
140
1.0
141
20.0
290
     0
  0
SCALE
  5
18F
102
{ACAD_REACTORS
330
10C
102
}
330
10C
100
AcDbScale
 70
     0
300
1:30
140
1.0
141
30.0
290
     0
  0
SCALE
  5
190
102
{ACAD_REACTORS
330
10C
102
}
330
10C
100
AcDbScale
 70
     0
300
1:40
140
1.0
141
40.0
290
     0
  0
SCALE
  5
191
102
{ACAD_REACTORS
330
10C
102
}
330
10C
100
AcDbScale
 70
     0
300
1:50
140
1.0
141
50.0
290
     0
  0
SCALE
  5
192
102
{ACAD_REACTORS
330
10C
102
}
330
10C
100
AcDbScale
 70
     0
300
1:100
140
1.0
141
100.0
290
     0
  0
SCALE
  5
193
102
{ACAD_REACTORS
330
10C
102
}
330
10C
100
AcDbScale
 70
     0
300
2:1
140
2.0
141
1.0
290
     0
  0
SCALE
  5
194
102
{ACAD_REACTORS
330
10C
102
}
330
10C
100
AcDbScale
 70
     0
300
4:1
140
4.0
141
1.0
290
     0
  0
SCALE
  5
195
102
{ACAD_REACTORS
330
10C
102
}
330
10C
100
AcDbScale
 70
     0
300
8:1
140
8.0
141
1.0
290
     0
  0
SCALE
  5
196
102
{ACAD_REACTORS
330
10C
102
}
330
10C
100
AcDbScale
 70
     0
300
10:1
140
10.0
141
1.0
290
     0
  0
SCALE
  5
197
102
{ACAD_REACTORS
330
10C
102
}
330
10C
100
AcDbScale
 70
     0
300
100:1
140
100.0
141
1.0
290
     0
  0
SCALE
  5
198
102
{ACAD_REACTORS
330
10C
102
}
330
10C
100
AcDbScale
 70
     0
300
1/128" = 1'-0"
140
0.0078125
141
12.0
290
     0
  0
SCALE
  5
199
102
{ACAD_REACTORS
330
10C
102
}
330
10C
100
AcDbScale
 70
     0
300
1/64" = 1'-0"
140
0.015625
141
12.0
290
     0
  0
SCALE
  5
19A
102
{ACAD_REACTORS
330
10C
102
}
330
10C
100
AcDbScale
 70
     0
300
1/32" = 1'-0"
140
0.03125
141
12.0
290
     0
  0
SCALE
  5
19B
102
{ACAD_REACTORS
330
10C
102
}
330
10C
100
AcDbScale
 70
     0
300
1/16" = 1'-0"
140
0.0625
141
12.0
290
     0
  0
SCALE
  5
19C
102
{ACAD_REACTORS
330
10C
102
}
330
10C
100
AcDbScale
 70
     0
300
3/32" = 1'-0"
140
0.09375
141
12.0
290
     0
  0
SCALE
  5
19D
102
{ACAD_REACTORS
330
10C
102
}
330
10C
100
AcDbScale
 70
     0
300
1/8" = 1'-0"
140
0.125
141
12.0
290
     0
  0
SCALE
  5
19E
102
{ACAD_REACTORS
330
10C
102
}
330
10C
100
AcDbScale
 70
     0
300
3/16" = 1'-0"
140
0.1875
141
12.0
290
     0
  0
SCALE
  5
19F
102
{ACAD_REACTORS
330
10C
102
}
330
10C
100
AcDbScale
 70
     0
300
1/4" = 1'-0"
140
0.25
141
12.0
290
     0
  0
SCALE
  5
1A0
102
{ACAD_REACTORS
330
10C
102
}
330
10C
100
AcDbScale
 70
     0
300
3/8" = 1'-0"
140
0.375
141
12.0
290
     0
  0
SCALE
  5
1A1
102
{ACAD_REACTORS
330
10C
102
}
330
10C
100
AcDbScale
 70
     0
300
1/2" = 1'-0"
140
0.5
141
12.0
290
     0
  0
SCALE
  5
1A2
102
{ACAD_REACTORS
330
10C
102
}
330
10C
100
AcDbScale
 70
     0
300
3/4" = 1'-0"
140
0.75
141
12.0
290
     0
  0
SCALE
  5
1A3
102
{ACAD_REACTORS
330
10C
102
}
330
10C
100
AcDbScale
 70
     0
300
1" = 1'-0"
140
1.0
141
12.0
290
     0
  0
SCALE
  5
1A4
102
{ACAD_REACTORS
330
10C
102
}
330
10C
100
AcDbScale
 70
     0
300
1-1/2" = 1'-0"
140
1.5
141
12.0
290
     0
  0
SCALE
  5
1A5
102
{ACAD_REACTORS
330
10C
102
}
330
10C
100
AcDbScale
 70
     0
300
3" = 1'-0"
140
3.0
141
12.0
290
     0
  0
SCALE
  5
1A6
102
{ACAD_REACTORS
330
10C
102
}
330
10C
100
AcDbScale
 70
     0
300
6" = 1'-0"
140
6.0
141
12.0
290
     0
  0
SCALE
  5
1A7
102
{ACAD_REACTORS
330
10C
102
}
330
10C
100
AcDbScale
 70
     0
300
1'-0" = 1'-0"
140
12.0
141
12.0
290
     0
  0
TABLESTYLE
  5
7F
102
{ACAD_XDICTIONARY
360
162
102
}
102
{ACAD_REACTORS
330
7E
102
}
330
7E
100
AcDbTableStyle
  3
Standard
 70
     0
 71
     0
 40
1.5
 41
1.5
280
     0
281
     0
  7
Standard
140
4.5
170
     2
 62
     0
 63
     7
283
     0
274
    -2
284
     1
 64
     0
275
    -2
285
     1
 65
     0
276
    -2
286
     1
 66
     0
277
    -2
287
     1
 67
     0
278
    -2
288
     1
 68
     0
279
    -2
289
     1
 69
     0
  7
Standard
140
6.0
170
     5
 62
     0
 63
     7
283
     0
274
    -2
284
     1
 64
     0
275
    -2
285
     1
 65
     0
276
    -2
286
     1
 66
     0
277
    -2
287
     1
 67
     0
278
    -2
288
     1
 68
     0
279
    -2
289
     1
 69
     0
  7
Standard
140
4.5
170
     5
 62
     0
 63
     7
283
     0
274
    -2
284
     1
 64
     0
275
    -2
285
     1
 65
     0
276
    -2
286
     1
 66
     0
277
    -2
287
     1
 67
     0
278
    -2
288
     1
 68
     0
279
    -2
289
     1
 69
     0
  0
VISUALSTYLE
  5
F5
102
{ACAD_REACTORS
330
EF
102
}
330
EF
100
AcDbVisualStyle
  2
2dWireframe
 70
     4
 71
     0
 72
     2
 73
     1
 90
        0
 40
-0.6
 41
-30.0
 62
     5
 63
     7
 74
     1
 91
        4
 64
     7
 65
   257
 75
     1
175
     1
 42
1.0
 92
        0
 66
   257
 43
1.0
 76
     1
 77
     6
 78
     2
 67
     7
 79
     5
170
     0
171
     0
290
     0
174
     0
 93
        1
 44
0.0
173
     0
291
     0
 45
0.0
1001
ACAD
1000
AcDbSavedByObjectVersion
1070
     0
  0
VISUALSTYLE
  5
F7
102
{ACAD_REACTORS
330
EF
102
}
330
EF
100
AcDbVisualStyle
  2
3D Hidden
 70
     6
 71
     1
 72
     2
 73
     2
 90
        0
 40
-0.6
 41
-30.0
 62
     5
 63
     7
 74
     2
 91
        2
 64
     7
 65
   257
 75
     2
175
     1
 42
40.0
 92
        0
 66
   257
 43
1.0
 76
     1
 77
     6
 78
     2
 67
     7
 79
     3
170
     0
171
     0
290
     0
174
     0
 93
        1
 44
0.0
173
     0
291
     0
 45
0.0
1001
ACAD
1000
AcDbSavedByObjectVersion
1070
     0
  0
VISUALSTYLE
  5
F6
102
{ACAD_REACTORS
330
EF
102
}
330
EF
100
AcDbVisualStyle
  2
3dWireframe
 70
     5
 71
     0
 72
     2
 73
     1
 90
        0
 40
-0.6
 41
-30.0
 62
     5
 63
     7
 74
     1
 91
        4
 64
     7
 65
   257
 75
     1
175
     1
 42
1.0
 92
        0
 66
   257
 43
1.0
 76
     1
 77
     6
 78
     2
 67
     7
 79
     5
170
     0
171
     0
290
     0
174
     0
 93
        1
 44
0.0
173
     0
291
     0
 45
0.0
1001
ACAD
1000
AcDbSavedByObjectVersion
1070
     0
  0
VISUALSTYLE
  5
F4
102
{ACAD_REACTORS
330
EF
102
}
330
EF
100
AcDbVisualStyle
  2
Basic
 70
     7
 71
     1
 72
     0
 73
     1
 90
        0
 40
-0.6
 41
-30.0
 62
     5
 63
     7
 74
     0
 91
        4
 64
     7
 65
   257
 75
     1
175
     1
 42
1.0
 92
        8
 66
     7
 43
1.0
 76
     1
 77
     6
 78
     2
 67
     7
 79
     5
170
     0
171
     0
290
     0
174
     0
 93
        1
 44
0.0
173
     0
291
     1
 45
0.0
1001
ACAD
1000
AcDbSavedByObjectVersion
1070
     0
  0
VISUALSTYLE
  5
FB
102
{ACAD_REACTORS
330
EF
102
}
330
EF
100
AcDbVisualStyle
  2
Brighten
 70
    12
 71
     2
 72
     2
 73
     1
 90
        0
 40
-0.6
 41
-30.0
 62
     5
 63
     7
 74
     1
 91
        4
 64
     7
 65
   257
 75
     1
175
     1
 42
1.0
 92
        8
 66
     7
 43
1.0
 76
     1
 77
     6
 78
     2
 67
     7
 79
     5
170
     0
171
     0
290
     0
174
     0
 93
        1
 44
50.0
173
     0
291
     1
 45
0.0
1001
ACAD
1000
AcDbSavedByObjectVersion
1070
     0
  0
VISUALSTYLE
  5
FF
102
{ACAD_REACTORS
330
EF
102
}
330
EF
100
AcDbVisualStyle
  2
ColorChange
 70
    16
 71
     2
 72
     2
 73
     3
 90
        0
 40
-0.6
 41
-30.0
 62
     5
 63
     8
 74
     1
 91
        4
 64
     7
 65
   257
 75
     1
175
     1
 42
1.0
 92
        8
 66
     8
 43
1.0
 76
     1
 77
     6
 78
     2
 67
     7
 79
     5
170
     0
171
     0
290
     0
174
     0
 93
        1
 44
0.0
173
     0
291
     1
 45
0.0
1001
ACAD
1000
AcDbSavedByObjectVersion
1070
     0
  0
VISUALSTYLE
  5
F8
102
{ACAD_REACTORS
330
EF
102
}
330
EF
100
AcDbVisualStyle
  2
Conceptual
 70
     9
 71
     3
 72
     2
 73
     1
 90
        0
 40
-0.6
 41
-30.0
 62
     5
 63
     7
 74
     2
 91
        2
 64
     7
 65
   257
 75
     1
175
     1
 42
40.0
 92
        8
 66
     7
 43
1.0
 76
     1
 77
     6
 78
     2
 67
     7
 79
     3
170
     0
171
     0
290
     0
174
     0
 93
        1
 44
0.0
173
     0
291
     0
 45
0.0
1001
ACAD
1000
AcDbSavedByObjectVersion
1070
     0
  0
VISUALSTYLE
  5
FA
102
{ACAD_REACTORS
330
EF
102
}
330
EF
100
AcDbVisualStyle
  2
Dim
 70
    11
 71
     2
 72
     2
 73
     1
 90
        0
 40
-0.6
 41
-30.0
 62
     5
 63
     7
 74
     1
 91
        4
 64
     7
 65
   257
 75
     1
175
     1
 42
1.0
 92
        8
 66
     7
 43
1.0
 76
     1
 77
     6
 78
     2
 67
     7
 79
     5
170
     0
171
     0
290
     0
174
     0
 93
        1
 44
-50.0
173
     0
291
     1
 45
0.0
1001
ACAD
1000
AcDbSavedByObjectVersion
1070
     0
  0
VISUALSTYLE
  5
FE
102
{ACAD_REACTORS
330
EF
102
}
330
EF
100
AcDbVisualStyle
  2
Facepattern
 70
    15
 71
     2
 72
     2
 73
     1
 90
        0
 40
-0.6
 41
-30.0
 62
     5
 63
     7
 74
     1
 91
        4
 64
     7
 65
   257
 75
     1
175
     1
 42
1.0
 92
        8
 66
     7
 43
1.0
 76
     1
 77
     6
 78
     2
 67
     7
 79
     5
170
     0
171
     0
290
     0
174
     0
 93
        1
 44
0.0
173
     0
291
     1
 45
0.0
1001
ACAD
1000
AcDbSavedByObjectVersion
1070
     0
  0
VISUALSTYLE
  5
F0
102
{ACAD_REACTORS
330
EF
102
}
330
EF
100
AcDbVisualStyle
  2
Flat
 70
     0
 71
     2
 72
     1
 73
     1
 90
        2
 40
-0.6
 41
30.0
 62
     5
 63
     7
 74
     0
 91
        4
 64
     7
 65
   257
 75
     1
175
     1
 42
1.0
 92
        8
 66
     7
 43
1.0
 76
     1
 77
     6
 78
     2
 67
     7
 79
     5
170
     0
171
     0
290
     0
174
     0
 93
        1
 44
0.0
173
     0
291
     1
 45
0.0
1001
ACAD
1000
AcDbSavedByObjectVersion
1070
     0
  0
VISUALSTYLE
  5
F1
102
{ACAD_REACTORS
330
EF
102
}
330
EF
100
AcDbVisualStyle
  2
FlatWithEdges
 70
     1
 71
     2
 72
     1
 73
     1
 90
        2
 40
-0.6
 41
30.0
 62
     5
 63
     7
 74
     1
 91
        4
 64
     7
 65
   257
 75
     1
175
     1
 42
1.0
 92
        0
 66
   257
 43
1.0
 76
     1
 77
     6
 78
     2
 67
     7
 79
     5
170
     0
171
     0
290
     0
174
     0
 93
        1
 44
0.0
173
     0
291
     1
 45
0.0
1001
ACAD
1000
AcDbSavedByObjectVersion
1070
     0
  0
VISUALSTYLE
  5
F2
102
{ACAD_REACTORS
330
EF
102
}
330
EF
100
AcDbVisualStyle
  2
Gouraud
 70
     2
 71
     2
 72
     2
 73
     1
 90
        2
 40
-0.6
 41
30.0
 62
     5
 63
     7
 74
     0
 91
        4
 64
     7
 65
   257
 75
     1
175
     1
 42
1.0
 92
        0
 66
     7
 43
1.0
 76
     1
 77
     6
 78
     2
 67
     7
 79
     5
170
     0
171
     0
290
     0
174
     0
 93
        1
 44
0.0
173
     0
291
     1
 45
0.0
1001
ACAD
1000
AcDbSavedByObjectVersion
1070
     0
  0
VISUALSTYLE
  5
F3
102
{ACAD_REACTORS
330
EF
102
}
330
EF
100
AcDbVisualStyle
  2
GouraudWithEdges
 70
     3
 71
     2
 72
     2
 73
     1
 90
        2
 40
-0.6
 41
30.0
 62
     5
 63
     7
 74
     1
 91
        4
 64
     7
 65
   257
 75
     1
175
     1
 42
1.0
 92
        0
 66
   257
 43
1.0
 76
     1
 77
     6
 78
     2
 67
     7
 79
     5
170
     0
171
     0
290
     0
174
     0
 93
        1
 44
0.0
173
     0
291
     1
 45
0.0
1001
ACAD
1000
AcDbSavedByObjectVersion
1070
     0
  0
VISUALSTYLE
  5
FD
102
{ACAD_REACTORS
330
EF
102
}
330
EF
100
AcDbVisualStyle
  2
Linepattern
 70
    14
 71
     2
 72
     2
 73
     1
 90
        0
 40
-0.6
 41
-30.0
 62
     5
 63
     7
 74
     1
 91
        4
 64
     7
 65
   257
 75
     7
175
     7
 42
1.0
 92
        8
 66
     7
 43
1.0
 76
     1
 77
     6
 78
     2
 67
     7
 79
     5
170
     0
171
     0
290
     0
174
     0
 93
        1
 44
0.0
173
     0
291
     1
 45
0.0
1001
ACAD
1000
AcDbSavedByObjectVersion
1070
     0
  0
VISUALSTYLE
  5
F9
102
{ACAD_REACTORS
330
EF
102
}
330
EF
100
AcDbVisualStyle
  2
Realistic
 70
     8
 71
     2
 72
     2
 73
     1
 90
        0
 40
-0.6
 41
-30.0
 62
     5
 63
     7
 74
     1
 91
        0
 64
     7
 65
   257
 75
     1
175
     1
 42
1.0
 92
        8
 66
     8
 43
1.0
 76
     1
 77
     6
 78
     2
 67
     7
 79
     5
170
     0
171
     0
290
     0
174
     0
 93
       13
 44
0.0
173
     0
291
     0
 45
0.0
1001
ACAD
1000
AcDbSavedByObjectVersion
1070
     0
  0
VISUALSTYLE
  5
FC
102
{ACAD_REACTORS
330
EF
102
}
330
EF
100
AcDbVisualStyle
  2
Thicken
 70
    13
 71
     2
 72
     2
 73
     1
 90
        0
 40
-0.6
 41
-30.0
 62
     5
 63
     7
 74
     1
 91
        4
 64
     7
 65
   257
 75
     1
175
     1
 42
1.0
 92
       12
 66
     7
 43
1.0
 76
     1
 77
     6
 78
     2
 67
     7
 79
     5
170
     0
171
     0
290
     0
174
     0
 93
        1
 44
0.0
173
     0
291
     1
 45
0.0
1001
ACAD
1000
AcDbSavedByObjectVersion
1070
     0
  0
DICTIONARYVAR
  5
146
102
{ACAD_REACTORS
330
5E
102
}
330
5E
100
DictionaryVariables
280
     0
  1
1:1
  0
DICTIONARYVAR
  5
145
102
{ACAD_REACTORS
330
5E
102
}
330
5E
100
DictionaryVariables
280
     0
  1
STANDARD
  0
DICTIONARYVAR
  5
84
102
{ACAD_REACTORS
330
5E
102
}
330
5E
100
DictionaryVariables
280
     0
  1
STANDARD
  0
DICTIONARYVAR
  5
5F
102
{ACAD_REACTORS
330
5E
102
}
330
5E
100
DictionaryVariables
280
     0
  1
2
  0
DICTIONARYVAR
  5
63
102
{ACAD_REACTORS
330
5E
102
}
330
5E
100
DictionaryVariables
280
     0
  1
1
  0
DICTIONARYVAR
  5
713
102
{ACAD_REACTORS
330
5E
102
}
330
5E
100
DictionaryVariables
280
     0
  1
0
  0
DICTIONARYVAR
  5
711
102
{ACAD_REACTORS
330
5E
102
}
330
5E
100
DictionaryVariables
280
     0
  1
2
  0
DICTIONARYVAR
  5
710
102
{ACAD_REACTORS
330
5E
102
}
330
5E
100
DictionaryVariables
280
     0
  1
1
  0
DICTIONARYVAR
  5
715
102
{ACAD_REACTORS
330
5E
102
}
330
5E
100
DictionaryVariables
280
     0
  1
80.000000
  0
DICTIONARYVAR
  5
714
102
{ACAD_REACTORS
330
5E
102
}
330
5E
100
DictionaryVariables
280
     0
  1
5.000000
  0
DICTIONARYVAR
  5
712
102
{ACAD_REACTORS
330
5E
102
}
330
5E
100
DictionaryVariables
280
     0
  1
127
  0
DICTIONARY
  5
71B
330
D3
100
AcDbDictionary
280
     1
281
     1
  3
ACAD_XREC_ROUNDTRIP
360
71C
  0
DICTIONARY
  5
71D
330
D7
100
AcDbDictionary
280
     1
281
     1
  3
ACAD_XREC_ROUNDTRIP
360
71E
  0
DICTIONARY
  5
718
330
22
100
AcDbDictionary
280
     1
281
     1
  3
ACAD_XREC_ROUNDTRIP
360
719
  0
DICTIONARY
  5
721
330
ED
100
AcDbDictionary
280
     1
281
     1
  3
ACAD_XREC_ROUNDTRIP
360
722
  0
DICTIONARY
  5
71F
330
EC
100
AcDbDictionary
280
     1
281
     1
  3
ACAD_XREC_ROUNDTRIP
360
720
  0
DICTIONARY
  5
173
330
EE
100
AcDbDictionary
280
     1
281
     1
  3
ACAD_XREC_ROUNDTRIP
360
723
  3
BUMPTILE
360
175
  3
DIFFUSETILE
360
174
  3
OPACITYTILE
360
176
  3
REFLECTIONTILE
360
177
  0
DICTIONARY
  5
162
330
7F
100
AcDbDictionary
280
     1
281
     1
  3
ACAD_ROUNDTRIP_2008_TABLESTYLE_CELLSTYLEMAP
360
716
  3
ACAD_XREC_ROUNDTRIP
360
71A
  0
XRECORD
  5
71C
102
{ACAD_REACTORS
330
71B
102
}
330
71B
100
AcDbXrecord
280
     1
102
SHADEPLOT
 70
     0
102
SHADEPLOTRESLEVEL
 70
     2
102
SHADEPLOTCUSTOMDPI
 70
   300
  0
XRECORD
  5
71E
102
{ACAD_REACTORS
330
71D
102
}
330
71D
100
AcDbXrecord
280
     1
102
SHADEPLOT
 70
     0
102
SHADEPLOTRESLEVEL
 70
     2
102
SHADEPLOTCUSTOMDPI
 70
   300
  0
XRECORD
  5
719
102
{ACAD_REACTORS
330
718
102
}
330
718
100
AcDbXrecord
280
     1
102
SHADEPLOT
 70
     0
102
SHADEPLOTRESLEVEL
 70
     2
102
SHADEPLOTCUSTOMDPI
 70
   300
  0
XRECORD
  5
722
102
{ACAD_REACTORS
330
721
102
}
330
721
100
AcDbXrecord
280
     1
102
MATERIAL
148
0.0
149
0.0
149
0.0
 93
        0
 94
       63
282
     0
 72
     1
 77
     1
171
     1
175
     1
179
     1
273
     0
  0
XRECORD
  5
720
102
{ACAD_REACTORS
330
71F
102
}
330
71F
100
AcDbXrecord
280
     1
102
MATERIAL
148
0.0
149
0.0
149
0.0
 93
        0
 94
       63
282
     0
 72
     1
 77
     1
171
     1
175
     1
179
     1
273
     0
  0
XRECORD
  5
723
102
{ACAD_REACTORS
330
173
102
}
330
173
100
AcDbXrecord
280
     1
102
MATERIAL
148
0.0
149
0.0
149
0.0
 93
        0
 94
       63
282
     0
 72
     1
 77
     1
171
     1
175
     1
179
     1
273
     0
  0
XRECORD
  5
175
102
{ACAD_REACTORS
330
173
102
}
330
173
100
AcDbXrecord
280
     1
270
     1
271
     1
  0
XRECORD
  5
174
102
{ACAD_REACTORS
330
173
102
}
330
173
100
AcDbXrecord
280
     1
270
     1
271
     1
  0
XRECORD
  5
176
102
{ACAD_REACTORS
330
173
102
}
330
173
100
AcDbXrecord
280
     1
270
     1
271
     1
  0
XRECORD
  5
177
102
{ACAD_REACTORS
330
173
102
}
330
173
100
AcDbXrecord
280
     1
270
     1
271
     1
  0
CELLSTYLEMAP
  5
716
102
{ACAD_REACTORS
330
162
102
}
330
162
100
AcDbCellStyleMap
 90
        3
300
CELLSTYLE
  1
TABLEFORMAT_BEGIN
 90
        5
170
     1
 91
        0
 92
    32768
 62
   257
 93
        1
300
CONTENTFORMAT
  1
CONTENTFORMAT_BEGIN
 90
        0
 91
        0
 92
      512
 93
        0
300

 40
0.0
140
1.0
 94
        5
 62
     0
340
11
144
6.0
309
CONTENTFORMAT_END
171
     1
301
MARGIN
  1
CELLMARGIN_BEGIN
 40
1.5
 40
1.5
 40
1.5
 40
1.5
 40
4.5
 40
4.5
309
CELLMARGIN_END
 94
        6
 95
        1
302
GRIDFORMAT
  1
GRIDFORMAT_BEGIN
 90
        0
 91
        1
 62
     0
 92
       -2
340
14
 93
        0
 40
1.125
309
GRIDFORMAT_END
 95
        2
302
GRIDFORMAT
  1
GRIDFORMAT_BEGIN
 90
        0
 91
        1
 62
     0
 92
       -2
340
14
 93
        0
 40
1.125
309
GRIDFORMAT_END
 95
        4
302
GRIDFORMAT
  1
GRIDFORMAT_BEGIN
 90
        0
 91
        1
 62
     0
 92
       -2
340
14
 93
        0
 40
1.125
309
GRIDFORMAT_END
 95
        8
302
GRIDFORMAT
  1
GRIDFORMAT_BEGIN
 90
        0
 91
        1
 62
     0
 92
       -2
340
14
 93
        0
 40
1.125
309
GRIDFORMAT_END
 95
       16
302
GRIDFORMAT
  1
GRIDFORMAT_BEGIN
 90
        0
 91
        1
 62
     0
 92
       -2
340
14
 93
        0
 40
1.125
309
GRIDFORMAT_END
 95
       32
302
GRIDFORMAT
  1
GRIDFORMAT_BEGIN
 90
        0
 91
        1
 62
     0
 92
       -2
340
14
 93
        0
 40
1.125
309
GRIDFORMAT_END
309
TABLEFORMAT_END
  1
CELLSTYLE_BEGIN
 90
        1
 91
        1
300
_TITLE
309
CELLSTYLE_END
300
CELLSTYLE
  1
TABLEFORMAT_BEGIN
 90
        5
170
     1
 91
        0
 92
        0
 62
   257
 93
        1
300
CONTENTFORMAT
  1
CONTENTFORMAT_BEGIN
 90
        0
 91
        0
 92
      512
 93
        0
300

 40
0.0
140
1.0
 94
        5
 62
     0
340
11
144
4.5
309
CONTENTFORMAT_END
171
     1
301
MARGIN
  1
CELLMARGIN_BEGIN
 40
1.5
 40
1.5
 40
1.5
 40
1.5
 40
4.5
 40
4.5
309
CELLMARGIN_END
 94
        6
 95
        1
302
GRIDFORMAT
  1
GRIDFORMAT_BEGIN
 90
        0
 91
        1
 62
     0
 92
       -2
340
14
 93
        0
 40
1.125
309
GRIDFORMAT_END
 95
        2
302
GRIDFORMAT
  1
GRIDFORMAT_BEGIN
 90
        0
 91
        1
 62
     0
 92
       -2
340
14
 93
        0
 40
1.125
309
GRIDFORMAT_END
 95
        4
302
GRIDFORMAT
  1
GRIDFORMAT_BEGIN
 90
        0
 91
        1
 62
     0
 92
       -2
340
14
 93
        0
 40
1.125
309
GRIDFORMAT_END
 95
        8
302
GRIDFORMAT
  1
GRIDFORMAT_BEGIN
 90
        0
 91
        1
 62
     0
 92
       -2
340
14
 93
        0
 40
1.125
309
GRIDFORMAT_END
 95
       16
302
GRIDFORMAT
  1
GRIDFORMAT_BEGIN
 90
        0
 91
        1
 62
     0
 92
       -2
340
14
 93
        0
 40
1.125
309
GRIDFORMAT_END
 95
       32
302
GRIDFORMAT
  1
GRIDFORMAT_BEGIN
 90
        0
 91
        1
 62
     0
 92
       -2
340
14
 93
        0
 40
1.125
309
GRIDFORMAT_END
309
TABLEFORMAT_END
  1
CELLSTYLE_BEGIN
 90
        2
 91
        1
300
_HEADER
309
CELLSTYLE_END
300
CELLSTYLE
  1
TABLEFORMAT_BEGIN
 90
        5
170
     1
 91
        0
 92
        0
 62
   257
 93
        1
300
CONTENTFORMAT
  1
CONTENTFORMAT_BEGIN
 90
        0
 91
        0
 92
      512
 93
        0
300

 40
0.0
140
1.0
 94
        2
 62
     0
340
11
144
4.5
309
CONTENTFORMAT_END
171
     1
301
MARGIN
  1
CELLMARGIN_BEGIN
 40
1.5
 40
1.5
 40
1.5
 40
1.5
 40
4.5
 40
4.5
309
CELLMARGIN_END
 94
        6
 95
        1
302
GRIDFORMAT
  1
GRIDFORMAT_BEGIN
 90
        0
 91
        1
 62
     0
 92
       -2
340
14
 93
        0
 40
1.125
309
GRIDFORMAT_END
 95
        2
302
GRIDFORMAT
  1
GRIDFORMAT_BEGIN
 90
        0
 91
        1
 62
     0
 92
       -2
340
14
 93
        0
 40
1.125
309
GRIDFORMAT_END
 95
        4
302
GRIDFORMAT
  1
GRIDFORMAT_BEGIN
 90
        0
 91
        1
 62
     0
 92
       -2
340
14
 93
        0
 40
1.125
309
GRIDFORMAT_END
 95
        8
302
GRIDFORMAT
  1
GRIDFORMAT_BEGIN
 90
        0
 91
        1
 62
     0
 92
       -2
340
14
 93
        0
 40
1.125
309
GRIDFORMAT_END
 95
       16
302
GRIDFORMAT
  1
GRIDFORMAT_BEGIN
 90
        0
 91
        1
 62
     0
 92
       -2
340
14
 93
        0
 40
1.125
309
GRIDFORMAT_END
 95
       32
302
GRIDFORMAT
  1
GRIDFORMAT_BEGIN
 90
        0
 91
        1
 62
     0
 92
       -2
340
14
 93
        0
 40
1.125
309
GRIDFORMAT_END
309
TABLEFORMAT_END
  1
CELLSTYLE_BEGIN
 90
        3
 91
        2
300
_DATA
309
CELLSTYLE_END
  0
XRECORD
  5
71A
102
{ACAD_REACTORS
330
162
102
}
330
162
100
AcDbXrecord
280
     1
102
ACAD_ROUNDTRIP_PRE2007_TABLESTYLE
 90
      512
 91
        0
  1

 92
      512
 93
        0
  2

 94
      512
 95
        0
  3

  0
ENDSEC
  0
EOF
