  0
SECTION
  2
HEADER
  9
$ACADVER
  1
AC1015
  9
$ACADMAINTVER
 70
    20
  9
$DWGCODEPAGE
  3
ANSI_1254
  9
$INSBASE
 10
0.0
 20
0.0
 30
0.0
  9
$EXTMIN
 10
1326.512356149869
 20
1573.435804642046
 30
0.0
  9
$EXTMAX
 10
1558.267117688006
 20
1677.894934336204
 30
0.0
  9
$LIMMIN
 10
0.0
 20
0.0
  9
$LIMMAX
 10
420.0
 20
297.0
  9
$ORTHOMODE
 70
     1
  9
$REGENMODE
 70
     1
  9
$FILLMODE
 70
     1
  9
$QTEXTMODE
 70
     0
  9
$MIRRTEXT
 70
     0
  9
$LTSCALE
 40
1.0
  9
$ATTMODE
 70
     1
  9
$TEXTSIZE
 40
2.5
  9
$TRACEWID
 40
1.0
  9
$TEXTSTYLE
  7
Standard
  9
$CLAYER
  8
0
  9
$CELTYPE
  6
ByLayer
  9
$CECOLOR
 62
   256
  9
$CELTSCALE
 40
1.0
  9
$DISPSILH
 70
     0
  9
$DIMSCALE
 40
1.0
  9
$DIMASZ
 40
2.5
  9
$DIMEXO
 40
0.625
  9
$DIMDLI
 40
3.75
  9
$DIMRND
 40
0.0
  9
$DIMDLE
 40
0.0
  9
$DIMEXE
 40
1.25
  9
$DIMTP
 40
0.0
  9
$DIMTM
 40
0.0
  9
$DIMTXT
 40
2.5
  9
$DIMCEN
 40
2.5
  9
$DIMTSZ
 40
0.0
  9
$DIMTOL
 70
     0
  9
$DIMLIM
 70
     0
  9
$DIMTIH
 70
     0
  9
$DIMTOH
 70
     0
  9
$DIMSE1
 70
     0
  9
$DIMSE2
 70
     0
  9
$DIMTAD
 70
     1
  9
$DIMZIN
 70
     8
  9
$DIMBLK
  1

  9
$DIMASO
 70
     1
  9
$DIMSHO
 70
     1
  9
$DIMPOST
  1

  9
$DIMAPOST
  1

  9
$DIMALT
 70
     0
  9
$DIMALTD
 70
     3
  9
$DIMALTF
 40
0.03937007874016
  9
$DIMLFAC
 40
1.0
  9
$DIMTOFL
 70
     1
  9
$DIMTVP
 40
0.0
  9
$DIMTIX
 70
     0
  9
$DIMSOXD
 70
     0
  9
$DIMSAH
 70
     0
  9
$DIMBLK1
  1

  9
$DIMBLK2
  1

  9
$DIMSTYLE
  2
ISO-25
  9
$DIMCLRD
 70
     0
  9
$DIMCLRE
 70
     0
  9
$DIMCLRT
 70
     0
  9
$DIMTFAC
 40
1.0
  9
$DIMGAP
 40
0.625
  9
$DIMJUST
 70
     0
  9
$DIMSD1
 70
     0
  9
$DIMSD2
 70
     0
  9
$DIMTOLJ
 70
     0
  9
$DIMTZIN
 70
     8
  9
$DIMALTZ
 70
     0
  9
$DIMALTTZ
 70
     0
  9
$DIMUPT
 70
     0
  9
$DIMDEC
 70
     2
  9
$DIMTDEC
 70
     2
  9
$DIMALTU
 70
     2
  9
$DIMALTTD
 70
     3
  9
$DIMTXSTY
  7
Standard
  9
$DIMAUNIT
 70
     0
  9
$DIMADEC
 70
     0
  9
$DIMALTRND
 40
0.0
  9
$DIMAZIN
 70
     0
  9
$DIMDSEP
 70
    44
  9
$DIMATFIT
 70
     3
  9
$DIMFRAC
 70
     0
  9
$DIMLDRBLK
  1

  9
$DIMLUNIT
 70
     2
  9
$DIMLWD
 70
    -2
  9
$DIMLWE
 70
    -2
  9
$DIMTMOVE
 70
     0
  9
$LUNITS
 70
     2
  9
$LUPREC
 70
     4
  9
$SKETCHINC
 40
1.0
  9
$FILLETRAD
 40
0.0
  9
$AUNITS
 70
     0
  9
$AUPREC
 70
     0
  9
$MENU
  1
.
  9
$ELEVATION
 40
0.0
  9
$PELEVATION
 40
0.0
  9
$THICKNESS
 40
0.0
  9
$LIMCHECK
 70
     0
  9
$CHAMFERA
 40
0.0
  9
$CHAMFERB
 40
0.0
  9
$CHAMFERC
 40
0.0
  9
$CHAMFERD
 40
0.0
  9
$SKPOLY
 70
     0
  9
$TDCREATE
 40
2458488.683083808
  9
$TDUCREATE
 40
2458488.558083808
  9
$TDUPDATE
 40
2459082.589530382
  9
$TDUUPDATE
 40
2459082.464530382
  9
$TDINDWG
 40
0.0012438542
  9
$TDUSRTIMER
 40
0.0012438542
  9
$USRTIMER
 70
     1
  9
$ANGBASE
 50
0.0
  9
$ANGDIR
 70
     0
  9
$PDMODE
 70
     0
  9
$PDSIZE
 40
0.0
  9
$PLINEWID
 40
0.0
  9
$SPLFRAME
 70
     0
  9
$SPLINETYPE
 70
     6
  9
$SPLINESEGS
 70
     8
  9
$HANDSEED
  5
42E
  9
$SURFTAB1
 70
     6
  9
$SURFTAB2
 70
     6
  9
$SURFTYPE
 70
     6
  9
$SURFU
 70
     6
  9
$SURFV
 70
     6
  9
$UCSBASE
  2

  9
$UCSNAME
  2

  9
$UCSORG
 10
0.0
 20
0.0
 30
0.0
  9
$UCSXDIR
 10
1.0
 20
0.0
 30
0.0
  9
$UCSYDIR
 10
0.0
 20
1.0
 30
0.0
  9
$UCSORTHOREF
  2

  9
$UCSORTHOVIEW
 70
     0
  9
$UCSORGTOP
 10
0.0
 20
0.0
 30
0.0
  9
$UCSORGBOTTOM
 10
0.0
 20
0.0
 30
0.0
  9
$UCSORGLEFT
 10
0.0
 20
0.0
 30
0.0
  9
$UCSORGRIGHT
 10
0.0
 20
0.0
 30
0.0
  9
$UCSORGFRONT
 10
0.0
 20
0.0
 30
0.0
  9
$UCSORGBACK
 10
0.0
 20
0.0
 30
0.0
  9
$PUCSBASE
  2

  9
$PUCSNAME
  2

  9
$PUCSORG
 10
0.0
 20
0.0
 30
0.0
  9
$PUCSXDIR
 10
1.0
 20
0.0
 30
0.0
  9
$PUCSYDIR
 10
0.0
 20
1.0
 30
0.0
  9
$PUCSORTHOREF
  2

  9
$PUCSORTHOVIEW
 70
     0
  9
$PUCSORGTOP
 10
0.0
 20
0.0
 30
0.0
  9
$PUCSORGBOTTOM
 10
0.0
 20
0.0
 30
0.0
  9
$PUCSORGLEFT
 10
0.0
 20
0.0
 30
0.0
  9
$PUCSORGRIGHT
 10
0.0
 20
0.0
 30
0.0
  9
$PUCSORGFRONT
 10
0.0
 20
0.0
 30
0.0
  9
$PUCSORGBACK
 10
0.0
 20
0.0
 30
0.0
  9
$USERI1
 70
     0
  9
$USERI2
 70
     0
  9
$USERI3
 70
     0
  9
$USERI4
 70
     0
  9
$USERI5
 70
     0
  9
$USERR1
 40
0.0
  9
$USERR2
 40
0.0
  9
$USERR3
 40
0.0
  9
$USERR4
 40
0.0
  9
$USERR5
 40
0.0
  9
$WORLDVIEW
 70
     1
  9
$SHADEDGE
 70
     3
  9
$SHADEDIF
 70
    70
  9
$TILEMODE
 70
     1
  9
$MAXACTVP
 70
    64
  9
$PINSBASE
 10
0.0
 20
0.0
 30
0.0
  9
$PLIMCHECK
 70
     0
  9
$PEXTMIN
 10
0.0
 20
0.0
 30
0.0
  9
$PEXTMAX
 10
0.0
 20
0.0
 30
0.0
  9
$PLIMMIN
 10
0.0
 20
0.0
  9
$PLIMMAX
 10
12.0
 20
9.0
  9
$UNITMODE
 70
     0
  9
$VISRETAIN
 70
     1
  9
$PLINEGEN
 70
     0
  9
$PSLTSCALE
 70
     1
  9
$TREEDEPTH
 70
  3020
  9
$CMLSTYLE
  2
Standard
  9
$CMLJUST
 70
     0
  9
$CMLSCALE
 40
20.0
  9
$PROXYGRAPHICS
 70
     1
  9
$MEASUREMENT
 70
     1
  9
$CELWEIGHT
370
    -1
  9
$ENDCAPS
280
     0
  9
$JOINSTYLE
280
     0
  9
$LWDISPLAY
290
     0
  9
$INSUNITS
 70
     4
  9
$HYPERLINKBASE
  1

  9
$STYLESHEET
  1

  9
$XEDIT
290
     1
  9
$CEPSNTYPE
380
     0
  9
$PSTYLEMODE
290
     1
  9
$FINGERPRINTGUID
  2
{214149DD-9C3C-4F78-B934-139F44B87BD7}
  9
$VERSIONGUID
  2
{0FC34D69-FD10-4245-943C-FE9FA4861597}
  9
$EXTNAMES
290
     1
  9
$PSVPSCALE
 40
0.0
  9
$OLESTARTUP
290
     0
  0
ENDSEC
  0
SECTION
  2
CLASSES
  0
CLASS
  1
ACDBDICTIONARYWDFLT
  2
AcDbDictionaryWithDefault
  3
ObjectDBX Classes
 90
        0
280
     0
281
     0
  0
CLASS
  1
DICTIONARYVAR
  2
AcDbDictionaryVar
  3
ObjectDBX Classes
 90
        0
280
     0
281
     0
  0
CLASS
  1
TABLESTYLE
  2
AcDbTableStyle
  3
ObjectDBX Classes
 90
     4095
280
     0
281
     0
  0
CLASS
  1
MATERIAL
  2
AcDbMaterial
  3
ObjectDBX Classes
 90
     1153
280
     0
281
     0
  0
CLASS
  1
VISUALSTYLE
  2
AcDbVisualStyle
  3
ObjectDBX Classes
 90
     4095
280
     0
281
     0
  0
CLASS
  1
SCALE
  2
AcDbScale
  3
ObjectDBX Classes
 90
     1153
280
     0
281
     0
  0
CLASS
  1
MLEADERSTYLE
  2
AcDbMLeaderStyle
  3
ACDB_MLEADERSTYLE_CLASS
 90
     4095
280
     0
281
     0
  0
CLASS
  1
CELLSTYLEMAP
  2
AcDbCellStyleMap
  3
ObjectDBX Classes
 90
     1152
280
     0
281
     0
  0
CLASS
  1
ACAD_EVALUATION_GRAPH
  2
AcDbEvalGraph
  3
ObjectDBX Classes
 90
    33921
280
     0
281
     0
  0
CLASS
  1
ACAECUSTOBJ
  2
AcAeEditorObj
  3
AcAeEditorObj
 90
    33792
280
     0
281
     0
  0
CLASS
  1
SORTENTSTABLE
  2
AcDbSortentsTable
  3
ObjectDBX Classes
 90
        0
280
     0
281
     0
  0
CLASS
  1
ACDB_DYNAMICBLOCKPURGEPREVENTER_VERSION
  2
AcDbDynamicBlockPurgePreventer
  3
ObjectDBX Classes
 90
    33921
280
     0
281
     0
  0
CLASS
  1
ACDBPLACEHOLDER
  2
AcDbPlaceHolder
  3
ObjectDBX Classes
 90
        0
280
     0
281
     0
  0
CLASS
  1
LAYOUT
  2
AcDbLayout
  3
ObjectDBX Classes
 90
        0
280
     0
281
     0
  0
ENDSEC
  0
SECTION
  2
TABLES
  0
TABLE
  2
VPORT
  5
8
330
0
100
AcDbSymbolTable
 70
     1
  0
VPORT
  5
EA
330
8
100
AcDbSymbolTableRecord
100
AcDbViewportTableRecord
  2
*Active
 70
     0
 10
0.0
 20
0.0
 11
1.0
 21
1.0
 12
1501.014727600194
 22
1609.741393617073
 13
0.0
 23
0.0
 14
10.0
 24
10.0
 15
10.0
 25
10.0
 16
0.0
 26
0.0
 36
1.0
 17
0.0
 27
0.0
 37
0.0
 40
208.7505698348905
 41
1.903110047846889
 42
50.0
 43
0.0
 44
0.0
 50
0.0
 51
0.0
 71
     0
 72
  1000
 73
     1
 74
     3
 75
     0
 76
     0
 77
     0
 78
     0
281
     0
 65
     1
110
0.0
120
0.0
130
0.0
111
1.0
121
0.0
131
0.0
112
0.0
122
1.0
132
0.0
 79
     0
146
0.0
  0
ENDTAB
  0
TABLE
  2
LTYPE
  5
5
330
0
100
AcDbSymbolTable
 70
     1
  0
LTYPE
  5
14
330
5
100
AcDbSymbolTableRecord
100
AcDbLinetypeTableRecord
  2
ByBlock
 70
     0
  3

 72
    65
 73
     0
 40
0.0
  0
LTYPE
  5
15
330
5
100
AcDbSymbolTableRecord
100
AcDbLinetypeTableRecord
  2
ByLayer
 70
     0
  3

 72
    65
 73
     0
 40
0.0
  0
LTYPE
  5
16
330
5
100
AcDbSymbolTableRecord
100
AcDbLinetypeTableRecord
  2
Continuous
 70
     0
  3
Solid line
 72
    65
 73
     0
 40
0.0
  0
ENDTAB
  0
TABLE
  2
LAYER
  5
2
330
0
100
AcDbSymbolTable
 70
     1
  0
LAYER
  5
10
102
{ACAD_XDICTIONARY
360
13C
102
}
330
2
100
AcDbSymbolTableRecord
100
AcDbLayerTableRecord
  2
0
 70
     0
 62
     7
  6
Continuous
370
    -3
390
F
  0
ENDTAB
  0
TABLE
  2
STYLE
  5
3
330
0
100
AcDbSymbolTable
 70
     2
  0
STYLE
  5
11
330
3
100
AcDbSymbolTableRecord
100
AcDbTextStyleTableRecord
  2
Standard
 70
     0
 40
0.0
 41
1.0
 50
0.0
 71
     0
 42
2.5
  3
txt
  4

  0
STYLE
  5
132
330
3
100
AcDbSymbolTableRecord
100
AcDbTextStyleTableRecord
  2
Annotative
 70
     0
 40
0.0
 41
1.0
 50
0.0
 71
     0
 42
2.5
  3
txt.shx
  4

1001
AcadAnnotative
1000
AnnotativeData
1002
{
1070
     1
1070
     1
1002
}
  0
ENDTAB
  0
TABLE
  2
VIEW
  5
6
330
0
100
AcDbSymbolTable
 70
     0
  0
ENDTAB
  0
TABLE
  2
UCS
  5
7
330
0
100
AcDbSymbolTable
 70
     0
  0
ENDTAB
  0
TABLE
  2
APPID
  5
9
330
0
100
AcDbSymbolTable
 70
    11
  0
APPID
  5
12
330
9
100
AcDbSymbolTableRecord
100
AcDbRegAppTableRecord
  2
ACAD
 70
     0
  0
APPID
  5
9E
330
9
100
AcDbSymbolTableRecord
100
AcDbRegAppTableRecord
  2
ACAD_PSEXT
 70
     0
  0
APPID
  5
133
330
9
100
AcDbSymbolTableRecord
100
AcDbRegAppTableRecord
  2
AcadAnnoPO
 70
     0
  0
APPID
  5
134
330
9
100
AcDbSymbolTableRecord
100
AcDbRegAppTableRecord
  2
AcadAnnotative
 70
     0
  0
APPID
  5
135
330
9
100
AcDbSymbolTableRecord
100
AcDbRegAppTableRecord
  2
ACAD_DSTYLE_DIMJAG
 70
     0
  0
APPID
  5
136
330
9
100
AcDbSymbolTableRecord
100
AcDbRegAppTableRecord
  2
ACAD_DSTYLE_DIMTALN
 70
     0
  0
APPID
  5
165
330
9
100
AcDbSymbolTableRecord
100
AcDbRegAppTableRecord
  2
ACAD_MLEADERVER
 70
     0
  0
APPID
  5
405
330
9
100
AcDbSymbolTableRecord
100
AcDbRegAppTableRecord
  2
ACAUTHENVIRON
 70
     0
  0
APPID
  5
40E
330
9
100
AcDbSymbolTableRecord
100
AcDbRegAppTableRecord
  2
AcDbDynamicBlockTrueName
 70
     0
  0
APPID
  5
40F
330
9
100
AcDbSymbolTableRecord
100
AcDbRegAppTableRecord
  2
AcDbDynamicBlockGUID
 70
     0
  0
APPID
  5
411
330
9
100
AcDbSymbolTableRecord
100
AcDbRegAppTableRecord
  2
AcDbBlockRepETag
 70
     0
  0
ENDTAB
  0
TABLE
  2
DIMSTYLE
  5
A
330
0
100
AcDbSymbolTable
 70
     2
100
AcDbDimStyleTable
 71
     2
340
27
340
137
  0
DIMSTYLE
105
27
330
A
100
AcDbSymbolTableRecord
100
AcDbDimStyleTableRecord
  2
ISO-25
 70
     0
 41
2.5
 42
0.625
 43
3.75
 44
1.25
 73
     0
 74
     0
 77
     1
 78
     8
140
2.5
141
2.5
143
0.03937007874016
147
0.625
171
     3
172
     1
271
     2
272
     2
274
     3
278
    44
283
     0
284
     8
340
11
  0
DIMSTYLE
105
137
330
A
100
AcDbSymbolTableRecord
100
AcDbDimStyleTableRecord
  2
Annotative
 70
     0
 40
0.0
 41
2.5
 42
0.625
 43
3.75
 44
1.25
 73
     0
 74
     0
 77
     1
 78
     8
140
2.5
141
2.5
143
0.03937007874016
147
0.625
171
     3
172
     1
271
     2
272
     2
274
     3
278
    44
283
     0
284
     8
340
11
1001
AcadAnnotative
1000
AnnotativeData
1002
{
1070
     1
1070
     1
1002
}
1001
ACAD_DSTYLE_DIMJAG
1070
   388
1040
1.5
1001
ACAD_DSTYLE_DIMTALN
1070
   392
1070
     0
  0
ENDTAB
  0
TABLE
  2
BLOCK_RECORD
  5
1
330
0
100
AcDbSymbolTable
 70
     5
  0
BLOCK_RECORD
  5
1F
330
1
100
AcDbSymbolTableRecord
100
AcDbBlockTableRecord
  2
*Model_Space
340
22
  0
BLOCK_RECORD
  5
D2
330
1
100
AcDbSymbolTableRecord
100
AcDbBlockTableRecord
  2
*Paper_Space
340
D3
  0
BLOCK_RECORD
  5
D6
330
1
100
AcDbSymbolTableRecord
100
AcDbBlockTableRecord
  2
*Paper_Space0
340
D7
  0
BLOCK_RECORD
  5
30D
330
1
100
AcDbSymbolTableRecord
100
AcDbBlockTableRecord
  2
1
340
0
310
2800000020000000200000000100080000000000000400000000000000000000000000000000000000000000000080000080000000808000800000008000800080800000C0C0C000C0DCC000F0CAA6000020400000206000002080000020A0000020C0000020E00000400000004020000040400000406000004080000040A0
310
000040C0000040E00000600000006020000060400000606000006080000060A0000060C0000060E00000800000008020000080400000806000008080000080A0000080C0000080E00000A0000000A0200000A0400000A0600000A0800000A0A00000A0C00000A0E00000C0000000C0200000C0400000C0600000C0800000C0
310
A00000C0C00000C0E00000E0000000E0200000E0400000E0600000E0800000E0A00000E0C00000E0E00040000000400020004000400040006000400080004000A0004000C0004000E00040200000402020004020400040206000402080004020A0004020C0004020E000404000004040200040404000404060004040800040
310
40A0004040C0004040E00040600000406020004060400040606000406080004060A0004060C0004060E00040800000408020004080400040806000408080004080A0004080C0004080E00040A0000040A0200040A0400040A0600040A0800040A0A00040A0C00040A0E00040C0000040C0200040C0400040C0600040C08000
310
40C0A00040C0C00040C0E00040E0000040E0200040E0400040E0600040E0800040E0A00040E0C00040E0E00080000000800020008000400080006000800080008000A0008000C0008000E00080200000802020008020400080206000802080008020A0008020C0008020E00080400000804020008040400080406000804080
310
008040A0008040C0008040E00080600000806020008060400080606000806080008060A0008060C0008060E00080800000808020008080400080806000808080008080A0008080C0008080E00080A0000080A0200080A0400080A0600080A0800080A0A00080A0C00080A0E00080C0000080C0200080C0400080C0600080C0
310
800080C0A00080C0C00080C0E00080E0000080E0200080E0400080E0600080E0800080E0A00080E0C00080E0E000C0000000C0002000C0004000C0006000C0008000C000A000C000C000C000E000C0200000C0202000C0204000C0206000C0208000C020A000C020C000C020E000C0400000C0402000C0404000C0406000C0
310
408000C040A000C040C000C040E000C0600000C0602000C0604000C0606000C0608000C060A000C060C000C060E000C0800000C0802000C0804000C0806000C0808000C080A000C080C000C080E000C0A00000C0A02000C0A04000C0A06000C0A08000C0A0A000C0A0C000C0A0E000C0C00000C0C02000C0C04000C0C06000
310
C0C08000C0C0A000F0FBFF00A4A0A000808080000000FF0000FF000000FFFF00FF000000FF00FF00FFFF0000FFFFFF0000000000000000000000000000000000000000000000000000000000000000000000000000000000000000000000000000000000000000000000000000000000000000000000000000000000000000
310
00000000000000000000000000000000000000000000000000000000000000000000000000000000000000000000000000000000000000000000000000000000000000000000000000000000000000000000000000000000000000000000000000000000000000000000000000000000000000000000000000000000000000
310
000000000000000000000000000000000000000000000000000000000000000000000000000000000000000000000000000000FFFFFFFFFFFF000000000000000000000000000000000000FFFFFFFFFFFF0000FFFFFFFFFFFFFF00000000000000000000000000000000FFFFFFFFFFFFFF0000000000000000FF0000000000
310
0000000000000000000000FF0000000000000000000000000000FF00000000000000000000000000000000FF0000000000000000000000000000FF00000000000000000000000000000000FF0000000000000000000000000000FF000000000000000000000000000000FFFF0000000000000000000000000000FF00000000
310
0000000000000000000000FFFF0000000000000000000000000000FF000000000000000000000000000000FFFF0000000000000000000000000000FFFF00000000000000000000000000FFFF000000000000000000000000000000FFFF0000000000000000000000FFFF0000000000000000000000000000000000FFFF0000
310
000000000000FFFFFF00000000000000000000000000000000000000FFFF000000000000FFFFFF000000000000000000000000000000000000000000FFFF0000000000FFFF0000000000000000000000000000000000000000000000FFFF000000FFFF000000000000000000000000000000000000000000000000000000FF
310
FFFF0000000000000000000000000000000000000000000000000000000000000000000000000000000000000000000000000000000000000000000000000000000000000000000000000000000000000000000000000000000000000000000000000000000000000000000000000000000000000000000000000000000000
310
00000000000000000000000000000000000000000000000000000000000000000000000000000000000000000000000000000000000000000000000000000000000000000000000000000000000000000000000000000000000000000000000000000000000000000000000000000000000000000000000000000000000000
310
0000000000000000000000000000000000000000000000000000000000000000000000000000000000000000000000000000000000000000
102
{BLKREFS
331
330
102
}
1001
ACAD
1000
DesignCenter Data
1002
{
1070
     1
1070
     4
1002
}
  0
BLOCK_RECORD
  5
331
102
{ACAD_XDICTIONARY
360
406
102
}
330
1
100
AcDbSymbolTableRecord
100
AcDbBlockTableRecord
  2
2
340
0
310
2800000020000000200000000100080000000000000400000000000000000000000000000000000000000000000080000080000000808000800000008000800080800000C0C0C000C0DCC000F0CAA6000020400000206000002080000020A0000020C0000020E00000400000004020000040400000406000004080000040A0
310
000040C0000040E00000600000006020000060400000606000006080000060A0000060C0000060E00000800000008020000080400000806000008080000080A0000080C0000080E00000A0000000A0200000A0400000A0600000A0800000A0A00000A0C00000A0E00000C0000000C0200000C0400000C0600000C0800000C0
310
A00000C0C00000C0E00000E0000000E0200000E0400000E0600000E0800000E0A00000E0C00000E0E00040000000400020004000400040006000400080004000A0004000C0004000E00040200000402020004020400040206000402080004020A0004020C0004020E000404000004040200040404000404060004040800040
310
40A0004040C0004040E00040600000406020004060400040606000406080004060A0004060C0004060E00040800000408020004080400040806000408080004080A0004080C0004080E00040A0000040A0200040A0400040A0600040A0800040A0A00040A0C00040A0E00040C0000040C0200040C0400040C0600040C08000
310
40C0A00040C0C00040C0E00040E0000040E0200040E0400040E0600040E0800040E0A00040E0C00040E0E00080000000800020008000400080006000800080008000A0008000C0008000E00080200000802020008020400080206000802080008020A0008020C0008020E00080400000804020008040400080406000804080
310
008040A0008040C0008040E00080600000806020008060400080606000806080008060A0008060C0008060E00080800000808020008080400080806000808080008080A0008080C0008080E00080A0000080A0200080A0400080A0600080A0800080A0A00080A0C00080A0E00080C0000080C0200080C0400080C0600080C0
310
800080C0A00080C0C00080C0E00080E0000080E0200080E0400080E0600080E0800080E0A00080E0C00080E0E000C0000000C0002000C0004000C0006000C0008000C000A000C000C000C000E000C0200000C0202000C0204000C0206000C0208000C020A000C020C000C020E000C0400000C0402000C0404000C0406000C0
310
408000C040A000C040C000C040E000C0600000C0602000C0604000C0606000C0608000C060A000C060C000C060E000C0800000C0802000C0804000C0806000C0808000C080A000C080C000C080E000C0A00000C0A02000C0A04000C0A06000C0A08000C0A0A000C0A0C000C0A0E000C0C00000C0C02000C0C04000C0C06000
310
C0C08000C0C0A000F0FBFF00A4A0A000808080000000FF0000FF000000FFFF00FF000000FF00FF00FFFF0000FFFFFF0000000000000000000000000000000000000000000000000000000000000000000000000000000000000000000000000000000000000000000000000000000000000000000000000000000000000000
310
00000000000000000000000000000000000000000000000000000000000000000000000000000000000000000000000000000000000000000000000000000000000000000000000000000000000000000000000000000000000000000000000000000000000000000000000000000000000000000000000000000000000000
310
00000000000000000000000000000000000000000000000000000000000000000000000000000000000000000000000000000000000000000000000000000000000000000000000000000000000000000000000000000000000000000000000000000000000000000000000000000000000000000000000000000000000000
310
0000000000000000000000000000000000000000000000000000000000000000000000000000000000000000000000000000000000FFFFFFFFFFFFFFFFFFFFFFFFFFFFFFFFFFFFFFFFFFFFFFFFFFFFFFFF000000FF00000000FFFF0000FF000000000000000000000000FFFFFF00000000FF0000FF0000FFFFFFFF0000FF00
310
0000000000000000000000FFFFFF00FF0000FF0000FF0000FFFFFFFF0000FF00000000FFFFFF0000000000FFFFFF00FF0000FF0000FF0000FFFFFFFF0000FF00000000FFFFFF0000000000FFFFFF00FF0000FF0000FF0000FFFFFFFF0000FF000000000000000000000000FFFFFF00FF0000FF0000FF00000000FFFF0000FF
310
000000000000000000000000FFFFFF00000000FF000000FFFFFFFFFFFFFFFFFFFFFFFFFFFFFFFFFFFFFFFFFFFFFFFFFFFFFFFF00000000000000000000000000000000000000000000000000000000000000000000000000000000000000000000000000000000000000000000000000000000000000000000000000000000
310
00000000000000000000000000000000000000000000000000000000000000000000000000000000000000000000000000000000000000000000000000000000000000000000000000000000000000000000000000000000000000000000000000000000000000000000000000000000000000000000000000000000000000
310
00000000000000000000000000000000000000000000000000000000000000000000000000000000000000000000000000000000000000000000000000000000000000000000000000000000000000000000000000000000000000000000000000000000000000000000000000000000000000000000000000000000000000
310
0000000000000000000000000000000000000000000000000000000000000000000000000000000000000000000000000000000000000000
102
{BLKREFS
331
364
102
}
1001
AcDbDynamicBlockGUID
1000
{AD30B6AA-C51C-447F-B0E7-6EF6DC1F7D11}
1001
AcDbBlockRepETag
1070
     1
1071
       48
1001
ACAD
1000
DesignCenter Data
1002
{
1070
     1
1070
     4
1002
}
  0
BLOCK_RECORD
  5
365
330
1
100
AcDbSymbolTableRecord
100
AcDbBlockTableRecord
  2
3
340
0
310
2800000020000000200000000100080000000000000400000000000000000000000000000000000000000000000080000080000000808000800000008000800080800000C0C0C000C0DCC000F0CAA6000020400000206000002080000020A0000020C0000020E00000400000004020000040400000406000004080000040A0
310
000040C0000040E00000600000006020000060400000606000006080000060A0000060C0000060E00000800000008020000080400000806000008080000080A0000080C0000080E00000A0000000A0200000A0400000A0600000A0800000A0A00000A0C00000A0E00000C0000000C0200000C0400000C0600000C0800000C0
310
A00000C0C00000C0E00000E0000000E0200000E0400000E0600000E0800000E0A00000E0C00000E0E00040000000400020004000400040006000400080004000A0004000C0004000E00040200000402020004020400040206000402080004020A0004020C0004020E000404000004040200040404000404060004040800040
310
40A0004040C0004040E00040600000406020004060400040606000406080004060A0004060C0004060E00040800000408020004080400040806000408080004080A0004080C0004080E00040A0000040A0200040A0400040A0600040A0800040A0A00040A0C00040A0E00040C0000040C0200040C0400040C0600040C08000
310
40C0A00040C0C00040C0E00040E0000040E0200040E0400040E0600040E0800040E0A00040E0C00040E0E00080000000800020008000400080006000800080008000A0008000C0008000E00080200000802020008020400080206000802080008020A0008020C0008020E00080400000804020008040400080406000804080
310
008040A0008040C0008040E00080600000806020008060400080606000806080008060A0008060C0008060E00080800000808020008080400080806000808080008080A0008080C0008080E00080A0000080A0200080A0400080A0600080A0800080A0A00080A0C00080A0E00080C0000080C0200080C0400080C0600080C0
310
800080C0A00080C0C00080C0E00080E0000080E0200080E0400080E0600080E0800080E0A00080E0C00080E0E000C0000000C0002000C0004000C0006000C0008000C000A000C000C000C000E000C0200000C0202000C0204000C0206000C0208000C020A000C020C000C020E000C0400000C0402000C0404000C0406000C0
310
408000C040A000C040C000C040E000C0600000C0602000C0604000C0606000C0608000C060A000C060C000C060E000C0800000C0802000C0804000C0806000C0808000C080A000C080C000C080E000C0A00000C0A02000C0A04000C0A06000C0A08000C0A0A000C0A0C000C0A0E000C0C00000C0C02000C0C04000C0C06000
310
C0C08000C0C0A000F0FBFF00A4A0A000808080000000FF0000FF000000FFFF00FF000000FF00FF00FFFF0000FFFFFF0000000000000000000000000000000000000000000000000000000000000000000000000000000000FFFFFFFFFFFFFFFFFFFFFFFFFFFFFFFF00000000000000000000000000000000FFFFFFFFFFFFFF
310
FFFFFFFFFFFFFFFFFF00000000000000000000000000000000FFFFFFFFFFFFFFFFFFFFFFFFFFFFFFFF00000000000000000000000000000000FF0000000000000000000000000000FF00000000000000000000000000000000FF0000000000000000000000000000FF00000000000000000000000000000000FF0000000000
310
000000000000000000FF00000000000000000000000000000000FF0000000000000000000000000000FF00000000000000000000000000000000FF0000000000000000000000000000FF00000000000000000000000000000000FF0000000000000000000000000000FF00000000000000000000000000000000FF00000000
310
00000000000000000000FF00000000000000000000000000000000FF0000000000000000000000000000FF00000000000000000000000000000000FF0000000000000000000000000000FF00000000000000000000000000000000FF0000000000000000000000000000FF00000000000000000000000000000000FFFFFFFF
310
FFFFFFFFFFFFFFFFFFFFFFFF00000000000000000000000000000000FF0000000000000000000000000000FF00000000000000000000000000000000FF0000000000000000000000000000FF00000000000000000000000000000000FFFFFFFFFFFFFFFFFFFFFFFFFFFFFFFF00000000000000000000000000000000FF0000
310
000000000000000000000000FF00000000000000000000000000000000FF0000000000000000000000000000FF00000000000000000000000000000000FF0000000000000000000000000000FF00000000000000000000000000000000FF0000000000000000000000000000FF00000000000000000000000000000000FF00
310
00000000000000000000000000FF00000000000000000000000000000000FF0000000000FFFFFFFF0000000000FF00000000000000000000000000000000FF0000000000FFFFFFFF0000000000FF00000000000000000000000000000000FF0000000000000000000000000000FF00000000000000000000000000000000FF
310
0000000000000000000000000000FF00000000000000000000000000000000FF0000000000000000000000000000FF00000000000000000000000000000000FF0000000000000000000000000000FF00000000000000000000000000000000FFFFFFFFFFFFFFFFFFFFFFFFFFFFFFFF00000000000000000000000000000000
310
FFFFFFFFFFFFFFFFFFFFFFFFFFFFFFFF00000000000000000000000000000000000000000000000000000000000000000000000000000000
102
{BLKREFS
331
385
102
}
1001
ACAD
1000
DesignCenter Data
1002
{
1070
     1
1070
     4
1002
}
  0
BLOCK_RECORD
  5
386
330
1
100
AcDbSymbolTableRecord
100
AcDbBlockTableRecord
  2
4
340
0
310
2800000020000000200000000100080000000000000400000000000000000000000000000000000000000000000080000080000000808000800000008000800080800000C0C0C000C0DCC000F0CAA6000020400000206000002080000020A0000020C0000020E00000400000004020000040400000406000004080000040A0
310
000040C0000040E00000600000006020000060400000606000006080000060A0000060C0000060E00000800000008020000080400000806000008080000080A0000080C0000080E00000A0000000A0200000A0400000A0600000A0800000A0A00000A0C00000A0E00000C0000000C0200000C0400000C0600000C0800000C0
310
A00000C0C00000C0E00000E0000000E0200000E0400000E0600000E0800000E0A00000E0C00000E0E00040000000400020004000400040006000400080004000A0004000C0004000E00040200000402020004020400040206000402080004020A0004020C0004020E000404000004040200040404000404060004040800040
310
40A0004040C0004040E00040600000406020004060400040606000406080004060A0004060C0004060E00040800000408020004080400040806000408080004080A0004080C0004080E00040A0000040A0200040A0400040A0600040A0800040A0A00040A0C00040A0E00040C0000040C0200040C0400040C0600040C08000
310
40C0A00040C0C00040C0E00040E0000040E0200040E0400040E0600040E0800040E0A00040E0C00040E0E00080000000800020008000400080006000800080008000A0008000C0008000E00080200000802020008020400080206000802080008020A0008020C0008020E00080400000804020008040400080406000804080
310
008040A0008040C0008040E00080600000806020008060400080606000806080008060A0008060C0008060E00080800000808020008080400080806000808080008080A0008080C0008080E00080A0000080A0200080A0400080A0600080A0800080A0A00080A0C00080A0E00080C0000080C0200080C0400080C0600080C0
310
800080C0A00080C0C00080C0E00080E0000080E0200080E0400080E0600080E0800080E0A00080E0C00080E0E000C0000000C0002000C0004000C0006000C0008000C000A000C000C000C000E000C0200000C0202000C0204000C0206000C0208000C020A000C020C000C020E000C0400000C0402000C0404000C0406000C0
310
408000C040A000C040C000C040E000C0600000C0602000C0604000C0606000C0608000C060A000C060C000C060E000C0800000C0802000C0804000C0806000C0808000C080A000C080C000C080E000C0A00000C0A02000C0A04000C0A06000C0A08000C0A0A000C0A0C000C0A0E000C0C00000C0C02000C0C04000C0C06000
310
C0C08000C0C0A000F0FBFF00A4A0A000808080000000FF0000FF000000FFFF00FF000000FF00FF00FFFF0000FFFFFF0000000000000000000000000000000000000000000000000000000000000000000000000000000000000000000000000000000000000000000000000000000000000000000000000000000000000000
310
000000000000000000FFFF00000000000000000000000000000000000000000000000000000000FFFFFFFFFFFF000000000000000000000000000000000000000000000000FFFFFFFFFFFFFFFFFFFF000000000000000000000000000000000000000000FFFFFF0000FFFFFFFF00FFFF000000000000000000000000000000
310
0000000000FFFFFFFF00FFFFFF000000FF0000000000000000000000000000000000000000FFFF0000FFFF000000FFFF000000000000000000000000000000000000000000FF00000000FFFFFFFF0000000000000000000000000000000000000000000000FF000000000000FF000000000000000000000000000000000000
310
000000000000FF000000000000FF000000000000000000000000000000000000000000000000FF000000000000FF0000000000000000000000000000000000000000000000FFFFFFFF000000FF0000000000000000000000FFFF00000000000000000000FFFFFF0000FFFF00FF000000000000000000FFFFFFFFFFFF000000
310
00000000FFFF0000FFFF0000FFFF00000000000000FFFF0000FFFF0000FFFF0000000000FF0000000000FFFF00FF00000000000000FF000000FFFF000000FFFFFF0000FF0000000000000000FFFF0000000000000000FF0000FFFF0000000000FF00FFFF0000000000000000FF00000000000000000000FFFFFFFF00000000
310
00FFFFFF0000000000000000FF00000000000000000000000000FFFF0000000000FFFF0000000000000000FF000000000000000000000000000000FF00000000FFFF0000FFFFFF000000FF00000000000000000000000000000000FF00000000FF000000FFFFFF0000FF0000000000000000000000000000000000FF000000
310
FF0000000000000000FF000000000000000000000000000000000000FF0000FFFF0000000000000000FF000000000000000000000000000000000000FFFFFFFF0000000000000000FF00000000000000000000000000000000000000FFFFFF0000000000000000FF000000000000000000000000000000000000000000FFFF
310
FFFF0000000000FF000000000000000000000000000000000000000000000000FF00FFFF0000FF0000000000000000000000000000000000000000000000000000FFFF00FFFF0000000000000000000000000000000000000000000000000000000000FFFFFF00000000000000000000000000000000000000000000000000
310
0000000000000000000000000000000000000000000000000000000000000000000000000000000000000000000000000000000000000000
102
{BLKREFS
331
3CA
102
}
1001
ACAD
1000
DesignCenter Data
1002
{
1070
     1
1070
     4
1002
}
  0
ENDTAB
  0
ENDSEC
  0
SECTION
  2
BLOCKS
  0
BLOCK
  5
20
330
1F
100
AcDbEntity
  8
0
100
AcDbBlockBegin
  2
*Model_Space
 70
     0
 10
0.0
 20
0.0
 30
0.0
  3
*Model_Space
  1

  0
ENDBLK
  5
21
330
1F
100
AcDbEntity
  8
0
100
AcDbBlockEnd
  0
BLOCK
  5
D4
330
D2
100
AcDbEntity
 67
     1
  8
0
100
AcDbBlockBegin
  2
*Paper_Space
 70
     0
 10
0.0
 20
0.0
 30
0.0
  3
*Paper_Space
  1

  0
ENDBLK
  5
D5
330
D2
100
AcDbEntity
 67
     1
  8
0
100
AcDbBlockEnd
  0
BLOCK
  5
D8
330
D6
100
AcDbEntity
 67
     1
  8
0
100
AcDbBlockBegin
  2
*Paper_Space0
 70
     0
 10
0.0
 20
0.0
 30
0.0
  3
*Paper_Space0
  1

  0
ENDBLK
  5
D9
330
D6
100
AcDbEntity
 67
     1
  8
0
100
AcDbBlockEnd
  0
BLOCK
  5
30E
330
30D
100
AcDbEntity
  8
0
100
AcDbBlockBegin
  2
1
 70
     0
 10
0.0
 20
0.0
 30
0.0
  3
1
  1

  0
ARC
  5
310
330
30D
100
AcDbEntity
  8
0
  6
Continuous
 62
     7
370
    15
100
AcDbCircle
 10
1423.843889590885
 20
1661.502254410954
 30
0.0
 40
0.3000000000000388
100
AcDbArc
 50
65.04895804694155
 51
155.0489580469415
  0
ARC
  5
311
330
30D
100
AcDbEntity
  8
0
  6
Continuous
 62
     7
370
    15
100
AcDbCircle
 10
1418.131877570858
 20
1664.15986963575
 30
0.0
 40
0.3000000000000131
100
AcDbArc
 50
335.0489580469417
 51
65.04895804694155
  0
LINE
  5
312
330
30D
100
AcDbEntity
  8
0
  6
Continuous
 62
     7
370
    15
100
AcDbLine
 10
1418.40387814324
 20
1664.033316529807
 30
0.0
 11
1417.89766571947
 21
1662.945314240278
 31
0.0
  0
LINE
  5
313
330
30D
100
AcDbEntity
  8
0
  6
Continuous
 62
     7
370
    15
100
AcDbLine
 10
1423.065676594732
 20
1660.540805227368
 30
0.0
 11
1423.571889018503
 21
1661.628807516897
 31
0.0
  0
LINE
  5
314
330
30D
100
AcDbEntity
  8
0
  6
Continuous
 62
     7
370
    15
100
AcDbLine
 10
1458.510154485427
 20
1635.449374471733
 30
0.0
 11
1458.510154485427
 21
1633.949374471733
 31
0.0
  0
LINE
  5
315
330
30D
100
AcDbEntity
  8
0
  6
Continuous
 62
     7
370
    15
100
AcDbLine
 10
1458.510154485427
 20
1633.949374471733
 30
0.0
 11
1456.010154485427
 21
1633.949374471733
 31
0.0
  0
LINE
  5
316
330
30D
100
AcDbEntity
  8
0
  6
Continuous
 62
     7
370
    15
100
AcDbLine
 10
1456.010154485427
 20
1633.949374471733
 30
0.0
 11
1456.010154485427
 21
1635.449374471733
 31
0.0
  0
LINE
  5
317
330
30D
100
AcDbEntity
  8
0
  6
Continuous
 62
     7
370
    15
100
AcDbLine
 10
1456.010154485427
 20
1635.449374471733
 30
0.0
 11
1458.510154485427
 21
1635.449374471733
 31
0.0
  0
LINE
  5
318
330
30D
100
AcDbEntity
  8
0
  6
Continuous
 62
     7
370
    15
100
AcDbLine
 10
1383.413494691388
 20
1635.449374471733
 30
0.0
 11
1383.413494691388
 21
1633.949374471733
 31
0.0
  0
LINE
  5
319
330
30D
100
AcDbEntity
  8
0
  6
Continuous
 62
     7
370
    15
100
AcDbLine
 10
1442.107315017326
 20
1651.969707011486
 30
0.0
 11
1443.473238573203
 21
1636.357129326245
 31
0.0
  0
ARC
  5
31A
330
30D
100
AcDbEntity
  8
0
  6
Continuous
 62
     7
370
    15
100
AcDbCircle
 10
1444.574560888796
 20
1636.570120283055
 30
0.0
 40
1.12172901830485
100
AcDbArc
 50
190.9456277909676
 51
267.6009027267752
  0
LINE
  5
31B
330
30D
100
AcDbEntity
  8
0
  6
Continuous
 62
     7
370
    15
100
AcDbLine
 10
1444.527605410814
 20
1635.449374471733
 30
0.0
 11
1456.010154485427
 21
1635.449374471733
 31
0.0
  0
ARC
  5
31C
330
30D
100
AcDbEntity
  8
0
  6
Continuous
 62
     7
370
    15
100
AcDbCircle
 10
1436.628244177822
 20
1651.490350426373
 30
0.0
 40
5.500000000000135
100
AcDbArc
 50
5.000000000012436
 51
59.9999999999962
  0
LINE
  5
31D
330
30D
100
AcDbEntity
  8
0
  6
Continuous
 62
     7
370
    15
100
AcDbLine
 10
1456.010154485427
 20
1633.949374471733
 30
0.0
 11
1444.527605410813
 21
1633.949374471734
 31
0.0
  0
ARC
  5
31E
330
30D
100
AcDbEntity
  8
0
  6
Continuous
 62
     7
370
    15
100
AcDbCircle
 10
1444.5722696373
 20
1636.564228339606
 30
0.0
 40
2.615235294090287
100
AcDbArc
 50
187.4221336179355
 51
269.0214279772241
  0
LINE
  5
31F
330
30D
100
AcDbEntity
  8
0
  6
Continuous
 62
     7
370
    15
100
AcDbLine
 10
1441.978946526066
 20
1636.226395712121
 30
0.0
 11
1440.613022970189
 21
1651.838973397363
 31
0.0
  0
ARC
  5
320
330
30D
100
AcDbEntity
  8
0
  6
Continuous
 62
     7
370
    15
100
AcDbCircle
 10
1436.628244177822
 20
1651.490350426373
 30
0.0
 40
4.000000000000511
100
AcDbArc
 50
4.999999999999459
 51
60.00000000000272
  0
ARC
  5
321
330
30D
100
AcDbEntity
  8
0
  6
Continuous
 62
     7
370
    15
100
AcDbCircle
 10
1402.100629195806
 20
1668.653596938605
 30
0.0
 40
3.00000000000009
100
AcDbArc
 50
60.00000000000272
 51
177.0000000000076
  0
LINE
  5
322
330
30D
100
AcDbEntity
  8
0
  6
Continuous
 62
     7
370
    15
100
AcDbLine
 10
1399.104740591543
 20
1668.810604807333
 30
0.0
 11
1397.401807169754
 21
1636.31669941607
 31
0.0
  0
ARC
  5
323
330
30D
100
AcDbEntity
  8
0
  6
Continuous
 62
     7
370
    15
100
AcDbCircle
 10
1394.844268778544
 20
1636.5144124421
 30
0.0
 40
2.565169207513218
100
AcDbArc
 50
270.5795752906167
 51
355.5794852870481
  0
LINE
  5
324
330
30D
100
AcDbEntity
  8
0
  6
Continuous
 62
     7
370
    15
100
AcDbLine
 10
1394.870216297673
 20
1633.949374471733
 30
0.0
 11
1383.413494691388
 21
1633.949374471733
 31
0.0
  0
LINE
  5
325
330
30D
100
AcDbEntity
  8
0
  6
Continuous
 62
     7
370
    15
100
AcDbLine
 10
1383.413494691388
 20
1635.449374471733
 30
0.0
 11
1394.870216297673
 21
1635.449374471733
 31
0.0
  0
ARC
  5
326
330
30D
100
AcDbEntity
  8
0
  6
Continuous
 62
     7
370
    15
100
AcDbCircle
 10
1394.843531623315
 20
1636.516260136275
 30
0.0
 40
1.06721932752855
100
AcDbArc
 50
271.4327688191451
 51
353.4868085281137
  0
LINE
  5
327
330
30D
100
AcDbEntity
  8
0
  6
Continuous
 62
     7
370
    15
100
AcDbLine
 10
1395.903862867622
 20
1636.395203350438
 30
0.0
 11
1397.606796289411
 21
1668.889108741697
 31
0.0
  0
ARC
  5
328
330
30D
100
AcDbEntity
  8
0
  6
Continuous
 62
     7
370
    15
100
AcDbCircle
 10
1402.100629195806
 20
1668.653596938605
 30
0.0
 40
4.500000000000041
100
AcDbArc
 50
60.00000000000272
 51
177.0000000000076
  0
LINE
  5
329
330
30D
100
AcDbEntity
  8
0
  6
Continuous
 62
     7
370
    15
100
AcDbLine
 10
1404.350629195806
 20
1672.550711255635
 30
0.0
 11
1439.378244177822
 21
1656.253490147187
 31
0.0
  0
LINE
  5
32A
330
30D
100
AcDbEntity
  8
0
  6
Continuous
 62
     7
370
    15
100
AcDbLine
 10
1438.628244177822
 20
1654.954452041511
 30
0.0
 11
1403.600629195806
 21
1671.251673149958
 31
0.0
  0
LINE
  5
32B
330
30D
100
AcDbEntity
  8
0
  6
Continuous
 62
     7
370
    15
100
AcDbLine
 10
1380.913494691388
 20
1633.949374471733
 30
0.0
 11
1380.913494691388
 21
1635.449374471733
 31
0.0
  0
LINE
  5
32C
330
30D
100
AcDbEntity
  8
0
  6
Continuous
 62
     7
370
    15
100
AcDbLine
 10
1383.413494691388
 20
1633.949374471733
 30
0.0
 11
1380.913494691388
 21
1633.949374471733
 31
0.0
  0
LINE
  5
32D
330
30D
100
AcDbEntity
  8
0
  6
Continuous
 62
     7
370
    15
100
AcDbLine
 10
1380.913494691388
 20
1635.449374471733
 30
0.0
 11
1383.413494691388
 21
1635.449374471733
 31
0.0
  0
LINE
  5
32E
330
30D
100
AcDbEntity
  8
0
  6
Continuous
 62
     7
370
    15
100
AcDbLine
 10
1417.89766571947
 20
1662.945314240278
 30
0.0
 11
1423.065676594732
 21
1660.540805227368
 31
0.0
  0
LINE
  5
32F
330
30D
100
AcDbEntity
  8
0
  6
Continuous
 62
     8
370
    15
100
AcDbLine
 10
1423.571889018503
 20
1661.628807516897
 30
0.0
 11
1418.40387814324
 21
1664.033316529807
 31
0.0
  0
ENDBLK
  5
30F
330
30D
100
AcDbEntity
  8
0
100
AcDbBlockEnd
  0
BLOCK
  5
332
330
331
100
AcDbEntity
  8
0
100
AcDbBlockBegin
  2
2
 70
     0
 10
0.0
 20
0.0
 30
0.0
  3
2
  1

  0
SPLINE
  5
3D5
330
331
100
AcDbEntity
  8
0
  6
Continuous
 62
     7
370
    15
100
AcDbSpline
210
0.0
220
0.0
230
1.0
 70
     8
 71
     3
 72
    17
 73
    13
 74
     0
 42
0.0000000001
 43
0.0000000001
 40
0.0
 40
0.0
 40
0.0
 40
0.0
 40
0.082131891670511
 40
0.1910387878971135
 40
0.2994332867914213
 40
0.4070458666220678
 40
0.5138323612369998
 40
0.6198962519359959
 40
0.7253963475692208
 40
0.8304870897608749
 40
0.935294468393819
 40
1.0
 40
1.0
 40
1.0
 40
1.0
 10
1421.42997982866
 20
1581.344203200087
 30
0.0
 10
1421.354647762657
 20
1581.349985105272
 30
0.0
 10
1421.179425369913
 20
1581.363433817285
 30
0.0
 10
1420.912040254414
 20
1581.448684376427
 30
0.0
 10
1420.636275865191
 20
1581.587130920715
 30
0.0
 10
1420.384224679748
 20
1581.775779672151
 30
0.0
 10
1420.162497907612
 20
1582.00707263066
 30
0.0
 10
1419.976905017375
 20
1582.275305399447
 30
0.0
 10
1419.831855652866
 20
1582.573224482894
 30
0.0
 10
1419.73187104081
 20
1582.893054445273
 30
0.0
 10
1419.683098300563
 20
1583.184302291107
 30
0.0
 10
1419.678313347404
 20
1583.366324232265
 30
0.0
 10
1419.676486861519
 20
1583.435804642046
 30
0.0
1001
AcDbBlockRepETag
1070
     1
1071
        0
1005
3D5
  0
SPLINE
  5
3D6
330
331
100
AcDbEntity
  8
0
  6
Continuous
 62
     7
370
    15
100
AcDbSpline
210
0.0
220
0.0
230
1.0
 70
     8
 71
     3
 72
    18
 73
    14
 74
     0
 42
0.0000000001
 43
0.0000000001
 40
0.0
 40
0.0
 40
0.0
 40
0.0
 40
0.0497479025084679
 40
0.1519247918534273
 40
0.2541418232182986
 40
0.3563953447452022
 40
0.4587958518702279
 40
0.5614906916019973
 40
0.6646641746547673
 40
0.7685175477247822
 40
0.8732178086333849
 40
0.9788135197634028
 40
1.0
 40
1.0
 40
1.0
 40
1.0
 10
1419.676486861519
 20
1583.435804642046
 30
0.0
 10
1419.677630845964
 20
1583.490384139984
 30
0.0
 10
1419.681124452526
 20
1583.6570641093
 30
0.0
 10
1419.721730987984
 20
1583.933586209282
 30
0.0
 10
1419.814854744422
 20
1584.253851084454
 30
0.0
 10
1419.952343185857
 20
1584.552743573359
 30
0.0
 10
1420.129575278069
 20
1584.822629784671
 30
0.0
 10
1420.342057117791
 20
1585.057064627557
 30
0.0
 10
1420.584368491775
 20
1585.250042026497
 30
0.0
 10
1420.850726136993
 20
1585.398536218252
 30
0.0
 10
1421.134955044846
 20
1585.492911254498
 30
0.0
 10
1421.351111967538
 20
1585.536635582287
 30
0.0
 10
1421.469986557782
 20
1585.531677496241
 30
0.0
 10
1421.489851604518
 20
1585.53084895407
 30
0.0
1001
AcDbBlockRepETag
1070
     1
1071
        1
1005
3D6
  0
LINE
  5
3D7
330
331
100
AcDbEntity
  8
0
  6
Continuous
 62
     7
370
    15
100
AcDbLine
 10
1404.350629195806
 20
1573.435804642046
 30
0.0
 11
1404.350629195806
 21
1593.435804642046
 31
0.0
1001
AcDbBlockRepETag
1070
     1
1071
        2
1005
3D7
  0
LINE
  5
3D8
330
331
100
AcDbEntity
  8
0
  6
Continuous
 62
     7
370
    15
100
AcDbLine
 10
1404.350629195806
 20
1573.435804642046
 30
0.0
 11
1397.606796289411
 21
1573.435804642046
 31
0.0
1001
AcDbBlockRepETag
1070
     1
1071
        3
1005
3D8
  0
LINE
  5
3D9
330
331
100
AcDbEntity
  8
0
  6
Continuous
 62
     7
370
    15
100
AcDbLine
 10
1397.606796289411
 20
1573.435804642046
 30
0.0
 11
1397.606796289411
 21
1593.435804642046
 31
0.0
1001
AcDbBlockRepETag
1070
     1
1071
        4
1005
3D9
  0
LINE
  5
3DA
330
331
100
AcDbEntity
  8
0
  6
Continuous
 62
     7
370
    15
100
AcDbLine
 10
1404.350629195806
 20
1593.435804642046
 30
0.0
 11
1397.606796289411
 21
1593.435804642046
 31
0.0
1001
AcDbBlockRepETag
1070
     1
1071
        5
1005
3DA
  0
LINE
  5
3DB
330
331
100
AcDbEntity
  8
0
  6
Continuous
 62
     7
370
    15
100
AcDbLine
 10
1439.378244177822
 20
1573.435804642046
 30
0.0
 11
1439.378244177822
 21
1593.435804642046
 31
0.0
1001
AcDbBlockRepETag
1070
     1
1071
        6
1005
3DB
  0
LWPOLYLINE
  5
3DC
330
331
100
AcDbEntity
  8
0
  6
Continuous
 62
     7
370
    15
100
AcDbPolyline
 90
       42
 70
   128
 43
0.0
 10
1419.387408704756
 20
1583.435804642046
 10
1419.415035710568
 20
1583.832692781015
 10
1419.497269174403
 20
1584.220278198393
 10
1419.632181613566
 20
1584.5894762205
 10
1419.81661079483
 20
1584.931633158614
 10
1420.046233854502
 20
1585.238729144106
 10
1420.315668622681
 20
1585.503566107357
 10
1420.618599776764
 20
1585.719936494414
 10
1420.947926867252
 20
1585.882768766793
 10
1421.295930746269
 20
1585.988246274038
 10
1421.654454497844
 20
1586.033896712778
 10
1422.015094629112
 20
1586.018650075421
 10
1422.36939804106
 20
1585.942863730224
 10
1422.709060162006
 20
1585.808314044885
 10
1423.026119599718
 20
1585.618154749989
 10
1423.313144749705
 20
1585.376843018237
 10
1423.563407985721
 20
1585.090034992095
 10
1423.771043349628
 20
1584.764453208608
 10
1423.931184044479
 20
1584.407729028832
 10
1424.040076508116
 20
1584.028223765194
 10
1424.095168393484
 20
1583.63483269942
 10
1424.095168393484
 20
1583.236776584671
 10
1424.040076508116
 20
1582.843385518898
 10
1423.931184044479
 20
1582.46388025526
 10
1423.771043349628
 20
1582.107156075483
 10
1423.563407985721
 20
1581.781574291997
 10
1423.313144749705
 20
1581.494766265855
 10
1423.026119599718
 20
1581.253454534103
 10
1422.709060162006
 20
1581.063295239207
 10
1422.36939804106
 20
1580.928745553868
 10
1422.015094629112
 20
1580.852959208671
 10
1421.654454497844
 20
1580.837712571314
 10
1421.295930746269
 20
1580.883363010054
 10
1420.947926867252
 20
1580.988840517299
 10
1420.618599776764
 20
1581.151672789677
 10
1420.315668622681
 20
1581.368043176735
 10
1420.046233854502
 20
1581.632880139986
 10
1419.81661079483
 20
1581.939976125477
 10
1419.632181613566
 20
1582.282133063592
 10
1419.497269174403
 20
1582.651331085698
 10
1419.415035710568
 20
1583.038916503077
 10
1419.387408704756
 20
1583.435804642046
1001
AcDbBlockRepETag
1070
     1
1071
        7
1005
3DC
  0
LINE
  5
3DD
330
331
100
AcDbEntity
  8
0
  6
Continuous
 62
     7
370
    15
100
AcDbLine
 10
1404.350629195806
 20
1573.435804642046
 30
0.0
 11
1439.378244177822
 21
1573.435804642046
 31
0.0
1001
AcDbBlockRepETag
1070
     1
1071
        8
1005
3DD
  0
LINE
  5
3DE
330
331
100
AcDbEntity
  8
0
  6
Continuous
 62
     7
370
    15
100
AcDbLine
 10
1404.350629195806
 20
1593.435804642046
 30
0.0
 11
1439.378244177822
 21
1593.435804642046
 31
0.0
1001
AcDbBlockRepETag
1070
     1
1071
        9
1005
3DE
  0
LINE
  5
3DF
330
331
100
AcDbEntity
  8
0
  6
Continuous
 62
     7
370
    15
100
AcDbLine
 10
1395.903862867622
 20
1573.435804642046
 30
0.0
 11
1395.903862867622
 21
1593.435804642046
 31
0.0
1001
AcDbBlockRepETag
1070
     1
1071
       10
1005
3DF
  0
LINE
  5
3E0
330
331
100
AcDbEntity
  8
0
  6
Continuous
 62
     7
370
    15
100
AcDbLine
 10
1395.903862867622
 20
1573.435804642046
 30
0.0
 11
1397.606796289411
 21
1573.435804642046
 31
0.0
1001
AcDbBlockRepETag
1070
     1
1071
       11
1005
3E0
  0
LINE
  5
3E1
330
331
100
AcDbEntity
  8
0
  6
Continuous
 62
     7
370
    15
100
AcDbLine
 10
1395.903862867622
 20
1593.435804642046
 30
0.0
 11
1397.606796289411
 21
1593.435804642046
 31
0.0
1001
AcDbBlockRepETag
1070
     1
1071
       12
1005
3E1
  0
LINE
  5
3E2
330
331
100
AcDbEntity
  8
0
  6
Continuous
 62
     7
370
    15
100
AcDbLine
 10
1421.424002270887
 20
1581.339300879735
 30
0.0
 11
1421.533825155498
 21
1581.335804642046
 31
0.0
1001
AcDbBlockRepETag
1070
     1
1071
       13
1005
3E2
  0
LINE
  5
3E3
330
331
100
AcDbEntity
  8
0
  6
Continuous
 62
     7
370
    15
100
AcDbLine
 10
1421.533825155498
 20
1585.535804642046
 30
0.0
 11
1421.487416744678
 21
1585.535180747061
 31
0.0
1001
AcDbBlockRepETag
1070
     1
1071
       14
1005
3E3
  0
ARC
  5
3E4
330
331
100
AcDbEntity
  8
0
  6
Continuous
 62
     7
370
    15
100
AcDbCircle
 10
1420.315519407629
 20
1583.370005579401
 30
0.0
 40
2.07120119045838
100
AcDbArc
 50
289.2531499831191
 51
1.820510258556488
1001
AcDbBlockRepETag
1070
     1
1071
       15
1005
3E4
  0
ARC
  5
3E5
330
331
100
AcDbEntity
  8
0
  6
Continuous
 62
     7
370
    15
100
AcDbCircle
 10
1420.316860625837
 20
1583.502044108159
 30
0.0
 40
2.069874696511868
100
AcDbArc
 50
358.1661257370645
 51
71.1539181794296
1001
AcDbBlockRepETag
1070
     1
1071
       16
1005
3E5
  0
LINE
  5
3E6
330
331
100
AcDbEntity
  8
0
  6
Continuous
 62
     7
370
    15
100
AcDbLine
 10
1442.107315017326
 20
1573.435804642046
 30
0.0
 11
1442.107315017326
 21
1593.435804642046
 31
0.0
1001
AcDbBlockRepETag
1070
     1
1071
       17
1005
3E6
  0
LINE
  5
3E7
330
331
100
AcDbEntity
  8
0
  6
Continuous
 62
     7
370
    15
100
AcDbLine
 10
1442.107315017326
 20
1573.435804642046
 30
0.0
 11
1439.378244177822
 21
1573.435804642046
 31
0.0
1001
AcDbBlockRepETag
1070
     1
1071
       18
1005
3E7
  0
LINE
  5
3E8
330
331
100
AcDbEntity
  8
0
  6
Continuous
 62
     7
370
    15
100
AcDbLine
 10
1442.107315017326
 20
1593.435804642046
 30
0.0
 11
1439.378244177822
 21
1593.435804642046
 31
0.0
1001
AcDbBlockRepETag
1070
     1
1071
       19
1005
3E8
  0
LINE
  5
3E9
330
331
100
AcDbEntity
  8
0
  6
Continuous
 62
     7
370
    15
100
AcDbLine
 10
1443.473238573203
 20
1573.435804642046
 30
0.0
 11
1443.473238573203
 21
1593.435804642046
 31
0.0
1001
AcDbBlockRepETag
1070
     1
1071
       20
1005
3E9
  0
LINE
  5
3EA
330
331
100
AcDbEntity
  8
0
  6
Continuous
 62
     7
370
    15
100
AcDbLine
 10
1442.107315017326
 20
1573.435804642046
 30
0.0
 11
1443.473238573203
 21
1573.435804642046
 31
0.0
1001
AcDbBlockRepETag
1070
     1
1071
       21
1005
3EA
  0
LINE
  5
3EB
330
331
100
AcDbEntity
  8
0
  6
Continuous
 62
     7
370
    15
100
AcDbLine
 10
1442.107315017326
 20
1593.435804642046
 30
0.0
 11
1443.473238573203
 21
1593.435804642046
 31
0.0
1001
AcDbBlockRepETag
1070
     1
1071
       22
1005
3EB
  0
LINE
  5
3EC
330
331
100
AcDbEntity
  8
0
  6
Continuous
 62
     7
370
    15
100
AcDbLine
 10
1394.870216297673
 20
1573.435804642046
 30
0.0
 11
1394.870216297673
 21
1593.435804642046
 31
0.0
1001
AcDbBlockRepETag
1070
     1
1071
       23
1005
3EC
  0
LINE
  5
3ED
330
331
100
AcDbEntity
  8
0
  6
Continuous
 62
     7
370
    15
100
AcDbLine
 10
1394.870216297673
 20
1573.435804642046
 30
0.0
 11
1395.903862867622
 21
1573.435804642046
 31
0.0
1001
AcDbBlockRepETag
1070
     1
1071
       24
1005
3ED
  0
LINE
  5
3EE
330
331
100
AcDbEntity
  8
0
  6
Continuous
 62
     7
370
    15
100
AcDbLine
 10
1394.870216297673
 20
1593.435804642046
 30
0.0
 11
1395.903862867622
 21
1593.435804642046
 31
0.0
1001
AcDbBlockRepETag
1070
     1
1071
       25
1005
3EE
  0
LINE
  5
3EF
330
331
100
AcDbEntity
  8
0
  6
Continuous
 62
     7
370
    15
100
AcDbLine
 10
1444.527605410814
 20
1573.435804642046
 30
0.0
 11
1444.527605410814
 21
1593.435804642046
 31
0.0
1001
AcDbBlockRepETag
1070
     1
1071
       26
1005
3EF
  0
LINE
  5
3F0
330
331
100
AcDbEntity
  8
0
  6
Continuous
 62
     7
370
    15
100
AcDbLine
 10
1443.473238573203
 20
1573.435804642046
 30
0.0
 11
1444.527605410814
 21
1573.435804642046
 31
0.0
1001
AcDbBlockRepETag
1070
     1
1071
       27
1005
3F0
  0
LINE
  5
3F1
330
331
100
AcDbEntity
  8
0
  6
Continuous
 62
     7
370
    15
100
AcDbLine
 10
1443.473238573203
 20
1593.435804642046
 30
0.0
 11
1444.527605410814
 21
1593.435804642046
 31
0.0
1001
AcDbBlockRepETag
1070
     1
1071
       28
1005
3F1
  0
LINE
  5
3F2
330
331
100
AcDbEntity
  8
0
  6
Continuous
 62
     7
370
    15
100
AcDbLine
 10
1458.510154485427
 20
1590.935804642046
 30
0.0
 11
1456.010154485427
 21
1593.435804642046
 31
0.0
1001
AcDbBlockRepETag
1070
     1
1071
       29
1005
3F2
  0
LINE
  5
3F3
330
331
100
AcDbEntity
  8
0
  6
Continuous
 62
     7
370
    15
100
AcDbLine
 10
1458.510154485427
 20
1575.935804642046
 30
0.0
 11
1458.510154485427
 21
1590.935804642046
 31
0.0
1001
AcDbBlockRepETag
1070
     1
1071
       30
1005
3F3
  0
LINE
  5
3F4
330
331
100
AcDbEntity
  8
0
  6
Continuous
 62
     7
370
    15
100
AcDbLine
 10
1456.010154485427
 20
1573.435804642046
 30
0.0
 11
1458.510154485427
 21
1575.935804642046
 31
0.0
1001
AcDbBlockRepETag
1070
     1
1071
       31
1005
3F4
  0
LINE
  5
3F9
330
331
100
AcDbEntity
  8
0
  6
Continuous
 62
     7
370
    15
100
AcDbLine
 10
1444.527605410814
 20
1573.435804642046
 30
0.0
 11
1456.010154485427
 21
1573.435804642046
 31
0.0
1001
AcDbBlockRepETag
1070
     1
1071
       32
1005
3F9
  0
LINE
  5
3FA
330
331
100
AcDbEntity
  8
0
  6
Continuous
 62
     7
370
    15
100
AcDbLine
 10
1444.527605410814
 20
1593.435804642046
 30
0.0
 11
1456.010154485427
 21
1593.435804642046
 31
0.0
1001
AcDbBlockRepETag
1070
     1
1071
       33
1005
3FA
  0
LINE
  5
3FB
330
331
100
AcDbEntity
  8
0
  6
Continuous
 62
     7
370
    15
100
AcDbLine
 10
1383.413494691388
 20
1593.435804642046
 30
0.0
 11
1380.913494691388
 21
1590.935804642046
 31
0.0
1001
AcDbBlockRepETag
1070
     1
1071
       34
1005
3FB
  0
LINE
  5
3FC
330
331
100
AcDbEntity
  8
0
  6
Continuous
 62
     7
370
    15
100
AcDbLine
 10
1380.913494691388
 20
1575.935804642046
 30
0.0
 11
1383.413494691388
 21
1573.435804642046
 31
0.0
1001
AcDbBlockRepETag
1070
     1
1071
       35
1005
3FC
  0
LINE
  5
3FD
330
331
100
AcDbEntity
  8
0
  6
Continuous
 62
     7
370
    15
100
AcDbLine
 10
1380.913494691388
 20
1575.935804642046
 30
0.0
 11
1380.913494691388
 21
1590.935804642046
 31
0.0
1001
AcDbBlockRepETag
1070
     1
1071
       36
1005
3FD
  0
LINE
  5
3FE
330
331
100
AcDbEntity
  8
0
  6
Continuous
 62
     7
370
    15
100
AcDbLine
 10
1388.913494691388
 20
1580.135804642046
 30
0.0
 11
1390.213494691388
 21
1580.135804642046
 31
0.0
1001
AcDbBlockRepETag
1070
     1
1071
       37
1005
3FE
  0
ARC
  5
3FF
330
331
100
AcDbEntity
  8
0
  6
Continuous
 62
     7
370
    15
100
AcDbCircle
 10
1390.213494691388
 20
1583.435804642046
 30
0.0
 40
3.300000000000011
100
AcDbArc
 50
270.0
 51
90.0
1001
AcDbBlockRepETag
1070
     1
1071
       38
1005
3FF
  0
LINE
  5
400
330
331
100
AcDbEntity
  8
0
  6
Continuous
 62
     7
370
    15
100
AcDbLine
 10
1390.213494691388
 20
1586.735804642046
 30
0.0
 11
1388.913494691388
 21
1586.735804642046
 31
0.0
1001
AcDbBlockRepETag
1070
     1
1071
       39
1005
400
  0
ARC
  5
401
330
331
100
AcDbEntity
  8
0
  6
Continuous
 62
     7
370
    15
100
AcDbCircle
 10
1388.913494691388
 20
1583.435804642046
 30
0.0
 40
3.300000000000011
100
AcDbArc
 50
90.0
 51
270.0
1001
AcDbBlockRepETag
1070
     1
1071
       40
1005
401
  0
LINE
  5
402
330
331
100
AcDbEntity
  8
0
  6
Continuous
 62
     7
370
    15
100
AcDbLine
 10
1383.413494691388
 20
1573.435804642046
 30
0.0
 11
1394.870216297673
 21
1573.435804642046
 31
0.0
1001
AcDbBlockRepETag
1070
     1
1071
       41
1005
402
  0
LINE
  5
403
330
331
100
AcDbEntity
  8
0
  6
Continuous
 62
     7
370
    15
100
AcDbLine
 10
1383.413494691388
 20
1593.435804642046
 30
0.0
 11
1394.870216297673
 21
1593.435804642046
 31
0.0
1001
AcDbBlockRepETag
1070
     1
1071
       42
1005
403
  0
ARC
  5
404
330
331
100
AcDbEntity
  8
0
  6
Continuous
 62
     8
370
    15
100
AcDbCircle
 10
1421.376818483886
 20
1583.435804642046
 30
0.0
 40
2.105861129070606
100
AcDbArc
 50
274.2757685566024
 51
85.72423144339763
1001
AcDbBlockRepETag
1070
     1
1071
       43
1005
404
  0
ARC
  5
409
330
331
100
AcDbEntity
  8
0
  6
Continuous
 62
     7
370
    15
100
AcDbCircle
 10
1451.610154485427
 20
1583.435804642046
 30
0.0
 40
3.299999999999993
100
AcDbArc
 50
270.0
 51
90.0
1001
AcDbBlockRepETag
1070
     1
1071
       44
1005
409
  0
ARC
  5
40B
330
331
100
AcDbEntity
  8
0
  6
Continuous
 62
     7
370
    15
100
AcDbCircle
 10
1450.710154485427
 20
1583.435804642046
 30
0.0
 40
3.299999999999993
100
AcDbArc
 50
90.0
 51
270.0
1001
AcDbBlockRepETag
1070
     1
1071
       45
1005
40B
  0
LINE
  5
40C
330
331
100
AcDbEntity
  8
0
  6
Continuous
 62
     7
370
    15
100
AcDbLine
 10
1450.710154485427
 20
1580.135804642046
 30
0.0
 11
1451.610154485427
 21
1580.135804642045
 31
0.0
1001
AcDbBlockRepETag
1070
     1
1071
       46
1005
40C
  0
LINE
  5
40D
330
331
100
AcDbEntity
  8
0
  6
Continuous
 62
     7
370
    15
100
AcDbLine
 10
1451.610154485427
 20
1586.735804642046
 30
0.0
 11
1450.710154485427
 21
1586.735804642046
 31
0.0
1001
AcDbBlockRepETag
1070
     1
1071
       47
1005
40D
  0
ENDBLK
  5
333
330
331
100
AcDbEntity
  8
0
100
AcDbBlockEnd
  0
BLOCK
  5
366
330
365
100
AcDbEntity
  8
0
100
AcDbBlockBegin
  2
3
 70
     0
 10
0.0
 20
0.0
 30
0.0
  3
3
  1

  0
SPLINE
  5
368
330
365
100
AcDbEntity
  8
0
  6
Continuous
 62
     7
370
    15
100
AcDbSpline
210
0.0
220
0.0
230
1.0
 70
     8
 71
     3
 72
    29
 73
    25
 74
     0
 42
0.0000000001
 43
0.0000000001
 40
0.0
 40
0.0
 40
0.0
 40
0.0
 40
0.0380239859314565
 40
0.0811939557657155
 40
0.1268004088330384
 40
0.1718478604718324
 40
0.2176521055358206
 40
0.264806686466739
 40
0.3132342352370796
 40
0.3626761306541271
 40
0.4128518914854308
 40
0.4635108144048065
 40
0.5144389376303594
 40
0.5654488536653207
 40
0.616318870485356
 40
0.6668503293846077
 40
0.7168311310480862
 40
0.7660136796295927
 40
0.8141251173038567
 40
0.8609327543356553
 40
0.9064371757237143
 40
0.9513145128761657
 40
0.9970589225838148
 40
1.0
 40
1.0
 40
1.0
 40
1.0
 10
1338.611681178415
 20
1664.007481624494
 30
0.0
 10
1338.611789068783
 20
1664.006874524664
 30
0.0
 10
1338.612019450882
 20
1664.005578163029
 30
0.0
 10
1338.583978640172
 20
1663.95941937248
 30
0.0
 10
1338.509421932576
 20
1663.886498220077
 30
0.0
 10
1338.382594091835
 20
1663.798374342997
 30
0.0
 10
1338.20807681573
 20
1663.708054788825
 30
0.0
 10
1337.987727588192
 20
1663.621570920847
 30
0.0
 10
1337.725671389453
 20
1663.544446671681
 30
0.0
 10
1337.428517030949
 20
1663.481256643328
 30
0.0
 10
1337.104493722509
 20
1663.435513055832
 30
0.0
 10
1336.762777136232
 20
1663.409614880679
 30
0.0
 10
1336.413038817707
 20
1663.404923776696
 30
0.0
 10
1336.065246913595
 20
1663.421817948328
 30
0.0
 10
1335.729377504385
 20
1663.459688805167
 30
0.0
 10
1335.415180522927
 20
1663.516897635669
 30
0.0
 10
1335.131890171934
 20
1663.590699871834
 30
0.0
 10
1334.888033273854
 20
1663.677005924843
 30
0.0
 10
1334.690974996935
 20
1663.770128916348
 30
0.0
 10
1334.54611956411
 20
1663.862002583776
 30
0.0
 10
1334.455302259133
 20
1663.94294099405
 30
0.0
 10
1334.415101180163
 20
1663.997039079304
 30
0.0
 10
1334.411605734612
 20
1664.013392023642
 30
0.0
 10
1334.41179656186
 20
1664.010307760069
 30
0.0
 10
1334.411808089683
 20
1664.010121440521
 30
0.0
  0
LINE
  5
369
330
365
100
AcDbEntity
  8
0
  6
Continuous
 62
     7
370
    15
100
AcDbLine
 10
1346.512356149869
 20
1673.153596938605
 30
0.0
 11
1326.512356149869
 21
1673.153596938605
 31
0.0
  0
LINE
  5
36A
330
365
100
AcDbEntity
  8
0
  6
Continuous
 62
     7
370
    15
100
AcDbLine
 10
1346.512356149869
 20
1635.449374471733
 30
0.0
 11
1346.512356149869
 21
1633.949374471733
 31
0.0
  0
LINE
  5
36B
330
365
100
AcDbEntity
  8
0
  6
Continuous
 62
     7
370
    15
100
AcDbLine
 10
1346.512356149869
 20
1633.949374471733
 30
0.0
 11
1344.012356149869
 21
1633.949374471733
 31
0.0
  0
LINE
  5
36C
330
365
100
AcDbEntity
  8
0
  6
Continuous
 62
     7
370
    15
100
AcDbLine
 10
1344.012356149869
 20
1633.949374471733
 30
0.0
 11
1344.012356149869
 21
1635.449374471733
 31
0.0
  0
LINE
  5
36D
330
365
100
AcDbEntity
  8
0
  6
Continuous
 62
     7
370
    15
100
AcDbLine
 10
1344.012356149869
 20
1635.449374471733
 30
0.0
 11
1346.512356149869
 21
1635.449374471733
 31
0.0
  0
LINE
  5
36E
330
365
100
AcDbEntity
  8
0
  6
Continuous
 62
     7
370
    15
100
AcDbLine
 10
1329.012356149869
 20
1635.449374471733
 30
0.0
 11
1329.012356149869
 21
1633.949374471733
 31
0.0
  0
LINE
  5
36F
330
365
100
AcDbEntity
  8
0
  6
Continuous
 62
     7
370
    15
100
AcDbLine
 10
1329.012356149869
 20
1635.449374471733
 30
0.0
 11
1344.012356149869
 21
1635.449374471733
 31
0.0
  0
LINE
  5
370
330
365
100
AcDbEntity
  8
0
  6
Continuous
 62
     7
370
    15
100
AcDbLine
 10
1329.012356149869
 20
1633.949374471733
 30
0.0
 11
1344.012356149869
 21
1633.949374471733
 31
0.0
  0
LINE
  5
371
330
365
100
AcDbEntity
  8
0
  6
Continuous
 62
     7
370
    15
100
AcDbLine
 10
1326.512356149869
 20
1633.949374471733
 30
0.0
 11
1326.512356149869
 21
1635.449374471733
 31
0.0
  0
LINE
  5
372
330
365
100
AcDbEntity
  8
0
  6
Continuous
 62
     7
370
    15
100
AcDbLine
 10
1326.512356149869
 20
1635.449374471733
 30
0.0
 11
1329.012356149869
 21
1635.449374471733
 31
0.0
  0
LINE
  5
373
330
365
100
AcDbEntity
  8
0
  6
Continuous
 62
     7
370
    15
100
AcDbLine
 10
1329.012356149869
 20
1633.949374471733
 30
0.0
 11
1326.512356149869
 21
1633.949374471733
 31
0.0
  0
LINE
  5
374
330
365
100
AcDbEntity
  8
0
  6
Continuous
 62
     7
370
    15
100
AcDbLine
 10
1326.512356149869
 20
1636.357129326245
 30
0.0
 11
1346.512356149869
 21
1636.357129326245
 31
0.0
  0
LINE
  5
375
330
365
100
AcDbEntity
  8
0
  6
Continuous
 62
     7
370
    15
100
AcDbLine
 10
1326.512356149869
 20
1636.357129326245
 30
0.0
 11
1326.512356149869
 21
1635.449374471733
 31
0.0
  0
LINE
  5
376
330
365
100
AcDbEntity
  8
0
  6
Continuous
 62
     7
370
    15
100
AcDbLine
 10
1346.512356149869
 20
1636.357129326245
 30
0.0
 11
1346.512356149869
 21
1635.449374471733
 31
0.0
  0
LINE
  5
377
330
365
100
AcDbEntity
  8
0
  6
Continuous
 62
     7
370
    15
100
AcDbLine
 10
1326.512356149869
 20
1651.969707011486
 30
0.0
 11
1346.512356149869
 21
1651.969707011486
 31
0.0
  0
LINE
  5
378
330
365
100
AcDbEntity
  8
0
  6
Continuous
 62
     7
370
    15
100
AcDbLine
 10
1326.512356149869
 20
1651.969707011486
 30
0.0
 11
1326.512356149869
 21
1636.357129326245
 31
0.0
  0
LINE
  5
379
330
365
100
AcDbEntity
  8
0
  6
Continuous
 62
     7
370
    15
100
AcDbLine
 10
1346.512356149869
 20
1651.969707011486
 30
0.0
 11
1346.512356149869
 21
1636.357129326245
 31
0.0
  0
LINE
  5
37A
330
365
100
AcDbEntity
  8
0
  6
Continuous
 62
     7
370
    15
100
AcDbLine
 10
1326.512356149869
 20
1656.253490147187
 30
0.0
 11
1346.512356149869
 21
1656.253490147187
 31
0.0
  0
LINE
  5
37B
330
365
100
AcDbEntity
  8
0
  6
Continuous
 62
     7
370
    15
100
AcDbLine
 10
1326.512356149869
 20
1651.969707011486
 30
0.0
 11
1326.512356149869
 21
1656.253490147187
 31
0.0
  0
LINE
  5
37C
330
365
100
AcDbEntity
  8
0
  6
Continuous
 62
     7
370
    15
100
AcDbLine
 10
1346.512356149869
 20
1651.969707011486
 30
0.0
 11
1346.512356149869
 21
1656.253490147187
 31
0.0
  0
LINE
  5
37D
330
365
100
AcDbEntity
  8
0
  6
Continuous
 62
     7
370
    15
100
AcDbLine
 10
1326.512356149869
 20
1672.550711255635
 30
0.0
 11
1346.512356149869
 21
1672.550711255635
 31
0.0
  0
LWPOLYLINE
  5
37E
330
365
100
AcDbEntity
  8
0
  6
Continuous
 62
     7
370
    15
100
AcDbPolyline
 90
       42
 70
   128
 43
0.0
 10
1336.512356149869
 20
1665.554582043236
 10
1336.909244288839
 20
1665.541728087221
 10
1337.296829706217
 20
1665.503467505011
 10
1337.666027728323
 20
1665.440697092226
 10
1338.008184666438
 20
1665.354888134138
 10
1338.315280651929
 20
1665.248051919997
 10
1338.58011761518
 20
1665.122692600112
 10
1338.796488002238
 20
1664.981748490693
 10
1338.959320274616
 20
1664.828523202204
 10
1339.064797781861
 20
1664.666608205541
 10
1339.110448220601
 20
1664.499798650992
 10
1339.095201583244
 20
1664.332004413136
 10
1339.019415238048
 20
1664.16715844669
 10
1338.884865552709
 20
1664.009124601392
 10
1338.694706257812
 20
1663.861607056633
 10
1338.45339452606
 20
1663.728063498631
 10
1338.166586499919
 20
1663.6116240752
 10
1337.841004716432
 20
1663.515018027736
 10
1337.484280536655
 20
1663.440509720111
 10
1337.104775273017
 20
1663.389845563906
 10
1336.711384207244
 20
1663.364213084001
 10
1336.313328092494
 20
1663.364213084001
 10
1335.919937026721
 20
1663.389845563906
 10
1335.540431763083
 20
1663.440509720111
 10
1335.183707583307
 20
1663.515018027736
 10
1334.85812579982
 20
1663.6116240752
 10
1334.571317773678
 20
1663.728063498631
 10
1334.330006041926
 20
1663.861607056633
 10
1334.13984674703
 20
1664.009124601392
 10
1334.005297061691
 20
1664.16715844669
 10
1333.929510716494
 20
1664.332004413136
 10
1333.914264079137
 20
1664.499798650992
 10
1333.959914517877
 20
1664.666608205541
 10
1334.065392025122
 20
1664.828523202204
 10
1334.228224297501
 20
1664.981748490693
 10
1334.444594684558
 20
1665.122692600112
 10
1334.70943164781
 20
1665.248051919997
 10
1335.016527633301
 20
1665.354888134138
 10
1335.358684571415
 20
1665.440697092226
 10
1335.727882593522
 20
1665.503467505011
 10
1336.1154680109
 20
1665.541728087221
 10
1336.512356149869
 20
1665.554582043236
  0
LINE
  5
37F
330
365
100
AcDbEntity
  8
0
  6
Continuous
 62
     7
370
    15
100
AcDbLine
 10
1326.512356149869
 20
1672.550711255635
 30
0.0
 11
1326.512356149869
 21
1656.253490147187
 31
0.0
  0
LINE
  5
380
330
365
100
AcDbEntity
  8
0
  6
Continuous
 62
     7
370
    15
100
AcDbLine
 10
1346.512356149869
 20
1672.550711255635
 30
0.0
 11
1346.512356149869
 21
1656.253490147187
 31
0.0
  0
LINE
  5
381
330
365
100
AcDbEntity
  8
0
  6
Continuous
 62
     7
370
    15
100
AcDbLine
 10
1326.512356149869
 20
1672.550711255635
 30
0.0
 11
1326.512356149869
 21
1673.153596938605
 31
0.0
  0
LINE
  5
382
330
365
100
AcDbEntity
  8
0
  6
Continuous
 62
     7
370
    15
100
AcDbLine
 10
1346.512356149869
 20
1672.550711255635
 30
0.0
 11
1346.512356149869
 21
1673.153596938605
 31
0.0
  0
LWPOLYLINE
  5
383
330
365
100
AcDbEntity
  8
0
  6
Continuous
 62
     8
370
    15
100
AcDbPolyline
 90
       11
 70
   128
 43
0.0
 10
1336.512356149869
 20
1664.890325912694
 10
1336.147694976769
 20
1664.876867530396
 10
1335.794113848886
 20
1664.836901309639
 10
1335.462356149869
 20
1664.771641603815
 10
1335.162502169527
 20
1664.683071296063
 10
1334.90366281932
 20
1664.573881550367
 10
1334.693702801922
 20
1664.447390041895
 10
1334.539001646219
 20
1664.307440151126
 10
1334.444259868544
 20
1664.158284184671
 10
1334.412356149869
 20
1664.004454171096
 10
1334.412365674876
 20
1664.001786032673
  0
LWPOLYLINE
  5
384
330
365
100
AcDbEntity
  8
0
  6
Continuous
 62
     8
370
    15
100
AcDbPolyline
 90
       10
 70
   128
 43
0.0
 10
1338.612338756964
 20
1664.008059636762
 10
1338.580452431195
 20
1664.158284184671
 10
1338.48571065352
 20
1664.307440151126
 10
1338.331009497817
 20
1664.447390041895
 10
1338.121049480419
 20
1664.573881550367
 10
1337.862210130211
 20
1664.683071296063
 10
1337.562356149869
 20
1664.771641603815
 10
1337.230598450853
 20
1664.836901309639
 10
1336.87701732297
 20
1664.876867530396
 10
1336.512356149869
 20
1664.890325912694
  0
ENDBLK
  5
367
330
365
100
AcDbEntity
  8
0
100
AcDbBlockEnd
  0
BLOCK
  5
387
330
386
100
AcDbEntity
  8
0
100
AcDbBlockBegin
  2
4
 70
     0
 10
0.0
 20
0.0
 30
0.0
  3
4
  1

  0
SPLINE
  5
389
330
386
100
AcDbEntity
  8
0
  6
Continuous
 62
     7
370
    15
100
AcDbSpline
210
0.0
220
0.0
230
1.0
 70
     8
 71
     3
 72
    28
 73
    24
 74
     0
 42
0.0000000001
 43
0.0000000001
 40
0.0
 40
0.0
 40
0.0
 40
0.0
 40
0.0168373456796649
 40
0.0716063275523298
 40
0.1258522112494503
 40
0.1781774355057877
 40
0.2288385219466824
 40
0.2784967066713046
 40
0.3276549358221382
 40
0.3766038876240868
 40
0.4254784083232334
 40
0.4743209890550303
 40
0.5231425164836794
 40
0.5719212747144378
 40
0.6206144974143604
 40
0.6692035704721172
 40
0.7177072047054974
 40
0.7661856532283348
 40
0.8147892949272051
 40
0.8638179570980407
 40
0.9137537688620327
 40
0.9652243118359535
 40
1.0
 40
1.0
 40
1.0
 40
1.0
 10
1528.681485631484
 20
1657.022303527836
 30
0.0
 10
1528.672016731388
 20
1656.999851789784
 30
0.0
 10
1528.631747132203
 20
1656.90436841968
 30
0.0
 10
1528.513095768087
 20
1656.761587024911
 30
0.0
 10
1528.325264997136
 20
1656.598809681305
 30
0.0
 10
1528.093494140827
 20
1656.472814924026
 30
0.0
 10
1527.830530550158
 20
1656.3853993072
 30
0.0
 10
1527.542367176375
 20
1656.338768403003
 30
0.0
 10
1527.236005451215
 20
1656.333817071917
 30
0.0
 10
1526.918762243903
 20
1656.371052391262
 30
0.0
 10
1526.598764819892
 20
1656.449963924982
 30
0.0
 10
1526.284472264679
 20
1656.568827272893
 30
0.0
 10
1525.984319037303
 20
1656.72462281349
 30
0.0
 10
1525.706371512278
 20
1656.913070651297
 30
0.0
 10
1525.45799376884
 20
1657.128724786316
 30
0.0
 10
1525.245489745099
 20
1657.365185527677
 30
0.0
 10
1525.073844599712
 20
1657.615370766577
 30
0.0
 10
1524.946447992998
 20
1657.871900068928
 30
0.0
 10
1524.865196331749
 20
1658.127512397086
 30
0.0
 10
1524.82975858879
 20
1658.376273084985
 30
0.0
 10
1524.841648436157
 20
1658.612541614491
 30
0.0
 10
1524.886388518516
 20
1658.81076322926
 30
0.0
 10
1524.946296127928
 20
1658.919808492683
 30
0.0
 10
1524.970451714973
 20
1658.963777069936
 30
0.0
  0
LINE
  5
38A
330
386
100
AcDbEntity
  8
0
  6
Continuous
 62
     7
370
    15
100
AcDbLine
 10
1517.897509636736
 20
1677.685558434481
 30
0.0
 11
1503.755374013005
 21
1669.521477316254
 31
0.0
  0
LINE
  5
38B
330
386
100
AcDbEntity
  8
0
  6
Continuous
 62
     7
370
    15
100
AcDbLine
 10
1502.156649875143
 20
1640.12181551292
 30
0.0
 11
1516.298785498874
 21
1648.285896631147
 31
0.0
  0
ARC
  5
38C
330
386
100
AcDbEntity
  8
0
  6
Continuous
 62
     7
370
    15
100
AcDbCircle
 10
1501.172467645333
 20
1641.816680496954
 30
0.0
 40
0.4509591855642141
100
AcDbArc
 50
231.626230007154
 51
359.5968820564833
  0
LINE
  5
38D
330
386
100
AcDbEntity
  8
0
  6
Continuous
 62
     7
370
    15
100
AcDbLine
 10
1501.623415669348
 20
1641.81350769363
 30
0.0
 11
1502.827571439805
 21
1667.650963253426
 31
0.0
  0
LWPOLYLINE
  5
38E
330
386
100
AcDbEntity
  8
0
  6
Continuous
 62
     7
370
    15
100
AcDbPolyline
 90
       18
 70
   128
 43
0.0
 10
1507.596181419106
 20
1667.88795119818
 10
1507.254501631634
 20
1668.282424740265
 10
1506.894817523507
 20
1668.638590353576
 10
1506.522312648511
 20
1668.951315190785
 10
1506.14235532571
 20
1669.216092447236
 10
1505.760421274423
 20
1669.429106310334
 10
1505.382014701402
 20
1669.58728695077
 10
1505.01258897748
 20
1669.688354763083
 10
1504.657468046826
 20
1669.730853217977
 10
1504.32176970142
 20
1669.714169852954
 10
1504.010331826479
 20
1669.638545098766
 10
1503.727642679723
 20
1669.505068814462
 10
1503.477776209276
 20
1669.315664580995
 10
1503.264333342339
 20
1669.073061979708
 10
1503.090390090766
 20
1668.780757255235
 10
1502.958453221412
 20
1668.442962929692
 10
1502.870424130094
 20
1668.064547094317
 10
1502.827571439805
 20
1667.650963253426
  0
LINE
  5
38F
330
386
100
AcDbEntity
  8
0
  6
Continuous
 62
     7
370
    15
100
AcDbLine
 10
1507.596181419106
 20
1667.88795119818
 30
0.0
 11
1532.364445501681
 21
1640.282190538246
 31
0.0
  0
ARC
  5
390
330
386
100
AcDbEntity
  8
0
  6
Continuous
 62
     7
370
    15
100
AcDbCircle
 10
1525.642615871281
 20
1634.759915543378
 30
0.0
 40
8.699339900191626
100
AcDbArc
 50
6.006919354948502
 51
39.40459006723079
  0
LINE
  5
391
330
386
100
AcDbEntity
  8
0
  6
Continuous
 62
     7
370
    15
100
AcDbLine
 10
1534.294189998632
 20
1635.670288993124
 30
0.0
 11
1535.260043807575
 21
1622.364406598814
 31
0.0
  0
ARC
  5
392
330
386
100
AcDbEntity
  8
0
  6
Continuous
 62
     7
370
    15
100
AcDbCircle
 10
1537.00778105765
 20
1622.653546940631
 30
0.0
 40
1.771493051796906
100
AcDbArc
 50
189.3937559457877
 51
235.5469794378515
  0
LINE
  5
393
330
386
100
AcDbEntity
  8
0
  6
Continuous
 62
     7
370
    15
100
AcDbLine
 10
1536.005593748308
 20
1621.192790893387
 30
0.0
 11
1544.124982064274
 21
1616.505567788928
 31
0.0
  0
LINE
  5
394
330
386
100
AcDbEntity
  8
0
  6
Continuous
 62
     7
370
    15
100
AcDbLine
 10
1544.124982064275
 20
1615.2807565711
 30
0.0
 11
1544.124982064274
 21
1616.505567788928
 31
0.0
  0
LINE
  5
395
330
386
100
AcDbEntity
  8
0
  6
Continuous
 62
     7
370
    15
100
AcDbLine
 10
1544.124982064275
 20
1615.2807565711
 30
0.0
 11
1536.005593748308
 21
1619.967979675558
 31
0.0
  0
ARC
  5
396
330
386
100
AcDbEntity
  8
0
  6
Continuous
 62
     7
370
    15
100
AcDbCircle
 10
1538.246098254788
 20
1623.370348123577
 30
0.0
 40
4.073815349231282
100
AcDbArc
 50
187.0884517567644
 51
236.6345689177076
  0
LINE
  5
397
330
386
100
AcDbEntity
  8
0
  6
Continuous
 62
     7
370
    15
100
AcDbLine
 10
1534.203419767971
 20
1622.867633341754
 30
0.0
 11
1533.237565959029
 21
1636.173515736065
 31
0.0
  0
ARC
  5
398
330
386
100
AcDbEntity
  8
0
  6
Continuous
 62
     7
370
    15
100
AcDbCircle
 10
1526.951884170355
 20
1635.514092222888
 30
0.0
 40
6.320176810674937
100
AcDbArc
 50
5.988926125409718
 51
39.42258329677216
  0
LINE
  5
399
330
386
100
AcDbEntity
  8
0
  6
Continuous
 62
     7
370
    15
100
AcDbLine
 10
1531.834115415791
 20
1639.527625950701
 30
0.0
 11
1507.065851333216
 21
1667.133386610634
 31
0.0
  0
LWPOLYLINE
  5
39A
330
386
100
AcDbEntity
  8
0
  6
Continuous
 62
     7
370
    15
100
AcDbPolyline
 90
       15
 70
   128
 43
0.0
 10
1507.065851333216
 20
1667.133386610634
 10
1506.787576362586
 20
1667.449522256168
 10
1506.492685605251
 20
1667.726894117708
 10
1506.187441758818
 20
1667.959611552535
 10
1505.878327393043
 20
1668.142732259523
 10
1505.571907277253
 20
1668.272367240512
 10
1505.274688962049
 20
1668.345763392312
 10
1504.99298457619
 20
1668.361361975312
 10
1504.732776773722
 20
1668.31883171698
 10
1504.499591678272
 20
1668.219075847206
 10
1504.298381522834
 20
1668.064212916102
 10
1504.13341947748
 20
1667.857531801612
 10
1504.008208898557
 20
1667.603421862468
 10
1503.925408926687
 20
1667.307279719849
 10
1503.886778013682
 20
1666.975394647465
  0
LINE
  5
39B
330
386
100
AcDbEntity
  8
0
  6
Continuous
 62
     7
370
    15
100
AcDbLine
 10
1503.886778013682
 20
1666.975394647465
 30
0.0
 11
1502.682622243226
 21
1641.137939087665
 31
0.0
  0
ARC
  5
39C
330
386
100
AcDbEntity
  8
0
  6
Continuous
 62
     7
370
    15
100
AcDbCircle
 10
1501.583133791172
 20
1641.094932870833
 30
0.0
 40
1.100329219318584
100
AcDbArc
 50
231.123379530056
 51
2.239968247710017
  0
LINE
  5
39D
330
386
100
AcDbEntity
  8
0
  6
Continuous
 62
     7
370
    15
100
AcDbLine
 10
1500.892517170387
 20
1640.23832731751
 30
0.0
 11
1492.791391632417
 21
1644.915007544643
 31
0.0
  0
LINE
  5
39E
330
386
100
AcDbEntity
  8
0
  6
Continuous
 62
     7
370
    15
100
AcDbLine
 10
1492.791391632417
 20
1646.139818762472
 30
0.0
 11
1492.791391632417
 21
1644.915007544643
 31
0.0
  0
LINE
  5
39F
330
386
100
AcDbEntity
  8
0
  6
Continuous
 62
     7
370
    15
100
AcDbLine
 10
1492.791391632417
 20
1646.139818762472
 30
0.0
 11
1500.892517170387
 21
1641.463138535339
 31
0.0
  0
LINE
  5
3A0
330
386
100
AcDbEntity
  8
0
  6
Continuous
 62
     7
370
    15
100
AcDbLine
 10
1532.364445501681
 20
1640.282190538246
 30
0.0
 11
1546.506581125411
 21
1648.446271656474
 31
0.0
  0
LINE
  5
3A1
330
386
100
AcDbEntity
  8
0
  6
Continuous
 62
     7
370
    15
100
AcDbLine
 10
1507.596181419106
 20
1667.88795119818
 30
0.0
 11
1521.738317042837
 21
1676.052032316407
 31
0.0
  0
LINE
  5
3A2
330
386
100
AcDbEntity
  8
0
  6
Continuous
 62
     7
370
    15
100
AcDbLine
 10
1521.738317042837
 20
1676.052032316407
 30
0.0
 11
1546.506581125411
 21
1648.446271656474
 31
0.0
  0
LWPOLYLINE
  5
3A3
330
386
100
AcDbEntity
  8
0
  6
Continuous
 62
     7
370
    15
100
AcDbPolyline
 90
       42
 70
   128
 43
0.0
 10
1525.299857988957
 20
1660.119292346746
 10
1525.600035526547
 20
1660.259530459311
 10
1525.932247643383
 20
1660.352935038367
 10
1526.288707569014
 20
1660.397316759748
 10
1526.661060184905
 20
1660.391635353519
 10
1527.040577861332
 20
1660.336023987029
 10
1527.418365025623
 20
1660.231786143573
 10
1527.785566666844
 20
1660.081365069855
 10
1528.133575889751
 20
1659.888286508351
 10
1528.454235653119
 20
1659.657076056896
 10
1528.740029963872
 20
1659.393153092509
 10
1528.984260045594
 20
1659.102703745783
 10
1529.181201352169
 20
1658.792535903233
 10
1529.326237746293
 20
1658.469919636202
 10
1529.415969697812
 20
1658.142416796551
 10
1529.448293965837
 20
1657.817703773265
 10
1529.422452896922
 20
1657.503391564395
 10
1529.33905218382
 20
1657.206847381718
 10
1529.20004666856
 20
1656.935021969537
 10
1529.008694522603
 20
1656.694286685124
 10
1528.769480878069
 20
1656.490284159509
 10
1528.488012700036
 20
1656.327796038988
 10
1528.170887364038
 20
1656.210630907387
 10
1527.825538019166
 20
1656.141535016086
 10
1527.46005936136
 20
1656.122127914215
 10
1527.083017900593
 20
1656.152864487792
 10
1526.70325116914
 20
1656.233024297584
 10
1526.329660577312
 20
1656.36072846559
 10
1525.97100277194
 20
1656.532983714348
 10
1525.635684387997
 20
1656.745752526825
 10
1525.331565004201
 20
1656.994047782391
 10
1525.065772921148
 20
1657.272049650701
 10
1524.84453807999
 20
1657.573242003584
 10
1524.673046037894
 20
1657.890565147568
 10
1524.555316422976
 20
1658.216581297109
 10
1524.494108717627
 20
1658.543648909979
 10
1524.490857578584
 20
1658.864101798544
 10
1524.54563920979
 20
1659.170428818697
 10
1524.65716957624
 20
1659.455449924719
 10
1524.822834500674
 20
1659.712484463454
 10
1525.038750937673
 20
1659.935507763171
 10
1525.299857988957
 20
1660.119292346746
  0
LINE
  5
3A4
330
386
100
AcDbEntity
  8
0
  6
Continuous
 62
     7
370
    15
100
AcDbLine
 10
1534.294189998632
 20
1635.670288993124
 30
0.0
 11
1548.436325622363
 21
1643.834370111351
 31
0.0
  0
ARC
  5
3A5
330
386
100
AcDbEntity
  8
0
  6
Continuous
 62
     7
370
    15
100
AcDbCircle
 10
1539.784751495011
 20
1642.923996661606
 30
0.0
 40
8.699339900191942
100
AcDbArc
 50
6.006919354948502
 51
39.40459006723079
  0
LINE
  5
3A6
330
386
100
AcDbEntity
  8
0
  6
Continuous
 62
     7
370
    15
100
AcDbLine
 10
1535.260043807575
 20
1622.364406598814
 30
0.0
 11
1549.402179431306
 21
1630.528487717041
 31
0.0
  0
LINE
  5
3A7
330
386
100
AcDbEntity
  8
0
  6
Continuous
 62
     7
370
    15
100
AcDbLine
 10
1548.436325622363
 20
1643.834370111351
 30
0.0
 11
1549.402179431306
 21
1630.528487717041
 31
0.0
  0
LINE
  5
3A8
330
386
100
AcDbEntity
  8
0
  6
Continuous
 62
     7
370
    15
100
AcDbLine
 10
1547.660515970207
 20
1616.505567788928
 30
0.0
 11
1547.660515970207
 21
1615.2807565711
 31
0.0
  0
LINE
  5
3A9
330
386
100
AcDbEntity
  8
0
  6
Continuous
 62
     7
370
    15
100
AcDbLine
 10
1547.660515970207
 20
1615.2807565711
 30
0.0
 11
1544.124982064275
 21
1615.2807565711
 31
0.0
  0
LINE
  5
3AA
330
386
100
AcDbEntity
  8
0
  6
Continuous
 62
     7
370
    15
100
AcDbLine
 10
1544.124982064274
 20
1616.505567788928
 30
0.0
 11
1547.660515970207
 21
1616.505567788928
 31
0.0
  0
LINE
  5
3AB
330
386
100
AcDbEntity
  8
0
  6
Continuous
 62
     7
370
    15
100
AcDbLine
 10
1536.005593748308
 20
1621.192790893387
 30
0.0
 11
1550.147729372039
 21
1629.356872011614
 31
0.0
  0
LINE
  5
3AC
330
386
100
AcDbEntity
  8
0
  6
Continuous
 62
     7
370
    15
100
AcDbLine
 10
1558.267117688005
 20
1622.628628627599
 30
0.0
 11
1558.267117688005
 21
1624.669648907155
 31
0.0
  0
LINE
  5
3AD
330
386
100
AcDbEntity
  8
0
  6
Continuous
 62
     7
370
    15
100
AcDbLine
 10
1547.660515970207
 20
1616.505567788928
 30
0.0
 11
1558.267117688005
 21
1622.628628627599
 31
0.0
  0
LINE
  5
3AE
330
386
100
AcDbEntity
  8
0
  6
Continuous
 62
     7
370
    15
100
AcDbLine
 10
1550.418232416834
 20
1623.771599984151
 30
0.0
 11
1549.852546991885
 21
1624.098163228878
 31
0.0
  0
LWPOLYLINE
  5
3AF
330
386
100
AcDbEntity
  8
0
  6
Continuous
 62
     7
370
    15
100
AcDbPolyline
 90
       24
 70
   128
 43
0.0
 10
1549.852546991885
 20
1624.098163228878
 10
1549.507931179806
 20
1624.271632070729
 10
1549.125608502457
 20
1624.416395884419
 10
1548.712700907934
 20
1624.529757994002
 10
1548.276900083473
 20
1624.609606677866
 10
1547.826324173866
 20
1624.65445450611
 10
1547.369366555787
 20
1624.66346604855
 10
1546.914539485064
 20
1624.636473437201
 10
1546.470315529459
 20
1624.573979493339
 10
1546.04496974076
 20
1624.477148360896
 10
1545.646425506225
 20
1624.347783820659
 10
1545.28210695087
 20
1624.188295689243
 10
1544.958800640064
 20
1624.001654928775
 10
1544.682529158657
 20
1623.791338303483
 10
1544.458438921623
 20
1623.561263614164
 10
1544.290704306083
 20
1623.315716716961
 10
1544.182449890558
 20
1623.059271685975
 10
1544.135692249984
 20
1622.796705606923
 10
1544.151302390736
 20
1622.532909589062
 10
1544.228989525428
 20
1622.272797653085
 10
1544.367306489729
 20
1622.021215192206
 10
1544.563676700301
 20
1621.782848711662
 10
1544.814442151667
 20
1621.562138527976
 10
1545.114931557935
 20
1621.363196054273
  0
LINE
  5
3B0
330
386
100
AcDbEntity
  8
0
  6
Continuous
 62
     7
370
    15
100
AcDbLine
 10
1545.114931557935
 20
1621.363196054273
 30
0.0
 11
1545.680616982885
 21
1621.036632809544
 31
0.0
  0
LWPOLYLINE
  5
3B1
330
386
100
AcDbEntity
  8
0
  6
Continuous
 62
     7
370
    15
100
AcDbPolyline
 90
       24
 70
   128
 43
0.0
 10
1545.680616982885
 20
1621.036632809544
 10
1546.025232794964
 20
1620.863163967692
 10
1546.407555472313
 20
1620.718400154003
 10
1546.820463066836
 20
1620.605038044421
 10
1547.256263891297
 20
1620.525189360557
 10
1547.706839800904
 20
1620.480341532312
 10
1548.163797418983
 20
1620.471329989872
 10
1548.618624489705
 20
1620.498322601221
 10
1549.062848445311
 20
1620.560816545083
 10
1549.48819423401
 20
1620.657647677526
 10
1549.886738468545
 20
1620.787012217764
 10
1550.2510570239
 20
1620.94650034918
 10
1550.574363334706
 20
1621.133141109648
 10
1550.850634816113
 20
1621.343457734939
 10
1551.074725053147
 20
1621.573532424258
 10
1551.242459668687
 20
1621.819079321461
 10
1551.350714084212
 20
1622.075524352447
 10
1551.397471724786
 20
1622.338090431499
 10
1551.381861584034
 20
1622.60188644936
 10
1551.304174449343
 20
1622.861998385338
 10
1551.165857485041
 20
1623.113580846216
 10
1550.969487274469
 20
1623.35194732676
 10
1550.718721823103
 20
1623.572657510446
 10
1550.418232416834
 20
1623.771599984151
  0
LINE
  5
3B2
330
386
100
AcDbEntity
  8
0
  6
Continuous
 62
     7
370
    15
100
AcDbLine
 10
1550.147729372039
 20
1629.356872011614
 30
0.0
 11
1558.267117688005
 21
1624.669648907155
 31
0.0
  0
LINE
  5
3B3
330
386
100
AcDbEntity
  8
0
  6
Continuous
 62
     7
370
    15
100
AcDbLine
 10
1558.267117688006
 20
1621.40381740977
 30
0.0
 11
1558.267117688005
 21
1622.628628627599
 31
0.0
  0
LINE
  5
3B4
330
386
100
AcDbEntity
  8
0
  6
Continuous
 62
     7
370
    15
100
AcDbLine
 10
1547.660515970207
 20
1615.2807565711
 30
0.0
 11
1558.267117688006
 21
1621.40381740977
 31
0.0
  0
LINE
  5
3B5
330
386
100
AcDbEntity
  8
0
  6
Continuous
 62
     7
370
    15
100
AcDbLine
 10
1550.418232416834
 20
1622.546788766322
 30
0.0
 11
1550.418232416834
 21
1623.771599984151
 31
0.0
  0
ARC
  5
3B6
330
386
100
AcDbEntity
  8
0
  6
Continuous
 62
     7
370
    15
100
AcDbCircle
 10
1549.430435768614
 20
1620.678022785155
 30
0.0
 40
2.113771158522938
100
AcDbArc
 50
31.7943882249911
 51
62.1398617790057
  0
LINE
  5
3B7
330
386
100
AcDbEntity
  8
0
  6
Continuous
 62
     7
370
    15
100
AcDbLine
 10
1528.676914433594
 20
1657.001175390321
 30
0.0
 11
1528.688340236151
 21
1657.02348447408
 31
0.0
  0
ARC
  5
3B8
330
386
100
AcDbEntity
  8
0
  6
Continuous
 62
     7
370
    15
100
AcDbCircle
 10
1551.149916681381
 20
1630.817628058857
 30
0.0
 40
1.771493051796977
100
AcDbArc
 50
189.3937559457877
 51
235.5469794378515
  0
ARC
  5
3B9
330
386
100
AcDbEntity
  8
0
  6
Continuous
 62
     7
370
    15
100
AcDbCircle
 10
1525.709169937006
 20
1655.865940697519
 30
0.0
 40
2.417332768944623
100
AcDbArc
 50
14.13916664533351
 51
110.5267339558162
  0
LINE
  5
3BA
330
386
100
AcDbEntity
  8
0
  6
Continuous
 62
     7
370
    15
100
AcDbLine
 10
1549.852546991885
 20
1622.873352011051
 30
0.0
 11
1549.852546991885
 21
1624.098163228878
 31
0.0
  0
ARC
  5
3BB
330
386
100
AcDbEntity
  8
0
  6
Continuous
 62
     7
370
    15
100
AcDbCircle
 10
1547.561900300565
 20
1618.951205674982
 30
0.0
 40
4.542058360038643
100
AcDbArc
 50
59.71383822766156
 51
135.7911351114126
  0
LWPOLYLINE
  5
3BC
330
386
100
AcDbEntity
  8
0
  6
Continuous
 62
     7
370
    15
100
AcDbPolyline
 90
       12
 70
   128
 43
0.0
 10
1521.738317042837
 20
1676.052032316407
 10
1521.396637255365
 20
1676.446505858492
 10
1521.036953147238
 20
1676.802671471802
 10
1520.664448272242
 20
1677.115396309012
 10
1520.284490949442
 20
1677.380173565463
 10
1519.902556898154
 20
1677.593187428561
 10
1519.524150325133
 20
1677.751368068997
 10
1519.154724601211
 20
1677.852435881311
 10
1518.799603670557
 20
1677.894934336204
 10
1518.463905325151
 20
1677.878250971182
 10
1518.152467450209
 20
1677.802626216993
 10
1517.897509636736
 20
1677.685558434481
  0
LINE
  5
3BD
330
386
100
AcDbEntity
  8
0
  6
Continuous
 62
     7
370
    15
100
AcDbLine
 10
1549.852546991885
 20
1622.873352011051
 30
0.0
 11
1550.418232416834
 21
1622.546788766322
 31
0.0
  0
LINE
  5
3BE
330
386
100
AcDbEntity
  8
0
  6
Continuous
 62
     7
370
    15
100
AcDbLine
 10
1502.682622243226
 20
1641.137939087665
 30
0.0
 11
1516.824757866956
 21
1649.302020205892
 31
0.0
  0
LINE
  5
3BF
330
386
100
AcDbEntity
  8
0
  6
Continuous
 62
     7
370
    15
100
AcDbLine
 10
1517.132866430624
 20
1655.913076280751
 30
0.0
 11
1516.824757866956
 21
1649.302020205892
 31
0.0
  0
ARC
  5
3C0
330
386
100
AcDbEntity
  8
0
  6
Continuous
 62
     7
370
    15
100
AcDbCircle
 10
1515.619787242124
 20
1649.281554415044
 30
0.0
 40
1.205144412634469
100
AcDbArc
 50
304.2924029106267
 51
0.9730450525392964
  0
LINE
  5
3C1
330
386
100
AcDbEntity
  8
0
  6
Continuous
 62
     7
370
    15
100
AcDbLine
 10
1500.892517170387
 20
1641.463138535339
 30
0.0
 11
1501.62684339334
 21
1641.887056040512
 31
0.0
  0
LINE
  5
3C2
330
386
100
AcDbEntity
  8
0
  6
Continuous
 62
     7
370
    15
100
AcDbLine
 10
1492.791391632417
 20
1648.180839042028
 30
0.0
 11
1492.791391632417
 21
1646.139818762472
 31
0.0
  0
LINE
  5
3C3
330
386
100
AcDbEntity
  8
0
  6
Continuous
 62
     7
370
    15
100
AcDbLine
 10
1492.791391632417
 20
1648.180839042028
 30
0.0
 11
1502.172561294366
 21
1653.596473012861
 31
0.0
  0
LINE
  5
3C4
330
386
100
AcDbEntity
  8
0
  6
Continuous
 62
     7
370
    15
100
AcDbLine
 10
1501.418094362893
 20
1646.629663629565
 30
0.0
 11
1501.836612794518
 21
1646.388058081707
 31
0.0
  0
LWPOLYLINE
  5
3C5
330
386
100
AcDbEntity
  8
0
  6
Continuous
 62
     7
370
    15
100
AcDbPolyline
 90
       15
 70
   128
 43
0.0
 10
1501.985656719129
 20
1649.586079361891
 10
1501.941655565686
 20
1649.569705309886
 10
1501.582774600709
 20
1649.412597598341
 10
1501.264293757228
 20
1649.228742520865
 10
1500.992145730768
 20
1649.021564949683
 10
1500.771400124137
 20
1648.794924210951
 10
1500.606169010322
 20
1648.55304219281
 10
1500.499530332342
 20
1648.300424699601
 10
1500.453470567
 20
1648.041777517251
 10
1500.468847720577
 20
1647.781918753388
 10
1500.545375345795
 20
1647.525689085111
 10
1500.681627877794
 20
1647.277861586336
 10
1500.8750671897
 20
1647.043052814456
 10
1501.122089873136
 20
1646.825636812616
 10
1501.418094362893
 20
1646.629663629565
  0
ARC
  5
3C6
330
386
100
AcDbEntity
  8
0
  6
Continuous
 62
     7
370
    15
100
AcDbCircle
 10
1502.720221483602
 20
1645.926932169271
 30
0.0
 40
2.539473709870435
100
AcDbArc
 50
108.1879840998781
 51
145.5266749046466
  0
ARC
  5
3C7
330
386
100
AcDbEntity
  8
0
  6
Continuous
 62
     8
370
    15
100
AcDbCircle
 10
1526.111232784353
 20
1658.33851721338
 30
0.0
 40
1.306848051555199
100
AcDbArc
 50
119.3208563787357
 51
151.1398614928051
  0
LWPOLYLINE
  5
3C8
330
386
100
AcDbEntity
  8
0
  6
Continuous
 62
     8
370
    15
100
AcDbPolyline
 90
       17
 70
   128
 43
0.0
 10
1528.688340236151
 20
1657.02348447408
 10
1528.726025307915
 20
1657.106454050951
 10
1528.803446309634
 20
1657.378884350915
 10
1528.820528486008
 20
1657.669499449168
 10
1528.776752803751
 20
1657.969469153009
 10
1528.673449364818
 20
1658.269679034778
 10
1528.513756991927
 20
1658.561007369131
 10
1528.302527857019
 20
1658.834602292048
 10
1528.046180050471
 20
1659.082150760242
 10
1527.752502570668
 20
1659.296131138773
 10
1527.430418659224
 20
1659.470041742117
 10
1527.089714672808
 20
1659.598598384596
 10
1526.740742729642
 20
1659.677894937681
 10
1526.39410616563
 20
1659.705522015731
 10
1526.060337357364
 20
1659.68064018396
 10
1525.749577701187
 20
1659.604005464238
 10
1525.471269472
 20
1659.477946363742
  0
LINE
  5
3C9
330
386
100
AcDbEntity
  8
0
  6
Continuous
 62
     8
370
    15
100
AcDbLine
 10
1503.886778013682
 20
1666.975394647465
 30
0.0
 11
1505.894514135938
 21
1668.134436039954
 31
0.0
  0
ENDBLK
  5
388
330
386
100
AcDbEntity
  8
0
100
AcDbBlockEnd
  0
ENDSEC
  0
SECTION
  2
ENTITIES
  0
INSERT
  5
330
330
1F
100
AcDbEntity
  8
0
100
AcDbBlockReference
  2
1
 10
0.0
 20
0.0
 30
0.0
  0
INSERT
  5
364
330
1F
100
AcDbEntity
  8
0
100
AcDbBlockReference
  2
2
 10
0.0
 20
0.0
 30
0.0
  0
INSERT
  5
385
330
1F
100
AcDbEntity
  8
0
100
AcDbBlockReference
  2
3
 10
0.0
 20
0.0
 30
0.0
  0
INSERT
  5
3CA
330
1F
100
AcDbEntity
  8
0
100
AcDbBlockReference
  2
4
 10
0.0
 20
0.0
 30
0.0
  0
ENDSEC
  0
SECTION
  2
OBJECTS
  0
DICTIONARY
  5
C
330
0
100
AcDbDictionary
281
     1
  3
ACAD_COLOR
350
6B
  3
ACAD_GROUP
350
D
  3
ACAD_LAYOUT
350
1A
  3
ACAD_MATERIAL
350
6A
  3
ACAD_MLEADERSTYLE
350
12D
  3
ACAD_MLINESTYLE
350
17
  3
ACAD_PLOTSETTINGS
350
19
  3
ACAD_PLOTSTYLENAME
350
E
  3
ACAD_SCALELIST
350
10C
  3
ACAD_TABLESTYLE
350
7E
  3
ACAD_VISUALSTYLE
350
EF
  3
ACDB_RECOMPOSE_DATA
350
15D
  3
AcDbVariableDictionary
350
5E
  3
DWGPROPS
350
421
  0
DICTIONARY
  5
13C
330
10
100
AcDbDictionary
280
     1
281
     1
  3
ADSK_XREC_LAYER_RECONCILED
360
3CB
  0
DICTIONARY
  5
406
330
331
100
AcDbDictionary
280
     1
281
     1
  3
ACAD_SORTENTS
360
40A
  0
DICTIONARY
  5
6B
102
{ACAD_REACTORS
330
C
102
}
330
C
100
AcDbDictionary
281
     1
  0
DICTIONARY
  5
D
102
{ACAD_REACTORS
330
C
102
}
330
C
100
AcDbDictionary
281
     1
  0
DICTIONARY
  5
1A
102
{ACAD_REACTORS
330
C
102
}
330
C
100
AcDbDictionary
281
     1
  3
Layout1
350
D3
  3
Layout2
350
D7
  3
Model
350
22
  0
DICTIONARY
  5
6A
102
{ACAD_REACTORS
330
C
102
}
330
C
100
AcDbDictionary
281
     1
  3
ByBlock
350
ED
  3
ByLayer
350
EC
  3
Global
350
EE
  0
DICTIONARY
  5
12D
102
{ACAD_REACTORS
330
C
102
}
330
C
100
AcDbDictionary
281
     1
  3
Annotative
350
13B
  3
Standard
350
12E
  0
DICTIONARY
  5
17
102
{ACAD_REACTORS
330
C
102
}
330
C
100
AcDbDictionary
281
     1
  3
Standard
350
18
  0
DICTIONARY
  5
19
102
{ACAD_REACTORS
330
C
102
}
330
C
100
AcDbDictionary
281
     1
  0
ACDBDICTIONARYWDFLT
  5
E
102
{ACAD_REACTORS
330
C
102
}
330
C
100
AcDbDictionary
281
     1
  3
Normal
350
F
100
AcDbDictionaryWithDefault
340
F
  0
DICTIONARY
  5
10C
102
{ACAD_REACTORS
330
C
102
}
330
C
100
AcDbDictionary
281
     1
  3
A0
350
10D
  3
A1
350
188
  3
A2
350
189
  3
A3
350
18A
  3
A4
350
18B
  3
A5
350
18C
  3
A6
350
18D
  3
A7
350
18E
  3
A8
350
18F
  3
A9
350
190
  3
B0
350
191
  3
B1
350
192
  3
B2
350
193
  3
B3
350
194
  3
B4
350
195
  3
B5
350
196
  3
B6
350
197
  3
B7
350
198
  3
B8
350
199
  3
B9
350
19A
  3
C0
350
19B
  3
C1
350
19C
  3
C2
350
19D
  3
C3
350
19E
  3
C4
350
19F
  3
C5
350
1A0
  3
C6
350
1A1
  3
C7
350
1A2
  3
C8
350
1A3
  3
C9
350
1A4
  3
D0
350
1A5
  3
D1
350
1A6
  3
D2
350
1A7
  0
DICTIONARY
  5
7E
102
{ACAD_REACTORS
330
C
102
}
330
C
100
AcDbDictionary
281
     1
  3
Standard
350
7F
  0
DICTIONARY
  5
EF
102
{ACAD_REACTORS
330
C
102
}
330
C
100
AcDbDictionary
281
     1
  3
2dWireframe
350
F5
  3
3D Hidden
350
F7
  3
3dWireframe
350
F6
  3
Basic
350
F4
  3
Brighten
350
FB
  3
ColorChange
350
FF
  3
Conceptual
350
F8
  3
Dim
350
FA
  3
Facepattern
350
FE
  3
Flat
350
F0
  3
FlatWithEdges
350
F1
  3
Gouraud
350
F2
  3
GouraudWithEdges
350
F3
  3
Linepattern
350
FD
  3
Realistic
350
F9
  3
Thicken
350
FC
  0
XRECORD
  5
15D
102
{ACAD_REACTORS
330
C
102
}
330
C
100
AcDbXrecord
280
     1
 90
        1
330
7F
  0
DICTIONARY
  5
5E
102
{ACAD_REACTORS
330
C
102
}
330
C
100
AcDbDictionary
281
     1
  3
CANNOSCALE
350
146
  3
CMLEADERSTYLE
350
145
  3
CTABLESTYLE
350
84
  3
DIMASSOC
350
5F
  3
HIDETEXT
350
63
  3
INDEXCTL
350
41A
  3
LIGHTINGUNITS
350
418
  3
LOFTANG1
350
41D
  3
LOFTANG2
350
41E
  3
LONGITUDE
350
41F
  3
MSLTSCALE
350
417
  3
PSOLHEIGHT
350
41C
  3
PSOLWIDTH
350
41B
  3
SORTENTS
350
419
  0
XRECORD
  5
421
102
{ACAD_REACTORS
330
C
102
}
330
C
100
AcDbXrecord
280
     1
  1
DWGPROPS COOKIE
  2

  3

  4

  6

  7

  8
orhan kara
  9

300
=
301
=
302
=
303
=
304
=
305
=
306
=
307
=
308
=
309
=
 40
0.0012438078703704
 41
2458488.683083808
 42
2459082.589530382
  1

 90
        0
  0
XRECORD
  5
3CB
102
{ACAD_REACTORS
330
13C
102
}
330
13C
100
AcDbXrecord
280
     1
290
     1
  0
SORTENTSTABLE
  5
40A
102
{ACAD_REACTORS
330
406
102
}
330
406
100
AcDbSortentsTable
330
331
331
3FC
  5
400
331
409
  5
3FC
331
3EB
  5
3EB
331
3DE
  5
3DE
331
3D8
  5
3D8
331
3F2
  5
3F2
331
3E5
  5
3E5
331
403
  5
40C
331
3FD
  5
401
331
3EC
  5
3EC
331
3DF
  5
3DF
331
3D9
  5
3D9
331
3F3
  5
3F3
331
3D5
  5
3D5
331
3E6
  5
3E6
331
404
  5
40D
331
3FE
  5
402
331
40B
  5
3F8
331
3ED
  5
3ED
331
3E0
  5
3E0
331
3F4
  5
3F4
331
3D6
  5
3D6
331
3E7
  5
3E7
331
3DA
  5
3DA
331
3FF
  5
403
331
3E1
  5
3E1
331
3EE
  5
3EE
331
40C
  5
3FA
331
3F9
  5
3FD
331
3D7
  5
3D7
331
3E8
  5
3E8
331
3DB
  5
3DB
331
3E2
  5
3E2
331
40D
  5
3F6
331
400
  5
404
331
3EF
  5
3EF
331
3FA
  5
3FE
331
3E9
  5
3E9
331
3DC
  5
3DC
331
3F0
  5
3F0
331
3E3
  5
3E3
331
401
  5
409
331
3FB
  5
3FF
331
3EA
  5
3EA
331
3DD
  5
3DD
331
3E4
  5
3E4
331
402
  5
40B
331
3F1
  5
3F1
  0
LAYOUT
  5
D3
102
{ACAD_XDICTIONARY
360
425
102
}
102
{ACAD_REACTORS
330
1A
102
}
330
1A
100
AcDbPlotSettings
  1

  2
C:\Documents and Settings\basas\Application Data\Autodesk\AutoCAD 2005\R16.1\enu\plotters\Default Windows System Printer.pc3
  4

  6

 40
0.0
 41
0.0
 42
0.0
 43
0.0
 44
0.0
 45
0.0
 46
0.0
 47
0.0
 48
0.0
 49
0.0
140
0.0
141
0.0
142
1.0
143
1.0
 70
   688
 72
     0
 73
     0
 74
     5
  7

 75
    16
147
1.0
148
0.0
149
0.0
100
AcDbLayout
  1
Layout1
 70
     1
 71
     1
 10
0.0
 20
0.0
 11
12.0
 21
9.0
 12
0.0
 22
0.0
 32
0.0
 14
0.0
 24
0.0
 34
0.0
 15
0.0
 25
0.0
 35
0.0
146
0.0
 13
0.0
 23
0.0
 33
0.0
 16
1.0
 26
0.0
 36
0.0
 17
0.0
 27
1.0
 37
0.0
 76
     0
330
D2
  0
LAYOUT
  5
D7
102
{ACAD_XDICTIONARY
360
427
102
}
102
{ACAD_REACTORS
330
1A
102
}
330
1A
100
AcDbPlotSettings
  1

  2
C:\Documents and Settings\basas\Application Data\Autodesk\AutoCAD 2005\R16.1\enu\plotters\Default Windows System Printer.pc3
  4

  6

 40
0.0
 41
0.0
 42
0.0
 43
0.0
 44
0.0
 45
0.0
 46
0.0
 47
0.0
 48
0.0
 49
0.0
140
0.0
141
0.0
142
1.0
143
1.0
 70
   688
 72
     0
 73
     0
 74
     5
  7

 75
    16
147
1.0
148
0.0
149
0.0
100
AcDbLayout
  1
Layout2
 70
     1
 71
     2
 10
0.0
 20
0.0
 11
12.0
 21
9.0
 12
0.0
 22
0.0
 32
0.0
 14
0.0
 24
0.0
 34
0.0
 15
0.0
 25
0.0
 35
0.0
146
0.0
 13
0.0
 23
0.0
 33
0.0
 16
1.0
 26
0.0
 36
0.0
 17
0.0
 27
1.0
 37
0.0
 76
     0
330
D6
  0
LAYOUT
  5
22
102
{ACAD_XDICTIONARY
360
422
102
}
102
{ACAD_REACTORS
330
1A
102
}
330
1A
100
AcDbPlotSettings
  1

  2
none_device
  4
ISO_A4_(210.00_x_297.00_MM)
  6

 40
7.5
 41
20.0
 42
7.5
 43
20.0
 44
210.0
 45
297.0
 46
11.54999923706054
 47
-13.65000009536743
 48
0.0
 49
0.0
140
0.0
141
0.0
142
1.0
143
8.704084754739808
 70
 11952
 72
     1
 73
     0
 74
     0
  7

 75
     0
147
0.1148885871608098
148
0.0
149
0.0
100
AcDbLayout
  1
Model
 70
     1
 71
     0
 10
0.0
 20
0.0
 11
12.0
 21
9.0
 12
0.0
 22
0.0
 32
0.0
 14
0.0
 24
0.0
 34
0.0
 15
0.0
 25
0.0
 35
0.0
146
0.0
 13
0.0
 23
0.0
 33
0.0
 16
1.0
 26
0.0
 36
0.0
 17
0.0
 27
1.0
 37
0.0
 76
     0
330
1F
331
EA
1001
ACAD_PSEXT
1000
None
1000
None
1000
Not applicable
1000
The layout will not be plotted unless a new plotter configuration name is selected.
1070
     0
  0
MATERIAL
  5
ED
102
{ACAD_XDICTIONARY
360
42B
102
}
102
{ACAD_REACTORS
330
6A
102
}
330
6A
100
AcDbMaterial
  1
ByBlock
  0
MATERIAL
  5
EC
102
{ACAD_XDICTIONARY
360
429
102
}
102
{ACAD_REACTORS
330
6A
102
}
330
6A
100
AcDbMaterial
  1
ByLayer
  0
MATERIAL
  5
EE
102
{ACAD_XDICTIONARY
360
173
102
}
102
{ACAD_REACTORS
330
6A
102
}
330
6A
100
AcDbMaterial
  1
Global
 43
0.0007999999797903
 43
0.0
 43
0.0
 43
0.0
 43
0.0
 43
0.0007999999797903
 43
0.0
 43
0.0
 43
0.0
 43
0.0
 43
1.0
 43
0.0
 43
0.0
 43
0.0
 43
0.0
 43
1.0
 49
0.0007999999797903
 49
0.0
 49
0.0
 49
0.0
 49
0.0
 49
0.0007999999797903
 49
0.0
 49
0.0
 49
0.0
 49
0.0
 49
1.0
 49
0.0
 49
0.0
 49
0.0
 49
0.0
 49
1.0
142
0.0007999999797903
142
0.0
142
0.0
142
0.0
142
0.0
142
0.0007999999797903
142
0.0
142
0.0
142
0.0
142
0.0
142
1.0
142
0.0
142
0.0
142
0.0
142
0.0
142
1.0
144
0.0007999999797903
144
0.0
144
0.0
144
0.0
144
0.0
144
0.0007999999797903
144
0.0
144
0.0
144
0.0
144
0.0
144
1.0
144
0.0
144
0.0
144
0.0
144
0.0
144
1.0
1001
ACAD
1070
    -1
1070
     3
1070
     0
1000

1071
        0
1070
     0
  0
MLEADERSTYLE
  5
13B
102
{ACAD_REACTORS
330
12D
102
}
330
12D
100
AcDbMLeaderStyle
170
     2
171
     1
172
     0
 90
        2
 40
0.0
 41
0.0
173
     1
 91
-1056964608
340
14
 92
       -2
290
     1
 42
2.0
291
     1
 43
8.0
  3
Standard
 44
4.0
300

342
11
174
     1
178
     1
175
     1
176
     0
 93
-1056964608
 45
4.0
292
     0
297
     0
 46
4.0
 94
-1056964608
 47
1.0
 49
1.0
140
1.0
293
     1
141
0.0
294
     1
177
     0
142
1.0
295
     0
296
     1
143
3.75
1001
ACAD_MLEADERVER
1070
     2
  0
MLEADERSTYLE
  5
12E
102
{ACAD_REACTORS
330
12D
102
}
330
12D
100
AcDbMLeaderStyle
170
     2
171
     1
172
     0
 90
        2
 40
0.0
 41
0.0
173
     1
 91
-1056964608
340
14
 92
       -2
290
     1
 42
2.0
291
     1
 43
8.0
  3
Standard
 44
4.0
300

342
11
174
     1
178
     1
175
     1
176
     0
 93
-1056964608
 45
4.0
292
     0
297
     0
 46
4.0
 94
-1056964608
 47
1.0
 49
1.0
140
1.0
293
     1
141
0.0
294
     1
177
     0
142
1.0
295
     0
296
     0
143
3.75
1001
ACAD_MLEADERVER
1070
     2
  0
MLINESTYLE
  5
18
102
{ACAD_REACTORS
330
17
102
}
330
17
100
AcDbMlineStyle
  2
STANDARD
 70
     0
  3

 62
   256
 51
90.0
 52
90.0
 71
     2
 49
0.5
 62
   256
  6
BYLAYER
 49
-0.5
 62
   256
  6
BYLAYER
  0
ACDBPLACEHOLDER
  5
F
102
{ACAD_REACTORS
330
E
102
}
330
E
  0
SCALE
  5
10D
102
{ACAD_REACTORS
330
10C
102
}
330
10C
100
AcDbScale
 70
     0
300
1:1
140
1.0
141
1.0
290
     1
  0
SCALE
  5
188
102
{ACAD_REACTORS
330
10C
102
}
330
10C
100
AcDbScale
 70
     0
300
1:2
140
1.0
141
2.0
290
     0
  0
SCALE
  5
189
102
{ACAD_REACTORS
330
10C
102
}
330
10C
100
AcDbScale
 70
     0
300
1:4
140
1.0
141
4.0
290
     0
  0
SCALE
  5
18A
102
{ACAD_REACTORS
330
10C
102
}
330
10C
100
AcDbScale
 70
     0
300
1:5
140
1.0
141
5.0
290
     0
  0
SCALE
  5
18B
102
{ACAD_REACTORS
330
10C
102
}
330
10C
100
AcDbScale
 70
     0
300
1:8
140
1.0
141
8.0
290
     0
  0
SCALE
  5
18C
102
{ACAD_REACTORS
330
10C
102
}
330
10C
100
AcDbScale
 70
     0
300
1:10
140
1.0
141
10.0
290
     0
  0
SCALE
  5
18D
102
{ACAD_REACTORS
330
10C
102
}
330
10C
100
AcDbScale
 70
     0
300
1:16
140
1.0
141
16.0
290
     0
  0
SCALE
  5
18E
102
{ACAD_REACTORS
330
10C
102
}
330
10C
100
AcDbScale
 70
     0
300
1:20
140
1.0
141
20.0
290
     0
  0
SCALE
  5
18F
102
{ACAD_REACTORS
330
10C
102
}
330
10C
100
AcDbScale
 70
     0
300
1:30
140
1.0
141
30.0
290
     0
  0
SCALE
  5
190
102
{ACAD_REACTORS
330
10C
102
}
330
10C
100
AcDbScale
 70
     0
300
1:40
140
1.0
141
40.0
290
     0
  0
SCALE
  5
191
102
{ACAD_REACTORS
330
10C
102
}
330
10C
100
AcDbScale
 70
     0
300
1:50
140
1.0
141
50.0
290
     0
  0
SCALE
  5
192
102
{ACAD_REACTORS
330
10C
102
}
330
10C
100
AcDbScale
 70
     0
300
1:100
140
1.0
141
100.0
290
     0
  0
SCALE
  5
193
102
{ACAD_REACTORS
330
10C
102
}
330
10C
100
AcDbScale
 70
     0
300
2:1
140
2.0
141
1.0
290
     0
  0
SCALE
  5
194
102
{ACAD_REACTORS
330
10C
102
}
330
10C
100
AcDbScale
 70
     0
300
4:1
140
4.0
141
1.0
290
     0
  0
SCALE
  5
195
102
{ACAD_REACTORS
330
10C
102
}
330
10C
100
AcDbScale
 70
     0
300
8:1
140
8.0
141
1.0
290
     0
  0
SCALE
  5
196
102
{ACAD_REACTORS
330
10C
102
}
330
10C
100
AcDbScale
 70
     0
300
10:1
140
10.0
141
1.0
290
     0
  0
SCALE
  5
197
102
{ACAD_REACTORS
330
10C
102
}
330
10C
100
AcDbScale
 70
     0
300
100:1
140
100.0
141
1.0
290
     0
  0
SCALE
  5
198
102
{ACAD_REACTORS
330
10C
102
}
330
10C
100
AcDbScale
 70
     0
300
1/128" = 1'-0"
140
0.0078125
141
12.0
290
     0
  0
SCALE
  5
199
102
{ACAD_REACTORS
330
10C
102
}
330
10C
100
AcDbScale
 70
     0
300
1/64" = 1'-0"
140
0.015625
141
12.0
290
     0
  0
SCALE
  5
19A
102
{ACAD_REACTORS
330
10C
102
}
330
10C
100
AcDbScale
 70
     0
300
1/32" = 1'-0"
140
0.03125
141
12.0
290
     0
  0
SCALE
  5
19B
102
{ACAD_REACTORS
330
10C
102
}
330
10C
100
AcDbScale
 70
     0
300
1/16" = 1'-0"
140
0.0625
141
12.0
290
     0
  0
SCALE
  5
19C
102
{ACAD_REACTORS
330
10C
102
}
330
10C
100
AcDbScale
 70
     0
300
3/32" = 1'-0"
140
0.09375
141
12.0
290
     0
  0
SCALE
  5
19D
102
{ACAD_REACTORS
330
10C
102
}
330
10C
100
AcDbScale
 70
     0
300
1/8" = 1'-0"
140
0.125
141
12.0
290
     0
  0
SCALE
  5
19E
102
{ACAD_REACTORS
330
10C
102
}
330
10C
100
AcDbScale
 70
     0
300
3/16" = 1'-0"
140
0.1875
141
12.0
290
     0
  0
SCALE
  5
19F
102
{ACAD_REACTORS
330
10C
102
}
330
10C
100
AcDbScale
 70
     0
300
1/4" = 1'-0"
140
0.25
141
12.0
290
     0
  0
SCALE
  5
1A0
102
{ACAD_REACTORS
330
10C
102
}
330
10C
100
AcDbScale
 70
     0
300
3/8" = 1'-0"
140
0.375
141
12.0
290
     0
  0
SCALE
  5
1A1
102
{ACAD_REACTORS
330
10C
102
}
330
10C
100
AcDbScale
 70
     0
300
1/2" = 1'-0"
140
0.5
141
12.0
290
     0
  0
SCALE
  5
1A2
102
{ACAD_REACTORS
330
10C
102
}
330
10C
100
AcDbScale
 70
     0
300
3/4" = 1'-0"
140
0.75
141
12.0
290
     0
  0
SCALE
  5
1A3
102
{ACAD_REACTORS
330
10C
102
}
330
10C
100
AcDbScale
 70
     0
300
1" = 1'-0"
140
1.0
141
12.0
290
     0
  0
SCALE
  5
1A4
102
{ACAD_REACTORS
330
10C
102
}
330
10C
100
AcDbScale
 70
     0
300
1-1/2" = 1'-0"
140
1.5
141
12.0
290
     0
  0
SCALE
  5
1A5
102
{ACAD_REACTORS
330
10C
102
}
330
10C
100
AcDbScale
 70
     0
300
3" = 1'-0"
140
3.0
141
12.0
290
     0
  0
SCALE
  5
1A6
102
{ACAD_REACTORS
330
10C
102
}
330
10C
100
AcDbScale
 70
     0
300
6" = 1'-0"
140
6.0
141
12.0
290
     0
  0
SCALE
  5
1A7
102
{ACAD_REACTORS
330
10C
102
}
330
10C
100
AcDbScale
 70
     0
300
1'-0" = 1'-0"
140
12.0
141
12.0
290
     0
  0
TABLESTYLE
  5
7F
102
{ACAD_XDICTIONARY
360
162
102
}
102
{ACAD_REACTORS
330
7E
102
}
330
7E
100
AcDbTableStyle
  3
Standard
 70
     0
 71
     0
 40
1.5
 41
1.5
280
     0
281
     0
  7
Standard
140
4.5
170
     2
 62
     0
 63
     7
283
     0
274
    -2
284
     1
 64
     0
275
    -2
285
     1
 65
     0
276
    -2
286
     1
 66
     0
277
    -2
287
     1
 67
     0
278
    -2
288
     1
 68
     0
279
    -2
289
     1
 69
     0
  7
Standard
140
6.0
170
     5
 62
     0
 63
     7
283
     0
274
    -2
284
     1
 64
     0
275
    -2
285
     1
 65
     0
276
    -2
286
     1
 66
     0
277
    -2
287
     1
 67
     0
278
    -2
288
     1
 68
     0
279
    -2
289
     1
 69
     0
  7
Standard
140
4.5
170
     5
 62
     0
 63
     7
283
     0
274
    -2
284
     1
 64
     0
275
    -2
285
     1
 65
     0
276
    -2
286
     1
 66
     0
277
    -2
287
     1
 67
     0
278
    -2
288
     1
 68
     0
279
    -2
289
     1
 69
     0
  0
VISUALSTYLE
  5
F5
102
{ACAD_REACTORS
330
EF
102
}
330
EF
100
AcDbVisualStyle
  2
2dWireframe
 70
     4
 71
     0
 72
     2
 73
     1
 90
        0
 40
-0.6
 41
-30.0
 62
     5
 63
     7
 74
     1
 91
        4
 64
     7
 65
   257
 75
     1
175
     1
 42
1.0
 92
        0
 66
   257
 43
1.0
 76
     1
 77
     6
 78
     2
 67
     7
 79
     5
170
     0
171
     0
290
     0
174
     0
 93
        1
 44
0.0
173
     0
291
     0
 45
0.0
1001
ACAD
1000
AcDbSavedByObjectVersion
1070
     0
  0
VISUALSTYLE
  5
F7
102
{ACAD_REACTORS
330
EF
102
}
330
EF
100
AcDbVisualStyle
  2
3D Hidden
 70
     6
 71
     1
 72
     2
 73
     2
 90
        0
 40
-0.6
 41
-30.0
 62
     5
 63
     7
 74
     2
 91
        2
 64
     7
 65
   257
 75
     2
175
     1
 42
40.0
 92
        0
 66
   257
 43
1.0
 76
     1
 77
     6
 78
     2
 67
     7
 79
     3
170
     0
171
     0
290
     0
174
     0
 93
        1
 44
0.0
173
     0
291
     0
 45
0.0
1001
ACAD
1000
AcDbSavedByObjectVersion
1070
     0
  0
VISUALSTYLE
  5
F6
102
{ACAD_REACTORS
330
EF
102
}
330
EF
100
AcDbVisualStyle
  2
3dWireframe
 70
     5
 71
     0
 72
     2
 73
     1
 90
        0
 40
-0.6
 41
-30.0
 62
     5
 63
     7
 74
     1
 91
        4
 64
     7
 65
   257
 75
     1
175
     1
 42
1.0
 92
        0
 66
   257
 43
1.0
 76
     1
 77
     6
 78
     2
 67
     7
 79
     5
170
     0
171
     0
290
     0
174
     0
 93
        1
 44
0.0
173
     0
291
     0
 45
0.0
1001
ACAD
1000
AcDbSavedByObjectVersion
1070
     0
  0
VISUALSTYLE
  5
F4
102
{ACAD_REACTORS
330
EF
102
}
330
EF
100
AcDbVisualStyle
  2
Basic
 70
     7
 71
     1
 72
     0
 73
     1
 90
        0
 40
-0.6
 41
-30.0
 62
     5
 63
     7
 74
     0
 91
        4
 64
     7
 65
   257
 75
     1
175
     1
 42
1.0
 92
        8
 66
     7
 43
1.0
 76
     1
 77
     6
 78
     2
 67
     7
 79
     5
170
     0
171
     0
290
     0
174
     0
 93
        1
 44
0.0
173
     0
291
     1
 45
0.0
1001
ACAD
1000
AcDbSavedByObjectVersion
1070
     0
  0
VISUALSTYLE
  5
FB
102
{ACAD_REACTORS
330
EF
102
}
330
EF
100
AcDbVisualStyle
  2
Brighten
 70
    12
 71
     2
 72
     2
 73
     1
 90
        0
 40
-0.6
 41
-30.0
 62
     5
 63
     7
 74
     1
 91
        4
 64
     7
 65
   257
 75
     1
175
     1
 42
1.0
 92
        8
 66
     7
 43
1.0
 76
     1
 77
     6
 78
     2
 67
     7
 79
     5
170
     0
171
     0
290
     0
174
     0
 93
        1
 44
50.0
173
     0
291
     1
 45
0.0
1001
ACAD
1000
AcDbSavedByObjectVersion
1070
     0
  0
VISUALSTYLE
  5
FF
102
{ACAD_REACTORS
330
EF
102
}
330
EF
100
AcDbVisualStyle
  2
ColorChange
 70
    16
 71
     2
 72
     2
 73
     3
 90
        0
 40
-0.6
 41
-30.0
 62
     5
 63
     8
 74
     1
 91
        4
 64
     7
 65
   257
 75
     1
175
     1
 42
1.0
 92
        8
 66
     8
 43
1.0
 76
     1
 77
     6
 78
     2
 67
     7
 79
     5
170
     0
171
     0
290
     0
174
     0
 93
        1
 44
0.0
173
     0
291
     1
 45
0.0
1001
ACAD
1000
AcDbSavedByObjectVersion
1070
     0
  0
VISUALSTYLE
  5
F8
102
{ACAD_REACTORS
330
EF
102
}
330
EF
100
AcDbVisualStyle
  2
Conceptual
 70
     9
 71
     3
 72
     2
 73
     1
 90
        0
 40
-0.6
 41
-30.0
 62
     5
 63
     7
 74
     2
 91
        2
 64
     7
 65
   257
 75
     1
175
     1
 42
40.0
 92
        8
 66
     7
 43
1.0
 76
     1
 77
     6
 78
     2
 67
     7
 79
     3
170
     0
171
     0
290
     0
174
     0
 93
        1
 44
0.0
173
     0
291
     0
 45
0.0
1001
ACAD
1000
AcDbSavedByObjectVersion
1070
     0
  0
VISUALSTYLE
  5
FA
102
{ACAD_REACTORS
330
EF
102
}
330
EF
100
AcDbVisualStyle
  2
Dim
 70
    11
 71
     2
 72
     2
 73
     1
 90
        0
 40
-0.6
 41
-30.0
 62
     5
 63
     7
 74
     1
 91
        4
 64
     7
 65
   257
 75
     1
175
     1
 42
1.0
 92
        8
 66
     7
 43
1.0
 76
     1
 77
     6
 78
     2
 67
     7
 79
     5
170
     0
171
     0
290
     0
174
     0
 93
        1
 44
-50.0
173
     0
291
     1
 45
0.0
1001
ACAD
1000
AcDbSavedByObjectVersion
1070
     0
  0
VISUALSTYLE
  5
FE
102
{ACAD_REACTORS
330
EF
102
}
330
EF
100
AcDbVisualStyle
  2
Facepattern
 70
    15
 71
     2
 72
     2
 73
     1
 90
        0
 40
-0.6
 41
-30.0
 62
     5
 63
     7
 74
     1
 91
        4
 64
     7
 65
   257
 75
     1
175
     1
 42
1.0
 92
        8
 66
     7
 43
1.0
 76
     1
 77
     6
 78
     2
 67
     7
 79
     5
170
     0
171
     0
290
     0
174
     0
 93
        1
 44
0.0
173
     0
291
     1
 45
0.0
1001
ACAD
1000
AcDbSavedByObjectVersion
1070
     0
  0
VISUALSTYLE
  5
F0
102
{ACAD_REACTORS
330
EF
102
}
330
EF
100
AcDbVisualStyle
  2
Flat
 70
     0
 71
     2
 72
     1
 73
     1
 90
        2
 40
-0.6
 41
30.0
 62
     5
 63
     7
 74
     0
 91
        4
 64
     7
 65
   257
 75
     1
175
     1
 42
1.0
 92
        8
 66
     7
 43
1.0
 76
     1
 77
     6
 78
     2
 67
     7
 79
     5
170
     0
171
     0
290
     0
174
     0
 93
        1
 44
0.0
173
     0
291
     1
 45
0.0
1001
ACAD
1000
AcDbSavedByObjectVersion
1070
     0
  0
VISUALSTYLE
  5
F1
102
{ACAD_REACTORS
330
EF
102
}
330
EF
100
AcDbVisualStyle
  2
FlatWithEdges
 70
     1
 71
     2
 72
     1
 73
     1
 90
        2
 40
-0.6
 41
30.0
 62
     5
 63
     7
 74
     1
 91
        4
 64
     7
 65
   257
 75
     1
175
     1
 42
1.0
 92
        0
 66
   257
 43
1.0
 76
     1
 77
     6
 78
     2
 67
     7
 79
     5
170
     0
171
     0
290
     0
174
     0
 93
        1
 44
0.0
173
     0
291
     1
 45
0.0
1001
ACAD
1000
AcDbSavedByObjectVersion
1070
     0
  0
VISUALSTYLE
  5
F2
102
{ACAD_REACTORS
330
EF
102
}
330
EF
100
AcDbVisualStyle
  2
Gouraud
 70
     2
 71
     2
 72
     2
 73
     1
 90
        2
 40
-0.6
 41
30.0
 62
     5
 63
     7
 74
     0
 91
        4
 64
     7
 65
   257
 75
     1
175
     1
 42
1.0
 92
        0
 66
     7
 43
1.0
 76
     1
 77
     6
 78
     2
 67
     7
 79
     5
170
     0
171
     0
290
     0
174
     0
 93
        1
 44
0.0
173
     0
291
     1
 45
0.0
1001
ACAD
1000
AcDbSavedByObjectVersion
1070
     0
  0
VISUALSTYLE
  5
F3
102
{ACAD_REACTORS
330
EF
102
}
330
EF
100
AcDbVisualStyle
  2
GouraudWithEdges
 70
     3
 71
     2
 72
     2
 73
     1
 90
        2
 40
-0.6
 41
30.0
 62
     5
 63
     7
 74
     1
 91
        4
 64
     7
 65
   257
 75
     1
175
     1
 42
1.0
 92
        0
 66
   257
 43
1.0
 76
     1
 77
     6
 78
     2
 67
     7
 79
     5
170
     0
171
     0
290
     0
174
     0
 93
        1
 44
0.0
173
     0
291
     1
 45
0.0
1001
ACAD
1000
AcDbSavedByObjectVersion
1070
     0
  0
VISUALSTYLE
  5
FD
102
{ACAD_REACTORS
330
EF
102
}
330
EF
100
AcDbVisualStyle
  2
Linepattern
 70
    14
 71
     2
 72
     2
 73
     1
 90
        0
 40
-0.6
 41
-30.0
 62
     5
 63
     7
 74
     1
 91
        4
 64
     7
 65
   257
 75
     7
175
     7
 42
1.0
 92
        8
 66
     7
 43
1.0
 76
     1
 77
     6
 78
     2
 67
     7
 79
     5
170
     0
171
     0
290
     0
174
     0
 93
        1
 44
0.0
173
     0
291
     1
 45
0.0
1001
ACAD
1000
AcDbSavedByObjectVersion
1070
     0
  0
VISUALSTYLE
  5
F9
102
{ACAD_REACTORS
330
EF
102
}
330
EF
100
AcDbVisualStyle
  2
Realistic
 70
     8
 71
     2
 72
     2
 73
     1
 90
        0
 40
-0.6
 41
-30.0
 62
     5
 63
     7
 74
     1
 91
        0
 64
     7
 65
   257
 75
     1
175
     1
 42
1.0
 92
        8
 66
     8
 43
1.0
 76
     1
 77
     6
 78
     2
 67
     7
 79
     5
170
     0
171
     0
290
     0
174
     0
 93
       13
 44
0.0
173
     0
291
     0
 45
0.0
1001
ACAD
1000
AcDbSavedByObjectVersion
1070
     0
  0
VISUALSTYLE
  5
FC
102
{ACAD_REACTORS
330
EF
102
}
330
EF
100
AcDbVisualStyle
  2
Thicken
 70
    13
 71
     2
 72
     2
 73
     1
 90
        0
 40
-0.6
 41
-30.0
 62
     5
 63
     7
 74
     1
 91
        4
 64
     7
 65
   257
 75
     1
175
     1
 42
1.0
 92
       12
 66
     7
 43
1.0
 76
     1
 77
     6
 78
     2
 67
     7
 79
     5
170
     0
171
     0
290
     0
174
     0
 93
        1
 44
0.0
173
     0
291
     1
 45
0.0
1001
ACAD
1000
AcDbSavedByObjectVersion
1070
     0
  0
DICTIONARYVAR
  5
146
102
{ACAD_REACTORS
330
5E
102
}
330
5E
100
DictionaryVariables
280
     0
  1
1:1
  0
DICTIONARYVAR
  5
145
102
{ACAD_REACTORS
330
5E
102
}
330
5E
100
DictionaryVariables
280
     0
  1
STANDARD
  0
DICTIONARYVAR
  5
84
102
{ACAD_REACTORS
330
5E
102
}
330
5E
100
DictionaryVariables
280
     0
  1
STANDARD
  0
DICTIONARYVAR
  5
5F
102
{ACAD_REACTORS
330
5E
102
}
330
5E
100
DictionaryVariables
280
     0
  1
2
  0
DICTIONARYVAR
  5
63
102
{ACAD_REACTORS
330
5E
102
}
330
5E
100
DictionaryVariables
280
     0
  1
1
  0
DICTIONARYVAR
  5
41A
102
{ACAD_REACTORS
330
5E
102
}
330
5E
100
DictionaryVariables
280
     0
  1
0
  0
DICTIONARYVAR
  5
418
102
{ACAD_REACTORS
330
5E
102
}
330
5E
100
DictionaryVariables
280
     0
  1
2
  0
DICTIONARYVAR
  5
41D
102
{ACAD_REACTORS
330
5E
102
}
330
5E
100
DictionaryVariables
280
     0
  1
1.570796
  0
DICTIONARYVAR
  5
41E
102
{ACAD_REACTORS
330
5E
102
}
330
5E
100
DictionaryVariables
280
     0
  1
1.570796
  0
DICTIONARYVAR
  5
41F
102
{ACAD_REACTORS
330
5E
102
}
330
5E
100
DictionaryVariables
280
     0
  1
-122.394000
  0
DICTIONARYVAR
  5
417
102
{ACAD_REACTORS
330
5E
102
}
330
5E
100
DictionaryVariables
280
     0
  1
1
  0
DICTIONARYVAR
  5
41C
102
{ACAD_REACTORS
330
5E
102
}
330
5E
100
DictionaryVariables
280
     0
  1
80.000000
  0
DICTIONARYVAR
  5
41B
102
{ACAD_REACTORS
330
5E
102
}
330
5E
100
DictionaryVariables
280
     0
  1
5.000000
  0
DICTIONARYVAR
  5
419
102
{ACAD_REACTORS
330
5E
102
}
330
5E
100
DictionaryVariables
280
     0
  1
127
  0
DICTIONARY
  5
425
330
D3
100
AcDbDictionary
280
     1
281
     1
  3
ACAD_XREC_ROUNDTRIP
360
426
  0
DICTIONARY
  5
427
330
D7
100
AcDbDictionary
280
     1
281
     1
  3
ACAD_XREC_ROUNDTRIP
360
428
  0
DICTIONARY
  5
422
330
22
100
AcDbDictionary
280
     1
281
     1
  3
ACAD_XREC_ROUNDTRIP
360
423
  0
DICTIONARY
  5
42B
330
ED
100
AcDbDictionary
280
     1
281
     1
  3
ACAD_XREC_ROUNDTRIP
360
42C
  0
DICTIONARY
  5
429
330
EC
100
AcDbDictionary
280
     1
281
     1
  3
ACAD_XREC_ROUNDTRIP
360
42A
  0
DICTIONARY
  5
173
330
EE
100
AcDbDictionary
280
     1
281
     1
  3
ACAD_XREC_ROUNDTRIP
360
42D
  3
BUMPTILE
360
175
  3
DIFFUSETILE
360
174
  3
OPACITYTILE
360
176
  3
REFLECTIONTILE
360
177
  0
DICTIONARY
  5
162
330
7F
100
AcDbDictionary
280
     1
281
     1
  3
ACAD_ROUNDTRIP_2008_TABLESTYLE_CELLSTYLEMAP
360
420
  3
ACAD_XREC_ROUNDTRIP
360
424
  0
XRECORD
  5
426
102
{ACAD_REACTORS
330
425
102
}
330
425
100
AcDbXrecord
280
     1
102
SHADEPLOT
 70
     0
102
SHADEPLOTRESLEVEL
 70
     2
102
SHADEPLOTCUSTOMDPI
 70
   300
  0
XRECORD
  5
428
102
{ACAD_REACTORS
330
427
102
}
330
427
100
AcDbXrecord
280
     1
102
SHADEPLOT
 70
     0
102
SHADEPLOTRESLEVEL
 70
     2
102
SHADEPLOTCUSTOMDPI
 70
   300
  0
XRECORD
  5
423
102
{ACAD_REACTORS
330
422
102
}
330
422
100
AcDbXrecord
280
     1
102
SHADEPLOT
 70
     0
102
SHADEPLOTRESLEVEL
 70
     2
102
SHADEPLOTCUSTOMDPI
 70
   300
  0
XRECORD
  5
42C
102
{ACAD_REACTORS
330
42B
102
}
330
42B
100
AcDbXrecord
280
     1
102
MATERIAL
148
0.0
149
0.0
149
0.0
 93
        0
 94
       63
282
     0
 72
     1
 77
     1
171
     1
175
     1
179
     1
273
     0
  0
XRECORD
  5
42A
102
{ACAD_REACTORS
330
429
102
}
330
429
100
AcDbXrecord
280
     1
102
MATERIAL
148
0.0
149
0.0
149
0.0
 93
        0
 94
       63
282
     0
 72
     1
 77
     1
171
     1
175
     1
179
     1
273
     0
  0
XRECORD
  5
42D
102
{ACAD_REACTORS
330
173
102
}
330
173
100
AcDbXrecord
280
     1
102
MATERIAL
148
0.0
149
0.0
149
0.0
 93
        0
 94
       63
282
     0
 72
     1
 77
     1
171
     1
175
     1
179
     1
273
     0
  0
XRECORD
  5
175
102
{ACAD_REACTORS
330
173
102
}
330
173
100
AcDbXrecord
280
     1
270
     1
271
     1
  0
XRECORD
  5
174
102
{ACAD_REACTORS
330
173
102
}
330
173
100
AcDbXrecord
280
     1
270
     1
271
     1
  0
XRECORD
  5
176
102
{ACAD_REACTORS
330
173
102
}
330
173
100
AcDbXrecord
280
     1
270
     1
271
     1
  0
XRECORD
  5
177
102
{ACAD_REACTORS
330
173
102
}
330
173
100
AcDbXrecord
280
     1
270
     1
271
     1
  0
CELLSTYLEMAP
  5
420
102
{ACAD_REACTORS
330
162
102
}
330
162
100
AcDbCellStyleMap
 90
        3
300
CELLSTYLE
  1
TABLEFORMAT_BEGIN
 90
        5
170
     1
 91
        0
 92
    32768
 62
   257
 93
        1
300
CONTENTFORMAT
  1
CONTENTFORMAT_BEGIN
 90
        0
 91
        0
 92
      512
 93
        0
300

 40
0.0
140
1.0
 94
        5
 62
     0
340
11
144
6.0
309
CONTENTFORMAT_END
171
     1
301
MARGIN
  1
CELLMARGIN_BEGIN
 40
1.5
 40
1.5
 40
1.5
 40
1.5
 40
0.18
 40
0.18
309
CELLMARGIN_END
 94
        6
 95
        1
302
GRIDFORMAT
  1
GRIDFORMAT_BEGIN
 90
        0
 91
        1
 62
     0
 92
       -2
340
14
 93
        0
 40
1.125
309
GRIDFORMAT_END
 95
        2
302
GRIDFORMAT
  1
GRIDFORMAT_BEGIN
 90
        0
 91
        1
 62
     0
 92
       -2
340
14
 93
        0
 40
1.125
309
GRIDFORMAT_END
 95
        4
302
GRIDFORMAT
  1
GRIDFORMAT_BEGIN
 90
        0
 91
        1
 62
     0
 92
       -2
340
14
 93
        0
 40
1.125
309
GRIDFORMAT_END
 95
        8
302
GRIDFORMAT
  1
GRIDFORMAT_BEGIN
 90
        0
 91
        1
 62
     0
 92
       -2
340
14
 93
        0
 40
1.125
309
GRIDFORMAT_END
 95
       16
302
GRIDFORMAT
  1
GRIDFORMAT_BEGIN
 90
        0
 91
        1
 62
     0
 92
       -2
340
14
 93
        0
 40
1.125
309
GRIDFORMAT_END
 95
       32
302
GRIDFORMAT
  1
GRIDFORMAT_BEGIN
 90
        0
 91
        1
 62
     0
 92
       -2
340
14
 93
        0
 40
1.125
309
GRIDFORMAT_END
309
TABLEFORMAT_END
  1
CELLSTYLE_BEGIN
 90
        1
 91
        1
300
_TITLE
309
CELLSTYLE_END
300
CELLSTYLE
  1
TABLEFORMAT_BEGIN
 90
        5
170
     1
 91
        0
 92
        0
 62
   257
 93
        1
300
CONTENTFORMAT
  1
CONTENTFORMAT_BEGIN
 90
        0
 91
        0
 92
      512
 93
        0
300

 40
0.0
140
1.0
 94
        5
 62
     0
340
11
144
4.5
309
CONTENTFORMAT_END
171
     1
301
MARGIN
  1
CELLMARGIN_BEGIN
 40
1.5
 40
1.5
 40
1.5
 40
1.5
 40
0.18
 40
0.18
309
CELLMARGIN_END
 94
        6
 95
        1
302
GRIDFORMAT
  1
GRIDFORMAT_BEGIN
 90
        0
 91
        1
 62
     0
 92
       -2
340
14
 93
        0
 40
1.125
309
GRIDFORMAT_END
 95
        2
302
GRIDFORMAT
  1
GRIDFORMAT_BEGIN
 90
        0
 91
        1
 62
     0
 92
       -2
340
14
 93
        0
 40
1.125
309
GRIDFORMAT_END
 95
        4
302
GRIDFORMAT
  1
GRIDFORMAT_BEGIN
 90
        0
 91
        1
 62
     0
 92
       -2
340
14
 93
        0
 40
1.125
309
GRIDFORMAT_END
 95
        8
302
GRIDFORMAT
  1
GRIDFORMAT_BEGIN
 90
        0
 91
        1
 62
     0
 92
       -2
340
14
 93
        0
 40
1.125
309
GRIDFORMAT_END
 95
       16
302
GRIDFORMAT
  1
GRIDFORMAT_BEGIN
 90
        0
 91
        1
 62
     0
 92
       -2
340
14
 93
        0
 40
1.125
309
GRIDFORMAT_END
 95
       32
302
GRIDFORMAT
  1
GRIDFORMAT_BEGIN
 90
        0
 91
        1
 62
     0
 92
       -2
340
14
 93
        0
 40
1.125
309
GRIDFORMAT_END
309
TABLEFORMAT_END
  1
CELLSTYLE_BEGIN
 90
        2
 91
        1
300
_HEADER
309
CELLSTYLE_END
300
CELLSTYLE
  1
TABLEFORMAT_BEGIN
 90
        5
170
     1
 91
        0
 92
        0
 62
   257
 93
        1
300
CONTENTFORMAT
  1
CONTENTFORMAT_BEGIN
 90
        0
 91
        0
 92
      512
 93
        0
300

 40
0.0
140
1.0
 94
        2
 62
     0
340
11
144
4.5
309
CONTENTFORMAT_END
171
     1
301
MARGIN
  1
CELLMARGIN_BEGIN
 40
1.5
 40
1.5
 40
1.5
 40
1.5
 40
0.18
 40
0.18
309
CELLMARGIN_END
 94
        6
 95
        1
302
GRIDFORMAT
  1
GRIDFORMAT_BEGIN
 90
        0
 91
        1
 62
     0
 92
       -2
340
14
 93
        0
 40
1.125
309
GRIDFORMAT_END
 95
        2
302
GRIDFORMAT
  1
GRIDFORMAT_BEGIN
 90
        0
 91
        1
 62
     0
 92
       -2
340
14
 93
        0
 40
1.125
309
GRIDFORMAT_END
 95
        4
302
GRIDFORMAT
  1
GRIDFORMAT_BEGIN
 90
        0
 91
        1
 62
     0
 92
       -2
340
14
 93
        0
 40
1.125
309
GRIDFORMAT_END
 95
        8
302
GRIDFORMAT
  1
GRIDFORMAT_BEGIN
 90
        0
 91
        1
 62
     0
 92
       -2
340
14
 93
        0
 40
1.125
309
GRIDFORMAT_END
 95
       16
302
GRIDFORMAT
  1
GRIDFORMAT_BEGIN
 90
        0
 91
        1
 62
     0
 92
       -2
340
14
 93
        0
 40
1.125
309
GRIDFORMAT_END
 95
       32
302
GRIDFORMAT
  1
GRIDFORMAT_BEGIN
 90
        0
 91
        1
 62
     0
 92
       -2
340
14
 93
        0
 40
1.125
309
GRIDFORMAT_END
309
TABLEFORMAT_END
  1
CELLSTYLE_BEGIN
 90
        3
 91
        2
300
_DATA
309
CELLSTYLE_END
  0
XRECORD
  5
424
102
{ACAD_REACTORS
330
162
102
}
330
162
100
AcDbXrecord
280
     1
102
ACAD_ROUNDTRIP_PRE2007_TABLESTYLE
 90
      512
 91
        0
  1

 92
      512
 93
        0
  2

 94
      512
 95
        0
  3

  0
ENDSEC
  0
EOF
