  0
SECTION
  2
HEADER
  9
$ACADVER
  1
AC1015
  9
$ACADMAINTVER
 70
    20
  9
$DWGCODEPAGE
  3
ANSI_1254
  9
$INSBASE
 10
0.0
 20
0.0
 30
0.0
  9
$EXTMIN
 10
1651.394759670898
 20
983.4234035878886
 30
0.0
  9
$EXTMAX
 10
3485.978224634369
 20
2058.015415601873
 30
0.0
  9
$LIMMIN
 10
0.0
 20
0.0
  9
$LIMMAX
 10
420.0
 20
297.0
  9
$ORTHOMODE
 70
     1
  9
$REGENMODE
 70
     1
  9
$FILLMODE
 70
     1
  9
$QTEXTMODE
 70
     0
  9
$MIRRTEXT
 70
     0
  9
$LTSCALE
 40
1.0
  9
$ATTMODE
 70
     1
  9
$TEXTSIZE
 40
2.5
  9
$TRACEWID
 40
1.0
  9
$TEXTSTYLE
  7
Standard
  9
$CLAYER
  8
0
  9
$CELTYPE
  6
ByLayer
  9
$CECOLOR
 62
   256
  9
$CELTSCALE
 40
1.0
  9
$DISPSILH
 70
     0
  9
$DIMSCALE
 40
1.0
  9
$DIMASZ
 40
2.5
  9
$DIMEXO
 40
0.625
  9
$DIMDLI
 40
3.75
  9
$DIMRND
 40
0.0
  9
$DIMDLE
 40
0.0
  9
$DIMEXE
 40
1.25
  9
$DIMTP
 40
0.0
  9
$DIMTM
 40
0.0
  9
$DIMTXT
 40
2.5
  9
$DIMCEN
 40
2.5
  9
$DIMTSZ
 40
0.0
  9
$DIMTOL
 70
     0
  9
$DIMLIM
 70
     0
  9
$DIMTIH
 70
     0
  9
$DIMTOH
 70
     0
  9
$DIMSE1
 70
     0
  9
$DIMSE2
 70
     0
  9
$DIMTAD
 70
     1
  9
$DIMZIN
 70
     8
  9
$DIMBLK
  1

  9
$DIMASO
 70
     1
  9
$DIMSHO
 70
     1
  9
$DIMPOST
  1

  9
$DIMAPOST
  1

  9
$DIMALT
 70
     0
  9
$DIMALTD
 70
     3
  9
$DIMALTF
 40
0.03937007874016
  9
$DIMLFAC
 40
1.0
  9
$DIMTOFL
 70
     1
  9
$DIMTVP
 40
0.0
  9
$DIMTIX
 70
     0
  9
$DIMSOXD
 70
     0
  9
$DIMSAH
 70
     0
  9
$DIMBLK1
  1

  9
$DIMBLK2
  1

  9
$DIMSTYLE
  2
ISO-25
  9
$DIMCLRD
 70
     0
  9
$DIMCLRE
 70
     0
  9
$DIMCLRT
 70
     0
  9
$DIMTFAC
 40
1.0
  9
$DIMGAP
 40
0.625
  9
$DIMJUST
 70
     0
  9
$DIMSD1
 70
     0
  9
$DIMSD2
 70
     0
  9
$DIMTOLJ
 70
     0
  9
$DIMTZIN
 70
     8
  9
$DIMALTZ
 70
     0
  9
$DIMALTTZ
 70
     0
  9
$DIMUPT
 70
     0
  9
$DIMDEC
 70
     2
  9
$DIMTDEC
 70
     2
  9
$DIMALTU
 70
     2
  9
$DIMALTTD
 70
     3
  9
$DIMTXSTY
  7
Standard
  9
$DIMAUNIT
 70
     0
  9
$DIMADEC
 70
     0
  9
$DIMALTRND
 40
0.0
  9
$DIMAZIN
 70
     0
  9
$DIMDSEP
 70
    44
  9
$DIMATFIT
 70
     3
  9
$DIMFRAC
 70
     0
  9
$DIMLDRBLK
  1

  9
$DIMLUNIT
 70
     2
  9
$DIMLWD
 70
    -2
  9
$DIMLWE
 70
    -2
  9
$DIMTMOVE
 70
     0
  9
$LUNITS
 70
     2
  9
$LUPREC
 70
     4
  9
$SKETCHINC
 40
1.0
  9
$FILLETRAD
 40
0.0
  9
$AUNITS
 70
     0
  9
$AUPREC
 70
     0
  9
$MENU
  1
.
  9
$ELEVATION
 40
0.0
  9
$PELEVATION
 40
0.0
  9
$THICKNESS
 40
0.0
  9
$LIMCHECK
 70
     0
  9
$CHAMFERA
 40
0.0
  9
$CHAMFERB
 40
0.0
  9
$CHAMFERC
 40
0.0
  9
$CHAMFERD
 40
0.0
  9
$SKPOLY
 70
     0
  9
$TDCREATE
 40
2458488.492316968
  9
$TDUCREATE
 40
2458488.367316968
  9
$TDUPDATE
 40
2459082.584581713
  9
$TDUUPDATE
 40
2459082.459581714
  9
$TDINDWG
 40
0.0041316088
  9
$TDUSRTIMER
 40
0.0041316088
  9
$USRTIMER
 70
     1
  9
$ANGBASE
 50
0.0
  9
$ANGDIR
 70
     0
  9
$PDMODE
 70
     0
  9
$PDSIZE
 40
0.0
  9
$PLINEWID
 40
0.0
  9
$SPLFRAME
 70
     0
  9
$SPLINETYPE
 70
     6
  9
$SPLINESEGS
 70
     8
  9
$HANDSEED
  5
A47
  9
$SURFTAB1
 70
     6
  9
$SURFTAB2
 70
     6
  9
$SURFTYPE
 70
     6
  9
$SURFU
 70
     6
  9
$SURFV
 70
     6
  9
$UCSBASE
  2

  9
$UCSNAME
  2

  9
$UCSORG
 10
0.0
 20
0.0
 30
0.0
  9
$UCSXDIR
 10
1.0
 20
0.0
 30
0.0
  9
$UCSYDIR
 10
0.0
 20
1.0
 30
0.0
  9
$UCSORTHOREF
  2

  9
$UCSORTHOVIEW
 70
     0
  9
$UCSORGTOP
 10
0.0
 20
0.0
 30
0.0
  9
$UCSORGBOTTOM
 10
0.0
 20
0.0
 30
0.0
  9
$UCSORGLEFT
 10
0.0
 20
0.0
 30
0.0
  9
$UCSORGRIGHT
 10
0.0
 20
0.0
 30
0.0
  9
$UCSORGFRONT
 10
0.0
 20
0.0
 30
0.0
  9
$UCSORGBACK
 10
0.0
 20
0.0
 30
0.0
  9
$PUCSBASE
  2

  9
$PUCSNAME
  2

  9
$PUCSORG
 10
0.0
 20
0.0
 30
0.0
  9
$PUCSXDIR
 10
1.0
 20
0.0
 30
0.0
  9
$PUCSYDIR
 10
0.0
 20
1.0
 30
0.0
  9
$PUCSORTHOREF
  2

  9
$PUCSORTHOVIEW
 70
     0
  9
$PUCSORGTOP
 10
0.0
 20
0.0
 30
0.0
  9
$PUCSORGBOTTOM
 10
0.0
 20
0.0
 30
0.0
  9
$PUCSORGLEFT
 10
0.0
 20
0.0
 30
0.0
  9
$PUCSORGRIGHT
 10
0.0
 20
0.0
 30
0.0
  9
$PUCSORGFRONT
 10
0.0
 20
0.0
 30
0.0
  9
$PUCSORGBACK
 10
0.0
 20
0.0
 30
0.0
  9
$USERI1
 70
     0
  9
$USERI2
 70
     0
  9
$USERI3
 70
     0
  9
$USERI4
 70
     0
  9
$USERI5
 70
     0
  9
$USERR1
 40
0.0
  9
$USERR2
 40
0.0
  9
$USERR3
 40
0.0
  9
$USERR4
 40
0.0
  9
$USERR5
 40
0.0
  9
$WORLDVIEW
 70
     1
  9
$SHADEDGE
 70
     3
  9
$SHADEDIF
 70
    70
  9
$TILEMODE
 70
     1
  9
$MAXACTVP
 70
    64
  9
$PINSBASE
 10
0.0
 20
0.0
 30
0.0
  9
$PLIMCHECK
 70
     0
  9
$PEXTMIN
 10
0.0
 20
0.0
 30
0.0
  9
$PEXTMAX
 10
0.0
 20
0.0
 30
0.0
  9
$PLIMMIN
 10
0.0
 20
0.0
  9
$PLIMMAX
 10
12.0
 20
9.0
  9
$UNITMODE
 70
     0
  9
$VISRETAIN
 70
     1
  9
$PLINEGEN
 70
     0
  9
$PSLTSCALE
 70
     1
  9
$TREEDEPTH
 70
  3020
  9
$CMLSTYLE
  2
Standard
  9
$CMLJUST
 70
     0
  9
$CMLSCALE
 40
20.0
  9
$PROXYGRAPHICS
 70
     1
  9
$MEASUREMENT
 70
     1
  9
$CELWEIGHT
370
    -1
  9
$ENDCAPS
280
     0
  9
$JOINSTYLE
280
     0
  9
$LWDISPLAY
290
     0
  9
$INSUNITS
 70
     4
  9
$HYPERLINKBASE
  1

  9
$STYLESHEET
  1

  9
$XEDIT
290
     1
  9
$CEPSNTYPE
380
     0
  9
$PSTYLEMODE
290
     1
  9
$FINGERPRINTGUID
  2
{B04C8A8D-74C2-4181-A650-98136AFDB3F5}
  9
$VERSIONGUID
  2
{67FA60BD-DF5D-41BF-A64E-B5415A217E23}
  9
$EXTNAMES
290
     1
  9
$PSVPSCALE
 40
0.0
  9
$OLESTARTUP
290
     0
  0
ENDSEC
  0
SECTION
  2
CLASSES
  0
CLASS
  1
ACDBDICTIONARYWDFLT
  2
AcDbDictionaryWithDefault
  3
ObjectDBX Classes
 90
        0
280
     0
281
     0
  0
CLASS
  1
ACDBPLACEHOLDER
  2
AcDbPlaceHolder
  3
ObjectDBX Classes
 90
        0
280
     0
281
     0
  0
CLASS
  1
LAYOUT
  2
AcDbLayout
  3
ObjectDBX Classes
 90
        0
280
     0
281
     0
  0
CLASS
  1
DICTIONARYVAR
  2
AcDbDictionaryVar
  3
ObjectDBX Classes
 90
        0
280
     0
281
     0
  0
CLASS
  1
TABLESTYLE
  2
AcDbTableStyle
  3
ObjectDBX Classes
 90
     4095
280
     0
281
     0
  0
CLASS
  1
MATERIAL
  2
AcDbMaterial
  3
ObjectDBX Classes
 90
     1153
280
     0
281
     0
  0
CLASS
  1
VISUALSTYLE
  2
AcDbVisualStyle
  3
ObjectDBX Classes
 90
     4095
280
     0
281
     0
  0
CLASS
  1
SCALE
  2
AcDbScale
  3
ObjectDBX Classes
 90
     1153
280
     0
281
     0
  0
CLASS
  1
MLEADERSTYLE
  2
AcDbMLeaderStyle
  3
ACDB_MLEADERSTYLE_CLASS
 90
     4095
280
     0
281
     0
  0
CLASS
  1
CELLSTYLEMAP
  2
AcDbCellStyleMap
  3
ObjectDBX Classes
 90
     1152
280
     0
281
     0
  0
CLASS
  1
ACAD_EVALUATION_GRAPH
  2
AcDbEvalGraph
  3
ObjectDBX Classes
 90
    33921
280
     0
281
     0
  0
CLASS
  1
ACAECUSTOBJ
  2
AcAeEditorObj
  3
AcAeEditorObj
 90
    33792
280
     0
281
     0
  0
CLASS
  1
ACDB_DYNAMICBLOCKPURGEPREVENTER_VERSION
  2
AcDbDynamicBlockPurgePreventer
  3
ObjectDBX Classes
 90
    33921
280
     0
281
     0
  0
ENDSEC
  0
SECTION
  2
TABLES
  0
TABLE
  2
VPORT
  5
8
330
0
100
AcDbSymbolTable
 70
     1
  0
VPORT
  5
EA
330
8
100
AcDbSymbolTableRecord
100
AcDbViewportTableRecord
  2
*Active
 70
     0
 10
0.0
 20
0.0
 11
1.0
 21
1.0
 12
2568.645643847391
 22
1547.169843706549
 13
0.0
 23
0.0
 14
10.0
 24
10.0
 15
10.0
 25
10.0
 16
0.0
 26
0.0
 36
1.0
 17
0.0
 27
0.0
 37
0.0
 40
1135.552164623028
 41
1.903110047846889
 42
50.0
 43
0.0
 44
0.0
 50
0.0
 51
0.0
 71
     0
 72
  1000
 73
     1
 74
     3
 75
     0
 76
     0
 77
     0
 78
     0
281
     0
 65
     1
110
0.0
120
0.0
130
0.0
111
1.0
121
0.0
131
0.0
112
0.0
122
1.0
132
0.0
 79
     0
146
0.0
  0
ENDTAB
  0
TABLE
  2
LTYPE
  5
5
330
0
100
AcDbSymbolTable
 70
     1
  0
LTYPE
  5
14
330
5
100
AcDbSymbolTableRecord
100
AcDbLinetypeTableRecord
  2
ByBlock
 70
     0
  3

 72
    65
 73
     0
 40
0.0
  0
LTYPE
  5
15
330
5
100
AcDbSymbolTableRecord
100
AcDbLinetypeTableRecord
  2
ByLayer
 70
     0
  3

 72
    65
 73
     0
 40
0.0
  0
LTYPE
  5
16
330
5
100
AcDbSymbolTableRecord
100
AcDbLinetypeTableRecord
  2
Continuous
 70
     0
  3
Solid line
 72
    65
 73
     0
 40
0.0
  0
ENDTAB
  0
TABLE
  2
LAYER
  5
2
330
0
100
AcDbSymbolTable
 70
     1
  0
LAYER
  5
10
102
{ACAD_XDICTIONARY
360
13C
102
}
330
2
100
AcDbSymbolTableRecord
100
AcDbLayerTableRecord
  2
0
 70
     0
 62
     7
  6
Continuous
370
    -3
390
F
  0
ENDTAB
  0
TABLE
  2
STYLE
  5
3
330
0
100
AcDbSymbolTable
 70
     2
  0
STYLE
  5
11
330
3
100
AcDbSymbolTableRecord
100
AcDbTextStyleTableRecord
  2
Standard
 70
     0
 40
0.0
 41
1.0
 50
0.0
 71
     0
 42
2.5
  3
txt
  4

  0
STYLE
  5
132
330
3
100
AcDbSymbolTableRecord
100
AcDbTextStyleTableRecord
  2
Annotative
 70
     0
 40
0.0
 41
1.0
 50
0.0
 71
     0
 42
2.5
  3
txt.shx
  4

1001
AcadAnnotative
1000
AnnotativeData
1002
{
1070
     1
1070
     1
1002
}
  0
ENDTAB
  0
TABLE
  2
VIEW
  5
6
330
0
100
AcDbSymbolTable
 70
     0
  0
ENDTAB
  0
TABLE
  2
UCS
  5
7
330
0
100
AcDbSymbolTable
 70
     0
  0
ENDTAB
  0
TABLE
  2
APPID
  5
9
330
0
100
AcDbSymbolTable
 70
    12
  0
APPID
  5
12
330
9
100
AcDbSymbolTableRecord
100
AcDbRegAppTableRecord
  2
ACAD
 70
     0
  0
APPID
  5
9E
330
9
100
AcDbSymbolTableRecord
100
AcDbRegAppTableRecord
  2
ACAD_PSEXT
 70
     0
  0
APPID
  5
133
330
9
100
AcDbSymbolTableRecord
100
AcDbRegAppTableRecord
  2
AcadAnnoPO
 70
     0
  0
APPID
  5
134
330
9
100
AcDbSymbolTableRecord
100
AcDbRegAppTableRecord
  2
AcadAnnotative
 70
     0
  0
APPID
  5
135
330
9
100
AcDbSymbolTableRecord
100
AcDbRegAppTableRecord
  2
ACAD_DSTYLE_DIMJAG
 70
     0
  0
APPID
  5
136
330
9
100
AcDbSymbolTableRecord
100
AcDbRegAppTableRecord
  2
ACAD_DSTYLE_DIMTALN
 70
     0
  0
APPID
  5
165
330
9
100
AcDbSymbolTableRecord
100
AcDbRegAppTableRecord
  2
ACAD_MLEADERVER
 70
     0
  0
APPID
  5
9F3
330
9
100
AcDbSymbolTableRecord
100
AcDbRegAppTableRecord
  2
ACAD_EXEMPT_FROM_CAD_STANDARDS
 70
     0
  0
APPID
  5
A12
330
9
100
AcDbSymbolTableRecord
100
AcDbRegAppTableRecord
  2
ACAUTHENVIRON
 70
     0
  0
APPID
  5
A16
330
9
100
AcDbSymbolTableRecord
100
AcDbRegAppTableRecord
  2
AcDbDynamicBlockTrueName
 70
     0
  0
APPID
  5
A17
330
9
100
AcDbSymbolTableRecord
100
AcDbRegAppTableRecord
  2
AcDbDynamicBlockGUID
 70
     0
  0
APPID
  5
A19
330
9
100
AcDbSymbolTableRecord
100
AcDbRegAppTableRecord
  2
AcDbBlockRepETag
 70
     0
  0
ENDTAB
  0
TABLE
  2
DIMSTYLE
  5
A
330
0
100
AcDbSymbolTable
 70
     2
100
AcDbDimStyleTable
 71
     2
340
27
340
137
  0
DIMSTYLE
105
27
330
A
100
AcDbSymbolTableRecord
100
AcDbDimStyleTableRecord
  2
ISO-25
 70
     0
 41
2.5
 42
0.625
 43
3.75
 44
1.25
 73
     0
 74
     0
 77
     1
 78
     8
140
2.5
141
2.5
143
0.03937007874016
147
0.625
171
     3
172
     1
271
     2
272
     2
274
     3
278
    44
283
     0
284
     8
340
11
  0
DIMSTYLE
105
137
330
A
100
AcDbSymbolTableRecord
100
AcDbDimStyleTableRecord
  2
Annotative
 70
     0
 40
0.0
 41
2.5
 42
0.625
 43
3.75
 44
1.25
 73
     0
 74
     0
 77
     1
 78
     8
140
2.5
141
2.5
143
0.03937007874016
147
0.625
171
     3
172
     1
271
     2
272
     2
274
     3
278
    44
283
     0
284
     8
340
11
1001
AcadAnnotative
1000
AnnotativeData
1002
{
1070
     1
1070
     1
1002
}
1001
ACAD_DSTYLE_DIMJAG
1070
   388
1040
1.5
1001
ACAD_DSTYLE_DIMTALN
1070
   392
1070
     0
  0
ENDTAB
  0
TABLE
  2
BLOCK_RECORD
  5
1
330
0
100
AcDbSymbolTable
 70
     5
  0
BLOCK_RECORD
  5
1F
330
1
100
AcDbSymbolTableRecord
100
AcDbBlockTableRecord
  2
*Model_Space
340
22
  0
BLOCK_RECORD
  5
D2
330
1
100
AcDbSymbolTableRecord
100
AcDbBlockTableRecord
  2
*Paper_Space
340
D3
  0
BLOCK_RECORD
  5
D6
330
1
100
AcDbSymbolTableRecord
100
AcDbBlockTableRecord
  2
*Paper_Space0
340
D7
  0
BLOCK_RECORD
  5
723
102
{ACAD_XDICTIONARY
360
A13
102
}
330
1
100
AcDbSymbolTableRecord
100
AcDbBlockTableRecord
  2
1
340
0
310
2800000020000000200000000100080000000000000400000000000000000000000000000000000000000000000080000080000000808000800000008000800080800000C0C0C000C0DCC000F0CAA6000020400000206000002080000020A0000020C0000020E00000400000004020000040400000406000004080000040A0
310
000040C0000040E00000600000006020000060400000606000006080000060A0000060C0000060E00000800000008020000080400000806000008080000080A0000080C0000080E00000A0000000A0200000A0400000A0600000A0800000A0A00000A0C00000A0E00000C0000000C0200000C0400000C0600000C0800000C0
310
A00000C0C00000C0E00000E0000000E0200000E0400000E0600000E0800000E0A00000E0C00000E0E00040000000400020004000400040006000400080004000A0004000C0004000E00040200000402020004020400040206000402080004020A0004020C0004020E000404000004040200040404000404060004040800040
310
40A0004040C0004040E00040600000406020004060400040606000406080004060A0004060C0004060E00040800000408020004080400040806000408080004080A0004080C0004080E00040A0000040A0200040A0400040A0600040A0800040A0A00040A0C00040A0E00040C0000040C0200040C0400040C0600040C08000
310
40C0A00040C0C00040C0E00040E0000040E0200040E0400040E0600040E0800040E0A00040E0C00040E0E00080000000800020008000400080006000800080008000A0008000C0008000E00080200000802020008020400080206000802080008020A0008020C0008020E00080400000804020008040400080406000804080
310
008040A0008040C0008040E00080600000806020008060400080606000806080008060A0008060C0008060E00080800000808020008080400080806000808080008080A0008080C0008080E00080A0000080A0200080A0400080A0600080A0800080A0A00080A0C00080A0E00080C0000080C0200080C0400080C0600080C0
310
800080C0A00080C0C00080C0E00080E0000080E0200080E0400080E0600080E0800080E0A00080E0C00080E0E000C0000000C0002000C0004000C0006000C0008000C000A000C000C000C000E000C0200000C0202000C0204000C0206000C0208000C020A000C020C000C020E000C0400000C0402000C0404000C0406000C0
310
408000C040A000C040C000C040E000C0600000C0602000C0604000C0606000C0608000C060A000C060C000C060E000C0800000C0802000C0804000C0806000C0808000C080A000C080C000C080E000C0A00000C0A02000C0A04000C0A06000C0A08000C0A0A000C0A0C000C0A0E000C0C00000C0C02000C0C04000C0C06000
310
C0C08000C0C0A000F0FBFF00A4A0A000808080000000FF0000FF000000FFFF00FF000000FF00FF00FFFF0000FFFFFF0000000000000000000000000000000000000000000000000000000000000000000000000000000000000000000000000000000000000000000000000000000000000000000000000000000000000000
310
00000000000000000000000000000000000000000000000000000000000000000000000000000000000000000000000000000000000000000000000000000000000000000000000000000000000000000000000000000000000000000000000000000000000000000000000000000000000000000000000000000000000000
310
00000000000000000000000000000000000000000000000000000000000000000000000000000000000000000000000000000000000000000000000000000000000000000000000000000000000000000000000000000000000000000000000000000000000000000000000000000000000000000000000000000000000000
310
0000000000000000000000000000000000000000000000000000000000FFFFFFFFFFFFFFFFFFFFFFFF00000000000000000000000000000000000000FFFFFFFFFFFFFFFFFFFFFFFFFFFF0000000000000000000000000000000000FFFF000000000000000000000000FFFF000000000000000000000000000000FF00FF0000
310
00000000000000000000FF00FF00000000000000000000000000FF00FF0000000000000000000000000000FF00FF000000000000000000000000FF00FF0000000000000000000000000000FF00FF0000000000000000000000FF00FF00000000000000000000000000000000FF00FF000000000000000000FFFFFF00000000
310
0000000000000000000000000000FFFFFF0000000000FFFFFFFF00000000000000000000000000000000000000000000FFFFFFFF0000FFFFFF000000000000000000000000000000000000000000000000FFFFFF00000000000000000000000000000000000000000000000000000000000000000000000000000000000000
310
00000000000000000000000000000000000000000000000000000000000000000000000000000000000000000000000000000000000000000000000000000000000000000000000000000000000000000000000000000000000000000000000000000000000000000000000000000000000000000000000000000000000000
310
00000000000000000000000000000000000000000000000000000000000000000000000000000000000000000000000000000000000000000000000000000000000000000000000000000000000000000000000000000000000000000000000000000000000000000000000000000000000000000000000000000000000000
310
0000000000000000000000000000000000000000000000000000000000000000000000000000000000000000000000000000000000000000
102
{BLKREFS
331
73A
102
}
1001
AcDbDynamicBlockGUID
1000
{87164450-9AF0-486A-A128-EF875AD0C801}
1001
AcDbBlockRepETag
1070
     1
1071
       20
1001
ACAD
1000
DesignCenter Data
1002
{
1070
     1
1070
     4
1002
}
  0
BLOCK_RECORD
  5
73B
102
{ACAD_XDICTIONARY
360
A2A
102
}
330
1
100
AcDbSymbolTableRecord
100
AcDbBlockTableRecord
  2
2
340
0
310
2800000020000000200000000100080000000000000400000000000000000000000000000000000000000000000080000080000000808000800000008000800080800000C0C0C000C0DCC000F0CAA6000020400000206000002080000020A0000020C0000020E00000400000004020000040400000406000004080000040A0
310
000040C0000040E00000600000006020000060400000606000006080000060A0000060C0000060E00000800000008020000080400000806000008080000080A0000080C0000080E00000A0000000A0200000A0400000A0600000A0800000A0A00000A0C00000A0E00000C0000000C0200000C0400000C0600000C0800000C0
310
A00000C0C00000C0E00000E0000000E0200000E0400000E0600000E0800000E0A00000E0C00000E0E00040000000400020004000400040006000400080004000A0004000C0004000E00040200000402020004020400040206000402080004020A0004020C0004020E000404000004040200040404000404060004040800040
310
40A0004040C0004040E00040600000406020004060400040606000406080004060A0004060C0004060E00040800000408020004080400040806000408080004080A0004080C0004080E00040A0000040A0200040A0400040A0600040A0800040A0A00040A0C00040A0E00040C0000040C0200040C0400040C0600040C08000
310
40C0A00040C0C00040C0E00040E0000040E0200040E0400040E0600040E0800040E0A00040E0C00040E0E00080000000800020008000400080006000800080008000A0008000C0008000E00080200000802020008020400080206000802080008020A0008020C0008020E00080400000804020008040400080406000804080
310
008040A0008040C0008040E00080600000806020008060400080606000806080008060A0008060C0008060E00080800000808020008080400080806000808080008080A0008080C0008080E00080A0000080A0200080A0400080A0600080A0800080A0A00080A0C00080A0E00080C0000080C0200080C0400080C0600080C0
310
800080C0A00080C0C00080C0E00080E0000080E0200080E0400080E0600080E0800080E0A00080E0C00080E0E000C0000000C0002000C0004000C0006000C0008000C000A000C000C000C000E000C0200000C0202000C0204000C0206000C0208000C020A000C020C000C020E000C0400000C0402000C0404000C0406000C0
310
408000C040A000C040C000C040E000C0600000C0602000C0604000C0606000C0608000C060A000C060C000C060E000C0800000C0802000C0804000C0806000C0808000C080A000C080C000C080E000C0A00000C0A02000C0A04000C0A06000C0A08000C0A0A000C0A0C000C0A0E000C0C00000C0C02000C0C04000C0C06000
310
C0C08000C0C0A000F0FBFF00A4A0A000808080000000FF0000FF000000FFFF00FF000000FF00FF00FFFF0000FFFFFF0000000000000000000000000000000000000000000000000000000000000000000000000000000000000000000000000000000000000000000000000000000000000000000000000000000000000000
310
00000000000000000000000000000000000000000000000000000000000000000000000000000000000000000000000000000000000000000000000000000000000000000000000000000000000000000000000000000000000000000000000000000000000000000000000000000000000000000000000000000000000000
310
00000000000000000000000000000000000000000000000000000000000000000000000000000000000000000000000000000000000000000000000000000000000000000000000000000000000000000000000000000000000000000000000000000000000000000000000000000000000000000000000000000000000000
310
00000000000000000000000000000000000000000000000000000000000000000000000000000000000000000000000000000000000000000000000000000000000000000000000000000000000000000000000000000000000000000000000000000000000000000000000000000000000000000000000000000000000000
310
000000000000000000000000000000000000000000FFFFFFFFFFFFFFFFFFFFFFFFFFFFFFFFFFFFFFFFFFFFFFFFFFFFFFFFFFFF0000FFFFFFFFFFFFFFFFFFFFFFFFFFFFFFFFFFFFFFFFFFFFFFFFFFFFFFFFFFFF0000000000000000000000000000000000000000000000000000000000000000000000000000000000000000
310
00000000000000000000000000000000000000000000000000000000000000000000000000000000000000000000000000000000000000000000000000000000000000000000000000000000000000000000000000000000000000000000000000000000000000000000000000000000000000000000000000000000000000
310
00000000000000000000000000000000000000000000000000000000000000000000000000000000000000000000000000000000000000000000000000000000000000000000000000000000000000000000000000000000000000000000000000000000000000000000000000000000000000000000000000000000000000
310
00000000000000000000000000000000000000000000000000000000000000000000000000000000000000000000000000000000000000000000000000000000000000000000000000000000000000000000000000000000000000000000000000000000000000000000000000000000000000000000000000000000000000
310
0000000000000000000000000000000000000000000000000000000000000000000000000000000000000000000000000000000000000000
102
{BLKREFS
331
74B
102
}
1001
AcDbDynamicBlockGUID
1000
{B2530FD5-5117-46D8-80D2-ACA0CC288EC3}
1001
AcDbBlockRepETag
1070
     1
1071
       13
1001
ACAD
1000
DesignCenter Data
1002
{
1070
     1
1070
     4
1002
}
  0
BLOCK_RECORD
  5
74C
330
1
100
AcDbSymbolTableRecord
100
AcDbBlockTableRecord
  2
3
340
0
310
2800000020000000200000000100080000000000000400000000000000000000000000000000000000000000000080000080000000808000800000008000800080800000C0C0C000C0DCC000F0CAA6000020400000206000002080000020A0000020C0000020E00000400000004020000040400000406000004080000040A0
310
000040C0000040E00000600000006020000060400000606000006080000060A0000060C0000060E00000800000008020000080400000806000008080000080A0000080C0000080E00000A0000000A0200000A0400000A0600000A0800000A0A00000A0C00000A0E00000C0000000C0200000C0400000C0600000C0800000C0
310
A00000C0C00000C0E00000E0000000E0200000E0400000E0600000E0800000E0A00000E0C00000E0E00040000000400020004000400040006000400080004000A0004000C0004000E00040200000402020004020400040206000402080004020A0004020C0004020E000404000004040200040404000404060004040800040
310
40A0004040C0004040E00040600000406020004060400040606000406080004060A0004060C0004060E00040800000408020004080400040806000408080004080A0004080C0004080E00040A0000040A0200040A0400040A0600040A0800040A0A00040A0C00040A0E00040C0000040C0200040C0400040C0600040C08000
310
40C0A00040C0C00040C0E00040E0000040E0200040E0400040E0600040E0800040E0A00040E0C00040E0E00080000000800020008000400080006000800080008000A0008000C0008000E00080200000802020008020400080206000802080008020A0008020C0008020E00080400000804020008040400080406000804080
310
008040A0008040C0008040E00080600000806020008060400080606000806080008060A0008060C0008060E00080800000808020008080400080806000808080008080A0008080C0008080E00080A0000080A0200080A0400080A0600080A0800080A0A00080A0C00080A0E00080C0000080C0200080C0400080C0600080C0
310
800080C0A00080C0C00080C0E00080E0000080E0200080E0400080E0600080E0800080E0A00080E0C00080E0E000C0000000C0002000C0004000C0006000C0008000C000A000C000C000C000E000C0200000C0202000C0204000C0206000C0208000C020A000C020C000C020E000C0400000C0402000C0404000C0406000C0
310
408000C040A000C040C000C040E000C0600000C0602000C0604000C0606000C0608000C060A000C060C000C060E000C0800000C0802000C0804000C0806000C0808000C080A000C080C000C080E000C0A00000C0A02000C0A04000C0A06000C0A08000C0A0A000C0A0C000C0A0E000C0C00000C0C02000C0C04000C0C06000
310
C0C08000C0C0A000F0FBFF00A4A0A000808080000000FF0000FF000000FFFF00FF000000FF00FF00FFFF0000FFFFFF000000000000000000000000000000000000000000000000000000000000000000000000000000000000000000000000FFFF000000000000000000000000000000000000000000000000000000000000
310
FFFF000000000000000000000000000000000000000000000000000000000000FFFF000000000000000000000000000000000000000000000000000000000000FFFF000000000000000000000000000000000000000000000000000000000000FFFF0000000000000000000000000000000000000000000000000000000000
310
00FFFF000000000000000000000000000000000000000000000000000000000000FFFF000000000000000000000000000000000000000000000000000000000000FFFF000000000000000000000000000000000000000000000000000000000000FFFF00000000000000000000000000000000000000000000000000000000
310
0000FFFF000000000000000000000000000000000000000000000000000000000000FFFF000000000000000000000000000000000000000000000000000000000000FFFF000000000000000000000000000000000000000000000000000000000000FFFF000000000000000000000000000000000000000000000000000000
310
000000FFFF000000000000000000000000000000000000000000000000000000000000FFFF000000000000000000000000000000000000000000000000000000000000FFFF000000000000000000000000000000000000000000000000000000000000FFFF0000000000000000000000000000000000000000000000000000
310
00000000FFFF000000000000000000000000000000000000000000000000000000000000FFFF000000000000000000000000000000000000000000000000000000000000FFFF000000000000000000000000000000000000000000000000000000000000FFFF00000000000000000000000000000000000000000000000000
310
0000000000FFFF000000000000000000000000000000000000000000000000000000000000FFFF000000000000000000000000000000000000000000000000000000000000FFFF000000000000000000000000000000000000000000000000000000000000FFFF000000000000000000000000000000000000000000000000
310
000000000000FFFF000000000000000000000000000000000000000000000000000000000000FFFF000000000000000000000000000000000000000000000000000000000000FFFF000000000000000000000000000000000000000000000000000000000000FFFF0000000000000000000000000000000000000000000000
310
00000000000000FFFF0000000000000000000000000000000000000000000000000000000000000000000000000000000000000000000000
102
{BLKREFS
331
82D
102
}
1001
ACAD
1000
DesignCenter Data
1002
{
1070
     1
1070
     4
1002
}
  0
BLOCK_RECORD
  5
82E
330
1
100
AcDbSymbolTableRecord
100
AcDbBlockTableRecord
  2
4
340
0
310
2800000020000000200000000100080000000000000400000000000000000000000000000000000000000000000080000080000000808000800000008000800080800000C0C0C000C0DCC000F0CAA6000020400000206000002080000020A0000020C0000020E00000400000004020000040400000406000004080000040A0
310
000040C0000040E00000600000006020000060400000606000006080000060A0000060C0000060E00000800000008020000080400000806000008080000080A0000080C0000080E00000A0000000A0200000A0400000A0600000A0800000A0A00000A0C00000A0E00000C0000000C0200000C0400000C0600000C0800000C0
310
A00000C0C00000C0E00000E0000000E0200000E0400000E0600000E0800000E0A00000E0C00000E0E00040000000400020004000400040006000400080004000A0004000C0004000E00040200000402020004020400040206000402080004020A0004020C0004020E000404000004040200040404000404060004040800040
310
40A0004040C0004040E00040600000406020004060400040606000406080004060A0004060C0004060E00040800000408020004080400040806000408080004080A0004080C0004080E00040A0000040A0200040A0400040A0600040A0800040A0A00040A0C00040A0E00040C0000040C0200040C0400040C0600040C08000
310
40C0A00040C0C00040C0E00040E0000040E0200040E0400040E0600040E0800040E0A00040E0C00040E0E00080000000800020008000400080006000800080008000A0008000C0008000E00080200000802020008020400080206000802080008020A0008020C0008020E00080400000804020008040400080406000804080
310
008040A0008040C0008040E00080600000806020008060400080606000806080008060A0008060C0008060E00080800000808020008080400080806000808080008080A0008080C0008080E00080A0000080A0200080A0400080A0600080A0800080A0A00080A0C00080A0E00080C0000080C0200080C0400080C0600080C0
310
800080C0A00080C0C00080C0E00080E0000080E0200080E0400080E0600080E0800080E0A00080E0C00080E0E000C0000000C0002000C0004000C0006000C0008000C000A000C000C000C000E000C0200000C0202000C0204000C0206000C0208000C020A000C020C000C020E000C0400000C0402000C0404000C0406000C0
310
408000C040A000C040C000C040E000C0600000C0602000C0604000C0606000C0608000C060A000C060C000C060E000C0800000C0802000C0804000C0806000C0808000C080A000C080C000C080E000C0A00000C0A02000C0A04000C0A06000C0A08000C0A0A000C0A0C000C0A0E000C0C00000C0C02000C0C04000C0C06000
310
C0C08000C0C0A000F0FBFF00A4A0A000808080000000FF0000FF000000FFFF00FF000000FF00FF00FFFF0000FFFFFF0000000000000000000000000000000000000000000000000000000000000000000000000000000000000000000000000000000000000000000000000000000000000000000000000000000000000000
310
00000000000000000000000000000000000000000000000000000000000000000000000000000000000000000000000000000000000000000000000000000000000000000000000000000000000000000000000000000000000000000000000000000000000000000000000000000000000000000000000000000000000000
310
0000000000000000000000000000000000000000FF000000000000000000000000000000000000000000000000000000000000FFFFFFFF0000000000000000000000000000000000000000000000000000000000FFFFFFFFFF0000000000000000000000000000000000000000000000000000000000FFFFFFFFFF00000000
310
00000000000000000000000000000000000000000000000000FFFFFFFF000000000000000000000000000000000000000000000000000000000000FFFFFFFF0000000000000000000000000000000000000000000000000000000000FFFFFFFFFF0000000000000000000000000000000000000000000000000000000000FF
310
FFFFFFFF0000000000000000000000000000000000000000000000000000000000FFFFFFFF000000000000000000000000000000000000000000000000000000000000FFFFFFFF0000000000000000000000000000000000000000000000000000000000FFFFFFFFFF00000000000000000000000000000000000000000000
310
00000000000000FFFFFFFFFF0000000000000000000000000000000000000000000000000000000000FFFFFFFF000000000000000000000000000000000000000000000000000000000000FFFFFFFF0000000000000000000000000000000000000000000000000000000000FFFFFFFFFF0000000000000000000000000000
310
000000000000000000000000000000FFFFFFFFFF0000000000000000000000000000000000000000000000000000000000FFFFFFFF000000000000000000000000000000000000000000000000000000000000FF00000000000000000000000000000000000000000000000000000000000000000000000000000000000000
310
00000000000000000000000000000000000000000000000000000000000000000000000000000000000000000000000000000000000000000000000000000000000000000000000000000000000000000000000000000000000000000000000000000000000000000000000000000000000000000000000000000000000000
310
0000000000000000000000000000000000000000000000000000000000000000000000000000000000000000000000000000000000000000
102
{BLKREFS
331
9EB
102
}
1001
ACAD
1000
DesignCenter Data
1002
{
1070
     1
1070
     4
1002
}
  0
ENDTAB
  0
ENDSEC
  0
SECTION
  2
BLOCKS
  0
BLOCK
  5
20
330
1F
100
AcDbEntity
  8
0
100
AcDbBlockBegin
  2
*Model_Space
 70
     0
 10
0.0
 20
0.0
 30
0.0
  3
*Model_Space
  1

  0
ENDBLK
  5
21
330
1F
100
AcDbEntity
  8
0
100
AcDbBlockEnd
  0
BLOCK
  5
D4
330
D2
100
AcDbEntity
 67
     1
  8
0
100
AcDbBlockBegin
  2
*Paper_Space
 70
     0
 10
0.0
 20
0.0
 30
0.0
  3
*Paper_Space
  1

  0
ENDBLK
  5
D5
330
D2
100
AcDbEntity
 67
     1
  8
0
100
AcDbBlockEnd
  0
BLOCK
  5
D8
330
D6
100
AcDbEntity
 67
     1
  8
0
100
AcDbBlockBegin
  2
*Paper_Space0
 70
     0
 10
0.0
 20
0.0
 30
0.0
  3
*Paper_Space0
  1

  0
ENDBLK
  5
D9
330
D6
100
AcDbEntity
 67
     1
  8
0
100
AcDbBlockEnd
  0
BLOCK
  5
724
330
723
100
AcDbEntity
  8
0
100
AcDbBlockBegin
  2
1
 70
     0
 10
0.0
 20
0.0
 30
0.0
  3
1
  1

  0
LINE
  5
9FE
330
723
100
AcDbEntity
  8
0
  6
Continuous
 62
     7
370
    15
100
AcDbLine
 10
2664.824341472415
 20
2020.310282788528
 30
0.0
 11
2664.824341472415
 21
2020.610282860985
 31
0.0
1001
AcDbBlockRepETag
1070
     1
1071
        0
1005
9FE
  0
ARC
  5
9FF
330
723
100
AcDbEntity
  8
0
  6
Continuous
 62
     7
370
    15
100
AcDbCircle
 10
2666.324341485454
 20
2020.31028277195
 30
0.0
 40
1.500000000000454
100
AcDbArc
 50
180.0
 51
270.0
1001
AcDbBlockRepETag
1070
     1
1071
        1
1005
9FF
  0
LINE
  5
A00
330
723
100
AcDbEntity
  8
0
  6
Continuous
 62
     7
370
    15
100
AcDbLine
 10
2671.824341455651
 20
2018.810282819448
 30
0.0
 11
2666.324341485454
 21
2018.810282819448
 31
0.0
1001
AcDbBlockRepETag
1070
     1
1071
        2
1005
A00
  0
ARC
  5
A01
330
723
100
AcDbEntity
  8
0
  6
Continuous
 62
     7
370
    15
100
AcDbCircle
 10
2671.824341485452
 20
2020.31028277195
 30
0.0
 40
1.500000000000227
100
AcDbArc
 50
270.0
 51
359.9999999999935
1001
AcDbBlockRepETag
1070
     1
1071
        3
1005
A01
  0
LINE
  5
A02
330
723
100
AcDbEntity
  8
0
  6
Continuous
 62
     7
370
    15
100
AcDbLine
 10
2673.32434170152
 20
2020.610282860985
 30
0.0
 11
2673.32434170152
 21
2020.266853494958
 31
0.0
1001
AcDbBlockRepETag
1070
     1
1071
        4
1005
A02
  0
ARC
  5
A03
330
723
100
AcDbEntity
  8
0
  6
Continuous
 62
     7
370
    15
100
AcDbCircle
 10
2675.524341485453
 20
2020.61028277195
 30
0.0
 40
2.200000000000045
100
AcDbArc
 50
90.0
 51
180.0
1001
AcDbBlockRepETag
1070
     1
1071
        5
1005
A03
  0
LINE
  5
A04
330
723
100
AcDbEntity
  8
0
  6
Continuous
 62
     7
370
    15
100
AcDbLine
 10
2676.574341768576
 20
2022.810282616233
 30
0.0
 11
2675.524341689599
 21
2022.810282616233
 31
0.0
1001
AcDbBlockRepETag
1070
     1
1071
        6
1005
A04
  0
LINE
  5
A05
330
723
100
AcDbEntity
  8
0
  6
Continuous
 62
     7
370
    15
100
AcDbLine
 10
2676.574341768576
 20
2021.810282917982
 30
0.0
 11
2676.574341768576
 21
2022.810282616233
 31
0.0
1001
AcDbBlockRepETag
1070
     1
1071
        7
1005
A05
  0
LINE
  5
A06
330
723
100
AcDbEntity
  8
0
  6
Continuous
 62
     7
370
    15
100
AcDbLine
 10
2675.524341689599
 20
2021.810282917982
 30
0.0
 11
2676.574341768576
 21
2021.810282917982
 31
0.0
1001
AcDbBlockRepETag
1070
     1
1071
        8
1005
A06
  0
ARC
  5
A07
330
723
100
AcDbEntity
  8
0
  6
Continuous
 62
     7
370
    15
100
AcDbCircle
 10
2675.524341485453
 20
2020.61028277195
 30
0.0
 40
1.200000000000045
100
AcDbArc
 50
90.0
 51
180.0
1001
AcDbBlockRepETag
1070
     1
1071
        9
1005
A07
  0
LINE
  5
A08
330
723
100
AcDbEntity
  8
0
  6
Continuous
 62
     7
370
    15
100
AcDbLine
 10
2674.324266046883
 20
2020.29086146513
 30
0.0
 11
2674.324341865433
 21
2020.610282860985
 31
0.0
1001
AcDbBlockRepETag
1070
     1
1071
       10
1005
A08
  0
ARC
  5
A09
330
723
100
AcDbEntity
  8
0
  6
Continuous
 62
     7
370
    15
100
AcDbCircle
 10
2671.824341485452
 20
2020.31028277195
 30
0.0
 40
2.500000000000113
100
AcDbArc
 50
270.0
 51
0.0
1001
AcDbBlockRepETag
1070
     1
1071
       11
1005
A09
  0
LINE
  5
A0A
330
723
100
AcDbEntity
  8
0
  6
Continuous
 62
     7
370
    15
100
AcDbLine
 10
2666.324341485454
 20
2017.81028277195
 30
0.0
 11
2671.824341455651
 21
2017.81028277195
 31
0.0
1001
AcDbBlockRepETag
1070
     1
1071
       12
1005
A0A
  0
ARC
  5
A0B
330
723
100
AcDbEntity
  8
0
  6
Continuous
 62
     7
370
    15
100
AcDbCircle
 10
2666.324341485454
 20
2020.31028277195
 30
0.0
 40
2.500000000000341
100
AcDbArc
 50
180.0
 51
270.0
1001
AcDbBlockRepETag
1070
     1
1071
       13
1005
A0B
  0
LINE
  5
A0C
330
723
100
AcDbEntity
  8
0
  6
Continuous
 62
     7
370
    15
100
AcDbLine
 10
2663.824341541333
 20
2020.610282860985
 30
0.0
 11
2663.824341541333
 21
2020.309754190445
 31
0.0
1001
AcDbBlockRepETag
1070
     1
1071
       14
1005
A0C
  0
ARC
  5
A0D
330
723
100
AcDbEntity
  8
0
  6
Continuous
 62
     7
370
    15
100
AcDbCircle
 10
2662.624341485452
 20
2020.610282771951
 30
0.0
 40
1.200000000000613
100
AcDbArc
 50
0.0
 51
89.99999999994789
1001
AcDbBlockRepETag
1070
     1
1071
       15
1005
A0D
  0
LINE
  5
A0E
330
723
100
AcDbEntity
  8
0
  6
Continuous
 62
     7
370
    15
100
AcDbLine
 10
2661.57434163819
 20
2021.810282917982
 30
0.0
 11
2662.624341484336
 21
2021.810282917982
 31
0.0
1001
AcDbBlockRepETag
1070
     1
1071
       16
1005
A0E
  0
LINE
  5
A0F
330
723
100
AcDbEntity
  8
0
  6
Continuous
 62
     7
370
    15
100
AcDbLine
 10
2661.57434163819
 20
2022.810282616233
 30
0.0
 11
2661.57434163819
 21
2021.810282917982
 31
0.0
1001
AcDbBlockRepETag
1070
     1
1071
       17
1005
A0F
  0
LINE
  5
A10
330
723
100
AcDbEntity
  8
0
  6
Continuous
 62
     7
370
    15
100
AcDbLine
 10
2662.624341484336
 20
2022.810282616233
 30
0.0
 11
2661.57434163819
 21
2022.810282616233
 31
0.0
1001
AcDbBlockRepETag
1070
     1
1071
       18
1005
A10
  0
ARC
  5
A11
330
723
100
AcDbEntity
  8
0
  6
Continuous
 62
     7
370
    15
100
AcDbCircle
 10
2662.624341485452
 20
2020.610282771951
 30
0.0
 40
2.2000000000005
100
AcDbArc
 50
0.0
 51
90.0
1001
AcDbBlockRepETag
1070
     1
1071
       19
1005
A11
  0
ENDBLK
  5
725
330
723
100
AcDbEntity
  8
0
100
AcDbBlockEnd
  0
BLOCK
  5
73C
330
73B
100
AcDbEntity
  8
0
100
AcDbBlockBegin
  2
2
 70
     0
 10
0.0
 20
0.0
 30
0.0
  3
2
  1

  0
LINE
  5
A1D
330
73B
100
AcDbEntity
  8
0
  6
Continuous
 62
     7
370
    15
100
AcDbLine
 10
1651.394759670898
 20
2021.810282917982
 30
0.0
 11
2651.394759670899
 21
2021.810282917982
 31
0.0
1001
AcDbBlockRepETag
1070
     1
1071
        0
1005
A1D
  0
LINE
  5
A1E
330
73B
100
AcDbEntity
  8
0
  6
Continuous
 62
     7
370
    15
100
AcDbLine
 10
1651.394759670898
 20
2021.810282917982
 30
0.0
 11
1651.394759670898
 21
2022.810282616233
 31
0.0
1001
AcDbBlockRepETag
1070
     1
1071
        1
1005
A1E
  0
LINE
  5
A1F
330
73B
100
AcDbEntity
  8
0
  6
Continuous
 62
     7
370
    15
100
AcDbLine
 10
2651.394759670899
 20
2021.810282917982
 30
0.0
 11
2651.394759670899
 21
2022.810282616233
 31
0.0
1001
AcDbBlockRepETag
1070
     1
1071
        2
1005
A1F
  0
LINE
  5
A20
330
73B
100
AcDbEntity
  8
0
  6
Continuous
 62
     7
370
    15
100
AcDbLine
 10
1651.394759670898
 20
2022.810282616233
 30
0.0
 11
2651.394759670899
 21
2022.810282616233
 31
0.0
1001
AcDbBlockRepETag
1070
     1
1071
        3
1005
A20
  0
LINE
  5
A21
330
73B
100
AcDbEntity
  8
0
  6
Continuous
 62
     7
370
    15
100
AcDbLine
 10
1651.394759670898
 20
2020.910282860985
 30
0.0
 11
2651.394759670899
 21
2020.910282860985
 31
0.0
1001
AcDbBlockRepETag
1070
     1
1071
        4
1005
A21
  0
LINE
  5
A22
330
73B
100
AcDbEntity
  8
0
  6
Continuous
 62
     7
370
    15
100
AcDbLine
 10
1651.394759670898
 20
2020.610282860985
 30
0.0
 11
1651.394759670898
 21
2021.810282917982
 31
0.0
1001
AcDbBlockRepETag
1070
     1
1071
        5
1005
A22
  0
LINE
  5
A23
330
73B
100
AcDbEntity
  8
0
  6
Continuous
 62
     7
370
    15
100
AcDbLine
 10
2651.394759670899
 20
2020.610282860985
 30
0.0
 11
2651.394759670899
 21
2021.810282917982
 31
0.0
1001
AcDbBlockRepETag
1070
     1
1071
        6
1005
A23
  0
LINE
  5
A24
330
73B
100
AcDbEntity
  8
0
  6
Continuous
 62
     7
370
    15
100
AcDbLine
 10
1651.394759670898
 20
2017.81028277195
 30
0.0
 11
2651.394759670899
 21
2017.81028277195
 31
0.0
1001
AcDbBlockRepETag
1070
     1
1071
        7
1005
A24
  0
LINE
  5
A25
330
73B
100
AcDbEntity
  8
0
  6
Continuous
 62
     7
370
    15
100
AcDbLine
 10
1651.394759670898
 20
2020.310282716071
 30
0.0
 11
2651.394759670899
 21
2020.310282716071
 31
0.0
1001
AcDbBlockRepETag
1070
     1
1071
        8
1005
A25
  0
LINE
  5
A26
330
73B
100
AcDbEntity
  8
0
  6
Continuous
 62
     7
370
    15
100
AcDbLine
 10
1651.394759670898
 20
2017.81028277195
 30
0.0
 11
1651.394759670898
 21
2020.010282716071
 31
0.0
1001
AcDbBlockRepETag
1070
     1
1071
        9
1005
A26
  0
LINE
  5
A27
330
73B
100
AcDbEntity
  8
0
  6
Continuous
 62
     7
370
    15
100
AcDbLine
 10
2651.394759670899
 20
2017.81028277195
 30
0.0
 11
2651.394759670899
 21
2020.010282716071
 31
0.0
1001
AcDbBlockRepETag
1070
     1
1071
       10
1005
A27
  0
LINE
  5
A28
330
73B
100
AcDbEntity
  8
0
  6
Continuous
 62
     7
370
    15
100
AcDbLine
 10
1651.394759670898
 20
2020.010282716071
 30
0.0
 11
1651.394759670898
 21
2020.610282860985
 31
0.0
1001
AcDbBlockRepETag
1070
     1
1071
       11
1005
A28
  0
LINE
  5
A29
330
73B
100
AcDbEntity
  8
0
  6
Continuous
 62
     7
370
    15
100
AcDbLine
 10
2651.394759670899
 20
2020.010282716071
 30
0.0
 11
2651.394759670899
 21
2020.610282860985
 31
0.0
1001
AcDbBlockRepETag
1070
     1
1071
       12
1005
A29
  0
ENDBLK
  5
73D
330
73B
100
AcDbEntity
  8
0
100
AcDbBlockEnd
  0
BLOCK
  5
74D
330
74C
100
AcDbEntity
  8
0
100
AcDbBlockBegin
  2
3
 70
     0
 10
0.0
 20
0.0
 30
0.0
  3
3
  1

  0
LINE
  5
74F
330
74C
100
AcDbEntity
  8
0
  6
Continuous
 62
     7
370
    15
100
AcDbLine
 10
2664.824341472415
 20
983.4234035878886
 30
0.0
 11
2664.824341472415
 21
1983.423403587888
 31
0.0
  0
LINE
  5
750
330
74C
100
AcDbEntity
  8
0
  6
Continuous
 62
     7
370
    15
100
AcDbLine
 10
2664.824341472415
 20
983.4234035878886
 30
0.0
 11
2662.624341484336
 21
983.4234035878886
 31
0.0
  0
LINE
  5
751
330
74C
100
AcDbEntity
  8
0
  6
Continuous
 62
     7
370
    15
100
AcDbLine
 10
2662.624341484336
 20
983.4234035878886
 30
0.0
 11
2662.624341484336
 21
1983.423403587888
 31
0.0
  0
LINE
  5
752
330
74C
100
AcDbEntity
  8
0
  6
Continuous
 62
     7
370
    15
100
AcDbLine
 10
2664.824341472415
 20
1983.423403587888
 30
0.0
 11
2662.624341484336
 21
1983.423403587888
 31
0.0
  0
LINE
  5
753
330
74C
100
AcDbEntity
  8
0
  6
Continuous
 62
     7
370
    15
100
AcDbLine
 10
2662.624341484336
 20
983.4234035878886
 30
0.0
 11
2661.57434163819
 21
983.4234035878886
 31
0.0
  0
LINE
  5
754
330
74C
100
AcDbEntity
  8
0
  6
Continuous
 62
     7
370
    15
100
AcDbLine
 10
2661.57434163819
 20
983.4234035878886
 30
0.0
 11
2661.57434163819
 21
1983.423403587888
 31
0.0
  0
LINE
  5
755
330
74C
100
AcDbEntity
  8
0
  6
Continuous
 62
     7
370
    15
100
AcDbLine
 10
2662.624341484336
 20
1983.423403587888
 30
0.0
 11
2661.57434163819
 21
1983.423403587888
 31
0.0
  0
LINE
  5
756
330
74C
100
AcDbEntity
  8
0
  6
Continuous
 62
     7
370
    15
100
AcDbLine
 10
2676.574341768576
 20
983.4234035878886
 30
0.0
 11
2676.574341768576
 21
1983.423403587888
 31
0.0
  0
LINE
  5
757
330
74C
100
AcDbEntity
  8
0
  6
Continuous
 62
     7
370
    15
100
AcDbLine
 10
2676.574341768576
 20
983.4234035878886
 30
0.0
 11
2675.524341689599
 21
983.4234035878886
 31
0.0
  0
LINE
  5
758
330
74C
100
AcDbEntity
  8
0
  6
Continuous
 62
     7
370
    15
100
AcDbLine
 10
2675.524341689599
 20
983.4234035878886
 30
0.0
 11
2675.524341689599
 21
1983.423403587888
 31
0.0
  0
LINE
  5
759
330
74C
100
AcDbEntity
  8
0
  6
Continuous
 62
     7
370
    15
100
AcDbLine
 10
2676.574341768576
 20
1983.423403587888
 30
0.0
 11
2675.524341689599
 21
1983.423403587888
 31
0.0
  0
LINE
  5
75A
330
74C
100
AcDbEntity
  8
0
  6
Continuous
 62
     7
370
    15
100
AcDbLine
 10
2675.524341689599
 20
983.4234035878886
 30
0.0
 11
2673.32434170152
 21
983.4234035878886
 31
0.0
  0
LINE
  5
75B
330
74C
100
AcDbEntity
  8
0
  6
Continuous
 62
     7
370
    15
100
AcDbLine
 10
2673.32434170152
 20
983.4234035878886
 30
0.0
 11
2673.32434170152
 21
1983.423403587888
 31
0.0
  0
LINE
  5
75C
330
74C
100
AcDbEntity
  8
0
  6
Continuous
 62
     7
370
    15
100
AcDbLine
 10
2675.524341689599
 20
1983.423403587888
 30
0.0
 11
2673.32434170152
 21
1983.423403587888
 31
0.0
  0
LINE
  5
75D
330
74C
100
AcDbEntity
  8
0
  6
Continuous
 62
     7
370
    15
100
AcDbLine
 10
2666.324341485454
 20
983.4234035878886
 30
0.0
 11
2666.324341485454
 21
1983.423403587888
 31
0.0
  0
LINE
  5
75E
330
74C
100
AcDbEntity
  8
0
  6
Continuous
 62
     7
370
    15
100
AcDbLine
 10
2666.324341485454
 20
983.4234035878886
 30
0.0
 11
2664.824341472415
 21
983.4234035878886
 31
0.0
  0
LINE
  5
75F
330
74C
100
AcDbEntity
  8
0
  6
Continuous
 62
     7
370
    15
100
AcDbLine
 10
2666.324341485454
 20
1983.423403587888
 30
0.0
 11
2664.824341472415
 21
1983.423403587888
 31
0.0
  0
LINE
  5
760
330
74C
100
AcDbEntity
  8
0
  6
Continuous
 62
     7
370
    15
100
AcDbLine
 10
2671.824341455651
 20
983.4234035878886
 30
0.0
 11
2671.824341455651
 21
1983.423403587888
 31
0.0
  0
LINE
  5
761
330
74C
100
AcDbEntity
  8
0
  6
Continuous
 62
     7
370
    15
100
AcDbLine
 10
2673.32434170152
 20
983.4234035878886
 30
0.0
 11
2671.824341455651
 21
983.4234035878886
 31
0.0
  0
LINE
  5
762
330
74C
100
AcDbEntity
  8
0
  6
Continuous
 62
     7
370
    15
100
AcDbLine
 10
2673.32434170152
 20
1983.423403587888
 30
0.0
 11
2671.824341455651
 21
1983.423403587888
 31
0.0
  0
ARC
  5
763
330
74C
100
AcDbEntity
  8
0
  6
Continuous
 62
     7
370
    15
100
AcDbCircle
 10
2669.074341485453
 20
1966.123403587888
 30
0.0
 40
2.200000000000045
100
AcDbArc
 50
180.0
 51
0.0
  0
LINE
  5
764
330
74C
100
AcDbEntity
  8
0
  6
Continuous
 62
     7
370
    15
100
AcDbLine
 10
2671.274341458631
 20
1966.123403173636
 30
0.0
 11
2671.274341458631
 21
1973.423403811406
 31
0.0
  0
ARC
  5
765
330
74C
100
AcDbEntity
  8
0
  6
Continuous
 62
     7
370
    15
100
AcDbCircle
 10
2669.074341485453
 20
1973.423403587888
 30
0.0
 40
2.200000000000045
100
AcDbArc
 50
0.0
 51
180.0
  0
LINE
  5
766
330
74C
100
AcDbEntity
  8
0
  6
Continuous
 62
     7
370
    15
100
AcDbLine
 10
2666.874341482473
 20
1973.423403811406
 30
0.0
 11
2666.874341482473
 21
1966.123403173636
 31
0.0
  0
ARC
  5
767
330
74C
100
AcDbEntity
  8
0
  6
Continuous
 62
     7
370
    15
100
AcDbCircle
 10
2669.074341485453
 20
1946.123403587888
 30
0.0
 40
2.200000000000045
100
AcDbArc
 50
180.0
 51
0.0
  0
LINE
  5
768
330
74C
100
AcDbEntity
  8
0
  6
Continuous
 62
     7
370
    15
100
AcDbLine
 10
2671.274341458631
 20
1946.123401758026
 30
0.0
 11
2671.274341458631
 21
1953.423404258441
 31
0.0
  0
ARC
  5
769
330
74C
100
AcDbEntity
  8
0
  6
Continuous
 62
     7
370
    15
100
AcDbCircle
 10
2669.074341485453
 20
1953.423403587888
 30
0.0
 40
2.200000000000045
100
AcDbArc
 50
0.0
 51
180.0
  0
LINE
  5
76A
330
74C
100
AcDbEntity
  8
0
  6
Continuous
 62
     7
370
    15
100
AcDbLine
 10
2666.874341482473
 20
1953.423404258441
 30
0.0
 11
2666.874341482473
 21
1946.123401758026
 31
0.0
  0
ARC
  5
76B
330
74C
100
AcDbEntity
  8
0
  6
Continuous
 62
     7
370
    15
100
AcDbCircle
 10
2669.074341485453
 20
1926.123403587888
 30
0.0
 40
2.200000000000159
100
AcDbArc
 50
180.0
 51
0.0
  0
LINE
  5
76C
330
74C
100
AcDbEntity
  8
0
  6
Continuous
 62
     7
370
    15
100
AcDbLine
 10
2671.274341458631
 20
1926.123402205061
 30
0.0
 11
2671.274341458631
 21
1933.42340284283
 31
0.0
  0
ARC
  5
76D
330
74C
100
AcDbEntity
  8
0
  6
Continuous
 62
     7
370
    15
100
AcDbCircle
 10
2669.074341485453
 20
1933.423403587888
 30
0.0
 40
2.200000000000159
100
AcDbArc
 50
0.0
 51
180.0
  0
LINE
  5
76E
330
74C
100
AcDbEntity
  8
0
  6
Continuous
 62
     7
370
    15
100
AcDbLine
 10
2666.874341482473
 20
1933.42340284283
 30
0.0
 11
2666.874341482473
 21
1926.123402205061
 31
0.0
  0
ARC
  5
76F
330
74C
100
AcDbEntity
  8
0
  6
Continuous
 62
     7
370
    15
100
AcDbCircle
 10
2669.074341485453
 20
1906.123403587888
 30
0.0
 40
2.200000000000045
100
AcDbArc
 50
180.0
 51
0.0
  0
LINE
  5
770
330
74C
100
AcDbEntity
  8
0
  6
Continuous
 62
     7
370
    15
100
AcDbLine
 10
2671.274341458631
 20
1906.123406377386
 30
0.0
 11
2671.274341458631
 21
1913.423403289865
 31
0.0
  0
ARC
  5
771
330
74C
100
AcDbEntity
  8
0
  6
Continuous
 62
     7
370
    15
100
AcDbCircle
 10
2669.074341485453
 20
1913.423403587889
 30
0.0
 40
2.200000000000045
100
AcDbArc
 50
0.0
 51
180.0
  0
LINE
  5
772
330
74C
100
AcDbEntity
  8
0
  6
Continuous
 62
     7
370
    15
100
AcDbLine
 10
2666.874341482473
 20
1913.423403289865
 30
0.0
 11
2666.874341482473
 21
1906.123406377386
 31
0.0
  0
ARC
  5
773
330
74C
100
AcDbEntity
  8
0
  6
Continuous
 62
     7
370
    15
100
AcDbCircle
 10
2669.074341485453
 20
1886.123403587888
 30
0.0
 40
2.200000000000045
100
AcDbArc
 50
180.0
 51
0.0
  0
LINE
  5
774
330
74C
100
AcDbEntity
  8
0
  6
Continuous
 62
     7
370
    15
100
AcDbLine
 10
2671.274341458631
 20
1886.12340309913
 30
0.0
 11
2671.274341458631
 21
1893.42340001161
 31
0.0
  0
ARC
  5
775
330
74C
100
AcDbEntity
  8
0
  6
Continuous
 62
     7
370
    15
100
AcDbCircle
 10
2669.074341485453
 20
1893.423403587888
 30
0.0
 40
2.200000000000045
100
AcDbArc
 50
0.0
 51
180.0
  0
LINE
  5
776
330
74C
100
AcDbEntity
  8
0
  6
Continuous
 62
     7
370
    15
100
AcDbLine
 10
2666.874341482473
 20
1893.42340001161
 30
0.0
 11
2666.874341482473
 21
1886.12340309913
 31
0.0
  0
ARC
  5
777
330
74C
100
AcDbEntity
  8
0
  6
Continuous
 62
     7
370
    15
100
AcDbCircle
 10
2669.074341485453
 20
1866.123403587888
 30
0.0
 40
2.200000000000045
100
AcDbArc
 50
180.0
 51
0.0
  0
LINE
  5
778
330
74C
100
AcDbEntity
  8
0
  6
Continuous
 62
     7
370
    15
100
AcDbLine
 10
2671.274341458631
 20
1866.123407271455
 30
0.0
 11
2671.274341458631
 21
1873.423404183935
 31
0.0
  0
ARC
  5
779
330
74C
100
AcDbEntity
  8
0
  6
Continuous
 62
     7
370
    15
100
AcDbCircle
 10
2669.074341485453
 20
1873.423403587888
 30
0.0
 40
2.200000000000045
100
AcDbArc
 50
0.0
 51
180.0
  0
LINE
  5
77A
330
74C
100
AcDbEntity
  8
0
  6
Continuous
 62
     7
370
    15
100
AcDbLine
 10
2666.874341482473
 20
1873.423404183935
 30
0.0
 11
2666.874341482473
 21
1866.123407271455
 31
0.0
  0
ARC
  5
77B
330
74C
100
AcDbEntity
  8
0
  6
Continuous
 62
     7
370
    15
100
AcDbCircle
 10
2669.074341485453
 20
1846.123403587888
 30
0.0
 40
2.200000000000045
100
AcDbArc
 50
180.0
 51
0.0
  0
LINE
  5
77C
330
74C
100
AcDbEntity
  8
0
  6
Continuous
 62
     7
370
    15
100
AcDbLine
 10
2671.274341458631
 20
1846.1234039932
 30
0.0
 11
2671.274341458631
 21
1853.42340835626
 31
0.0
  0
ARC
  5
77D
330
74C
100
AcDbEntity
  8
0
  6
Continuous
 62
     7
370
    15
100
AcDbCircle
 10
2669.074341485453
 20
1853.423403587888
 30
0.0
 40
2.200000000000045
100
AcDbArc
 50
0.0
 51
180.0
  0
LINE
  5
77E
330
74C
100
AcDbEntity
  8
0
  6
Continuous
 62
     7
370
    15
100
AcDbLine
 10
2666.874341482473
 20
1853.42340835626
 30
0.0
 11
2666.874341482473
 21
1846.1234039932
 31
0.0
  0
ARC
  5
77F
330
74C
100
AcDbEntity
  8
0
  6
Continuous
 62
     7
370
    15
100
AcDbCircle
 10
2669.074341485453
 20
1826.123403587888
 30
0.0
 40
2.200000000000159
100
AcDbArc
 50
180.0
 51
0.0
  0
LINE
  5
780
330
74C
100
AcDbEntity
  8
0
  6
Continuous
 62
     7
370
    15
100
AcDbLine
 10
2671.274341458631
 20
1826.123408165525
 30
0.0
 11
2671.274341458631
 21
1833.423397627424
 31
0.0
  0
ARC
  5
781
330
74C
100
AcDbEntity
  8
0
  6
Continuous
 62
     7
370
    15
100
AcDbCircle
 10
2669.074341485453
 20
1833.423403587888
 30
0.0
 40
2.200000000000159
100
AcDbArc
 50
0.0
 51
180.0
  0
LINE
  5
782
330
74C
100
AcDbEntity
  8
0
  6
Continuous
 62
     7
370
    15
100
AcDbLine
 10
2666.874341482473
 20
1833.423397627424
 30
0.0
 11
2666.874341482473
 21
1826.123408165525
 31
0.0
  0
ARC
  5
783
330
74C
100
AcDbEntity
  8
0
  6
Continuous
 62
     7
370
    15
100
AcDbCircle
 10
2669.074341485453
 20
1806.123403587888
 30
0.0
 40
2.200000000000045
100
AcDbArc
 50
180.0
 51
0.0
  0
LINE
  5
784
330
74C
100
AcDbEntity
  8
0
  6
Continuous
 62
     7
370
    15
100
AcDbLine
 10
2671.274341458631
 20
1806.123397436689
 30
0.0
 11
2671.274341458631
 21
1813.423401799749
 31
0.0
  0
ARC
  5
785
330
74C
100
AcDbEntity
  8
0
  6
Continuous
 62
     7
370
    15
100
AcDbCircle
 10
2669.074341485453
 20
1813.423403587888
 30
0.0
 40
2.200000000000045
100
AcDbArc
 50
0.0
 51
180.0
  0
LINE
  5
786
330
74C
100
AcDbEntity
  8
0
  6
Continuous
 62
     7
370
    15
100
AcDbLine
 10
2666.874341482473
 20
1813.423401799749
 30
0.0
 11
2666.874341482473
 21
1806.123397436689
 31
0.0
  0
ARC
  5
787
330
74C
100
AcDbEntity
  8
0
  6
Continuous
 62
     7
370
    15
100
AcDbCircle
 10
2669.074341485453
 20
1786.123403587889
 30
0.0
 40
2.200000000000045
100
AcDbArc
 50
180.0
 51
0.0
  0
LINE
  5
788
330
74C
100
AcDbEntity
  8
0
  6
Continuous
 62
     7
370
    15
100
AcDbLine
 10
2671.274341458631
 20
1786.123401609014
 30
0.0
 11
2671.274341458631
 21
1793.423405972074
 31
0.0
  0
ARC
  5
789
330
74C
100
AcDbEntity
  8
0
  6
Continuous
 62
     7
370
    15
100
AcDbCircle
 10
2669.074341485453
 20
1793.423403587888
 30
0.0
 40
2.200000000000045
100
AcDbArc
 50
0.0
 51
180.0
  0
LINE
  5
78A
330
74C
100
AcDbEntity
  8
0
  6
Continuous
 62
     7
370
    15
100
AcDbLine
 10
2666.874341482473
 20
1793.423405972074
 30
0.0
 11
2666.874341482473
 21
1786.123401609014
 31
0.0
  0
ARC
  5
78B
330
74C
100
AcDbEntity
  8
0
  6
Continuous
 62
     7
370
    15
100
AcDbCircle
 10
2669.074341485453
 20
1766.123403587888
 30
0.0
 40
2.200000000000045
100
AcDbArc
 50
180.0
 51
0.0
  0
LINE
  5
78C
330
74C
100
AcDbEntity
  8
0
  6
Continuous
 62
     7
370
    15
100
AcDbLine
 10
2671.274341458631
 20
1766.123405781339
 30
0.0
 11
2671.274341458631
 21
1773.423410144399
 31
0.0
  0
ARC
  5
78D
330
74C
100
AcDbEntity
  8
0
  6
Continuous
 62
     7
370
    15
100
AcDbCircle
 10
2669.074341485453
 20
1773.423403587888
 30
0.0
 40
2.200000000000045
100
AcDbArc
 50
0.0
 51
180.0
  0
LINE
  5
78E
330
74C
100
AcDbEntity
  8
0
  6
Continuous
 62
     7
370
    15
100
AcDbLine
 10
2666.874341482473
 20
1773.423410144399
 30
0.0
 11
2666.874341482473
 21
1766.123405781339
 31
0.0
  0
ARC
  5
78F
330
74C
100
AcDbEntity
  8
0
  6
Continuous
 62
     7
370
    15
100
AcDbCircle
 10
2669.074341485454
 20
1746.123403587888
 30
0.0
 40
2.199999999999931
100
AcDbArc
 50
180.0
 51
0.0
  0
LINE
  5
790
330
74C
100
AcDbEntity
  8
0
  6
Continuous
 62
     7
370
    15
100
AcDbLine
 10
2671.274341458631
 20
1746.123409953664
 30
0.0
 11
2671.274341458631
 21
1753.423399415563
 31
0.0
  0
ARC
  5
791
330
74C
100
AcDbEntity
  8
0
  6
Continuous
 62
     7
370
    15
100
AcDbCircle
 10
2669.074341485454
 20
1753.423403587888
 30
0.0
 40
2.199999999999931
100
AcDbArc
 50
0.0
 51
180.0
  0
LINE
  5
792
330
74C
100
AcDbEntity
  8
0
  6
Continuous
 62
     7
370
    15
100
AcDbLine
 10
2666.874341482473
 20
1753.423399415563
 30
0.0
 11
2666.874341482473
 21
1746.123409953664
 31
0.0
  0
ARC
  5
793
330
74C
100
AcDbEntity
  8
0
  6
Continuous
 62
     7
370
    15
100
AcDbCircle
 10
2669.074341485454
 20
1726.123403587888
 30
0.0
 40
2.200000000000045
100
AcDbArc
 50
180.0
 51
0.0
  0
LINE
  5
794
330
74C
100
AcDbEntity
  8
0
  6
Continuous
 62
     7
370
    15
100
AcDbLine
 10
2671.274341458631
 20
1726.123414125989
 30
0.0
 11
2671.274341458631
 21
1733.423403587888
 31
0.0
  0
ARC
  5
795
330
74C
100
AcDbEntity
  8
0
  6
Continuous
 62
     7
370
    15
100
AcDbCircle
 10
2669.074341485454
 20
1733.423403587888
 30
0.0
 40
2.200000000000045
100
AcDbArc
 50
0.0
 51
180.0
  0
LINE
  5
796
330
74C
100
AcDbEntity
  8
0
  6
Continuous
 62
     7
370
    15
100
AcDbLine
 10
2666.874341482473
 20
1733.423403587888
 30
0.0
 11
2666.874341482473
 21
1726.123414125989
 31
0.0
  0
ARC
  5
797
330
74C
100
AcDbEntity
  8
0
  6
Continuous
 62
     7
370
    15
100
AcDbCircle
 10
2669.074341485454
 20
1706.123403587888
 30
0.0
 40
2.199999999999931
100
AcDbArc
 50
180.0
 51
0.0
  0
LINE
  5
798
330
74C
100
AcDbEntity
  8
0
  6
Continuous
 62
     7
370
    15
100
AcDbLine
 10
2671.274341458631
 20
1706.123403397153
 30
0.0
 11
2671.274341458631
 21
1713.423392859052
 31
0.0
  0
ARC
  5
799
330
74C
100
AcDbEntity
  8
0
  6
Continuous
 62
     7
370
    15
100
AcDbCircle
 10
2669.074341485454
 20
1713.423403587889
 30
0.0
 40
2.199999999999931
100
AcDbArc
 50
0.0
 51
180.0000000000065
  0
LINE
  5
79A
330
74C
100
AcDbEntity
  8
0
  6
Continuous
 62
     7
370
    15
100
AcDbLine
 10
2666.874341482473
 20
1713.423392859052
 30
0.0
 11
2666.874341482473
 21
1706.123403397153
 31
0.0
  0
ARC
  5
79B
330
74C
100
AcDbEntity
  8
0
  6
Continuous
 62
     7
370
    15
100
AcDbCircle
 10
2669.074341485454
 20
1686.123403587888
 30
0.0
 40
2.199999999999931
100
AcDbArc
 50
180.0
 51
0.0
  0
LINE
  5
79C
330
74C
100
AcDbEntity
  8
0
  6
Continuous
 62
     7
370
    15
100
AcDbLine
 10
2671.274341458631
 20
1686.123392668317
 30
0.0
 11
2671.274341458631
 21
1693.423411932539
 31
0.0
  0
ARC
  5
79D
330
74C
100
AcDbEntity
  8
0
  6
Continuous
 62
     7
370
    15
100
AcDbCircle
 10
2669.074341485454
 20
1693.423403587888
 30
0.0
 40
2.199999999999931
100
AcDbArc
 50
0.0
 51
180.0000000000065
  0
LINE
  5
79E
330
74C
100
AcDbEntity
  8
0
  6
Continuous
 62
     7
370
    15
100
AcDbLine
 10
2666.874341482473
 20
1693.423411932539
 30
0.0
 11
2666.874341482473
 21
1686.123392668317
 31
0.0
  0
ARC
  5
79F
330
74C
100
AcDbEntity
  8
0
  6
Continuous
 62
     7
370
    15
100
AcDbCircle
 10
2669.074341485454
 20
1666.123403587888
 30
0.0
 40
2.200000000000045
100
AcDbArc
 50
180.0
 51
0.0
  0
LINE
  5
7A0
330
74C
100
AcDbEntity
  8
0
  6
Continuous
 62
     7
370
    15
100
AcDbLine
 10
2671.274341458631
 20
1666.123411741804
 30
0.0
 11
2671.274341458631
 21
1673.423401203702
 31
0.0
  0
ARC
  5
7A1
330
74C
100
AcDbEntity
  8
0
  6
Continuous
 62
     7
370
    15
100
AcDbCircle
 10
2669.074341485454
 20
1673.423403587888
 30
0.0
 40
2.200000000000045
100
AcDbArc
 50
0.0
 51
180.0
  0
LINE
  5
7A2
330
74C
100
AcDbEntity
  8
0
  6
Continuous
 62
     7
370
    15
100
AcDbLine
 10
2666.874341482473
 20
1673.423401203702
 30
0.0
 11
2666.874341482473
 21
1666.123411741804
 31
0.0
  0
ARC
  5
7A3
330
74C
100
AcDbEntity
  8
0
  6
Continuous
 62
     7
370
    15
100
AcDbCircle
 10
2669.074341485454
 20
1646.123403587888
 30
0.0
 40
2.199999999999931
100
AcDbArc
 50
180.0
 51
0.0
  0
LINE
  5
7A4
330
74C
100
AcDbEntity
  8
0
  6
Continuous
 62
     7
370
    15
100
AcDbLine
 10
2671.274341458631
 20
1646.123401012968
 30
0.0
 11
2671.274341458631
 21
1653.423390474866
 31
0.0
  0
ARC
  5
7A5
330
74C
100
AcDbEntity
  8
0
  6
Continuous
 62
     7
370
    15
100
AcDbCircle
 10
2669.074341485454
 20
1653.423403587888
 30
0.0
 40
2.199999999999931
100
AcDbArc
 50
0.0
 51
180.0
  0
LINE
  5
7A6
330
74C
100
AcDbEntity
  8
0
  6
Continuous
 62
     7
370
    15
100
AcDbLine
 10
2666.874341482473
 20
1653.423390474866
 30
0.0
 11
2666.874341482473
 21
1646.123401012968
 31
0.0
  0
ARC
  5
7A7
330
74C
100
AcDbEntity
  8
0
  6
Continuous
 62
     7
370
    15
100
AcDbCircle
 10
2669.074341485454
 20
1626.123403587888
 30
0.0
 40
2.199999999999931
100
AcDbArc
 50
180.0
 51
0.0
  0
LINE
  5
7A8
330
74C
100
AcDbEntity
  8
0
  6
Continuous
 62
     7
370
    15
100
AcDbLine
 10
2671.274341458631
 20
1626.123390284132
 30
0.0
 11
2671.274341458631
 21
1633.423409548353
 31
0.0
  0
ARC
  5
7A9
330
74C
100
AcDbEntity
  8
0
  6
Continuous
 62
     7
370
    15
100
AcDbCircle
 10
2669.074341485454
 20
1633.423403587888
 30
0.0
 40
2.199999999999931
100
AcDbArc
 50
0.0
 51
180.0
  0
LINE
  5
7AA
330
74C
100
AcDbEntity
  8
0
  6
Continuous
 62
     7
370
    15
100
AcDbLine
 10
2666.874341482473
 20
1633.423409548353
 30
0.0
 11
2666.874341482473
 21
1626.123390284132
 31
0.0
  0
ARC
  5
7AB
330
74C
100
AcDbEntity
  8
0
  6
Continuous
 62
     7
370
    15
100
AcDbCircle
 10
2669.074341485454
 20
1606.123403587888
 30
0.0
 40
2.200000000000045
100
AcDbArc
 50
180.0
 51
0.0
  0
LINE
  5
7AC
330
74C
100
AcDbEntity
  8
0
  6
Continuous
 62
     7
370
    15
100
AcDbLine
 10
2671.274341458631
 20
1606.123409357618
 30
0.0
 11
2671.274341458631
 21
1613.423398819517
 31
0.0
  0
ARC
  5
7AD
330
74C
100
AcDbEntity
  8
0
  6
Continuous
 62
     7
370
    15
100
AcDbCircle
 10
2669.074341485454
 20
1613.423403587888
 30
0.0
 40
2.200000000000045
100
AcDbArc
 50
0.0
 51
180.0
  0
LINE
  5
7AE
330
74C
100
AcDbEntity
  8
0
  6
Continuous
 62
     7
370
    15
100
AcDbLine
 10
2666.874341482473
 20
1613.423398819517
 30
0.0
 11
2666.874341482473
 21
1606.123409357618
 31
0.0
  0
ARC
  5
7AF
330
74C
100
AcDbEntity
  8
0
  6
Continuous
 62
     7
370
    15
100
AcDbCircle
 10
2669.074341485454
 20
1586.123403587888
 30
0.0
 40
2.199999999999931
100
AcDbArc
 50
180.0
 51
0.0
  0
LINE
  5
7B0
330
74C
100
AcDbEntity
  8
0
  6
Continuous
 62
     7
370
    15
100
AcDbLine
 10
2671.274341458631
 20
1586.123398628782
 30
0.0
 11
2671.274341458631
 21
1593.423417893003
 31
0.0
  0
ARC
  5
7B1
330
74C
100
AcDbEntity
  8
0
  6
Continuous
 62
     7
370
    15
100
AcDbCircle
 10
2669.074341485454
 20
1593.423403587888
 30
0.0
 40
2.199999999999931
100
AcDbArc
 50
0.0
 51
180.0
  0
LINE
  5
7B2
330
74C
100
AcDbEntity
  8
0
  6
Continuous
 62
     7
370
    15
100
AcDbLine
 10
2666.874341482473
 20
1593.423417893003
 30
0.0
 11
2666.874341482473
 21
1586.123398628782
 31
0.0
  0
ARC
  5
7B3
330
74C
100
AcDbEntity
  8
0
  6
Continuous
 62
     7
370
    15
100
AcDbCircle
 10
2669.074341485454
 20
1566.123403587888
 30
0.0
 40
2.200000000000045
100
AcDbArc
 50
180.0
 51
0.0
  0
LINE
  5
7B4
330
74C
100
AcDbEntity
  8
0
  6
Continuous
 62
     7
370
    15
100
AcDbLine
 10
2671.274341458631
 20
1566.123417702268
 30
0.0
 11
2671.274341458631
 21
1573.423407164167
 31
0.0
  0
ARC
  5
7B5
330
74C
100
AcDbEntity
  8
0
  6
Continuous
 62
     7
370
    15
100
AcDbCircle
 10
2669.074341485454
 20
1573.423403587888
 30
0.0
 40
2.200000000000045
100
AcDbArc
 50
0.0
 51
180.0
  0
LINE
  5
7B6
330
74C
100
AcDbEntity
  8
0
  6
Continuous
 62
     7
370
    15
100
AcDbLine
 10
2666.874341482473
 20
1573.423407164167
 30
0.0
 11
2666.874341482473
 21
1566.123417702268
 31
0.0
  0
ARC
  5
7B7
330
74C
100
AcDbEntity
  8
0
  6
Continuous
 62
     7
370
    15
100
AcDbCircle
 10
2669.074341485454
 20
1546.123403587889
 30
0.0
 40
2.199999999999931
100
AcDbArc
 50
180.0
 51
0.0
  0
LINE
  5
7B8
330
74C
100
AcDbEntity
  8
0
  6
Continuous
 62
     7
370
    15
100
AcDbLine
 10
2671.274341458631
 20
1546.123406973432
 30
0.0
 11
2671.274341458631
 21
1553.423396435331
 31
0.0
  0
ARC
  5
7B9
330
74C
100
AcDbEntity
  8
0
  6
Continuous
 62
     7
370
    15
100
AcDbCircle
 10
2669.074341485454
 20
1553.423403587888
 30
0.0
 40
2.199999999999931
100
AcDbArc
 50
0.0
 51
180.0
  0
LINE
  5
7BA
330
74C
100
AcDbEntity
  8
0
  6
Continuous
 62
     7
370
    15
100
AcDbLine
 10
2666.874341482473
 20
1553.423396435331
 30
0.0
 11
2666.874341482473
 21
1546.123406973432
 31
0.0
  0
ARC
  5
7BB
330
74C
100
AcDbEntity
  8
0
  6
Continuous
 62
     7
370
    15
100
AcDbCircle
 10
2669.074341485454
 20
1526.123403587888
 30
0.0
 40
2.200000000000045
100
AcDbArc
 50
180.0
 51
0.0
  0
LINE
  5
7BC
330
74C
100
AcDbEntity
  8
0
  6
Continuous
 62
     7
370
    15
100
AcDbLine
 10
2671.274341458631
 20
1526.123396244596
 30
0.0
 11
2671.274341458631
 21
1533.423415508817
 31
0.0
  0
ARC
  5
7BD
330
74C
100
AcDbEntity
  8
0
  6
Continuous
 62
     7
370
    15
100
AcDbCircle
 10
2669.074341485454
 20
1533.423403587888
 30
0.0
 40
2.200000000000045
100
AcDbArc
 50
0.0
 51
180.0
  0
LINE
  5
7BE
330
74C
100
AcDbEntity
  8
0
  6
Continuous
 62
     7
370
    15
100
AcDbLine
 10
2666.874341482473
 20
1533.423415508817
 30
0.0
 11
2666.874341482473
 21
1526.123396244596
 31
0.0
  0
ARC
  5
7BF
330
74C
100
AcDbEntity
  8
0
  6
Continuous
 62
     7
370
    15
100
AcDbCircle
 10
2669.074341485455
 20
1506.123403587888
 30
0.0
 40
2.200000000000159
100
AcDbArc
 50
180.0
 51
0.0
  0
LINE
  5
7C0
330
74C
100
AcDbEntity
  8
0
  6
Continuous
 62
     7
370
    15
100
AcDbLine
 10
2671.274341458631
 20
1506.123415318082
 30
0.0
 11
2671.274341458631
 21
1513.423404779981
 31
0.0
  0
ARC
  5
7C1
330
74C
100
AcDbEntity
  8
0
  6
Continuous
 62
     7
370
    15
100
AcDbCircle
 10
2669.074341485455
 20
1513.423403587888
 30
0.0
 40
2.200000000000159
100
AcDbArc
 50
0.0
 51
180.0
  0
LINE
  5
7C2
330
74C
100
AcDbEntity
  8
0
  6
Continuous
 62
     7
370
    15
100
AcDbLine
 10
2666.874341482473
 20
1513.423404779981
 30
0.0
 11
2666.874341482473
 21
1506.123415318082
 31
0.0
  0
ARC
  5
7C3
330
74C
100
AcDbEntity
  8
0
  6
Continuous
 62
     7
370
    15
100
AcDbCircle
 10
2669.074341485455
 20
1486.123403587888
 30
0.0
 40
2.200000000000045
100
AcDbArc
 50
180.0
 51
0.0
  0
LINE
  5
7C4
330
74C
100
AcDbEntity
  8
0
  6
Continuous
 62
     7
370
    15
100
AcDbLine
 10
2671.274341458631
 20
1486.123404589246
 30
0.0
 11
2671.274341458631
 21
1493.423394051145
 31
0.0
  0
ARC
  5
7C5
330
74C
100
AcDbEntity
  8
0
  6
Continuous
 62
     7
370
    15
100
AcDbCircle
 10
2669.074341485455
 20
1493.423403587888
 30
0.0
 40
2.200000000000045
100
AcDbArc
 50
0.0
 51
180.0
  0
LINE
  5
7C6
330
74C
100
AcDbEntity
  8
0
  6
Continuous
 62
     7
370
    15
100
AcDbLine
 10
2666.874341482473
 20
1493.423394051145
 30
0.0
 11
2666.874341482473
 21
1486.123404589246
 31
0.0
  0
ARC
  5
7C7
330
74C
100
AcDbEntity
  8
0
  6
Continuous
 62
     7
370
    15
100
AcDbCircle
 10
2669.074341485455
 20
1466.123403587888
 30
0.0
 40
2.200000000000045
100
AcDbArc
 50
180.0
 51
0.0
  0
LINE
  5
7C8
330
74C
100
AcDbEntity
  8
0
  6
Continuous
 62
     7
370
    15
100
AcDbLine
 10
2671.274341458631
 20
1466.12339386041
 30
0.0
 11
2671.274341458631
 21
1473.423413124631
 31
0.0
  0
ARC
  5
7C9
330
74C
100
AcDbEntity
  8
0
  6
Continuous
 62
     7
370
    15
100
AcDbCircle
 10
2669.074341485455
 20
1473.423403587888
 30
0.0
 40
2.200000000000045
100
AcDbArc
 50
0.0
 51
180.0
  0
LINE
  5
7CA
330
74C
100
AcDbEntity
  8
0
  6
Continuous
 62
     7
370
    15
100
AcDbLine
 10
2666.874341482473
 20
1473.423413124631
 30
0.0
 11
2666.874341482473
 21
1466.12339386041
 31
0.0
  0
ARC
  5
7CB
330
74C
100
AcDbEntity
  8
0
  6
Continuous
 62
     7
370
    15
100
AcDbCircle
 10
2669.074341485455
 20
1446.123403587888
 30
0.0
 40
2.200000000000045
100
AcDbArc
 50
180.0
 51
0.0
  0
LINE
  5
7CC
330
74C
100
AcDbEntity
  8
0
  6
Continuous
 62
     7
370
    15
100
AcDbLine
 10
2671.274341458631
 20
1446.123412933897
 30
0.0
 11
2671.274341458631
 21
1453.423432198118
 31
0.0
  0
ARC
  5
7CD
330
74C
100
AcDbEntity
  8
0
  6
Continuous
 62
     7
370
    15
100
AcDbCircle
 10
2669.074341485455
 20
1453.423403587888
 30
0.0
 40
2.200000000000045
100
AcDbArc
 50
0.0
 51
180.0
  0
LINE
  5
7CE
330
74C
100
AcDbEntity
  8
0
  6
Continuous
 62
     7
370
    15
100
AcDbLine
 10
2666.874341482473
 20
1453.423432198118
 30
0.0
 11
2666.874341482473
 21
1446.123412933897
 31
0.0
  0
ARC
  5
7CF
330
74C
100
AcDbEntity
  8
0
  6
Continuous
 62
     7
370
    15
100
AcDbCircle
 10
2669.074341485455
 20
1426.123403587888
 30
0.0
 40
2.200000000000045
100
AcDbArc
 50
180.0
 51
0.0
  0
LINE
  5
7D0
330
74C
100
AcDbEntity
  8
0
  6
Continuous
 62
     7
370
    15
100
AcDbLine
 10
2671.274341458631
 20
1426.123432007383
 30
0.0
 11
2671.274341458631
 21
1433.423391666959
 31
0.0
  0
ARC
  5
7D1
330
74C
100
AcDbEntity
  8
0
  6
Continuous
 62
     7
370
    15
100
AcDbCircle
 10
2669.074341485455
 20
1433.423403587888
 30
0.0
 40
2.200000000000045
100
AcDbArc
 50
0.0
 51
180.0
  0
LINE
  5
7D2
330
74C
100
AcDbEntity
  8
0
  6
Continuous
 62
     7
370
    15
100
AcDbLine
 10
2666.874341482473
 20
1433.423391666959
 30
0.0
 11
2666.874341482473
 21
1426.123432007383
 31
0.0
  0
ARC
  5
7D3
330
74C
100
AcDbEntity
  8
0
  6
Continuous
 62
     7
370
    15
100
AcDbCircle
 10
2669.074341485455
 20
1406.123403587888
 30
0.0
 40
2.200000000000045
100
AcDbArc
 50
180.0
 51
0.0
  0
LINE
  5
7D4
330
74C
100
AcDbEntity
  8
0
  6
Continuous
 62
     7
370
    15
100
AcDbLine
 10
2671.274341458631
 20
1406.123391476224
 30
0.0
 11
2671.274341458631
 21
1413.423410740446
 31
0.0
  0
ARC
  5
7D5
330
74C
100
AcDbEntity
  8
0
  6
Continuous
 62
     7
370
    15
100
AcDbCircle
 10
2669.074341485455
 20
1413.423403587888
 30
0.0
 40
2.200000000000045
100
AcDbArc
 50
0.0
 51
180.0
  0
LINE
  5
7D6
330
74C
100
AcDbEntity
  8
0
  6
Continuous
 62
     7
370
    15
100
AcDbLine
 10
2666.874341482473
 20
1413.423410740446
 30
0.0
 11
2666.874341482473
 21
1406.123391476224
 31
0.0
  0
ARC
  5
7D7
330
74C
100
AcDbEntity
  8
0
  6
Continuous
 62
     7
370
    15
100
AcDbCircle
 10
2669.074341485455
 20
1386.123403587888
 30
0.0
 40
2.200000000000045
100
AcDbArc
 50
180.0
 51
0.0
  0
LINE
  5
7D8
330
74C
100
AcDbEntity
  8
0
  6
Continuous
 62
     7
370
    15
100
AcDbLine
 10
2671.274341458631
 20
1386.123410549711
 30
0.0
 11
2671.274341458631
 21
1393.423429813932
 31
0.0
  0
ARC
  5
7D9
330
74C
100
AcDbEntity
  8
0
  6
Continuous
 62
     7
370
    15
100
AcDbCircle
 10
2669.074341485455
 20
1393.423403587888
 30
0.0
 40
2.200000000000045
100
AcDbArc
 50
0.0
 51
179.9999999999935
  0
LINE
  5
7DA
330
74C
100
AcDbEntity
  8
0
  6
Continuous
 62
     7
370
    15
100
AcDbLine
 10
2666.874341482473
 20
1393.423429813932
 30
0.0
 11
2666.874341482473
 21
1386.123410549711
 31
0.0
  0
ARC
  5
7DB
330
74C
100
AcDbEntity
  8
0
  6
Continuous
 62
     7
370
    15
100
AcDbCircle
 10
2669.074341485455
 20
1366.123403587888
 30
0.0
 40
2.200000000000045
100
AcDbArc
 50
180.0
 51
0.0
  0
LINE
  5
7DC
330
74C
100
AcDbEntity
  8
0
  6
Continuous
 62
     7
370
    15
100
AcDbLine
 10
2671.274341458631
 20
1366.123429623197
 30
0.0
 11
2671.274341458631
 21
1373.423389282774
 31
0.0
  0
ARC
  5
7DD
330
74C
100
AcDbEntity
  8
0
  6
Continuous
 62
     7
370
    15
100
AcDbCircle
 10
2669.074341485455
 20
1373.423403587888
 30
0.0
 40
2.200000000000045
100
AcDbArc
 50
0.0
 51
179.9999999999935
  0
LINE
  5
7DE
330
74C
100
AcDbEntity
  8
0
  6
Continuous
 62
     7
370
    15
100
AcDbLine
 10
2666.874341482473
 20
1373.423389282774
 30
0.0
 11
2666.874341482473
 21
1366.123429623197
 31
0.0
  0
ARC
  5
7DF
330
74C
100
AcDbEntity
  8
0
  6
Continuous
 62
     7
370
    15
100
AcDbCircle
 10
2669.074341485455
 20
1346.123403587889
 30
0.0
 40
2.200000000000159
100
AcDbArc
 50
180.0
 51
0.0
  0
LINE
  5
7E0
330
74C
100
AcDbEntity
  8
0
  6
Continuous
 62
     7
370
    15
100
AcDbLine
 10
2671.274341458631
 20
1346.123389092039
 30
0.0
 11
2671.274341458631
 21
1353.42340835626
 31
0.0
  0
ARC
  5
7E1
330
74C
100
AcDbEntity
  8
0
  6
Continuous
 62
     7
370
    15
100
AcDbCircle
 10
2669.074341485455
 20
1353.423403587888
 30
0.0
 40
2.200000000000159
100
AcDbArc
 50
0.0
 51
179.9999999999935
  0
LINE
  5
7E2
330
74C
100
AcDbEntity
  8
0
  6
Continuous
 62
     7
370
    15
100
AcDbLine
 10
2666.874341482473
 20
1353.42340835626
 30
0.0
 11
2666.874341482473
 21
1346.123389092039
 31
0.0
  0
ARC
  5
7E3
330
74C
100
AcDbEntity
  8
0
  6
Continuous
 62
     7
370
    15
100
AcDbCircle
 10
2669.074341485455
 20
1326.123403587888
 30
0.0
 40
2.200000000000045
100
AcDbArc
 50
180.0
 51
0.0
  0
LINE
  5
7E4
330
74C
100
AcDbEntity
  8
0
  6
Continuous
 62
     7
370
    15
100
AcDbLine
 10
2671.274341458631
 20
1326.123408165525
 30
0.0
 11
2671.274341458631
 21
1333.423427429746
 31
0.0
  0
ARC
  5
7E5
330
74C
100
AcDbEntity
  8
0
  6
Continuous
 62
     7
370
    15
100
AcDbCircle
 10
2669.074341485455
 20
1333.423403587888
 30
0.0
 40
2.200000000000045
100
AcDbArc
 50
0.0
 51
180.0
  0
LINE
  5
7E6
330
74C
100
AcDbEntity
  8
0
  6
Continuous
 62
     7
370
    15
100
AcDbLine
 10
2666.874341482473
 20
1333.423427429746
 30
0.0
 11
2666.874341482473
 21
1326.123408165525
 31
0.0
  0
ARC
  5
7E7
330
74C
100
AcDbEntity
  8
0
  6
Continuous
 62
     7
370
    15
100
AcDbCircle
 10
2669.074341485455
 20
1306.123403587888
 30
0.0
 40
2.200000000000045
100
AcDbArc
 50
180.0
 51
0.0
  0
LINE
  5
7E8
330
74C
100
AcDbEntity
  8
0
  6
Continuous
 62
     7
370
    15
100
AcDbLine
 10
2671.274341458631
 20
1306.123427239011
 30
0.0
 11
2671.274341458631
 21
1313.423386898588
 31
0.0
  0
ARC
  5
7E9
330
74C
100
AcDbEntity
  8
0
  6
Continuous
 62
     7
370
    15
100
AcDbCircle
 10
2669.074341485455
 20
1313.423403587888
 30
0.0
 40
2.200000000000045
100
AcDbArc
 50
0.0
 51
179.9999999999935
  0
LINE
  5
7EA
330
74C
100
AcDbEntity
  8
0
  6
Continuous
 62
     7
370
    15
100
AcDbLine
 10
2666.874341482473
 20
1313.423386898588
 30
0.0
 11
2666.874341482473
 21
1306.123427239011
 31
0.0
  0
ARC
  5
7EB
330
74C
100
AcDbEntity
  8
0
  6
Continuous
 62
     7
370
    15
100
AcDbCircle
 10
2669.074341485455
 20
1286.123403587888
 30
0.0
 40
2.200000000000045
100
AcDbArc
 50
180.0
 51
0.0
  0
LINE
  5
7EC
330
74C
100
AcDbEntity
  8
0
  6
Continuous
 62
     7
370
    15
100
AcDbLine
 10
2671.274341458631
 20
1286.123386707853
 30
0.0
 11
2671.274341458631
 21
1293.423405972074
 31
0.0
  0
ARC
  5
7ED
330
74C
100
AcDbEntity
  8
0
  6
Continuous
 62
     7
370
    15
100
AcDbCircle
 10
2669.074341485455
 20
1293.423403587888
 30
0.0
 40
2.200000000000045
100
AcDbArc
 50
0.0
 51
179.9999999999935
  0
LINE
  5
7EE
330
74C
100
AcDbEntity
  8
0
  6
Continuous
 62
     7
370
    15
100
AcDbLine
 10
2666.874341482473
 20
1293.423405972074
 30
0.0
 11
2666.874341482473
 21
1286.123386707853
 31
0.0
  0
ARC
  5
7EF
330
74C
100
AcDbEntity
  8
0
  6
Continuous
 62
     7
370
    15
100
AcDbCircle
 10
2669.074341485455
 20
1266.123403587888
 30
0.0
 40
2.200000000000045
100
AcDbArc
 50
180.0
 51
0.0
  0
LINE
  5
7F0
330
74C
100
AcDbEntity
  8
0
  6
Continuous
 62
     7
370
    15
100
AcDbLine
 10
2671.274341458631
 20
1266.123405781339
 30
0.0
 11
2671.274341458631
 21
1273.42342504556
 31
0.0
  0
ARC
  5
7F1
330
74C
100
AcDbEntity
  8
0
  6
Continuous
 62
     7
370
    15
100
AcDbCircle
 10
2669.074341485455
 20
1273.423403587888
 30
0.0
 40
2.200000000000045
100
AcDbArc
 50
0.0
 51
179.9999999999935
  0
LINE
  5
7F2
330
74C
100
AcDbEntity
  8
0
  6
Continuous
 62
     7
370
    15
100
AcDbLine
 10
2666.874341482473
 20
1273.42342504556
 30
0.0
 11
2666.874341482473
 21
1266.123405781339
 31
0.0
  0
ARC
  5
7F3
330
74C
100
AcDbEntity
  8
0
  6
Continuous
 62
     7
370
    15
100
AcDbCircle
 10
2669.074341485456
 20
1246.123403587888
 30
0.0
 40
2.200000000000045
100
AcDbArc
 50
180.0
 51
0.0
  0
LINE
  5
7F4
330
74C
100
AcDbEntity
  8
0
  6
Continuous
 62
     7
370
    15
100
AcDbLine
 10
2671.274341458631
 20
1246.123424854826
 30
0.0
 11
2671.274341458631
 21
1253.423384514402
 31
0.0
  0
ARC
  5
7F5
330
74C
100
AcDbEntity
  8
0
  6
Continuous
 62
     7
370
    15
100
AcDbCircle
 10
2669.074341485456
 20
1253.423403587888
 30
0.0
 40
2.200000000000045
100
AcDbArc
 50
0.0
 51
180.0
  0
LINE
  5
7F6
330
74C
100
AcDbEntity
  8
0
  6
Continuous
 62
     7
370
    15
100
AcDbLine
 10
2666.874341482473
 20
1253.423384514402
 30
0.0
 11
2666.874341482473
 21
1246.123424854826
 31
0.0
  0
ARC
  5
7F7
330
74C
100
AcDbEntity
  8
0
  6
Continuous
 62
     7
370
    15
100
AcDbCircle
 10
2669.074341485456
 20
1226.123403587888
 30
0.0
 40
2.200000000000045
100
AcDbArc
 50
180.0
 51
0.0
  0
LINE
  5
7F8
330
74C
100
AcDbEntity
  8
0
  6
Continuous
 62
     7
370
    15
100
AcDbLine
 10
2671.274341458631
 20
1226.123384323667
 30
0.0
 11
2671.274341458631
 21
1233.423403587888
 31
0.0
  0
ARC
  5
7F9
330
74C
100
AcDbEntity
  8
0
  6
Continuous
 62
     7
370
    15
100
AcDbCircle
 10
2669.074341485456
 20
1233.423403587888
 30
0.0
 40
2.200000000000045
100
AcDbArc
 50
0.0
 51
180.0
  0
LINE
  5
7FA
330
74C
100
AcDbEntity
  8
0
  6
Continuous
 62
     7
370
    15
100
AcDbLine
 10
2666.874341482473
 20
1233.423403587888
 30
0.0
 11
2666.874341482473
 21
1226.123384323667
 31
0.0
  0
ARC
  5
7FB
330
74C
100
AcDbEntity
  8
0
  6
Continuous
 62
     7
370
    15
100
AcDbCircle
 10
2669.074341485456
 20
1206.123403587888
 30
0.0
 40
2.200000000000045
100
AcDbArc
 50
180.0
 51
0.0
  0
LINE
  5
7FC
330
74C
100
AcDbEntity
  8
0
  6
Continuous
 62
     7
370
    15
100
AcDbLine
 10
2671.274341458631
 20
1206.123403397153
 30
0.0
 11
2671.274341458631
 21
1213.423422661375
 31
0.0
  0
ARC
  5
7FD
330
74C
100
AcDbEntity
  8
0
  6
Continuous
 62
     7
370
    15
100
AcDbCircle
 10
2669.074341485456
 20
1213.423403587888
 30
0.0
 40
2.200000000000045
100
AcDbArc
 50
0.0
 51
180.0
  0
LINE
  5
7FE
330
74C
100
AcDbEntity
  8
0
  6
Continuous
 62
     7
370
    15
100
AcDbLine
 10
2666.874341482473
 20
1213.423422661375
 30
0.0
 11
2666.874341482473
 21
1206.123403397153
 31
0.0
  0
ARC
  5
7FF
330
74C
100
AcDbEntity
  8
0
  6
Continuous
 62
     7
370
    15
100
AcDbCircle
 10
2669.074341485456
 20
1186.123403587888
 30
0.0
 40
2.200000000000159
100
AcDbArc
 50
180.0
 51
0.0
  0
LINE
  5
800
330
74C
100
AcDbEntity
  8
0
  6
Continuous
 62
     7
370
    15
100
AcDbLine
 10
2671.274341458631
 20
1186.12342247064
 30
0.0
 11
2671.274341458631
 21
1193.423382130216
 31
0.0
  0
ARC
  5
801
330
74C
100
AcDbEntity
  8
0
  6
Continuous
 62
     7
370
    15
100
AcDbCircle
 10
2669.074341485456
 20
1193.423403587888
 30
0.0
 40
2.200000000000159
100
AcDbArc
 50
0.0
 51
180.0
  0
LINE
  5
802
330
74C
100
AcDbEntity
  8
0
  6
Continuous
 62
     7
370
    15
100
AcDbLine
 10
2666.874341482473
 20
1193.423382130216
 30
0.0
 11
2666.874341482473
 21
1186.12342247064
 31
0.0
  0
ARC
  5
803
330
74C
100
AcDbEntity
  8
0
  6
Continuous
 62
     7
370
    15
100
AcDbCircle
 10
2669.074341485456
 20
1166.123403587888
 30
0.0
 40
2.200000000000045
100
AcDbArc
 50
180.0
 51
0.0
  0
LINE
  5
804
330
74C
100
AcDbEntity
  8
0
  6
Continuous
 62
     7
370
    15
100
AcDbLine
 10
2671.274341458631
 20
1166.123381939481
 30
0.0
 11
2671.274341458631
 21
1173.423401203703
 31
0.0
  0
ARC
  5
805
330
74C
100
AcDbEntity
  8
0
  6
Continuous
 62
     7
370
    15
100
AcDbCircle
 10
2669.074341485456
 20
1173.423403587888
 30
0.0
 40
2.200000000000045
100
AcDbArc
 50
0.0
 51
180.0
  0
LINE
  5
806
330
74C
100
AcDbEntity
  8
0
  6
Continuous
 62
     7
370
    15
100
AcDbLine
 10
2666.874341482473
 20
1173.423401203703
 30
0.0
 11
2666.874341482473
 21
1166.123381939481
 31
0.0
  0
ARC
  5
807
330
74C
100
AcDbEntity
  8
0
  6
Continuous
 62
     7
370
    15
100
AcDbCircle
 10
2669.074341485456
 20
1146.123403587888
 30
0.0
 40
2.200000000000045
100
AcDbArc
 50
180.0
 51
0.0
  0
LINE
  5
808
330
74C
100
AcDbEntity
  8
0
  6
Continuous
 62
     7
370
    15
100
AcDbLine
 10
2671.274341458631
 20
1146.123401012968
 30
0.0
 11
2671.274341458631
 21
1153.423420277189
 31
0.0
  0
ARC
  5
809
330
74C
100
AcDbEntity
  8
0
  6
Continuous
 62
     7
370
    15
100
AcDbCircle
 10
2669.074341485456
 20
1153.423403587888
 30
0.0
 40
2.200000000000045
100
AcDbArc
 50
0.0
 51
180.0
  0
LINE
  5
80A
330
74C
100
AcDbEntity
  8
0
  6
Continuous
 62
     7
370
    15
100
AcDbLine
 10
2666.874341482473
 20
1153.423420277189
 30
0.0
 11
2666.874341482473
 21
1146.123401012968
 31
0.0
  0
ARC
  5
80B
330
74C
100
AcDbEntity
  8
0
  6
Continuous
 62
     7
370
    15
100
AcDbCircle
 10
2669.074341485456
 20
1126.123403587888
 30
0.0
 40
2.200000000000045
100
AcDbArc
 50
180.0
 51
0.0
  0
LINE
  5
80C
330
74C
100
AcDbEntity
  8
0
  6
Continuous
 62
     7
370
    15
100
AcDbLine
 10
2671.274341458631
 20
1126.123420086454
 30
0.0
 11
2671.274341458631
 21
1133.42337974603
 31
0.0
  0
ARC
  5
80D
330
74C
100
AcDbEntity
  8
0
  6
Continuous
 62
     7
370
    15
100
AcDbCircle
 10
2669.074341485456
 20
1133.423403587888
 30
0.0
 40
2.200000000000045
100
AcDbArc
 50
0.0
 51
180.0
  0
LINE
  5
80E
330
74C
100
AcDbEntity
  8
0
  6
Continuous
 62
     7
370
    15
100
AcDbLine
 10
2666.874341482473
 20
1133.42337974603
 30
0.0
 11
2666.874341482473
 21
1126.123420086454
 31
0.0
  0
ARC
  5
80F
330
74C
100
AcDbEntity
  8
0
  6
Continuous
 62
     7
370
    15
100
AcDbCircle
 10
2669.074341485456
 20
1106.123403587888
 30
0.0
 40
2.200000000000045
100
AcDbArc
 50
180.0
 51
0.0
  0
LINE
  5
810
330
74C
100
AcDbEntity
  8
0
  6
Continuous
 62
     7
370
    15
100
AcDbLine
 10
2671.274341458631
 20
1106.123379555296
 30
0.0
 11
2671.274341458631
 21
1113.423398819517
 31
0.0
  0
ARC
  5
811
330
74C
100
AcDbEntity
  8
0
  6
Continuous
 62
     7
370
    15
100
AcDbCircle
 10
2669.074341485456
 20
1113.423403587888
 30
0.0
 40
2.200000000000045
100
AcDbArc
 50
0.0
 51
180.0
  0
LINE
  5
812
330
74C
100
AcDbEntity
  8
0
  6
Continuous
 62
     7
370
    15
100
AcDbLine
 10
2666.874341482473
 20
1113.423398819517
 30
0.0
 11
2666.874341482473
 21
1106.123379555296
 31
0.0
  0
ARC
  5
813
330
74C
100
AcDbEntity
  8
0
  6
Continuous
 62
     7
370
    15
100
AcDbCircle
 10
2669.074341485456
 20
1086.123403587888
 30
0.0
 40
2.200000000000045
100
AcDbArc
 50
180.0
 51
0.0
  0
LINE
  5
814
330
74C
100
AcDbEntity
  8
0
  6
Continuous
 62
     7
370
    15
100
AcDbLine
 10
2671.274341458631
 20
1086.123398628782
 30
0.0
 11
2671.274341458631
 21
1093.423417893003
 31
0.0
  0
ARC
  5
815
330
74C
100
AcDbEntity
  8
0
  6
Continuous
 62
     7
370
    15
100
AcDbCircle
 10
2669.074341485456
 20
1093.423403587888
 30
0.0
 40
2.200000000000045
100
AcDbArc
 50
0.0
 51
180.0
  0
LINE
  5
816
330
74C
100
AcDbEntity
  8
0
  6
Continuous
 62
     7
370
    15
100
AcDbLine
 10
2666.874341482473
 20
1093.423417893003
 30
0.0
 11
2666.874341482473
 21
1086.123398628782
 31
0.0
  0
ARC
  5
817
330
74C
100
AcDbEntity
  8
0
  6
Continuous
 62
     7
370
    15
100
AcDbCircle
 10
2669.074341485456
 20
1066.123403587888
 30
0.0
 40
2.200000000000045
100
AcDbArc
 50
180.0
 51
0.0
  0
LINE
  5
818
330
74C
100
AcDbEntity
  8
0
  6
Continuous
 62
     7
370
    15
100
AcDbLine
 10
2671.274341458631
 20
1066.123417702268
 30
0.0
 11
2671.274341458631
 21
1073.423377361845
 31
0.0
  0
ARC
  5
819
330
74C
100
AcDbEntity
  8
0
  6
Continuous
 62
     7
370
    15
100
AcDbCircle
 10
2669.074341485456
 20
1073.423403587888
 30
0.0
 40
2.200000000000045
100
AcDbArc
 50
0.0
 51
180.0
  0
LINE
  5
81A
330
74C
100
AcDbEntity
  8
0
  6
Continuous
 62
     7
370
    15
100
AcDbLine
 10
2666.874341482473
 20
1073.423377361845
 30
0.0
 11
2666.874341482473
 21
1066.123417702268
 31
0.0
  0
ARC
  5
81B
330
74C
100
AcDbEntity
  8
0
  6
Continuous
 62
     7
370
    15
100
AcDbCircle
 10
2669.074341485456
 20
1046.123403587889
 30
0.0
 40
2.200000000000045
100
AcDbArc
 50
180.0
 51
0.0
  0
LINE
  5
81C
330
74C
100
AcDbEntity
  8
0
  6
Continuous
 62
     7
370
    15
100
AcDbLine
 10
2671.274341458631
 20
1046.12337717111
 30
0.0
 11
2671.274341458631
 21
1053.423396435331
 31
0.0
  0
ARC
  5
81D
330
74C
100
AcDbEntity
  8
0
  6
Continuous
 62
     7
370
    15
100
AcDbCircle
 10
2669.074341485456
 20
1053.423403587888
 30
0.0
 40
2.200000000000045
100
AcDbArc
 50
0.0
 51
180.0
  0
LINE
  5
81E
330
74C
100
AcDbEntity
  8
0
  6
Continuous
 62
     7
370
    15
100
AcDbLine
 10
2666.874341482473
 20
1053.423396435331
 30
0.0
 11
2666.874341482473
 21
1046.12337717111
 31
0.0
  0
ARC
  5
81F
330
74C
100
AcDbEntity
  8
0
  6
Continuous
 62
     7
370
    15
100
AcDbCircle
 10
2669.074341485456
 20
1026.123403587888
 30
0.0
 40
2.200000000000159
100
AcDbArc
 50
180.0
 51
0.0
  0
LINE
  5
820
330
74C
100
AcDbEntity
  8
0
  6
Continuous
 62
     7
370
    15
100
AcDbLine
 10
2671.274341458631
 20
1026.123396244596
 30
0.0
 11
2671.274341458631
 21
1033.423415508817
 31
0.0
  0
ARC
  5
821
330
74C
100
AcDbEntity
  8
0
  6
Continuous
 62
     7
370
    15
100
AcDbCircle
 10
2669.074341485456
 20
1033.423403587888
 30
0.0
 40
2.200000000000159
100
AcDbArc
 50
0.0
 51
180.0
  0
LINE
  5
822
330
74C
100
AcDbEntity
  8
0
  6
Continuous
 62
     7
370
    15
100
AcDbLine
 10
2666.874341482473
 20
1033.423415508817
 30
0.0
 11
2666.874341482473
 21
1026.123396244596
 31
0.0
  0
ARC
  5
823
330
74C
100
AcDbEntity
  8
0
  6
Continuous
 62
     7
370
    15
100
AcDbCircle
 10
2669.074341485456
 20
1006.123403587888
 30
0.0
 40
2.200000000000045
100
AcDbArc
 50
180.0
 51
0.0
  0
LINE
  5
824
330
74C
100
AcDbEntity
  8
0
  6
Continuous
 62
     7
370
    15
100
AcDbLine
 10
2671.274341458631
 20
1006.123415318082
 30
0.0
 11
2671.274341458631
 21
1013.423374977659
 31
0.0
  0
ARC
  5
825
330
74C
100
AcDbEntity
  8
0
  6
Continuous
 62
     7
370
    15
100
AcDbCircle
 10
2669.074341485456
 20
1013.423403587888
 30
0.0
 40
2.200000000000045
100
AcDbArc
 50
0.0
 51
180.0
  0
LINE
  5
826
330
74C
100
AcDbEntity
  8
0
  6
Continuous
 62
     7
370
    15
100
AcDbLine
 10
2666.874341482473
 20
1013.423374977659
 30
0.0
 11
2666.874341482473
 21
1006.123415318082
 31
0.0
  0
ARC
  5
827
330
74C
100
AcDbEntity
  8
0
  6
Continuous
 62
     7
370
    15
100
AcDbCircle
 10
2669.074341485457
 20
986.1234035878885
 30
0.0
 40
2.200000000000045
100
AcDbArc
 50
180.0
 51
0.0
  0
LINE
  5
828
330
74C
100
AcDbEntity
  8
0
  6
Continuous
 62
     7
370
    15
100
AcDbLine
 10
2671.274341458631
 20
986.1233747869242
 30
0.0
 11
2671.274341458631
 21
993.4233940511454
 31
0.0
  0
ARC
  5
829
330
74C
100
AcDbEntity
  8
0
  6
Continuous
 62
     7
370
    15
100
AcDbCircle
 10
2669.074341485457
 20
993.4234035878885
 30
0.0
 40
2.200000000000045
100
AcDbArc
 50
0.0
 51
180.0
  0
LINE
  5
82A
330
74C
100
AcDbEntity
  8
0
  6
Continuous
 62
     7
370
    15
100
AcDbLine
 10
2666.874341482473
 20
993.4233940511454
 30
0.0
 11
2666.874341482473
 21
986.1233747869242
 31
0.0
  0
LINE
  5
82B
330
74C
100
AcDbEntity
  8
0
  6
Continuous
 62
     7
370
    15
100
AcDbLine
 10
2671.824341455651
 20
983.4234035878886
 30
0.0
 11
2666.324341485454
 21
983.4234035878886
 31
0.0
  0
LINE
  5
82C
330
74C
100
AcDbEntity
  8
0
  6
Continuous
 62
     7
370
    15
100
AcDbLine
 10
2671.824341455651
 20
1983.423403587888
 30
0.0
 11
2666.324341485454
 21
1983.423403587888
 31
0.0
  0
ENDBLK
  5
74E
330
74C
100
AcDbEntity
  8
0
100
AcDbBlockEnd
  0
BLOCK
  5
82F
330
82E
100
AcDbEntity
  8
0
100
AcDbBlockBegin
  2
4
 70
     0
 10
0.0
 20
0.0
 30
0.0
  3
4
  1

  0
LINE
  5
831
330
82E
100
AcDbEntity
  8
0
  6
Continuous
 62
     7
370
    15
100
AcDbLine
 10
2538.345913163763
 20
1841.888758800912
 30
0.0
 11
1831.239131977213
 21
1433.684702889559
 31
0.0
  0
LINE
  5
832
330
82E
100
AcDbEntity
  8
0
  6
Continuous
 62
     7
370
    15
100
AcDbLine
 10
1830.972645685885
 20
1430.634704005479
 30
0.0
 11
2538.079426872434
 21
1838.838759916833
 31
0.0
  0
LINE
  5
833
330
82E
100
AcDbEntity
  8
0
  6
Continuous
 62
     7
370
    15
100
AcDbLine
 10
1824.772999851073
 20
1435.657254482082
 30
0.0
 11
1824.772999851073
 21
1436.147179087541
 31
0.0
  0
ARC
  5
834
330
82E
100
AcDbEntity
  8
0
  6
Continuous
 62
     7
370
    15
100
AcDbCircle
 10
1827.075823897376
 20
1435.762045789253
 30
0.0
 40
2.305207107027869
100
AcDbArc
 50
182.6054793197351
 51
237.3945233933556
  0
LINE
  5
835
330
82E
100
AcDbEntity
  8
0
  6
Continuous
 62
     7
370
    15
100
AcDbLine
 10
1829.722747307525
 20
1431.575014964128
 30
0.0
 11
1825.833660032072
 21
1433.820137259475
 31
0.0
  0
ARC
  5
836
330
82E
100
AcDbEntity
  8
0
  6
Continuous
 62
     7
370
    15
100
AcDbCircle
 10
1830.136795924432
 20
1432.082629461098
 30
0.0
 40
0.655063916496933
100
AcDbArc
 50
230.7967237721954
 51
9.214004877855254
  0
LINE
  5
837
330
82E
100
AcDbEntity
  8
0
  6
Continuous
 62
     7
370
    15
100
AcDbLine
 10
1830.783407653161
 20
1432.677444518773
 30
0.0
 11
1830.783407653161
 21
1432.187519913313
 31
0.0
  0
ARC
  5
838
330
82E
100
AcDbEntity
  8
0
  6
Continuous
 62
     7
370
    15
100
AcDbCircle
 10
1831.731771088856
 20
1432.831284483626
 30
0.0
 40
0.9607600850106244
100
AcDbArc
 50
50.796694862563
 51
189.2140463900729
  0
LINE
  5
839
330
82E
100
AcDbEntity
  8
0
  6
Continuous
 62
     7
370
    15
100
AcDbLine
 10
1833.081504739432
 20
1433.147170895988
 30
0.0
 11
1832.339042563341
 21
1433.575785186933
 31
0.0
  0
LINE
  5
83A
330
82E
100
AcDbEntity
  8
0
  6
Continuous
 62
     7
370
    15
100
AcDbLine
 10
1833.081504739432
 20
1432.330630330492
 30
0.0
 11
1833.081504739432
 21
1433.147170895988
 31
0.0
  0
LINE
  5
83B
330
82E
100
AcDbEntity
  8
0
  6
Continuous
 62
     7
370
    15
100
AcDbLine
 10
1832.339042563341
 20
1432.759244621437
 30
0.0
 11
1833.081504739432
 21
1432.330630330492
 31
0.0
  0
ARC
  5
83C
330
82E
100
AcDbEntity
  8
0
  6
Continuous
 62
     7
370
    15
100
AcDbCircle
 10
1832.007803618317
 20
1432.353153345552
 30
0.0
 40
0.5240509164684478
100
AcDbArc
 50
50.79669717826507
 51
189.2140738303688
  0
LINE
  5
83D
330
82E
100
AcDbEntity
  8
0
  6
Continuous
 62
     7
370
    15
100
AcDbLine
 10
1831.490514550251
 20
1431.779315790492
 30
0.0
 11
1831.490514550251
 21
1432.269240395952
 31
0.0
  0
ARC
  5
83E
330
82E
100
AcDbEntity
  8
0
  6
Continuous
 62
     7
370
    15
100
AcDbCircle
 10
1830.412828442268
 20
1431.604498106816
 30
0.0
 40
1.091773131133439
100
AcDbArc
 50
230.7967138572218
 51
9.214019413786383
  0
LINE
  5
83F
330
82E
100
AcDbEntity
  8
0
  6
Continuous
 62
     7
370
    15
100
AcDbLine
 10
1825.833660032072
 20
1433.003596408806
 30
0.0
 11
1829.722747307525
 21
1430.758474113459
 31
0.0
  0
ARC
  5
840
330
82E
100
AcDbEntity
  8
0
  6
Continuous
 62
     7
370
    15
100
AcDbCircle
 10
1827.903933204114
 20
1436.240110589186
 30
0.0
 40
3.842011848846764
100
AcDbArc
 50
182.6054778348696
 51
237.394522310761
  0
LINE
  5
841
330
82E
100
AcDbEntity
  8
0
  6
Continuous
 62
     7
370
    15
100
AcDbLine
 10
1824.065893118619
 20
1436.55538311532
 30
0.0
 11
1824.065893118619
 21
1436.06545850986
 31
0.0
  0
ARC
  5
842
330
82E
100
AcDbEntity
  8
0
  6
Continuous
 62
     7
370
    15
100
AcDbCircle
 10
1822.223633577278
 20
1436.471550012302
 30
0.0
 40
1.844165992209341
100
AcDbArc
 50
2.605480667773779
 51
57.39451947784272
  0
LINE
  5
843
330
82E
100
AcDbEntity
  8
0
  6
Continuous
 62
     7
370
    15
100
AcDbLine
 10
1822.474902929437
 20
1438.453691222386
 30
0.0
 11
1823.217364940892
 21
1438.025077026483
 31
0.0
  0
LINE
  5
844
330
82E
100
AcDbEntity
  8
0
  6
Continuous
 62
     7
370
    15
100
AcDbLine
 10
1822.474902929437
 20
1439.270231787882
 30
0.0
 11
1822.474902929437
 21
1438.453691222386
 31
0.0
  0
LINE
  5
845
330
82E
100
AcDbEntity
  8
0
  6
Continuous
 62
     7
370
    15
100
AcDbLine
 10
1823.217364940892
 20
1438.841617591979
 30
0.0
 11
1822.474902929437
 21
1439.270231787882
 31
0.0
  0
ARC
  5
846
330
82E
100
AcDbEntity
  8
0
  6
Continuous
 62
     7
370
    15
100
AcDbCircle
 10
1821.395524857059
 20
1435.993485249555
 30
0.0
 40
3.380970146425703
100
AcDbArc
 50
2.605478189983966
 51
57.39452545672833
  0
LINE
  5
847
330
82E
100
AcDbEntity
  8
0
  6
Continuous
 62
     7
370
    15
100
AcDbLine
 10
1833.081504739432
 20
1433.147170895988
 30
0.0
 11
2540.188285925981
 21
1841.351226807342
 31
0.0
  0
LINE
  5
848
330
82E
100
AcDbEntity
  8
0
  6
Continuous
 62
     7
370
    15
100
AcDbLine
 10
1832.339042563341
 20
1433.575785186933
 30
0.0
 11
2539.445823749891
 21
1841.779841098287
 31
0.0
  0
LINE
  5
849
330
82E
100
AcDbEntity
  8
0
  6
Continuous
 62
     7
370
    15
100
AcDbLine
 10
2540.188285925981
 20
1841.351226807342
 30
0.0
 11
2539.445823749891
 21
1841.779841098287
 31
0.0
  0
LINE
  5
84A
330
82E
100
AcDbEntity
  8
0
  6
Continuous
 62
     7
370
    15
100
AcDbLine
 10
1833.081504739432
 20
1432.330630330492
 30
0.0
 11
2540.188285925981
 21
1840.534686241846
 31
0.0
  0
LINE
  5
84B
330
82E
100
AcDbEntity
  8
0
  6
Continuous
 62
     7
370
    15
100
AcDbLine
 10
2540.188285925981
 20
1840.534686241846
 30
0.0
 11
2540.188285925981
 21
1841.351226807342
 31
0.0
  0
ARC
  5
84C
330
82E
100
AcDbEntity
  8
0
  6
Continuous
 62
     7
370
    15
100
AcDbCircle
 10
2538.801399861203
 20
1840.880304355876
 30
0.0
 40
1.106548010372189
100
AcDbArc
 50
54.38236650275642
 51
114.3071757393102
  0
ARC
  5
84D
330
82E
100
AcDbEntity
  8
0
  6
Continuous
 62
     7
370
    15
100
AcDbCircle
 10
2537.529283205831
 20
1839.721201540314
 30
0.0
 40
1.039885220952608
100
AcDbArc
 50
301.9407955238493
 51
353.0623374522142
  0
LINE
  5
84E
330
82E
100
AcDbEntity
  8
0
  6
Continuous
 62
     7
370
    15
100
AcDbLine
 10
1825.833660032072
 20
1433.820137259475
 30
0.0
 11
2532.940441218622
 21
1842.024193170829
 31
0.0
  0
LINE
  5
84F
330
82E
100
AcDbEntity
  8
0
  6
Continuous
 62
     7
370
    15
100
AcDbLine
 10
2535.760479279224
 20
1840.39621985083
 30
0.0
 11
2532.940441218622
 21
1842.024193170829
 31
0.0
  0
LWPOLYLINE
  5
850
330
82E
100
AcDbEntity
  8
0
  6
Continuous
 62
     7
370
    15
100
AcDbPolyline
 90
        7
 70
   128
 43
0.0
 10
2521.096402338719
 20
1834.737750604928
 10
2520.619502968761
 20
1834.325722664462
 10
2520.452037446446
 20
1833.839701781832
 10
2520.61950218674
 20
1833.353681018004
 10
2521.096402338719
 20
1832.941652768651
 10
2521.810133535015
 20
1832.666344171021
 10
2522.241643177509
 20
1832.591961887612
  0
LWPOLYLINE
  5
851
330
82E
100
AcDbEntity
  8
0
  6
Continuous
 62
     7
370
    15
100
AcDbPolyline
 90
        7
 70
   128
 43
0.0
 10
2529.975300119675
 20
1837.056507009809
 10
2529.846452264693
 20
1837.305612224067
 10
2529.369552112714
 20
1837.717640473421
 10
2528.655820916418
 20
1837.992949071051
 10
2527.813917037897
 20
1838.08962440783
 10
2526.972013612125
 20
1837.992948999769
 10
2526.258282292352
 20
1837.717640473421
  0
LINE
  5
852
330
82E
100
AcDbEntity
  8
0
  6
Continuous
 62
     7
370
    15
100
AcDbLine
 10
2526.258282292352
 20
1837.717640473421
 30
0.0
 11
2521.096402338719
 21
1834.737750604928
 31
0.0
  0
LWPOLYLINE
  5
853
330
82E
100
AcDbEntity
  8
0
  6
Continuous
 62
     7
370
    15
100
AcDbPolyline
 90
        7
 70
   128
 43
0.0
 10
2506.954265714
 20
1826.573668908843
 10
2506.477367661132
 20
1826.161641728717
 10
2506.309902138816
 20
1825.675620846086
 10
2506.47736687911
 20
1825.189600082259
 10
2506.954265714
 20
1824.777571072566
 10
2507.667998227386
 20
1824.502263235276
 10
2508.09950786988
 20
1824.427880951866
  0
LWPOLYLINE
  5
854
330
82E
100
AcDbEntity
  8
0
  6
Continuous
 62
     7
370
    15
100
AcDbPolyline
 90
        7
 70
   128
 43
0.0
 10
2515.833164812045
 20
1828.892426074063
 10
2515.704316957064
 20
1829.141531288322
 10
2515.227416805084
 20
1829.553559537676
 10
2514.513685608788
 20
1829.828868135305
 10
2513.671781730267
 20
1829.925543472084
 10
2512.829877645951
 20
1829.828867683854
 10
2512.116146984722
 20
1829.553559537676
  0
LINE
  5
855
330
82E
100
AcDbEntity
  8
0
  6
Continuous
 62
     7
370
    15
100
AcDbLine
 10
2512.116146984722
 20
1829.553559537676
 30
0.0
 11
2506.954265714
 21
1826.573668908843
 31
0.0
  0
LWPOLYLINE
  5
856
330
82E
100
AcDbEntity
  8
0
  6
Continuous
 62
     7
370
    15
100
AcDbPolyline
 90
        7
 70
   128
 43
0.0
 10
2492.812130406371
 20
1818.409587973097
 10
2492.335232353502
 20
1817.997560792971
 10
2492.167766831187
 20
1817.511539910341
 10
2492.33523157148
 20
1817.025519146513
 10
2492.812130406371
 20
1816.61349013682
 10
2493.525862919756
 20
1816.33818229953
 10
2493.95737256225
 20
1816.26380001612
  0
LWPOLYLINE
  5
857
330
82E
100
AcDbEntity
  8
0
  6
Continuous
 62
     7
370
    15
100
AcDbPolyline
 90
        7
 70
   128
 43
0.0
 10
2501.691029504416
 20
1820.728345138318
 10
2501.562181649434
 20
1820.977450352576
 10
2501.085280180366
 20
1821.389477841591
 10
2500.371550301159
 20
1821.664787199559
 10
2499.529646422638
 20
1821.761462536338
 10
2498.687742338321
 20
1821.664786748108
 10
2497.974010360004
 20
1821.389477841591
  0
LINE
  5
858
330
82E
100
AcDbEntity
  8
0
  6
Continuous
 62
     7
370
    15
100
AcDbLine
 10
2497.974010360004
 20
1821.389477841591
 30
0.0
 11
2492.812130406371
 21
1818.409587973097
 31
0.0
  0
LWPOLYLINE
  5
859
330
82E
100
AcDbEntity
  8
0
  6
Continuous
 62
     7
370
    15
100
AcDbPolyline
 90
        7
 70
   128
 43
0.0
 10
2478.669997732919
 20
1810.24550855803
 10
2478.193094411694
 20
1809.833478336546
 10
2478.025631523557
 20
1809.347458974595
 10
2478.193093629672
 20
1808.861436690089
 10
2478.669997732919
 20
1808.449410721753
 10
2479.383724977948
 20
1808.174099843105
 10
2479.81523725462
 20
1808.099719080375
  0
LWPOLYLINE
  5
85A
330
82E
100
AcDbEntity
  8
0
  6
Continuous
 62
     7
370
    15
100
AcDbPolyline
 90
        7
 70
   128
 43
0.0
 10
2487.548894196786
 20
1812.564264202572
 10
2487.420043707626
 20
1812.813367896152
 10
2486.943144872736
 20
1813.225396905845
 10
2486.229412359351
 20
1813.500704743135
 10
2485.387511115008
 20
1813.597381600593
 10
2484.545604396514
 20
1813.500704291684
 10
2483.831875052374
 20
1813.225396905845
  0
LINE
  5
85B
330
82E
100
AcDbEntity
  8
0
  6
Continuous
 62
     7
370
    15
100
AcDbLine
 10
2483.831875052374
 20
1813.225396905845
 30
0.0
 11
2478.669997732919
 21
1810.24550855803
 31
0.0
  0
LWPOLYLINE
  5
85C
330
82E
100
AcDbEntity
  8
0
  6
Continuous
 62
     7
370
    15
100
AcDbPolyline
 90
        7
 70
   128
 43
0.0
 10
2464.527859791111
 20
1802.081426101606
 10
2464.050961738243
 20
1801.66939892148
 10
2463.883493581749
 20
1801.183376518171
 10
2464.050960956221
 20
1800.697357275022
 10
2464.527859791111
 20
1800.285328265329
 10
2465.241592304497
 20
1800.010020428038
 10
2465.673099312813
 20
1799.93563662395
  0
LWPOLYLINE
  5
85D
330
82E
100
AcDbEntity
  8
0
  6
Continuous
 62
     7
370
    15
100
AcDbPolyline
 90
        7
 70
   128
 43
0.0
 10
2473.406756254978
 20
1804.400181746148
 10
2473.277911034175
 20
1804.649288481085
 10
2472.801006930929
 20
1805.061314449421
 10
2472.087279685899
 20
1805.336625328068
 10
2471.2453731732
 20
1805.433299144169
 10
2470.403471723062
 20
1805.336624876617
 10
2469.689737110566
 20
1805.061314449421
  0
LINE
  5
85E
330
82E
100
AcDbEntity
  8
0
  6
Continuous
 62
     7
370
    15
100
AcDbLine
 10
2469.689737110566
 20
1805.061314449421
 30
0.0
 11
2464.527859791111
 21
1802.081426101606
 31
0.0
  0
LWPOLYLINE
  5
85F
330
82E
100
AcDbEntity
  8
0
  6
Continuous
 62
     7
370
    15
100
AcDbPolyline
 90
        7
 70
   128
 43
0.0
 10
2450.38572711766
 20
1793.917346686539
 10
2449.908823796435
 20
1793.505316465055
 10
2449.741360908298
 20
1793.019297103104
 10
2449.908823014414
 20
1792.533274818598
 10
2450.38572711766
 20
1792.121248850262
 10
2451.099454362689
 20
1791.845937971614
 10
2451.530966639362
 20
1791.771557208884
  0
LWPOLYLINE
  5
860
330
82E
100
AcDbEntity
  8
0
  6
Continuous
 62
     7
370
    15
100
AcDbPolyline
 90
        7
 70
   128
 43
0.0
 10
2459.264623581527
 20
1796.236102331081
 10
2459.135773092368
 20
1796.485206024661
 10
2458.658874257477
 20
1796.897235034354
 10
2457.945141744092
 20
1797.172542871644
 10
2457.103240499749
 20
1797.269219729102
 10
2456.261333781255
 20
1797.172542420192
 10
2455.547604437115
 20
1796.897235034354
  0
LINE
  5
861
330
82E
100
AcDbEntity
  8
0
  6
Continuous
 62
     7
370
    15
100
AcDbLine
 10
2455.547604437115
 20
1796.897235034354
 30
0.0
 11
2450.38572711766
 21
1793.917346686539
 31
0.0
  0
LWPOLYLINE
  5
862
330
82E
100
AcDbEntity
  8
0
  6
Continuous
 62
     7
370
    15
100
AcDbPolyline
 90
        7
 70
   128
 43
0.0
 10
2436.243589175852
 20
1785.753264230115
 10
2435.766691122984
 20
1785.341237049988
 10
2435.59922296649
 20
1784.85521464668
 10
2435.766690340962
 20
1784.369195403531
 10
2436.243583907496
 20
1783.95716335248
 10
2436.957321689237
 20
1783.681858556547
 10
2437.388828697554
 20
1783.607474752459
  0
LWPOLYLINE
  5
863
330
82E
100
AcDbEntity
  8
0
  6
Continuous
 62
     7
370
    15
100
AcDbPolyline
 90
        7
 70
   128
 43
0.0
 10
2445.122490908075
 20
1788.072022916014
 10
2444.993640418916
 20
1788.321126609593
 10
2444.516736315669
 20
1788.733152577929
 10
2443.80300907064
 20
1789.008463456577
 10
2442.961107826297
 20
1789.105140314034
 10
2442.119201107803
 20
1789.008463005125
 10
2441.405471763663
 20
1788.733155619287
  0
LINE
  5
864
330
82E
100
AcDbEntity
  8
0
  6
Continuous
 62
     7
370
    15
100
AcDbLine
 10
2441.405471763663
 20
1788.733155619287
 30
0.0
 11
2436.243589175852
 21
1785.753264230115
 31
0.0
  0
LWPOLYLINE
  5
865
330
82E
100
AcDbEntity
  8
0
  6
Continuous
 62
     7
370
    15
100
AcDbPolyline
 90
        7
 70
   128
 43
0.0
 10
2422.101456502401
 20
1777.589184815048
 10
2421.624558449532
 20
1777.177157634922
 10
2421.457090293039
 20
1776.691135231612
 10
2421.62455766751
 20
1776.205115988463
 10
2422.101451234045
 20
1775.793083937413
 10
2422.815189015786
 20
1775.51777914148
 10
2423.246696024102
 20
1775.443395337392
  0
LWPOLYLINE
  5
866
330
82E
100
AcDbEntity
  8
0
  6
Continuous
 62
     7
370
    15
100
AcDbPolyline
 90
        7
 70
   128
 43
0.0
 10
2430.980347697911
 20
1779.907937418232
 10
2430.851507745464
 20
1780.157047194526
 10
2430.374603642218
 20
1780.569073162862
 10
2429.660876397189
 20
1780.84438404151
 10
2428.818964616133
 20
1780.941054816253
 10
2427.977068434351
 20
1780.844383590058
 10
2427.263328553499
 20
1780.569070121505
  0
LINE
  5
867
330
82E
100
AcDbEntity
  8
0
  6
Continuous
 62
     7
370
    15
100
AcDbLine
 10
2427.263328553499
 20
1780.569070121505
 30
0.0
 11
2422.101456502401
 21
1777.589184815048
 31
0.0
  0
LWPOLYLINE
  5
868
330
82E
100
AcDbEntity
  8
0
  6
Continuous
 62
     7
370
    15
100
AcDbPolyline
 90
        7
 70
   128
 43
0.0
 10
2407.959313292237
 20
1769.425099317266
 10
2407.482415239368
 20
1769.01307213714
 10
2407.314957619587
 20
1768.527055816545
 10
2407.482414457347
 20
1768.041030490682
 10
2407.959318560593
 20
1767.629004522346
 10
2408.673045805622
 20
1767.353693643699
 10
2409.10456335065
 20
1767.279315922325
  0
LWPOLYLINE
  5
869
330
82E
100
AcDbEntity
  8
0
  6
Continuous
 62
     7
370
    15
100
AcDbPolyline
 90
        7
 70
   128
 43
0.0
 10
2416.83821502446
 20
1771.743858003165
 10
2416.709364535301
 20
1771.992961696745
 10
2416.232470968766
 20
1772.404993747795
 10
2415.518733187025
 20
1772.680298543728
 10
2414.676831942682
 20
1772.776975401186
 10
2413.834925224188
 20
1772.680298092277
 10
2413.121195880048
 20
1772.404990706438
  0
LINE
  5
86A
330
82E
100
AcDbEntity
  8
0
  6
Continuous
 62
     7
370
    15
100
AcDbLine
 10
2413.121195880048
 20
1772.404990706438
 30
0.0
 11
2407.959313292237
 21
1769.425099317266
 31
0.0
  0
LWPOLYLINE
  5
86B
330
82E
100
AcDbEntity
  8
0
  6
Continuous
 62
     7
370
    15
100
AcDbPolyline
 90
        7
 70
   128
 43
0.0
 10
2393.817180618786
 20
1761.2610199022
 10
2393.340282565917
 20
1760.848992722073
 10
2393.172814409423
 20
1760.362970318764
 10
2393.340281783895
 20
1759.876951075615
 10
2393.817185887141
 20
1759.464925107279
 10
2394.53091313217
 20
1759.189614228632
 10
2394.962420140487
 20
1759.115230424544
  0
LWPOLYLINE
  5
86C
330
82E
100
AcDbEntity
  8
0
  6
Continuous
 62
     7
370
    15
100
AcDbPolyline
 90
        7
 70
   128
 43
0.0
 10
2402.696082351008
 20
1763.579778588098
 10
2402.567231861849
 20
1763.828882281678
 10
2402.090327758602
 20
1764.240908250014
 10
2401.376600513573
 20
1764.516219128661
 10
2400.53469926923
 20
1764.612895986119
 10
2399.692792550736
 20
1764.51621867721
 10
2398.979063206596
 20
1764.240911291371
  0
LINE
  5
86D
330
82E
100
AcDbEntity
  8
0
  6
Continuous
 62
     7
370
    15
100
AcDbLine
 10
2398.979063206596
 20
1764.240911291371
 30
0.0
 11
2393.817180618786
 21
1761.2610199022
 31
0.0
  0
LWPOLYLINE
  5
86E
330
82E
100
AcDbEntity
  8
0
  6
Continuous
 62
     7
370
    15
100
AcDbPolyline
 90
        7
 70
   128
 43
0.0
 10
2379.675047945334
 20
1753.096940487132
 10
2379.198149892465
 20
1752.684913307006
 10
2379.030681735972
 20
1752.198890903696
 10
2379.198149110443
 20
1751.712871660548
 10
2379.675042676978
 20
1751.300839609498
 10
2380.388780458719
 20
1751.025534813565
 10
2380.820287467035
 20
1750.951151009477
  0
LWPOLYLINE
  5
86F
330
82E
100
AcDbEntity
  8
0
  6
Continuous
 62
     7
370
    15
100
AcDbPolyline
 90
        7
 70
   128
 43
0.0
 10
2388.553939140845
 20
1755.415693090317
 10
2388.425099188397
 20
1755.664802866611
 10
2387.948195085151
 20
1756.076828834947
 10
2387.234467840122
 20
1756.352139713594
 10
2386.392556059067
 20
1756.448810488338
 10
2385.550659877285
 20
1756.352139262143
 10
2384.836930533145
 20
1756.076831876304
  0
LINE
  5
870
330
82E
100
AcDbEntity
  8
0
  6
Continuous
 62
     7
370
    15
100
AcDbLine
 10
2384.836930533145
 20
1756.076831876304
 30
0.0
 11
2379.675047945334
 21
1753.096940487132
 31
0.0
  0
LWPOLYLINE
  5
871
330
82E
100
AcDbEntity
  8
0
  6
Continuous
 62
     7
370
    15
100
AcDbPolyline
 90
        7
 70
   128
 43
0.0
 10
2365.532915271882
 20
1744.932861072065
 10
2365.056006682301
 20
1744.520827809224
 10
2364.88854906252
 20
1744.03481148863
 10
2365.05600590028
 20
1743.548786162766
 10
2365.532910003526
 20
1743.136760194431
 10
2366.246637248555
 20
1742.861449315783
 10
2366.678154793584
 20
1742.78707159441
  0
LWPOLYLINE
  5
872
330
82E
100
AcDbEntity
  8
0
  6
Continuous
 62
     7
370
    15
100
AcDbPolyline
 90
        7
 70
   128
 43
0.0
 10
2374.411806467393
 20
1747.251613675249
 10
2374.282955978233
 20
1747.500717368829
 10
2373.806062411699
 20
1747.91274941988
 10
2373.092324629958
 20
1748.188054215813
 10
2372.250423385615
 20
1748.28473107327
 10
2371.408516667121
 20
1748.188053764361
 10
2370.694787322981
 20
1747.912746378522
  0
LINE
  5
873
330
82E
100
AcDbEntity
  8
0
  6
Continuous
 62
     7
370
    15
100
AcDbLine
 10
2370.694787322981
 20
1747.912746378522
 30
0.0
 11
2365.532915271882
 21
1744.932861072065
 31
0.0
  0
LWPOLYLINE
  5
874
330
82E
100
AcDbEntity
  8
0
  6
Continuous
 62
     7
370
    15
100
AcDbPolyline
 90
        7
 70
   128
 43
0.0
 10
2351.39078259843
 20
1736.768781656999
 10
2350.913874008849
 20
1736.356748394157
 10
2350.746405852357
 20
1735.870725990848
 10
2350.913873226828
 20
1735.3847067477
 10
2351.390777330074
 20
1734.972680779363
 10
2352.104504575104
 20
1734.697369900716
 10
2352.53601158342
 20
1734.622986096628
  0
LWPOLYLINE
  5
875
330
82E
100
AcDbEntity
  8
0
  6
Continuous
 62
     7
370
    15
100
AcDbPolyline
 90
        7
 70
   128
 43
0.0
 10
2360.269673793942
 20
1739.087534260183
 10
2360.140823304782
 20
1739.336637953762
 10
2359.663929738248
 20
1739.748670004813
 10
2358.950191956506
 20
1740.023974800745
 10
2358.108290712163
 20
1740.120651658203
 10
2357.266383993669
 20
1740.023974349294
 10
2356.552654649529
 20
1739.748666963455
  0
LINE
  5
876
330
82E
100
AcDbEntity
  8
0
  6
Continuous
 62
     7
370
    15
100
AcDbLine
 10
2356.552654649529
 20
1739.748666963455
 30
0.0
 11
2351.39078259843
 21
1736.768781656999
 31
0.0
  0
LWPOLYLINE
  5
877
330
82E
100
AcDbEntity
  8
0
  6
Continuous
 62
     7
370
    15
100
AcDbPolyline
 90
        7
 70
   128
 43
0.0
 10
2337.248639388266
 20
1728.604696159217
 10
2336.771730798686
 20
1728.192662896376
 10
2336.604283715617
 20
1727.706652658496
 10
2336.771730016664
 20
1727.220621249918
 10
2337.248634119911
 20
1726.808595281582
 10
2337.96236136494
 20
1726.533284402935
 10
2338.39388944668
 20
1726.458912764275
  0
LWPOLYLINE
  5
878
330
82E
100
AcDbEntity
  8
0
  6
Continuous
 62
     7
370
    15
100
AcDbPolyline
 90
        7
 70
   128
 43
0.0
 10
2346.12754112049
 20
1730.923454845116
 10
2345.99869063133
 20
1731.172558538695
 10
2345.521786528084
 20
1731.584584507032
 10
2344.808059283055
 20
1731.859895385679
 10
2343.966158038712
 20
1731.956572243136
 10
2343.124251320218
 20
1731.859894934227
 10
2342.410511439366
 20
1731.584581465674
  0
LINE
  5
879
330
82E
100
AcDbEntity
  8
0
  6
Continuous
 62
     7
370
    15
100
AcDbLine
 10
2342.410511439366
 20
1731.584581465674
 30
0.0
 11
2337.248639388266
 21
1728.604696159217
 31
0.0
  0
LWPOLYLINE
  5
87A
330
82E
100
AcDbEntity
  8
0
  6
Continuous
 62
     7
370
    15
100
AcDbPolyline
 90
        7
 70
   128
 43
0.0
 10
2323.106496178103
 20
1720.440610661436
 10
2322.629608661946
 20
1720.028589564023
 10
2322.462140505453
 20
1719.542567160714
 10
2322.629607879925
 20
1719.056547917565
 10
2323.106511983171
 20
1718.64452194923
 10
2323.8202392282
 20
1718.369211070582
 10
2324.251746236517
 20
1718.294827266494
  0
LWPOLYLINE
  5
87B
330
82E
100
AcDbEntity
  8
0
  6
Continuous
 62
     7
370
    15
100
AcDbPolyline
 90
        7
 70
   128
 43
0.0
 10
2331.985397910326
 20
1722.759369347334
 10
2331.856547421166
 20
1723.008473040914
 10
2331.37964331792
 20
1723.42049900925
 10
2330.665916072891
 20
1723.695809887897
 10
2329.824014828548
 20
1723.792486745355
 10
2328.982108110054
 20
1723.695809436446
 10
2328.268389302626
 20
1723.420508133321
  0
LINE
  5
87C
330
82E
100
AcDbEntity
  8
0
  6
Continuous
 62
     7
370
    15
100
AcDbLine
 10
2328.268389302626
 20
1723.420508133321
 30
0.0
 11
2323.106496178103
 21
1720.440610661436
 31
0.0
  0
LWPOLYLINE
  5
87D
330
82E
100
AcDbEntity
  8
0
  6
Continuous
 62
     7
370
    15
100
AcDbPolyline
 90
        7
 70
   128
 43
0.0
 10
2308.964374041364
 20
1712.276537329083
 10
2308.487465451783
 20
1711.864504066242
 10
2308.319997295289
 20
1711.378481662933
 10
2308.487464669761
 20
1710.892462419784
 10
2308.964368773008
 20
1710.480436451448
 10
2309.678096018037
 20
1710.205125572801
 10
2310.109603026353
 20
1710.130741768713
  0
LWPOLYLINE
  5
87E
330
82E
100
AcDbEntity
  8
0
  6
Continuous
 62
     7
370
    15
100
AcDbPolyline
 90
        7
 70
   128
 43
0.0
 10
2317.843275773587
 20
1714.595296014981
 10
2317.714425284427
 20
1714.844399708561
 10
2317.23752118118
 20
1715.256425676897
 10
2316.523793936152
 20
1715.531736555545
 10
2315.681892691809
 20
1715.628413413002
 10
2314.839985973315
 20
1715.531736104093
 10
2314.126246092463
 20
1715.25642263554
  0
LINE
  5
87F
330
82E
100
AcDbEntity
  8
0
  6
Continuous
 62
     7
370
    15
100
AcDbLine
 10
2314.126246092463
 20
1715.25642263554
 30
0.0
 11
2308.964374041364
 21
1712.276537329083
 31
0.0
  0
LWPOLYLINE
  5
880
330
82E
100
AcDbEntity
  8
0
  6
Continuous
 62
     7
370
    15
100
AcDbPolyline
 90
        7
 70
   128
 43
0.0
 10
2294.8222308312
 20
1704.112451831301
 10
2294.345322241619
 20
1703.70041856846
 10
2294.17787515855
 20
1703.21440833058
 10
2294.345342533022
 20
1702.728389087431
 10
2294.822225562844
 20
1702.316350953666
 10
2295.535973881297
 20
1702.041052240448
 10
2295.967480889613
 20
1701.96666843636
  0
LWPOLYLINE
  5
881
330
82E
100
AcDbEntity
  8
0
  6
Continuous
 62
     7
370
    15
100
AcDbPolyline
 90
        7
 70
   128
 43
0.0
 10
2303.701132563423
 20
1706.4312105172
 10
2303.572282074263
 20
1706.68031421078
 10
2303.095377971017
 20
1707.092340179116
 10
2302.381650725988
 20
1707.367651057763
 10
2301.539749481645
 20
1707.464327915221
 10
2300.697842763151
 20
1707.367650606312
 10
2299.984102882299
 20
1707.092337137759
  0
LINE
  5
882
330
82E
100
AcDbEntity
  8
0
  6
Continuous
 62
     7
370
    15
100
AcDbLine
 10
2299.984102882299
 20
1707.092337137759
 30
0.0
 11
2294.8222308312
 21
1704.112451831301
 31
0.0
  0
LWPOLYLINE
  5
883
330
82E
100
AcDbEntity
  8
0
  6
Continuous
 62
     7
370
    15
100
AcDbPolyline
 90
        7
 70
   128
 43
0.0
 10
2280.680087621036
 20
1695.94836633352
 10
2280.203200104879
 20
1695.536345236108
 10
2280.035731948387
 20
1695.050322832799
 10
2280.203199322858
 20
1694.56430358965
 10
2280.680103426104
 20
1694.152277621314
 10
2281.393830671134
 20
1693.876966742667
 10
2281.82533767945
 20
1693.802582938578
  0
LWPOLYLINE
  5
884
330
82E
100
AcDbEntity
  8
0
  6
Continuous
 62
     7
370
    15
100
AcDbPolyline
 90
        7
 70
   128
 43
0.0
 10
2289.558989353259
 20
1698.267125019418
 10
2289.4301388641
 20
1698.516228712998
 10
2288.953255834277
 20
1698.928266846763
 10
2288.239507515824
 20
1699.203565559981
 10
2287.397606271481
 20
1699.300242417439
 10
2286.555699552987
 20
1699.20356510853
 10
2285.841980745559
 20
1698.928263805406
  0
LINE
  5
885
330
82E
100
AcDbEntity
  8
0
  6
Continuous
 62
     7
370
    15
100
AcDbLine
 10
2285.841980745559
 20
1698.928263805406
 30
0.0
 11
2280.680087621036
 21
1695.94836633352
 31
0.0
  0
LWPOLYLINE
  5
886
330
82E
100
AcDbEntity
  8
0
  6
Continuous
 62
     7
370
    15
100
AcDbPolyline
 90
        7
 70
   128
 43
0.0
 10
2266.537965484296
 20
1687.784293001167
 10
2266.061056894716
 20
1687.372259738326
 10
2265.893588738223
 20
1686.886237335017
 10
2266.061056112694
 20
1686.400218091869
 10
2266.537960215941
 20
1685.988192123533
 10
2267.251687460969
 20
1685.712881244885
 10
2267.683194469286
 20
1685.638497440797
  0
LWPOLYLINE
  5
887
330
82E
100
AcDbEntity
  8
0
  6
Continuous
 62
     7
370
    15
100
AcDbPolyline
 90
        7
 70
   128
 43
0.0
 10
2275.41686721652
 20
1690.103051687066
 10
2275.28801672736
 20
1690.352155380646
 10
2274.811112624114
 20
1690.764181348982
 10
2274.097385379085
 20
1691.039492227629
 10
2273.255484134742
 20
1691.136169085087
 10
2272.413577416247
 20
1691.039491776178
 10
2271.699837535396
 20
1690.764178307625
  0
LINE
  5
888
330
82E
100
AcDbEntity
  8
0
  6
Continuous
 62
     7
370
    15
100
AcDbLine
 10
2271.699837535396
 20
1690.764178307625
 30
0.0
 11
2266.537965484296
 21
1687.784293001167
 31
0.0
  0
LWPOLYLINE
  5
889
330
82E
100
AcDbEntity
  8
0
  6
Continuous
 62
     7
370
    15
100
AcDbPolyline
 90
        7
 70
   128
 43
0.0
 10
2252.395822274133
 20
1679.620207503386
 10
2251.918934757977
 20
1679.208186405974
 10
2251.751466601483
 20
1678.722164002665
 10
2251.918933975955
 20
1678.236144759516
 10
2252.395817005777
 20
1677.824106625751
 10
2253.10956532423
 20
1677.548807912532
 10
2253.541072332547
 20
1677.474424108444
  0
LWPOLYLINE
  5
88A
330
82E
100
AcDbEntity
  8
0
  6
Continuous
 62
     7
370
    15
100
AcDbPolyline
 90
        7
 70
   128
 43
0.0
 10
2261.274724006356
 20
1681.938966189284
 10
2261.145873517197
 20
1682.188069882865
 10
2260.66896941395
 20
1682.6000958512
 10
2259.955242168921
 20
1682.875406729848
 10
2259.113340924578
 20
1682.972083587305
 10
2258.271434206084
 20
1682.875406278396
 10
2257.557715398656
 20
1682.600104975272
  0
LINE
  5
88B
330
82E
100
AcDbEntity
  8
0
  6
Continuous
 62
     7
370
    15
100
AcDbLine
 10
2257.557715398656
 20
1682.600104975272
 30
0.0
 11
2252.395822274133
 21
1679.620207503386
 31
0.0
  0
LWPOLYLINE
  5
88C
330
82E
100
AcDbEntity
  8
0
  6
Continuous
 62
     7
370
    15
100
AcDbPolyline
 90
        7
 70
   128
 43
0.0
 10
2238.253700137394
 20
1671.456134171033
 10
2237.776791547813
 20
1671.044100908192
 10
2237.609323391319
 20
1670.558078504883
 10
2237.776790765791
 20
1670.072059261734
 10
2238.253694869037
 20
1669.660033293398
 10
2238.967422114066
 20
1669.384722414751
 10
2239.398929122383
 20
1669.310338610663
  0
LWPOLYLINE
  5
88D
330
82E
100
AcDbEntity
  8
0
  6
Continuous
 62
     7
370
    15
100
AcDbPolyline
 90
        7
 70
   128
 43
0.0
 10
2247.132580796192
 20
1673.774880691503
 10
2247.003730307033
 20
1674.023984385083
 10
2246.526847277211
 20
1674.436022518848
 10
2245.813098958757
 20
1674.711321232066
 10
2244.971197714415
 20
1674.807998089524
 10
2244.12929099592
 20
1674.711320780614
 10
2243.415572188493
 20
1674.43601947749
  0
LINE
  5
88E
330
82E
100
AcDbEntity
  8
0
  6
Continuous
 62
     7
370
    15
100
AcDbLine
 10
2243.415572188493
 20
1674.43601947749
 30
0.0
 11
2238.253700137394
 21
1671.456134171033
 31
0.0
  0
LWPOLYLINE
  5
88F
330
82E
100
AcDbEntity
  8
0
  6
Continuous
 62
     7
370
    15
100
AcDbPolyline
 90
        7
 70
   128
 43
0.0
 10
2224.11155692723
 20
1663.292048673252
 10
2223.634648337649
 20
1662.88001541041
 10
2223.467180181156
 20
1662.393993007102
 10
2223.634647555627
 20
1661.907973763953
 10
2224.111551658873
 20
1661.495947795617
 10
2224.825278903903
 20
1661.22063691697
 10
2225.256785912219
 20
1661.146253112882
  0
LWPOLYLINE
  5
890
330
82E
100
AcDbEntity
  8
0
  6
Continuous
 62
     7
370
    15
100
AcDbPolyline
 90
        7
 70
   128
 43
0.0
 10
2232.990458659453
 20
1665.61080735915
 10
2232.861608170293
 20
1665.85991105273
 10
2232.384704067047
 20
1666.271937021066
 10
2231.670976822018
 20
1666.547247899714
 10
2230.829075577675
 20
1666.643924757171
 10
2229.987168859181
 20
1666.547247448262
 10
2229.273428978329
 20
1666.271933979709
  0
LINE
  5
891
330
82E
100
AcDbEntity
  8
0
  6
Continuous
 62
     7
370
    15
100
AcDbLine
 10
2229.273428978329
 20
1666.271933979709
 30
0.0
 11
2224.11155692723
 21
1663.292048673252
 31
0.0
  0
LWPOLYLINE
  5
892
330
82E
100
AcDbEntity
  8
0
  6
Continuous
 62
     7
370
    15
100
AcDbPolyline
 90
        7
 70
   128
 43
0.0
 10
2209.969413717066
 20
1655.12796317547
 10
2209.492526200909
 20
1654.715942078058
 10
2209.325058044417
 20
1654.229919674749
 10
2209.492525418888
 20
1653.7439004316
 10
2209.96940844871
 20
1653.331862297835
 10
2210.683156767164
 20
1653.056563584617
 10
2211.11466377548
 20
1652.982179780529
  0
LWPOLYLINE
  5
893
330
82E
100
AcDbEntity
  8
0
  6
Continuous
 62
     7
370
    15
100
AcDbPolyline
 90
        7
 70
   128
 43
0.0
 10
2218.848315449289
 20
1657.446721861369
 10
2218.71946496013
 20
1657.695825554949
 10
2218.242560856884
 20
1658.107851523285
 10
2217.528833611854
 20
1658.383162401932
 10
2216.686932367511
 20
1658.47983925939
 10
2215.845025649017
 20
1658.383161950481
 10
2215.131306841589
 20
1658.107860647356
  0
LINE
  5
894
330
82E
100
AcDbEntity
  8
0
  6
Continuous
 62
     7
370
    15
100
AcDbLine
 10
2215.131306841589
 20
1658.107860647356
 30
0.0
 11
2209.969413717066
 21
1655.12796317547
 31
0.0
  0
LWPOLYLINE
  5
895
330
82E
100
AcDbEntity
  8
0
  6
Continuous
 62
     7
370
    15
100
AcDbPolyline
 90
        7
 70
   128
 43
0.0
 10
2195.827291580326
 20
1646.963889843117
 10
2195.350382990746
 20
1646.551856580277
 10
2195.182914834252
 20
1646.065834176967
 10
2195.350382208724
 20
1645.579814933819
 10
2195.827286311971
 20
1645.167788965483
 10
2196.541013557
 20
1644.892478086835
 10
2196.972520565316
 20
1644.818094282747
  0
LWPOLYLINE
  5
896
330
82E
100
AcDbEntity
  8
0
  6
Continuous
 62
     7
370
    15
100
AcDbPolyline
 90
        7
 70
   128
 43
0.0
 10
2204.706172239125
 20
1649.282636363588
 10
2204.57734282339
 20
1649.531752222596
 10
2204.100438720144
 20
1649.943778190932
 10
2203.386711475115
 20
1650.21908906958
 10
2202.544789157348
 20
1650.315753761608
 10
2201.702903512278
 20
1650.219088618128
 10
2200.989163631426
 20
1649.943775149575
  0
LINE
  5
897
330
82E
100
AcDbEntity
  8
0
  6
Continuous
 62
     7
370
    15
100
AcDbLine
 10
2200.989163631426
 20
1649.943775149575
 30
0.0
 11
2195.827291580326
 21
1646.963889843117
 31
0.0
  0
LWPOLYLINE
  5
898
330
82E
100
AcDbEntity
  8
0
  6
Continuous
 62
     7
370
    15
100
AcDbPolyline
 90
        7
 70
   128
 43
0.0
 10
2181.685148370163
 20
1638.799804345336
 10
2181.208239780582
 20
1638.387771082495
 10
2181.040792697513
 20
1637.901760844615
 10
2181.208238998561
 20
1637.415729436037
 10
2181.685143101807
 20
1637.003703467701
 10
2182.398870346836
 20
1636.728392589054
 10
2182.830398428577
 20
1636.654020950395
  0
LWPOLYLINE
  5
899
330
82E
100
AcDbEntity
  8
0
  6
Continuous
 62
     7
370
    15
100
AcDbPolyline
 90
        7
 70
   128
 43
0.0
 10
2190.564050102386
 20
1641.118563031235
 10
2190.435199613226
 20
1641.367666724814
 10
2189.95829550998
 20
1641.779692693151
 10
2189.244568264951
 20
1642.055003571798
 10
2188.402667020608
 20
1642.151680429256
 10
2187.560760302114
 20
1642.055003120346
 10
2186.847020421262
 20
1641.779689651794
  0
LINE
  5
89A
330
82E
100
AcDbEntity
  8
0
  6
Continuous
 62
     7
370
    15
100
AcDbLine
 10
2186.847020421262
 20
1641.779689651794
 30
0.0
 11
2181.685148370163
 21
1638.799804345336
 31
0.0
  0
LWPOLYLINE
  5
89B
330
82E
100
AcDbEntity
  8
0
  6
Continuous
 62
     7
370
    15
100
AcDbPolyline
 90
        7
 70
   128
 43
0.0
 10
2167.543005159999
 20
1630.635718847555
 10
2167.066096570418
 20
1630.223685584714
 10
2166.898649487349
 20
1629.737675346833
 10
2167.066116861821
 20
1629.251656103685
 10
2167.542999891643
 20
1628.83961796992
 10
2168.256748210097
 20
1628.564319256701
 10
2168.688234144989
 20
1628.489923287185
  0
LWPOLYLINE
  5
89C
330
82E
100
AcDbEntity
  8
0
  6
Continuous
 62
     7
370
    15
100
AcDbPolyline
 90
        7
 70
   128
 43
0.0
 10
2176.421927965646
 20
1632.954489698882
 10
2176.293056403063
 20
1633.203581227033
 10
2175.81617337324
 20
1633.615619360798
 10
2175.102425054787
 20
1633.890918074017
 10
2174.260523810444
 20
1633.987594931474
 10
2173.418638165375
 20
1633.890929787994
 10
2172.704898284523
 20
1633.615616319441
  0
LINE
  5
89D
330
82E
100
AcDbEntity
  8
0
  6
Continuous
 62
     7
370
    15
100
AcDbLine
 10
2172.704898284523
 20
1633.615616319441
 30
0.0
 11
2167.543005159999
 21
1630.635718847555
 31
0.0
  0
LWPOLYLINE
  5
89E
330
82E
100
AcDbEntity
  8
0
  6
Continuous
 62
     7
370
    15
100
AcDbPolyline
 90
        7
 70
   128
 43
0.0
 10
2153.40088302326
 20
1622.471645515202
 10
2152.923974433679
 20
1622.059612252361
 10
2152.75652735061
 20
1621.573602014481
 10
2152.923994725082
 20
1621.087582771332
 10
2153.400877754903
 20
1620.675544637568
 10
2154.114626073357
 20
1620.400245924349
 10
2154.546112008249
 20
1620.325849954832
  0
LWPOLYLINE
  5
89F
330
82E
100
AcDbEntity
  8
0
  6
Continuous
 62
     7
370
    15
100
AcDbPolyline
 90
        7
 70
   128
 43
0.0
 10
2162.279763682059
 20
1624.790392035672
 10
2162.150934266323
 20
1625.039507894681
 10
2161.674009089653
 20
1625.451521697588
 10
2160.960302918048
 20
1625.726844741664
 10
2160.118401673705
 20
1625.823521599121
 10
2159.276473881786
 20
1625.726832124784
 10
2158.562776147783
 20
1625.451542987088
  0
LINE
  5
8A0
330
82E
100
AcDbEntity
  8
0
  6
Continuous
 62
     7
370
    15
100
AcDbLine
 10
2158.562776147783
 20
1625.451542987088
 30
0.0
 11
2153.40088302326
 21
1622.471645515202
 31
0.0
  0
LWPOLYLINE
  5
8A1
330
82E
100
AcDbEntity
  8
0
  6
Continuous
 62
     7
370
    15
100
AcDbPolyline
 90
        7
 70
   128
 43
0.0
 10
2139.258760886521
 20
1614.30757218285
 10
2138.781852296939
 20
1613.895538920009
 10
2138.614363067022
 20
1613.409504351271
 10
2138.781830441493
 20
1612.923485108122
 10
2139.258755618164
 20
1612.511471305215
 10
2139.972461789769
 20
1612.236148261138
 10
2140.40398987151
 20
1612.161776622479
  0
LWPOLYLINE
  5
8A2
330
82E
100
AcDbEntity
  8
0
  6
Continuous
 62
     7
370
    15
100
AcDbPolyline
 90
        7
 70
   128
 43
0.0
 10
2148.137641545319
 20
1616.626318703319
 10
2148.008769982736
 20
1616.87541023147
 10
2147.531886952913
 20
1617.287448365235
 10
2146.81813863446
 20
1617.562747078454
 10
2145.976237390117
 20
1617.659423935911
 10
2145.134351745047
 20
1617.562758792431
 10
2144.420611864195
 20
1617.287445323878
  0
LINE
  5
8A3
330
82E
100
AcDbEntity
  8
0
  6
Continuous
 62
     7
370
    15
100
AcDbLine
 10
2144.420611864195
 20
1617.287445323878
 30
0.0
 11
2139.258760886521
 21
1614.30757218285
 31
0.0
  0
LWPOLYLINE
  5
8A4
330
82E
100
AcDbEntity
  8
0
  6
Continuous
 62
     7
370
    15
100
AcDbPolyline
 90
        7
 70
   128
 43
0.0
 10
2125.116596602932
 20
1606.143474519639
 10
2124.639688013352
 20
1605.731441256798
 10
2124.472240930282
 20
1605.245431018918
 10
2124.639708304754
 20
1604.759411775769
 10
2125.116591334576
 20
1604.347373642005
 10
2125.830339653029
 20
1604.072074928786
 10
2126.261825587921
 20
1603.997678959269
  0
LWPOLYLINE
  5
8A5
330
82E
100
AcDbEntity
  8
0
  6
Continuous
 62
     7
370
    15
100
AcDbPolyline
 90
        7
 70
   128
 43
0.0
 10
2133.99551940858
 20
1608.462245370967
 10
2133.866647845996
 20
1608.711336899118
 10
2133.389764816174
 20
1609.123375032882
 10
2132.67601649772
 20
1609.398673746101
 10
2131.834115253377
 20
1609.495350603558
 10
2130.992229608308
 20
1609.398685460078
 10
2130.278489727456
 20
1609.123371991525
  0
LINE
  5
8A6
330
82E
100
AcDbEntity
  8
0
  6
Continuous
 62
     7
370
    15
100
AcDbLine
 10
2130.278489727456
 20
1609.123371991525
 30
0.0
 11
2125.116596602932
 21
1606.143474519639
 31
0.0
  0
LWPOLYLINE
  5
8A7
330
82E
100
AcDbEntity
  8
0
  6
Continuous
 62
     7
370
    15
100
AcDbPolyline
 90
        7
 70
   128
 43
0.0
 10
2110.974474466193
 20
1597.979401187287
 10
2110.497565876612
 20
1597.567367924445
 10
2110.330118793543
 20
1597.081357686565
 10
2110.497586168015
 20
1596.595338443417
 10
2110.974469197837
 20
1596.183300309652
 10
2111.68821751629
 20
1595.908001596433
 10
2112.119703451182
 20
1595.833605626916
  0
LWPOLYLINE
  5
8A8
330
82E
100
AcDbEntity
  8
0
  6
Continuous
 62
     7
370
    15
100
AcDbPolyline
 90
        7
 70
   128
 43
0.0
 10
2119.853355124992
 20
1600.298147707756
 10
2119.724525709257
 20
1600.547263566765
 10
2119.247600532586
 20
1600.959277369672
 10
2118.533894360981
 20
1601.234600413748
 10
2117.691993116638
 20
1601.331277271206
 10
2116.850065324719
 20
1601.234587796868
 10
2116.136367590716
 20
1600.959298659173
  0
LINE
  5
8A9
330
82E
100
AcDbEntity
  8
0
  6
Continuous
 62
     7
370
    15
100
AcDbLine
 10
2116.136367590716
 20
1600.959298659173
 30
0.0
 11
2110.974474466193
 21
1597.979401187287
 31
0.0
  0
LWPOLYLINE
  5
8AA
330
82E
100
AcDbEntity
  8
0
  6
Continuous
 62
     7
370
    15
100
AcDbPolyline
 90
        7
 70
   128
 43
0.0
 10
2096.832352329454
 20
1589.815327854934
 10
2096.355443739872
 20
1589.403294592093
 10
2096.187954509955
 20
1588.917260023355
 10
2096.355421884426
 20
1588.431240780206
 10
2096.832347061098
 20
1588.019226977299
 10
2097.546053232703
 20
1587.743903933223
 10
2097.977581314443
 20
1587.669532294564
  0
LWPOLYLINE
  5
8AB
330
82E
100
AcDbEntity
  8
0
  6
Continuous
 62
     7
370
    15
100
AcDbPolyline
 90
        7
 70
   128
 43
0.0
 10
2105.711232988252
 20
1592.134074375404
 10
2105.582403572517
 20
1592.383190234413
 10
2105.105478395846
 20
1592.79520403732
 10
2104.391772224241
 20
1593.070527081396
 10
2103.54982883305
 20
1593.167179607996
 10
2102.70794318798
 20
1593.070514464515
 10
2101.994203307128
 20
1592.795200995962
  0
LINE
  5
8AC
330
82E
100
AcDbEntity
  8
0
  6
Continuous
 62
     7
370
    15
100
AcDbLine
 10
2101.994203307128
 20
1592.795200995962
 30
0.0
 11
2096.832352329454
 21
1589.815327854934
 31
0.0
  0
LWPOLYLINE
  5
8AD
330
82E
100
AcDbEntity
  8
0
  6
Continuous
 62
     7
370
    15
100
AcDbPolyline
 90
        7
 70
   128
 43
0.0
 10
2082.690188045865
 20
1581.651230191724
 10
2082.213279456285
 20
1581.239196928883
 10
2082.045832373216
 20
1580.753186691002
 10
2082.213299747687
 20
1580.267167447854
 10
2082.690182777509
 20
1579.855129314089
 10
2083.403931095963
 20
1579.57983060087
 10
2083.835459177703
 20
1579.505458962211
  0
LWPOLYLINE
  5
8AE
330
82E
100
AcDbEntity
  8
0
  6
Continuous
 62
     7
370
    15
100
AcDbPolyline
 90
        7
 70
   128
 43
0.0
 10
2091.569110851513
 20
1583.970001043051
 10
2091.440239288929
 20
1584.219092571202
 10
2090.963356259107
 20
1584.631130704967
 10
2090.249607940654
 20
1584.906429418185
 10
2089.407706696311
 20
1585.003106275643
 10
2088.565821051241
 20
1584.906441132163
 10
2087.852081170389
 20
1584.63112766361
  0
LINE
  5
8AF
330
82E
100
AcDbEntity
  8
0
  6
Continuous
 62
     7
370
    15
100
AcDbLine
 10
2087.852081170389
 20
1584.63112766361
 30
0.0
 11
2082.690188045865
 21
1581.651230191724
 31
0.0
  0
LWPOLYLINE
  5
8B0
330
82E
100
AcDbEntity
  8
0
  6
Continuous
 62
     7
370
    15
100
AcDbPolyline
 90
        7
 70
   128
 43
0.0
 10
2068.548065909126
 20
1573.487156859371
 10
2068.071157319545
 20
1573.07512359653
 10
2067.903710236477
 20
1572.58911335865
 10
2068.071177610948
 20
1572.103094115501
 10
2068.54806064077
 20
1571.691055981736
 10
2069.261808959224
 20
1571.415757268518
 10
2069.693294894116
 20
1571.341361299001
  0
LWPOLYLINE
  5
8B1
330
82E
100
AcDbEntity
  8
0
  6
Continuous
 62
     7
370
    15
100
AcDbPolyline
 90
        7
 70
   128
 43
0.0
 10
2077.426946567925
 20
1575.805903379841
 10
2077.29811715219
 20
1576.05501923885
 10
2076.821191975519
 20
1576.467033041757
 10
2076.107485803914
 20
1576.742356085833
 10
2075.265584559571
 20
1576.839032943291
 10
2074.423656767653
 20
1576.742343468952
 10
2073.709959033649
 20
1576.467054331257
  0
LINE
  5
8B2
330
82E
100
AcDbEntity
  8
0
  6
Continuous
 62
     7
370
    15
100
AcDbLine
 10
2073.709959033649
 20
1576.467054331257
 30
0.0
 11
2068.548065909126
 21
1573.487156859371
 31
0.0
  0
LWPOLYLINE
  5
8B3
330
82E
100
AcDbEntity
  8
0
  6
Continuous
 62
     7
370
    15
100
AcDbPolyline
 90
        7
 70
   128
 43
0.0
 10
2054.405943772386
 20
1565.323083527019
 10
2053.929035182806
 20
1564.911050264177
 10
2053.761545952888
 20
1564.42501569544
 10
2053.92901332736
 20
1563.938996452291
 10
2054.405938504031
 20
1563.526982649384
 10
2055.119644675635
 20
1563.251659605307
 10
2055.551172757376
 20
1563.177287966648
  0
LWPOLYLINE
  5
8B4
330
82E
100
AcDbEntity
  8
0
  6
Continuous
 62
     7
370
    15
100
AcDbPolyline
 90
        7
 70
   128
 43
0.0
 10
2063.284824431185
 20
1567.641830047488
 10
2063.15599501545
 20
1567.890945906497
 10
2062.679069838779
 20
1568.302959709404
 10
2061.965363667175
 20
1568.57828275348
 10
2061.123462422831
 20
1568.674959610938
 10
2060.281534630914
 20
1568.5782701366
 10
2059.567794750061
 20
1568.302956668047
  0
LINE
  5
8B5
330
82E
100
AcDbEntity
  8
0
  6
Continuous
 62
     7
370
    15
100
AcDbLine
 10
2059.567794750061
 20
1568.302956668047
 30
0.0
 11
2054.405943772386
 21
1565.323083527019
 31
0.0
  0
LWPOLYLINE
  5
8B6
330
82E
100
AcDbEntity
  8
0
  6
Continuous
 62
     7
370
    15
100
AcDbPolyline
 90
        7
 70
   128
 43
0.0
 10
2040.263779488799
 20
1557.158985863808
 10
2039.786870899217
 20
1556.746952600967
 10
2039.619423816149
 20
1556.260942363087
 10
2039.786891190621
 20
1555.774923119938
 10
2040.263774220443
 20
1555.362884986173
 10
2040.977522538896
 20
1555.087586272955
 10
2041.409050620636
 20
1555.013214634296
  0
LWPOLYLINE
  5
8B7
330
82E
100
AcDbEntity
  8
0
  6
Continuous
 62
     7
370
    15
100
AcDbPolyline
 90
        7
 70
   128
 43
0.0
 10
2049.142702294446
 20
1559.477756715136
 10
2049.013830731862
 20
1559.726848243287
 10
2048.53694770204
 20
1560.138886377052
 10
2047.823199383587
 20
1560.41418509027
 10
2046.981298139244
 20
1560.510861947728
 10
2046.139412494174
 20
1560.414196804247
 10
2045.425672613322
 20
1560.138883335694
  0
LINE
  5
8B8
330
82E
100
AcDbEntity
  8
0
  6
Continuous
 62
     7
370
    15
100
AcDbLine
 10
2045.425672613322
 20
1560.138883335694
 30
0.0
 11
2040.263779488799
 21
1557.158985863808
 31
0.0
  0
LWPOLYLINE
  5
8B9
330
82E
100
AcDbEntity
  8
0
  6
Continuous
 62
     7
370
    15
100
AcDbPolyline
 90
        7
 70
   128
 43
0.0
 10
2026.121657352059
 20
1548.994912531455
 10
2025.644748762478
 20
1548.582879268614
 10
2025.477301679409
 20
1548.096869030734
 10
2025.644769053881
 20
1547.610849787585
 10
2026.121652083703
 20
1547.198811653821
 10
2026.835400402157
 20
1546.923512940602
 10
2027.266886337049
 20
1546.849116971085
  0
LWPOLYLINE
  5
8BA
330
82E
100
AcDbEntity
  8
0
  6
Continuous
 62
     7
370
    15
100
AcDbPolyline
 90
        7
 70
   128
 43
0.0
 10
2035.000538010858
 20
1551.313659051925
 10
2034.871708595123
 20
1551.562774910934
 10
2034.3948255653
 20
1551.974813044699
 10
2033.681077246847
 20
1552.250111757917
 10
2032.839176002504
 20
1552.346788615375
 10
2031.997248210586
 20
1552.250099141037
 10
2031.283550476583
 20
1551.974810003342
  0
LINE
  5
8BB
330
82E
100
AcDbEntity
  8
0
  6
Continuous
 62
     7
370
    15
100
AcDbLine
 10
2031.283550476583
 20
1551.974810003342
 30
0.0
 11
2026.121657352059
 21
1548.994912531455
 31
0.0
  0
LWPOLYLINE
  5
8BC
330
82E
100
AcDbEntity
  8
0
  6
Continuous
 62
     7
370
    15
100
AcDbPolyline
 90
        7
 70
   128
 43
0.0
 10
2011.97953521532
 20
1540.830839199103
 10
2011.502626625739
 20
1540.418805936262
 10
2011.335137395821
 20
1539.932771367524
 10
2011.502604770293
 20
1539.446752124375
 10
2011.979529946964
 20
1539.034738321468
 10
2012.693236118568
 20
1538.759415277392
 10
2013.124764200309
 20
1538.685043638733
  0
LWPOLYLINE
  5
8BD
330
82E
100
AcDbEntity
  8
0
  6
Continuous
 62
     7
370
    15
100
AcDbPolyline
 90
        7
 70
   128
 43
0.0
 10
2020.858415874119
 20
1543.149585719573
 10
2020.729586458383
 20
1543.398701578581
 10
2020.252661281713
 20
1543.810715381489
 10
2019.538955110108
 20
1544.086038425565
 10
2018.697053865765
 20
1544.182715283023
 10
2017.855126073846
 20
1544.086025808684
 10
2017.141386192994
 20
1543.810712340131
  0
LINE
  5
8BE
330
82E
100
AcDbEntity
  8
0
  6
Continuous
 62
     7
370
    15
100
AcDbLine
 10
2017.141386192994
 20
1543.810712340131
 30
0.0
 11
2011.97953521532
 21
1540.830839199103
 31
0.0
  0
LWPOLYLINE
  5
8BF
330
82E
100
AcDbEntity
  8
0
  6
Continuous
 62
     7
370
    15
100
AcDbPolyline
 90
        7
 70
   128
 43
0.0
 10
1997.837370931732
 20
1532.666741535892
 10
1997.360504488999
 20
1532.254732603909
 10
1997.193015259082
 20
1531.768698035171
 10
1997.360482633553
 20
1531.282678792023
 10
1997.837365663375
 20
1530.870640658258
 10
1998.551113981829
 20
1530.595341945039
 10
1998.982642063569
 20
1530.52097030638
  0
LWPOLYLINE
  5
8C0
330
82E
100
AcDbEntity
  8
0
  6
Continuous
 62
     7
370
    15
100
AcDbPolyline
 90
        7
 70
   128
 43
0.0
 10
2006.716293737379
 20
1534.98551238722
 10
2006.587422174796
 20
1535.234603915371
 10
2006.110539144973
 20
1535.646642049136
 10
2005.39679082652
 20
1535.921940762354
 10
2004.554889582177
 20
1536.018617619812
 10
2003.713003937107
 20
1535.921952476332
 10
2002.999264056255
 20
1535.646639007779
  0
LINE
  5
8C1
330
82E
100
AcDbEntity
  8
0
  6
Continuous
 62
     7
370
    15
100
AcDbLine
 10
2002.999264056255
 20
1535.646639007779
 30
0.0
 11
1997.837370931732
 21
1532.666741535892
 31
0.0
  0
LWPOLYLINE
  5
8C2
330
82E
100
AcDbEntity
  8
0
  6
Continuous
 62
     7
370
    15
100
AcDbPolyline
 90
        7
 70
   128
 43
0.0
 10
1983.695248794992
 20
1524.50266820354
 10
1983.218340205411
 20
1524.090634940699
 10
1983.050893122342
 20
1523.604624702819
 10
1983.218360496814
 20
1523.11860545967
 10
1983.695243526636
 20
1522.706567325905
 10
1984.408991845089
 20
1522.431268612687
 10
1984.840477779981
 20
1522.35687264317
  0
LWPOLYLINE
  5
8C3
330
82E
100
AcDbEntity
  8
0
  6
Continuous
 62
     7
370
    15
100
AcDbPolyline
 90
        7
 70
   128
 43
0.0
 10
1992.574129453791
 20
1526.82141472401
 10
1992.445300038056
 20
1527.070530583018
 10
1991.968417008234
 20
1527.482568716783
 10
1991.25466868978
 20
1527.757867430002
 10
1990.412767445437
 20
1527.85454428746
 10
1989.570839653518
 20
1527.757854813122
 10
1988.857141919515
 20
1527.482565675426
  0
LINE
  5
8C4
330
82E
100
AcDbEntity
  8
0
  6
Continuous
 62
     7
370
    15
100
AcDbLine
 10
1988.857141919515
 20
1527.482565675426
 30
0.0
 11
1983.695248794992
 21
1524.50266820354
 31
0.0
  0
LWPOLYLINE
  5
8C5
330
82E
100
AcDbEntity
  8
0
  6
Continuous
 62
     7
370
    15
100
AcDbPolyline
 90
        7
 70
   128
 43
0.0
 10
1969.553126658253
 20
1516.338594871187
 10
1969.076218068672
 20
1515.926561608346
 10
1968.908728838754
 20
1515.440527039609
 10
1969.076196213226
 20
1514.95450779646
 10
1969.553121389896
 20
1514.542493993553
 10
1970.266827561502
 20
1514.267170949477
 10
1970.698355643242
 20
1514.192799310817
  0
LWPOLYLINE
  5
8C6
330
82E
100
AcDbEntity
  8
0
  6
Continuous
 62
     7
370
    15
100
AcDbPolyline
 90
        7
 70
   128
 43
0.0
 10
1978.432007317052
 20
1518.657341391657
 10
1978.303177901316
 20
1518.906457250666
 10
1977.826252724646
 20
1519.318471053573
 10
1977.112546553041
 20
1519.593794097649
 10
1976.270645308698
 20
1519.690470955107
 10
1975.428717516779
 20
1519.593781480769
 10
1974.714977635927
 20
1519.318468012215
  0
LINE
  5
8C7
330
82E
100
AcDbEntity
  8
0
  6
Continuous
 62
     7
370
    15
100
AcDbLine
 10
1974.714977635927
 20
1519.318468012215
 30
0.0
 11
1969.553126658253
 21
1516.338594871187
 31
0.0
  0
LWPOLYLINE
  5
8C8
330
82E
100
AcDbEntity
  8
0
  6
Continuous
 62
     7
370
    15
100
AcDbPolyline
 90
        7
 70
   128
 43
0.0
 10
1955.410962374665
 20
1508.174497207977
 10
1954.934095931932
 20
1507.762488275994
 10
1954.766606702015
 20
1507.276453707256
 10
1954.934074076486
 20
1506.790434464107
 10
1955.410957106309
 20
1506.378396330342
 10
1956.124705424762
 20
1506.103097617124
 10
1956.556233506503
 20
1506.028725978465
  0
LWPOLYLINE
  5
8C9
330
82E
100
AcDbEntity
  8
0
  6
Continuous
 62
     7
370
    15
100
AcDbPolyline
 90
        7
 70
   128
 43
0.0
 10
1964.289885180312
 20
1510.493268059305
 10
1964.161013617728
 20
1510.742359587456
 10
1963.684130587906
 20
1511.15439772122
 10
1962.970382269453
 20
1511.429696434439
 10
1962.12848102511
 20
1511.526373291897
 10
1961.28659538004
 20
1511.429708148416
 10
1960.572855499188
 20
1511.154394679863
  0
LINE
  5
8CA
330
82E
100
AcDbEntity
  8
0
  6
Continuous
 62
     7
370
    15
100
AcDbLine
 10
1960.572855499188
 20
1511.154394679863
 30
0.0
 11
1955.410962374665
 21
1508.174497207977
 31
0.0
  0
LWPOLYLINE
  5
8CB
330
82E
100
AcDbEntity
  8
0
  6
Continuous
 62
     7
370
    15
100
AcDbPolyline
 90
        7
 70
   128
 43
0.0
 10
1941.268840237925
 20
1500.010423875625
 10
1940.791931648344
 20
1499.598390612783
 10
1940.624484565275
 20
1499.112380374903
 10
1940.791951939747
 20
1498.626361131754
 10
1941.268834969569
 20
1498.21432299799
 10
1941.982583288023
 20
1497.939024284771
 10
1942.414069222914
 20
1497.864628315254
  0
LWPOLYLINE
  5
8CC
330
82E
100
AcDbEntity
  8
0
  6
Continuous
 62
     7
370
    15
100
AcDbPolyline
 90
        7
 70
   128
 43
0.0
 10
1950.147720896724
 20
1502.329170396094
 10
1950.018891480989
 20
1502.578286255103
 10
1949.542008451167
 20
1502.990324388868
 10
1948.828260132713
 20
1503.265623102086
 10
1947.98635888837
 20
1503.362299959544
 10
1947.144473243301
 20
1503.265634816064
 10
1946.430733362449
 20
1502.990321347511
  0
LINE
  5
8CD
330
82E
100
AcDbEntity
  8
0
  6
Continuous
 62
     7
370
    15
100
AcDbLine
 10
1946.430733362449
 20
1502.990321347511
 30
0.0
 11
1941.268840237925
 21
1500.010423875625
 31
0.0
  0
LWPOLYLINE
  5
8CE
330
82E
100
AcDbEntity
  8
0
  6
Continuous
 62
     7
370
    15
100
AcDbPolyline
 90
        7
 70
   128
 43
0.0
 10
1927.126718101186
 20
1491.846350543272
 10
1926.649809511605
 20
1491.434317280431
 10
1926.482362428536
 20
1490.948307042551
 10
1926.649787656159
 20
1490.462263468544
 10
1927.12671283283
 20
1490.050249665637
 10
1927.840419004435
 20
1489.774926621561
 10
1928.271947086176
 20
1489.700554982902
  0
LWPOLYLINE
  5
8CF
330
82E
100
AcDbEntity
  8
0
  6
Continuous
 62
     7
370
    15
100
AcDbPolyline
 90
        7
 70
   128
 43
0.0
 10
1936.005598759984
 20
1494.165097063742
 10
1935.876769344249
 20
1494.41421292275
 10
1935.399844167579
 20
1494.826226725657
 10
1934.686137995974
 20
1495.101549769733
 10
1933.844236751631
 20
1495.198226627191
 10
1933.002308959713
 20
1495.101537152853
 10
1932.28856907886
 20
1494.8262236843
  0
LINE
  5
8D0
330
82E
100
AcDbEntity
  8
0
  6
Continuous
 62
     7
370
    15
100
AcDbLine
 10
1932.28856907886
 20
1494.8262236843
 30
0.0
 11
1927.126718101186
 21
1491.846350543272
 31
0.0
  0
LWPOLYLINE
  5
8D1
330
82E
100
AcDbEntity
  8
0
  6
Continuous
 62
     7
370
    15
100
AcDbPolyline
 90
        7
 70
   128
 43
0.0
 10
1912.984553817597
 20
1483.682252880061
 10
1912.507687374866
 20
1483.270243948078
 10
1912.340198144948
 20
1482.78420937934
 10
1912.50766551942
 20
1482.298190136192
 10
1912.98459069609
 20
1481.886176333284
 10
1913.698296867695
 20
1481.610853289208
 10
1914.129824949436
 20
1481.536481650549
  0
LWPOLYLINE
  5
8D2
330
82E
100
AcDbEntity
  8
0
  6
Continuous
 62
     7
370
    15
100
AcDbPolyline
 90
        7
 70
   128
 43
0.0
 10
1921.863476623245
 20
1486.001023731389
 10
1921.734605060661
 20
1486.25011525954
 10
1921.257722030839
 20
1486.662153393305
 10
1920.543973712386
 20
1486.937452106523
 10
1919.702072468043
 20
1487.034128963981
 10
1918.860186822973
 20
1486.937463820501
 10
1918.146446942121
 20
1486.662150351947
  0
LINE
  5
8D3
330
82E
100
AcDbEntity
  8
0
  6
Continuous
 62
     7
370
    15
100
AcDbLine
 10
1918.146446942121
 20
1486.662150351947
 30
0.0
 11
1912.984553817597
 21
1483.682252880061
 31
0.0
  0
LWPOLYLINE
  5
8D4
330
82E
100
AcDbEntity
  8
0
  6
Continuous
 62
     7
370
    15
100
AcDbPolyline
 90
        7
 70
   128
 43
0.0
 10
1898.842431680859
 20
1475.518179547709
 10
1898.365523091278
 20
1475.106146284868
 10
1898.198076008208
 20
1474.620136046988
 10
1898.36554338268
 20
1474.134116803839
 10
1898.842426412502
 20
1473.722078670074
 10
1899.556174730956
 20
1473.446779956856
 10
1899.987660665848
 20
1473.372383987339
  0
LWPOLYLINE
  5
8D5
330
82E
100
AcDbEntity
  8
0
  6
Continuous
 62
     7
370
    15
100
AcDbPolyline
 90
        7
 70
   128
 43
0.0
 10
1907.721312339657
 20
1477.836926068179
 10
1907.592482923922
 20
1478.086041927187
 10
1907.1155998941
 20
1478.498080060952
 10
1906.401851575646
 20
1478.773378774171
 10
1905.559950331303
 20
1478.870055631628
 10
1904.718064686234
 20
1478.773390488148
 10
1904.004324805382
 20
1478.498077019595
  0
LINE
  5
8D6
330
82E
100
AcDbEntity
  8
0
  6
Continuous
 62
     7
370
    15
100
AcDbLine
 10
1904.004324805382
 20
1478.498077019595
 30
0.0
 11
1898.842431680859
 21
1475.518179547709
 31
0.0
  0
LWPOLYLINE
  5
8D7
330
82E
100
AcDbEntity
  8
0
  6
Continuous
 62
     7
370
    15
100
AcDbPolyline
 90
        7
 70
   128
 43
0.0
 10
1884.700309544119
 20
1467.354106215356
 10
1884.223400954538
 20
1466.942072952515
 10
1884.055953871469
 20
1466.456062714635
 10
1884.223379099092
 20
1465.970019140629
 10
1884.700304275763
 20
1465.558005337721
 10
1885.414010447368
 20
1465.282682293645
 10
1885.845538529109
 20
1465.208310654986
  0
LWPOLYLINE
  5
8D8
330
82E
100
AcDbEntity
  8
0
  6
Continuous
 62
     7
370
    15
100
AcDbPolyline
 90
        7
 70
   128
 43
0.0
 10
1893.579190202918
 20
1469.672852735826
 10
1893.450360787182
 20
1469.921968594835
 10
1892.973435610512
 20
1470.333982397742
 10
1892.259729438907
 20
1470.609305441818
 10
1891.417828194564
 20
1470.705982299276
 10
1890.575900402646
 20
1470.609292824938
 10
1889.862160521794
 20
1470.333979356385
  0
LINE
  5
8D9
330
82E
100
AcDbEntity
  8
0
  6
Continuous
 62
     7
370
    15
100
AcDbLine
 10
1889.862160521794
 20
1470.333979356385
 30
0.0
 11
1884.700309544119
 21
1467.354106215356
 31
0.0
  0
LWPOLYLINE
  5
8DA
330
82E
100
AcDbEntity
  8
0
  6
Continuous
 62
     7
370
    15
100
AcDbPolyline
 90
        7
 70
   128
 43
0.0
 10
1870.558145260531
 20
1459.190008552146
 10
1870.081278817799
 20
1458.777999620163
 10
1869.913789587881
 20
1458.291965051425
 10
1870.081256962353
 20
1457.805945808276
 10
1870.558182139023
 20
1457.393932005369
 10
1871.271888310628
 20
1457.118608961293
 10
1871.703416392369
 20
1457.044237322634
  0
LWPOLYLINE
  5
8DB
330
82E
100
AcDbEntity
  8
0
  6
Continuous
 62
     7
370
    15
100
AcDbPolyline
 90
        7
 70
   128
 43
0.0
 10
1879.437068066178
 20
1461.508779403474
 10
1879.308196503595
 20
1461.757870931625
 10
1878.831313473773
 20
1462.169909065389
 10
1878.117565155319
 20
1462.445207778608
 10
1877.275663910976
 20
1462.541884636065
 10
1876.433778265906
 20
1462.445219492585
 10
1875.720038385054
 20
1462.169906024032
  0
LINE
  5
8DC
330
82E
100
AcDbEntity
  8
0
  6
Continuous
 62
     7
370
    15
100
AcDbLine
 10
1875.720038385054
 20
1462.169906024032
 30
0.0
 11
1870.558145260531
 21
1459.190008552146
 31
0.0
  0
LWPOLYLINE
  5
8DD
330
82E
100
AcDbEntity
  8
0
  6
Continuous
 62
     7
370
    15
100
AcDbPolyline
 90
        7
 70
   128
 43
0.0
 10
1856.416023123792
 20
1451.025935219793
 10
1855.93911453421
 20
1450.613901956952
 10
1855.771667451142
 20
1450.127891719072
 10
1855.939134825613
 20
1449.641872475924
 10
1856.416017855435
 20
1449.229834342158
 10
1857.129766173889
 20
1448.95453562894
 10
1857.561252108781
 20
1448.880139659423
  0
LWPOLYLINE
  5
8DE
330
82E
100
AcDbEntity
  8
0
  6
Continuous
 62
     7
370
    15
100
AcDbPolyline
 90
        7
 70
   128
 43
0.0
 10
1865.294945929439
 20
1453.344706071121
 10
1865.166074366855
 20
1453.593797599272
 10
1864.689191337033
 20
1454.005835733037
 10
1863.975443018579
 20
1454.281134446255
 10
1863.133541774237
 20
1454.377811303713
 10
1862.291656129167
 20
1454.281146160233
 10
1861.577916248315
 20
1454.005832691679
  0
LINE
  5
8DF
330
82E
100
AcDbEntity
  8
0
  6
Continuous
 62
     7
370
    15
100
AcDbLine
 10
1861.577916248315
 20
1454.005832691679
 30
0.0
 11
1856.416023123792
 21
1451.025935219793
 31
0.0
  0
LWPOLYLINE
  5
8E0
330
82E
100
AcDbEntity
  8
0
  6
Continuous
 62
     7
370
    15
100
AcDbPolyline
 90
        7
 70
   128
 43
0.0
 10
1842.273900987052
 20
1442.861861887441
 10
1841.796992397471
 20
1442.4498286246
 10
1841.629545314402
 20
1441.963818386719
 10
1841.797012688874
 20
1441.477799143571
 10
1842.273895718696
 20
1441.065761009806
 10
1842.987644037149
 20
1440.790462296587
 10
1843.419129972042
 20
1440.716066327071
  0
LWPOLYLINE
  5
8E1
330
82E
100
AcDbEntity
  8
0
  6
Continuous
 62
     7
370
    15
100
AcDbPolyline
 90
        7
 70
   128
 43
0.0
 10
1851.152781645851
 20
1445.180608407911
 10
1851.023952230116
 20
1445.429724266919
 10
1850.547027053445
 20
1445.841738069826
 10
1849.83332088184
 20
1446.117061113903
 10
1848.991419637497
 20
1446.21373797136
 10
1848.149491845578
 20
1446.117048497022
 10
1847.435751964727
 20
1445.841735028469
  0
LINE
  5
8E2
330
82E
100
AcDbEntity
  8
0
  6
Continuous
 62
     7
370
    15
100
AcDbLine
 10
1847.435751964727
 20
1445.841735028469
 30
0.0
 11
1842.273900987052
 21
1442.861861887441
 31
0.0
  0
LWPOLYLINE
  5
8E3
330
82E
100
AcDbEntity
  8
0
  6
Continuous
 62
     7
370
    15
100
AcDbPolyline
 90
        9
 70
   128
 43
0.0
 10
1828.131736703464
 20
1434.697764224231
 10
1827.654870260732
 20
1434.285755292247
 10
1827.487381030815
 20
1433.799720723509
 10
1827.654848405286
 20
1433.31370148036
 10
1828.131773581957
 20
1432.901687677453
 10
1828.845479753561
 20
1432.626364633377
 10
1829.687381162541
 20
1432.529687680877
 10
1830.5293089133
 20
1432.626377178976
 10
1830.783514337371
 20
1432.698556569335
  0
LWPOLYLINE
  5
8E4
330
82E
100
AcDbEntity
  8
0
  6
Continuous
 62
     7
370
    15
100
AcDbPolyline
 90
        7
 70
   128
 43
0.0
 10
1837.010659509112
 20
1437.016535075558
 10
1836.881787946528
 20
1437.265626603709
 10
1836.404904916706
 20
1437.677664737474
 10
1835.691156598252
 20
1437.952963450692
 10
1834.849255353909
 20
1438.04964030815
 10
1834.007369708839
 20
1437.95297516467
 10
1833.293629827987
 20
1437.677661696117
  0
LINE
  5
8E5
330
82E
100
AcDbEntity
  8
0
  6
Continuous
 62
     7
370
    15
100
AcDbLine
 10
1833.293629827987
 20
1437.677661696117
 30
0.0
 11
1828.131736703464
 21
1434.697764224231
 31
0.0
  0
LINE
  5
8E6
330
82E
100
AcDbEntity
  8
0
  6
Continuous
 62
     7
370
    15
100
AcDbLine
 10
1828.131736703464
 20
1433.881223373561
 30
0.0
 11
1828.131736703464
 21
1434.697764224231
 31
0.0
  0
LWPOLYLINE
  5
8E7
330
82E
100
AcDbEntity
  8
0
  6
Continuous
 62
     7
370
    15
100
AcDbPolyline
 90
        3
 70
   128
 43
0.0
 10
1828.131736703464
 20
1433.881223373561
 10
1827.654870260732
 20
1433.469214441578
 10
1827.604183942109
 20
1433.391467918112
  0
LINE
  5
8E8
330
82E
100
AcDbEntity
  8
0
  6
Continuous
 62
     7
370
    15
100
AcDbLine
 10
1824.772999851073
 20
1436.147179087541
 30
0.0
 11
2531.879781037622
 21
1844.351234998895
 31
0.0
  0
LINE
  5
8E9
330
82E
100
AcDbEntity
  8
0
  6
Continuous
 62
     7
370
    15
100
AcDbLine
 10
1823.217364940892
 20
1438.841617591979
 30
0.0
 11
2530.324146127441
 21
1847.045673503333
 31
0.0
  0
ARC
  5
8EA
330
82E
100
AcDbEntity
  8
0
  6
Continuous
 62
     7
370
    15
100
AcDbCircle
 10
2528.502306043608
 20
1844.197541160908
 30
0.0
 40
3.380970146426791
100
AcDbArc
 50
2.605478189990472
 51
57.39452545671384
  0
LINE
  5
8EB
330
82E
100
AcDbEntity
  8
0
  6
Continuous
 62
     7
370
    15
100
AcDbLine
 10
1824.772999851073
 20
1435.657254482082
 30
0.0
 11
2531.879781037622
 21
1843.861310393435
 31
0.0
  0
ARC
  5
8EC
330
82E
100
AcDbEntity
  8
0
  6
Continuous
 62
     7
370
    15
100
AcDbCircle
 10
2534.182605083922
 20
1843.966101700605
 30
0.0
 40
2.30520710702472
100
AcDbArc
 50
182.6054793196961
 51
237.394523393388
  0
LINE
  5
8ED
330
82E
100
AcDbEntity
  8
0
  6
Continuous
 62
     7
370
    15
100
AcDbLine
 10
2531.879781037622
 20
1843.861310393435
 30
0.0
 11
2531.879781037622
 21
1844.351234998895
 31
0.0
  0
LINE
  5
8EE
330
82E
100
AcDbEntity
  8
0
  6
Continuous
 62
     7
370
    15
100
AcDbLine
 10
1822.474902929437
 20
1439.270231787882
 30
0.0
 11
2529.581684115987
 21
1847.474287699236
 31
0.0
  0
LINE
  5
8EF
330
82E
100
AcDbEntity
  8
0
  6
Continuous
 62
     7
370
    15
100
AcDbLine
 10
2530.324146127441
 20
1847.045673503333
 30
0.0
 11
2529.581684115987
 21
1847.474287699236
 31
0.0
  0
LINE
  5
8F0
330
82E
100
AcDbEntity
  8
0
  6
Continuous
 62
     7
370
    15
100
AcDbLine
 10
1833.293629827987
 20
1436.861120845447
 30
0.0
 11
1833.293629827987
 21
1437.677661696117
 31
0.0
  0
LINE
  5
8F1
330
82E
100
AcDbEntity
  8
0
  6
Continuous
 62
     7
370
    15
100
AcDbLine
 10
1833.293629827987
 20
1436.861120845447
 30
0.0
 11
1828.131736703464
 21
1433.881223373561
 31
0.0
  0
ARC
  5
8F2
330
82E
100
AcDbEntity
  8
0
  6
Continuous
 62
     7
370
    15
100
AcDbCircle
 10
1834.841230636703
 20
1434.012686006605
 30
0.0
 40
3.241704689552699
100
AcDbArc
 50
57.89658327782778
 51
118.5159502138011
  0
LINE
  5
8F3
330
82E
100
AcDbEntity
  8
0
  6
Continuous
 62
     7
370
    15
100
AcDbLine
 10
1842.273900987052
 20
1442.045321036771
 30
0.0
 11
1842.273900987052
 21
1442.861861887441
 31
0.0
  0
LWPOLYLINE
  5
8F4
330
82E
100
AcDbEntity
  8
0
  6
Continuous
 62
     7
370
    15
100
AcDbPolyline
 90
        3
 70
   128
 43
0.0
 10
1842.273900987052
 20
1442.045321036771
 10
1841.796992397471
 20
1441.63328777393
 10
1841.746306078848
 20
1441.555541250464
  0
LINE
  5
8F5
330
82E
100
AcDbEntity
  8
0
  6
Continuous
 62
     7
370
    15
100
AcDbLine
 10
1847.435751964727
 20
1445.0251941778
 30
0.0
 11
1847.435751964727
 21
1445.841735028469
 31
0.0
  0
LINE
  5
8F6
330
82E
100
AcDbEntity
  8
0
  6
Continuous
 62
     7
370
    15
100
AcDbLine
 10
1847.435751964727
 20
1445.0251941778
 30
0.0
 11
1842.273900987052
 21
1442.045321036771
 31
0.0
  0
ARC
  5
8F7
330
82E
100
AcDbEntity
  8
0
  6
Continuous
 62
     7
370
    15
100
AcDbCircle
 10
1848.98338114251
 20
1442.176303792277
 30
0.0
 40
3.242118520451028
100
AcDbArc
 50
57.90088400585361
 51
118.5125473704605
  0
LINE
  5
8F8
330
82E
100
AcDbEntity
  8
0
  6
Continuous
 62
     7
370
    15
100
AcDbLine
 10
1856.416023123792
 20
1450.209394369124
 30
0.0
 11
1856.416023123792
 21
1451.025935219793
 31
0.0
  0
LWPOLYLINE
  5
8F9
330
82E
100
AcDbEntity
  8
0
  6
Continuous
 62
     7
370
    15
100
AcDbPolyline
 90
        3
 70
   128
 43
0.0
 10
1856.416023123792
 20
1450.209394369124
 10
1855.93911453421
 20
1449.797361106283
 10
1855.888428215587
 20
1449.719614582817
  0
LINE
  5
8FA
330
82E
100
AcDbEntity
  8
0
  6
Continuous
 62
     7
370
    15
100
AcDbLine
 10
1861.577916248315
 20
1453.18929184101
 30
0.0
 11
1861.577916248315
 21
1454.005832691679
 31
0.0
  0
LINE
  5
8FB
330
82E
100
AcDbEntity
  8
0
  6
Continuous
 62
     7
370
    15
100
AcDbLine
 10
1861.577916248315
 20
1453.18929184101
 30
0.0
 11
1856.416023123792
 21
1450.209394369124
 31
0.0
  0
ARC
  5
8FC
330
82E
100
AcDbEntity
  8
0
  6
Continuous
 62
     7
370
    15
100
AcDbCircle
 10
1863.125517057031
 20
1450.34085700217
 30
0.0
 40
3.241704689551291
100
AcDbArc
 50
57.89658327782778
 51
118.5159502138011
  0
LINE
  5
8FD
330
82E
100
AcDbEntity
  8
0
  6
Continuous
 62
     7
370
    15
100
AcDbLine
 10
1870.558145260531
 20
1458.373467701477
 30
0.0
 11
1870.558145260531
 21
1459.190008552146
 31
0.0
  0
LWPOLYLINE
  5
8FE
330
82E
100
AcDbEntity
  8
0
  6
Continuous
 62
     7
370
    15
100
AcDbPolyline
 90
        3
 70
   128
 43
0.0
 10
1870.558145260531
 20
1458.373467701477
 10
1870.081278817799
 20
1457.961458769493
 10
1870.030550352327
 20
1457.88368791517
  0
LINE
  5
8FF
330
82E
100
AcDbEntity
  8
0
  6
Continuous
 62
     7
370
    15
100
AcDbLine
 10
1875.720038385054
 20
1461.353365173363
 30
0.0
 11
1875.720038385054
 21
1462.169906024032
 31
0.0
  0
LINE
  5
900
330
82E
100
AcDbEntity
  8
0
  6
Continuous
 62
     7
370
    15
100
AcDbLine
 10
1875.720038385054
 20
1461.353365173363
 30
0.0
 11
1870.558145260531
 21
1458.373467701477
 31
0.0
  0
ARC
  5
901
330
82E
100
AcDbEntity
  8
0
  6
Continuous
 62
     7
370
    15
100
AcDbCircle
 10
1877.26763919377
 20
1458.504930334522
 30
0.0
 40
3.241704689551324
100
AcDbArc
 50
57.89658327781327
 51
118.5159502138157
  0
LINE
  5
902
330
82E
100
AcDbEntity
  8
0
  6
Continuous
 62
     7
370
    15
100
AcDbLine
 10
1884.700309544119
 20
1466.537565364687
 30
0.0
 11
1884.700309544119
 21
1467.354106215356
 31
0.0
  0
LWPOLYLINE
  5
903
330
82E
100
AcDbEntity
  8
0
  6
Continuous
 62
     7
370
    15
100
AcDbPolyline
 90
        3
 70
   128
 43
0.0
 10
1884.700309544119
 20
1466.537565364687
 10
1884.223400954538
 20
1466.125532101846
 10
1884.172714635915
 20
1466.04778557838
  0
LINE
  5
904
330
82E
100
AcDbEntity
  8
0
  6
Continuous
 62
     7
370
    15
100
AcDbLine
 10
1889.862160521794
 20
1469.517438505715
 30
0.0
 11
1889.862160521794
 21
1470.333979356385
 31
0.0
  0
LINE
  5
905
330
82E
100
AcDbEntity
  8
0
  6
Continuous
 62
     7
370
    15
100
AcDbLine
 10
1889.862160521794
 20
1469.517438505715
 30
0.0
 11
1884.700309544119
 21
1466.537565364687
 31
0.0
  0
ARC
  5
906
330
82E
100
AcDbEntity
  8
0
  6
Continuous
 62
     7
370
    15
100
AcDbCircle
 10
1891.409789699577
 20
1466.668548120193
 30
0.0
 40
3.24211852044987
100
AcDbArc
 50
57.90088400583911
 51
118.5125473704751
  0
LINE
  5
907
330
82E
100
AcDbEntity
  8
0
  6
Continuous
 62
     7
370
    15
100
AcDbLine
 10
1898.842431680859
 20
1474.701638697039
 30
0.0
 11
1898.842431680859
 21
1475.518179547709
 31
0.0
  0
LWPOLYLINE
  5
908
330
82E
100
AcDbEntity
  8
0
  6
Continuous
 62
     7
370
    15
100
AcDbPolyline
 90
        3
 70
   128
 43
0.0
 10
1898.842431680859
 20
1474.701638697039
 10
1898.365523091278
 20
1474.289605434198
 10
1898.314836772654
 20
1474.211858910732
  0
LINE
  5
909
330
82E
100
AcDbEntity
  8
0
  6
Continuous
 62
     7
370
    15
100
AcDbLine
 10
1904.004324805382
 20
1477.681536168926
 30
0.0
 11
1904.004324805382
 21
1478.498077019595
 31
0.0
  0
LINE
  5
90A
330
82E
100
AcDbEntity
  8
0
  6
Continuous
 62
     7
370
    15
100
AcDbLine
 10
1904.004324805382
 20
1477.681536168926
 30
0.0
 11
1898.842431680859
 21
1474.701638697039
 31
0.0
  0
ARC
  5
90B
330
82E
100
AcDbEntity
  8
0
  6
Continuous
 62
     7
370
    15
100
AcDbCircle
 10
1905.551925614097
 20
1474.833101330086
 30
0.0
 40
3.241704689550792
100
AcDbArc
 50
57.89658327782778
 51
118.5159502138157
  0
LINE
  5
90C
330
82E
100
AcDbEntity
  8
0
  6
Continuous
 62
     7
370
    15
100
AcDbLine
 10
1912.984553817597
 20
1482.865712029392
 30
0.0
 11
1912.984553817597
 21
1483.682252880061
 31
0.0
  0
LWPOLYLINE
  5
90D
330
82E
100
AcDbEntity
  8
0
  6
Continuous
 62
     7
370
    15
100
AcDbPolyline
 90
        3
 70
   128
 43
0.0
 10
1912.984553817597
 20
1482.865712029392
 10
1912.507687374866
 20
1482.453703097409
 10
1912.456958909394
 20
1482.375932243085
  0
LINE
  5
90E
330
82E
100
AcDbEntity
  8
0
  6
Continuous
 62
     7
370
    15
100
AcDbLine
 10
1918.146446942121
 20
1485.845609501278
 30
0.0
 11
1918.146446942121
 21
1486.662150351947
 31
0.0
  0
LINE
  5
90F
330
82E
100
AcDbEntity
  8
0
  6
Continuous
 62
     7
370
    15
100
AcDbLine
 10
1918.146446942121
 20
1485.845609501278
 30
0.0
 11
1912.984553817597
 21
1482.865712029392
 31
0.0
  0
ARC
  5
910
330
82E
100
AcDbEntity
  8
0
  6
Continuous
 62
     7
370
    15
100
AcDbCircle
 10
1919.694047750837
 20
1482.997174662437
 30
0.0
 40
3.241704689551926
100
AcDbArc
 50
57.89658327781327
 51
118.5159502138011
  0
LINE
  5
911
330
82E
100
AcDbEntity
  8
0
  6
Continuous
 62
     7
370
    15
100
AcDbLine
 10
1927.126718101186
 20
1491.029809692603
 30
0.0
 11
1927.126718101186
 21
1491.846350543272
 31
0.0
  0
LWPOLYLINE
  5
912
330
82E
100
AcDbEntity
  8
0
  6
Continuous
 62
     7
370
    15
100
AcDbPolyline
 90
        3
 70
   128
 43
0.0
 10
1927.126718101186
 20
1491.029809692603
 10
1926.649809511605
 20
1490.617776429761
 10
1926.599123192982
 20
1490.540029906296
  0
LINE
  5
913
330
82E
100
AcDbEntity
  8
0
  6
Continuous
 62
     7
370
    15
100
AcDbLine
 10
1932.28856907886
 20
1494.009682833631
 30
0.0
 11
1932.28856907886
 21
1494.8262236843
 31
0.0
  0
LINE
  5
914
330
82E
100
AcDbEntity
  8
0
  6
Continuous
 62
     7
370
    15
100
AcDbLine
 10
1932.28856907886
 20
1494.009682833631
 30
0.0
 11
1927.126718101186
 21
1491.029809692603
 31
0.0
  0
ARC
  5
915
330
82E
100
AcDbEntity
  8
0
  6
Continuous
 62
     7
370
    15
100
AcDbCircle
 10
1933.836198256643
 20
1491.160792448108
 30
0.0
 40
3.24211852045027
100
AcDbArc
 50
57.90088400583911
 51
118.5125473704605
  0
LINE
  5
916
330
82E
100
AcDbEntity
  8
0
  6
Continuous
 62
     7
370
    15
100
AcDbLine
 10
1941.268840237925
 20
1499.193883024955
 30
0.0
 11
1941.268840237925
 21
1500.010423875625
 31
0.0
  0
LWPOLYLINE
  5
917
330
82E
100
AcDbEntity
  8
0
  6
Continuous
 62
     7
370
    15
100
AcDbPolyline
 90
        3
 70
   128
 43
0.0
 10
1941.268840237925
 20
1499.193883024955
 10
1940.791931648344
 20
1498.781849762114
 10
1940.741245329721
 20
1498.704103238648
  0
LINE
  5
918
330
82E
100
AcDbEntity
  8
0
  6
Continuous
 62
     7
370
    15
100
AcDbLine
 10
1946.430733362449
 20
1502.173780496841
 30
0.0
 11
1946.430733362449
 21
1502.990321347511
 31
0.0
  0
LINE
  5
919
330
82E
100
AcDbEntity
  8
0
  6
Continuous
 62
     7
370
    15
100
AcDbLine
 10
1946.430733362449
 20
1502.173780496841
 30
0.0
 11
1941.268840237925
 21
1499.193883024955
 31
0.0
  0
ARC
  5
91A
330
82E
100
AcDbEntity
  8
0
  6
Continuous
 62
     7
370
    15
100
AcDbCircle
 10
1947.978334171164
 20
1499.325345658001
 30
0.0
 40
3.241704689551179
100
AcDbArc
 50
57.89658327781327
 51
118.5159502138011
  0
LINE
  5
91B
330
82E
100
AcDbEntity
  8
0
  6
Continuous
 62
     7
370
    15
100
AcDbLine
 10
1955.410962374665
 20
1507.357956357308
 30
0.0
 11
1955.410962374665
 21
1508.174497207977
 31
0.0
  0
LWPOLYLINE
  5
91C
330
82E
100
AcDbEntity
  8
0
  6
Continuous
 62
     7
370
    15
100
AcDbPolyline
 90
        3
 70
   128
 43
0.0
 10
1955.410962374665
 20
1507.357956357308
 10
1954.934095931932
 20
1506.945947425324
 10
1954.883367466461
 20
1506.868176571001
  0
LINE
  5
91D
330
82E
100
AcDbEntity
  8
0
  6
Continuous
 62
     7
370
    15
100
AcDbLine
 10
1960.572855499188
 20
1510.337853829194
 30
0.0
 11
1960.572855499188
 21
1511.154394679863
 31
0.0
  0
LINE
  5
91E
330
82E
100
AcDbEntity
  8
0
  6
Continuous
 62
     7
370
    15
100
AcDbLine
 10
1960.572855499188
 20
1510.337853829194
 30
0.0
 11
1955.410962374665
 21
1507.357956357308
 31
0.0
  0
ARC
  5
91F
330
82E
100
AcDbEntity
  8
0
  6
Continuous
 62
     7
370
    15
100
AcDbCircle
 10
1962.120456307904
 20
1507.489418990353
 30
0.0
 40
3.24170468955135
100
AcDbArc
 50
57.89658327782778
 51
118.5159502138011
  0
LINE
  5
920
330
82E
100
AcDbEntity
  8
0
  6
Continuous
 62
     7
370
    15
100
AcDbLine
 10
1969.553126658253
 20
1515.522054020518
 30
0.0
 11
1969.553126658253
 21
1516.338594871187
 31
0.0
  0
LWPOLYLINE
  5
921
330
82E
100
AcDbEntity
  8
0
  6
Continuous
 62
     7
370
    15
100
AcDbPolyline
 90
        3
 70
   128
 43
0.0
 10
1969.553126658253
 20
1515.522054020518
 10
1969.076218068672
 20
1515.110020757677
 10
1969.025531750049
 20
1515.032274234211
  0
LINE
  5
922
330
82E
100
AcDbEntity
  8
0
  6
Continuous
 62
     7
370
    15
100
AcDbLine
 10
1974.714977635927
 20
1518.501927161546
 30
0.0
 11
1974.714977635927
 21
1519.318468012215
 31
0.0
  0
LINE
  5
923
330
82E
100
AcDbEntity
  8
0
  6
Continuous
 62
     7
370
    15
100
AcDbLine
 10
1974.714977635927
 20
1518.501927161546
 30
0.0
 11
1969.553126658253
 21
1515.522054020518
 31
0.0
  0
ARC
  5
924
330
82E
100
AcDbEntity
  8
0
  6
Continuous
 62
     7
370
    15
100
AcDbCircle
 10
1976.26260681371
 20
1515.653036776024
 30
0.0
 40
3.242118520450273
100
AcDbArc
 50
57.90088400583911
 51
118.5125473704605
  0
LINE
  5
925
330
82E
100
AcDbEntity
  8
0
  6
Continuous
 62
     7
370
    15
100
AcDbLine
 10
1983.695248794992
 20
1523.686127352871
 30
0.0
 11
1983.695248794992
 21
1524.50266820354
 31
0.0
  0
LWPOLYLINE
  5
926
330
82E
100
AcDbEntity
  8
0
  6
Continuous
 62
     7
370
    15
100
AcDbPolyline
 90
        3
 70
   128
 43
0.0
 10
1983.695248794992
 20
1523.686127352871
 10
1983.218340205411
 20
1523.274094090029
 10
1983.167653886788
 20
1523.196347566564
  0
LINE
  5
927
330
82E
100
AcDbEntity
  8
0
  6
Continuous
 62
     7
370
    15
100
AcDbLine
 10
1988.857141919515
 20
1526.666024824757
 30
0.0
 11
1988.857141919515
 21
1527.482565675426
 31
0.0
  0
LINE
  5
928
330
82E
100
AcDbEntity
  8
0
  6
Continuous
 62
     7
370
    15
100
AcDbLine
 10
1988.857141919515
 20
1526.666024824757
 30
0.0
 11
1983.695248794992
 21
1523.686127352871
 31
0.0
  0
ARC
  5
929
330
82E
100
AcDbEntity
  8
0
  6
Continuous
 62
     7
370
    15
100
AcDbCircle
 10
1990.404741211355
 20
1523.817541549387
 30
0.0
 40
3.241746525896397
100
AcDbArc
 50
57.89701553277937
 51
118.5155179588428
  0
LINE
  5
92A
330
82E
100
AcDbEntity
  8
0
  6
Continuous
 62
     7
370
    15
100
AcDbLine
 10
1997.837370931732
 20
1531.850200685223
 30
0.0
 11
1997.837370931732
 21
1532.666741535892
 31
0.0
  0
LWPOLYLINE
  5
92B
330
82E
100
AcDbEntity
  8
0
  6
Continuous
 62
     7
370
    15
100
AcDbPolyline
 90
        3
 70
   128
 43
0.0
 10
1997.837370931732
 20
1531.850200685223
 10
1997.360504488999
 20
1531.43819175324
 10
1997.309776023527
 20
1531.360420898916
  0
LINE
  5
92C
330
82E
100
AcDbEntity
  8
0
  6
Continuous
 62
     7
370
    15
100
AcDbLine
 10
2002.999264056255
 20
1534.830098157109
 30
0.0
 11
2002.999264056255
 21
1535.646639007779
 31
0.0
  0
LINE
  5
92D
330
82E
100
AcDbEntity
  8
0
  6
Continuous
 62
     7
370
    15
100
AcDbLine
 10
2002.999264056255
 20
1534.830098157109
 30
0.0
 11
1997.837370931732
 21
1531.850200685223
 31
0.0
  0
ARC
  5
92E
330
82E
100
AcDbEntity
  8
0
  6
Continuous
 62
     7
370
    15
100
AcDbCircle
 10
2004.546864864971
 20
1531.981663318268
 30
0.0
 40
3.2417046895515
100
AcDbArc
 50
57.89658327782778
 51
118.5159502138011
  0
LINE
  5
92F
330
82E
100
AcDbEntity
  8
0
  6
Continuous
 62
     7
370
    15
100
AcDbLine
 10
2011.97953521532
 20
1540.014298348434
 30
0.0
 11
2011.97953521532
 21
1540.830839199103
 31
0.0
  0
LWPOLYLINE
  5
930
330
82E
100
AcDbEntity
  8
0
  6
Continuous
 62
     7
370
    15
100
AcDbPolyline
 90
        3
 70
   128
 43
0.0
 10
2011.97953521532
 20
1540.014298348434
 10
2011.502626625739
 20
1539.602265085592
 10
2011.451940307116
 20
1539.524518562126
  0
LINE
  5
931
330
82E
100
AcDbEntity
  8
0
  6
Continuous
 62
     7
370
    15
100
AcDbLine
 10
2017.141386192994
 20
1542.994171489462
 30
0.0
 11
2017.141386192994
 21
1543.810712340131
 31
0.0
  0
LINE
  5
932
330
82E
100
AcDbEntity
  8
0
  6
Continuous
 62
     7
370
    15
100
AcDbLine
 10
2017.141386192994
 20
1542.994171489462
 30
0.0
 11
2011.97953521532
 21
1540.014298348434
 31
0.0
  0
ARC
  5
933
330
82E
100
AcDbEntity
  8
0
  6
Continuous
 62
     7
370
    15
100
AcDbCircle
 10
2018.689015370777
 20
1540.145281103938
 30
0.0
 40
3.242118520451501
100
AcDbArc
 50
57.90088400583911
 51
118.512547370446
  0
LINE
  5
934
330
82E
100
AcDbEntity
  8
0
  6
Continuous
 62
     7
370
    15
100
AcDbLine
 10
2026.121657352059
 20
1548.178371680786
 30
0.0
 11
2026.121657352059
 21
1548.994912531455
 31
0.0
  0
LWPOLYLINE
  5
935
330
82E
100
AcDbEntity
  8
0
  6
Continuous
 62
     7
370
    15
100
AcDbPolyline
 90
        3
 70
   128
 43
0.0
 10
2026.121657352059
 20
1548.178371680786
 10
2025.644748762478
 20
1547.766338417945
 10
2025.594062443855
 20
1547.688591894479
  0
LINE
  5
936
330
82E
100
AcDbEntity
  8
0
  6
Continuous
 62
     7
370
    15
100
AcDbLine
 10
2031.283550476583
 20
1551.158269152672
 30
0.0
 11
2031.283550476583
 21
1551.974810003342
 31
0.0
  0
LINE
  5
937
330
82E
100
AcDbEntity
  8
0
  6
Continuous
 62
     7
370
    15
100
AcDbLine
 10
2031.283550476583
 20
1551.158269152672
 30
0.0
 11
2026.121657352059
 21
1548.178371680786
 31
0.0
  0
ARC
  5
938
330
82E
100
AcDbEntity
  8
0
  6
Continuous
 62
     7
370
    15
100
AcDbCircle
 10
2032.831149768422
 20
1548.309785877302
 30
0.0
 40
3.241746525897278
100
AcDbArc
 50
57.89701553277937
 51
118.5155179588397
  0
LINE
  5
939
330
82E
100
AcDbEntity
  8
0
  6
Continuous
 62
     7
370
    15
100
AcDbLine
 10
2040.263779488799
 20
1556.342445013139
 30
0.0
 11
2040.263779488799
 21
1557.158985863808
 31
0.0
  0
LWPOLYLINE
  5
93A
330
82E
100
AcDbEntity
  8
0
  6
Continuous
 62
     7
370
    15
100
AcDbPolyline
 90
        3
 70
   128
 43
0.0
 10
2040.263779488799
 20
1556.342445013139
 10
2039.786870899217
 20
1555.930411750298
 10
2039.736184580595
 20
1555.852665226832
  0
LINE
  5
93B
330
82E
100
AcDbEntity
  8
0
  6
Continuous
 62
     7
370
    15
100
AcDbLine
 10
2045.425672613322
 20
1559.322342485025
 30
0.0
 11
2045.425672613322
 21
1560.138883335694
 31
0.0
  0
LINE
  5
93C
330
82E
100
AcDbEntity
  8
0
  6
Continuous
 62
     7
370
    15
100
AcDbLine
 10
2045.425672613322
 20
1559.322342485025
 30
0.0
 11
2040.263779488799
 21
1556.342445013139
 31
0.0
  0
ARC
  5
93D
330
82E
100
AcDbEntity
  8
0
  6
Continuous
 62
     7
370
    15
100
AcDbCircle
 10
2046.973273422038
 20
1556.473907646184
 30
0.0
 40
3.241704689551444
100
AcDbArc
 50
57.89658327782778
 51
118.5159502138011
  0
LINE
  5
93E
330
82E
100
AcDbEntity
  8
0
  6
Continuous
 62
     7
370
    15
100
AcDbLine
 10
2054.405943772386
 20
1564.506542676349
 30
0.0
 11
2054.405943772386
 21
1565.323083527019
 31
0.0
  0
LWPOLYLINE
  5
93F
330
82E
100
AcDbEntity
  8
0
  6
Continuous
 62
     7
370
    15
100
AcDbPolyline
 90
        3
 70
   128
 43
0.0
 10
2054.405943772386
 20
1564.506542676349
 10
2053.929035182806
 20
1564.094509413508
 10
2053.878348864182
 20
1564.016762890042
  0
LINE
  5
940
330
82E
100
AcDbEntity
  8
0
  6
Continuous
 62
     7
370
    15
100
AcDbLine
 10
2059.567794750061
 20
1567.486415817378
 30
0.0
 11
2059.567794750061
 21
1568.302956668047
 31
0.0
  0
LINE
  5
941
330
82E
100
AcDbEntity
  8
0
  6
Continuous
 62
     7
370
    15
100
AcDbLine
 10
2059.567794750061
 20
1567.486415817378
 30
0.0
 11
2054.405943772386
 21
1564.506542676349
 31
0.0
  0
ARC
  5
942
330
82E
100
AcDbEntity
  8
0
  6
Continuous
 62
     7
370
    15
100
AcDbCircle
 10
2061.115423927844
 20
1564.637525431854
 30
0.0
 40
3.242118520451236
100
AcDbArc
 50
57.90088400585361
 51
118.5125473704605
  0
LINE
  5
943
330
82E
100
AcDbEntity
  8
0
  6
Continuous
 62
     7
370
    15
100
AcDbLine
 10
2068.548065909126
 20
1572.670616008702
 30
0.0
 11
2068.548065909126
 21
1573.487156859371
 31
0.0
  0
LWPOLYLINE
  5
944
330
82E
100
AcDbEntity
  8
0
  6
Continuous
 62
     7
370
    15
100
AcDbPolyline
 90
        3
 70
   128
 43
0.0
 10
2068.548065909126
 20
1572.670616008702
 10
2068.071157319545
 20
1572.258582745861
 10
2068.020471000922
 20
1572.180836222395
  0
LINE
  5
945
330
82E
100
AcDbEntity
  8
0
  6
Continuous
 62
     7
370
    15
100
AcDbLine
 10
2073.709959033649
 20
1575.650513480588
 30
0.0
 11
2073.709959033649
 21
1576.467054331257
 31
0.0
  0
LINE
  5
946
330
82E
100
AcDbEntity
  8
0
  6
Continuous
 62
     7
370
    15
100
AcDbLine
 10
2073.709959033649
 20
1575.650513480588
 30
0.0
 11
2068.548065909126
 21
1572.670616008702
 31
0.0
  0
ARC
  5
947
330
82E
100
AcDbEntity
  8
0
  6
Continuous
 62
     7
370
    15
100
AcDbCircle
 10
2075.257544541988
 20
1572.801590073763
 30
0.0
 40
3.242126691474532
100
AcDbArc
 50
57.90094282165645
 51
118.5115906699615
  0
LINE
  5
948
330
82E
100
AcDbEntity
  8
0
  6
Continuous
 62
     7
370
    15
100
AcDbLine
 10
2082.690188045865
 20
1580.834689341054
 30
0.0
 11
2082.690188045865
 21
1581.651230191724
 31
0.0
  0
LWPOLYLINE
  5
949
330
82E
100
AcDbEntity
  8
0
  6
Continuous
 62
     7
370
    15
100
AcDbPolyline
 90
        3
 70
   128
 43
0.0
 10
2082.690188045865
 20
1580.834689341054
 10
2082.213279456285
 20
1580.422656078213
 10
2082.162593137661
 20
1580.344909554747
  0
LINE
  5
94A
330
82E
100
AcDbEntity
  8
0
  6
Continuous
 62
     7
370
    15
100
AcDbLine
 10
2087.852081170389
 20
1583.81458681294
 30
0.0
 11
2087.852081170389
 21
1584.63112766361
 31
0.0
  0
LINE
  5
94B
330
82E
100
AcDbEntity
  8
0
  6
Continuous
 62
     7
370
    15
100
AcDbLine
 10
2087.852081170389
 20
1583.81458681294
 30
0.0
 11
2082.690188045865
 21
1580.834689341054
 31
0.0
  0
ARC
  5
94C
330
82E
100
AcDbEntity
  8
0
  6
Continuous
 62
     7
370
    15
100
AcDbCircle
 10
2089.399681979104
 20
1580.9661519741
 30
0.0
 40
3.24170468955101
100
AcDbArc
 50
57.89658327781327
 51
118.5159502138011
  0
LINE
  5
94D
330
82E
100
AcDbEntity
  8
0
  6
Continuous
 62
     7
370
    15
100
AcDbLine
 10
2096.832352329454
 20
1588.998787004265
 30
0.0
 11
2096.832352329454
 21
1589.815327854934
 31
0.0
  0
LWPOLYLINE
  5
94E
330
82E
100
AcDbEntity
  8
0
  6
Continuous
 62
     7
370
    15
100
AcDbPolyline
 90
        3
 70
   128
 43
0.0
 10
2096.832352329454
 20
1588.998787004265
 10
2096.355443739872
 20
1588.586753741423
 10
2096.30475742125
 20
1588.509007217958
  0
LINE
  5
94F
330
82E
100
AcDbEntity
  8
0
  6
Continuous
 62
     7
370
    15
100
AcDbLine
 10
2101.994203307128
 20
1591.978660145293
 30
0.0
 11
2101.994203307128
 21
1592.795200995962
 31
0.0
  0
LINE
  5
950
330
82E
100
AcDbEntity
  8
0
  6
Continuous
 62
     7
370
    15
100
AcDbLine
 10
2101.994203307128
 20
1591.978660145293
 30
0.0
 11
2096.832352329454
 21
1588.998787004265
 31
0.0
  0
ARC
  5
951
330
82E
100
AcDbEntity
  8
0
  6
Continuous
 62
     7
370
    15
100
AcDbCircle
 10
2103.541830428711
 20
1589.129704085238
 30
0.0
 40
3.242175248129817
100
AcDbArc
 50
57.90146995034088
 51
118.5119614259737
  0
LINE
  5
952
330
82E
100
AcDbEntity
  8
0
  6
Continuous
 62
     7
370
    15
100
AcDbLine
 10
2110.974474466193
 20
1597.162860336617
 30
0.0
 11
2110.974474466193
 21
1597.979401187287
 31
0.0
  0
LWPOLYLINE
  5
953
330
82E
100
AcDbEntity
  8
0
  6
Continuous
 62
     7
370
    15
100
AcDbPolyline
 90
        3
 70
   128
 43
0.0
 10
2110.974474466193
 20
1597.162860336617
 10
2110.497565876612
 20
1596.750827073776
 10
2110.446879557989
 20
1596.67308055031
  0
LINE
  5
954
330
82E
100
AcDbEntity
  8
0
  6
Continuous
 62
     7
370
    15
100
AcDbLine
 10
2116.136367590716
 20
1600.142757808503
 30
0.0
 11
2116.136367590716
 21
1600.959298659173
 31
0.0
  0
LINE
  5
955
330
82E
100
AcDbEntity
  8
0
  6
Continuous
 62
     7
370
    15
100
AcDbLine
 10
2116.136367590716
 20
1600.142757808503
 30
0.0
 11
2110.974474466193
 21
1597.162860336617
 31
0.0
  0
ARC
  5
956
330
82E
100
AcDbEntity
  8
0
  6
Continuous
 62
     7
370
    15
100
AcDbCircle
 10
2117.683953099055
 20
1597.293834401679
 30
0.0
 40
3.242126691474532
100
AcDbArc
 50
57.90094282165645
 51
118.5115906699615
  0
LINE
  5
957
330
82E
100
AcDbEntity
  8
0
  6
Continuous
 62
     7
370
    15
100
AcDbLine
 10
2125.116596602932
 20
1605.32693366897
 30
0.0
 11
2125.116596602932
 21
1606.143474519639
 31
0.0
  0
LWPOLYLINE
  5
958
330
82E
100
AcDbEntity
  8
0
  6
Continuous
 62
     7
370
    15
100
AcDbPolyline
 90
        3
 70
   128
 43
0.0
 10
2125.116596602932
 20
1605.32693366897
 10
2124.639688013352
 20
1604.914900406129
 10
2124.589001694729
 20
1604.837153882663
  0
LINE
  5
959
330
82E
100
AcDbEntity
  8
0
  6
Continuous
 62
     7
370
    15
100
AcDbLine
 10
2130.278489727456
 20
1608.306831140856
 30
0.0
 11
2130.278489727456
 21
1609.123371991525
 31
0.0
  0
LINE
  5
95A
330
82E
100
AcDbEntity
  8
0
  6
Continuous
 62
     7
370
    15
100
AcDbLine
 10
2130.278489727456
 20
1608.306831140856
 30
0.0
 11
2125.116596602932
 21
1605.32693366897
 31
0.0
  0
ARC
  5
95B
330
82E
100
AcDbEntity
  8
0
  6
Continuous
 62
     7
370
    15
100
AcDbCircle
 10
2131.826090536171
 20
1605.458396302016
 30
0.0
 40
3.241704689550692
100
AcDbArc
 50
57.89658327781327
 51
118.5159502138157
  0
LINE
  5
95C
330
82E
100
AcDbEntity
  8
0
  6
Continuous
 62
     7
370
    15
100
AcDbLine
 10
2139.258760886521
 20
1613.49103133218
 30
0.0
 11
2139.258760886521
 21
1614.30757218285
 31
0.0
  0
LWPOLYLINE
  5
95D
330
82E
100
AcDbEntity
  8
0
  6
Continuous
 62
     7
370
    15
100
AcDbPolyline
 90
        3
 70
   128
 43
0.0
 10
2139.258760886521
 20
1613.49103133218
 10
2138.781852296939
 20
1613.078998069339
 10
2138.731165978316
 20
1613.001251545873
  0
LINE
  5
95E
330
82E
100
AcDbEntity
  8
0
  6
Continuous
 62
     7
370
    15
100
AcDbLine
 10
2144.420611864195
 20
1616.470904473209
 30
0.0
 11
2144.420611864195
 21
1617.287445323878
 31
0.0
  0
LINE
  5
95F
330
82E
100
AcDbEntity
  8
0
  6
Continuous
 62
     7
370
    15
100
AcDbLine
 10
2144.420611864195
 20
1616.470904473209
 30
0.0
 11
2139.258760886521
 21
1613.49103133218
 31
0.0
  0
ARC
  5
960
330
82E
100
AcDbEntity
  8
0
  6
Continuous
 62
     7
370
    15
100
AcDbCircle
 10
2145.968238985778
 20
1613.621948413153
 30
0.0
 40
3.242175248130008
100
AcDbArc
 50
57.90146995034088
 51
118.5119614259591
  0
LINE
  5
961
330
82E
100
AcDbEntity
  8
0
  6
Continuous
 62
     7
370
    15
100
AcDbLine
 10
2153.40088302326
 20
1621.655104664533
 30
0.0
 11
2153.40088302326
 21
1622.471645515202
 31
0.0
  0
LWPOLYLINE
  5
962
330
82E
100
AcDbEntity
  8
0
  6
Continuous
 62
     7
370
    15
100
AcDbPolyline
 90
        3
 70
   128
 43
0.0
 10
2153.40088302326
 20
1621.655104664533
 10
2152.923974433679
 20
1621.243071401692
 10
2152.873288115056
 20
1621.165324878226
  0
LINE
  5
963
330
82E
100
AcDbEntity
  8
0
  6
Continuous
 62
     7
370
    15
100
AcDbLine
 10
2158.562776147783
 20
1624.635002136419
 30
0.0
 11
2158.562776147783
 21
1625.451542987088
 31
0.0
  0
LINE
  5
964
330
82E
100
AcDbEntity
  8
0
  6
Continuous
 62
     7
370
    15
100
AcDbLine
 10
2158.562776147783
 20
1624.635002136419
 30
0.0
 11
2153.40088302326
 21
1621.655104664533
 31
0.0
  0
ARC
  5
965
330
82E
100
AcDbEntity
  8
0
  6
Continuous
 62
     7
370
    15
100
AcDbCircle
 10
2160.110361656121
 20
1621.786078729593
 30
0.0
 40
3.242126691475498
100
AcDbArc
 50
57.90094282167095
 51
118.5115906699615
  0
LINE
  5
966
330
82E
100
AcDbEntity
  8
0
  6
Continuous
 62
     7
370
    15
100
AcDbLine
 10
2167.543005159999
 20
1629.819177996886
 30
0.0
 11
2167.543005159999
 21
1630.635718847555
 31
0.0
  0
LWPOLYLINE
  5
967
330
82E
100
AcDbEntity
  8
0
  6
Continuous
 62
     7
370
    15
100
AcDbPolyline
 90
        3
 70
   128
 43
0.0
 10
2167.543005159999
 20
1629.819177996886
 10
2167.066096570418
 20
1629.407144734044
 10
2167.015410251796
 20
1629.329398210578
  0
LINE
  5
968
330
82E
100
AcDbEntity
  8
0
  6
Continuous
 62
     7
370
    15
100
AcDbLine
 10
2172.704898284523
 20
1632.799075468772
 30
0.0
 11
2172.704898284523
 21
1633.615616319441
 31
0.0
  0
LINE
  5
969
330
82E
100
AcDbEntity
  8
0
  6
Continuous
 62
     7
370
    15
100
AcDbLine
 10
2172.704898284523
 20
1632.799075468772
 30
0.0
 11
2167.543005159999
 21
1629.819177996886
 31
0.0
  0
ARC
  5
96A
330
82E
100
AcDbEntity
  8
0
  6
Continuous
 62
     7
370
    15
100
AcDbCircle
 10
2174.252499093238
 20
1629.950640629928
 30
0.0
 40
3.241704689553547
100
AcDbArc
 50
57.89658327784226
 51
118.5159502137866
  0
LINE
  5
96B
330
82E
100
AcDbEntity
  8
0
  6
Continuous
 62
     7
370
    15
100
AcDbLine
 10
2181.685148370163
 20
1637.983263494667
 30
0.0
 11
2181.685148370163
 21
1638.799804345336
 31
0.0
  0
LWPOLYLINE
  5
96C
330
82E
100
AcDbEntity
  8
0
  6
Continuous
 62
     7
370
    15
100
AcDbPolyline
 90
        3
 70
   128
 43
0.0
 10
2181.685148370163
 20
1637.983263494667
 10
2181.208239780582
 20
1637.571230231826
 10
2181.157553461959
 20
1637.49348370836
  0
LINE
  5
96D
330
82E
100
AcDbEntity
  8
0
  6
Continuous
 62
     7
370
    15
100
AcDbLine
 10
2186.847020421262
 20
1640.963148801124
 30
0.0
 11
2186.847020421262
 21
1641.779689651794
 31
0.0
  0
LINE
  5
96E
330
82E
100
AcDbEntity
  8
0
  6
Continuous
 62
     7
370
    15
100
AcDbLine
 10
2186.847020421262
 20
1640.963148801124
 30
0.0
 11
2181.685148370163
 21
1637.983263494667
 31
0.0
  0
ARC
  5
96F
330
82E
100
AcDbEntity
  8
0
  6
Continuous
 62
     7
370
    15
100
AcDbCircle
 10
2188.394635414508
 20
1638.114486215876
 30
0.0
 40
3.241911579903924
100
AcDbArc
 50
57.89873352608497
 51
118.5142489107271
  0
LINE
  5
970
330
82E
100
AcDbEntity
  8
0
  6
Continuous
 62
     7
370
    15
100
AcDbLine
 10
2195.827291580326
 20
1646.147348992449
 30
0.0
 11
2195.827291580326
 21
1646.963889843117
 31
0.0
  0
LWPOLYLINE
  5
971
330
82E
100
AcDbEntity
  8
0
  6
Continuous
 62
     7
370
    15
100
AcDbPolyline
 90
        3
 70
   128
 43
0.0
 10
2195.827291580326
 20
1646.147348992449
 10
2195.350382990746
 20
1645.735315729607
 10
2195.299696672122
 20
1645.657569206141
  0
LINE
  5
972
330
82E
100
AcDbEntity
  8
0
  6
Continuous
 62
     7
370
    15
100
AcDbLine
 10
2200.989163631426
 20
1649.127234298905
 30
0.0
 11
2200.989163631426
 21
1649.943775149575
 31
0.0
  0
LINE
  5
973
330
82E
100
AcDbEntity
  8
0
  6
Continuous
 62
     7
370
    15
100
AcDbLine
 10
2200.989163631426
 20
1649.127234298905
 30
0.0
 11
2195.827291580326
 21
1646.147348992449
 31
0.0
  0
ARC
  5
974
330
82E
100
AcDbEntity
  8
0
  6
Continuous
 62
     7
370
    15
100
AcDbCircle
 10
2202.536777596449
 20
1646.278538876558
 30
0.0
 40
3.241939943002702
100
AcDbArc
 50
57.89902653497618
 51
118.5139559018243
  0
LINE
  5
975
330
82E
100
AcDbEntity
  8
0
  6
Continuous
 62
     7
370
    15
100
AcDbLine
 10
2209.969413717066
 20
1654.311422324801
 30
0.0
 11
2209.969413717066
 21
1655.12796317547
 31
0.0
  0
LWPOLYLINE
  5
976
330
82E
100
AcDbEntity
  8
0
  6
Continuous
 62
     7
370
    15
100
AcDbPolyline
 90
        3
 70
   128
 43
0.0
 10
2209.969413717066
 20
1654.311422324801
 10
2209.492526200909
 20
1653.899401227389
 10
2209.441818808862
 20
1653.821642538494
  0
LINE
  5
977
330
82E
100
AcDbEntity
  8
0
  6
Continuous
 62
     7
370
    15
100
AcDbLine
 10
2215.131306841589
 20
1657.291319796687
 30
0.0
 11
2215.131306841589
 21
1658.107860647356
 31
0.0
  0
LINE
  5
978
330
82E
100
AcDbEntity
  8
0
  6
Continuous
 62
     7
370
    15
100
AcDbLine
 10
2215.131306841589
 20
1657.291319796687
 30
0.0
 11
2209.969413717066
 21
1654.311422324801
 31
0.0
  0
ARC
  5
979
330
82E
100
AcDbEntity
  8
0
  6
Continuous
 62
     7
370
    15
100
AcDbCircle
 10
2216.678900001014
 20
1654.442640702523
 30
0.0
 40
3.241915663404513
100
AcDbArc
 50
57.89876293580621
 51
118.5137705558342
  0
LINE
  5
97A
330
82E
100
AcDbEntity
  8
0
  6
Continuous
 62
     7
370
    15
100
AcDbLine
 10
2224.11155692723
 20
1662.475507822582
 30
0.0
 11
2224.11155692723
 21
1663.292048673252
 31
0.0
  0
LWPOLYLINE
  5
97B
330
82E
100
AcDbEntity
  8
0
  6
Continuous
 62
     7
370
    15
100
AcDbPolyline
 90
        3
 70
   128
 43
0.0
 10
2224.11155692723
 20
1662.475507822582
 10
2223.634648337649
 20
1662.063474559741
 10
2223.583962019026
 20
1661.985728036275
  0
LINE
  5
97C
330
82E
100
AcDbEntity
  8
0
  6
Continuous
 62
     7
370
    15
100
AcDbLine
 10
2229.273428978329
 20
1665.45539312904
 30
0.0
 11
2229.273428978329
 21
1666.271933979709
 31
0.0
  0
LINE
  5
97D
330
82E
100
AcDbEntity
  8
0
  6
Continuous
 62
     7
370
    15
100
AcDbLine
 10
2229.273428978329
 20
1665.45539312904
 30
0.0
 11
2224.11155692723
 21
1662.475507822582
 31
0.0
  0
ARC
  5
97E
330
82E
100
AcDbEntity
  8
0
  6
Continuous
 62
     7
370
    15
100
AcDbCircle
 10
2230.821043971575
 20
1662.606730543789
 30
0.0
 40
3.241911579905743
100
AcDbArc
 50
57.89873352608497
 51
118.5142489107125
  0
LINE
  5
97F
330
82E
100
AcDbEntity
  8
0
  6
Continuous
 62
     7
370
    15
100
AcDbLine
 10
2238.253700137394
 20
1670.639593320364
 30
0.0
 11
2238.253700137394
 21
1671.456134171033
 31
0.0
  0
LWPOLYLINE
  5
980
330
82E
100
AcDbEntity
  8
0
  6
Continuous
 62
     7
370
    15
100
AcDbPolyline
 90
        3
 70
   128
 43
0.0
 10
2238.253700137394
 20
1670.639593320364
 10
2237.776791547813
 20
1670.227560057522
 10
2237.72610522919
 20
1670.149813534057
  0
LINE
  5
981
330
82E
100
AcDbEntity
  8
0
  6
Continuous
 62
     7
370
    15
100
AcDbLine
 10
2243.415572188493
 20
1673.619478626821
 30
0.0
 11
2243.415572188493
 21
1674.43601947749
 31
0.0
  0
LINE
  5
982
330
82E
100
AcDbEntity
  8
0
  6
Continuous
 62
     7
370
    15
100
AcDbLine
 10
2243.415572188493
 20
1673.619478626821
 30
0.0
 11
2238.253700137394
 21
1670.639593320364
 31
0.0
  0
ARC
  5
983
330
82E
100
AcDbEntity
  8
0
  6
Continuous
 62
     7
370
    15
100
AcDbCircle
 10
2244.963172238793
 20
1670.771019570429
 30
0.0
 40
3.241725607085097
100
AcDbArc
 50
57.89679940032225
 51
118.5157340912894
  0
LINE
  5
984
330
82E
100
AcDbEntity
  8
0
  6
Continuous
 62
     7
370
    15
100
AcDbLine
 10
2252.395822274133
 20
1678.803666652716
 30
0.0
 11
2252.395822274133
 21
1679.620207503386
 31
0.0
  0
LWPOLYLINE
  5
985
330
82E
100
AcDbEntity
  8
0
  6
Continuous
 62
     7
370
    15
100
AcDbPolyline
 90
        3
 70
   128
 43
0.0
 10
2252.395822274133
 20
1678.803666652716
 10
2251.918934757977
 20
1678.391645555304
 10
2251.868227365929
 20
1678.313886866409
  0
LINE
  5
986
330
82E
100
AcDbEntity
  8
0
  6
Continuous
 62
     7
370
    15
100
AcDbLine
 10
2257.557715398656
 20
1681.783564124603
 30
0.0
 11
2257.557715398656
 21
1682.600104975272
 31
0.0
  0
LINE
  5
987
330
82E
100
AcDbEntity
  8
0
  6
Continuous
 62
     7
370
    15
100
AcDbLine
 10
2257.557715398656
 20
1681.783564124603
 30
0.0
 11
2252.395822274133
 21
1678.803666652716
 31
0.0
  0
ARC
  5
988
330
82E
100
AcDbEntity
  8
0
  6
Continuous
 62
     7
370
    15
100
AcDbCircle
 10
2259.105308558081
 20
1678.934885030439
 30
0.0
 40
3.241915663403901
100
AcDbArc
 50
57.89876293579171
 51
118.5137705558342
  0
LINE
  5
989
330
82E
100
AcDbEntity
  8
0
  6
Continuous
 62
     7
370
    15
100
AcDbLine
 10
2266.537965484296
 20
1686.967752150498
 30
0.0
 11
2266.537965484296
 21
1687.784293001167
 31
0.0
  0
LWPOLYLINE
  5
98A
330
82E
100
AcDbEntity
  8
0
  6
Continuous
 62
     7
370
    15
100
AcDbPolyline
 90
        3
 70
   128
 43
0.0
 10
2266.537965484296
 20
1686.967752150498
 10
2266.061056894716
 20
1686.555718887657
 10
2266.010370576093
 20
1686.477972364191
  0
LINE
  5
98B
330
82E
100
AcDbEntity
  8
0
  6
Continuous
 62
     7
370
    15
100
AcDbLine
 10
2271.699837535396
 20
1689.947637456955
 30
0.0
 11
2271.699837535396
 21
1690.764178307625
 31
0.0
  0
LINE
  5
98C
330
82E
100
AcDbEntity
  8
0
  6
Continuous
 62
     7
370
    15
100
AcDbLine
 10
2271.699837535396
 20
1689.947637456955
 30
0.0
 11
2266.537965484296
 21
1686.967752150498
 31
0.0
  0
ARC
  5
98D
330
82E
100
AcDbEntity
  8
0
  6
Continuous
 62
     7
370
    15
100
AcDbCircle
 10
2273.247452528642
 20
1687.098974871707
 30
0.0
 40
3.241911579903471
100
AcDbArc
 50
57.89873352607046
 51
118.5142489107271
  0
LINE
  5
98E
330
82E
100
AcDbEntity
  8
0
  6
Continuous
 62
     7
370
    15
100
AcDbLine
 10
2280.680087621036
 20
1695.131825482851
 30
0.0
 11
2280.680087621036
 21
1695.94836633352
 31
0.0
  0
LWPOLYLINE
  5
98F
330
82E
100
AcDbEntity
  8
0
  6
Continuous
 62
     7
370
    15
100
AcDbPolyline
 90
        3
 70
   128
 43
0.0
 10
2280.680087621036
 20
1695.131825482851
 10
2280.203200104879
 20
1694.719804385438
 10
2280.152513786257
 20
1694.642057861972
  0
LINE
  5
990
330
82E
100
AcDbEntity
  8
0
  6
Continuous
 62
     7
370
    15
100
AcDbLine
 10
2285.841980745559
 20
1698.111722954737
 30
0.0
 11
2285.841980745559
 21
1698.928263805406
 31
0.0
  0
LINE
  5
991
330
82E
100
AcDbEntity
  8
0
  6
Continuous
 62
     7
370
    15
100
AcDbLine
 10
2285.841980745559
 20
1698.111722954737
 30
0.0
 11
2280.680087621036
 21
1695.131825482851
 31
0.0
  0
ARC
  5
992
330
82E
100
AcDbEntity
  8
0
  6
Continuous
 62
     7
370
    15
100
AcDbCircle
 10
2287.389580795859
 20
1695.263263898343
 30
0.0
 40
3.24172560708606
100
AcDbArc
 50
57.8967994003402
 51
118.5157340912894
  0
LINE
  5
993
330
82E
100
AcDbEntity
  8
0
  6
Continuous
 62
     7
370
    15
100
AcDbLine
 10
2294.8222308312
 20
1703.295910980632
 30
0.0
 11
2294.8222308312
 21
1704.112451831301
 31
0.0
  0
LWPOLYLINE
  5
994
330
82E
100
AcDbEntity
  8
0
  6
Continuous
 62
     7
370
    15
100
AcDbPolyline
 90
        3
 70
   128
 43
0.0
 10
2294.8222308312
 20
1703.295910980632
 10
2294.345322241619
 20
1702.883877717791
 10
2294.294635922996
 20
1702.806131194325
  0
LINE
  5
995
330
82E
100
AcDbEntity
  8
0
  6
Continuous
 62
     7
370
    15
100
AcDbLine
 10
2299.984102882299
 20
1706.275796287089
 30
0.0
 11
2299.984102882299
 21
1707.092337137759
 31
0.0
  0
LINE
  5
996
330
82E
100
AcDbEntity
  8
0
  6
Continuous
 62
     7
370
    15
100
AcDbLine
 10
2299.984102882299
 20
1706.275796287089
 30
0.0
 11
2294.8222308312
 21
1703.295910980632
 31
0.0
  0
ARC
  5
997
330
82E
100
AcDbEntity
  8
0
  6
Continuous
 62
     7
370
    15
100
AcDbCircle
 10
2301.531717875545
 20
1703.427133701839
 30
0.0
 40
3.24191157990514
100
AcDbArc
 50
57.89873352608497
 51
118.5142489107125
  0
LINE
  5
998
330
82E
100
AcDbEntity
  8
0
  6
Continuous
 62
     7
370
    15
100
AcDbLine
 10
2308.964374041364
 20
1711.459996478414
 30
0.0
 11
2308.964374041364
 21
1712.276537329083
 31
0.0
  0
LWPOLYLINE
  5
999
330
82E
100
AcDbEntity
  8
0
  6
Continuous
 62
     7
370
    15
100
AcDbPolyline
 90
        3
 70
   128
 43
0.0
 10
2308.964374041364
 20
1711.459996478414
 10
2308.487465451783
 20
1711.047963215573
 10
2308.43677913316
 20
1710.970216692106
  0
LINE
  5
99A
330
82E
100
AcDbEntity
  8
0
  6
Continuous
 62
     7
370
    15
100
AcDbLine
 10
2314.126246092463
 20
1714.439881784871
 30
0.0
 11
2314.126246092463
 21
1715.25642263554
 31
0.0
  0
LINE
  5
99B
330
82E
100
AcDbEntity
  8
0
  6
Continuous
 62
     7
370
    15
100
AcDbLine
 10
2314.126246092463
 20
1714.439881784871
 30
0.0
 11
2308.964374041364
 21
1711.459996478414
 31
0.0
  0
ARC
  5
99C
330
82E
100
AcDbEntity
  8
0
  6
Continuous
 62
     7
370
    15
100
AcDbCircle
 10
2315.673861085709
 20
1711.59121919962
 30
0.0
 40
3.241911579905913
100
AcDbArc
 50
57.89873352609947
 51
118.5142489107125
  0
LINE
  5
99D
330
82E
100
AcDbEntity
  8
0
  6
Continuous
 62
     7
370
    15
100
AcDbLine
 10
2323.106496178103
 20
1719.624069810766
 30
0.0
 11
2323.106496178103
 21
1720.440610661436
 31
0.0
  0
LWPOLYLINE
  5
99E
330
82E
100
AcDbEntity
  8
0
  6
Continuous
 62
     7
370
    15
100
AcDbPolyline
 90
        3
 70
   128
 43
0.0
 10
2323.106496178103
 20
1719.624069810766
 10
2322.629608661946
 20
1719.212048713354
 10
2322.578901269899
 20
1719.134290024459
  0
LINE
  5
99F
330
82E
100
AcDbEntity
  8
0
  6
Continuous
 62
     7
370
    15
100
AcDbLine
 10
2328.268389302626
 20
1722.603967282652
 30
0.0
 11
2328.268389302626
 21
1723.420508133321
 31
0.0
  0
LINE
  5
9A0
330
82E
100
AcDbEntity
  8
0
  6
Continuous
 62
     7
370
    15
100
AcDbLine
 10
2328.268389302626
 20
1722.603967282652
 30
0.0
 11
2323.106496178103
 21
1719.624069810766
 31
0.0
  0
ARC
  5
9A1
330
82E
100
AcDbEntity
  8
0
  6
Continuous
 62
     7
370
    15
100
AcDbCircle
 10
2329.815982462051
 20
1719.755288188488
 30
0.0
 40
3.241915663404649
100
AcDbArc
 50
57.89876293580621
 51
118.5137705558196
  0
LINE
  5
9A2
330
82E
100
AcDbEntity
  8
0
  6
Continuous
 62
     7
370
    15
100
AcDbLine
 10
2337.248639388266
 20
1727.788155308547
 30
0.0
 11
2337.248639388266
 21
1728.604696159217
 31
0.0
  0
LWPOLYLINE
  5
9A3
330
82E
100
AcDbEntity
  8
0
  6
Continuous
 62
     7
370
    15
100
AcDbPolyline
 90
        3
 70
   128
 43
0.0
 10
2337.248639388266
 20
1727.788155308547
 10
2336.771730798686
 20
1727.376122045706
 10
2336.721044480063
 20
1727.29837552224
  0
LINE
  5
9A4
330
82E
100
AcDbEntity
  8
0
  6
Continuous
 62
     7
370
    15
100
AcDbLine
 10
2342.410511439366
 20
1730.768040615005
 30
0.0
 11
2342.410511439366
 21
1731.584581465674
 31
0.0
  0
LINE
  5
9A5
330
82E
100
AcDbEntity
  8
0
  6
Continuous
 62
     7
370
    15
100
AcDbLine
 10
2342.410511439366
 20
1730.768040615005
 30
0.0
 11
2337.248639388266
 21
1727.788155308547
 31
0.0
  0
ARC
  5
9A6
330
82E
100
AcDbEntity
  8
0
  6
Continuous
 62
     7
370
    15
100
AcDbCircle
 10
2343.958126432612
 20
1727.919378029755
 30
0.0
 40
3.241911579905622
100
AcDbArc
 50
57.89873352609947
 51
118.5142489107125
  0
LINE
  5
9A7
330
82E
100
AcDbEntity
  8
0
  6
Continuous
 62
     7
370
    15
100
AcDbLine
 10
2351.39078259843
 20
1735.952240806329
 30
0.0
 11
2351.39078259843
 21
1736.768781656999
 31
0.0
  0
LWPOLYLINE
  5
9A8
330
82E
100
AcDbEntity
  8
0
  6
Continuous
 62
     7
370
    15
100
AcDbPolyline
 90
        3
 70
   128
 43
0.0
 10
2351.39078259843
 20
1735.952240806329
 10
2350.913874008849
 20
1735.540207543488
 10
2350.863187690226
 20
1735.462461020022
  0
LINE
  5
9A9
330
82E
100
AcDbEntity
  8
0
  6
Continuous
 62
     7
370
    15
100
AcDbLine
 10
2356.552654649529
 20
1738.932126112786
 30
0.0
 11
2356.552654649529
 21
1739.748666963455
 31
0.0
  0
LINE
  5
9AA
330
82E
100
AcDbEntity
  8
0
  6
Continuous
 62
     7
370
    15
100
AcDbLine
 10
2356.552654649529
 20
1738.932126112786
 30
0.0
 11
2351.39078259843
 21
1735.952240806329
 31
0.0
  0
ARC
  5
9AB
330
82E
100
AcDbEntity
  8
0
  6
Continuous
 62
     7
370
    15
100
AcDbCircle
 10
2358.100262171328
 20
1736.083565298759
 30
0.0
 40
3.241818587265107
100
AcDbArc
 50
57.89776642751476
 51
118.5149915374156
  0
LINE
  5
9AC
330
82E
100
AcDbEntity
  8
0
  6
Continuous
 62
     7
370
    15
100
AcDbLine
 10
2365.532915271882
 20
1744.116320221396
 30
0.0
 11
2365.532915271882
 21
1744.932861072065
 31
0.0
  0
LWPOLYLINE
  5
9AD
330
82E
100
AcDbEntity
  8
0
  6
Continuous
 62
     7
370
    15
100
AcDbPolyline
 90
        3
 70
   128
 43
0.0
 10
2365.532915271882
 20
1744.116320221396
 10
2365.056006682301
 20
1743.704286958555
 10
2365.005320363678
 20
1743.626540435089
  0
LINE
  5
9AE
330
82E
100
AcDbEntity
  8
0
  6
Continuous
 62
     7
370
    15
100
AcDbLine
 10
2370.694787322981
 20
1747.096205527853
 30
0.0
 11
2370.694787322981
 21
1747.912746378522
 31
0.0
  0
LINE
  5
9AF
330
82E
100
AcDbEntity
  8
0
  6
Continuous
 62
     7
370
    15
100
AcDbLine
 10
2370.694787322981
 20
1747.096205527853
 30
0.0
 11
2365.532915271882
 21
1744.116320221396
 31
0.0
  0
ARC
  5
9B0
330
82E
100
AcDbEntity
  8
0
  6
Continuous
 62
     7
370
    15
100
AcDbCircle
 10
2372.242394844779
 20
1744.247644713826
 30
0.0
 40
3.241818587265052
100
AcDbArc
 50
57.89776642751476
 51
118.5149915374156
  0
LINE
  5
9B1
330
82E
100
AcDbEntity
  8
0
  6
Continuous
 62
     7
370
    15
100
AcDbLine
 10
2379.675047945334
 20
1752.280399636463
 30
0.0
 11
2379.675047945334
 21
1753.096940487132
 31
0.0
  0
LWPOLYLINE
  5
9B2
330
82E
100
AcDbEntity
  8
0
  6
Continuous
 62
     7
370
    15
100
AcDbPolyline
 90
        3
 70
   128
 43
0.0
 10
2379.675047945334
 20
1752.280399636463
 10
2379.198149892465
 20
1751.868372456337
 10
2379.14745303713
 20
1751.790619850156
  0
LINE
  5
9B3
330
82E
100
AcDbEntity
  8
0
  6
Continuous
 62
     7
370
    15
100
AcDbLine
 10
2384.836930533145
 20
1755.260291025635
 30
0.0
 11
2384.836930533145
 21
1756.076831876304
 31
0.0
  0
LINE
  5
9B4
330
82E
100
AcDbEntity
  8
0
  6
Continuous
 62
     7
370
    15
100
AcDbLine
 10
2384.836930533145
 20
1755.260291025635
 30
0.0
 11
2379.675047945334
 21
1752.280399636463
 31
0.0
  0
ARC
  5
9B5
330
82E
100
AcDbEntity
  8
0
  6
Continuous
 62
     7
370
    15
100
AcDbCircle
 10
2386.38453409537
 20
1752.411603767565
 30
0.0
 40
3.241927803036968
100
AcDbArc
 50
57.89889473415795
 51
118.5138632307534
  0
LINE
  5
9B6
330
82E
100
AcDbEntity
  8
0
  6
Continuous
 62
     7
370
    15
100
AcDbLine
 10
2393.817180618786
 20
1760.44447905153
 30
0.0
 11
2393.817180618786
 21
1761.2610199022
 31
0.0
  0
LWPOLYLINE
  5
9B7
330
82E
100
AcDbEntity
  8
0
  6
Continuous
 62
     7
370
    15
100
AcDbPolyline
 90
        3
 70
   128
 43
0.0
 10
2393.817180618786
 20
1760.44447905153
 10
2393.340282565917
 20
1760.032451871403
 10
2393.289585710582
 20
1759.954699265223
  0
LINE
  5
9B8
330
82E
100
AcDbEntity
  8
0
  6
Continuous
 62
     7
370
    15
100
AcDbLine
 10
2398.979063206596
 20
1763.424370440702
 30
0.0
 11
2398.979063206596
 21
1764.240911291371
 31
0.0
  0
LINE
  5
9B9
330
82E
100
AcDbEntity
  8
0
  6
Continuous
 62
     7
370
    15
100
AcDbLine
 10
2398.979063206596
 20
1763.424370440702
 30
0.0
 11
2393.817180618786
 21
1760.44447905153
 31
0.0
  0
ARC
  5
9BA
330
82E
100
AcDbEntity
  8
0
  6
Continuous
 62
     7
370
    15
100
AcDbCircle
 10
2400.526667282965
 20
1760.57569960114
 30
0.0
 40
3.241913621513988
100
AcDbArc
 50
57.8987482300763
 51
118.5140097348566
  0
LINE
  5
9BB
330
82E
100
AcDbEntity
  8
0
  6
Continuous
 62
     7
370
    15
100
AcDbLine
 10
2407.959313292237
 20
1768.608558466597
 30
0.0
 11
2407.959313292237
 21
1769.425099317266
 31
0.0
  0
LWPOLYLINE
  5
9BC
330
82E
100
AcDbEntity
  8
0
  6
Continuous
 62
     7
370
    15
100
AcDbPolyline
 90
        3
 70
   128
 43
0.0
 10
2407.959313292237
 20
1768.608558466597
 10
2407.482415239368
 20
1768.19653128647
 10
2407.431728920745
 20
1768.118784763004
  0
LINE
  5
9BD
330
82E
100
AcDbEntity
  8
0
  6
Continuous
 62
     7
370
    15
100
AcDbLine
 10
2413.121195880048
 20
1771.588449855769
 30
0.0
 11
2413.121195880048
 21
1772.404990706438
 31
0.0
  0
LINE
  5
9BE
330
82E
100
AcDbEntity
  8
0
  6
Continuous
 62
     7
370
    15
100
AcDbLine
 10
2413.121195880048
 20
1771.588449855769
 30
0.0
 11
2407.959313292237
 21
1768.608558466597
 31
0.0
  0
ARC
  5
9BF
330
82E
100
AcDbEntity
  8
0
  6
Continuous
 62
     7
370
    15
100
AcDbCircle
 10
2414.668803401846
 20
1768.739889041741
 30
0.0
 40
3.241818587265297
100
AcDbArc
 50
57.89776642751476
 51
118.5149915374156
  0
LINE
  5
9C0
330
82E
100
AcDbEntity
  8
0
  6
Continuous
 62
     7
370
    15
100
AcDbLine
 10
2422.101456502401
 20
1776.772643964379
 30
0.0
 11
2422.101456502401
 21
1777.589184815048
 31
0.0
  0
LWPOLYLINE
  5
9C1
330
82E
100
AcDbEntity
  8
0
  6
Continuous
 62
     7
370
    15
100
AcDbPolyline
 90
        3
 70
   128
 43
0.0
 10
2422.101456502401
 20
1776.772643964379
 10
2421.624558449532
 20
1776.360616784252
 10
2421.573861594197
 20
1776.282864178071
  0
LINE
  5
9C2
330
82E
100
AcDbEntity
  8
0
  6
Continuous
 62
     7
370
    15
100
AcDbLine
 10
2427.263328553499
 20
1779.752529270836
 30
0.0
 11
2427.263328553499
 21
1780.569070121505
 31
0.0
  0
LINE
  5
9C3
330
82E
100
AcDbEntity
  8
0
  6
Continuous
 62
     7
370
    15
100
AcDbLine
 10
2427.263328553499
 20
1779.752529270836
 30
0.0
 11
2422.101456502401
 21
1776.772643964379
 31
0.0
  0
ARC
  5
9C4
330
82E
100
AcDbEntity
  8
0
  6
Continuous
 62
     7
370
    15
100
AcDbCircle
 10
2428.81094303264
 20
1776.903850267228
 30
0.0
 40
3.241925761278419
100
AcDbArc
 50
57.89888002946447
 51
118.5141024073318
  0
LINE
  5
9C5
330
82E
100
AcDbEntity
  8
0
  6
Continuous
 62
     7
370
    15
100
AcDbLine
 10
2436.243589175852
 20
1784.936723379446
 30
0.0
 11
2436.243589175852
 21
1785.753264230115
 31
0.0
  0
LWPOLYLINE
  5
9C6
330
82E
100
AcDbEntity
  8
0
  6
Continuous
 62
     7
370
    15
100
AcDbPolyline
 90
        3
 70
   128
 43
0.0
 10
2436.243589175852
 20
1784.936723379446
 10
2435.766691122984
 20
1784.524696199319
 10
2435.715994267648
 20
1784.446943593138
  0
LINE
  5
9C7
330
82E
100
AcDbEntity
  8
0
  6
Continuous
 62
     7
370
    15
100
AcDbLine
 10
2441.405471763663
 20
1787.916614768617
 30
0.0
 11
2441.405471763663
 21
1788.733155619287
 31
0.0
  0
LINE
  5
9C8
330
82E
100
AcDbEntity
  8
0
  6
Continuous
 62
     7
370
    15
100
AcDbLine
 10
2441.405471763663
 20
1787.916614768617
 30
0.0
 11
2436.243589175852
 21
1784.936723379446
 31
0.0
  0
ARC
  5
9C9
330
82E
100
AcDbEntity
  8
0
  6
Continuous
 62
     7
370
    15
100
AcDbCircle
 10
2442.953075840031
 20
1785.067943929055
 30
0.0
 40
3.241913621514793
100
AcDbArc
 50
57.8987482300763
 51
118.5140097348421
  0
LINE
  5
9CA
330
82E
100
AcDbEntity
  8
0
  6
Continuous
 62
     7
370
    15
100
AcDbLine
 10
2450.38572711766
 20
1793.10080583587
 30
0.0
 11
2450.38572711766
 21
1793.917346686539
 31
0.0
  0
LWPOLYLINE
  5
9CB
330
82E
100
AcDbEntity
  8
0
  6
Continuous
 62
     7
370
    15
100
AcDbPolyline
 90
        3
 70
   128
 43
0.0
 10
2450.38572711766
 20
1793.10080583587
 10
2449.908823796435
 20
1792.688775614386
 10
2449.858132209457
 20
1792.611026049563
  0
LINE
  5
9CC
330
82E
100
AcDbEntity
  8
0
  6
Continuous
 62
     7
370
    15
100
AcDbLine
 10
2455.547604437115
 20
1796.080694183684
 30
0.0
 11
2455.547604437115
 21
1796.897235034354
 31
0.0
  0
LINE
  5
9CD
330
82E
100
AcDbEntity
  8
0
  6
Continuous
 62
     7
370
    15
100
AcDbLine
 10
2455.547604437115
 20
1796.080694183684
 30
0.0
 11
2450.38572711766
 21
1793.10080583587
 31
0.0
  0
ARC
  5
9CE
330
82E
100
AcDbEntity
  8
0
  6
Continuous
 62
     7
370
    15
100
AcDbCircle
 10
2457.095210236253
 20
1793.232078358638
 30
0.0
 40
3.241866102760509
100
AcDbArc
 50
57.89825732038927
 51
118.5145006445421
  0
LINE
  5
9CF
330
82E
100
AcDbEntity
  8
0
  6
Continuous
 62
     7
370
    15
100
AcDbLine
 10
2464.527859791111
 20
1801.264885250937
 30
0.0
 11
2464.527859791111
 21
1802.081426101606
 31
0.0
  0
LWPOLYLINE
  5
9D0
330
82E
100
AcDbEntity
  8
0
  6
Continuous
 62
     7
370
    15
100
AcDbPolyline
 90
        3
 70
   128
 43
0.0
 10
2464.527859791111
 20
1801.264885250937
 10
2464.050961738243
 20
1800.85285807081
 10
2464.000264882907
 20
1800.77510546463
  0
LINE
  5
9D1
330
82E
100
AcDbEntity
  8
0
  6
Continuous
 62
     7
370
    15
100
AcDbLine
 10
2469.689737110566
 20
1804.244773598751
 30
0.0
 11
2469.689737110566
 21
1805.061314449421
 31
0.0
  0
LINE
  5
9D2
330
82E
100
AcDbEntity
  8
0
  6
Continuous
 62
     7
370
    15
100
AcDbLine
 10
2469.689737110566
 20
1804.244773598751
 30
0.0
 11
2464.527859791111
 21
1801.264885250937
 31
0.0
  0
ARC
  5
9D3
330
82E
100
AcDbEntity
  8
0
  6
Continuous
 62
     7
370
    15
100
AcDbCircle
 10
2471.237346388321
 20
1801.396098677213
 30
0.0
 40
3.24191969135506
100
AcDbArc
 50
57.89881412947114
 51
118.5140560715642
  0
LINE
  5
9D4
330
82E
100
AcDbEntity
  8
0
  6
Continuous
 62
     7
370
    15
100
AcDbLine
 10
2478.669997732919
 20
1809.428967707361
 30
0.0
 11
2478.669997732919
 21
1810.24550855803
 31
0.0
  0
LWPOLYLINE
  5
9D5
330
82E
100
AcDbEntity
  8
0
  6
Continuous
 62
     7
370
    15
100
AcDbPolyline
 90
        3
 70
   128
 43
0.0
 10
2478.669997732919
 20
1809.428967707361
 10
2478.193094411694
 20
1809.016937485877
 10
2478.142402824715
 20
1808.939187921054
  0
LINE
  5
9D6
330
82E
100
AcDbEntity
  8
0
  6
Continuous
 62
     7
370
    15
100
AcDbLine
 10
2483.831875052374
 20
1812.408856055176
 30
0.0
 11
2483.831875052374
 21
1813.225396905845
 31
0.0
  0
LINE
  5
9D7
330
82E
100
AcDbEntity
  8
0
  6
Continuous
 62
     7
370
    15
100
AcDbLine
 10
2483.831875052374
 20
1812.408856055176
 30
0.0
 11
2478.669997732919
 21
1809.428967707361
 31
0.0
  0
ARC
  5
9D8
330
82E
100
AcDbEntity
  8
0
  6
Continuous
 62
     7
370
    15
100
AcDbCircle
 10
2485.379480851512
 20
1809.560240230129
 30
0.0
 40
3.241866102760863
100
AcDbArc
 50
57.89825732038927
 51
118.5145006445421
  0
LINE
  5
9D9
330
82E
100
AcDbEntity
  8
0
  6
Continuous
 62
     7
370
    15
100
AcDbLine
 10
2492.812130406371
 20
1817.593047122428
 30
0.0
 11
2492.812130406371
 21
1818.409587973097
 31
0.0
  0
LWPOLYLINE
  5
9DA
330
82E
100
AcDbEntity
  8
0
  6
Continuous
 62
     7
370
    15
100
AcDbPolyline
 90
        3
 70
   128
 43
0.0
 10
2492.812130406371
 20
1817.593047122428
 10
2492.335232353502
 20
1817.181019942301
 10
2492.284538132345
 20
1817.1032688568
  0
LINE
  5
9DB
330
82E
100
AcDbEntity
  8
0
  6
Continuous
 62
     7
370
    15
100
AcDbLine
 10
2497.974010360004
 20
1820.572936990921
 30
0.0
 11
2497.974010360004
 21
1821.389477841591
 31
0.0
  0
LINE
  5
9DC
330
82E
100
AcDbEntity
  8
0
  6
Continuous
 62
     7
370
    15
100
AcDbLine
 10
2497.974010360004
 20
1820.572936990921
 30
0.0
 11
2492.812130406371
 21
1817.593047122428
 31
0.0
  0
ARC
  5
9DD
330
82E
100
AcDbEntity
  8
0
  6
Continuous
 62
     7
370
    15
100
AcDbCircle
 10
2499.521617898449
 20
1817.724291618057
 30
0.0
 40
3.241892896656612
100
AcDbArc
 50
57.89853572319275
 51
118.5142783598266
  0
LINE
  5
9DE
330
82E
100
AcDbEntity
  8
0
  6
Continuous
 62
     7
370
    15
100
AcDbLine
 10
2506.954265714
 20
1825.757128058174
 30
0.0
 11
2506.954265714
 21
1826.573668908843
 31
0.0
  0
LWPOLYLINE
  5
9DF
330
82E
100
AcDbEntity
  8
0
  6
Continuous
 62
     7
370
    15
100
AcDbPolyline
 90
        3
 70
   128
 43
0.0
 10
2506.954265714
 20
1825.757128058174
 10
2506.477367661132
 20
1825.345100878047
 10
2506.426673439975
 20
1825.267349792545
  0
LINE
  5
9E0
330
82E
100
AcDbEntity
  8
0
  6
Continuous
 62
     7
370
    15
100
AcDbLine
 10
2512.116146984722
 20
1828.737018687006
 30
0.0
 11
2512.116146984722
 21
1829.553559537676
 31
0.0
  0
LINE
  5
9E1
330
82E
100
AcDbEntity
  8
0
  6
Continuous
 62
     7
370
    15
100
AcDbLine
 10
2512.116146984722
 20
1828.737018687006
 30
0.0
 11
2506.954265714
 21
1825.757128058174
 31
0.0
  0
ARC
  5
9E2
330
82E
100
AcDbEntity
  8
0
  6
Continuous
 62
     7
370
    15
100
AcDbCircle
 10
2513.663753589247
 20
1825.888386035862
 30
0.0
 40
3.241881272275647
100
AcDbArc
 50
57.89841483468037
 51
118.5143711893071
  0
LINE
  5
9E3
330
82E
100
AcDbEntity
  8
0
  6
Continuous
 62
     7
370
    15
100
AcDbLine
 10
2521.096402338719
 20
1833.921209754259
 30
0.0
 11
2521.096402338719
 21
1834.737750604928
 31
0.0
  0
LWPOLYLINE
  5
9E4
330
82E
100
AcDbEntity
  8
0
  6
Continuous
 62
     7
370
    15
100
AcDbPolyline
 90
        3
 70
   128
 43
0.0
 10
2521.096402338719
 20
1833.921209754259
 10
2520.619502968761
 20
1833.509181813793
 10
2520.568810064693
 20
1833.43143148863
  0
LINE
  5
9E5
330
82E
100
AcDbEntity
  8
0
  6
Continuous
 62
     7
370
    15
100
AcDbLine
 10
2526.258282292352
 20
1836.901099622752
 30
0.0
 11
2526.258282292352
 21
1837.717640473421
 31
0.0
  0
LINE
  5
9E6
330
82E
100
AcDbEntity
  8
0
  6
Continuous
 62
     7
370
    15
100
AcDbLine
 10
2526.258282292352
 20
1836.901099622752
 30
0.0
 11
2521.096402338719
 21
1833.921209754259
 31
0.0
  0
ARC
  5
9E7
330
82E
100
AcDbEntity
  8
0
  6
Continuous
 62
     7
370
    15
100
AcDbCircle
 10
2527.805889331704
 20
1834.052459584623
 30
0.0
 40
3.241887970779554
100
AcDbArc
 50
57.89848443545433
 51
118.5143156180577
  0
LINE
  5
9E8
330
82E
100
AcDbEntity
  8
0
  6
Continuous
 62
     8
370
    15
100
AcDbLine
 10
1831.490514550251
 20
1432.269240395952
 30
0.0
 11
1832.339183491866
 21
1432.759166547575
 31
0.0
  0
LINE
  5
9E9
330
82E
100
AcDbEntity
  8
0
  6
Continuous
 62
     8
370
    15
100
AcDbLine
 10
1831.490514550251
 20
1431.779315790492
 30
0.0
 11
1832.763517962674
 21
1432.514205017927
 31
0.0
  0
LINE
  5
9EA
330
82E
100
AcDbEntity
  8
0
  6
Continuous
 62
     8
370
    15
100
AcDbLine
 10
1829.722747307525
 20
1431.575014964128
 30
0.0
 11
1830.78341489715
 21
1432.187325330226
 31
0.0
  0
ENDBLK
  5
830
330
82E
100
AcDbEntity
  8
0
100
AcDbBlockEnd
  0
ENDSEC
  0
SECTION
  2
ENTITIES
  0
INSERT
  5
73A
330
1F
100
AcDbEntity
  8
0
100
AcDbBlockReference
  2
1
 10
0.0
 20
0.0
 30
0.0
  0
INSERT
  5
74B
330
1F
100
AcDbEntity
  8
0
100
AcDbBlockReference
  2
2
 10
0.0
 20
0.0
 30
0.0
  0
INSERT
  5
82D
330
1F
100
AcDbEntity
  8
0
100
AcDbBlockReference
  2
3
 10
0.0
 20
0.0
 30
0.0
  0
INSERT
  5
9EB
330
1F
100
AcDbEntity
  8
0
100
AcDbBlockReference
  2
4
 10
945.789938708388
 20
210.5411279026378
 30
0.0
  0
ENDSEC
  0
SECTION
  2
OBJECTS
  0
DICTIONARY
  5
C
330
0
100
AcDbDictionary
281
     1
  3
ACAD_COLOR
350
6B
  3
ACAD_GROUP
350
D
  3
ACAD_LAYOUT
350
1A
  3
ACAD_MATERIAL
350
6A
  3
ACAD_MLEADERSTYLE
350
12D
  3
ACAD_MLINESTYLE
350
17
  3
ACAD_PLOTSETTINGS
350
19
  3
ACAD_PLOTSTYLENAME
350
E
  3
ACAD_SCALELIST
350
10C
  3
ACAD_TABLESTYLE
350
7E
  3
ACAD_VISUALSTYLE
350
EF
  3
ACDB_RECOMPOSE_DATA
350
15D
  3
AcDbVariableDictionary
350
5E
  3
DWGPROPS
350
A3A
  0
DICTIONARY
  5
13C
330
10
100
AcDbDictionary
280
     1
281
     1
  3
ADSK_XREC_LAYER_RECONCILED
360
9EC
  0
DICTIONARY
  5
A13
330
723
100
AcDbDictionary
280
     1
281
     1
  0
DICTIONARY
  5
A2A
330
73B
100
AcDbDictionary
280
     1
281
     1
  0
DICTIONARY
  5
6B
102
{ACAD_REACTORS
330
C
102
}
330
C
100
AcDbDictionary
281
     1
  0
DICTIONARY
  5
D
102
{ACAD_REACTORS
330
C
102
}
330
C
100
AcDbDictionary
281
     1
  0
DICTIONARY
  5
1A
102
{ACAD_REACTORS
330
C
102
}
330
C
100
AcDbDictionary
281
     1
  3
Layout1
350
D3
  3
Layout2
350
D7
  3
Model
350
22
  0
DICTIONARY
  5
6A
102
{ACAD_REACTORS
330
C
102
}
330
C
100
AcDbDictionary
281
     1
  3
ByBlock
350
ED
  3
ByLayer
350
EC
  3
Global
350
EE
  0
DICTIONARY
  5
12D
102
{ACAD_REACTORS
330
C
102
}
330
C
100
AcDbDictionary
281
     1
  3
Annotative
350
13B
  3
Standard
350
12E
  0
DICTIONARY
  5
17
102
{ACAD_REACTORS
330
C
102
}
330
C
100
AcDbDictionary
281
     1
  3
Standard
350
18
  0
DICTIONARY
  5
19
102
{ACAD_REACTORS
330
C
102
}
330
C
100
AcDbDictionary
281
     1
  0
ACDBDICTIONARYWDFLT
  5
E
102
{ACAD_REACTORS
330
C
102
}
330
C
100
AcDbDictionary
281
     1
  3
Normal
350
F
100
AcDbDictionaryWithDefault
340
F
  0
DICTIONARY
  5
10C
102
{ACAD_REACTORS
330
C
102
}
330
C
100
AcDbDictionary
281
     1
  3
A0
350
10D
  3
A1
350
188
  3
A2
350
189
  3
A3
350
18A
  3
A4
350
18B
  3
A5
350
18C
  3
A6
350
18D
  3
A7
350
18E
  3
A8
350
18F
  3
A9
350
190
  3
B0
350
191
  3
B1
350
192
  3
B2
350
193
  3
B3
350
194
  3
B4
350
195
  3
B5
350
196
  3
B6
350
197
  3
B7
350
198
  3
B8
350
199
  3
B9
350
19A
  3
C0
350
19B
  3
C1
350
19C
  3
C2
350
19D
  3
C3
350
19E
  3
C4
350
19F
  3
C5
350
1A0
  3
C6
350
1A1
  3
C7
350
1A2
  3
C8
350
1A3
  3
C9
350
1A4
  3
D0
350
1A5
  3
D1
350
1A6
  3
D2
350
1A7
  0
DICTIONARY
  5
7E
102
{ACAD_REACTORS
330
C
102
}
330
C
100
AcDbDictionary
281
     1
  3
Standard
350
7F
  0
DICTIONARY
  5
EF
102
{ACAD_REACTORS
330
C
102
}
330
C
100
AcDbDictionary
281
     1
  3
2dWireframe
350
F5
  3
3D Hidden
350
F7
  3
3dWireframe
350
F6
  3
Basic
350
F4
  3
Brighten
350
FB
  3
ColorChange
350
FF
  3
Conceptual
350
F8
  3
Dim
350
FA
  3
Facepattern
350
FE
  3
Flat
350
F0
  3
FlatWithEdges
350
F1
  3
Gouraud
350
F2
  3
GouraudWithEdges
350
F3
  3
Linepattern
350
FD
  3
Realistic
350
F9
  3
Thicken
350
FC
  0
XRECORD
  5
15D
102
{ACAD_REACTORS
330
C
102
}
330
C
100
AcDbXrecord
280
     1
 90
        1
330
7F
  0
DICTIONARY
  5
5E
102
{ACAD_REACTORS
330
C
102
}
330
C
100
AcDbDictionary
281
     1
  3
CANNOSCALE
350
146
  3
CMLEADERSTYLE
350
145
  3
CTABLESTYLE
350
84
  3
DIMASSOC
350
5F
  3
HIDETEXT
350
63
  3
INDEXCTL
350
A36
  3
LIGHTINGUNITS
350
A34
  3
MSLTSCALE
350
A33
  3
PSOLHEIGHT
350
A38
  3
PSOLWIDTH
350
A37
  3
SORTENTS
350
A35
  0
XRECORD
  5
A3A
102
{ACAD_REACTORS
330
C
102
}
330
C
100
AcDbXrecord
280
     1
  1
DWGPROPS COOKIE
  2

  3

  4

  6

  7

  8
orhan kara
  9

300
=
301
=
302
=
303
=
304
=
305
=
306
=
307
=
308
=
309
=
 40
0.0041315509259259
 41
2458488.492316968
 42
2459082.584581713
  1

 90
        0
  0
XRECORD
  5
9EC
102
{ACAD_REACTORS
330
13C
102
}
330
13C
100
AcDbXrecord
280
     1
290
     1
  0
LAYOUT
  5
D3
102
{ACAD_XDICTIONARY
360
A3E
102
}
102
{ACAD_REACTORS
330
1A
102
}
330
1A
100
AcDbPlotSettings
  1

  2
C:\Documents and Settings\basas\Application Data\Autodesk\AutoCAD 2005\R16.1\enu\plotters\Default Windows System Printer.pc3
  4

  6

 40
0.0
 41
0.0
 42
0.0
 43
0.0
 44
0.0
 45
0.0
 46
0.0
 47
0.0
 48
0.0
 49
0.0
140
0.0
141
0.0
142
1.0
143
1.0
 70
   688
 72
     0
 73
     0
 74
     5
  7

 75
    16
147
1.0
148
0.0
149
0.0
100
AcDbLayout
  1
Layout1
 70
     1
 71
     1
 10
0.0
 20
0.0
 11
12.0
 21
9.0
 12
0.0
 22
0.0
 32
0.0
 14
0.0
 24
0.0
 34
0.0
 15
0.0
 25
0.0
 35
0.0
146
0.0
 13
0.0
 23
0.0
 33
0.0
 16
1.0
 26
0.0
 36
0.0
 17
0.0
 27
1.0
 37
0.0
 76
     0
330
D2
  0
LAYOUT
  5
D7
102
{ACAD_XDICTIONARY
360
A40
102
}
102
{ACAD_REACTORS
330
1A
102
}
330
1A
100
AcDbPlotSettings
  1

  2
C:\Documents and Settings\basas\Application Data\Autodesk\AutoCAD 2005\R16.1\enu\plotters\Default Windows System Printer.pc3
  4

  6

 40
0.0
 41
0.0
 42
0.0
 43
0.0
 44
0.0
 45
0.0
 46
0.0
 47
0.0
 48
0.0
 49
0.0
140
0.0
141
0.0
142
1.0
143
1.0
 70
   688
 72
     0
 73
     0
 74
     5
  7

 75
    16
147
1.0
148
0.0
149
0.0
100
AcDbLayout
  1
Layout2
 70
     1
 71
     2
 10
0.0
 20
0.0
 11
12.0
 21
9.0
 12
0.0
 22
0.0
 32
0.0
 14
0.0
 24
0.0
 34
0.0
 15
0.0
 25
0.0
 35
0.0
146
0.0
 13
0.0
 23
0.0
 33
0.0
 16
1.0
 26
0.0
 36
0.0
 17
0.0
 27
1.0
 37
0.0
 76
     0
330
D6
  0
LAYOUT
  5
22
102
{ACAD_XDICTIONARY
360
A3B
102
}
102
{ACAD_REACTORS
330
1A
102
}
330
1A
100
AcDbPlotSettings
  1

  2
none_device
  4
ISO_A4_(210.00_x_297.00_MM)
  6

 40
7.5
 41
20.0
 42
7.5
 43
20.0
 44
210.0
 45
297.0
 46
11.54999923706054
 47
-13.65000009536743
 48
0.0
 49
0.0
140
0.0
141
0.0
142
1.0
143
8.704084754739808
 70
 11952
 72
     1
 73
     0
 74
     0
  7

 75
     0
147
0.1148885871608098
148
0.0
149
0.0
100
AcDbLayout
  1
Model
 70
     1
 71
     0
 10
0.0
 20
0.0
 11
12.0
 21
9.0
 12
0.0
 22
0.0
 32
0.0
 14
0.0
 24
0.0
 34
0.0
 15
0.0
 25
0.0
 35
0.0
146
0.0
 13
0.0
 23
0.0
 33
0.0
 16
1.0
 26
0.0
 36
0.0
 17
0.0
 27
1.0
 37
0.0
 76
     0
330
1F
331
EA
1001
ACAD_PSEXT
1000
None
1000
None
1000
Not applicable
1000
The layout will not be plotted unless a new plotter configuration name is selected.
1070
     0
  0
MATERIAL
  5
ED
102
{ACAD_XDICTIONARY
360
A44
102
}
102
{ACAD_REACTORS
330
6A
102
}
330
6A
100
AcDbMaterial
  1
ByBlock
  0
MATERIAL
  5
EC
102
{ACAD_XDICTIONARY
360
A42
102
}
102
{ACAD_REACTORS
330
6A
102
}
330
6A
100
AcDbMaterial
  1
ByLayer
  0
MATERIAL
  5
EE
102
{ACAD_XDICTIONARY
360
173
102
}
102
{ACAD_REACTORS
330
6A
102
}
330
6A
100
AcDbMaterial
  1
Global
 43
0.0007999999797903
 43
0.0
 43
0.0
 43
0.0
 43
0.0
 43
0.0007999999797903
 43
0.0
 43
0.0
 43
0.0
 43
0.0
 43
1.0
 43
0.0
 43
0.0
 43
0.0
 43
0.0
 43
1.0
 49
0.0007999999797903
 49
0.0
 49
0.0
 49
0.0
 49
0.0
 49
0.0007999999797903
 49
0.0
 49
0.0
 49
0.0
 49
0.0
 49
1.0
 49
0.0
 49
0.0
 49
0.0
 49
0.0
 49
1.0
142
0.0007999999797903
142
0.0
142
0.0
142
0.0
142
0.0
142
0.0007999999797903
142
0.0
142
0.0
142
0.0
142
0.0
142
1.0
142
0.0
142
0.0
142
0.0
142
0.0
142
1.0
144
0.0007999999797903
144
0.0
144
0.0
144
0.0
144
0.0
144
0.0007999999797903
144
0.0
144
0.0
144
0.0
144
0.0
144
1.0
144
0.0
144
0.0
144
0.0
144
0.0
144
1.0
1001
ACAD
1070
    -1
1070
     3
1070
     0
1000

1071
        0
1070
     0
  0
MLEADERSTYLE
  5
13B
102
{ACAD_REACTORS
330
12D
102
}
330
12D
100
AcDbMLeaderStyle
170
     2
171
     1
172
     0
 90
        2
 40
0.0
 41
0.0
173
     1
 91
-1056964608
340
14
 92
       -2
290
     1
 42
2.0
291
     1
 43
8.0
  3
Standard
 44
4.0
300

342
11
174
     1
178
     1
175
     1
176
     0
 93
-1056964608
 45
4.0
292
     0
297
     0
 46
4.0
 94
-1056964608
 47
1.0
 49
1.0
140
1.0
293
     1
141
0.0
294
     1
177
     0
142
1.0
295
     0
296
     1
143
3.75
1001
ACAD_MLEADERVER
1070
     2
  0
MLEADERSTYLE
  5
12E
102
{ACAD_REACTORS
330
12D
102
}
330
12D
100
AcDbMLeaderStyle
170
     2
171
     1
172
     0
 90
        2
 40
0.0
 41
0.0
173
     1
 91
-1056964608
340
14
 92
       -2
290
     1
 42
2.0
291
     1
 43
8.0
  3
Standard
 44
4.0
300

342
11
174
     1
178
     1
175
     1
176
     0
 93
-1056964608
 45
4.0
292
     0
297
     0
 46
4.0
 94
-1056964608
 47
1.0
 49
1.0
140
1.0
293
     1
141
0.0
294
     1
177
     0
142
1.0
295
     0
296
     0
143
3.75
1001
ACAD_MLEADERVER
1070
     2
  0
MLINESTYLE
  5
18
102
{ACAD_REACTORS
330
17
102
}
330
17
100
AcDbMlineStyle
  2
STANDARD
 70
     0
  3

 62
   256
 51
90.0
 52
90.0
 71
     2
 49
0.5
 62
   256
  6
BYLAYER
 49
-0.5
 62
   256
  6
BYLAYER
  0
ACDBPLACEHOLDER
  5
F
102
{ACAD_REACTORS
330
E
102
}
330
E
  0
SCALE
  5
10D
102
{ACAD_REACTORS
330
10C
102
}
330
10C
100
AcDbScale
 70
     0
300
1:1
140
1.0
141
1.0
290
     1
  0
SCALE
  5
188
102
{ACAD_REACTORS
330
10C
102
}
330
10C
100
AcDbScale
 70
     0
300
1:2
140
1.0
141
2.0
290
     0
  0
SCALE
  5
189
102
{ACAD_REACTORS
330
10C
102
}
330
10C
100
AcDbScale
 70
     0
300
1:4
140
1.0
141
4.0
290
     0
  0
SCALE
  5
18A
102
{ACAD_REACTORS
330
10C
102
}
330
10C
100
AcDbScale
 70
     0
300
1:5
140
1.0
141
5.0
290
     0
  0
SCALE
  5
18B
102
{ACAD_REACTORS
330
10C
102
}
330
10C
100
AcDbScale
 70
     0
300
1:8
140
1.0
141
8.0
290
     0
  0
SCALE
  5
18C
102
{ACAD_REACTORS
330
10C
102
}
330
10C
100
AcDbScale
 70
     0
300
1:10
140
1.0
141
10.0
290
     0
  0
SCALE
  5
18D
102
{ACAD_REACTORS
330
10C
102
}
330
10C
100
AcDbScale
 70
     0
300
1:16
140
1.0
141
16.0
290
     0
  0
SCALE
  5
18E
102
{ACAD_REACTORS
330
10C
102
}
330
10C
100
AcDbScale
 70
     0
300
1:20
140
1.0
141
20.0
290
     0
  0
SCALE
  5
18F
102
{ACAD_REACTORS
330
10C
102
}
330
10C
100
AcDbScale
 70
     0
300
1:30
140
1.0
141
30.0
290
     0
  0
SCALE
  5
190
102
{ACAD_REACTORS
330
10C
102
}
330
10C
100
AcDbScale
 70
     0
300
1:40
140
1.0
141
40.0
290
     0
  0
SCALE
  5
191
102
{ACAD_REACTORS
330
10C
102
}
330
10C
100
AcDbScale
 70
     0
300
1:50
140
1.0
141
50.0
290
     0
  0
SCALE
  5
192
102
{ACAD_REACTORS
330
10C
102
}
330
10C
100
AcDbScale
 70
     0
300
1:100
140
1.0
141
100.0
290
     0
  0
SCALE
  5
193
102
{ACAD_REACTORS
330
10C
102
}
330
10C
100
AcDbScale
 70
     0
300
2:1
140
2.0
141
1.0
290
     0
  0
SCALE
  5
194
102
{ACAD_REACTORS
330
10C
102
}
330
10C
100
AcDbScale
 70
     0
300
4:1
140
4.0
141
1.0
290
     0
  0
SCALE
  5
195
102
{ACAD_REACTORS
330
10C
102
}
330
10C
100
AcDbScale
 70
     0
300
8:1
140
8.0
141
1.0
290
     0
  0
SCALE
  5
196
102
{ACAD_REACTORS
330
10C
102
}
330
10C
100
AcDbScale
 70
     0
300
10:1
140
10.0
141
1.0
290
     0
  0
SCALE
  5
197
102
{ACAD_REACTORS
330
10C
102
}
330
10C
100
AcDbScale
 70
     0
300
100:1
140
100.0
141
1.0
290
     0
  0
SCALE
  5
198
102
{ACAD_REACTORS
330
10C
102
}
330
10C
100
AcDbScale
 70
     0
300
1/128" = 1'-0"
140
0.0078125
141
12.0
290
     0
  0
SCALE
  5
199
102
{ACAD_REACTORS
330
10C
102
}
330
10C
100
AcDbScale
 70
     0
300
1/64" = 1'-0"
140
0.015625
141
12.0
290
     0
  0
SCALE
  5
19A
102
{ACAD_REACTORS
330
10C
102
}
330
10C
100
AcDbScale
 70
     0
300
1/32" = 1'-0"
140
0.03125
141
12.0
290
     0
  0
SCALE
  5
19B
102
{ACAD_REACTORS
330
10C
102
}
330
10C
100
AcDbScale
 70
     0
300
1/16" = 1'-0"
140
0.0625
141
12.0
290
     0
  0
SCALE
  5
19C
102
{ACAD_REACTORS
330
10C
102
}
330
10C
100
AcDbScale
 70
     0
300
3/32" = 1'-0"
140
0.09375
141
12.0
290
     0
  0
SCALE
  5
19D
102
{ACAD_REACTORS
330
10C
102
}
330
10C
100
AcDbScale
 70
     0
300
1/8" = 1'-0"
140
0.125
141
12.0
290
     0
  0
SCALE
  5
19E
102
{ACAD_REACTORS
330
10C
102
}
330
10C
100
AcDbScale
 70
     0
300
3/16" = 1'-0"
140
0.1875
141
12.0
290
     0
  0
SCALE
  5
19F
102
{ACAD_REACTORS
330
10C
102
}
330
10C
100
AcDbScale
 70
     0
300
1/4" = 1'-0"
140
0.25
141
12.0
290
     0
  0
SCALE
  5
1A0
102
{ACAD_REACTORS
330
10C
102
}
330
10C
100
AcDbScale
 70
     0
300
3/8" = 1'-0"
140
0.375
141
12.0
290
     0
  0
SCALE
  5
1A1
102
{ACAD_REACTORS
330
10C
102
}
330
10C
100
AcDbScale
 70
     0
300
1/2" = 1'-0"
140
0.5
141
12.0
290
     0
  0
SCALE
  5
1A2
102
{ACAD_REACTORS
330
10C
102
}
330
10C
100
AcDbScale
 70
     0
300
3/4" = 1'-0"
140
0.75
141
12.0
290
     0
  0
SCALE
  5
1A3
102
{ACAD_REACTORS
330
10C
102
}
330
10C
100
AcDbScale
 70
     0
300
1" = 1'-0"
140
1.0
141
12.0
290
     0
  0
SCALE
  5
1A4
102
{ACAD_REACTORS
330
10C
102
}
330
10C
100
AcDbScale
 70
     0
300
1-1/2" = 1'-0"
140
1.5
141
12.0
290
     0
  0
SCALE
  5
1A5
102
{ACAD_REACTORS
330
10C
102
}
330
10C
100
AcDbScale
 70
     0
300
3" = 1'-0"
140
3.0
141
12.0
290
     0
  0
SCALE
  5
1A6
102
{ACAD_REACTORS
330
10C
102
}
330
10C
100
AcDbScale
 70
     0
300
6" = 1'-0"
140
6.0
141
12.0
290
     0
  0
SCALE
  5
1A7
102
{ACAD_REACTORS
330
10C
102
}
330
10C
100
AcDbScale
 70
     0
300
1'-0" = 1'-0"
140
12.0
141
12.0
290
     0
  0
TABLESTYLE
  5
7F
102
{ACAD_XDICTIONARY
360
162
102
}
102
{ACAD_REACTORS
330
7E
102
}
330
7E
100
AcDbTableStyle
  3
Standard
 70
     0
 71
     0
 40
1.5
 41
1.5
280
     0
281
     0
  7
Standard
140
4.5
170
     2
 62
     0
 63
     7
283
     0
274
    -2
284
     1
 64
     0
275
    -2
285
     1
 65
     0
276
    -2
286
     1
 66
     0
277
    -2
287
     1
 67
     0
278
    -2
288
     1
 68
     0
279
    -2
289
     1
 69
     0
  7
Standard
140
6.0
170
     5
 62
     0
 63
     7
283
     0
274
    -2
284
     1
 64
     0
275
    -2
285
     1
 65
     0
276
    -2
286
     1
 66
     0
277
    -2
287
     1
 67
     0
278
    -2
288
     1
 68
     0
279
    -2
289
     1
 69
     0
  7
Standard
140
4.5
170
     5
 62
     0
 63
     7
283
     0
274
    -2
284
     1
 64
     0
275
    -2
285
     1
 65
     0
276
    -2
286
     1
 66
     0
277
    -2
287
     1
 67
     0
278
    -2
288
     1
 68
     0
279
    -2
289
     1
 69
     0
  0
VISUALSTYLE
  5
F5
102
{ACAD_REACTORS
330
EF
102
}
330
EF
100
AcDbVisualStyle
  2
2dWireframe
 70
     4
 71
     0
 72
     2
 73
     1
 90
        0
 40
-0.6
 41
-30.0
 62
     5
 63
     7
 74
     1
 91
        4
 64
     7
 65
   257
 75
     1
175
     1
 42
1.0
 92
        0
 66
   257
 43
1.0
 76
     1
 77
     6
 78
     2
 67
     7
 79
     5
170
     0
171
     0
290
     0
174
     0
 93
        1
 44
0.0
173
     0
291
     0
 45
0.0
1001
ACAD
1000
AcDbSavedByObjectVersion
1070
     0
  0
VISUALSTYLE
  5
F7
102
{ACAD_REACTORS
330
EF
102
}
330
EF
100
AcDbVisualStyle
  2
3D Hidden
 70
     6
 71
     1
 72
     2
 73
     2
 90
        0
 40
-0.6
 41
-30.0
 62
     5
 63
     7
 74
     2
 91
        2
 64
     7
 65
   257
 75
     2
175
     1
 42
40.0
 92
        0
 66
   257
 43
1.0
 76
     1
 77
     6
 78
     2
 67
     7
 79
     3
170
     0
171
     0
290
     0
174
     0
 93
        1
 44
0.0
173
     0
291
     0
 45
0.0
1001
ACAD
1000
AcDbSavedByObjectVersion
1070
     0
  0
VISUALSTYLE
  5
F6
102
{ACAD_REACTORS
330
EF
102
}
330
EF
100
AcDbVisualStyle
  2
3dWireframe
 70
     5
 71
     0
 72
     2
 73
     1
 90
        0
 40
-0.6
 41
-30.0
 62
     5
 63
     7
 74
     1
 91
        4
 64
     7
 65
   257
 75
     1
175
     1
 42
1.0
 92
        0
 66
   257
 43
1.0
 76
     1
 77
     6
 78
     2
 67
     7
 79
     5
170
     0
171
     0
290
     0
174
     0
 93
        1
 44
0.0
173
     0
291
     0
 45
0.0
1001
ACAD
1000
AcDbSavedByObjectVersion
1070
     0
  0
VISUALSTYLE
  5
F4
102
{ACAD_REACTORS
330
EF
102
}
330
EF
100
AcDbVisualStyle
  2
Basic
 70
     7
 71
     1
 72
     0
 73
     1
 90
        0
 40
-0.6
 41
-30.0
 62
     5
 63
     7
 74
     0
 91
        4
 64
     7
 65
   257
 75
     1
175
     1
 42
1.0
 92
        8
 66
     7
 43
1.0
 76
     1
 77
     6
 78
     2
 67
     7
 79
     5
170
     0
171
     0
290
     0
174
     0
 93
        1
 44
0.0
173
     0
291
     1
 45
0.0
1001
ACAD
1000
AcDbSavedByObjectVersion
1070
     0
  0
VISUALSTYLE
  5
FB
102
{ACAD_REACTORS
330
EF
102
}
330
EF
100
AcDbVisualStyle
  2
Brighten
 70
    12
 71
     2
 72
     2
 73
     1
 90
        0
 40
-0.6
 41
-30.0
 62
     5
 63
     7
 74
     1
 91
        4
 64
     7
 65
   257
 75
     1
175
     1
 42
1.0
 92
        8
 66
     7
 43
1.0
 76
     1
 77
     6
 78
     2
 67
     7
 79
     5
170
     0
171
     0
290
     0
174
     0
 93
        1
 44
50.0
173
     0
291
     1
 45
0.0
1001
ACAD
1000
AcDbSavedByObjectVersion
1070
     0
  0
VISUALSTYLE
  5
FF
102
{ACAD_REACTORS
330
EF
102
}
330
EF
100
AcDbVisualStyle
  2
ColorChange
 70
    16
 71
     2
 72
     2
 73
     3
 90
        0
 40
-0.6
 41
-30.0
 62
     5
 63
     8
 74
     1
 91
        4
 64
     7
 65
   257
 75
     1
175
     1
 42
1.0
 92
        8
 66
     8
 43
1.0
 76
     1
 77
     6
 78
     2
 67
     7
 79
     5
170
     0
171
     0
290
     0
174
     0
 93
        1
 44
0.0
173
     0
291
     1
 45
0.0
1001
ACAD
1000
AcDbSavedByObjectVersion
1070
     0
  0
VISUALSTYLE
  5
F8
102
{ACAD_REACTORS
330
EF
102
}
330
EF
100
AcDbVisualStyle
  2
Conceptual
 70
     9
 71
     3
 72
     2
 73
     1
 90
        0
 40
-0.6
 41
-30.0
 62
     5
 63
     7
 74
     2
 91
        2
 64
     7
 65
   257
 75
     1
175
     1
 42
40.0
 92
        8
 66
     7
 43
1.0
 76
     1
 77
     6
 78
     2
 67
     7
 79
     3
170
     0
171
     0
290
     0
174
     0
 93
        1
 44
0.0
173
     0
291
     0
 45
0.0
1001
ACAD
1000
AcDbSavedByObjectVersion
1070
     0
  0
VISUALSTYLE
  5
FA
102
{ACAD_REACTORS
330
EF
102
}
330
EF
100
AcDbVisualStyle
  2
Dim
 70
    11
 71
     2
 72
     2
 73
     1
 90
        0
 40
-0.6
 41
-30.0
 62
     5
 63
     7
 74
     1
 91
        4
 64
     7
 65
   257
 75
     1
175
     1
 42
1.0
 92
        8
 66
     7
 43
1.0
 76
     1
 77
     6
 78
     2
 67
     7
 79
     5
170
     0
171
     0
290
     0
174
     0
 93
        1
 44
-50.0
173
     0
291
     1
 45
0.0
1001
ACAD
1000
AcDbSavedByObjectVersion
1070
     0
  0
VISUALSTYLE
  5
FE
102
{ACAD_REACTORS
330
EF
102
}
330
EF
100
AcDbVisualStyle
  2
Facepattern
 70
    15
 71
     2
 72
     2
 73
     1
 90
        0
 40
-0.6
 41
-30.0
 62
     5
 63
     7
 74
     1
 91
        4
 64
     7
 65
   257
 75
     1
175
     1
 42
1.0
 92
        8
 66
     7
 43
1.0
 76
     1
 77
     6
 78
     2
 67
     7
 79
     5
170
     0
171
     0
290
     0
174
     0
 93
        1
 44
0.0
173
     0
291
     1
 45
0.0
1001
ACAD
1000
AcDbSavedByObjectVersion
1070
     0
  0
VISUALSTYLE
  5
F0
102
{ACAD_REACTORS
330
EF
102
}
330
EF
100
AcDbVisualStyle
  2
Flat
 70
     0
 71
     2
 72
     1
 73
     1
 90
        2
 40
-0.6
 41
30.0
 62
     5
 63
     7
 74
     0
 91
        4
 64
     7
 65
   257
 75
     1
175
     1
 42
1.0
 92
        8
 66
     7
 43
1.0
 76
     1
 77
     6
 78
     2
 67
     7
 79
     5
170
     0
171
     0
290
     0
174
     0
 93
        1
 44
0.0
173
     0
291
     1
 45
0.0
1001
ACAD
1000
AcDbSavedByObjectVersion
1070
     0
  0
VISUALSTYLE
  5
F1
102
{ACAD_REACTORS
330
EF
102
}
330
EF
100
AcDbVisualStyle
  2
FlatWithEdges
 70
     1
 71
     2
 72
     1
 73
     1
 90
        2
 40
-0.6
 41
30.0
 62
     5
 63
     7
 74
     1
 91
        4
 64
     7
 65
   257
 75
     1
175
     1
 42
1.0
 92
        0
 66
   257
 43
1.0
 76
     1
 77
     6
 78
     2
 67
     7
 79
     5
170
     0
171
     0
290
     0
174
     0
 93
        1
 44
0.0
173
     0
291
     1
 45
0.0
1001
ACAD
1000
AcDbSavedByObjectVersion
1070
     0
  0
VISUALSTYLE
  5
F2
102
{ACAD_REACTORS
330
EF
102
}
330
EF
100
AcDbVisualStyle
  2
Gouraud
 70
     2
 71
     2
 72
     2
 73
     1
 90
        2
 40
-0.6
 41
30.0
 62
     5
 63
     7
 74
     0
 91
        4
 64
     7
 65
   257
 75
     1
175
     1
 42
1.0
 92
        0
 66
     7
 43
1.0
 76
     1
 77
     6
 78
     2
 67
     7
 79
     5
170
     0
171
     0
290
     0
174
     0
 93
        1
 44
0.0
173
     0
291
     1
 45
0.0
1001
ACAD
1000
AcDbSavedByObjectVersion
1070
     0
  0
VISUALSTYLE
  5
F3
102
{ACAD_REACTORS
330
EF
102
}
330
EF
100
AcDbVisualStyle
  2
GouraudWithEdges
 70
     3
 71
     2
 72
     2
 73
     1
 90
        2
 40
-0.6
 41
30.0
 62
     5
 63
     7
 74
     1
 91
        4
 64
     7
 65
   257
 75
     1
175
     1
 42
1.0
 92
        0
 66
   257
 43
1.0
 76
     1
 77
     6
 78
     2
 67
     7
 79
     5
170
     0
171
     0
290
     0
174
     0
 93
        1
 44
0.0
173
     0
291
     1
 45
0.0
1001
ACAD
1000
AcDbSavedByObjectVersion
1070
     0
  0
VISUALSTYLE
  5
FD
102
{ACAD_REACTORS
330
EF
102
}
330
EF
100
AcDbVisualStyle
  2
Linepattern
 70
    14
 71
     2
 72
     2
 73
     1
 90
        0
 40
-0.6
 41
-30.0
 62
     5
 63
     7
 74
     1
 91
        4
 64
     7
 65
   257
 75
     7
175
     7
 42
1.0
 92
        8
 66
     7
 43
1.0
 76
     1
 77
     6
 78
     2
 67
     7
 79
     5
170
     0
171
     0
290
     0
174
     0
 93
        1
 44
0.0
173
     0
291
     1
 45
0.0
1001
ACAD
1000
AcDbSavedByObjectVersion
1070
     0
  0
VISUALSTYLE
  5
F9
102
{ACAD_REACTORS
330
EF
102
}
330
EF
100
AcDbVisualStyle
  2
Realistic
 70
     8
 71
     2
 72
     2
 73
     1
 90
        0
 40
-0.6
 41
-30.0
 62
     5
 63
     7
 74
     1
 91
        0
 64
     7
 65
   257
 75
     1
175
     1
 42
1.0
 92
        8
 66
     8
 43
1.0
 76
     1
 77
     6
 78
     2
 67
     7
 79
     5
170
     0
171
     0
290
     0
174
     0
 93
       13
 44
0.0
173
     0
291
     0
 45
0.0
1001
ACAD
1000
AcDbSavedByObjectVersion
1070
     0
  0
VISUALSTYLE
  5
FC
102
{ACAD_REACTORS
330
EF
102
}
330
EF
100
AcDbVisualStyle
  2
Thicken
 70
    13
 71
     2
 72
     2
 73
     1
 90
        0
 40
-0.6
 41
-30.0
 62
     5
 63
     7
 74
     1
 91
        4
 64
     7
 65
   257
 75
     1
175
     1
 42
1.0
 92
       12
 66
     7
 43
1.0
 76
     1
 77
     6
 78
     2
 67
     7
 79
     5
170
     0
171
     0
290
     0
174
     0
 93
        1
 44
0.0
173
     0
291
     1
 45
0.0
1001
ACAD
1000
AcDbSavedByObjectVersion
1070
     0
  0
DICTIONARYVAR
  5
146
102
{ACAD_REACTORS
330
5E
102
}
330
5E
100
DictionaryVariables
280
     0
  1
1:1
  0
DICTIONARYVAR
  5
145
102
{ACAD_REACTORS
330
5E
102
}
330
5E
100
DictionaryVariables
280
     0
  1
STANDARD
  0
DICTIONARYVAR
  5
84
102
{ACAD_REACTORS
330
5E
102
}
330
5E
100
DictionaryVariables
280
     0
  1
STANDARD
  0
DICTIONARYVAR
  5
5F
102
{ACAD_REACTORS
330
5E
102
}
330
5E
100
DictionaryVariables
280
     0
  1
2
  0
DICTIONARYVAR
  5
63
102
{ACAD_REACTORS
330
5E
102
}
330
5E
100
DictionaryVariables
280
     0
  1
1
  0
DICTIONARYVAR
  5
A36
102
{ACAD_REACTORS
330
5E
102
}
330
5E
100
DictionaryVariables
280
     0
  1
0
  0
DICTIONARYVAR
  5
A34
102
{ACAD_REACTORS
330
5E
102
}
330
5E
100
DictionaryVariables
280
     0
  1
2
  0
DICTIONARYVAR
  5
A33
102
{ACAD_REACTORS
330
5E
102
}
330
5E
100
DictionaryVariables
280
     0
  1
1
  0
DICTIONARYVAR
  5
A38
102
{ACAD_REACTORS
330
5E
102
}
330
5E
100
DictionaryVariables
280
     0
  1
80.000000
  0
DICTIONARYVAR
  5
A37
102
{ACAD_REACTORS
330
5E
102
}
330
5E
100
DictionaryVariables
280
     0
  1
5.000000
  0
DICTIONARYVAR
  5
A35
102
{ACAD_REACTORS
330
5E
102
}
330
5E
100
DictionaryVariables
280
     0
  1
127
  0
DICTIONARY
  5
A3E
330
D3
100
AcDbDictionary
280
     1
281
     1
  3
ACAD_XREC_ROUNDTRIP
360
A3F
  0
DICTIONARY
  5
A40
330
D7
100
AcDbDictionary
280
     1
281
     1
  3
ACAD_XREC_ROUNDTRIP
360
A41
  0
DICTIONARY
  5
A3B
330
22
100
AcDbDictionary
280
     1
281
     1
  3
ACAD_XREC_ROUNDTRIP
360
A3C
  0
DICTIONARY
  5
A44
330
ED
100
AcDbDictionary
280
     1
281
     1
  3
ACAD_XREC_ROUNDTRIP
360
A45
  0
DICTIONARY
  5
A42
330
EC
100
AcDbDictionary
280
     1
281
     1
  3
ACAD_XREC_ROUNDTRIP
360
A43
  0
DICTIONARY
  5
173
330
EE
100
AcDbDictionary
280
     1
281
     1
  3
ACAD_XREC_ROUNDTRIP
360
A46
  3
BUMPTILE
360
175
  3
DIFFUSETILE
360
174
  3
OPACITYTILE
360
176
  3
REFLECTIONTILE
360
177
  0
DICTIONARY
  5
162
330
7F
100
AcDbDictionary
280
     1
281
     1
  3
ACAD_ROUNDTRIP_2008_TABLESTYLE_CELLSTYLEMAP
360
A39
  3
ACAD_XREC_ROUNDTRIP
360
A3D
  0
XRECORD
  5
A3F
102
{ACAD_REACTORS
330
A3E
102
}
330
A3E
100
AcDbXrecord
280
     1
102
SHADEPLOT
 70
     0
102
SHADEPLOTRESLEVEL
 70
     2
102
SHADEPLOTCUSTOMDPI
 70
   300
  0
XRECORD
  5
A41
102
{ACAD_REACTORS
330
A40
102
}
330
A40
100
AcDbXrecord
280
     1
102
SHADEPLOT
 70
     0
102
SHADEPLOTRESLEVEL
 70
     2
102
SHADEPLOTCUSTOMDPI
 70
   300
  0
XRECORD
  5
A3C
102
{ACAD_REACTORS
330
A3B
102
}
330
A3B
100
AcDbXrecord
280
     1
102
SHADEPLOT
 70
     0
102
SHADEPLOTRESLEVEL
 70
     2
102
SHADEPLOTCUSTOMDPI
 70
   300
  0
XRECORD
  5
A45
102
{ACAD_REACTORS
330
A44
102
}
330
A44
100
AcDbXrecord
280
     1
102
MATERIAL
148
0.0
149
0.0
149
0.0
 93
        0
 94
       63
282
     0
 72
     1
 77
     1
171
     1
175
     1
179
     1
273
     0
  0
XRECORD
  5
A43
102
{ACAD_REACTORS
330
A42
102
}
330
A42
100
AcDbXrecord
280
     1
102
MATERIAL
148
0.0
149
0.0
149
0.0
 93
        0
 94
       63
282
     0
 72
     1
 77
     1
171
     1
175
     1
179
     1
273
     0
  0
XRECORD
  5
A46
102
{ACAD_REACTORS
330
173
102
}
330
173
100
AcDbXrecord
280
     1
102
MATERIAL
148
0.0
149
0.0
149
0.0
 93
        0
 94
       63
282
     0
 72
     1
 77
     1
171
     1
175
     1
179
     1
273
     0
  0
XRECORD
  5
175
102
{ACAD_REACTORS
330
173
102
}
330
173
100
AcDbXrecord
280
     1
270
     1
271
     1
  0
XRECORD
  5
174
102
{ACAD_REACTORS
330
173
102
}
330
173
100
AcDbXrecord
280
     1
270
     1
271
     1
  0
XRECORD
  5
176
102
{ACAD_REACTORS
330
173
102
}
330
173
100
AcDbXrecord
280
     1
270
     1
271
     1
  0
XRECORD
  5
177
102
{ACAD_REACTORS
330
173
102
}
330
173
100
AcDbXrecord
280
     1
270
     1
271
     1
  0
CELLSTYLEMAP
  5
A39
102
{ACAD_REACTORS
330
162
102
}
330
162
100
AcDbCellStyleMap
 90
        3
300
CELLSTYLE
  1
TABLEFORMAT_BEGIN
 90
        5
170
     1
 91
        0
 92
    32768
 62
   257
 93
        1
300
CONTENTFORMAT
  1
CONTENTFORMAT_BEGIN
 90
        0
 91
        0
 92
      512
 93
        0
300

 40
0.0
140
1.0
 94
        5
 62
     0
340
11
144
6.0
309
CONTENTFORMAT_END
171
     1
301
MARGIN
  1
CELLMARGIN_BEGIN
 40
1.5
 40
1.5
 40
1.5
 40
1.5
 40
4.5
 40
4.5
309
CELLMARGIN_END
 94
        6
 95
        1
302
GRIDFORMAT
  1
GRIDFORMAT_BEGIN
 90
        0
 91
        1
 62
     0
 92
       -2
340
14
 93
        0
 40
1.125
309
GRIDFORMAT_END
 95
        2
302
GRIDFORMAT
  1
GRIDFORMAT_BEGIN
 90
        0
 91
        1
 62
     0
 92
       -2
340
14
 93
        0
 40
1.125
309
GRIDFORMAT_END
 95
        4
302
GRIDFORMAT
  1
GRIDFORMAT_BEGIN
 90
        0
 91
        1
 62
     0
 92
       -2
340
14
 93
        0
 40
1.125
309
GRIDFORMAT_END
 95
        8
302
GRIDFORMAT
  1
GRIDFORMAT_BEGIN
 90
        0
 91
        1
 62
     0
 92
       -2
340
14
 93
        0
 40
1.125
309
GRIDFORMAT_END
 95
       16
302
GRIDFORMAT
  1
GRIDFORMAT_BEGIN
 90
        0
 91
        1
 62
     0
 92
       -2
340
14
 93
        0
 40
1.125
309
GRIDFORMAT_END
 95
       32
302
GRIDFORMAT
  1
GRIDFORMAT_BEGIN
 90
        0
 91
        1
 62
     0
 92
       -2
340
14
 93
        0
 40
1.125
309
GRIDFORMAT_END
309
TABLEFORMAT_END
  1
CELLSTYLE_BEGIN
 90
        1
 91
        1
300
_TITLE
309
CELLSTYLE_END
300
CELLSTYLE
  1
TABLEFORMAT_BEGIN
 90
        5
170
     1
 91
        0
 92
        0
 62
   257
 93
        1
300
CONTENTFORMAT
  1
CONTENTFORMAT_BEGIN
 90
        0
 91
        0
 92
      512
 93
        0
300

 40
0.0
140
1.0
 94
        5
 62
     0
340
11
144
4.5
309
CONTENTFORMAT_END
171
     1
301
MARGIN
  1
CELLMARGIN_BEGIN
 40
1.5
 40
1.5
 40
1.5
 40
1.5
 40
4.5
 40
4.5
309
CELLMARGIN_END
 94
        6
 95
        1
302
GRIDFORMAT
  1
GRIDFORMAT_BEGIN
 90
        0
 91
        1
 62
     0
 92
       -2
340
14
 93
        0
 40
1.125
309
GRIDFORMAT_END
 95
        2
302
GRIDFORMAT
  1
GRIDFORMAT_BEGIN
 90
        0
 91
        1
 62
     0
 92
       -2
340
14
 93
        0
 40
1.125
309
GRIDFORMAT_END
 95
        4
302
GRIDFORMAT
  1
GRIDFORMAT_BEGIN
 90
        0
 91
        1
 62
     0
 92
       -2
340
14
 93
        0
 40
1.125
309
GRIDFORMAT_END
 95
        8
302
GRIDFORMAT
  1
GRIDFORMAT_BEGIN
 90
        0
 91
        1
 62
     0
 92
       -2
340
14
 93
        0
 40
1.125
309
GRIDFORMAT_END
 95
       16
302
GRIDFORMAT
  1
GRIDFORMAT_BEGIN
 90
        0
 91
        1
 62
     0
 92
       -2
340
14
 93
        0
 40
1.125
309
GRIDFORMAT_END
 95
       32
302
GRIDFORMAT
  1
GRIDFORMAT_BEGIN
 90
        0
 91
        1
 62
     0
 92
       -2
340
14
 93
        0
 40
1.125
309
GRIDFORMAT_END
309
TABLEFORMAT_END
  1
CELLSTYLE_BEGIN
 90
        2
 91
        1
300
_HEADER
309
CELLSTYLE_END
300
CELLSTYLE
  1
TABLEFORMAT_BEGIN
 90
        5
170
     1
 91
        0
 92
        0
 62
   257
 93
        1
300
CONTENTFORMAT
  1
CONTENTFORMAT_BEGIN
 90
        0
 91
        0
 92
      512
 93
        0
300

 40
0.0
140
1.0
 94
        2
 62
     0
340
11
144
4.5
309
CONTENTFORMAT_END
171
     1
301
MARGIN
  1
CELLMARGIN_BEGIN
 40
1.5
 40
1.5
 40
1.5
 40
1.5
 40
4.5
 40
4.5
309
CELLMARGIN_END
 94
        6
 95
        1
302
GRIDFORMAT
  1
GRIDFORMAT_BEGIN
 90
        0
 91
        1
 62
     0
 92
       -2
340
14
 93
        0
 40
1.125
309
GRIDFORMAT_END
 95
        2
302
GRIDFORMAT
  1
GRIDFORMAT_BEGIN
 90
        0
 91
        1
 62
     0
 92
       -2
340
14
 93
        0
 40
1.125
309
GRIDFORMAT_END
 95
        4
302
GRIDFORMAT
  1
GRIDFORMAT_BEGIN
 90
        0
 91
        1
 62
     0
 92
       -2
340
14
 93
        0
 40
1.125
309
GRIDFORMAT_END
 95
        8
302
GRIDFORMAT
  1
GRIDFORMAT_BEGIN
 90
        0
 91
        1
 62
     0
 92
       -2
340
14
 93
        0
 40
1.125
309
GRIDFORMAT_END
 95
       16
302
GRIDFORMAT
  1
GRIDFORMAT_BEGIN
 90
        0
 91
        1
 62
     0
 92
       -2
340
14
 93
        0
 40
1.125
309
GRIDFORMAT_END
 95
       32
302
GRIDFORMAT
  1
GRIDFORMAT_BEGIN
 90
        0
 91
        1
 62
     0
 92
       -2
340
14
 93
        0
 40
1.125
309
GRIDFORMAT_END
309
TABLEFORMAT_END
  1
CELLSTYLE_BEGIN
 90
        3
 91
        2
300
_DATA
309
CELLSTYLE_END
  0
XRECORD
  5
A3D
102
{ACAD_REACTORS
330
162
102
}
330
162
100
AcDbXrecord
280
     1
102
ACAD_ROUNDTRIP_PRE2007_TABLESTYLE
 90
      512
 91
        0
  1

 92
      512
 93
        0
  2

 94
      512
 95
        0
  3

  0
ENDSEC
  0
EOF
