  0
SECTION
  2
HEADER
  9
$ACADVER
  1
AC1015
  9
$ACADMAINTVER
 70
    20
  9
$DWGCODEPAGE
  3
ANSI_1254
  9
$INSBASE
 10
0.0
 20
0.0
 30
0.0
  9
$EXTMIN
 10
1336.808704479553
 20
1624.911350537755
 30
0.0
  9
$EXTMAX
 10
1909.802308522468
 20
1966.800290553895
 30
0.0
  9
$LIMMIN
 10
0.0
 20
0.0
  9
$LIMMAX
 10
420.0
 20
297.0
  9
$ORTHOMODE
 70
     1
  9
$REGENMODE
 70
     1
  9
$FILLMODE
 70
     1
  9
$QTEXTMODE
 70
     0
  9
$MIRRTEXT
 70
     0
  9
$LTSCALE
 40
1.0
  9
$ATTMODE
 70
     1
  9
$TEXTSIZE
 40
2.5
  9
$TRACEWID
 40
1.0
  9
$TEXTSTYLE
  7
Standard
  9
$CLAYER
  8
0
  9
$CELTYPE
  6
ByLayer
  9
$CECOLOR
 62
   256
  9
$CELTSCALE
 40
1.0
  9
$DISPSILH
 70
     0
  9
$DIMSCALE
 40
1.0
  9
$DIMASZ
 40
2.5
  9
$DIMEXO
 40
0.625
  9
$DIMDLI
 40
3.75
  9
$DIMRND
 40
0.0
  9
$DIMDLE
 40
0.0
  9
$DIMEXE
 40
1.25
  9
$DIMTP
 40
0.0
  9
$DIMTM
 40
0.0
  9
$DIMTXT
 40
2.5
  9
$DIMCEN
 40
2.5
  9
$DIMTSZ
 40
0.0
  9
$DIMTOL
 70
     0
  9
$DIMLIM
 70
     0
  9
$DIMTIH
 70
     0
  9
$DIMTOH
 70
     0
  9
$DIMSE1
 70
     0
  9
$DIMSE2
 70
     0
  9
$DIMTAD
 70
     1
  9
$DIMZIN
 70
     8
  9
$DIMBLK
  1

  9
$DIMASO
 70
     1
  9
$DIMSHO
 70
     1
  9
$DIMPOST
  1

  9
$DIMAPOST
  1

  9
$DIMALT
 70
     0
  9
$DIMALTD
 70
     3
  9
$DIMALTF
 40
0.03937007874016
  9
$DIMLFAC
 40
1.0
  9
$DIMTOFL
 70
     1
  9
$DIMTVP
 40
0.0
  9
$DIMTIX
 70
     0
  9
$DIMSOXD
 70
     0
  9
$DIMSAH
 70
     0
  9
$DIMBLK1
  1

  9
$DIMBLK2
  1

  9
$DIMSTYLE
  2
ISO-25
  9
$DIMCLRD
 70
     0
  9
$DIMCLRE
 70
     0
  9
$DIMCLRT
 70
     0
  9
$DIMTFAC
 40
1.0
  9
$DIMGAP
 40
0.625
  9
$DIMJUST
 70
     0
  9
$DIMSD1
 70
     0
  9
$DIMSD2
 70
     0
  9
$DIMTOLJ
 70
     0
  9
$DIMTZIN
 70
     8
  9
$DIMALTZ
 70
     0
  9
$DIMALTTZ
 70
     0
  9
$DIMUPT
 70
     0
  9
$DIMDEC
 70
     2
  9
$DIMTDEC
 70
     2
  9
$DIMALTU
 70
     2
  9
$DIMALTTD
 70
     3
  9
$DIMTXSTY
  7
Standard
  9
$DIMAUNIT
 70
     0
  9
$DIMADEC
 70
     0
  9
$DIMALTRND
 40
0.0
  9
$DIMAZIN
 70
     0
  9
$DIMDSEP
 70
    44
  9
$DIMATFIT
 70
     3
  9
$DIMFRAC
 70
     0
  9
$DIMLDRBLK
  1

  9
$DIMLUNIT
 70
     2
  9
$DIMLWD
 70
    -2
  9
$DIMLWE
 70
    -2
  9
$DIMTMOVE
 70
     0
  9
$LUNITS
 70
     2
  9
$LUPREC
 70
     4
  9
$SKETCHINC
 40
1.0
  9
$FILLETRAD
 40
0.0
  9
$AUNITS
 70
     0
  9
$AUPREC
 70
     0
  9
$MENU
  1
.
  9
$ELEVATION
 40
0.0
  9
$PELEVATION
 40
0.0
  9
$THICKNESS
 40
0.0
  9
$LIMCHECK
 70
     0
  9
$CHAMFERA
 40
0.0
  9
$CHAMFERB
 40
0.0
  9
$CHAMFERC
 40
0.0
  9
$CHAMFERD
 40
0.0
  9
$SKPOLY
 70
     0
  9
$TDCREATE
 40
2458488.487324861
  9
$TDUCREATE
 40
2458488.362324861
  9
$TDUPDATE
 40
2459082.584393438
  9
$TDUUPDATE
 40
2459082.459393438
  9
$TDINDWG
 40
0.0011343171
  9
$TDUSRTIMER
 40
0.0011343171
  9
$USRTIMER
 70
     1
  9
$ANGBASE
 50
0.0
  9
$ANGDIR
 70
     0
  9
$PDMODE
 70
     0
  9
$PDSIZE
 40
0.0
  9
$PLINEWID
 40
0.0
  9
$SPLFRAME
 70
     0
  9
$SPLINETYPE
 70
     6
  9
$SPLINESEGS
 70
     8
  9
$HANDSEED
  5
584
  9
$SURFTAB1
 70
     6
  9
$SURFTAB2
 70
     6
  9
$SURFTYPE
 70
     6
  9
$SURFU
 70
     6
  9
$SURFV
 70
     6
  9
$UCSBASE
  2

  9
$UCSNAME
  2

  9
$UCSORG
 10
0.0
 20
0.0
 30
0.0
  9
$UCSXDIR
 10
1.0
 20
0.0
 30
0.0
  9
$UCSYDIR
 10
0.0
 20
1.0
 30
0.0
  9
$UCSORTHOREF
  2

  9
$UCSORTHOVIEW
 70
     0
  9
$UCSORGTOP
 10
0.0
 20
0.0
 30
0.0
  9
$UCSORGBOTTOM
 10
0.0
 20
0.0
 30
0.0
  9
$UCSORGLEFT
 10
0.0
 20
0.0
 30
0.0
  9
$UCSORGRIGHT
 10
0.0
 20
0.0
 30
0.0
  9
$UCSORGFRONT
 10
0.0
 20
0.0
 30
0.0
  9
$UCSORGBACK
 10
0.0
 20
0.0
 30
0.0
  9
$PUCSBASE
  2

  9
$PUCSNAME
  2

  9
$PUCSORG
 10
0.0
 20
0.0
 30
0.0
  9
$PUCSXDIR
 10
1.0
 20
0.0
 30
0.0
  9
$PUCSYDIR
 10
0.0
 20
1.0
 30
0.0
  9
$PUCSORTHOREF
  2

  9
$PUCSORTHOVIEW
 70
     0
  9
$PUCSORGTOP
 10
0.0
 20
0.0
 30
0.0
  9
$PUCSORGBOTTOM
 10
0.0
 20
0.0
 30
0.0
  9
$PUCSORGLEFT
 10
0.0
 20
0.0
 30
0.0
  9
$PUCSORGRIGHT
 10
0.0
 20
0.0
 30
0.0
  9
$PUCSORGFRONT
 10
0.0
 20
0.0
 30
0.0
  9
$PUCSORGBACK
 10
0.0
 20
0.0
 30
0.0
  9
$USERI1
 70
     0
  9
$USERI2
 70
     0
  9
$USERI3
 70
     0
  9
$USERI4
 70
     0
  9
$USERI5
 70
     0
  9
$USERR1
 40
0.0
  9
$USERR2
 40
0.0
  9
$USERR3
 40
0.0
  9
$USERR4
 40
0.0
  9
$USERR5
 40
0.0
  9
$WORLDVIEW
 70
     1
  9
$SHADEDGE
 70
     3
  9
$SHADEDIF
 70
    70
  9
$TILEMODE
 70
     1
  9
$MAXACTVP
 70
    64
  9
$PINSBASE
 10
0.0
 20
0.0
 30
0.0
  9
$PLIMCHECK
 70
     0
  9
$PEXTMIN
 10
0.0
 20
0.0
 30
0.0
  9
$PEXTMAX
 10
0.0
 20
0.0
 30
0.0
  9
$PLIMMIN
 10
0.0
 20
0.0
  9
$PLIMMAX
 10
12.0
 20
9.0
  9
$UNITMODE
 70
     0
  9
$VISRETAIN
 70
     1
  9
$PLINEGEN
 70
     0
  9
$PSLTSCALE
 70
     1
  9
$TREEDEPTH
 70
  3020
  9
$CMLSTYLE
  2
Standard
  9
$CMLJUST
 70
     0
  9
$CMLSCALE
 40
20.0
  9
$PROXYGRAPHICS
 70
     1
  9
$MEASUREMENT
 70
     1
  9
$CELWEIGHT
370
    -1
  9
$ENDCAPS
280
     0
  9
$JOINSTYLE
280
     0
  9
$LWDISPLAY
290
     0
  9
$INSUNITS
 70
     4
  9
$HYPERLINKBASE
  1

  9
$STYLESHEET
  1

  9
$XEDIT
290
     1
  9
$CEPSNTYPE
380
     0
  9
$PSTYLEMODE
290
     1
  9
$FINGERPRINTGUID
  2
{684EFC3E-DEF4-4D44-BF96-87D15531D69A}
  9
$VERSIONGUID
  2
{5FED9A67-1A4D-4A14-AD90-F603F5C139B0}
  9
$EXTNAMES
290
     1
  9
$PSVPSCALE
 40
0.0
  9
$OLESTARTUP
290
     0
  0
ENDSEC
  0
SECTION
  2
CLASSES
  0
CLASS
  1
ACDBDICTIONARYWDFLT
  2
AcDbDictionaryWithDefault
  3
ObjectDBX Classes
 90
        0
280
     0
281
     0
  0
CLASS
  1
ACDBPLACEHOLDER
  2
AcDbPlaceHolder
  3
ObjectDBX Classes
 90
        0
280
     0
281
     0
  0
CLASS
  1
LAYOUT
  2
AcDbLayout
  3
ObjectDBX Classes
 90
        0
280
     0
281
     0
  0
CLASS
  1
DICTIONARYVAR
  2
AcDbDictionaryVar
  3
ObjectDBX Classes
 90
        0
280
     0
281
     0
  0
CLASS
  1
TABLESTYLE
  2
AcDbTableStyle
  3
ObjectDBX Classes
 90
     4095
280
     0
281
     0
  0
CLASS
  1
MATERIAL
  2
AcDbMaterial
  3
ObjectDBX Classes
 90
     1153
280
     0
281
     0
  0
CLASS
  1
VISUALSTYLE
  2
AcDbVisualStyle
  3
ObjectDBX Classes
 90
     4095
280
     0
281
     0
  0
CLASS
  1
SCALE
  2
AcDbScale
  3
ObjectDBX Classes
 90
     1153
280
     0
281
     0
  0
CLASS
  1
MLEADERSTYLE
  2
AcDbMLeaderStyle
  3
ACDB_MLEADERSTYLE_CLASS
 90
     4095
280
     0
281
     0
  0
CLASS
  1
CELLSTYLEMAP
  2
AcDbCellStyleMap
  3
ObjectDBX Classes
 90
     1152
280
     0
281
     0
  0
CLASS
  1
ACAD_EVALUATION_GRAPH
  2
AcDbEvalGraph
  3
ObjectDBX Classes
 90
    33921
280
     0
281
     0
  0
CLASS
  1
ACAECUSTOBJ
  2
AcAeEditorObj
  3
AcAeEditorObj
 90
    33792
280
     0
281
     0
  0
CLASS
  1
ACDB_DYNAMICBLOCKPURGEPREVENTER_VERSION
  2
AcDbDynamicBlockPurgePreventer
  3
ObjectDBX Classes
 90
    33921
280
     0
281
     0
  0
ENDSEC
  0
SECTION
  2
TABLES
  0
TABLE
  2
VPORT
  5
8
330
0
100
AcDbSymbolTable
 70
     1
  0
VPORT
  5
EA
330
8
100
AcDbSymbolTableRecord
100
AcDbViewportTableRecord
  2
*Active
 70
     0
 10
0.0
 20
0.0
 11
1.0
 21
1.0
 12
1662.076233718841
 22
1833.502856379785
 13
0.0
 23
0.0
 14
10.0
 24
10.0
 15
10.0
 25
10.0
 16
0.0
 26
0.0
 36
1.0
 17
0.0
 27
0.0
 37
0.0
 40
311.0570502384744
 41
1.90311004784689
 42
50.0
 43
0.0
 44
0.0
 50
0.0
 51
0.0
 71
     0
 72
  1000
 73
     1
 74
     3
 75
     0
 76
     0
 77
     0
 78
     0
281
     0
 65
     1
110
0.0
120
0.0
130
0.0
111
1.0
121
0.0
131
0.0
112
0.0
122
1.0
132
0.0
 79
     0
146
0.0
  0
ENDTAB
  0
TABLE
  2
LTYPE
  5
5
330
0
100
AcDbSymbolTable
 70
     1
  0
LTYPE
  5
14
330
5
100
AcDbSymbolTableRecord
100
AcDbLinetypeTableRecord
  2
ByBlock
 70
     0
  3

 72
    65
 73
     0
 40
0.0
  0
LTYPE
  5
15
330
5
100
AcDbSymbolTableRecord
100
AcDbLinetypeTableRecord
  2
ByLayer
 70
     0
  3

 72
    65
 73
     0
 40
0.0
  0
LTYPE
  5
16
330
5
100
AcDbSymbolTableRecord
100
AcDbLinetypeTableRecord
  2
Continuous
 70
     0
  3
Solid line
 72
    65
 73
     0
 40
0.0
  0
ENDTAB
  0
TABLE
  2
LAYER
  5
2
330
0
100
AcDbSymbolTable
 70
     1
  0
LAYER
  5
10
102
{ACAD_XDICTIONARY
360
13C
102
}
330
2
100
AcDbSymbolTableRecord
100
AcDbLayerTableRecord
  2
0
 70
     0
 62
     7
  6
Continuous
370
    -3
390
F
  0
ENDTAB
  0
TABLE
  2
STYLE
  5
3
330
0
100
AcDbSymbolTable
 70
     2
  0
STYLE
  5
11
330
3
100
AcDbSymbolTableRecord
100
AcDbTextStyleTableRecord
  2
Standard
 70
     0
 40
0.0
 41
1.0
 50
0.0
 71
     0
 42
2.5
  3
txt
  4

  0
STYLE
  5
132
330
3
100
AcDbSymbolTableRecord
100
AcDbTextStyleTableRecord
  2
Annotative
 70
     0
 40
0.0
 41
1.0
 50
0.0
 71
     0
 42
2.5
  3
txt.shx
  4

1001
AcadAnnotative
1000
AnnotativeData
1002
{
1070
     1
1070
     1
1002
}
  0
ENDTAB
  0
TABLE
  2
VIEW
  5
6
330
0
100
AcDbSymbolTable
 70
     0
  0
ENDTAB
  0
TABLE
  2
UCS
  5
7
330
0
100
AcDbSymbolTable
 70
     0
  0
ENDTAB
  0
TABLE
  2
APPID
  5
9
330
0
100
AcDbSymbolTable
 70
    12
  0
APPID
  5
12
330
9
100
AcDbSymbolTableRecord
100
AcDbRegAppTableRecord
  2
ACAD
 70
     0
  0
APPID
  5
9E
330
9
100
AcDbSymbolTableRecord
100
AcDbRegAppTableRecord
  2
ACAD_PSEXT
 70
     0
  0
APPID
  5
133
330
9
100
AcDbSymbolTableRecord
100
AcDbRegAppTableRecord
  2
AcadAnnoPO
 70
     0
  0
APPID
  5
134
330
9
100
AcDbSymbolTableRecord
100
AcDbRegAppTableRecord
  2
AcadAnnotative
 70
     0
  0
APPID
  5
135
330
9
100
AcDbSymbolTableRecord
100
AcDbRegAppTableRecord
  2
ACAD_DSTYLE_DIMJAG
 70
     0
  0
APPID
  5
136
330
9
100
AcDbSymbolTableRecord
100
AcDbRegAppTableRecord
  2
ACAD_DSTYLE_DIMTALN
 70
     0
  0
APPID
  5
165
330
9
100
AcDbSymbolTableRecord
100
AcDbRegAppTableRecord
  2
ACAD_MLEADERVER
 70
     0
  0
APPID
  5
547
330
9
100
AcDbSymbolTableRecord
100
AcDbRegAppTableRecord
  2
ACAUTHENVIRON
 70
     0
  0
APPID
  5
54C
330
9
100
AcDbSymbolTableRecord
100
AcDbRegAppTableRecord
  2
ACAD_EXEMPT_FROM_CAD_STANDARDS
 70
     0
  0
APPID
  5
553
330
9
100
AcDbSymbolTableRecord
100
AcDbRegAppTableRecord
  2
AcDbDynamicBlockTrueName
 70
     0
  0
APPID
  5
554
330
9
100
AcDbSymbolTableRecord
100
AcDbRegAppTableRecord
  2
AcDbDynamicBlockGUID
 70
     0
  0
APPID
  5
556
330
9
100
AcDbSymbolTableRecord
100
AcDbRegAppTableRecord
  2
AcDbBlockRepETag
 70
     0
  0
ENDTAB
  0
TABLE
  2
DIMSTYLE
  5
A
330
0
100
AcDbSymbolTable
 70
     2
100
AcDbDimStyleTable
 71
     2
340
27
340
137
  0
DIMSTYLE
105
27
330
A
100
AcDbSymbolTableRecord
100
AcDbDimStyleTableRecord
  2
ISO-25
 70
     0
 41
2.5
 42
0.625
 43
3.75
 44
1.25
 73
     0
 74
     0
 77
     1
 78
     8
140
2.5
141
2.5
143
0.03937007874016
147
0.625
171
     3
172
     1
271
     2
272
     2
274
     3
278
    44
283
     0
284
     8
340
11
  0
DIMSTYLE
105
137
330
A
100
AcDbSymbolTableRecord
100
AcDbDimStyleTableRecord
  2
Annotative
 70
     0
 40
0.0
 41
2.5
 42
0.625
 43
3.75
 44
1.25
 73
     0
 74
     0
 77
     1
 78
     8
140
2.5
141
2.5
143
0.03937007874016
147
0.625
171
     3
172
     1
271
     2
272
     2
274
     3
278
    44
283
     0
284
     8
340
11
1001
AcadAnnotative
1000
AnnotativeData
1002
{
1070
     1
1070
     1
1002
}
1001
ACAD_DSTYLE_DIMJAG
1070
   388
1040
1.5
1001
ACAD_DSTYLE_DIMTALN
1070
   392
1070
     0
  0
ENDTAB
  0
TABLE
  2
BLOCK_RECORD
  5
1
330
0
100
AcDbSymbolTable
 70
     5
  0
BLOCK_RECORD
  5
1F
330
1
100
AcDbSymbolTableRecord
100
AcDbBlockTableRecord
  2
*Model_Space
340
22
  0
BLOCK_RECORD
  5
D2
330
1
100
AcDbSymbolTableRecord
100
AcDbBlockTableRecord
  2
*Paper_Space
340
D3
  0
BLOCK_RECORD
  5
D6
330
1
100
AcDbSymbolTableRecord
100
AcDbBlockTableRecord
  2
*Paper_Space0
340
D7
  0
BLOCK_RECORD
  5
3F7
102
{ACAD_XDICTIONARY
360
548
102
}
330
1
100
AcDbSymbolTableRecord
100
AcDbBlockTableRecord
  2
1
340
0
310
2800000020000000200000000100080000000000000400000000000000000000000000000000000000000000000080000080000000808000800000008000800080800000C0C0C000C0DCC000F0CAA6000020400000206000002080000020A0000020C0000020E00000400000004020000040400000406000004080000040A0
310
000040C0000040E00000600000006020000060400000606000006080000060A0000060C0000060E00000800000008020000080400000806000008080000080A0000080C0000080E00000A0000000A0200000A0400000A0600000A0800000A0A00000A0C00000A0E00000C0000000C0200000C0400000C0600000C0800000C0
310
A00000C0C00000C0E00000E0000000E0200000E0400000E0600000E0800000E0A00000E0C00000E0E00040000000400020004000400040006000400080004000A0004000C0004000E00040200000402020004020400040206000402080004020A0004020C0004020E000404000004040200040404000404060004040800040
310
40A0004040C0004040E00040600000406020004060400040606000406080004060A0004060C0004060E00040800000408020004080400040806000408080004080A0004080C0004080E00040A0000040A0200040A0400040A0600040A0800040A0A00040A0C00040A0E00040C0000040C0200040C0400040C0600040C08000
310
40C0A00040C0C00040C0E00040E0000040E0200040E0400040E0600040E0800040E0A00040E0C00040E0E00080000000800020008000400080006000800080008000A0008000C0008000E00080200000802020008020400080206000802080008020A0008020C0008020E00080400000804020008040400080406000804080
310
008040A0008040C0008040E00080600000806020008060400080606000806080008060A0008060C0008060E00080800000808020008080400080806000808080008080A0008080C0008080E00080A0000080A0200080A0400080A0600080A0800080A0A00080A0C00080A0E00080C0000080C0200080C0400080C0600080C0
310
800080C0A00080C0C00080C0E00080E0000080E0200080E0400080E0600080E0800080E0A00080E0C00080E0E000C0000000C0002000C0004000C0006000C0008000C000A000C000C000C000E000C0200000C0202000C0204000C0206000C0208000C020A000C020C000C020E000C0400000C0402000C0404000C0406000C0
310
408000C040A000C040C000C040E000C0600000C0602000C0604000C0606000C0608000C060A000C060C000C060E000C0800000C0802000C0804000C0806000C0808000C080A000C080C000C080E000C0A00000C0A02000C0A04000C0A06000C0A08000C0A0A000C0A0C000C0A0E000C0C00000C0C02000C0C04000C0C06000
310
C0C08000C0C0A000F0FBFF00A4A0A000808080000000FF0000FF000000FFFF00FF000000FF00FF00FFFF0000FFFFFF0000000000000000000000000000000000000000000000000000000000000000000000000000000000000000000000000000000000000000000000000000000000000000000000000000000000000000
310
00000000000000000000000000000000000000000000000000000000000000000000000000000000000000000000000000000000000000000000000000000000000000000000000000000000000000000000000000000000000000000000000000000000000000000000000000000000000000000000000000000000000000
310
00000000000000000000000000000000000000000000000000000000000000000000000000000000000000000000000000000000000000000000000000000000000000000000000000000000000000000000000000000000000000000000000000000000000000000000000000000000000000000000000000000000000000
310
0000000000000000000000000000000000000000000000000000000000FFFFFFFFFFFFFFFFFFFFFFFF00000000000000000000000000000000000000FFFFFFFFFFFFFFFFFFFFFFFFFFFF0000000000000000000000000000000000FFFF000000000000000000000000FFFF000000000000000000000000000000FF00FF0000
310
00000000000000000000FF00FF00000000000000000000000000FF00FF0000000000000000000000000000FF00FF000000000000000000000000FF00FF0000000000000000000000000000FF00FF0000000000000000000000FF00FF00000000000000000000000000000000FF00FF000000000000000000FFFFFF00000000
310
0000000000000000000000000000FFFFFF0000000000FFFFFFFF00000000000000000000000000000000000000000000FFFFFFFF0000FFFFFF000000000000000000000000000000000000000000000000FFFFFF00000000000000000000000000000000000000000000000000000000000000000000000000000000000000
310
00000000000000000000000000000000000000000000000000000000000000000000000000000000000000000000000000000000000000000000000000000000000000000000000000000000000000000000000000000000000000000000000000000000000000000000000000000000000000000000000000000000000000
310
00000000000000000000000000000000000000000000000000000000000000000000000000000000000000000000000000000000000000000000000000000000000000000000000000000000000000000000000000000000000000000000000000000000000000000000000000000000000000000000000000000000000000
310
0000000000000000000000000000000000000000000000000000000000000000000000000000000000000000000000000000000000000000
102
{BLKREFS
331
40E
102
}
1001
AcDbDynamicBlockGUID
1000
{89CFE2D4-87AE-4E65-9445-CF79CBD9E218}
1001
AcDbBlockRepETag
1070
     1
1071
       20
1001
ACAD
1000
DesignCenter Data
1002
{
1070
     1
1070
     4
1002
}
  0
BLOCK_RECORD
  5
40F
102
{ACAD_XDICTIONARY
360
567
102
}
330
1
100
AcDbSymbolTableRecord
100
AcDbBlockTableRecord
  2
2
340
0
310
2800000020000000200000000100080000000000000400000000000000000000000000000000000000000000000080000080000000808000800000008000800080800000C0C0C000C0DCC000F0CAA6000020400000206000002080000020A0000020C0000020E00000400000004020000040400000406000004080000040A0
310
000040C0000040E00000600000006020000060400000606000006080000060A0000060C0000060E00000800000008020000080400000806000008080000080A0000080C0000080E00000A0000000A0200000A0400000A0600000A0800000A0A00000A0C00000A0E00000C0000000C0200000C0400000C0600000C0800000C0
310
A00000C0C00000C0E00000E0000000E0200000E0400000E0600000E0800000E0A00000E0C00000E0E00040000000400020004000400040006000400080004000A0004000C0004000E00040200000402020004020400040206000402080004020A0004020C0004020E000404000004040200040404000404060004040800040
310
40A0004040C0004040E00040600000406020004060400040606000406080004060A0004060C0004060E00040800000408020004080400040806000408080004080A0004080C0004080E00040A0000040A0200040A0400040A0600040A0800040A0A00040A0C00040A0E00040C0000040C0200040C0400040C0600040C08000
310
40C0A00040C0C00040C0E00040E0000040E0200040E0400040E0600040E0800040E0A00040E0C00040E0E00080000000800020008000400080006000800080008000A0008000C0008000E00080200000802020008020400080206000802080008020A0008020C0008020E00080400000804020008040400080406000804080
310
008040A0008040C0008040E00080600000806020008060400080606000806080008060A0008060C0008060E00080800000808020008080400080806000808080008080A0008080C0008080E00080A0000080A0200080A0400080A0600080A0800080A0A00080A0C00080A0E00080C0000080C0200080C0400080C0600080C0
310
800080C0A00080C0C00080C0E00080E0000080E0200080E0400080E0600080E0800080E0A00080E0C00080E0E000C0000000C0002000C0004000C0006000C0008000C000A000C000C000C000E000C0200000C0202000C0204000C0206000C0208000C020A000C020C000C020E000C0400000C0402000C0404000C0406000C0
310
408000C040A000C040C000C040E000C0600000C0602000C0604000C0606000C0608000C060A000C060C000C060E000C0800000C0802000C0804000C0806000C0808000C080A000C080C000C080E000C0A00000C0A02000C0A04000C0A06000C0A08000C0A0A000C0A0C000C0A0E000C0C00000C0C02000C0C04000C0C06000
310
C0C08000C0C0A000F0FBFF00A4A0A000808080000000FF0000FF000000FFFF00FF000000FF00FF00FFFF0000FFFFFF0000000000000000000000000000000000000000000000000000000000000000000000000000000000000000000000000000000000000000000000000000000000000000000000000000000000000000
310
00000000000000000000000000000000000000000000000000000000000000000000000000000000000000000000000000000000000000000000000000000000000000000000000000000000000000000000000000000000000000000000000000000000000000000000000000000000000000000000000000000000000000
310
00000000000000000000000000000000000000000000000000000000000000000000000000000000000000000000000000000000000000000000000000000000000000000000000000000000000000000000000000000000000000000000000000000000000000000000000000000000000000000000000000000000000000
310
00000000000000000000000000000000000000000000000000000000000000000000000000000000000000000000000000000000000000000000000000000000000000000000000000000000000000000000000000000000000000000000000000000000000000000000000000000000000000000000000000000000000000
310
000000000000000000000000000000000000000000FFFFFFFFFFFFFFFFFFFFFFFFFFFFFFFFFFFFFFFFFFFFFFFFFFFFFFFFFFFF0000FFFFFFFFFFFFFFFFFFFFFFFFFFFFFFFFFFFFFFFFFFFFFFFFFFFFFFFFFFFF0000000000000000000000000000000000000000000000000000000000000000000000000000000000000000
310
00000000000000000000000000000000000000000000000000000000000000000000000000000000000000000000000000000000000000000000000000000000000000000000000000000000000000000000000000000000000000000000000000000000000000000000000000000000000000000000000000000000000000
310
00000000000000000000000000000000000000000000000000000000000000000000000000000000000000000000000000000000000000000000000000000000000000000000000000000000000000000000000000000000000000000000000000000000000000000000000000000000000000000000000000000000000000
310
00000000000000000000000000000000000000000000000000000000000000000000000000000000000000000000000000000000000000000000000000000000000000000000000000000000000000000000000000000000000000000000000000000000000000000000000000000000000000000000000000000000000000
310
0000000000000000000000000000000000000000000000000000000000000000000000000000000000000000000000000000000000000000
102
{BLKREFS
331
41F
102
}
1001
AcDbDynamicBlockGUID
1000
{0104928E-3B6C-490A-8DAA-A1326AACBD35}
1001
AcDbBlockRepETag
1070
     1
1071
       13
1001
ACAD
1000
DesignCenter Data
1002
{
1070
     1
1070
     4
1002
}
  0
BLOCK_RECORD
  5
420
330
1
100
AcDbSymbolTableRecord
100
AcDbBlockTableRecord
  2
3
340
0
310
2800000020000000200000000100080000000000000400000000000000000000000000000000000000000000000080000080000000808000800000008000800080800000C0C0C000C0DCC000F0CAA6000020400000206000002080000020A0000020C0000020E00000400000004020000040400000406000004080000040A0
310
000040C0000040E00000600000006020000060400000606000006080000060A0000060C0000060E00000800000008020000080400000806000008080000080A0000080C0000080E00000A0000000A0200000A0400000A0600000A0800000A0A00000A0C00000A0E00000C0000000C0200000C0400000C0600000C0800000C0
310
A00000C0C00000C0E00000E0000000E0200000E0400000E0600000E0800000E0A00000E0C00000E0E00040000000400020004000400040006000400080004000A0004000C0004000E00040200000402020004020400040206000402080004020A0004020C0004020E000404000004040200040404000404060004040800040
310
40A0004040C0004040E00040600000406020004060400040606000406080004060A0004060C0004060E00040800000408020004080400040806000408080004080A0004080C0004080E00040A0000040A0200040A0400040A0600040A0800040A0A00040A0C00040A0E00040C0000040C0200040C0400040C0600040C08000
310
40C0A00040C0C00040C0E00040E0000040E0200040E0400040E0600040E0800040E0A00040E0C00040E0E00080000000800020008000400080006000800080008000A0008000C0008000E00080200000802020008020400080206000802080008020A0008020C0008020E00080400000804020008040400080406000804080
310
008040A0008040C0008040E00080600000806020008060400080606000806080008060A0008060C0008060E00080800000808020008080400080806000808080008080A0008080C0008080E00080A0000080A0200080A0400080A0600080A0800080A0A00080A0C00080A0E00080C0000080C0200080C0400080C0600080C0
310
800080C0A00080C0C00080C0E00080E0000080E0200080E0400080E0600080E0800080E0A00080E0C00080E0E000C0000000C0002000C0004000C0006000C0008000C000A000C000C000C000E000C0200000C0202000C0204000C0206000C0208000C020A000C020C000C020E000C0400000C0402000C0404000C0406000C0
310
408000C040A000C040C000C040E000C0600000C0602000C0604000C0606000C0608000C060A000C060C000C060E000C0800000C0802000C0804000C0806000C0808000C080A000C080C000C080E000C0A00000C0A02000C0A04000C0A06000C0A08000C0A0A000C0A0C000C0A0E000C0C00000C0C02000C0C04000C0C06000
310
C0C08000C0C0A000F0FBFF00A4A0A000808080000000FF0000FF000000FFFF00FF000000FF00FF00FFFF0000FFFFFF000000000000000000000000000000000000000000000000000000000000000000000000000000000000000000000000FFFF000000000000000000000000000000000000000000000000000000000000
310
FFFF000000000000000000000000000000000000000000000000000000000000FFFF000000000000000000000000000000000000000000000000000000000000FFFF000000000000000000000000000000000000000000000000000000000000FFFF0000000000000000000000000000000000000000000000000000000000
310
00FFFF000000000000000000000000000000000000000000000000000000000000FFFF000000000000000000000000000000000000000000000000000000000000FFFF000000000000000000000000000000000000000000000000000000000000FFFF00000000000000000000000000000000000000000000000000000000
310
0000FFFF000000000000000000000000000000000000000000000000000000000000FFFF000000000000000000000000000000000000000000000000000000000000FFFF000000000000000000000000000000000000000000000000000000000000FFFF000000000000000000000000000000000000000000000000000000
310
000000FFFF000000000000000000000000000000000000000000000000000000000000FFFF000000000000000000000000000000000000000000000000000000000000FFFF000000000000000000000000000000000000000000000000000000000000FFFF0000000000000000000000000000000000000000000000000000
310
00000000FFFF000000000000000000000000000000000000000000000000000000000000FFFF000000000000000000000000000000000000000000000000000000000000FFFF000000000000000000000000000000000000000000000000000000000000FFFF00000000000000000000000000000000000000000000000000
310
0000000000FFFF000000000000000000000000000000000000000000000000000000000000FFFF000000000000000000000000000000000000000000000000000000000000FFFF000000000000000000000000000000000000000000000000000000000000FFFF000000000000000000000000000000000000000000000000
310
000000000000FFFF000000000000000000000000000000000000000000000000000000000000FFFF000000000000000000000000000000000000000000000000000000000000FFFF000000000000000000000000000000000000000000000000000000000000FFFF0000000000000000000000000000000000000000000000
310
00000000000000FFFF0000000000000000000000000000000000000000000000000000000000000000000000000000000000000000000000
102
{BLKREFS
331
475
102
}
1001
ACAD
1000
DesignCenter Data
1002
{
1070
     1
1070
     4
1002
}
  0
BLOCK_RECORD
  5
476
330
1
100
AcDbSymbolTableRecord
100
AcDbBlockTableRecord
  2
4
340
0
310
2800000020000000200000000100080000000000000400000000000000000000000000000000000000000000000080000080000000808000800000008000800080800000C0C0C000C0DCC000F0CAA6000020400000206000002080000020A0000020C0000020E00000400000004020000040400000406000004080000040A0
310
000040C0000040E00000600000006020000060400000606000006080000060A0000060C0000060E00000800000008020000080400000806000008080000080A0000080C0000080E00000A0000000A0200000A0400000A0600000A0800000A0A00000A0C00000A0E00000C0000000C0200000C0400000C0600000C0800000C0
310
A00000C0C00000C0E00000E0000000E0200000E0400000E0600000E0800000E0A00000E0C00000E0E00040000000400020004000400040006000400080004000A0004000C0004000E00040200000402020004020400040206000402080004020A0004020C0004020E000404000004040200040404000404060004040800040
310
40A0004040C0004040E00040600000406020004060400040606000406080004060A0004060C0004060E00040800000408020004080400040806000408080004080A0004080C0004080E00040A0000040A0200040A0400040A0600040A0800040A0A00040A0C00040A0E00040C0000040C0200040C0400040C0600040C08000
310
40C0A00040C0C00040C0E00040E0000040E0200040E0400040E0600040E0800040E0A00040E0C00040E0E00080000000800020008000400080006000800080008000A0008000C0008000E00080200000802020008020400080206000802080008020A0008020C0008020E00080400000804020008040400080406000804080
310
008040A0008040C0008040E00080600000806020008060400080606000806080008060A0008060C0008060E00080800000808020008080400080806000808080008080A0008080C0008080E00080A0000080A0200080A0400080A0600080A0800080A0A00080A0C00080A0E00080C0000080C0200080C0400080C0600080C0
310
800080C0A00080C0C00080C0E00080E0000080E0200080E0400080E0600080E0800080E0A00080E0C00080E0E000C0000000C0002000C0004000C0006000C0008000C000A000C000C000C000E000C0200000C0202000C0204000C0206000C0208000C020A000C020C000C020E000C0400000C0402000C0404000C0406000C0
310
408000C040A000C040C000C040E000C0600000C0602000C0604000C0606000C0608000C060A000C060C000C060E000C0800000C0802000C0804000C0806000C0808000C080A000C080C000C080E000C0A00000C0A02000C0A04000C0A06000C0A08000C0A0A000C0A0C000C0A0E000C0C00000C0C02000C0C04000C0C06000
310
C0C08000C0C0A000F0FBFF00A4A0A000808080000000FF0000FF000000FFFF00FF000000FF00FF00FFFF0000FFFFFF0000000000000000000000000000000000000000000000000000000000000000000000000000000000000000000000000000000000000000000000000000000000000000000000000000000000000000
310
00000000000000000000000000000000000000FFFF0000000000000000000000000000000000000000000000000000000000FFFFFFFF0000000000000000000000000000000000000000000000000000000000FFFFFFFF0000000000000000000000000000000000000000000000000000000000FFFFFFFF00000000000000
310
00000000000000000000000000000000000000000000FFFFFFFFFF00000000000000000000000000000000000000000000000000000000FFFFFFFFFF0000000000000000000000000000000000000000000000000000000000FFFFFFFF0000000000000000000000000000000000000000000000000000000000FFFFFFFF00
310
00000000000000000000000000000000000000000000000000000000FFFFFFFF0000000000000000000000000000000000000000000000000000000000FFFFFFFF0000000000000000000000000000000000000000000000000000000000FFFFFFFF0000000000000000000000000000000000000000000000000000000000
310
FFFFFFFF0000000000000000000000000000000000000000000000000000000000FFFFFFFFFF00000000000000000000000000000000000000000000000000000000FFFFFFFFFF0000000000000000000000000000000000000000000000000000000000FFFFFFFF0000000000000000000000000000000000000000000000
310
000000000000FFFFFFFF0000000000000000000000000000000000000000000000000000000000FFFFFFFF0000000000000000000000000000000000000000000000000000000000FFFFFFFF0000000000000000000000000000000000000000000000000000000000FFFFFFFF000000000000000000000000000000000000
310
0000000000000000000000FFFFFFFF0000000000000000000000000000000000000000000000000000000000FFFFFFFFFF00000000000000000000000000000000000000000000000000000000FFFFFFFFFF0000000000000000000000000000000000000000000000000000000000FFFF00FF000000000000000000000000
310
0000000000000000000000000000000000FFFFFFFF0000000000000000000000000000000000000000000000000000000000FFFFFFFF0000000000000000000000000000000000000000000000000000000000FFFF000000000000000000000000000000000000000000000000000000000000000000000000000000000000
310
0000000000000000000000000000000000000000000000000000000000000000000000000000000000000000000000000000000000000000
102
{BLKREFS
331
529
102
}
1001
ACAD
1000
DesignCenter Data
1002
{
1070
     1
1070
     4
1002
}
  0
ENDTAB
  0
ENDSEC
  0
SECTION
  2
BLOCKS
  0
BLOCK
  5
20
330
1F
100
AcDbEntity
  8
0
100
AcDbBlockBegin
  2
*Model_Space
 70
     0
 10
0.0
 20
0.0
 30
0.0
  3
*Model_Space
  1

  0
ENDBLK
  5
21
330
1F
100
AcDbEntity
  8
0
100
AcDbBlockEnd
  0
BLOCK
  5
D4
330
D2
100
AcDbEntity
 67
     1
  8
0
100
AcDbBlockBegin
  2
*Paper_Space
 70
     0
 10
0.0
 20
0.0
 30
0.0
  3
*Paper_Space
  1

  0
ENDBLK
  5
D5
330
D2
100
AcDbEntity
 67
     1
  8
0
100
AcDbBlockEnd
  0
BLOCK
  5
D8
330
D6
100
AcDbEntity
 67
     1
  8
0
100
AcDbBlockBegin
  2
*Paper_Space0
 70
     0
 10
0.0
 20
0.0
 30
0.0
  3
*Paper_Space0
  1

  0
ENDBLK
  5
D9
330
D6
100
AcDbEntity
 67
     1
  8
0
100
AcDbBlockEnd
  0
BLOCK
  5
3F8
330
3F7
100
AcDbEntity
  8
0
100
AcDbBlockBegin
  2
1
 70
     0
 10
0.0
 20
0.0
 30
0.0
  3
1
  1

  0
LINE
  5
533
330
3F7
100
AcDbEntity
  8
0
  6
Continuous
 62
     7
370
    15
100
AcDbLine
 10
1684.901628067593
 20
1961.837743328438
 30
0.0
 11
1684.901628067593
 21
1962.137743328438
 31
0.0
1001
AcDbBlockRepETag
1070
     1
1071
        0
1005
533
  0
ARC
  5
534
330
3F7
100
AcDbEntity
  8
0
  6
Continuous
 62
     7
370
    15
100
AcDbCircle
 10
1686.401628067593
 20
1961.837743328438
 30
0.0
 40
1.500000000000454
100
AcDbArc
 50
180.0
 51
270.0
1001
AcDbBlockRepETag
1070
     1
1071
        1
1005
534
  0
LINE
  5
535
330
3F7
100
AcDbEntity
  8
0
  6
Continuous
 62
     7
370
    15
100
AcDbLine
 10
1691.901628067593
 20
1960.337743328438
 30
0.0
 11
1686.401628067593
 21
1960.337743328438
 31
0.0
1001
AcDbBlockRepETag
1070
     1
1071
        2
1005
535
  0
ARC
  5
536
330
3F7
100
AcDbEntity
  8
0
  6
Continuous
 62
     7
370
    15
100
AcDbCircle
 10
1691.901628067593
 20
1961.837743328438
 30
0.0
 40
1.500000000000227
100
AcDbArc
 50
270.0
 51
359.999999999987
1001
AcDbBlockRepETag
1070
     1
1071
        3
1005
536
  0
ARC
  5
538
330
3F7
100
AcDbEntity
  8
0
  6
Continuous
 62
     7
370
    15
100
AcDbCircle
 10
1695.601628067593
 20
1962.137743328438
 30
0.0
 40
2.200000000000159
100
AcDbArc
 50
90.0
 51
180.0
1001
AcDbBlockRepETag
1070
     1
1071
        4
1005
538
  0
LINE
  5
539
330
3F7
100
AcDbEntity
  8
0
  6
Continuous
 62
     7
370
    15
100
AcDbLine
 10
1696.651628067593
 20
1964.337743328438
 30
0.0
 11
1695.601628067593
 21
1964.337743328438
 31
0.0
1001
AcDbBlockRepETag
1070
     1
1071
        5
1005
539
  0
LINE
  5
53A
330
3F7
100
AcDbEntity
  8
0
  6
Continuous
 62
     7
370
    15
100
AcDbLine
 10
1696.651628067593
 20
1963.337743328438
 30
0.0
 11
1696.651628067593
 21
1964.337743328438
 31
0.0
1001
AcDbBlockRepETag
1070
     1
1071
        6
1005
53A
  0
LINE
  5
53B
330
3F7
100
AcDbEntity
  8
0
  6
Continuous
 62
     7
370
    15
100
AcDbLine
 10
1695.601628067593
 20
1963.337743328438
 30
0.0
 11
1696.651628067593
 21
1963.337743328438
 31
0.0
1001
AcDbBlockRepETag
1070
     1
1071
        7
1005
53B
  0
ARC
  5
53C
330
3F7
100
AcDbEntity
  8
0
  6
Continuous
 62
     7
370
    15
100
AcDbCircle
 10
1695.601628067593
 20
1962.137743328438
 30
0.0
 40
1.200000000000159
100
AcDbArc
 50
90.0
 51
180.0
1001
AcDbBlockRepETag
1070
     1
1071
        8
1005
53C
  0
LINE
  5
53D
330
3F7
100
AcDbEntity
  8
0
  6
Continuous
 62
     7
370
    15
100
AcDbLine
 10
1694.401628067593
 20
1961.837743328438
 30
0.0
 11
1694.401628067593
 21
1962.137743328438
 31
0.0
1001
AcDbBlockRepETag
1070
     1
1071
        9
1005
53D
  0
ARC
  5
53E
330
3F7
100
AcDbEntity
  8
0
  6
Continuous
 62
     7
370
    15
100
AcDbCircle
 10
1691.901628067593
 20
1961.837743328438
 30
0.0
 40
2.500000000000113
100
AcDbArc
 50
270.0
 51
0.0
1001
AcDbBlockRepETag
1070
     1
1071
       10
1005
53E
  0
LINE
  5
53F
330
3F7
100
AcDbEntity
  8
0
  6
Continuous
 62
     7
370
    15
100
AcDbLine
 10
1686.401628067593
 20
1959.337743328438
 30
0.0
 11
1691.901628067593
 21
1959.337743328438
 31
0.0
1001
AcDbBlockRepETag
1070
     1
1071
       11
1005
53F
  0
ARC
  5
540
330
3F7
100
AcDbEntity
  8
0
  6
Continuous
 62
     7
370
    15
100
AcDbCircle
 10
1686.401628067593
 20
1961.837743328438
 30
0.0
 40
2.500000000000341
100
AcDbArc
 50
180.0
 51
270.0
1001
AcDbBlockRepETag
1070
     1
1071
       12
1005
540
  0
LINE
  5
541
330
3F7
100
AcDbEntity
  8
0
  6
Continuous
 62
     7
370
    15
100
AcDbLine
 10
1683.901628067593
 20
1962.137743328438
 30
0.0
 11
1683.901628067593
 21
1961.837743328438
 31
0.0
1001
AcDbBlockRepETag
1070
     1
1071
       13
1005
541
  0
ARC
  5
542
330
3F7
100
AcDbEntity
  8
0
  6
Continuous
 62
     7
370
    15
100
AcDbCircle
 10
1682.701628067593
 20
1962.137743328438
 30
0.0
 40
1.200000000000613
100
AcDbArc
 50
0.0
 51
89.99999999994789
1001
AcDbBlockRepETag
1070
     1
1071
       14
1005
542
  0
LINE
  5
543
330
3F7
100
AcDbEntity
  8
0
  6
Continuous
 62
     7
370
    15
100
AcDbLine
 10
1681.651628067593
 20
1963.337743328439
 30
0.0
 11
1682.701628067594
 21
1963.337743328439
 31
0.0
1001
AcDbBlockRepETag
1070
     1
1071
       15
1005
543
  0
LINE
  5
544
330
3F7
100
AcDbEntity
  8
0
  6
Continuous
 62
     7
370
    15
100
AcDbLine
 10
1681.651628067593
 20
1964.337743328439
 30
0.0
 11
1681.651628067593
 21
1963.337743328439
 31
0.0
1001
AcDbBlockRepETag
1070
     1
1071
       16
1005
544
  0
LINE
  5
545
330
3F7
100
AcDbEntity
  8
0
  6
Continuous
 62
     7
370
    15
100
AcDbLine
 10
1682.701628067593
 20
1964.337743328439
 30
0.0
 11
1681.651628067593
 21
1964.337743328439
 31
0.0
1001
AcDbBlockRepETag
1070
     1
1071
       17
1005
545
  0
ARC
  5
546
330
3F7
100
AcDbEntity
  8
0
  6
Continuous
 62
     7
370
    15
100
AcDbCircle
 10
1682.701628067593
 20
1962.137743328438
 30
0.0
 40
2.200000000000613
100
AcDbArc
 50
0.0
 51
90.0
1001
AcDbBlockRepETag
1070
     1
1071
       18
1005
546
  0
LINE
  5
552
330
3F7
100
AcDbEntity
  8
0
100
AcDbLine
 10
1693.401628067593
 20
1962.137743328438
 30
0.0
 11
1693.401628067593
 21
1961.837743328437
 31
0.0
1001
AcDbBlockRepETag
1070
     1
1071
       19
1005
552
  0
ENDBLK
  5
3F9
330
3F7
100
AcDbEntity
  8
0
100
AcDbBlockEnd
  0
BLOCK
  5
410
330
40F
100
AcDbEntity
  8
0
100
AcDbBlockBegin
  2
2
 70
     0
 10
0.0
 20
0.0
 30
0.0
  3
2
  1

  0
LINE
  5
55A
330
40F
100
AcDbEntity
  8
0
  6
Continuous
 62
     7
370
    15
100
AcDbLine
 10
1336.808704479553
 20
1963.337743328438
 30
0.0
 11
1636.808704479553
 21
1963.337743328438
 31
0.0
1001
AcDbBlockRepETag
1070
     1
1071
        0
1005
55A
  0
LINE
  5
55B
330
40F
100
AcDbEntity
  8
0
  6
Continuous
 62
     7
370
    15
100
AcDbLine
 10
1336.808704479553
 20
1963.337743328438
 30
0.0
 11
1336.808704479553
 21
1964.337743328438
 31
0.0
1001
AcDbBlockRepETag
1070
     1
1071
        1
1005
55B
  0
LINE
  5
55C
330
40F
100
AcDbEntity
  8
0
  6
Continuous
 62
     7
370
    15
100
AcDbLine
 10
1336.808704479553
 20
1964.337743328438
 30
0.0
 11
1636.808704479553
 21
1964.337743328438
 31
0.0
1001
AcDbBlockRepETag
1070
     1
1071
        2
1005
55C
  0
LINE
  5
55D
330
40F
100
AcDbEntity
  8
0
  6
Continuous
 62
     7
370
    15
100
AcDbLine
 10
1636.808704479553
 20
1963.337743328438
 30
0.0
 11
1636.808704479553
 21
1964.337743328438
 31
0.0
1001
AcDbBlockRepETag
1070
     1
1071
        3
1005
55D
  0
LINE
  5
55E
330
40F
100
AcDbEntity
  8
0
  6
Continuous
 62
     7
370
    15
100
AcDbLine
 10
1336.808704479553
 20
1962.137743328438
 30
0.0
 11
1636.808704479553
 21
1962.137743328438
 31
0.0
1001
AcDbBlockRepETag
1070
     1
1071
        4
1005
55E
  0
LINE
  5
55F
330
40F
100
AcDbEntity
  8
0
  6
Continuous
 62
     7
370
    15
100
AcDbLine
 10
1336.808704479553
 20
1962.137743328438
 30
0.0
 11
1336.808704479553
 21
1963.337743328438
 31
0.0
1001
AcDbBlockRepETag
1070
     1
1071
        5
1005
55F
  0
LINE
  5
560
330
40F
100
AcDbEntity
  8
0
  6
Continuous
 62
     7
370
    15
100
AcDbLine
 10
1636.808704479553
 20
1962.137743328438
 30
0.0
 11
1636.808704479553
 21
1963.337743328438
 31
0.0
1001
AcDbBlockRepETag
1070
     1
1071
        6
1005
560
  0
LINE
  5
561
330
40F
100
AcDbEntity
  8
0
  6
Continuous
 62
     7
370
    15
100
AcDbLine
 10
1336.808704479553
 20
1959.337743328438
 30
0.0
 11
1636.808704479553
 21
1959.337743328438
 31
0.0
1001
AcDbBlockRepETag
1070
     1
1071
        7
1005
561
  0
LINE
  5
562
330
40F
100
AcDbEntity
  8
0
  6
Continuous
 62
     7
370
    15
100
AcDbLine
 10
1336.808704479553
 20
1961.837743328438
 30
0.0
 11
1636.808704479553
 21
1961.837743328438
 31
0.0
1001
AcDbBlockRepETag
1070
     1
1071
        8
1005
562
  0
LINE
  5
563
330
40F
100
AcDbEntity
  8
0
  6
Continuous
 62
     7
370
    15
100
AcDbLine
 10
1336.808704479553
 20
1959.337743328438
 30
0.0
 11
1336.808704479553
 21
1961.537743328438
 31
0.0
1001
AcDbBlockRepETag
1070
     1
1071
        9
1005
563
  0
LINE
  5
564
330
40F
100
AcDbEntity
  8
0
  6
Continuous
 62
     7
370
    15
100
AcDbLine
 10
1636.808704479553
 20
1959.337743328438
 30
0.0
 11
1636.808704479553
 21
1961.537743328438
 31
0.0
1001
AcDbBlockRepETag
1070
     1
1071
       10
1005
564
  0
LINE
  5
565
330
40F
100
AcDbEntity
  8
0
  6
Continuous
 62
     7
370
    15
100
AcDbLine
 10
1336.808704479553
 20
1961.537743328438
 30
0.0
 11
1336.808704479553
 21
1962.137743328438
 31
0.0
1001
AcDbBlockRepETag
1070
     1
1071
       11
1005
565
  0
LINE
  5
566
330
40F
100
AcDbEntity
  8
0
  6
Continuous
 62
     7
370
    15
100
AcDbLine
 10
1636.808704479553
 20
1961.537743328438
 30
0.0
 11
1636.808704479553
 21
1962.137743328438
 31
0.0
1001
AcDbBlockRepETag
1070
     1
1071
       12
1005
566
  0
ENDBLK
  5
411
330
40F
100
AcDbEntity
  8
0
100
AcDbBlockEnd
  0
BLOCK
  5
421
330
420
100
AcDbEntity
  8
0
100
AcDbBlockBegin
  2
3
 70
     0
 10
0.0
 20
0.0
 30
0.0
  3
3
  1

  0
LINE
  5
423
330
420
100
AcDbEntity
  8
0
  6
Continuous
 62
     7
370
    15
100
AcDbLine
 10
1684.901628067593
 20
1624.911350537755
 30
0.0
 11
1684.901628067593
 21
1924.911350537755
 31
0.0
  0
LINE
  5
424
330
420
100
AcDbEntity
  8
0
  6
Continuous
 62
     7
370
    15
100
AcDbLine
 10
1684.901628067593
 20
1624.911350537755
 30
0.0
 11
1682.701628067593
 21
1624.911350537755
 31
0.0
  0
LINE
  5
425
330
420
100
AcDbEntity
  8
0
  6
Continuous
 62
     7
370
    15
100
AcDbLine
 10
1682.701628067593
 20
1624.911350537755
 30
0.0
 11
1682.701628067593
 21
1924.911350537755
 31
0.0
  0
LINE
  5
426
330
420
100
AcDbEntity
  8
0
  6
Continuous
 62
     7
370
    15
100
AcDbLine
 10
1684.901628067593
 20
1924.911350537755
 30
0.0
 11
1682.701628067593
 21
1924.911350537755
 31
0.0
  0
LINE
  5
427
330
420
100
AcDbEntity
  8
0
  6
Continuous
 62
     7
370
    15
100
AcDbLine
 10
1682.701628067593
 20
1624.911350537755
 30
0.0
 11
1681.651628067593
 21
1624.911350537755
 31
0.0
  0
LINE
  5
428
330
420
100
AcDbEntity
  8
0
  6
Continuous
 62
     7
370
    15
100
AcDbLine
 10
1681.651628067593
 20
1624.911350537755
 30
0.0
 11
1681.651628067593
 21
1924.911350537755
 31
0.0
  0
LINE
  5
429
330
420
100
AcDbEntity
  8
0
  6
Continuous
 62
     7
370
    15
100
AcDbLine
 10
1682.701628067593
 20
1924.911350537755
 30
0.0
 11
1681.651628067593
 21
1924.911350537755
 31
0.0
  0
LINE
  5
42A
330
420
100
AcDbEntity
  8
0
  6
Continuous
 62
     7
370
    15
100
AcDbLine
 10
1696.651628067593
 20
1624.911350537755
 30
0.0
 11
1696.651628067593
 21
1924.911350537755
 31
0.0
  0
LINE
  5
42B
330
420
100
AcDbEntity
  8
0
  6
Continuous
 62
     7
370
    15
100
AcDbLine
 10
1696.651628067593
 20
1624.911350537755
 30
0.0
 11
1695.601628067593
 21
1624.911350537755
 31
0.0
  0
LINE
  5
42C
330
420
100
AcDbEntity
  8
0
  6
Continuous
 62
     7
370
    15
100
AcDbLine
 10
1695.601628067593
 20
1624.911350537755
 30
0.0
 11
1695.601628067593
 21
1924.911350537755
 31
0.0
  0
LINE
  5
42D
330
420
100
AcDbEntity
  8
0
  6
Continuous
 62
     7
370
    15
100
AcDbLine
 10
1696.651628067593
 20
1924.911350537755
 30
0.0
 11
1695.601628067593
 21
1924.911350537755
 31
0.0
  0
LINE
  5
42E
330
420
100
AcDbEntity
  8
0
  6
Continuous
 62
     7
370
    15
100
AcDbLine
 10
1695.601628067593
 20
1624.911350537755
 30
0.0
 11
1693.401628067593
 21
1624.911350537755
 31
0.0
  0
LINE
  5
42F
330
420
100
AcDbEntity
  8
0
  6
Continuous
 62
     7
370
    15
100
AcDbLine
 10
1693.401628067593
 20
1624.911350537755
 30
0.0
 11
1693.401628067593
 21
1924.911350537755
 31
0.0
  0
LINE
  5
430
330
420
100
AcDbEntity
  8
0
  6
Continuous
 62
     7
370
    15
100
AcDbLine
 10
1695.601628067593
 20
1924.911350537755
 30
0.0
 11
1693.401628067593
 21
1924.911350537755
 31
0.0
  0
LINE
  5
431
330
420
100
AcDbEntity
  8
0
  6
Continuous
 62
     7
370
    15
100
AcDbLine
 10
1686.401628067593
 20
1624.911350537755
 30
0.0
 11
1686.401628067593
 21
1924.911350537755
 31
0.0
  0
LINE
  5
432
330
420
100
AcDbEntity
  8
0
  6
Continuous
 62
     7
370
    15
100
AcDbLine
 10
1686.401628067593
 20
1624.911350537755
 30
0.0
 11
1684.901628067593
 21
1624.911350537755
 31
0.0
  0
LINE
  5
433
330
420
100
AcDbEntity
  8
0
  6
Continuous
 62
     7
370
    15
100
AcDbLine
 10
1686.401628067593
 20
1924.911350537755
 30
0.0
 11
1684.901628067593
 21
1924.911350537755
 31
0.0
  0
LINE
  5
434
330
420
100
AcDbEntity
  8
0
  6
Continuous
 62
     7
370
    15
100
AcDbLine
 10
1691.901628067593
 20
1624.911350537755
 30
0.0
 11
1691.901628067593
 21
1924.911350537755
 31
0.0
  0
LINE
  5
435
330
420
100
AcDbEntity
  8
0
  6
Continuous
 62
     7
370
    15
100
AcDbLine
 10
1693.401628067593
 20
1624.911350537755
 30
0.0
 11
1691.901628067593
 21
1624.911350537755
 31
0.0
  0
LINE
  5
436
330
420
100
AcDbEntity
  8
0
  6
Continuous
 62
     7
370
    15
100
AcDbLine
 10
1693.401628067593
 20
1924.911350537755
 30
0.0
 11
1691.901628067593
 21
1924.911350537755
 31
0.0
  0
ARC
  5
437
330
420
100
AcDbEntity
  8
0
  6
Continuous
 62
     7
370
    15
100
AcDbCircle
 10
1689.151628067593
 20
1907.611350537755
 30
0.0
 40
2.200000000000045
100
AcDbArc
 50
180.0
 51
0.0
  0
LINE
  5
438
330
420
100
AcDbEntity
  8
0
  6
Continuous
 62
     7
370
    15
100
AcDbLine
 10
1691.351628067593
 20
1907.611350537755
 30
0.0
 11
1691.351628067593
 21
1914.911350537754
 31
0.0
  0
ARC
  5
439
330
420
100
AcDbEntity
  8
0
  6
Continuous
 62
     7
370
    15
100
AcDbCircle
 10
1689.151628067593
 20
1914.911350537754
 30
0.0
 40
2.200000000000045
100
AcDbArc
 50
0.0
 51
180.0
  0
LINE
  5
43A
330
420
100
AcDbEntity
  8
0
  6
Continuous
 62
     7
370
    15
100
AcDbLine
 10
1686.951628067593
 20
1914.911350537755
 30
0.0
 11
1686.951628067593
 21
1907.611350537755
 31
0.0
  0
ARC
  5
43B
330
420
100
AcDbEntity
  8
0
  6
Continuous
 62
     7
370
    15
100
AcDbCircle
 10
1689.151628067594
 20
1887.611350537755
 30
0.0
 40
2.200000000000045
100
AcDbArc
 50
180.0
 51
0.0
  0
LINE
  5
43C
330
420
100
AcDbEntity
  8
0
  6
Continuous
 62
     7
370
    15
100
AcDbLine
 10
1691.351628067593
 20
1887.611350537755
 30
0.0
 11
1691.351628067593
 21
1894.911350537755
 31
0.0
  0
ARC
  5
43D
330
420
100
AcDbEntity
  8
0
  6
Continuous
 62
     7
370
    15
100
AcDbCircle
 10
1689.151628067594
 20
1894.911350537755
 30
0.0
 40
2.200000000000045
100
AcDbArc
 50
0.0
 51
180.0
  0
LINE
  5
43E
330
420
100
AcDbEntity
  8
0
  6
Continuous
 62
     7
370
    15
100
AcDbLine
 10
1686.951628067593
 20
1894.911350537755
 30
0.0
 11
1686.951628067593
 21
1887.611350537755
 31
0.0
  0
ARC
  5
43F
330
420
100
AcDbEntity
  8
0
  6
Continuous
 62
     7
370
    15
100
AcDbCircle
 10
1689.151628067594
 20
1867.611350537755
 30
0.0
 40
2.200000000000159
100
AcDbArc
 50
180.0
 51
0.0
  0
LINE
  5
440
330
420
100
AcDbEntity
  8
0
  6
Continuous
 62
     7
370
    15
100
AcDbLine
 10
1691.351628067593
 20
1867.611350537755
 30
0.0
 11
1691.351628067593
 21
1874.911350537755
 31
0.0
  0
ARC
  5
441
330
420
100
AcDbEntity
  8
0
  6
Continuous
 62
     7
370
    15
100
AcDbCircle
 10
1689.151628067594
 20
1874.911350537755
 30
0.0
 40
2.200000000000159
100
AcDbArc
 50
0.0
 51
180.0
  0
LINE
  5
442
330
420
100
AcDbEntity
  8
0
  6
Continuous
 62
     7
370
    15
100
AcDbLine
 10
1686.951628067593
 20
1874.911350537755
 30
0.0
 11
1686.951628067593
 21
1867.611350537755
 31
0.0
  0
ARC
  5
443
330
420
100
AcDbEntity
  8
0
  6
Continuous
 62
     7
370
    15
100
AcDbCircle
 10
1689.151628067594
 20
1847.611350537755
 30
0.0
 40
2.200000000000045
100
AcDbArc
 50
180.0
 51
0.0
  0
LINE
  5
444
330
420
100
AcDbEntity
  8
0
  6
Continuous
 62
     7
370
    15
100
AcDbLine
 10
1691.351628067593
 20
1847.611350537755
 30
0.0
 11
1691.351628067593
 21
1854.911350537754
 31
0.0
  0
ARC
  5
445
330
420
100
AcDbEntity
  8
0
  6
Continuous
 62
     7
370
    15
100
AcDbCircle
 10
1689.151628067594
 20
1854.911350537754
 30
0.0
 40
2.200000000000045
100
AcDbArc
 50
0.0
 51
180.0
  0
LINE
  5
446
330
420
100
AcDbEntity
  8
0
  6
Continuous
 62
     7
370
    15
100
AcDbLine
 10
1686.951628067594
 20
1854.911350537754
 30
0.0
 11
1686.951628067594
 21
1847.611350537755
 31
0.0
  0
ARC
  5
447
330
420
100
AcDbEntity
  8
0
  6
Continuous
 62
     7
370
    15
100
AcDbCircle
 10
1689.151628067594
 20
1827.611350537755
 30
0.0
 40
2.200000000000045
100
AcDbArc
 50
180.0
 51
0.0
  0
LINE
  5
448
330
420
100
AcDbEntity
  8
0
  6
Continuous
 62
     7
370
    15
100
AcDbLine
 10
1691.351628067594
 20
1827.611350537755
 30
0.0
 11
1691.351628067594
 21
1834.911350537754
 31
0.0
  0
ARC
  5
449
330
420
100
AcDbEntity
  8
0
  6
Continuous
 62
     7
370
    15
100
AcDbCircle
 10
1689.151628067594
 20
1834.911350537754
 30
0.0
 40
2.200000000000045
100
AcDbArc
 50
0.0
 51
180.0
  0
LINE
  5
44A
330
420
100
AcDbEntity
  8
0
  6
Continuous
 62
     7
370
    15
100
AcDbLine
 10
1686.951628067594
 20
1834.911350537754
 30
0.0
 11
1686.951628067594
 21
1827.611350537755
 31
0.0
  0
ARC
  5
44B
330
420
100
AcDbEntity
  8
0
  6
Continuous
 62
     7
370
    15
100
AcDbCircle
 10
1689.151628067594
 20
1807.611350537755
 30
0.0
 40
2.200000000000045
100
AcDbArc
 50
180.0
 51
0.0
  0
LINE
  5
44C
330
420
100
AcDbEntity
  8
0
  6
Continuous
 62
     7
370
    15
100
AcDbLine
 10
1691.351628067594
 20
1807.611350537755
 30
0.0
 11
1691.351628067594
 21
1814.911350537754
 31
0.0
  0
ARC
  5
44D
330
420
100
AcDbEntity
  8
0
  6
Continuous
 62
     7
370
    15
100
AcDbCircle
 10
1689.151628067594
 20
1814.911350537754
 30
0.0
 40
2.200000000000045
100
AcDbArc
 50
0.0
 51
180.0
  0
LINE
  5
44E
330
420
100
AcDbEntity
  8
0
  6
Continuous
 62
     7
370
    15
100
AcDbLine
 10
1686.951628067594
 20
1814.911350537754
 30
0.0
 11
1686.951628067594
 21
1807.611350537755
 31
0.0
  0
ARC
  5
44F
330
420
100
AcDbEntity
  8
0
  6
Continuous
 62
     7
370
    15
100
AcDbCircle
 10
1689.151628067594
 20
1787.611350537755
 30
0.0
 40
2.200000000000045
100
AcDbArc
 50
180.0
 51
0.0
  0
LINE
  5
450
330
420
100
AcDbEntity
  8
0
  6
Continuous
 62
     7
370
    15
100
AcDbLine
 10
1691.351628067594
 20
1787.611350537755
 30
0.0
 11
1691.351628067594
 21
1794.911350537755
 31
0.0
  0
ARC
  5
451
330
420
100
AcDbEntity
  8
0
  6
Continuous
 62
     7
370
    15
100
AcDbCircle
 10
1689.151628067594
 20
1794.911350537755
 30
0.0
 40
2.200000000000045
100
AcDbArc
 50
0.0
 51
180.0
  0
LINE
  5
452
330
420
100
AcDbEntity
  8
0
  6
Continuous
 62
     7
370
    15
100
AcDbLine
 10
1686.951628067594
 20
1794.911350537755
 30
0.0
 11
1686.951628067594
 21
1787.611350537755
 31
0.0
  0
ARC
  5
453
330
420
100
AcDbEntity
  8
0
  6
Continuous
 62
     7
370
    15
100
AcDbCircle
 10
1689.151628067594
 20
1767.611350537755
 30
0.0
 40
2.200000000000159
100
AcDbArc
 50
180.0
 51
0.0
  0
LINE
  5
454
330
420
100
AcDbEntity
  8
0
  6
Continuous
 62
     7
370
    15
100
AcDbLine
 10
1691.351628067594
 20
1767.611350537755
 30
0.0
 11
1691.351628067594
 21
1774.911350537754
 31
0.0
  0
ARC
  5
455
330
420
100
AcDbEntity
  8
0
  6
Continuous
 62
     7
370
    15
100
AcDbCircle
 10
1689.151628067594
 20
1774.911350537754
 30
0.0
 40
2.200000000000159
100
AcDbArc
 50
0.0
 51
180.0
  0
LINE
  5
456
330
420
100
AcDbEntity
  8
0
  6
Continuous
 62
     7
370
    15
100
AcDbLine
 10
1686.951628067594
 20
1774.911350537754
 30
0.0
 11
1686.951628067594
 21
1767.611350537755
 31
0.0
  0
ARC
  5
457
330
420
100
AcDbEntity
  8
0
  6
Continuous
 62
     7
370
    15
100
AcDbCircle
 10
1689.151628067594
 20
1747.611350537755
 30
0.0
 40
2.200000000000045
100
AcDbArc
 50
180.0
 51
0.0
  0
LINE
  5
458
330
420
100
AcDbEntity
  8
0
  6
Continuous
 62
     7
370
    15
100
AcDbLine
 10
1691.351628067594
 20
1747.611350537755
 30
0.0
 11
1691.351628067594
 21
1754.911350537754
 31
0.0
  0
ARC
  5
459
330
420
100
AcDbEntity
  8
0
  6
Continuous
 62
     7
370
    15
100
AcDbCircle
 10
1689.151628067594
 20
1754.911350537754
 30
0.0
 40
2.200000000000045
100
AcDbArc
 50
0.0
 51
180.0
  0
LINE
  5
45A
330
420
100
AcDbEntity
  8
0
  6
Continuous
 62
     7
370
    15
100
AcDbLine
 10
1686.951628067594
 20
1754.911350537754
 30
0.0
 11
1686.951628067594
 21
1747.611350537755
 31
0.0
  0
ARC
  5
45B
330
420
100
AcDbEntity
  8
0
  6
Continuous
 62
     7
370
    15
100
AcDbCircle
 10
1689.151628067594
 20
1727.611350537755
 30
0.0
 40
2.199999999999931
100
AcDbArc
 50
180.0
 51
0.0
  0
LINE
  5
45C
330
420
100
AcDbEntity
  8
0
  6
Continuous
 62
     7
370
    15
100
AcDbLine
 10
1691.351628067594
 20
1727.611350537755
 30
0.0
 11
1691.351628067594
 21
1734.911350537755
 31
0.0
  0
ARC
  5
45D
330
420
100
AcDbEntity
  8
0
  6
Continuous
 62
     7
370
    15
100
AcDbCircle
 10
1689.151628067594
 20
1734.911350537755
 30
0.0
 40
2.199999999999931
100
AcDbArc
 50
0.0
 51
180.0
  0
LINE
  5
45E
330
420
100
AcDbEntity
  8
0
  6
Continuous
 62
     7
370
    15
100
AcDbLine
 10
1686.951628067594
 20
1734.911350537755
 30
0.0
 11
1686.951628067594
 21
1727.611350537755
 31
0.0
  0
ARC
  5
45F
330
420
100
AcDbEntity
  8
0
  6
Continuous
 62
     7
370
    15
100
AcDbCircle
 10
1689.151628067594
 20
1707.611350537755
 30
0.0
 40
2.200000000000045
100
AcDbArc
 50
180.0
 51
0.0
  0
LINE
  5
460
330
420
100
AcDbEntity
  8
0
  6
Continuous
 62
     7
370
    15
100
AcDbLine
 10
1691.351628067594
 20
1707.611350537755
 30
0.0
 11
1691.351628067594
 21
1714.911350537755
 31
0.0
  0
ARC
  5
461
330
420
100
AcDbEntity
  8
0
  6
Continuous
 62
     7
370
    15
100
AcDbCircle
 10
1689.151628067594
 20
1714.911350537755
 30
0.0
 40
2.200000000000045
100
AcDbArc
 50
0.0
 51
180.0
  0
LINE
  5
462
330
420
100
AcDbEntity
  8
0
  6
Continuous
 62
     7
370
    15
100
AcDbLine
 10
1686.951628067594
 20
1714.911350537755
 30
0.0
 11
1686.951628067594
 21
1707.611350537755
 31
0.0
  0
ARC
  5
463
330
420
100
AcDbEntity
  8
0
  6
Continuous
 62
     7
370
    15
100
AcDbCircle
 10
1689.151628067594
 20
1687.611350537755
 30
0.0
 40
2.199999999999931
100
AcDbArc
 50
180.0
 51
0.0
  0
LINE
  5
464
330
420
100
AcDbEntity
  8
0
  6
Continuous
 62
     7
370
    15
100
AcDbLine
 10
1691.351628067594
 20
1687.611350537755
 30
0.0
 11
1691.351628067594
 21
1694.911350537754
 31
0.0
  0
ARC
  5
465
330
420
100
AcDbEntity
  8
0
  6
Continuous
 62
     7
370
    15
100
AcDbCircle
 10
1689.151628067594
 20
1694.911350537754
 30
0.0
 40
2.199999999999931
100
AcDbArc
 50
0.0
 51
180.0
  0
LINE
  5
466
330
420
100
AcDbEntity
  8
0
  6
Continuous
 62
     7
370
    15
100
AcDbLine
 10
1686.951628067594
 20
1694.911350537754
 30
0.0
 11
1686.951628067594
 21
1687.611350537755
 31
0.0
  0
ARC
  5
467
330
420
100
AcDbEntity
  8
0
  6
Continuous
 62
     7
370
    15
100
AcDbCircle
 10
1689.151628067594
 20
1667.611350537755
 30
0.0
 40
2.200000000000045
100
AcDbArc
 50
180.0
 51
0.0
  0
LINE
  5
468
330
420
100
AcDbEntity
  8
0
  6
Continuous
 62
     7
370
    15
100
AcDbLine
 10
1691.351628067594
 20
1667.611350537755
 30
0.0
 11
1691.351628067594
 21
1674.911350537754
 31
0.0
  0
ARC
  5
469
330
420
100
AcDbEntity
  8
0
  6
Continuous
 62
     7
370
    15
100
AcDbCircle
 10
1689.151628067594
 20
1674.911350537754
 30
0.0
 40
2.200000000000045
100
AcDbArc
 50
0.0
 51
180.0
  0
LINE
  5
46A
330
420
100
AcDbEntity
  8
0
  6
Continuous
 62
     7
370
    15
100
AcDbLine
 10
1686.951628067594
 20
1674.911350537754
 30
0.0
 11
1686.951628067594
 21
1667.611350537755
 31
0.0
  0
ARC
  5
46B
330
420
100
AcDbEntity
  8
0
  6
Continuous
 62
     7
370
    15
100
AcDbCircle
 10
1689.151628067594
 20
1647.611350537754
 30
0.0
 40
2.199999999999931
100
AcDbArc
 50
180.0
 51
0.0
  0
LINE
  5
46C
330
420
100
AcDbEntity
  8
0
  6
Continuous
 62
     7
370
    15
100
AcDbLine
 10
1691.351628067594
 20
1647.611350537754
 30
0.0
 11
1691.351628067594
 21
1654.911350537754
 31
0.0
  0
ARC
  5
46D
330
420
100
AcDbEntity
  8
0
  6
Continuous
 62
     7
370
    15
100
AcDbCircle
 10
1689.151628067594
 20
1654.911350537754
 30
0.0
 40
2.199999999999931
100
AcDbArc
 50
0.0
 51
180.0
  0
LINE
  5
46E
330
420
100
AcDbEntity
  8
0
  6
Continuous
 62
     7
370
    15
100
AcDbLine
 10
1686.951628067594
 20
1654.911350537754
 30
0.0
 11
1686.951628067594
 21
1647.611350537754
 31
0.0
  0
ARC
  5
46F
330
420
100
AcDbEntity
  8
0
  6
Continuous
 62
     7
370
    15
100
AcDbCircle
 10
1689.151628067594
 20
1627.611350537754
 30
0.0
 40
2.199999999999931
100
AcDbArc
 50
180.0
 51
0.0
  0
LINE
  5
470
330
420
100
AcDbEntity
  8
0
  6
Continuous
 62
     7
370
    15
100
AcDbLine
 10
1691.351628067594
 20
1627.611350537754
 30
0.0
 11
1691.351628067594
 21
1634.911350537754
 31
0.0
  0
ARC
  5
471
330
420
100
AcDbEntity
  8
0
  6
Continuous
 62
     7
370
    15
100
AcDbCircle
 10
1689.151628067594
 20
1634.911350537754
 30
0.0
 40
2.199999999999931
100
AcDbArc
 50
0.0
 51
180.0
  0
LINE
  5
472
330
420
100
AcDbEntity
  8
0
  6
Continuous
 62
     7
370
    15
100
AcDbLine
 10
1686.951628067594
 20
1634.911350537754
 30
0.0
 11
1686.951628067594
 21
1627.611350537754
 31
0.0
  0
LINE
  5
473
330
420
100
AcDbEntity
  8
0
  6
Continuous
 62
     7
370
    15
100
AcDbLine
 10
1691.901628067593
 20
1624.911350537755
 30
0.0
 11
1686.401628067593
 21
1624.911350537755
 31
0.0
  0
LINE
  5
474
330
420
100
AcDbEntity
  8
0
  6
Continuous
 62
     7
370
    15
100
AcDbLine
 10
1691.901628067593
 20
1924.911350537755
 30
0.0
 11
1686.401628067593
 21
1924.911350537755
 31
0.0
  0
ENDBLK
  5
422
330
420
100
AcDbEntity
  8
0
100
AcDbBlockEnd
  0
BLOCK
  5
477
330
476
100
AcDbEntity
  8
0
100
AcDbBlockBegin
  2
4
 70
     0
 10
0.0
 20
0.0
 30
0.0
  3
4
  1

  0
LINE
  5
479
330
476
100
AcDbEntity
  8
0
  6
Continuous
 62
     7
370
    15
100
AcDbLine
 10
1603.064045268266
 20
1900.704251344998
 30
0.0
 11
1425.028629428195
 21
1735.619314029067
 31
0.0
  0
LINE
  5
47A
330
476
100
AcDbEntity
  8
0
  6
Continuous
 62
     7
370
    15
100
AcDbLine
 10
1425.254905623299
 20
1733.186302896509
 30
0.0
 11
1426.890606788009
 21
1734.703021482919
 31
0.0
  0
LINE
  5
47B
330
476
100
AcDbEntity
  8
0
  6
Continuous
 62
     7
370
    15
100
AcDbLine
 10
1417.921789169202
 20
1737.772745854486
 30
0.0
 11
1417.913612001955
 21
1738.214667590565
 31
0.0
  0
ARC
  5
47C
330
476
100
AcDbEntity
  8
0
  6
Continuous
 62
     7
370
    15
100
AcDbCircle
 10
1420.088096764319
 20
1738.049877889986
 30
0.0
 40
2.183962170405184
100
AcDbArc
 50
187.2901540636986
 51
244.5432119291232
  0
LINE
  5
47D
330
476
100
AcDbEntity
  8
0
  6
Continuous
 62
     7
370
    15
100
AcDbLine
 10
1423.575513187018
 20
1733.914681517157
 30
0.0
 11
1419.149363751542
 21
1736.077957229188
 31
0.0
  0
LWPOLYLINE
  5
47E
330
476
100
AcDbEntity
  8
0
  6
Continuous
 62
     7
370
    15
100
AcDbPolyline
 90
        9
 70
   128
 43
0.0
 10
1424.762201933122
 20
1734.429501572256
 10
1424.742995452156
 20
1734.225301320367
 10
1424.678137672594
 20
1734.05162113485
 10
1424.570121042531
 20
1733.915135447834
 10
1424.423096580485
 20
1733.821089327729
 10
1424.242714354079
 20
1733.77309691419
 10
1424.035906351115
 20
1733.773002528753
 10
1423.810620087168
 20
1733.820809798599
 10
1423.575513187018
 20
1733.914681517157
  0
LINE
  5
47F
330
476
100
AcDbEntity
  8
0
  6
Continuous
 62
     7
370
    15
100
AcDbLine
 10
1424.754024765874
 20
1734.871423308335
 30
0.0
 11
1424.762201933122
 21
1734.429501572256
 31
0.0
  0
LWPOLYLINE
  5
480
330
476
100
AcDbEntity
  8
0
  6
Continuous
 62
     7
370
    15
100
AcDbPolyline
 90
        9
 70
   128
 43
0.0
 10
1426.494501593493
 20
1735.626492722479
 10
1426.14967813994
 20
1735.764171243032
 10
1425.819258286151
 20
1735.834288572139
 10
1425.515939881804
 20
1735.834150140165
 10
1425.251379283075
 20
1735.763761266974
 10
1425.035743405407
 20
1735.625826957487
 10
1424.877319014649
 20
1735.425647949864
 10
1424.782194271291
 20
1735.170917011106
 10
1424.754024765874
 20
1734.871423308335
  0
LINE
  5
481
330
476
100
AcDbEntity
  8
0
  6
Continuous
 62
     7
370
    15
100
AcDbLine
 10
1427.339493758447
 20
1735.21350372291
 30
0.0
 11
1426.494501593493
 21
1735.626492722479
 31
0.0
  0
LINE
  5
482
330
476
100
AcDbEntity
  8
0
  6
Continuous
 62
     7
370
    15
100
AcDbLine
 10
1427.353122370526
 20
1734.476967496111
 30
0.0
 11
1427.339493758447
 21
1735.21350372291
 31
0.0
  0
LINE
  5
483
330
476
100
AcDbEntity
  8
0
  6
Continuous
 62
     7
370
    15
100
AcDbLine
 10
1426.508130205571
 20
1734.889956495681
 30
0.0
 11
1427.353122370526
 21
1734.476967496111
 31
0.0
  0
LWPOLYLINE
  5
484
330
476
100
AcDbEntity
  8
0
  6
Continuous
 62
     7
370
    15
100
AcDbPolyline
 90
        9
 70
   128
 43
0.0
 10
1425.558779208689
 20
1734.478100451602
 10
1425.574144393461
 20
1734.641460653113
 10
1425.626030617111
 20
1734.780404801527
 10
1425.712443921161
 20
1734.889593351139
 10
1425.830063490798
 20
1734.964830247223
 10
1425.974369271923
 20
1735.003224178055
 10
1426.139815674294
 20
1735.003299686404
 10
1426.320044685452
 20
1734.965053870527
 10
1426.508130205571
 20
1734.889956495681
  0
LINE
  5
485
330
476
100
AcDbEntity
  8
0
  6
Continuous
 62
     7
370
    15
100
AcDbLine
 10
1425.566956375936
 20
1734.036178715523
 30
0.0
 11
1425.558779208689
 21
1734.478100451602
 31
0.0
  0
LWPOLYLINE
  5
486
330
476
100
AcDbEntity
  8
0
  6
Continuous
 62
     7
370
    15
100
AcDbPolyline
 90
        9
 70
   128
 43
0.0
 10
1423.589141799097
 20
1733.178145290358
 10
1423.980986632679
 20
1733.021692426095
 10
1424.356463739258
 20
1732.942013643018
 10
1424.701143744198
 20
1732.94217095208
 10
1425.001780788208
 20
1733.022158307979
 10
1425.246821558284
 20
1733.178901841486
 10
1425.426849275056
 20
1733.406377986513
 10
1425.534945574326
 20
1733.695844962374
 10
1425.566956375936
 20
1734.036178715523
  0
LINE
  5
487
330
476
100
AcDbEntity
  8
0
  6
Continuous
 62
     7
370
    15
100
AcDbLine
 10
1419.16299236362
 20
1735.34142100239
 30
0.0
 11
1423.589141799097
 21
1733.178145290358
 31
0.0
  0
ARC
  5
488
330
476
100
AcDbEntity
  8
0
  6
Continuous
 62
     7
370
    15
100
AcDbCircle
 10
1420.727547384916
 20
1738.627955437053
 30
0.0
 40
3.639936950675182
100
AcDbArc
 50
187.2901540636986
 51
244.5432119291176
  0
LINE
  5
489
330
476
100
AcDbEntity
  8
0
  6
Continuous
 62
     7
370
    15
100
AcDbLine
 10
1417.108857559141
 20
1738.607990447298
 30
0.0
 11
1417.117034726388
 21
1738.166068711219
 31
0.0
  0
ARC
  5
48A
330
476
100
AcDbEntity
  8
0
  6
Continuous
 62
     7
370
    15
100
AcDbCircle
 10
1415.375811483047
 20
1738.386284818898
 30
0.0
 40
1.747169736325032
100
AcDbArc
 50
7.290154063711563
 51
64.54321192908849
  0
LINE
  5
48B
330
476
100
AcDbEntity
  8
0
  6
Continuous
 62
     7
370
    15
100
AcDbLine
 10
1415.281805728315
 20
1740.376810347107
 30
0.0
 11
1416.12679789327
 21
1739.963821347537
 31
0.0
  0
LINE
  5
48C
330
476
100
AcDbEntity
  8
0
  6
Continuous
 62
     7
370
    15
100
AcDbLine
 10
1415.268177116236
 20
1741.113346573905
 30
0.0
 11
1415.281805728315
 21
1740.376810347107
 31
0.0
  0
LINE
  5
48D
330
476
100
AcDbEntity
  8
0
  6
Continuous
 62
     7
370
    15
100
AcDbLine
 10
1416.113169281191
 20
1740.700357574336
 30
0.0
 11
1415.268177116236
 21
1741.113346573905
 31
0.0
  0
ARC
  5
48E
330
476
100
AcDbEntity
  8
0
  6
Continuous
 62
     7
370
    15
100
AcDbCircle
 10
1414.73636086245
 20
1737.808207271832
 30
0.0
 40
3.203144516594722
100
AcDbArc
 50
7.290154063698641
 51
64.54321192911762
  0
LINE
  5
48F
330
476
100
AcDbEntity
  8
0
  6
Continuous
 62
     7
370
    15
100
AcDbLine
 10
1427.339493758447
 20
1735.21350372291
 30
0.0
 11
1605.374909598518
 21
1900.298441038841
 31
0.0
  0
LINE
  5
490
330
476
100
AcDbEntity
  8
0
  6
Continuous
 62
     7
370
    15
100
AcDbLine
 10
1426.494501593493
 20
1735.626492722479
 30
0.0
 11
1604.529917433563
 21
1900.711430038411
 31
0.0
  0
LINE
  5
491
330
476
100
AcDbEntity
  8
0
  6
Continuous
 62
     7
370
    15
100
AcDbLine
 10
1605.374909598518
 20
1900.298441038841
 30
0.0
 11
1604.529917433563
 21
1900.711430038411
 31
0.0
  0
LINE
  5
492
330
476
100
AcDbEntity
  8
0
  6
Continuous
 62
     7
370
    15
100
AcDbLine
 10
1427.353122370526
 20
1734.476967496111
 30
0.0
 11
1605.388538210597
 21
1899.561904812042
 31
0.0
  0
LINE
  5
493
330
476
100
AcDbEntity
  8
0
  6
Continuous
 62
     7
370
    15
100
AcDbLine
 10
1605.388538210597
 20
1899.561904812042
 30
0.0
 11
1605.374909598518
 21
1900.298441038841
 31
0.0
  0
ARC
  5
494
330
476
100
AcDbEntity
  8
0
  6
Continuous
 62
     7
370
    15
100
AcDbCircle
 10
1603.802097170504
 20
1899.663202467496
 30
0.0
 40
1.276128275583925
100
AcDbArc
 50
55.22642988694752
 51
125.33474530504
  0
LINE
  5
495
330
476
100
AcDbEntity
  8
0
  6
Continuous
 62
     7
370
    15
100
AcDbLine
 10
1419.149363751542
 20
1736.077957229188
 30
0.0
 11
1597.184779591612
 21
1901.162894545119
 31
0.0
  0
LINE
  5
496
330
476
100
AcDbEntity
  8
0
  6
Continuous
 62
     7
370
    15
100
AcDbLine
 10
1601.358658232349
 20
1899.122915909039
 30
0.0
 11
1597.184779591612
 21
1901.162894545119
 31
0.0
  0
LWPOLYLINE
  5
497
330
476
100
AcDbEntity
  8
0
  6
Continuous
 62
     7
370
    15
100
AcDbPolyline
 90
       11
 70
   128
 43
0.0
 10
1587.360685555049
 20
1891.426668922031
 10
1587.043887584126
 20
1891.01021458047
 10
1586.931404944074
 20
1890.549823091819
 10
1587.034248219415
 20
1890.090560782726
 10
1587.342350393807
 20
1889.677383447872
 10
1587.825552279746
 20
1889.350735763568
 10
1588.436554709972
 20
1889.142592281043
 10
1589.115548509508
 20
1889.073327534586
 10
1589.79606903443
 20
1889.149721640178
 10
1590.411502194291
 20
1889.364296610493
 10
1590.901605103431
 20
1889.696048352405
  0
LINE
  5
498
330
476
100
AcDbEntity
  8
0
  6
Continuous
 62
     7
370
    15
100
AcDbLine
 10
1590.901605103431
 20
1889.696048352405
 30
0.0
 11
1595.233800222206
 21
1893.713115160426
 31
0.0
  0
LWPOLYLINE
  5
499
330
476
100
AcDbEntity
  8
0
  6
Continuous
 62
     7
370
    15
100
AcDbPolyline
 90
       11
 70
   128
 43
0.0
 10
1595.233800222206
 20
1893.713115160426
 10
1595.550598193129
 20
1894.129569501988
 10
1595.663080833181
 20
1894.589960990638
 10
1595.56023755784
 20
1895.049223299731
 10
1595.252135383448
 20
1895.462400634585
 10
1594.768933497509
 20
1895.789048318889
 10
1594.157931067283
 20
1895.997191801415
 10
1593.478937267747
 20
1896.066456547871
 10
1592.798416742826
 20
1895.990062442279
 10
1592.182983582964
 20
1895.775487471964
 10
1591.692880673824
 20
1895.443735730052
  0
LINE
  5
49A
330
476
100
AcDbEntity
  8
0
  6
Continuous
 62
     7
370
    15
100
AcDbLine
 10
1591.692880673824
 20
1895.443735730052
 30
0.0
 11
1587.360685555049
 21
1891.426668922031
 31
0.0
  0
LWPOLYLINE
  5
49B
330
476
100
AcDbEntity
  8
0
  6
Continuous
 62
     7
370
    15
100
AcDbPolyline
 90
       11
 70
   128
 43
0.0
 10
1575.491657832378
 20
1880.421006434302
 10
1575.174859861455
 20
1880.00455209274
 10
1575.062377221403
 20
1879.544160604091
 10
1575.165220496744
 20
1879.084898294997
 10
1575.473322671136
 20
1878.671720960143
 10
1575.956524557075
 20
1878.345073275839
 10
1576.5675269873
 20
1878.136929793314
 10
1577.246520786837
 20
1878.067665046858
 10
1577.927041311759
 20
1878.144059152449
 10
1578.54247447162
 20
1878.358634122764
 10
1579.03257738076
 20
1878.690385864677
  0
LINE
  5
49C
330
476
100
AcDbEntity
  8
0
  6
Continuous
 62
     7
370
    15
100
AcDbLine
 10
1579.03257738076
 20
1878.690385864677
 30
0.0
 11
1583.364772499535
 21
1882.707452672698
 31
0.0
  0
LWPOLYLINE
  5
49D
330
476
100
AcDbEntity
  8
0
  6
Continuous
 62
     7
370
    15
100
AcDbPolyline
 90
       11
 70
   128
 43
0.0
 10
1583.364772499535
 20
1882.707452672698
 10
1583.681570470458
 20
1883.123907014259
 10
1583.794053110509
 20
1883.584298502909
 10
1583.691209835169
 20
1884.043560812002
 10
1583.383107660777
 20
1884.456738146857
 10
1582.899905774838
 20
1884.78338583116
 10
1582.288903344613
 20
1884.991529313685
 10
1581.609909545076
 20
1885.060794060142
 10
1580.929389020154
 20
1884.98439995455
 10
1580.313955860292
 20
1884.769824984235
 10
1579.823852951153
 20
1884.438073242323
  0
LINE
  5
49E
330
476
100
AcDbEntity
  8
0
  6
Continuous
 62
     7
370
    15
100
AcDbLine
 10
1579.823852951153
 20
1884.438073242323
 30
0.0
 11
1575.491657832378
 21
1880.421006434302
 31
0.0
  0
LWPOLYLINE
  5
49F
330
476
100
AcDbEntity
  8
0
  6
Continuous
 62
     7
370
    15
100
AcDbPolyline
 90
       11
 70
   128
 43
0.0
 10
1563.622630109707
 20
1869.415343946573
 10
1563.305832138783
 20
1868.998889605012
 10
1563.193349498732
 20
1868.538498116362
 10
1563.296192774073
 20
1868.079235807268
 10
1563.604294948464
 20
1867.666058472414
 10
1564.087496834404
 20
1867.33941078811
 10
1564.698499264629
 20
1867.131267305585
 10
1565.377493064166
 20
1867.062002559128
 10
1566.058013589087
 20
1867.13839666472
 10
1566.673446748949
 20
1867.352971635035
 10
1567.163549658088
 20
1867.684723376948
  0
LINE
  5
4A0
330
476
100
AcDbEntity
  8
0
  6
Continuous
 62
     7
370
    15
100
AcDbLine
 10
1567.163549658088
 20
1867.684723376948
 30
0.0
 11
1571.495744776864
 21
1871.701790184969
 31
0.0
  0
LWPOLYLINE
  5
4A1
330
476
100
AcDbEntity
  8
0
  6
Continuous
 62
     7
370
    15
100
AcDbPolyline
 90
       11
 70
   128
 43
0.0
 10
1571.495744776864
 20
1871.701790184969
 10
1571.812542747786
 20
1872.11824452653
 10
1571.925025387838
 20
1872.57863601518
 10
1571.822182112497
 20
1873.037898324273
 10
1571.514079938105
 20
1873.451075659128
 10
1571.030878052166
 20
1873.777723343432
 10
1570.419875621941
 20
1873.985866825957
 10
1569.740881822404
 20
1874.055131572413
 10
1569.060361297483
 20
1873.978737466822
 10
1568.444928137621
 20
1873.764162496507
 10
1567.954825228482
 20
1873.432410754594
  0
LINE
  5
4A2
330
476
100
AcDbEntity
  8
0
  6
Continuous
 62
     7
370
    15
100
AcDbLine
 10
1567.954825228482
 20
1873.432410754594
 30
0.0
 11
1563.622630109707
 21
1869.415343946573
 31
0.0
  0
LWPOLYLINE
  5
4A3
330
476
100
AcDbEntity
  8
0
  6
Continuous
 62
     7
370
    15
100
AcDbPolyline
 90
       11
 70
   128
 43
0.0
 10
1551.753602387035
 20
1858.409681458844
 10
1551.436804416112
 20
1857.993227117283
 10
1551.32432177606
 20
1857.532835628633
 10
1551.427165051401
 20
1857.07357331954
 10
1551.735267225793
 20
1856.660395984685
 10
1552.218469111732
 20
1856.333748300382
 10
1552.829471541957
 20
1856.125604817856
 10
1553.508465341494
 20
1856.0563400714
 10
1554.188985866416
 20
1856.132734176991
 10
1554.804419026277
 20
1856.347309147307
 10
1555.294521935417
 20
1856.679060889219
  0
LINE
  5
4A4
330
476
100
AcDbEntity
  8
0
  6
Continuous
 62
     7
370
    15
100
AcDbLine
 10
1555.294521935417
 20
1856.679060889219
 30
0.0
 11
1559.626717054192
 21
1860.69612769724
 31
0.0
  0
LWPOLYLINE
  5
4A5
330
476
100
AcDbEntity
  8
0
  6
Continuous
 62
     7
370
    15
100
AcDbPolyline
 90
       11
 70
   128
 43
0.0
 10
1559.626717054192
 20
1860.69612769724
 10
1559.943515025115
 20
1861.112582038801
 10
1560.055997665167
 20
1861.572973527452
 10
1559.953154389826
 20
1862.032235836545
 10
1559.645052215434
 20
1862.445413171399
 10
1559.161850329495
 20
1862.772060855703
 10
1558.55084789927
 20
1862.980204338228
 10
1557.871854099733
 20
1863.049469084685
 10
1557.191333574811
 20
1862.973074979093
 10
1556.57590041495
 20
1862.758500008778
 10
1556.08579750581
 20
1862.426748266865
  0
LINE
  5
4A6
330
476
100
AcDbEntity
  8
0
  6
Continuous
 62
     7
370
    15
100
AcDbLine
 10
1556.08579750581
 20
1862.426748266865
 30
0.0
 11
1551.753602387035
 21
1858.409681458844
 31
0.0
  0
LWPOLYLINE
  5
4A7
330
476
100
AcDbEntity
  8
0
  6
Continuous
 62
     7
370
    15
100
AcDbPolyline
 90
       11
 70
   128
 43
0.0
 10
1539.884574664364
 20
1847.404018971116
 10
1539.567776693441
 20
1846.987564629554
 10
1539.455294053389
 20
1846.527173140904
 10
1539.55813732873
 20
1846.067910831811
 10
1539.866239503122
 20
1845.654733496957
 10
1540.349441389061
 20
1845.328085812653
 10
1540.960443819286
 20
1845.119942330128
 10
1541.639437618823
 20
1845.050677583671
 10
1542.319958143744
 20
1845.127071689262
 10
1542.935391303606
 20
1845.341646659578
 10
1543.425494212746
 20
1845.67339840149
  0
LINE
  5
4A8
330
476
100
AcDbEntity
  8
0
  6
Continuous
 62
     7
370
    15
100
AcDbLine
 10
1543.425494212746
 20
1845.67339840149
 30
0.0
 11
1547.757689331521
 21
1849.690465209511
 31
0.0
  0
LWPOLYLINE
  5
4A9
330
476
100
AcDbEntity
  8
0
  6
Continuous
 62
     7
370
    15
100
AcDbPolyline
 90
       11
 70
   128
 43
0.0
 10
1547.757689331521
 20
1849.690465209511
 10
1548.074487302444
 20
1850.106919551073
 10
1548.186969942495
 20
1850.567311039723
 10
1548.084126667155
 20
1851.026573348816
 10
1547.776024492763
 20
1851.43975068367
 10
1547.292822606824
 20
1851.766398367974
 10
1546.681820176599
 20
1851.974541850499
 10
1546.002826377062
 20
1852.043806596956
 10
1545.32230585214
 20
1851.967412491364
 10
1544.706872692279
 20
1851.752837521049
 10
1544.216769783139
 20
1851.421085779137
  0
LINE
  5
4AA
330
476
100
AcDbEntity
  8
0
  6
Continuous
 62
     7
370
    15
100
AcDbLine
 10
1544.216769783139
 20
1851.421085779137
 30
0.0
 11
1539.884574664364
 21
1847.404018971116
 31
0.0
  0
LWPOLYLINE
  5
4AB
330
476
100
AcDbEntity
  8
0
  6
Continuous
 62
     7
370
    15
100
AcDbPolyline
 90
       11
 70
   128
 43
0.0
 10
1528.015546941692
 20
1836.398356483387
 10
1527.698748970769
 20
1835.981902141826
 10
1527.586266330718
 20
1835.521510653176
 10
1527.689109606059
 20
1835.062248344082
 10
1527.99721178045
 20
1834.649071009228
 10
1528.48041366639
 20
1834.322423324924
 10
1529.091416096615
 20
1834.114279842399
 10
1529.770409896151
 20
1834.045015095943
 10
1530.450930421073
 20
1834.121409201534
 10
1531.066363580935
 20
1834.335984171849
 10
1531.556466490074
 20
1834.667735913762
  0
LINE
  5
4AC
330
476
100
AcDbEntity
  8
0
  6
Continuous
 62
     7
370
    15
100
AcDbLine
 10
1531.556466490074
 20
1834.667735913762
 30
0.0
 11
1535.888661608849
 21
1838.684802721783
 31
0.0
  0
LWPOLYLINE
  5
4AD
330
476
100
AcDbEntity
  8
0
  6
Continuous
 62
     7
370
    15
100
AcDbPolyline
 90
       11
 70
   128
 43
0.0
 10
1535.888661608849
 20
1838.684802721783
 10
1536.205459579772
 20
1839.101257063344
 10
1536.317942219824
 20
1839.561648551994
 10
1536.215098944483
 20
1840.020910861088
 10
1535.906996770092
 20
1840.434088195942
 10
1535.423794884152
 20
1840.760735880246
 10
1534.812792453927
 20
1840.968879362771
 10
1534.13379865439
 20
1841.038144109227
 10
1533.453278129469
 20
1840.961750003636
 10
1532.837844969607
 20
1840.74717503332
 10
1532.347742060468
 20
1840.415423291408
  0
LINE
  5
4AE
330
476
100
AcDbEntity
  8
0
  6
Continuous
 62
     7
370
    15
100
AcDbLine
 10
1532.347742060468
 20
1840.415423291408
 30
0.0
 11
1528.015546941692
 21
1836.398356483387
 31
0.0
  0
LWPOLYLINE
  5
4AF
330
476
100
AcDbEntity
  8
0
  6
Continuous
 62
     7
370
    15
100
AcDbPolyline
 90
       11
 70
   128
 43
0.0
 10
1516.146519219021
 20
1825.392693995658
 10
1515.829721248098
 20
1824.976239654097
 10
1515.717238608046
 20
1824.515848165447
 10
1515.820081883387
 20
1824.056585856353
 10
1516.128184057779
 20
1823.643408521499
 10
1516.611385943718
 20
1823.316760837195
 10
1517.222388373943
 20
1823.10861735467
 10
1517.90138217348
 20
1823.039352608214
 10
1518.581902698402
 20
1823.115746713805
 10
1519.197335858263
 20
1823.33032168412
 10
1519.687438767403
 20
1823.662073426033
  0
LINE
  5
4B0
330
476
100
AcDbEntity
  8
0
  6
Continuous
 62
     7
370
    15
100
AcDbLine
 10
1519.687438767403
 20
1823.662073426033
 30
0.0
 11
1524.019633886178
 21
1827.679140234054
 31
0.0
  0
LWPOLYLINE
  5
4B1
330
476
100
AcDbEntity
  8
0
  6
Continuous
 62
     7
370
    15
100
AcDbPolyline
 90
       11
 70
   128
 43
0.0
 10
1524.019633886178
 20
1827.679140234054
 10
1524.336431857101
 20
1828.095594575615
 10
1524.448914497153
 20
1828.555986064265
 10
1524.346071221812
 20
1829.015248373359
 10
1524.03796904742
 20
1829.428425708213
 10
1523.554767161481
 20
1829.755073392517
 10
1522.943764731256
 20
1829.963216875042
 10
1522.264770931719
 20
1830.032481621498
 10
1521.584250406798
 20
1829.956087515907
 10
1520.968817246936
 20
1829.741512545592
 10
1520.478714337796
 20
1829.409760803679
  0
LINE
  5
4B2
330
476
100
AcDbEntity
  8
0
  6
Continuous
 62
     7
370
    15
100
AcDbLine
 10
1520.478714337796
 20
1829.409760803679
 30
0.0
 11
1516.146519219021
 21
1825.392693995658
 31
0.0
  0
LWPOLYLINE
  5
4B3
330
476
100
AcDbEntity
  8
0
  6
Continuous
 62
     7
370
    15
100
AcDbPolyline
 90
       11
 70
   128
 43
0.0
 10
1504.27749149635
 20
1814.387031507929
 10
1503.960693525427
 20
1813.970577166368
 10
1503.848210885375
 20
1813.510185677718
 10
1503.951054160716
 20
1813.050923368624
 10
1504.259156335108
 20
1812.63774603377
 10
1504.742358221047
 20
1812.311098349466
 10
1505.353360651272
 20
1812.102954866941
 10
1506.032354450809
 20
1812.033690120485
 10
1506.71287497573
 20
1812.110084226076
 10
1507.328308135592
 20
1812.324659196392
 10
1507.818411044732
 20
1812.656410938304
  0
LINE
  5
4B4
330
476
100
AcDbEntity
  8
0
  6
Continuous
 62
     7
370
    15
100
AcDbLine
 10
1507.818411044732
 20
1812.656410938304
 30
0.0
 11
1512.150606163507
 21
1816.673477746325
 31
0.0
  0
LWPOLYLINE
  5
4B5
330
476
100
AcDbEntity
  8
0
  6
Continuous
 62
     7
370
    15
100
AcDbPolyline
 90
       11
 70
   128
 43
0.0
 10
1512.150606163507
 20
1816.673477746325
 10
1512.46740413443
 20
1817.089932087887
 10
1512.579886774481
 20
1817.550323576536
 10
1512.47704349914
 20
1818.00958588563
 10
1512.168941324749
 20
1818.422763220484
 10
1511.68573943881
 20
1818.749410904788
 10
1511.074737008584
 20
1818.957554387313
 10
1510.395743209048
 20
1819.026819133769
 10
1509.715222684126
 20
1818.950425028178
 10
1509.099789524265
 20
1818.735850057863
 10
1508.609686615125
 20
1818.40409831595
  0
LINE
  5
4B6
330
476
100
AcDbEntity
  8
0
  6
Continuous
 62
     7
370
    15
100
AcDbLine
 10
1508.609686615125
 20
1818.40409831595
 30
0.0
 11
1504.27749149635
 21
1814.387031507929
 31
0.0
  0
LWPOLYLINE
  5
4B7
330
476
100
AcDbEntity
  8
0
  6
Continuous
 62
     7
370
    15
100
AcDbPolyline
 90
       11
 70
   128
 43
0.0
 10
1492.408463773679
 20
1803.3813690202
 10
1492.091665802755
 20
1802.964914678639
 10
1491.979183162704
 20
1802.504523189989
 10
1492.082026438044
 20
1802.045260880896
 10
1492.390128612436
 20
1801.632083546041
 10
1492.873330498375
 20
1801.305435861738
 10
1493.484332928601
 20
1801.097292379212
 10
1494.163326728138
 20
1801.028027632756
 10
1494.843847253059
 20
1801.104421738348
 10
1495.459280412921
 20
1801.318996708663
 10
1495.94938332206
 20
1801.650748450575
  0
LINE
  5
4B8
330
476
100
AcDbEntity
  8
0
  6
Continuous
 62
     7
370
    15
100
AcDbLine
 10
1495.94938332206
 20
1801.650748450575
 30
0.0
 11
1500.281578440835
 21
1805.667815258597
 31
0.0
  0
LWPOLYLINE
  5
4B9
330
476
100
AcDbEntity
  8
0
  6
Continuous
 62
     7
370
    15
100
AcDbPolyline
 90
       11
 70
   128
 43
0.0
 10
1500.281578440835
 20
1805.667815258597
 10
1500.598376411759
 20
1806.084269600158
 10
1500.71085905181
 20
1806.544661088808
 10
1500.608015776469
 20
1807.003923397901
 10
1500.299913602077
 20
1807.417100732756
 10
1499.816711716138
 20
1807.743748417059
 10
1499.205709285913
 20
1807.951891899584
 10
1498.526715486376
 20
1808.021156646041
 10
1497.846194961455
 20
1807.944762540449
 10
1497.230761801593
 20
1807.730187570134
 10
1496.740658892453
 20
1807.398435828222
  0
LINE
  5
4BA
330
476
100
AcDbEntity
  8
0
  6
Continuous
 62
     7
370
    15
100
AcDbLine
 10
1496.740658892453
 20
1807.398435828222
 30
0.0
 11
1492.408463773679
 21
1803.3813690202
 31
0.0
  0
LWPOLYLINE
  5
4BB
330
476
100
AcDbEntity
  8
0
  6
Continuous
 62
     7
370
    15
100
AcDbPolyline
 90
       11
 70
   128
 43
0.0
 10
1480.539436051007
 20
1792.375706532472
 10
1480.222638080084
 20
1791.959252190911
 10
1480.110155440032
 20
1791.498860702261
 10
1480.212998715373
 20
1791.039598393167
 10
1480.521100889765
 20
1790.626421058313
 10
1481.004302775704
 20
1790.299773374009
 10
1481.615305205929
 20
1790.091629891484
 10
1482.294299005466
 20
1790.022365145027
 10
1482.974819530388
 20
1790.098759250619
 10
1483.590252690249
 20
1790.313334220934
 10
1484.080355599389
 20
1790.645085962847
  0
LINE
  5
4BC
330
476
100
AcDbEntity
  8
0
  6
Continuous
 62
     7
370
    15
100
AcDbLine
 10
1484.080355599389
 20
1790.645085962847
 30
0.0
 11
1488.412550718164
 21
1794.662152770868
 31
0.0
  0
LWPOLYLINE
  5
4BD
330
476
100
AcDbEntity
  8
0
  6
Continuous
 62
     7
370
    15
100
AcDbPolyline
 90
       11
 70
   128
 43
0.0
 10
1488.412550718164
 20
1794.662152770868
 10
1488.729348689087
 20
1795.078607112429
 10
1488.841831329139
 20
1795.538998601079
 10
1488.738988053798
 20
1795.998260910172
 10
1488.430885879406
 20
1796.411438245027
 10
1487.947683993467
 20
1796.73808592933
 10
1487.336681563242
 20
1796.946229411856
 10
1486.657687763705
 20
1797.015494158312
 10
1485.977167238783
 20
1796.939100052721
 10
1485.361734078922
 20
1796.724525082406
 10
1484.871631169782
 20
1796.392773340493
  0
LINE
  5
4BE
330
476
100
AcDbEntity
  8
0
  6
Continuous
 62
     7
370
    15
100
AcDbLine
 10
1484.871631169782
 20
1796.392773340493
 30
0.0
 11
1480.539436051007
 21
1792.375706532472
 31
0.0
  0
LWPOLYLINE
  5
4BF
330
476
100
AcDbEntity
  8
0
  6
Continuous
 62
     7
370
    15
100
AcDbPolyline
 90
       11
 70
   128
 43
0.0
 10
1468.670408328336
 20
1781.370044044743
 10
1468.353610357413
 20
1780.953589703182
 10
1468.241127717361
 20
1780.493198214532
 10
1468.343970992702
 20
1780.033935905439
 10
1468.652073167094
 20
1779.620758570584
 10
1469.135275053033
 20
1779.29411088628
 10
1469.746277483258
 20
1779.085967403755
 10
1470.425271282795
 20
1779.016702657299
 10
1471.105791807716
 20
1779.09309676289
 10
1471.721224967578
 20
1779.307671733205
 10
1472.211327876718
 20
1779.639423475118
  0
LINE
  5
4C0
330
476
100
AcDbEntity
  8
0
  6
Continuous
 62
     7
370
    15
100
AcDbLine
 10
1472.211327876718
 20
1779.639423475118
 30
0.0
 11
1476.543522995493
 21
1783.656490283139
 31
0.0
  0
LWPOLYLINE
  5
4C1
330
476
100
AcDbEntity
  8
0
  6
Continuous
 62
     7
370
    15
100
AcDbPolyline
 90
       11
 70
   128
 43
0.0
 10
1476.543522995493
 20
1783.656490283139
 10
1476.860320966416
 20
1784.072944624701
 10
1476.972803606467
 20
1784.53333611335
 10
1476.869960331127
 20
1784.992598422444
 10
1476.561858156735
 20
1785.405775757298
 10
1476.078656270796
 20
1785.732423441602
 10
1475.46765384057
 20
1785.940566924127
 10
1474.788660041034
 20
1786.009831670583
 10
1474.108139516112
 20
1785.933437564992
 10
1473.492706356251
 20
1785.718862594677
 10
1473.002603447111
 20
1785.387110852764
  0
LINE
  5
4C2
330
476
100
AcDbEntity
  8
0
  6
Continuous
 62
     7
370
    15
100
AcDbLine
 10
1473.002603447111
 20
1785.387110852764
 30
0.0
 11
1468.670408328336
 21
1781.370044044743
 31
0.0
  0
LWPOLYLINE
  5
4C3
330
476
100
AcDbEntity
  8
0
  6
Continuous
 62
     7
370
    15
100
AcDbPolyline
 90
       11
 70
   128
 43
0.0
 10
1456.801380605664
 20
1770.364381557014
 10
1456.484582634741
 20
1769.947927215453
 10
1456.37209999469
 20
1769.487535726803
 10
1456.474943270031
 20
1769.02827341771
 10
1456.783045444422
 20
1768.615096082855
 10
1457.266247330362
 20
1768.288448398552
 10
1457.877249760587
 20
1768.080304916026
 10
1458.556243560123
 20
1768.01104016957
 10
1459.236764085045
 20
1768.087434275162
 10
1459.852197244907
 20
1768.302009245477
 10
1460.342300154046
 20
1768.633760987389
  0
LINE
  5
4C4
330
476
100
AcDbEntity
  8
0
  6
Continuous
 62
     7
370
    15
100
AcDbLine
 10
1460.342300154046
 20
1768.633760987389
 30
0.0
 11
1464.674495272821
 21
1772.65082779541
 31
0.0
  0
LWPOLYLINE
  5
4C5
330
476
100
AcDbEntity
  8
0
  6
Continuous
 62
     7
370
    15
100
AcDbPolyline
 90
       11
 70
   128
 43
0.0
 10
1464.674495272821
 20
1772.65082779541
 10
1464.991293243745
 20
1773.067282136972
 10
1465.103775883796
 20
1773.527673625622
 10
1465.000932608455
 20
1773.986935934715
 10
1464.692830434063
 20
1774.400113269569
 10
1464.209628548124
 20
1774.726760953873
 10
1463.598626117899
 20
1774.934904436398
 10
1462.919632318362
 20
1775.004169182855
 10
1462.239111793441
 20
1774.927775077263
 10
1461.623678633579
 20
1774.713200106948
 10
1461.13357572444
 20
1774.381448365035
  0
LINE
  5
4C6
330
476
100
AcDbEntity
  8
0
  6
Continuous
 62
     7
370
    15
100
AcDbLine
 10
1461.13357572444
 20
1774.381448365035
 30
0.0
 11
1456.801380605664
 21
1770.364381557014
 31
0.0
  0
LWPOLYLINE
  5
4C7
330
476
100
AcDbEntity
  8
0
  6
Continuous
 62
     7
370
    15
100
AcDbPolyline
 90
       11
 70
   128
 43
0.0
 10
1444.932352882993
 20
1759.358719069286
 10
1444.61555491207
 20
1758.942264727724
 10
1444.503072272018
 20
1758.481873239074
 10
1444.605915547359
 20
1758.022610929981
 10
1444.914017721751
 20
1757.609433595127
 10
1445.39721960769
 20
1757.282785910823
 10
1446.008222037916
 20
1757.074642428298
 10
1446.687215837452
 20
1757.005377681841
 10
1447.367736362374
 20
1757.081771787433
 10
1447.983169522236
 20
1757.296346757748
 10
1448.473272431375
 20
1757.628098499661
  0
LINE
  5
4C8
330
476
100
AcDbEntity
  8
0
  6
Continuous
 62
     7
370
    15
100
AcDbLine
 10
1448.473272431375
 20
1757.628098499661
 30
0.0
 11
1452.80546755015
 21
1761.645165307682
 31
0.0
  0
LWPOLYLINE
  5
4C9
330
476
100
AcDbEntity
  8
0
  6
Continuous
 62
     7
370
    15
100
AcDbPolyline
 90
       11
 70
   128
 43
0.0
 10
1452.80546755015
 20
1761.645165307682
 10
1453.122265521073
 20
1762.061619649243
 10
1453.234748161125
 20
1762.522011137893
 10
1453.131904885784
 20
1762.981273446986
 10
1452.823802711392
 20
1763.394450781841
 10
1452.340600825453
 20
1763.721098466144
 10
1451.729598395228
 20
1763.92924194867
 10
1451.050604595691
 20
1763.998506695126
 10
1450.37008407077
 20
1763.922112589534
 10
1449.754650910908
 20
1763.707537619219
 10
1449.264548001768
 20
1763.375785877306
  0
LINE
  5
4CA
330
476
100
AcDbEntity
  8
0
  6
Continuous
 62
     7
370
    15
100
AcDbLine
 10
1449.264548001768
 20
1763.375785877306
 30
0.0
 11
1444.932352882993
 21
1759.358719069286
 31
0.0
  0
LWPOLYLINE
  5
4CB
330
476
100
AcDbEntity
  8
0
  6
Continuous
 62
     7
370
    15
100
AcDbPolyline
 90
       11
 70
   128
 43
0.0
 10
1433.063325160322
 20
1748.353056581557
 10
1432.746527189399
 20
1747.936602239995
 10
1432.634044549347
 20
1747.476210751345
 10
1432.736887824688
 20
1747.016948442252
 10
1433.04498999908
 20
1746.603771107398
 10
1433.528191885019
 20
1746.277123423094
 10
1434.139194315244
 20
1746.068979940569
 10
1434.818188114781
 20
1745.999715194113
 10
1435.498708639703
 20
1746.076109299704
 10
1436.114141799564
 20
1746.290684270019
 10
1436.604244708704
 20
1746.622436011932
  0
LINE
  5
4CC
330
476
100
AcDbEntity
  8
0
  6
Continuous
 62
     7
370
    15
100
AcDbLine
 10
1436.604244708704
 20
1746.622436011932
 30
0.0
 11
1440.936439827479
 21
1750.639502819953
 31
0.0
  0
LWPOLYLINE
  5
4CD
330
476
100
AcDbEntity
  8
0
  6
Continuous
 62
     7
370
    15
100
AcDbPolyline
 90
       11
 70
   128
 43
0.0
 10
1440.936439827479
 20
1750.639502819953
 10
1441.253237798402
 20
1751.055957161514
 10
1441.365720438454
 20
1751.516348650164
 10
1441.262877163113
 20
1751.975610959258
 10
1440.954774988721
 20
1752.388788294112
 10
1440.471573102782
 20
1752.715435978415
 10
1439.860570672556
 20
1752.923579460941
 10
1439.18157687302
 20
1752.992844207397
 10
1438.501056348098
 20
1752.916450101806
 10
1437.885623188236
 20
1752.70187513149
 10
1437.395520279097
 20
1752.370123389578
  0
LINE
  5
4CE
330
476
100
AcDbEntity
  8
0
  6
Continuous
 62
     7
370
    15
100
AcDbLine
 10
1437.395520279097
 20
1752.370123389578
 30
0.0
 11
1433.063325160322
 21
1748.353056581557
 31
0.0
  0
LWPOLYLINE
  5
4CF
330
476
100
AcDbEntity
  8
0
  6
Continuous
 62
     7
370
    15
100
AcDbPolyline
 90
       11
 70
   128
 43
0.0
 10
1421.194297437651
 20
1737.347394093828
 10
1420.877499466727
 20
1736.930939752267
 10
1420.765016826676
 20
1736.470548263617
 10
1420.867860102017
 20
1736.011285954523
 10
1421.175962276408
 20
1735.598108619669
 10
1421.659164162347
 20
1735.271460935366
 10
1422.270166592573
 20
1735.06331745284
 10
1422.94916039211
 20
1734.994052706384
 10
1423.629680917031
 20
1735.070446811975
 10
1424.245114076892
 20
1735.285021782291
 10
1424.735216986032
 20
1735.616773524203
  0
LINE
  5
4D0
330
476
100
AcDbEntity
  8
0
  6
Continuous
 62
     7
370
    15
100
AcDbLine
 10
1424.735216986032
 20
1735.616773524203
 30
0.0
 11
1429.067412104807
 21
1739.633840332224
 31
0.0
  0
LWPOLYLINE
  5
4D1
330
476
100
AcDbEntity
  8
0
  6
Continuous
 62
     7
370
    15
100
AcDbPolyline
 90
       11
 70
   128
 43
0.0
 10
1429.067412104807
 20
1739.633840332224
 10
1429.38421007573
 20
1740.050294673785
 10
1429.496692715782
 20
1740.510686162435
 10
1429.393849440441
 20
1740.969948471529
 10
1429.085747266049
 20
1741.383125806383
 10
1428.60254538011
 20
1741.709773490687
 10
1427.991542949885
 20
1741.917916973212
 10
1427.312549150348
 20
1741.987181719668
 10
1426.632028625427
 20
1741.910787614077
 10
1426.016595465565
 20
1741.696212643762
 10
1425.526492556425
 20
1741.364460901849
  0
LINE
  5
4D2
330
476
100
AcDbEntity
  8
0
  6
Continuous
 62
     7
370
    15
100
AcDbLine
 10
1425.526492556425
 20
1741.364460901849
 30
0.0
 11
1421.194297437651
 21
1737.347394093828
 31
0.0
  0
LINE
  5
4D3
330
476
100
AcDbEntity
  8
0
  6
Continuous
 62
     7
370
    15
100
AcDbLine
 10
1417.913612001955
 20
1738.214667590565
 30
0.0
 11
1595.949027842026
 21
1903.299604906496
 31
0.0
  0
LINE
  5
4D4
330
476
100
AcDbEntity
  8
0
  6
Continuous
 62
     7
370
    15
100
AcDbLine
 10
1416.113169281191
 20
1740.700357574336
 30
0.0
 11
1594.148585121262
 21
1905.785294890266
 31
0.0
  0
ARC
  5
4D5
330
476
100
AcDbEntity
  8
0
  6
Continuous
 62
     7
370
    15
100
AcDbCircle
 10
1592.771776702522
 20
1902.893144587762
 30
0.0
 40
3.203144516593989
100
AcDbArc
 50
7.290154063685718
 51
64.54321192913498
  0
LWPOLYLINE
  5
4D6
330
476
100
AcDbEntity
  8
0
  6
Continuous
 62
     7
370
    15
100
AcDbPolyline
 90
        3
 70
   128
 43
0.0
 10
1421.207926049729
 20
1736.610857867029
 10
1420.891128078806
 20
1736.194403525468
 10
1420.840423440868
 20
1736.074381667293
  0
LINE
  5
4D7
330
476
100
AcDbEntity
  8
0
  6
Continuous
 62
     7
370
    15
100
AcDbLine
 10
1421.207926049729
 20
1736.610857867029
 30
0.0
 11
1421.194297437651
 21
1737.347394093828
 31
0.0
  0
LINE
  5
4D8
330
476
100
AcDbEntity
  8
0
  6
Continuous
 62
     7
370
    15
100
AcDbLine
 10
1415.268177116236
 20
1741.113346573905
 30
0.0
 11
1593.303592956307
 21
1906.198283889836
 31
0.0
  0
LINE
  5
4D9
330
476
100
AcDbEntity
  8
0
  6
Continuous
 62
     7
370
    15
100
AcDbLine
 10
1594.148585121262
 20
1905.785294890266
 30
0.0
 11
1593.303592956307
 21
1906.198283889836
 31
0.0
  0
LINE
  5
4DA
330
476
100
AcDbEntity
  8
0
  6
Continuous
 62
     7
370
    15
100
AcDbLine
 10
1417.921789169202
 20
1737.772745854486
 30
0.0
 11
1595.957205009273
 21
1902.857683170417
 31
0.0
  0
ARC
  5
4DB
330
476
100
AcDbEntity
  8
0
  6
Continuous
 62
     7
370
    15
100
AcDbCircle
 10
1598.12351260439
 20
1903.134815205917
 30
0.0
 40
2.183962170405172
100
AcDbArc
 50
187.2901540636986
 51
244.5432119291232
  0
LINE
  5
4DC
330
476
100
AcDbEntity
  8
0
  6
Continuous
 62
     7
370
    15
100
AcDbLine
 10
1595.957205009273
 20
1902.857683170417
 30
0.0
 11
1595.949027842026
 21
1903.299604906496
 31
0.0
  0
LINE
  5
4DD
330
476
100
AcDbEntity
  8
0
  6
Continuous
 62
     7
370
    15
100
AcDbLine
 10
1425.540121168504
 20
1740.62792467505
 30
0.0
 11
1425.526492556425
 21
1741.364460901849
 31
0.0
  0
LINE
  5
4DE
330
476
100
AcDbEntity
  8
0
  6
Continuous
 62
     7
370
    15
100
AcDbLine
 10
1425.540121168504
 20
1740.62792467505
 30
0.0
 11
1421.207926049729
 21
1736.610857867029
 31
0.0
  0
ARC
  5
4DF
330
476
100
AcDbEntity
  8
0
  6
Continuous
 62
     7
370
    15
100
AcDbCircle
 10
1427.29210646401
 20
1738.735934816615
 30
0.0
 40
2.578580636724751
100
AcDbArc
 50
33.79809118506809
 51
132.7997306153228
  0
LINE
  5
4E0
330
476
100
AcDbEntity
  8
0
  6
Continuous
 62
     7
370
    15
100
AcDbLine
 10
1433.076953772401
 20
1747.616520354758
 30
0.0
 11
1433.063325160322
 21
1748.353056581557
 31
0.0
  0
LWPOLYLINE
  5
4E1
330
476
100
AcDbEntity
  8
0
  6
Continuous
 62
     7
370
    15
100
AcDbPolyline
 90
        3
 70
   128
 43
0.0
 10
1433.076953772401
 20
1747.616520354758
 10
1432.760155801477
 20
1747.200066013197
 10
1432.709451163542
 20
1747.08004415503
  0
LINE
  5
4E2
330
476
100
AcDbEntity
  8
0
  6
Continuous
 62
     7
370
    15
100
AcDbLine
 10
1437.409148891175
 20
1751.633587162779
 30
0.0
 11
1437.395520279097
 21
1752.370123389578
 31
0.0
  0
LINE
  5
4E3
330
476
100
AcDbEntity
  8
0
  6
Continuous
 62
     7
370
    15
100
AcDbLine
 10
1437.409148891175
 20
1751.633587162779
 30
0.0
 11
1433.076953772401
 21
1747.616520354758
 31
0.0
  0
ARC
  5
4E4
330
476
100
AcDbEntity
  8
0
  6
Continuous
 62
     7
370
    15
100
AcDbCircle
 10
1439.161134186682
 20
1749.74159730434
 30
0.0
 40
2.578580636727473
100
AcDbArc
 50
33.79809118528488
 51
132.799730615286
  0
LINE
  5
4E5
330
476
100
AcDbEntity
  8
0
  6
Continuous
 62
     7
370
    15
100
AcDbLine
 10
1444.945981495072
 20
1758.622182842487
 30
0.0
 11
1444.932352882993
 21
1759.358719069286
 31
0.0
  0
LWPOLYLINE
  5
4E6
330
476
100
AcDbEntity
  8
0
  6
Continuous
 62
     7
370
    15
100
AcDbPolyline
 90
        3
 70
   128
 43
0.0
 10
1444.945981495072
 20
1758.622182842487
 10
1444.629183524148
 20
1758.205728500926
 10
1444.578478886213
 20
1758.085706642756
  0
LINE
  5
4E7
330
476
100
AcDbEntity
  8
0
  6
Continuous
 62
     7
370
    15
100
AcDbLine
 10
1449.278176613847
 20
1762.639249650508
 30
0.0
 11
1449.264548001768
 21
1763.375785877306
 31
0.0
  0
LINE
  5
4E8
330
476
100
AcDbEntity
  8
0
  6
Continuous
 62
     7
370
    15
100
AcDbLine
 10
1449.278176613847
 20
1762.639249650508
 30
0.0
 11
1444.945981495072
 21
1758.622182842487
 31
0.0
  0
ARC
  5
4E9
330
476
100
AcDbEntity
  8
0
  6
Continuous
 62
     7
370
    15
100
AcDbCircle
 10
1451.030161909353
 20
1760.747259792072
 30
0.0
 40
2.578580636725281
100
AcDbArc
 50
33.7980911851259
 51
132.7997306153139
  0
LINE
  5
4EA
330
476
100
AcDbEntity
  8
0
  6
Continuous
 62
     7
370
    15
100
AcDbLine
 10
1456.815009217743
 20
1769.627845330216
 30
0.0
 11
1456.801380605664
 21
1770.364381557014
 31
0.0
  0
LWPOLYLINE
  5
4EB
330
476
100
AcDbEntity
  8
0
  6
Continuous
 62
     7
370
    15
100
AcDbPolyline
 90
        3
 70
   128
 43
0.0
 10
1456.815009217743
 20
1769.627845330216
 10
1456.49821124682
 20
1769.211390988655
 10
1456.447506608882
 20
1769.09136913048
  0
LINE
  5
4EC
330
476
100
AcDbEntity
  8
0
  6
Continuous
 62
     7
370
    15
100
AcDbLine
 10
1461.147204336518
 20
1773.644912138237
 30
0.0
 11
1461.13357572444
 21
1774.381448365035
 31
0.0
  0
LINE
  5
4ED
330
476
100
AcDbEntity
  8
0
  6
Continuous
 62
     7
370
    15
100
AcDbLine
 10
1461.147204336518
 20
1773.644912138237
 30
0.0
 11
1456.815009217743
 21
1769.627845330216
 31
0.0
  0
ARC
  5
4EE
330
476
100
AcDbEntity
  8
0
  6
Continuous
 62
     7
370
    15
100
AcDbCircle
 10
1462.899189632024
 20
1771.752922279802
 30
0.0
 40
2.578580636724298
100
AcDbArc
 50
33.79809118505003
 51
132.7997306153228
  0
LINE
  5
4EF
330
476
100
AcDbEntity
  8
0
  6
Continuous
 62
     7
370
    15
100
AcDbLine
 10
1468.684036940414
 20
1780.633507817944
 30
0.0
 11
1468.670408328336
 21
1781.370044044743
 31
0.0
  0
LWPOLYLINE
  5
4F0
330
476
100
AcDbEntity
  8
0
  6
Continuous
 62
     7
370
    15
100
AcDbPolyline
 90
        3
 70
   128
 43
0.0
 10
1468.684036940414
 20
1780.633507817944
 10
1468.367238969491
 20
1780.217053476383
 10
1468.316534331554
 20
1780.097031618209
  0
LINE
  5
4F1
330
476
100
AcDbEntity
  8
0
  6
Continuous
 62
     7
370
    15
100
AcDbLine
 10
1473.016232059189
 20
1784.650574625965
 30
0.0
 11
1473.002603447111
 21
1785.387110852764
 31
0.0
  0
LINE
  5
4F2
330
476
100
AcDbEntity
  8
0
  6
Continuous
 62
     7
370
    15
100
AcDbLine
 10
1473.016232059189
 20
1784.650574625965
 30
0.0
 11
1468.684036940414
 21
1780.633507817944
 31
0.0
  0
ARC
  5
4F3
330
476
100
AcDbEntity
  8
0
  6
Continuous
 62
     7
370
    15
100
AcDbCircle
 10
1474.768217354695
 20
1782.75858476753
 30
0.0
 40
2.578580636724465
100
AcDbArc
 50
33.79809118505003
 51
132.7997306153228
  0
LINE
  5
4F4
330
476
100
AcDbEntity
  8
0
  6
Continuous
 62
     7
370
    15
100
AcDbLine
 10
1480.553064663086
 20
1791.639170305673
 30
0.0
 11
1480.539436051007
 21
1792.375706532472
 31
0.0
  0
LWPOLYLINE
  5
4F5
330
476
100
AcDbEntity
  8
0
  6
Continuous
 62
     7
370
    15
100
AcDbPolyline
 90
        3
 70
   128
 43
0.0
 10
1480.553064663086
 20
1791.639170305673
 10
1480.236266692162
 20
1791.222715964112
 10
1480.185562054228
 20
1791.102694105946
  0
LINE
  5
4F6
330
476
100
AcDbEntity
  8
0
  6
Continuous
 62
     7
370
    15
100
AcDbLine
 10
1484.885259781861
 20
1795.656237113694
 30
0.0
 11
1484.871631169782
 21
1796.392773340493
 31
0.0
  0
LINE
  5
4F7
330
476
100
AcDbEntity
  8
0
  6
Continuous
 62
     7
370
    15
100
AcDbLine
 10
1484.885259781861
 20
1795.656237113694
 30
0.0
 11
1480.553064663086
 21
1791.639170305673
 31
0.0
  0
ARC
  5
4F8
330
476
100
AcDbEntity
  8
0
  6
Continuous
 62
     7
370
    15
100
AcDbCircle
 10
1486.637245077367
 20
1793.764247255255
 30
0.0
 40
2.578580636728074
100
AcDbArc
 50
33.79809118533186
 51
132.7997306152676
  0
LINE
  5
4F9
330
476
100
AcDbEntity
  8
0
  6
Continuous
 62
     7
370
    15
100
AcDbLine
 10
1492.422092385757
 20
1802.644832793402
 30
0.0
 11
1492.408463773679
 21
1803.3813690202
 31
0.0
  0
LWPOLYLINE
  5
4FA
330
476
100
AcDbEntity
  8
0
  6
Continuous
 62
     7
370
    15
100
AcDbPolyline
 90
        3
 70
   128
 43
0.0
 10
1492.422092385757
 20
1802.644832793402
 10
1492.105294414834
 20
1802.228378451841
 10
1492.054589776897
 20
1802.108356593669
  0
LINE
  5
4FB
330
476
100
AcDbEntity
  8
0
  6
Continuous
 62
     7
370
    15
100
AcDbLine
 10
1496.754287504532
 20
1806.661899601423
 30
0.0
 11
1496.740658892453
 21
1807.398435828222
 31
0.0
  0
LINE
  5
4FC
330
476
100
AcDbEntity
  8
0
  6
Continuous
 62
     7
370
    15
100
AcDbLine
 10
1496.754287504532
 20
1806.661899601423
 30
0.0
 11
1492.422092385757
 21
1802.644832793402
 31
0.0
  0
ARC
  5
4FD
330
476
100
AcDbEntity
  8
0
  6
Continuous
 62
     7
370
    15
100
AcDbCircle
 10
1498.506272800038
 20
1804.769909742987
 30
0.0
 40
2.578580636724837
100
AcDbArc
 50
33.79809118507893
 51
132.7997306153228
  0
LINE
  5
4FE
330
476
100
AcDbEntity
  8
0
  6
Continuous
 62
     7
370
    15
100
AcDbLine
 10
1504.291120108428
 20
1813.65049528113
 30
0.0
 11
1504.27749149635
 21
1814.387031507929
 31
0.0
  0
LWPOLYLINE
  5
4FF
330
476
100
AcDbEntity
  8
0
  6
Continuous
 62
     7
370
    15
100
AcDbPolyline
 90
        3
 70
   128
 43
0.0
 10
1504.291120108428
 20
1813.65049528113
 10
1503.974322137505
 20
1813.234040939569
 10
1503.92361749957
 20
1813.114019081402
  0
LINE
  5
500
330
476
100
AcDbEntity
  8
0
  6
Continuous
 62
     7
370
    15
100
AcDbLine
 10
1508.623315227203
 20
1817.667562089152
 30
0.0
 11
1508.609686615125
 21
1818.40409831595
 31
0.0
  0
LINE
  5
501
330
476
100
AcDbEntity
  8
0
  6
Continuous
 62
     7
370
    15
100
AcDbLine
 10
1508.623315227203
 20
1817.667562089152
 30
0.0
 11
1504.291120108428
 21
1813.65049528113
 31
0.0
  0
ARC
  5
502
330
476
100
AcDbEntity
  8
0
  6
Continuous
 62
     7
370
    15
100
AcDbCircle
 10
1510.375300522709
 20
1815.775572230715
 30
0.0
 40
2.578580636725598
100
AcDbArc
 50
33.79809118514398
 51
132.7997306153044
  0
LINE
  5
503
330
476
100
AcDbEntity
  8
0
  6
Continuous
 62
     7
370
    15
100
AcDbLine
 10
1516.1601478311
 20
1824.656157768859
 30
0.0
 11
1516.146519219021
 21
1825.392693995658
 31
0.0
  0
LWPOLYLINE
  5
504
330
476
100
AcDbEntity
  8
0
  6
Continuous
 62
     7
370
    15
100
AcDbPolyline
 90
        3
 70
   128
 43
0.0
 10
1516.1601478311
 20
1824.656157768859
 10
1515.843349860176
 20
1824.239703427298
 10
1515.792645222241
 20
1824.119681569129
  0
LINE
  5
505
330
476
100
AcDbEntity
  8
0
  6
Continuous
 62
     7
370
    15
100
AcDbLine
 10
1520.492342949875
 20
1828.673224576881
 30
0.0
 11
1520.478714337796
 21
1829.409760803679
 31
0.0
  0
LINE
  5
506
330
476
100
AcDbEntity
  8
0
  6
Continuous
 62
     7
370
    15
100
AcDbLine
 10
1520.492342949875
 20
1828.673224576881
 30
0.0
 11
1516.1601478311
 21
1824.656157768859
 31
0.0
  0
ARC
  5
507
330
476
100
AcDbEntity
  8
0
  6
Continuous
 62
     7
370
    15
100
AcDbCircle
 10
1522.24432824538
 20
1826.781234718446
 30
0.0
 40
2.578580636723994
100
AcDbArc
 50
33.79809118501388
 51
132.7997306153228
  0
LINE
  5
508
330
476
100
AcDbEntity
  8
0
  6
Continuous
 62
     7
370
    15
100
AcDbLine
 10
1528.029175553771
 20
1835.661820256588
 30
0.0
 11
1528.015546941692
 21
1836.398356483387
 31
0.0
  0
LWPOLYLINE
  5
509
330
476
100
AcDbEntity
  8
0
  6
Continuous
 62
     7
370
    15
100
AcDbPolyline
 90
        3
 70
   128
 43
0.0
 10
1528.029175553771
 20
1835.661820256588
 10
1527.712377582848
 20
1835.245365915027
 10
1527.661672944912
 20
1835.125344056859
  0
LINE
  5
50A
330
476
100
AcDbEntity
  8
0
  6
Continuous
 62
     7
370
    15
100
AcDbLine
 10
1532.361370672546
 20
1839.678887064609
 30
0.0
 11
1532.347742060468
 21
1840.415423291408
 31
0.0
  0
LINE
  5
50B
330
476
100
AcDbEntity
  8
0
  6
Continuous
 62
     7
370
    15
100
AcDbLine
 10
1532.361370672546
 20
1839.678887064609
 30
0.0
 11
1528.029175553771
 21
1835.661820256588
 31
0.0
  0
ARC
  5
50C
330
476
100
AcDbEntity
  8
0
  6
Continuous
 62
     7
370
    15
100
AcDbCircle
 10
1534.113355968052
 20
1837.786897206173
 30
0.0
 40
2.578580636725233
100
AcDbArc
 50
33.79809118510782
 51
132.7997306153139
  0
LINE
  5
50D
330
476
100
AcDbEntity
  8
0
  6
Continuous
 62
     7
370
    15
100
AcDbLine
 10
1539.898203276442
 20
1846.667482744317
 30
0.0
 11
1539.884574664364
 21
1847.404018971116
 31
0.0
  0
LWPOLYLINE
  5
50E
330
476
100
AcDbEntity
  8
0
  6
Continuous
 62
     7
370
    15
100
AcDbPolyline
 90
        3
 70
   128
 43
0.0
 10
1539.898203276442
 20
1846.667482744317
 10
1539.581405305519
 20
1846.251028402756
 10
1539.530700667584
 20
1846.131006544588
  0
LINE
  5
50F
330
476
100
AcDbEntity
  8
0
  6
Continuous
 62
     7
370
    15
100
AcDbLine
 10
1544.230398395218
 20
1850.684549552338
 30
0.0
 11
1544.216769783139
 21
1851.421085779137
 31
0.0
  0
LINE
  5
510
330
476
100
AcDbEntity
  8
0
  6
Continuous
 62
     7
370
    15
100
AcDbLine
 10
1544.230398395218
 20
1850.684549552338
 30
0.0
 11
1539.898203276442
 21
1846.667482744317
 31
0.0
  0
ARC
  5
511
330
476
100
AcDbEntity
  8
0
  6
Continuous
 62
     7
370
    15
100
AcDbCircle
 10
1545.982383690723
 20
1848.792559693901
 30
0.0
 40
2.578580636725454
100
AcDbArc
 50
33.7980911851259
 51
132.7997306153044
  0
LINE
  5
512
330
476
100
AcDbEntity
  8
0
  6
Continuous
 62
     7
370
    15
100
AcDbLine
 10
1551.767230999114
 20
1857.673145232046
 30
0.0
 11
1551.753602387035
 21
1858.409681458844
 31
0.0
  0
LWPOLYLINE
  5
513
330
476
100
AcDbEntity
  8
0
  6
Continuous
 62
     7
370
    15
100
AcDbPolyline
 90
        3
 70
   128
 43
0.0
 10
1551.767230999114
 20
1857.673145232046
 10
1551.450433028191
 20
1857.256690890485
 10
1551.399728390255
 20
1857.136669032316
  0
LINE
  5
514
330
476
100
AcDbEntity
  8
0
  6
Continuous
 62
     7
370
    15
100
AcDbLine
 10
1556.099426117889
 20
1861.690212040067
 30
0.0
 11
1556.08579750581
 21
1862.426748266865
 31
0.0
  0
LINE
  5
515
330
476
100
AcDbEntity
  8
0
  6
Continuous
 62
     7
370
    15
100
AcDbLine
 10
1556.099426117889
 20
1861.690212040067
 30
0.0
 11
1551.767230999114
 21
1857.673145232046
 31
0.0
  0
ARC
  5
516
330
476
100
AcDbEntity
  8
0
  6
Continuous
 62
     7
370
    15
100
AcDbCircle
 10
1557.851411413395
 20
1859.79822218163
 30
0.0
 40
2.578580636725573
100
AcDbArc
 50
33.7980911851259
 51
132.7997306153044
  0
LINE
  5
517
330
476
100
AcDbEntity
  8
0
  6
Continuous
 62
     7
370
    15
100
AcDbLine
 10
1563.636258721785
 20
1868.678807719774
 30
0.0
 11
1563.622630109707
 21
1869.415343946573
 31
0.0
  0
LWPOLYLINE
  5
518
330
476
100
AcDbEntity
  8
0
  6
Continuous
 62
     7
370
    15
100
AcDbPolyline
 90
        3
 70
   128
 43
0.0
 10
1563.636258721785
 20
1868.678807719774
 10
1563.319460750862
 20
1868.262353378213
 10
1563.268756112926
 20
1868.142331520045
  0
LINE
  5
519
330
476
100
AcDbEntity
  8
0
  6
Continuous
 62
     7
370
    15
100
AcDbLine
 10
1567.96845384056
 20
1872.695874527795
 30
0.0
 11
1567.954825228482
 21
1873.432410754594
 31
0.0
  0
LINE
  5
51A
330
476
100
AcDbEntity
  8
0
  6
Continuous
 62
     7
370
    15
100
AcDbLine
 10
1567.96845384056
 20
1872.695874527795
 30
0.0
 11
1563.636258721785
 21
1868.678807719774
 31
0.0
  0
ARC
  5
51B
330
476
100
AcDbEntity
  8
0
  6
Continuous
 62
     7
370
    15
100
AcDbCircle
 10
1569.720439136066
 20
1870.803884669359
 30
0.0
 40
2.578580636725203
100
AcDbArc
 50
33.79809118511507
 51
132.7997306153139
  0
LINE
  5
51C
330
476
100
AcDbEntity
  8
0
  6
Continuous
 62
     7
370
    15
100
AcDbLine
 10
1575.505286444456
 20
1879.684470207503
 30
0.0
 11
1575.491657832378
 21
1880.421006434302
 31
0.0
  0
LWPOLYLINE
  5
51D
330
476
100
AcDbEntity
  8
0
  6
Continuous
 62
     7
370
    15
100
AcDbPolyline
 90
        3
 70
   128
 43
0.0
 10
1575.505286444456
 20
1879.684470207503
 10
1575.188488473533
 20
1879.268015865942
 10
1575.137783835598
 20
1879.147994007774
  0
LINE
  5
51E
330
476
100
AcDbEntity
  8
0
  6
Continuous
 62
     7
370
    15
100
AcDbLine
 10
1579.837481563231
 20
1883.701537015524
 30
0.0
 11
1579.823852951153
 21
1884.438073242323
 31
0.0
  0
LINE
  5
51F
330
476
100
AcDbEntity
  8
0
  6
Continuous
 62
     7
370
    15
100
AcDbLine
 10
1579.837481563231
 20
1883.701537015524
 30
0.0
 11
1575.505286444456
 21
1879.684470207503
 31
0.0
  0
ARC
  5
520
330
476
100
AcDbEntity
  8
0
  6
Continuous
 62
     7
370
    15
100
AcDbCircle
 10
1581.589466858737
 20
1881.809547157088
 30
0.0
 40
2.578580636725359
100
AcDbArc
 50
33.79809118511507
 51
132.7997306153139
  0
LINE
  5
521
330
476
100
AcDbEntity
  8
0
  6
Continuous
 62
     7
370
    15
100
AcDbLine
 10
1587.374314167128
 20
1890.690132695232
 30
0.0
 11
1587.360685555049
 21
1891.426668922031
 31
0.0
  0
LWPOLYLINE
  5
522
330
476
100
AcDbEntity
  8
0
  6
Continuous
 62
     7
370
    15
100
AcDbPolyline
 90
        3
 70
   128
 43
0.0
 10
1587.374314167128
 20
1890.690132695232
 10
1587.057516196205
 20
1890.27367835367
 10
1587.006811558269
 20
1890.153656495502
  0
LINE
  5
523
330
476
100
AcDbEntity
  8
0
  6
Continuous
 62
     7
370
    15
100
AcDbLine
 10
1591.706509285903
 20
1894.707199503253
 30
0.0
 11
1591.692880673824
 21
1895.443735730052
 31
0.0
  0
LINE
  5
524
330
476
100
AcDbEntity
  8
0
  6
Continuous
 62
     7
370
    15
100
AcDbLine
 10
1591.706509285903
 20
1894.707199503253
 30
0.0
 11
1587.374314167128
 21
1890.690132695232
 31
0.0
  0
ARC
  5
525
330
476
100
AcDbEntity
  8
0
  6
Continuous
 62
     7
370
    15
100
AcDbCircle
 10
1593.458494581409
 20
1892.815209644817
 30
0.0
 40
2.578580636724953
100
AcDbArc
 50
33.79809118510782
 51
132.7997306153228
  0
LINE
  5
526
330
476
100
AcDbEntity
  8
0
  6
Continuous
 62
     8
370
    15
100
AcDbLine
 10
1425.558779208689
 20
1734.478100451602
 30
0.0
 11
1426.126633965054
 21
1735.004648871291
 31
0.0
  0
LINE
  5
527
330
476
100
AcDbEntity
  8
0
  6
Continuous
 62
     8
370
    15
100
AcDbLine
 10
1425.566956375936
 20
1734.036178715523
 30
0.0
 11
1426.494698897957
 21
1734.896436296131
 31
0.0
  0
LINE
  5
528
330
476
100
AcDbEntity
  8
0
  6
Continuous
 62
     8
370
    15
100
AcDbLine
 10
1423.575513187018
 20
1733.914681517157
 30
0.0
 11
1424.7583197235
 21
1735.011449494531
 31
0.0
  0
ENDBLK
  5
478
330
476
100
AcDbEntity
  8
0
100
AcDbBlockEnd
  0
ENDSEC
  0
SECTION
  2
ENTITIES
  0
INSERT
  5
40E
330
1F
100
AcDbEntity
  8
0
100
AcDbBlockReference
  2
1
 10
0.0
 20
0.0
 30
0.0
  0
INSERT
  5
41F
330
1F
100
AcDbEntity
  8
0
100
AcDbBlockReference
  2
2
 10
0.0
 20
0.0
 30
0.0
  0
INSERT
  5
475
330
1F
100
AcDbEntity
  8
0
100
AcDbBlockReference
  2
3
 10
0.0
 20
0.0
 30
0.0
  0
INSERT
  5
529
330
1F
100
AcDbEntity
  8
0
100
AcDbBlockReference
  2
4
 10
304.4137703118709
 20
60.60200666405854
 30
0.0
  0
ENDSEC
  0
SECTION
  2
OBJECTS
  0
DICTIONARY
  5
C
330
0
100
AcDbDictionary
281
     1
  3
ACAD_COLOR
350
6B
  3
ACAD_GROUP
350
D
  3
ACAD_LAYOUT
350
1A
  3
ACAD_MATERIAL
350
6A
  3
ACAD_MLEADERSTYLE
350
12D
  3
ACAD_MLINESTYLE
350
17
  3
ACAD_PLOTSETTINGS
350
19
  3
ACAD_PLOTSTYLENAME
350
E
  3
ACAD_SCALELIST
350
10C
  3
ACAD_TABLESTYLE
350
7E
  3
ACAD_VISUALSTYLE
350
EF
  3
ACDB_RECOMPOSE_DATA
350
15D
  3
AcDbVariableDictionary
350
5E
  3
DWGPROPS
350
577
  0
DICTIONARY
  5
13C
330
10
100
AcDbDictionary
280
     1
281
     1
  3
ADSK_XREC_LAYER_RECONCILED
360
52A
  0
DICTIONARY
  5
548
330
3F7
100
AcDbDictionary
280
     1
281
     1
  0
DICTIONARY
  5
567
330
40F
100
AcDbDictionary
280
     1
281
     1
  0
DICTIONARY
  5
6B
102
{ACAD_REACTORS
330
C
102
}
330
C
100
AcDbDictionary
281
     1
  0
DICTIONARY
  5
D
102
{ACAD_REACTORS
330
C
102
}
330
C
100
AcDbDictionary
281
     1
  0
DICTIONARY
  5
1A
102
{ACAD_REACTORS
330
C
102
}
330
C
100
AcDbDictionary
281
     1
  3
Layout1
350
D3
  3
Layout2
350
D7
  3
Model
350
22
  0
DICTIONARY
  5
6A
102
{ACAD_REACTORS
330
C
102
}
330
C
100
AcDbDictionary
281
     1
  3
ByBlock
350
ED
  3
ByLayer
350
EC
  3
Global
350
EE
  0
DICTIONARY
  5
12D
102
{ACAD_REACTORS
330
C
102
}
330
C
100
AcDbDictionary
281
     1
  3
Annotative
350
13B
  3
Standard
350
12E
  0
DICTIONARY
  5
17
102
{ACAD_REACTORS
330
C
102
}
330
C
100
AcDbDictionary
281
     1
  3
Standard
350
18
  0
DICTIONARY
  5
19
102
{ACAD_REACTORS
330
C
102
}
330
C
100
AcDbDictionary
281
     1
  0
ACDBDICTIONARYWDFLT
  5
E
102
{ACAD_REACTORS
330
C
102
}
330
C
100
AcDbDictionary
281
     1
  3
Normal
350
F
100
AcDbDictionaryWithDefault
340
F
  0
DICTIONARY
  5
10C
102
{ACAD_REACTORS
330
C
102
}
330
C
100
AcDbDictionary
281
     1
  3
A0
350
10D
  3
A1
350
188
  3
A2
350
189
  3
A3
350
18A
  3
A4
350
18B
  3
A5
350
18C
  3
A6
350
18D
  3
A7
350
18E
  3
A8
350
18F
  3
A9
350
190
  3
B0
350
191
  3
B1
350
192
  3
B2
350
193
  3
B3
350
194
  3
B4
350
195
  3
B5
350
196
  3
B6
350
197
  3
B7
350
198
  3
B8
350
199
  3
B9
350
19A
  3
C0
350
19B
  3
C1
350
19C
  3
C2
350
19D
  3
C3
350
19E
  3
C4
350
19F
  3
C5
350
1A0
  3
C6
350
1A1
  3
C7
350
1A2
  3
C8
350
1A3
  3
C9
350
1A4
  3
D0
350
1A5
  3
D1
350
1A6
  3
D2
350
1A7
  0
DICTIONARY
  5
7E
102
{ACAD_REACTORS
330
C
102
}
330
C
100
AcDbDictionary
281
     1
  3
Standard
350
7F
  0
DICTIONARY
  5
EF
102
{ACAD_REACTORS
330
C
102
}
330
C
100
AcDbDictionary
281
     1
  3
2dWireframe
350
F5
  3
3D Hidden
350
F7
  3
3dWireframe
350
F6
  3
Basic
350
F4
  3
Brighten
350
FB
  3
ColorChange
350
FF
  3
Conceptual
350
F8
  3
Dim
350
FA
  3
Facepattern
350
FE
  3
Flat
350
F0
  3
FlatWithEdges
350
F1
  3
Gouraud
350
F2
  3
GouraudWithEdges
350
F3
  3
Linepattern
350
FD
  3
Realistic
350
F9
  3
Thicken
350
FC
  0
XRECORD
  5
15D
102
{ACAD_REACTORS
330
C
102
}
330
C
100
AcDbXrecord
280
     1
 90
        1
330
7F
  0
DICTIONARY
  5
5E
102
{ACAD_REACTORS
330
C
102
}
330
C
100
AcDbDictionary
281
     1
  3
CANNOSCALE
350
146
  3
CMLEADERSTYLE
350
145
  3
CTABLESTYLE
350
84
  3
DIMASSOC
350
5F
  3
HIDETEXT
350
63
  3
INDEXCTL
350
573
  3
LIGHTINGUNITS
350
571
  3
MSLTSCALE
350
570
  3
PSOLHEIGHT
350
575
  3
PSOLWIDTH
350
574
  3
SORTENTS
350
572
  0
XRECORD
  5
577
102
{ACAD_REACTORS
330
C
102
}
330
C
100
AcDbXrecord
280
     1
  1
DWGPROPS COOKIE
  2

  3

  4

  6

  7

  8
orhan kara
  9

300
=
301
=
302
=
303
=
304
=
305
=
306
=
307
=
308
=
309
=
 40
0.0011342939814815
 41
2458488.487324861
 42
2459082.584393438
  1

 90
        0
  0
XRECORD
  5
52A
102
{ACAD_REACTORS
330
13C
102
}
330
13C
100
AcDbXrecord
280
     1
290
     1
  0
LAYOUT
  5
D3
102
{ACAD_XDICTIONARY
360
57B
102
}
102
{ACAD_REACTORS
330
1A
102
}
330
1A
100
AcDbPlotSettings
  1

  2
C:\Documents and Settings\basas\Application Data\Autodesk\AutoCAD 2005\R16.1\enu\plotters\Default Windows System Printer.pc3
  4

  6

 40
0.0
 41
0.0
 42
0.0
 43
0.0
 44
0.0
 45
0.0
 46
0.0
 47
0.0
 48
0.0
 49
0.0
140
0.0
141
0.0
142
1.0
143
1.0
 70
   688
 72
     0
 73
     0
 74
     5
  7

 75
    16
147
1.0
148
0.0
149
0.0
100
AcDbLayout
  1
Layout1
 70
     1
 71
     1
 10
0.0
 20
0.0
 11
12.0
 21
9.0
 12
0.0
 22
0.0
 32
0.0
 14
0.0
 24
0.0
 34
0.0
 15
0.0
 25
0.0
 35
0.0
146
0.0
 13
0.0
 23
0.0
 33
0.0
 16
1.0
 26
0.0
 36
0.0
 17
0.0
 27
1.0
 37
0.0
 76
     0
330
D2
  0
LAYOUT
  5
D7
102
{ACAD_XDICTIONARY
360
57D
102
}
102
{ACAD_REACTORS
330
1A
102
}
330
1A
100
AcDbPlotSettings
  1

  2
C:\Documents and Settings\basas\Application Data\Autodesk\AutoCAD 2005\R16.1\enu\plotters\Default Windows System Printer.pc3
  4

  6

 40
0.0
 41
0.0
 42
0.0
 43
0.0
 44
0.0
 45
0.0
 46
0.0
 47
0.0
 48
0.0
 49
0.0
140
0.0
141
0.0
142
1.0
143
1.0
 70
   688
 72
     0
 73
     0
 74
     5
  7

 75
    16
147
1.0
148
0.0
149
0.0
100
AcDbLayout
  1
Layout2
 70
     1
 71
     2
 10
0.0
 20
0.0
 11
12.0
 21
9.0
 12
0.0
 22
0.0
 32
0.0
 14
0.0
 24
0.0
 34
0.0
 15
0.0
 25
0.0
 35
0.0
146
0.0
 13
0.0
 23
0.0
 33
0.0
 16
1.0
 26
0.0
 36
0.0
 17
0.0
 27
1.0
 37
0.0
 76
     0
330
D6
  0
LAYOUT
  5
22
102
{ACAD_XDICTIONARY
360
578
102
}
102
{ACAD_REACTORS
330
1A
102
}
330
1A
100
AcDbPlotSettings
  1

  2
none_device
  4
ISO_A4_(210.00_x_297.00_MM)
  6

 40
7.5
 41
20.0
 42
7.5
 43
20.0
 44
210.0
 45
297.0
 46
11.54999923706054
 47
-13.65000009536743
 48
0.0
 49
0.0
140
0.0
141
0.0
142
1.0
143
8.704084754739808
 70
 11952
 72
     1
 73
     0
 74
     0
  7

 75
     0
147
0.1148885871608098
148
0.0
149
0.0
100
AcDbLayout
  1
Model
 70
     1
 71
     0
 10
0.0
 20
0.0
 11
12.0
 21
9.0
 12
0.0
 22
0.0
 32
0.0
 14
0.0
 24
0.0
 34
0.0
 15
0.0
 25
0.0
 35
0.0
146
0.0
 13
0.0
 23
0.0
 33
0.0
 16
1.0
 26
0.0
 36
0.0
 17
0.0
 27
1.0
 37
0.0
 76
     0
330
1F
331
EA
1001
ACAD_PSEXT
1000
None
1000
None
1000
Not applicable
1000
The layout will not be plotted unless a new plotter configuration name is selected.
1070
     0
  0
MATERIAL
  5
ED
102
{ACAD_XDICTIONARY
360
581
102
}
102
{ACAD_REACTORS
330
6A
102
}
330
6A
100
AcDbMaterial
  1
ByBlock
  0
MATERIAL
  5
EC
102
{ACAD_XDICTIONARY
360
57F
102
}
102
{ACAD_REACTORS
330
6A
102
}
330
6A
100
AcDbMaterial
  1
ByLayer
  0
MATERIAL
  5
EE
102
{ACAD_XDICTIONARY
360
173
102
}
102
{ACAD_REACTORS
330
6A
102
}
330
6A
100
AcDbMaterial
  1
Global
 43
0.0007999999797903
 43
0.0
 43
0.0
 43
0.0
 43
0.0
 43
0.0007999999797903
 43
0.0
 43
0.0
 43
0.0
 43
0.0
 43
1.0
 43
0.0
 43
0.0
 43
0.0
 43
0.0
 43
1.0
 49
0.0007999999797903
 49
0.0
 49
0.0
 49
0.0
 49
0.0
 49
0.0007999999797903
 49
0.0
 49
0.0
 49
0.0
 49
0.0
 49
1.0
 49
0.0
 49
0.0
 49
0.0
 49
0.0
 49
1.0
142
0.0007999999797903
142
0.0
142
0.0
142
0.0
142
0.0
142
0.0007999999797903
142
0.0
142
0.0
142
0.0
142
0.0
142
1.0
142
0.0
142
0.0
142
0.0
142
0.0
142
1.0
144
0.0007999999797903
144
0.0
144
0.0
144
0.0
144
0.0
144
0.0007999999797903
144
0.0
144
0.0
144
0.0
144
0.0
144
1.0
144
0.0
144
0.0
144
0.0
144
0.0
144
1.0
1001
ACAD
1070
    -1
1070
     3
1070
     0
1000

1071
        0
1070
     0
  0
MLEADERSTYLE
  5
13B
102
{ACAD_REACTORS
330
12D
102
}
330
12D
100
AcDbMLeaderStyle
170
     2
171
     1
172
     0
 90
        2
 40
0.0
 41
0.0
173
     1
 91
-1056964608
340
14
 92
       -2
290
     1
 42
2.0
291
     1
 43
8.0
  3
Standard
 44
4.0
300

342
11
174
     1
178
     1
175
     1
176
     0
 93
-1056964608
 45
4.0
292
     0
297
     0
 46
4.0
 94
-1056964608
 47
1.0
 49
1.0
140
1.0
293
     1
141
0.0
294
     1
177
     0
142
1.0
295
     0
296
     1
143
3.75
1001
ACAD_MLEADERVER
1070
     2
  0
MLEADERSTYLE
  5
12E
102
{ACAD_REACTORS
330
12D
102
}
330
12D
100
AcDbMLeaderStyle
170
     2
171
     1
172
     0
 90
        2
 40
0.0
 41
0.0
173
     1
 91
-1056964608
340
14
 92
       -2
290
     1
 42
2.0
291
     1
 43
8.0
  3
Standard
 44
4.0
300

342
11
174
     1
178
     1
175
     1
176
     0
 93
-1056964608
 45
4.0
292
     0
297
     0
 46
4.0
 94
-1056964608
 47
1.0
 49
1.0
140
1.0
293
     1
141
0.0
294
     1
177
     0
142
1.0
295
     0
296
     0
143
3.75
1001
ACAD_MLEADERVER
1070
     2
  0
MLINESTYLE
  5
18
102
{ACAD_REACTORS
330
17
102
}
330
17
100
AcDbMlineStyle
  2
STANDARD
 70
     0
  3

 62
   256
 51
90.0
 52
90.0
 71
     2
 49
0.5
 62
   256
  6
BYLAYER
 49
-0.5
 62
   256
  6
BYLAYER
  0
ACDBPLACEHOLDER
  5
F
102
{ACAD_REACTORS
330
E
102
}
330
E
  0
SCALE
  5
10D
102
{ACAD_REACTORS
330
10C
102
}
330
10C
100
AcDbScale
 70
     0
300
1:1
140
1.0
141
1.0
290
     1
  0
SCALE
  5
188
102
{ACAD_REACTORS
330
10C
102
}
330
10C
100
AcDbScale
 70
     0
300
1:2
140
1.0
141
2.0
290
     0
  0
SCALE
  5
189
102
{ACAD_REACTORS
330
10C
102
}
330
10C
100
AcDbScale
 70
     0
300
1:4
140
1.0
141
4.0
290
     0
  0
SCALE
  5
18A
102
{ACAD_REACTORS
330
10C
102
}
330
10C
100
AcDbScale
 70
     0
300
1:5
140
1.0
141
5.0
290
     0
  0
SCALE
  5
18B
102
{ACAD_REACTORS
330
10C
102
}
330
10C
100
AcDbScale
 70
     0
300
1:8
140
1.0
141
8.0
290
     0
  0
SCALE
  5
18C
102
{ACAD_REACTORS
330
10C
102
}
330
10C
100
AcDbScale
 70
     0
300
1:10
140
1.0
141
10.0
290
     0
  0
SCALE
  5
18D
102
{ACAD_REACTORS
330
10C
102
}
330
10C
100
AcDbScale
 70
     0
300
1:16
140
1.0
141
16.0
290
     0
  0
SCALE
  5
18E
102
{ACAD_REACTORS
330
10C
102
}
330
10C
100
AcDbScale
 70
     0
300
1:20
140
1.0
141
20.0
290
     0
  0
SCALE
  5
18F
102
{ACAD_REACTORS
330
10C
102
}
330
10C
100
AcDbScale
 70
     0
300
1:30
140
1.0
141
30.0
290
     0
  0
SCALE
  5
190
102
{ACAD_REACTORS
330
10C
102
}
330
10C
100
AcDbScale
 70
     0
300
1:40
140
1.0
141
40.0
290
     0
  0
SCALE
  5
191
102
{ACAD_REACTORS
330
10C
102
}
330
10C
100
AcDbScale
 70
     0
300
1:50
140
1.0
141
50.0
290
     0
  0
SCALE
  5
192
102
{ACAD_REACTORS
330
10C
102
}
330
10C
100
AcDbScale
 70
     0
300
1:100
140
1.0
141
100.0
290
     0
  0
SCALE
  5
193
102
{ACAD_REACTORS
330
10C
102
}
330
10C
100
AcDbScale
 70
     0
300
2:1
140
2.0
141
1.0
290
     0
  0
SCALE
  5
194
102
{ACAD_REACTORS
330
10C
102
}
330
10C
100
AcDbScale
 70
     0
300
4:1
140
4.0
141
1.0
290
     0
  0
SCALE
  5
195
102
{ACAD_REACTORS
330
10C
102
}
330
10C
100
AcDbScale
 70
     0
300
8:1
140
8.0
141
1.0
290
     0
  0
SCALE
  5
196
102
{ACAD_REACTORS
330
10C
102
}
330
10C
100
AcDbScale
 70
     0
300
10:1
140
10.0
141
1.0
290
     0
  0
SCALE
  5
197
102
{ACAD_REACTORS
330
10C
102
}
330
10C
100
AcDbScale
 70
     0
300
100:1
140
100.0
141
1.0
290
     0
  0
SCALE
  5
198
102
{ACAD_REACTORS
330
10C
102
}
330
10C
100
AcDbScale
 70
     0
300
1/128" = 1'-0"
140
0.0078125
141
12.0
290
     0
  0
SCALE
  5
199
102
{ACAD_REACTORS
330
10C
102
}
330
10C
100
AcDbScale
 70
     0
300
1/64" = 1'-0"
140
0.015625
141
12.0
290
     0
  0
SCALE
  5
19A
102
{ACAD_REACTORS
330
10C
102
}
330
10C
100
AcDbScale
 70
     0
300
1/32" = 1'-0"
140
0.03125
141
12.0
290
     0
  0
SCALE
  5
19B
102
{ACAD_REACTORS
330
10C
102
}
330
10C
100
AcDbScale
 70
     0
300
1/16" = 1'-0"
140
0.0625
141
12.0
290
     0
  0
SCALE
  5
19C
102
{ACAD_REACTORS
330
10C
102
}
330
10C
100
AcDbScale
 70
     0
300
3/32" = 1'-0"
140
0.09375
141
12.0
290
     0
  0
SCALE
  5
19D
102
{ACAD_REACTORS
330
10C
102
}
330
10C
100
AcDbScale
 70
     0
300
1/8" = 1'-0"
140
0.125
141
12.0
290
     0
  0
SCALE
  5
19E
102
{ACAD_REACTORS
330
10C
102
}
330
10C
100
AcDbScale
 70
     0
300
3/16" = 1'-0"
140
0.1875
141
12.0
290
     0
  0
SCALE
  5
19F
102
{ACAD_REACTORS
330
10C
102
}
330
10C
100
AcDbScale
 70
     0
300
1/4" = 1'-0"
140
0.25
141
12.0
290
     0
  0
SCALE
  5
1A0
102
{ACAD_REACTORS
330
10C
102
}
330
10C
100
AcDbScale
 70
     0
300
3/8" = 1'-0"
140
0.375
141
12.0
290
     0
  0
SCALE
  5
1A1
102
{ACAD_REACTORS
330
10C
102
}
330
10C
100
AcDbScale
 70
     0
300
1/2" = 1'-0"
140
0.5
141
12.0
290
     0
  0
SCALE
  5
1A2
102
{ACAD_REACTORS
330
10C
102
}
330
10C
100
AcDbScale
 70
     0
300
3/4" = 1'-0"
140
0.75
141
12.0
290
     0
  0
SCALE
  5
1A3
102
{ACAD_REACTORS
330
10C
102
}
330
10C
100
AcDbScale
 70
     0
300
1" = 1'-0"
140
1.0
141
12.0
290
     0
  0
SCALE
  5
1A4
102
{ACAD_REACTORS
330
10C
102
}
330
10C
100
AcDbScale
 70
     0
300
1-1/2" = 1'-0"
140
1.5
141
12.0
290
     0
  0
SCALE
  5
1A5
102
{ACAD_REACTORS
330
10C
102
}
330
10C
100
AcDbScale
 70
     0
300
3" = 1'-0"
140
3.0
141
12.0
290
     0
  0
SCALE
  5
1A6
102
{ACAD_REACTORS
330
10C
102
}
330
10C
100
AcDbScale
 70
     0
300
6" = 1'-0"
140
6.0
141
12.0
290
     0
  0
SCALE
  5
1A7
102
{ACAD_REACTORS
330
10C
102
}
330
10C
100
AcDbScale
 70
     0
300
1'-0" = 1'-0"
140
12.0
141
12.0
290
     0
  0
TABLESTYLE
  5
7F
102
{ACAD_XDICTIONARY
360
162
102
}
102
{ACAD_REACTORS
330
7E
102
}
330
7E
100
AcDbTableStyle
  3
Standard
 70
     0
 71
     0
 40
1.5
 41
1.5
280
     0
281
     0
  7
Standard
140
4.5
170
     2
 62
     0
 63
     7
283
     0
274
    -2
284
     1
 64
     0
275
    -2
285
     1
 65
     0
276
    -2
286
     1
 66
     0
277
    -2
287
     1
 67
     0
278
    -2
288
     1
 68
     0
279
    -2
289
     1
 69
     0
  7
Standard
140
6.0
170
     5
 62
     0
 63
     7
283
     0
274
    -2
284
     1
 64
     0
275
    -2
285
     1
 65
     0
276
    -2
286
     1
 66
     0
277
    -2
287
     1
 67
     0
278
    -2
288
     1
 68
     0
279
    -2
289
     1
 69
     0
  7
Standard
140
4.5
170
     5
 62
     0
 63
     7
283
     0
274
    -2
284
     1
 64
     0
275
    -2
285
     1
 65
     0
276
    -2
286
     1
 66
     0
277
    -2
287
     1
 67
     0
278
    -2
288
     1
 68
     0
279
    -2
289
     1
 69
     0
  0
VISUALSTYLE
  5
F5
102
{ACAD_REACTORS
330
EF
102
}
330
EF
100
AcDbVisualStyle
  2
2dWireframe
 70
     4
 71
     0
 72
     2
 73
     1
 90
        0
 40
-0.6
 41
-30.0
 62
     5
 63
     7
 74
     1
 91
        4
 64
     7
 65
   257
 75
     1
175
     1
 42
1.0
 92
        0
 66
   257
 43
1.0
 76
     1
 77
     6
 78
     2
 67
     7
 79
     5
170
     0
171
     0
290
     0
174
     0
 93
        1
 44
0.0
173
     0
291
     0
 45
0.0
1001
ACAD
1000
AcDbSavedByObjectVersion
1070
     0
  0
VISUALSTYLE
  5
F7
102
{ACAD_REACTORS
330
EF
102
}
330
EF
100
AcDbVisualStyle
  2
3D Hidden
 70
     6
 71
     1
 72
     2
 73
     2
 90
        0
 40
-0.6
 41
-30.0
 62
     5
 63
     7
 74
     2
 91
        2
 64
     7
 65
   257
 75
     2
175
     1
 42
40.0
 92
        0
 66
   257
 43
1.0
 76
     1
 77
     6
 78
     2
 67
     7
 79
     3
170
     0
171
     0
290
     0
174
     0
 93
        1
 44
0.0
173
     0
291
     0
 45
0.0
1001
ACAD
1000
AcDbSavedByObjectVersion
1070
     0
  0
VISUALSTYLE
  5
F6
102
{ACAD_REACTORS
330
EF
102
}
330
EF
100
AcDbVisualStyle
  2
3dWireframe
 70
     5
 71
     0
 72
     2
 73
     1
 90
        0
 40
-0.6
 41
-30.0
 62
     5
 63
     7
 74
     1
 91
        4
 64
     7
 65
   257
 75
     1
175
     1
 42
1.0
 92
        0
 66
   257
 43
1.0
 76
     1
 77
     6
 78
     2
 67
     7
 79
     5
170
     0
171
     0
290
     0
174
     0
 93
        1
 44
0.0
173
     0
291
     0
 45
0.0
1001
ACAD
1000
AcDbSavedByObjectVersion
1070
     0
  0
VISUALSTYLE
  5
F4
102
{ACAD_REACTORS
330
EF
102
}
330
EF
100
AcDbVisualStyle
  2
Basic
 70
     7
 71
     1
 72
     0
 73
     1
 90
        0
 40
-0.6
 41
-30.0
 62
     5
 63
     7
 74
     0
 91
        4
 64
     7
 65
   257
 75
     1
175
     1
 42
1.0
 92
        8
 66
     7
 43
1.0
 76
     1
 77
     6
 78
     2
 67
     7
 79
     5
170
     0
171
     0
290
     0
174
     0
 93
        1
 44
0.0
173
     0
291
     1
 45
0.0
1001
ACAD
1000
AcDbSavedByObjectVersion
1070
     0
  0
VISUALSTYLE
  5
FB
102
{ACAD_REACTORS
330
EF
102
}
330
EF
100
AcDbVisualStyle
  2
Brighten
 70
    12
 71
     2
 72
     2
 73
     1
 90
        0
 40
-0.6
 41
-30.0
 62
     5
 63
     7
 74
     1
 91
        4
 64
     7
 65
   257
 75
     1
175
     1
 42
1.0
 92
        8
 66
     7
 43
1.0
 76
     1
 77
     6
 78
     2
 67
     7
 79
     5
170
     0
171
     0
290
     0
174
     0
 93
        1
 44
50.0
173
     0
291
     1
 45
0.0
1001
ACAD
1000
AcDbSavedByObjectVersion
1070
     0
  0
VISUALSTYLE
  5
FF
102
{ACAD_REACTORS
330
EF
102
}
330
EF
100
AcDbVisualStyle
  2
ColorChange
 70
    16
 71
     2
 72
     2
 73
     3
 90
        0
 40
-0.6
 41
-30.0
 62
     5
 63
     8
 74
     1
 91
        4
 64
     7
 65
   257
 75
     1
175
     1
 42
1.0
 92
        8
 66
     8
 43
1.0
 76
     1
 77
     6
 78
     2
 67
     7
 79
     5
170
     0
171
     0
290
     0
174
     0
 93
        1
 44
0.0
173
     0
291
     1
 45
0.0
1001
ACAD
1000
AcDbSavedByObjectVersion
1070
     0
  0
VISUALSTYLE
  5
F8
102
{ACAD_REACTORS
330
EF
102
}
330
EF
100
AcDbVisualStyle
  2
Conceptual
 70
     9
 71
     3
 72
     2
 73
     1
 90
        0
 40
-0.6
 41
-30.0
 62
     5
 63
     7
 74
     2
 91
        2
 64
     7
 65
   257
 75
     1
175
     1
 42
40.0
 92
        8
 66
     7
 43
1.0
 76
     1
 77
     6
 78
     2
 67
     7
 79
     3
170
     0
171
     0
290
     0
174
     0
 93
        1
 44
0.0
173
     0
291
     0
 45
0.0
1001
ACAD
1000
AcDbSavedByObjectVersion
1070
     0
  0
VISUALSTYLE
  5
FA
102
{ACAD_REACTORS
330
EF
102
}
330
EF
100
AcDbVisualStyle
  2
Dim
 70
    11
 71
     2
 72
     2
 73
     1
 90
        0
 40
-0.6
 41
-30.0
 62
     5
 63
     7
 74
     1
 91
        4
 64
     7
 65
   257
 75
     1
175
     1
 42
1.0
 92
        8
 66
     7
 43
1.0
 76
     1
 77
     6
 78
     2
 67
     7
 79
     5
170
     0
171
     0
290
     0
174
     0
 93
        1
 44
-50.0
173
     0
291
     1
 45
0.0
1001
ACAD
1000
AcDbSavedByObjectVersion
1070
     0
  0
VISUALSTYLE
  5
FE
102
{ACAD_REACTORS
330
EF
102
}
330
EF
100
AcDbVisualStyle
  2
Facepattern
 70
    15
 71
     2
 72
     2
 73
     1
 90
        0
 40
-0.6
 41
-30.0
 62
     5
 63
     7
 74
     1
 91
        4
 64
     7
 65
   257
 75
     1
175
     1
 42
1.0
 92
        8
 66
     7
 43
1.0
 76
     1
 77
     6
 78
     2
 67
     7
 79
     5
170
     0
171
     0
290
     0
174
     0
 93
        1
 44
0.0
173
     0
291
     1
 45
0.0
1001
ACAD
1000
AcDbSavedByObjectVersion
1070
     0
  0
VISUALSTYLE
  5
F0
102
{ACAD_REACTORS
330
EF
102
}
330
EF
100
AcDbVisualStyle
  2
Flat
 70
     0
 71
     2
 72
     1
 73
     1
 90
        2
 40
-0.6
 41
30.0
 62
     5
 63
     7
 74
     0
 91
        4
 64
     7
 65
   257
 75
     1
175
     1
 42
1.0
 92
        8
 66
     7
 43
1.0
 76
     1
 77
     6
 78
     2
 67
     7
 79
     5
170
     0
171
     0
290
     0
174
     0
 93
        1
 44
0.0
173
     0
291
     1
 45
0.0
1001
ACAD
1000
AcDbSavedByObjectVersion
1070
     0
  0
VISUALSTYLE
  5
F1
102
{ACAD_REACTORS
330
EF
102
}
330
EF
100
AcDbVisualStyle
  2
FlatWithEdges
 70
     1
 71
     2
 72
     1
 73
     1
 90
        2
 40
-0.6
 41
30.0
 62
     5
 63
     7
 74
     1
 91
        4
 64
     7
 65
   257
 75
     1
175
     1
 42
1.0
 92
        0
 66
   257
 43
1.0
 76
     1
 77
     6
 78
     2
 67
     7
 79
     5
170
     0
171
     0
290
     0
174
     0
 93
        1
 44
0.0
173
     0
291
     1
 45
0.0
1001
ACAD
1000
AcDbSavedByObjectVersion
1070
     0
  0
VISUALSTYLE
  5
F2
102
{ACAD_REACTORS
330
EF
102
}
330
EF
100
AcDbVisualStyle
  2
Gouraud
 70
     2
 71
     2
 72
     2
 73
     1
 90
        2
 40
-0.6
 41
30.0
 62
     5
 63
     7
 74
     0
 91
        4
 64
     7
 65
   257
 75
     1
175
     1
 42
1.0
 92
        0
 66
     7
 43
1.0
 76
     1
 77
     6
 78
     2
 67
     7
 79
     5
170
     0
171
     0
290
     0
174
     0
 93
        1
 44
0.0
173
     0
291
     1
 45
0.0
1001
ACAD
1000
AcDbSavedByObjectVersion
1070
     0
  0
VISUALSTYLE
  5
F3
102
{ACAD_REACTORS
330
EF
102
}
330
EF
100
AcDbVisualStyle
  2
GouraudWithEdges
 70
     3
 71
     2
 72
     2
 73
     1
 90
        2
 40
-0.6
 41
30.0
 62
     5
 63
     7
 74
     1
 91
        4
 64
     7
 65
   257
 75
     1
175
     1
 42
1.0
 92
        0
 66
   257
 43
1.0
 76
     1
 77
     6
 78
     2
 67
     7
 79
     5
170
     0
171
     0
290
     0
174
     0
 93
        1
 44
0.0
173
     0
291
     1
 45
0.0
1001
ACAD
1000
AcDbSavedByObjectVersion
1070
     0
  0
VISUALSTYLE
  5
FD
102
{ACAD_REACTORS
330
EF
102
}
330
EF
100
AcDbVisualStyle
  2
Linepattern
 70
    14
 71
     2
 72
     2
 73
     1
 90
        0
 40
-0.6
 41
-30.0
 62
     5
 63
     7
 74
     1
 91
        4
 64
     7
 65
   257
 75
     7
175
     7
 42
1.0
 92
        8
 66
     7
 43
1.0
 76
     1
 77
     6
 78
     2
 67
     7
 79
     5
170
     0
171
     0
290
     0
174
     0
 93
        1
 44
0.0
173
     0
291
     1
 45
0.0
1001
ACAD
1000
AcDbSavedByObjectVersion
1070
     0
  0
VISUALSTYLE
  5
F9
102
{ACAD_REACTORS
330
EF
102
}
330
EF
100
AcDbVisualStyle
  2
Realistic
 70
     8
 71
     2
 72
     2
 73
     1
 90
        0
 40
-0.6
 41
-30.0
 62
     5
 63
     7
 74
     1
 91
        0
 64
     7
 65
   257
 75
     1
175
     1
 42
1.0
 92
        8
 66
     8
 43
1.0
 76
     1
 77
     6
 78
     2
 67
     7
 79
     5
170
     0
171
     0
290
     0
174
     0
 93
       13
 44
0.0
173
     0
291
     0
 45
0.0
1001
ACAD
1000
AcDbSavedByObjectVersion
1070
     0
  0
VISUALSTYLE
  5
FC
102
{ACAD_REACTORS
330
EF
102
}
330
EF
100
AcDbVisualStyle
  2
Thicken
 70
    13
 71
     2
 72
     2
 73
     1
 90
        0
 40
-0.6
 41
-30.0
 62
     5
 63
     7
 74
     1
 91
        4
 64
     7
 65
   257
 75
     1
175
     1
 42
1.0
 92
       12
 66
     7
 43
1.0
 76
     1
 77
     6
 78
     2
 67
     7
 79
     5
170
     0
171
     0
290
     0
174
     0
 93
        1
 44
0.0
173
     0
291
     1
 45
0.0
1001
ACAD
1000
AcDbSavedByObjectVersion
1070
     0
  0
DICTIONARYVAR
  5
146
102
{ACAD_REACTORS
330
5E
102
}
330
5E
100
DictionaryVariables
280
     0
  1
1:1
  0
DICTIONARYVAR
  5
145
102
{ACAD_REACTORS
330
5E
102
}
330
5E
100
DictionaryVariables
280
     0
  1
STANDARD
  0
DICTIONARYVAR
  5
84
102
{ACAD_REACTORS
330
5E
102
}
330
5E
100
DictionaryVariables
280
     0
  1
STANDARD
  0
DICTIONARYVAR
  5
5F
102
{ACAD_REACTORS
330
5E
102
}
330
5E
100
DictionaryVariables
280
     0
  1
2
  0
DICTIONARYVAR
  5
63
102
{ACAD_REACTORS
330
5E
102
}
330
5E
100
DictionaryVariables
280
     0
  1
1
  0
DICTIONARYVAR
  5
573
102
{ACAD_REACTORS
330
5E
102
}
330
5E
100
DictionaryVariables
280
     0
  1
0
  0
DICTIONARYVAR
  5
571
102
{ACAD_REACTORS
330
5E
102
}
330
5E
100
DictionaryVariables
280
     0
  1
2
  0
DICTIONARYVAR
  5
570
102
{ACAD_REACTORS
330
5E
102
}
330
5E
100
DictionaryVariables
280
     0
  1
1
  0
DICTIONARYVAR
  5
575
102
{ACAD_REACTORS
330
5E
102
}
330
5E
100
DictionaryVariables
280
     0
  1
80.000000
  0
DICTIONARYVAR
  5
574
102
{ACAD_REACTORS
330
5E
102
}
330
5E
100
DictionaryVariables
280
     0
  1
5.000000
  0
DICTIONARYVAR
  5
572
102
{ACAD_REACTORS
330
5E
102
}
330
5E
100
DictionaryVariables
280
     0
  1
127
  0
DICTIONARY
  5
57B
330
D3
100
AcDbDictionary
280
     1
281
     1
  3
ACAD_XREC_ROUNDTRIP
360
57C
  0
DICTIONARY
  5
57D
330
D7
100
AcDbDictionary
280
     1
281
     1
  3
ACAD_XREC_ROUNDTRIP
360
57E
  0
DICTIONARY
  5
578
330
22
100
AcDbDictionary
280
     1
281
     1
  3
ACAD_XREC_ROUNDTRIP
360
579
  0
DICTIONARY
  5
581
330
ED
100
AcDbDictionary
280
     1
281
     1
  3
ACAD_XREC_ROUNDTRIP
360
582
  0
DICTIONARY
  5
57F
330
EC
100
AcDbDictionary
280
     1
281
     1
  3
ACAD_XREC_ROUNDTRIP
360
580
  0
DICTIONARY
  5
173
330
EE
100
AcDbDictionary
280
     1
281
     1
  3
ACAD_XREC_ROUNDTRIP
360
583
  3
BUMPTILE
360
175
  3
DIFFUSETILE
360
174
  3
OPACITYTILE
360
176
  3
REFLECTIONTILE
360
177
  0
DICTIONARY
  5
162
330
7F
100
AcDbDictionary
280
     1
281
     1
  3
ACAD_ROUNDTRIP_2008_TABLESTYLE_CELLSTYLEMAP
360
576
  3
ACAD_XREC_ROUNDTRIP
360
57A
  0
XRECORD
  5
57C
102
{ACAD_REACTORS
330
57B
102
}
330
57B
100
AcDbXrecord
280
     1
102
SHADEPLOT
 70
     0
102
SHADEPLOTRESLEVEL
 70
     2
102
SHADEPLOTCUSTOMDPI
 70
   300
  0
XRECORD
  5
57E
102
{ACAD_REACTORS
330
57D
102
}
330
57D
100
AcDbXrecord
280
     1
102
SHADEPLOT
 70
     0
102
SHADEPLOTRESLEVEL
 70
     2
102
SHADEPLOTCUSTOMDPI
 70
   300
  0
XRECORD
  5
579
102
{ACAD_REACTORS
330
578
102
}
330
578
100
AcDbXrecord
280
     1
102
SHADEPLOT
 70
     0
102
SHADEPLOTRESLEVEL
 70
     2
102
SHADEPLOTCUSTOMDPI
 70
   300
  0
XRECORD
  5
582
102
{ACAD_REACTORS
330
581
102
}
330
581
100
AcDbXrecord
280
     1
102
MATERIAL
148
0.0
149
0.0
149
0.0
 93
        0
 94
       63
282
     0
 72
     1
 77
     1
171
     1
175
     1
179
     1
273
     0
  0
XRECORD
  5
580
102
{ACAD_REACTORS
330
57F
102
}
330
57F
100
AcDbXrecord
280
     1
102
MATERIAL
148
0.0
149
0.0
149
0.0
 93
        0
 94
       63
282
     0
 72
     1
 77
     1
171
     1
175
     1
179
     1
273
     0
  0
XRECORD
  5
583
102
{ACAD_REACTORS
330
173
102
}
330
173
100
AcDbXrecord
280
     1
102
MATERIAL
148
0.0
149
0.0
149
0.0
 93
        0
 94
       63
282
     0
 72
     1
 77
     1
171
     1
175
     1
179
     1
273
     0
  0
XRECORD
  5
175
102
{ACAD_REACTORS
330
173
102
}
330
173
100
AcDbXrecord
280
     1
270
     1
271
     1
  0
XRECORD
  5
174
102
{ACAD_REACTORS
330
173
102
}
330
173
100
AcDbXrecord
280
     1
270
     1
271
     1
  0
XRECORD
  5
176
102
{ACAD_REACTORS
330
173
102
}
330
173
100
AcDbXrecord
280
     1
270
     1
271
     1
  0
XRECORD
  5
177
102
{ACAD_REACTORS
330
173
102
}
330
173
100
AcDbXrecord
280
     1
270
     1
271
     1
  0
CELLSTYLEMAP
  5
576
102
{ACAD_REACTORS
330
162
102
}
330
162
100
AcDbCellStyleMap
 90
        3
300
CELLSTYLE
  1
TABLEFORMAT_BEGIN
 90
        5
170
     1
 91
        0
 92
    32768
 62
   257
 93
        1
300
CONTENTFORMAT
  1
CONTENTFORMAT_BEGIN
 90
        0
 91
        0
 92
      512
 93
        0
300

 40
0.0
140
1.0
 94
        5
 62
     0
340
11
144
6.0
309
CONTENTFORMAT_END
171
     1
301
MARGIN
  1
CELLMARGIN_BEGIN
 40
1.5
 40
1.5
 40
1.5
 40
1.5
 40
4.5
 40
4.5
309
CELLMARGIN_END
 94
        6
 95
        1
302
GRIDFORMAT
  1
GRIDFORMAT_BEGIN
 90
        0
 91
        1
 62
     0
 92
       -2
340
14
 93
        0
 40
1.125
309
GRIDFORMAT_END
 95
        2
302
GRIDFORMAT
  1
GRIDFORMAT_BEGIN
 90
        0
 91
        1
 62
     0
 92
       -2
340
14
 93
        0
 40
1.125
309
GRIDFORMAT_END
 95
        4
302
GRIDFORMAT
  1
GRIDFORMAT_BEGIN
 90
        0
 91
        1
 62
     0
 92
       -2
340
14
 93
        0
 40
1.125
309
GRIDFORMAT_END
 95
        8
302
GRIDFORMAT
  1
GRIDFORMAT_BEGIN
 90
        0
 91
        1
 62
     0
 92
       -2
340
14
 93
        0
 40
1.125
309
GRIDFORMAT_END
 95
       16
302
GRIDFORMAT
  1
GRIDFORMAT_BEGIN
 90
        0
 91
        1
 62
     0
 92
       -2
340
14
 93
        0
 40
1.125
309
GRIDFORMAT_END
 95
       32
302
GRIDFORMAT
  1
GRIDFORMAT_BEGIN
 90
        0
 91
        1
 62
     0
 92
       -2
340
14
 93
        0
 40
1.125
309
GRIDFORMAT_END
309
TABLEFORMAT_END
  1
CELLSTYLE_BEGIN
 90
        1
 91
        1
300
_TITLE
309
CELLSTYLE_END
300
CELLSTYLE
  1
TABLEFORMAT_BEGIN
 90
        5
170
     1
 91
        0
 92
        0
 62
   257
 93
        1
300
CONTENTFORMAT
  1
CONTENTFORMAT_BEGIN
 90
        0
 91
        0
 92
      512
 93
        0
300

 40
0.0
140
1.0
 94
        5
 62
     0
340
11
144
4.5
309
CONTENTFORMAT_END
171
     1
301
MARGIN
  1
CELLMARGIN_BEGIN
 40
1.5
 40
1.5
 40
1.5
 40
1.5
 40
4.5
 40
4.5
309
CELLMARGIN_END
 94
        6
 95
        1
302
GRIDFORMAT
  1
GRIDFORMAT_BEGIN
 90
        0
 91
        1
 62
     0
 92
       -2
340
14
 93
        0
 40
1.125
309
GRIDFORMAT_END
 95
        2
302
GRIDFORMAT
  1
GRIDFORMAT_BEGIN
 90
        0
 91
        1
 62
     0
 92
       -2
340
14
 93
        0
 40
1.125
309
GRIDFORMAT_END
 95
        4
302
GRIDFORMAT
  1
GRIDFORMAT_BEGIN
 90
        0
 91
        1
 62
     0
 92
       -2
340
14
 93
        0
 40
1.125
309
GRIDFORMAT_END
 95
        8
302
GRIDFORMAT
  1
GRIDFORMAT_BEGIN
 90
        0
 91
        1
 62
     0
 92
       -2
340
14
 93
        0
 40
1.125
309
GRIDFORMAT_END
 95
       16
302
GRIDFORMAT
  1
GRIDFORMAT_BEGIN
 90
        0
 91
        1
 62
     0
 92
       -2
340
14
 93
        0
 40
1.125
309
GRIDFORMAT_END
 95
       32
302
GRIDFORMAT
  1
GRIDFORMAT_BEGIN
 90
        0
 91
        1
 62
     0
 92
       -2
340
14
 93
        0
 40
1.125
309
GRIDFORMAT_END
309
TABLEFORMAT_END
  1
CELLSTYLE_BEGIN
 90
        2
 91
        1
300
_HEADER
309
CELLSTYLE_END
300
CELLSTYLE
  1
TABLEFORMAT_BEGIN
 90
        5
170
     1
 91
        0
 92
        0
 62
   257
 93
        1
300
CONTENTFORMAT
  1
CONTENTFORMAT_BEGIN
 90
        0
 91
        0
 92
      512
 93
        0
300

 40
0.0
140
1.0
 94
        2
 62
     0
340
11
144
4.5
309
CONTENTFORMAT_END
171
     1
301
MARGIN
  1
CELLMARGIN_BEGIN
 40
1.5
 40
1.5
 40
1.5
 40
1.5
 40
4.5
 40
4.5
309
CELLMARGIN_END
 94
        6
 95
        1
302
GRIDFORMAT
  1
GRIDFORMAT_BEGIN
 90
        0
 91
        1
 62
     0
 92
       -2
340
14
 93
        0
 40
1.125
309
GRIDFORMAT_END
 95
        2
302
GRIDFORMAT
  1
GRIDFORMAT_BEGIN
 90
        0
 91
        1
 62
     0
 92
       -2
340
14
 93
        0
 40
1.125
309
GRIDFORMAT_END
 95
        4
302
GRIDFORMAT
  1
GRIDFORMAT_BEGIN
 90
        0
 91
        1
 62
     0
 92
       -2
340
14
 93
        0
 40
1.125
309
GRIDFORMAT_END
 95
        8
302
GRIDFORMAT
  1
GRIDFORMAT_BEGIN
 90
        0
 91
        1
 62
     0
 92
       -2
340
14
 93
        0
 40
1.125
309
GRIDFORMAT_END
 95
       16
302
GRIDFORMAT
  1
GRIDFORMAT_BEGIN
 90
        0
 91
        1
 62
     0
 92
       -2
340
14
 93
        0
 40
1.125
309
GRIDFORMAT_END
 95
       32
302
GRIDFORMAT
  1
GRIDFORMAT_BEGIN
 90
        0
 91
        1
 62
     0
 92
       -2
340
14
 93
        0
 40
1.125
309
GRIDFORMAT_END
309
TABLEFORMAT_END
  1
CELLSTYLE_BEGIN
 90
        3
 91
        2
300
_DATA
309
CELLSTYLE_END
  0
XRECORD
  5
57A
102
{ACAD_REACTORS
330
162
102
}
330
162
100
AcDbXrecord
280
     1
102
ACAD_ROUNDTRIP_PRE2007_TABLESTYLE
 90
      512
 91
        0
  1

 92
      512
 93
        0
  2

 94
      512
 95
        0
  3

  0
ENDSEC
  0
EOF
