  0
SECTION
  2
HEADER
  9
$ACADVER
  1
AC1015
  9
$ACADMAINTVER
 70
    20
  9
$DWGCODEPAGE
  3
ANSI_1254
  9
$INSBASE
 10
0.0
 20
0.0
 30
0.0
  9
$EXTMIN
 10
1648.177811723471
 20
590.0434847945241
 30
0.0
  9
$EXTMAX
 10
5312.34897543168
 20
2634.948557407836
 30
0.0
  9
$LIMMIN
 10
0.0
 20
0.0
  9
$LIMMAX
 10
420.0
 20
297.0
  9
$ORTHOMODE
 70
     0
  9
$REGENMODE
 70
     1
  9
$FILLMODE
 70
     1
  9
$QTEXTMODE
 70
     0
  9
$MIRRTEXT
 70
     0
  9
$LTSCALE
 40
1.0
  9
$ATTMODE
 70
     1
  9
$TEXTSIZE
 40
2.5
  9
$TRACEWID
 40
1.0
  9
$TEXTSTYLE
  7
Standard
  9
$CLAYER
  8
0
  9
$CELTYPE
  6
ByLayer
  9
$CECOLOR
 62
   256
  9
$CELTSCALE
 40
1.0
  9
$DISPSILH
 70
     0
  9
$DIMSCALE
 40
1.0
  9
$DIMASZ
 40
2.5
  9
$DIMEXO
 40
0.625
  9
$DIMDLI
 40
3.75
  9
$DIMRND
 40
0.0
  9
$DIMDLE
 40
0.0
  9
$DIMEXE
 40
1.25
  9
$DIMTP
 40
0.0
  9
$DIMTM
 40
0.0
  9
$DIMTXT
 40
2.5
  9
$DIMCEN
 40
2.5
  9
$DIMTSZ
 40
0.0
  9
$DIMTOL
 70
     0
  9
$DIMLIM
 70
     0
  9
$DIMTIH
 70
     0
  9
$DIMTOH
 70
     0
  9
$DIMSE1
 70
     0
  9
$DIMSE2
 70
     0
  9
$DIMTAD
 70
     1
  9
$DIMZIN
 70
     8
  9
$DIMBLK
  1

  9
$DIMASO
 70
     1
  9
$DIMSHO
 70
     1
  9
$DIMPOST
  1

  9
$DIMAPOST
  1

  9
$DIMALT
 70
     0
  9
$DIMALTD
 70
     3
  9
$DIMALTF
 40
0.03937007874016
  9
$DIMLFAC
 40
1.0
  9
$DIMTOFL
 70
     1
  9
$DIMTVP
 40
0.0
  9
$DIMTIX
 70
     0
  9
$DIMSOXD
 70
     0
  9
$DIMSAH
 70
     0
  9
$DIMBLK1
  1

  9
$DIMBLK2
  1

  9
$DIMSTYLE
  2
ISO-25
  9
$DIMCLRD
 70
     0
  9
$DIMCLRE
 70
     0
  9
$DIMCLRT
 70
     0
  9
$DIMTFAC
 40
1.0
  9
$DIMGAP
 40
0.625
  9
$DIMJUST
 70
     0
  9
$DIMSD1
 70
     0
  9
$DIMSD2
 70
     0
  9
$DIMTOLJ
 70
     0
  9
$DIMTZIN
 70
     8
  9
$DIMALTZ
 70
     0
  9
$DIMALTTZ
 70
     0
  9
$DIMUPT
 70
     0
  9
$DIMDEC
 70
     2
  9
$DIMTDEC
 70
     2
  9
$DIMALTU
 70
     2
  9
$DIMALTTD
 70
     3
  9
$DIMTXSTY
  7
Standard
  9
$DIMAUNIT
 70
     0
  9
$DIMADEC
 70
     0
  9
$DIMALTRND
 40
0.0
  9
$DIMAZIN
 70
     0
  9
$DIMDSEP
 70
    44
  9
$DIMATFIT
 70
     3
  9
$DIMFRAC
 70
     0
  9
$DIMLDRBLK
  1

  9
$DIMLUNIT
 70
     2
  9
$DIMLWD
 70
    -2
  9
$DIMLWE
 70
    -2
  9
$DIMTMOVE
 70
     0
  9
$LUNITS
 70
     2
  9
$LUPREC
 70
     4
  9
$SKETCHINC
 40
1.0
  9
$FILLETRAD
 40
0.0
  9
$AUNITS
 70
     0
  9
$AUPREC
 70
     0
  9
$MENU
  1
.
  9
$ELEVATION
 40
0.0
  9
$PELEVATION
 40
0.0
  9
$THICKNESS
 40
0.0
  9
$LIMCHECK
 70
     0
  9
$CHAMFERA
 40
0.0
  9
$CHAMFERB
 40
0.0
  9
$CHAMFERC
 40
0.0
  9
$CHAMFERD
 40
0.0
  9
$SKPOLY
 70
     0
  9
$TDCREATE
 40
2458570.574085637
  9
$TDUCREATE
 40
2458570.449085637
  9
$TDUPDATE
 40
2459082.580735903
  9
$TDUUPDATE
 40
2459082.455735903
  9
$TDINDWG
 40
0.0004010301
  9
$TDUSRTIMER
 40
0.0004010301
  9
$USRTIMER
 70
     1
  9
$ANGBASE
 50
0.0
  9
$ANGDIR
 70
     0
  9
$PDMODE
 70
     0
  9
$PDSIZE
 40
0.0
  9
$PLINEWID
 40
0.0
  9
$SPLFRAME
 70
     0
  9
$SPLINETYPE
 70
     6
  9
$SPLINESEGS
 70
     8
  9
$HANDSEED
  5
E59
  9
$SURFTAB1
 70
     6
  9
$SURFTAB2
 70
     6
  9
$SURFTYPE
 70
     6
  9
$SURFU
 70
     6
  9
$SURFV
 70
     6
  9
$UCSBASE
  2

  9
$UCSNAME
  2

  9
$UCSORG
 10
0.0
 20
0.0
 30
0.0
  9
$UCSXDIR
 10
1.0
 20
0.0
 30
0.0
  9
$UCSYDIR
 10
0.0
 20
1.0
 30
0.0
  9
$UCSORTHOREF
  2

  9
$UCSORTHOVIEW
 70
     0
  9
$UCSORGTOP
 10
0.0
 20
0.0
 30
0.0
  9
$UCSORGBOTTOM
 10
0.0
 20
0.0
 30
0.0
  9
$UCSORGLEFT
 10
0.0
 20
0.0
 30
0.0
  9
$UCSORGRIGHT
 10
0.0
 20
0.0
 30
0.0
  9
$UCSORGFRONT
 10
0.0
 20
0.0
 30
0.0
  9
$UCSORGBACK
 10
0.0
 20
0.0
 30
0.0
  9
$PUCSBASE
  2

  9
$PUCSNAME
  2

  9
$PUCSORG
 10
0.0
 20
0.0
 30
0.0
  9
$PUCSXDIR
 10
1.0
 20
0.0
 30
0.0
  9
$PUCSYDIR
 10
0.0
 20
1.0
 30
0.0
  9
$PUCSORTHOREF
  2

  9
$PUCSORTHOVIEW
 70
     0
  9
$PUCSORGTOP
 10
0.0
 20
0.0
 30
0.0
  9
$PUCSORGBOTTOM
 10
0.0
 20
0.0
 30
0.0
  9
$PUCSORGLEFT
 10
0.0
 20
0.0
 30
0.0
  9
$PUCSORGRIGHT
 10
0.0
 20
0.0
 30
0.0
  9
$PUCSORGFRONT
 10
0.0
 20
0.0
 30
0.0
  9
$PUCSORGBACK
 10
0.0
 20
0.0
 30
0.0
  9
$USERI1
 70
     0
  9
$USERI2
 70
     0
  9
$USERI3
 70
     0
  9
$USERI4
 70
     0
  9
$USERI5
 70
     0
  9
$USERR1
 40
0.0
  9
$USERR2
 40
0.0
  9
$USERR3
 40
0.0
  9
$USERR4
 40
0.0
  9
$USERR5
 40
0.0
  9
$WORLDVIEW
 70
     1
  9
$SHADEDGE
 70
     3
  9
$SHADEDIF
 70
    70
  9
$TILEMODE
 70
     1
  9
$MAXACTVP
 70
    64
  9
$PINSBASE
 10
0.0
 20
0.0
 30
0.0
  9
$PLIMCHECK
 70
     0
  9
$PEXTMIN
 10
0.0
 20
0.0
 30
0.0
  9
$PEXTMAX
 10
0.0
 20
0.0
 30
0.0
  9
$PLIMMIN
 10
0.0
 20
0.0
  9
$PLIMMAX
 10
12.0
 20
9.0
  9
$UNITMODE
 70
     0
  9
$VISRETAIN
 70
     1
  9
$PLINEGEN
 70
     0
  9
$PSLTSCALE
 70
     1
  9
$TREEDEPTH
 70
  3020
  9
$CMLSTYLE
  2
Standard
  9
$CMLJUST
 70
     0
  9
$CMLSCALE
 40
20.0
  9
$PROXYGRAPHICS
 70
     1
  9
$MEASUREMENT
 70
     1
  9
$CELWEIGHT
370
    -1
  9
$ENDCAPS
280
     0
  9
$JOINSTYLE
280
     0
  9
$LWDISPLAY
290
     0
  9
$INSUNITS
 70
     4
  9
$HYPERLINKBASE
  1

  9
$STYLESHEET
  1

  9
$XEDIT
290
     1
  9
$CEPSNTYPE
380
     0
  9
$PSTYLEMODE
290
     1
  9
$FINGERPRINTGUID
  2
{149814DE-2DF4-47BD-8296-71D65E4CCFF0}
  9
$VERSIONGUID
  2
{35CCFD67-931A-40BA-9711-9D81AA90B6A2}
  9
$EXTNAMES
290
     1
  9
$PSVPSCALE
 40
0.0
  9
$OLESTARTUP
290
     0
  0
ENDSEC
  0
SECTION
  2
CLASSES
  0
CLASS
  1
ACDBDICTIONARYWDFLT
  2
AcDbDictionaryWithDefault
  3
ObjectDBX Classes
 90
        0
280
     0
281
     0
  0
CLASS
  1
ACDBPLACEHOLDER
  2
AcDbPlaceHolder
  3
ObjectDBX Classes
 90
        0
280
     0
281
     0
  0
CLASS
  1
LAYOUT
  2
AcDbLayout
  3
ObjectDBX Classes
 90
        0
280
     0
281
     0
  0
CLASS
  1
DICTIONARYVAR
  2
AcDbDictionaryVar
  3
ObjectDBX Classes
 90
        0
280
     0
281
     0
  0
CLASS
  1
TABLESTYLE
  2
AcDbTableStyle
  3
ObjectDBX Classes
 90
     4095
280
     0
281
     0
  0
CLASS
  1
MATERIAL
  2
AcDbMaterial
  3
ObjectDBX Classes
 90
     1153
280
     0
281
     0
  0
CLASS
  1
VISUALSTYLE
  2
AcDbVisualStyle
  3
ObjectDBX Classes
 90
     4095
280
     0
281
     0
  0
CLASS
  1
SCALE
  2
AcDbScale
  3
ObjectDBX Classes
 90
     1153
280
     0
281
     0
  0
CLASS
  1
MLEADERSTYLE
  2
AcDbMLeaderStyle
  3
ACDB_MLEADERSTYLE_CLASS
 90
     4095
280
     0
281
     0
  0
CLASS
  1
CELLSTYLEMAP
  2
AcDbCellStyleMap
  3
ObjectDBX Classes
 90
     1152
280
     0
281
     0
  0
ENDSEC
  0
SECTION
  2
TABLES
  0
TABLE
  2
VPORT
  5
8
330
0
100
AcDbSymbolTable
 70
     1
  0
VPORT
  5
EA
330
8
100
AcDbSymbolTableRecord
100
AcDbViewportTableRecord
  2
*Active
 70
     0
 10
0.0
 20
0.0
 11
1.0
 21
1.0
 12
3480.310091974455
 22
1662.736912352595
 13
0.0
 23
0.0
 14
10.0
 24
10.0
 15
10.0
 25
10.0
 16
0.0
 26
0.0
 36
1.0
 17
0.0
 27
0.0
 37
0.0
 40
2160.695570836839
 41
1.903110047846889
 42
50.0
 43
0.0
 44
0.0
 50
0.0
 51
0.0
 71
     0
 72
  1000
 73
     1
 74
     3
 75
     0
 76
     0
 77
     0
 78
     0
281
     0
 65
     1
110
0.0
120
0.0
130
0.0
111
1.0
121
0.0
131
0.0
112
0.0
122
1.0
132
0.0
 79
     0
146
0.0
  0
ENDTAB
  0
TABLE
  2
LTYPE
  5
5
330
0
100
AcDbSymbolTable
 70
     1
  0
LTYPE
  5
14
330
5
100
AcDbSymbolTableRecord
100
AcDbLinetypeTableRecord
  2
ByBlock
 70
     0
  3

 72
    65
 73
     0
 40
0.0
  0
LTYPE
  5
15
330
5
100
AcDbSymbolTableRecord
100
AcDbLinetypeTableRecord
  2
ByLayer
 70
     0
  3

 72
    65
 73
     0
 40
0.0
  0
LTYPE
  5
16
330
5
100
AcDbSymbolTableRecord
100
AcDbLinetypeTableRecord
  2
Continuous
 70
     0
  3
Solid line
 72
    65
 73
     0
 40
0.0
  0
ENDTAB
  0
TABLE
  2
LAYER
  5
2
330
0
100
AcDbSymbolTable
 70
     1
  0
LAYER
  5
10
102
{ACAD_XDICTIONARY
360
13C
102
}
330
2
100
AcDbSymbolTableRecord
100
AcDbLayerTableRecord
  2
0
 70
     0
 62
     7
  6
Continuous
370
    -3
390
F
  0
ENDTAB
  0
TABLE
  2
STYLE
  5
3
330
0
100
AcDbSymbolTable
 70
     2
  0
STYLE
  5
11
330
3
100
AcDbSymbolTableRecord
100
AcDbTextStyleTableRecord
  2
Standard
 70
     0
 40
0.0
 41
1.0
 50
0.0
 71
     0
 42
2.5
  3
txt
  4

  0
STYLE
  5
132
330
3
100
AcDbSymbolTableRecord
100
AcDbTextStyleTableRecord
  2
Annotative
 70
     0
 40
0.0
 41
1.0
 50
0.0
 71
     0
 42
2.5
  3
txt.shx
  4

1001
AcadAnnotative
1000
AnnotativeData
1002
{
1070
     1
1070
     1
1002
}
  0
ENDTAB
  0
TABLE
  2
VIEW
  5
6
330
0
100
AcDbSymbolTable
 70
     0
  0
ENDTAB
  0
TABLE
  2
UCS
  5
7
330
0
100
AcDbSymbolTable
 70
     0
  0
ENDTAB
  0
TABLE
  2
APPID
  5
9
330
0
100
AcDbSymbolTable
 70
     7
  0
APPID
  5
12
330
9
100
AcDbSymbolTableRecord
100
AcDbRegAppTableRecord
  2
ACAD
 70
     0
  0
APPID
  5
9E
330
9
100
AcDbSymbolTableRecord
100
AcDbRegAppTableRecord
  2
ACAD_PSEXT
 70
     0
  0
APPID
  5
133
330
9
100
AcDbSymbolTableRecord
100
AcDbRegAppTableRecord
  2
AcadAnnoPO
 70
     0
  0
APPID
  5
134
330
9
100
AcDbSymbolTableRecord
100
AcDbRegAppTableRecord
  2
AcadAnnotative
 70
     0
  0
APPID
  5
135
330
9
100
AcDbSymbolTableRecord
100
AcDbRegAppTableRecord
  2
ACAD_DSTYLE_DIMJAG
 70
     0
  0
APPID
  5
136
330
9
100
AcDbSymbolTableRecord
100
AcDbRegAppTableRecord
  2
ACAD_DSTYLE_DIMTALN
 70
     0
  0
APPID
  5
165
330
9
100
AcDbSymbolTableRecord
100
AcDbRegAppTableRecord
  2
ACAD_MLEADERVER
 70
     0
  0
ENDTAB
  0
TABLE
  2
DIMSTYLE
  5
A
330
0
100
AcDbSymbolTable
 70
     2
100
AcDbDimStyleTable
 71
     2
340
27
340
137
  0
DIMSTYLE
105
27
330
A
100
AcDbSymbolTableRecord
100
AcDbDimStyleTableRecord
  2
ISO-25
 70
     0
 41
2.5
 42
0.625
 43
3.75
 44
1.25
 73
     0
 74
     0
 77
     1
 78
     8
140
2.5
141
2.5
143
0.03937007874016
147
0.625
171
     3
172
     1
271
     2
272
     2
274
     3
278
    44
283
     0
284
     8
340
11
  0
DIMSTYLE
105
137
330
A
100
AcDbSymbolTableRecord
100
AcDbDimStyleTableRecord
  2
Annotative
 70
     0
 40
0.0
 41
2.5
 42
0.625
 43
3.75
 44
1.25
 73
     0
 74
     0
 77
     1
 78
     8
140
2.5
141
2.5
143
0.03937007874016
147
0.625
171
     3
172
     1
271
     2
272
     2
274
     3
278
    44
283
     0
284
     8
340
11
1001
AcadAnnotative
1000
AnnotativeData
1002
{
1070
     1
1070
     1
1002
}
1001
ACAD_DSTYLE_DIMJAG
1070
   388
1040
1.5
1001
ACAD_DSTYLE_DIMTALN
1070
   392
1070
     0
  0
ENDTAB
  0
TABLE
  2
BLOCK_RECORD
  5
1
330
0
100
AcDbSymbolTable
 70
     5
  0
BLOCK_RECORD
  5
1F
330
1
100
AcDbSymbolTableRecord
100
AcDbBlockTableRecord
  2
*Model_Space
340
22
  0
BLOCK_RECORD
  5
D2
330
1
100
AcDbSymbolTableRecord
100
AcDbBlockTableRecord
  2
*Paper_Space
340
D3
  0
BLOCK_RECORD
  5
D6
330
1
100
AcDbSymbolTableRecord
100
AcDbBlockTableRecord
  2
*Paper_Space0
340
D7
  0
BLOCK_RECORD
  5
A05
330
1
100
AcDbSymbolTableRecord
100
AcDbBlockTableRecord
  2
1
340
0
310
2800000020000000200000000100080000000000000400000000000000000000000000000000000000000000000080000080000000808000800000008000800080800000C0C0C000C0DCC000F0CAA6000020400000206000002080000020A0000020C0000020E00000400000004020000040400000406000004080000040A0
310
000040C0000040E00000600000006020000060400000606000006080000060A0000060C0000060E00000800000008020000080400000806000008080000080A0000080C0000080E00000A0000000A0200000A0400000A0600000A0800000A0A00000A0C00000A0E00000C0000000C0200000C0400000C0600000C0800000C0
310
A00000C0C00000C0E00000E0000000E0200000E0400000E0600000E0800000E0A00000E0C00000E0E00040000000400020004000400040006000400080004000A0004000C0004000E00040200000402020004020400040206000402080004020A0004020C0004020E000404000004040200040404000404060004040800040
310
40A0004040C0004040E00040600000406020004060400040606000406080004060A0004060C0004060E00040800000408020004080400040806000408080004080A0004080C0004080E00040A0000040A0200040A0400040A0600040A0800040A0A00040A0C00040A0E00040C0000040C0200040C0400040C0600040C08000
310
40C0A00040C0C00040C0E00040E0000040E0200040E0400040E0600040E0800040E0A00040E0C00040E0E00080000000800020008000400080006000800080008000A0008000C0008000E00080200000802020008020400080206000802080008020A0008020C0008020E00080400000804020008040400080406000804080
310
008040A0008040C0008040E00080600000806020008060400080606000806080008060A0008060C0008060E00080800000808020008080400080806000808080008080A0008080C0008080E00080A0000080A0200080A0400080A0600080A0800080A0A00080A0C00080A0E00080C0000080C0200080C0400080C0600080C0
310
800080C0A00080C0C00080C0E00080E0000080E0200080E0400080E0600080E0800080E0A00080E0C00080E0E000C0000000C0002000C0004000C0006000C0008000C000A000C000C000C000E000C0200000C0202000C0204000C0206000C0208000C020A000C020C000C020E000C0400000C0402000C0404000C0406000C0
310
408000C040A000C040C000C040E000C0600000C0602000C0604000C0606000C0608000C060A000C060C000C060E000C0800000C0802000C0804000C0806000C0808000C080A000C080C000C080E000C0A00000C0A02000C0A04000C0A06000C0A08000C0A0A000C0A0C000C0A0E000C0C00000C0C02000C0C04000C0C06000
310
C0C08000C0C0A000F0FBFF00A4A0A000808080000000FF0000FF000000FFFF00FF000000FF00FF00FFFF0000FFFFFF0000000000000000000000000000000000000000000000000000000000000000000000000000000000000000000000000000000000000000000000000000000000000000000000000000000000000000
310
00000000000000000000000000000000000000000000000000000000000000000000000000000000000000000000000000000000000000000000000000000000000000000000000000000000000000000000000000000000000000000000000000000000000000000000000000000000000000000000000000000000000000
310
0000000000000000000000000000000000000000000000000000000000000000000000000000000000000000000000000000000000000000000000000000000000000000000000000000000000000000000000000000000000FFFFFFFFFFFFFFFFFFFFFFFFFFFFFFFFFFFF00000000000000000000000000FF000000000000
310
000000000000000000000000FF000000000000000000000000FFFFFFFFFFFFFFFFFFFFFFFFFFFFFFFFFFFFFFFF0000000000000000000000FFFF000000000000000000000000000000000000FFFF00000000000000000000FFFF000000000000000000000000000000000000FFFF00000000000000000000FFFF0000000000
310
00000000000000000000000000FFFF00000000000000000000FFFF000000000000000000000000000000000000FFFF00000000000000000000FFFF000000000000000000000000000000000000FFFF00000000000000000000FFFF000000000000000000000000000000000000FFFF00000000000000000000FFFF00000000
310
0000000000000000000000000000FFFF00000000000000000000FFFF000000000000000000000000000000000000FFFF0000000000000000FFFFFF0000000000000000000000000000000000000000FFFFFF00000000FFFF0000FF0000000000000000000000000000000000000000FF0000FFFF0000FFFFFFFF0000000000
310
0000000000000000000000000000000000FFFFFFFF00000000000000000000000000000000000000000000000000000000000000000000000000000000000000000000000000000000000000000000000000000000000000000000000000000000000000000000000000000000000000000000000000000000000000000000
310
00000000000000000000000000000000000000000000000000000000000000000000000000000000000000000000000000000000000000000000000000000000000000000000000000000000000000000000000000000000000000000000000000000000000000000000000000000000000000000000000000000000000000
310
0000000000000000000000000000000000000000000000000000000000000000000000000000000000000000000000000000000000000000
102
{BLKREFS
331
A1E
102
}
1001
ACAD
1000
DesignCenter Data
1002
{
1070
     1
1070
     4
1002
}
  0
BLOCK_RECORD
  5
A1F
330
1
100
AcDbSymbolTableRecord
100
AcDbBlockTableRecord
  2
2
340
0
310
2800000020000000200000000100080000000000000400000000000000000000000000000000000000000000000080000080000000808000800000008000800080800000C0C0C000C0DCC000F0CAA6000020400000206000002080000020A0000020C0000020E00000400000004020000040400000406000004080000040A0
310
000040C0000040E00000600000006020000060400000606000006080000060A0000060C0000060E00000800000008020000080400000806000008080000080A0000080C0000080E00000A0000000A0200000A0400000A0600000A0800000A0A00000A0C00000A0E00000C0000000C0200000C0400000C0600000C0800000C0
310
A00000C0C00000C0E00000E0000000E0200000E0400000E0600000E0800000E0A00000E0C00000E0E00040000000400020004000400040006000400080004000A0004000C0004000E00040200000402020004020400040206000402080004020A0004020C0004020E000404000004040200040404000404060004040800040
310
40A0004040C0004040E00040600000406020004060400040606000406080004060A0004060C0004060E00040800000408020004080400040806000408080004080A0004080C0004080E00040A0000040A0200040A0400040A0600040A0800040A0A00040A0C00040A0E00040C0000040C0200040C0400040C0600040C08000
310
40C0A00040C0C00040C0E00040E0000040E0200040E0400040E0600040E0800040E0A00040E0C00040E0E00080000000800020008000400080006000800080008000A0008000C0008000E00080200000802020008020400080206000802080008020A0008020C0008020E00080400000804020008040400080406000804080
310
008040A0008040C0008040E00080600000806020008060400080606000806080008060A0008060C0008060E00080800000808020008080400080806000808080008080A0008080C0008080E00080A0000080A0200080A0400080A0600080A0800080A0A00080A0C00080A0E00080C0000080C0200080C0400080C0600080C0
310
800080C0A00080C0C00080C0E00080E0000080E0200080E0400080E0600080E0800080E0A00080E0C00080E0E000C0000000C0002000C0004000C0006000C0008000C000A000C000C000C000E000C0200000C0202000C0204000C0206000C0208000C020A000C020C000C020E000C0400000C0402000C0404000C0406000C0
310
408000C040A000C040C000C040E000C0600000C0602000C0604000C0606000C0608000C060A000C060C000C060E000C0800000C0802000C0804000C0806000C0808000C080A000C080C000C080E000C0A00000C0A02000C0A04000C0A06000C0A08000C0A0A000C0A0C000C0A0E000C0C00000C0C02000C0C04000C0C06000
310
C0C08000C0C0A000F0FBFF00A4A0A000808080000000FF0000FF000000FFFF00FF000000FF00FF00FFFF0000FFFFFF0000000000000000000000000000000000000000000000000000000000000000000000000000000000000000000000000000000000000000000000000000000000000000000000000000000000000000
310
00000000000000000000000000000000000000000000000000000000000000000000000000000000000000000000000000000000000000000000000000000000000000000000000000000000000000000000000000000000000000000000000000000000000000000000000000000000000000000000000000000000000000
310
00000000000000000000000000000000000000000000000000000000000000000000000000000000000000000000000000000000000000000000000000000000000000000000000000000000000000000000000000000000000000000000000000000000000000000000000000000000000000000000000000000000000000
310
00000000000000000000000000000000000000000000000000000000000000000000000000000000000000000000000000000000000000000000000000000000000000000000000000000000000000000000000000000000000000000000000000000000000000000000000000000000000000000000000000000000000000
310
000000000000000000000000000000000000000000FFFFFFFFFFFFFFFFFFFFFFFFFFFFFFFFFFFFFFFFFFFFFFFFFFFFFFFFFFFF0000FFFFFFFFFFFFFFFFFFFFFFFFFFFFFFFFFFFFFFFFFFFFFFFFFFFFFFFFFFFF0000000000000000000000000000000000000000000000000000000000000000000000000000000000000000
310
00000000000000000000000000000000000000000000000000000000000000000000000000000000000000000000000000000000000000000000000000000000000000000000000000000000000000000000000000000000000000000000000000000000000000000000000000000000000000000000000000000000000000
310
00000000000000000000000000000000000000000000000000000000000000000000000000000000000000000000000000000000000000000000000000000000000000000000000000000000000000000000000000000000000000000000000000000000000000000000000000000000000000000000000000000000000000
310
00000000000000000000000000000000000000000000000000000000000000000000000000000000000000000000000000000000000000000000000000000000000000000000000000000000000000000000000000000000000000000000000000000000000000000000000000000000000000000000000000000000000000
310
0000000000000000000000000000000000000000000000000000000000000000000000000000000000000000000000000000000000000000
102
{BLKREFS
331
A32
102
}
1001
ACAD
1000
DesignCenter Data
1002
{
1070
     1
1070
     4
1002
}
  0
BLOCK_RECORD
  5
A33
330
1
100
AcDbSymbolTableRecord
100
AcDbBlockTableRecord
  2
3
340
0
310
2800000020000000200000000100080000000000000400000000000000000000000000000000000000000000000080000080000000808000800000008000800080800000C0C0C000C0DCC000F0CAA6000020400000206000002080000020A0000020C0000020E00000400000004020000040400000406000004080000040A0
310
000040C0000040E00000600000006020000060400000606000006080000060A0000060C0000060E00000800000008020000080400000806000008080000080A0000080C0000080E00000A0000000A0200000A0400000A0600000A0800000A0A00000A0C00000A0E00000C0000000C0200000C0400000C0600000C0800000C0
310
A00000C0C00000C0E00000E0000000E0200000E0400000E0600000E0800000E0A00000E0C00000E0E00040000000400020004000400040006000400080004000A0004000C0004000E00040200000402020004020400040206000402080004020A0004020C0004020E000404000004040200040404000404060004040800040
310
40A0004040C0004040E00040600000406020004060400040606000406080004060A0004060C0004060E00040800000408020004080400040806000408080004080A0004080C0004080E00040A0000040A0200040A0400040A0600040A0800040A0A00040A0C00040A0E00040C0000040C0200040C0400040C0600040C08000
310
40C0A00040C0C00040C0E00040E0000040E0200040E0400040E0600040E0800040E0A00040E0C00040E0E00080000000800020008000400080006000800080008000A0008000C0008000E00080200000802020008020400080206000802080008020A0008020C0008020E00080400000804020008040400080406000804080
310
008040A0008040C0008040E00080600000806020008060400080606000806080008060A0008060C0008060E00080800000808020008080400080806000808080008080A0008080C0008080E00080A0000080A0200080A0400080A0600080A0800080A0A00080A0C00080A0E00080C0000080C0200080C0400080C0600080C0
310
800080C0A00080C0C00080C0E00080E0000080E0200080E0400080E0600080E0800080E0A00080E0C00080E0E000C0000000C0002000C0004000C0006000C0008000C000A000C000C000C000E000C0200000C0202000C0204000C0206000C0208000C020A000C020C000C020E000C0400000C0402000C0404000C0406000C0
310
408000C040A000C040C000C040E000C0600000C0602000C0604000C0606000C0608000C060A000C060C000C060E000C0800000C0802000C0804000C0806000C0808000C080A000C080C000C080E000C0A00000C0A02000C0A04000C0A06000C0A08000C0A0A000C0A0C000C0A0E000C0C00000C0C02000C0C04000C0C06000
310
C0C08000C0C0A000F0FBFF00A4A0A000808080000000FF0000FF000000FFFF00FF000000FF00FF00FFFF0000FFFFFF000000000000000000000000000000000000000000000000000000000000000000000000000000000000000000000000FFFF000000000000000000000000000000000000000000000000000000000000
310
FFFF000000000000000000000000000000000000000000000000000000000000FFFF000000000000000000000000000000000000000000000000000000000000FFFF000000000000000000000000000000000000000000000000000000000000FFFF0000000000000000000000000000000000000000000000000000000000
310
00FFFF000000000000000000000000000000000000000000000000000000000000FFFF000000000000000000000000000000000000000000000000000000000000FFFF000000000000000000000000000000000000000000000000000000000000FFFF00000000000000000000000000000000000000000000000000000000
310
0000FFFF000000000000000000000000000000000000000000000000000000000000FFFF000000000000000000000000000000000000000000000000000000000000FFFF000000000000000000000000000000000000000000000000000000000000FFFF000000000000000000000000000000000000000000000000000000
310
000000FFFF000000000000000000000000000000000000000000000000000000000000FFFF000000000000000000000000000000000000000000000000000000000000FFFF000000000000000000000000000000000000000000000000000000000000FFFF0000000000000000000000000000000000000000000000000000
310
00000000FFFF000000000000000000000000000000000000000000000000000000000000FFFF000000000000000000000000000000000000000000000000000000000000FFFF000000000000000000000000000000000000000000000000000000000000FFFF00000000000000000000000000000000000000000000000000
310
0000000000FFFF000000000000000000000000000000000000000000000000000000000000FFFF000000000000000000000000000000000000000000000000000000000000FFFF000000000000000000000000000000000000000000000000000000000000FFFF000000000000000000000000000000000000000000000000
310
000000000000FFFF000000000000000000000000000000000000000000000000000000000000FFFF000000000000000000000000000000000000000000000000000000000000FFFF000000000000000000000000000000000000000000000000000000000000FFFF0000000000000000000000000000000000000000000000
310
00000000000000FFFF0000000000000000000000000000000000000000000000000000000000000000000000000000000000000000000000
102
{BLKREFS
331
B8C
102
}
1001
ACAD
1000
DesignCenter Data
1002
{
1070
     1
1070
     4
1002
}
  0
BLOCK_RECORD
  5
B8D
330
1
100
AcDbSymbolTableRecord
100
AcDbBlockTableRecord
  2
4
340
0
310
2800000020000000200000000100080000000000000400000000000000000000000000000000000000000000000080000080000000808000800000008000800080800000C0C0C000C0DCC000F0CAA6000020400000206000002080000020A0000020C0000020E00000400000004020000040400000406000004080000040A0
310
000040C0000040E00000600000006020000060400000606000006080000060A0000060C0000060E00000800000008020000080400000806000008080000080A0000080C0000080E00000A0000000A0200000A0400000A0600000A0800000A0A00000A0C00000A0E00000C0000000C0200000C0400000C0600000C0800000C0
310
A00000C0C00000C0E00000E0000000E0200000E0400000E0600000E0800000E0A00000E0C00000E0E00040000000400020004000400040006000400080004000A0004000C0004000E00040200000402020004020400040206000402080004020A0004020C0004020E000404000004040200040404000404060004040800040
310
40A0004040C0004040E00040600000406020004060400040606000406080004060A0004060C0004060E00040800000408020004080400040806000408080004080A0004080C0004080E00040A0000040A0200040A0400040A0600040A0800040A0A00040A0C00040A0E00040C0000040C0200040C0400040C0600040C08000
310
40C0A00040C0C00040C0E00040E0000040E0200040E0400040E0600040E0800040E0A00040E0C00040E0E00080000000800020008000400080006000800080008000A0008000C0008000E00080200000802020008020400080206000802080008020A0008020C0008020E00080400000804020008040400080406000804080
310
008040A0008040C0008040E00080600000806020008060400080606000806080008060A0008060C0008060E00080800000808020008080400080806000808080008080A0008080C0008080E00080A0000080A0200080A0400080A0600080A0800080A0A00080A0C00080A0E00080C0000080C0200080C0400080C0600080C0
310
800080C0A00080C0C00080C0E00080E0000080E0200080E0400080E0600080E0800080E0A00080E0C00080E0E000C0000000C0002000C0004000C0006000C0008000C000A000C000C000C000E000C0200000C0202000C0204000C0206000C0208000C020A000C020C000C020E000C0400000C0402000C0404000C0406000C0
310
408000C040A000C040C000C040E000C0600000C0602000C0604000C0606000C0608000C060A000C060C000C060E000C0800000C0802000C0804000C0806000C0808000C080A000C080C000C080E000C0A00000C0A02000C0A04000C0A06000C0A08000C0A0A000C0A0C000C0A0E000C0C00000C0C02000C0C04000C0C06000
310
C0C08000C0C0A000F0FBFF00A4A0A000808080000000FF0000FF000000FFFF00FF000000FF00FF00FFFF0000FFFFFF0000000000000000000000000000000000000000000000000000000000000000000000000000000000000000000000000000000000000000000000000000000000000000000000000000000000000000
310
00000000000000000000000000000000000000000000000000000000000000000000000000000000000000000000000000000000000000000000000000000000000000000000000000000000000000000000000000000000000000000000000000000000000000000000000000000000000000000000000000000000000000
310
0000000000000000000000000000000000000000FF000000000000000000000000000000000000000000000000000000000000FFFFFFFF0000000000000000000000000000000000000000000000000000000000FFFFFFFFFF0000000000000000000000000000000000000000000000000000000000FFFFFFFFFF00000000
310
00000000000000000000000000000000000000000000000000FFFFFFFF000000000000000000000000000000000000000000000000000000000000FFFFFFFF0000000000000000000000000000000000000000000000000000000000FFFFFFFFFF0000000000000000000000000000000000000000000000000000000000FF
310
FFFFFFFF0000000000000000000000000000000000000000000000000000000000FFFFFFFF000000000000000000000000000000000000000000000000000000000000FFFFFFFF0000000000000000000000000000000000000000000000000000000000FFFFFFFFFF00000000000000000000000000000000000000000000
310
00000000000000FFFFFFFFFF0000000000000000000000000000000000000000000000000000000000FFFFFFFF000000000000000000000000000000000000000000000000000000000000FFFFFFFF0000000000000000000000000000000000000000000000000000000000FFFFFFFFFF0000000000000000000000000000
310
000000000000000000000000000000FFFFFFFFFF0000000000000000000000000000000000000000000000000000000000FFFFFFFF000000000000000000000000000000000000000000000000000000000000FF00000000000000000000000000000000000000000000000000000000000000000000000000000000000000
310
00000000000000000000000000000000000000000000000000000000000000000000000000000000000000000000000000000000000000000000000000000000000000000000000000000000000000000000000000000000000000000000000000000000000000000000000000000000000000000000000000000000000000
310
0000000000000000000000000000000000000000000000000000000000000000000000000000000000000000000000000000000000000000
102
{BLKREFS
331
E3E
102
}
1001
ACAD
1000
DesignCenter Data
1002
{
1070
     1
1070
     4
1002
}
  0
ENDTAB
  0
ENDSEC
  0
SECTION
  2
BLOCKS
  0
BLOCK
  5
20
330
1F
100
AcDbEntity
  8
0
100
AcDbBlockBegin
  2
*Model_Space
 70
     0
 10
0.0
 20
0.0
 30
0.0
  3
*Model_Space
  1

  0
ENDBLK
  5
21
330
1F
100
AcDbEntity
  8
0
100
AcDbBlockEnd
  0
BLOCK
  5
D4
330
D2
100
AcDbEntity
 67
     1
  8
0
100
AcDbBlockBegin
  2
*Paper_Space
 70
     0
 10
0.0
 20
0.0
 30
0.0
  3
*Paper_Space
  1

  0
ENDBLK
  5
D5
330
D2
100
AcDbEntity
 67
     1
  8
0
100
AcDbBlockEnd
  0
BLOCK
  5
D8
330
D6
100
AcDbEntity
 67
     1
  8
0
100
AcDbBlockBegin
  2
*Paper_Space0
 70
     0
 10
0.0
 20
0.0
 30
0.0
  3
*Paper_Space0
  1

  0
ENDBLK
  5
D9
330
D6
100
AcDbEntity
 67
     1
  8
0
100
AcDbBlockEnd
  0
BLOCK
  5
A06
330
A05
100
AcDbEntity
  8
0
100
AcDbBlockBegin
  2
1
 70
     0
 10
0.0
 20
0.0
 30
0.0
  3
1
  1

  0
LINE
  5
A08
330
A05
100
AcDbEntity
  8
0
  6
Continuous
 62
     7
370
    15
100
AcDbLine
 10
3667.755405739579
 20
2632.248557002525
 30
0.0
 11
3667.755405739579
 21
2622.648557477872
 31
0.0
  0
ARC
  5
A09
330
A05
100
AcDbEntity
  8
0
  6
Continuous
 62
     7
370
    15
100
AcDbCircle
 10
3666.555405809614
 20
2632.248557407836
 30
0.0
 40
1.200000000000045
100
AcDbArc
 50
0.0
 51
90.0
  0
ARC
  5
A0A
330
A05
100
AcDbEntity
  8
0
  6
Continuous
 62
     7
370
    15
100
AcDbCircle
 10
3666.555405809614
 20
2632.248557407836
 30
0.0
 40
2.700000000000045
100
AcDbArc
 50
0.0
 51
90.0
  0
LINE
  5
A0B
330
A05
100
AcDbEntity
  8
0
  6
Continuous
 62
     7
370
    15
100
AcDbLine
 10
3669.255405752617
 20
2622.648557477872
 30
0.0
 11
3669.255405752617
 21
2632.248557002525
 31
0.0
  0
ARC
  5
A0C
330
A05
100
AcDbEntity
  8
0
  6
Continuous
 62
     7
370
    15
100
AcDbCircle
 10
3670.455405809614
 20
2622.648557407837
 30
0.0
 40
1.199999999999988
100
AcDbArc
 50
180.0
 51
270.0
  0
LINE
  5
A0D
330
A05
100
AcDbEntity
  8
0
  6
Continuous
 62
     7
370
    15
100
AcDbLine
 10
3670.455405809614
 20
2621.448557420875
 30
0.0
 11
3692.055406369898
 21
2621.448557420875
 31
0.0
  0
ARC
  5
A0E
330
A05
100
AcDbEntity
  8
0
  6
Continuous
 62
     7
370
    15
100
AcDbCircle
 10
3692.055405809615
 20
2622.648557407837
 30
0.0
 40
1.200000000000045
100
AcDbArc
 50
270.0
 51
0.0
  0
LINE
  5
A0F
330
A05
100
AcDbEntity
  8
0
  6
Continuous
 62
     7
370
    15
100
AcDbLine
 10
3693.255406194064
 20
2632.248557002525
 30
0.0
 11
3693.255406194064
 21
2622.648557477872
 31
0.0
  0
ARC
  5
A10
330
A05
100
AcDbEntity
  8
0
  6
Continuous
 62
     7
370
    15
100
AcDbCircle
 10
3695.955405809615
 20
2632.248557407836
 30
0.0
 40
2.699999999999988
100
AcDbArc
 50
90.0
 51
180.0
  0
LINE
  5
A11
330
A05
100
AcDbEntity
  8
0
  6
Continuous
 62
     7
370
    15
100
AcDbLine
 10
3696.889380314085
 20
2633.448557758014
 30
0.0
 11
3698.755406164262
 21
2633.94855783997
 31
0.0
  0
ARC
  5
A12
330
A05
100
AcDbEntity
  8
0
  6
Continuous
 62
     7
370
    15
100
AcDbCircle
 10
3695.955405809615
 20
2632.248557407836
 30
0.0
 40
1.200000000000045
100
AcDbArc
 50
90.0
 51
180.0
  0
LINE
  5
A13
330
A05
100
AcDbEntity
  8
0
  6
Continuous
 62
     7
370
    15
100
AcDbLine
 10
3694.755405508611
 20
2622.648557477872
 30
0.0
 11
3694.755405508611
 21
2632.248557002525
 31
0.0
  0
ARC
  5
A14
330
A05
100
AcDbEntity
  8
0
  6
Continuous
 62
     7
370
    15
100
AcDbCircle
 10
3692.055405809615
 20
2622.648557407837
 30
0.0
 40
2.700000000000045
100
AcDbArc
 50
270.0
 51
0.0
  0
LINE
  5
A15
330
A05
100
AcDbEntity
  8
0
  6
Continuous
 62
     7
370
    15
100
AcDbLine
 10
3670.455405809614
 20
2619.948557407837
 30
0.0
 11
3692.055406369898
 21
2619.948557407837
 31
0.0
  0
ARC
  5
A16
330
A05
100
AcDbEntity
  8
0
  6
Continuous
 62
     7
370
    15
100
AcDbCircle
 10
3670.455405809614
 20
2622.648557407837
 30
0.0
 40
2.699999999999988
100
AcDbArc
 50
180.0
 51
270.0
  0
LINE
  5
A17
330
A05
100
AcDbEntity
  8
0
  6
Continuous
 62
     7
370
    15
100
AcDbLine
 10
3666.555405915413
 20
2634.948557072561
 30
0.0
 11
3663.75540601525
 21
2634.948557072561
 31
0.0
  0
LINE
  5
A18
330
A05
100
AcDbEntity
  8
0
  6
Continuous
 62
     7
370
    15
100
AcDbLine
 10
3698.755406164262
 20
2634.948557072561
 30
0.0
 11
3695.955405332777
 21
2634.948557072561
 31
0.0
  0
LINE
  5
A19
330
A05
100
AcDbEntity
  8
0
  6
Continuous
 62
     7
370
    15
100
AcDbLine
 10
3663.75540601525
 20
2633.94855783997
 30
0.0
 11
3665.621431399766
 21
2633.448557758014
 31
0.0
  0
LINE
  5
A1A
330
A05
100
AcDbEntity
  8
0
  6
Continuous
 62
     7
370
    15
100
AcDbLine
 10
3665.621431399766
 20
2633.448557758014
 30
0.0
 11
3666.555405915413
 21
2633.448557758014
 31
0.0
  0
LINE
  5
A1B
330
A05
100
AcDbEntity
  8
0
  6
Continuous
 62
     7
370
    15
100
AcDbLine
 10
3663.75540601525
 20
2634.948557072561
 30
0.0
 11
3663.75540601525
 21
2633.94855783997
 31
0.0
  0
LINE
  5
A1C
330
A05
100
AcDbEntity
  8
0
  6
Continuous
 62
     7
370
    15
100
AcDbLine
 10
3698.755406164262
 20
2634.948557072561
 30
0.0
 11
3698.755406164262
 21
2633.94855783997
 31
0.0
  0
LINE
  5
A1D
330
A05
100
AcDbEntity
  8
0
  6
Continuous
 62
     7
370
    15
100
AcDbLine
 10
3696.889380314085
 20
2633.448557758014
 30
0.0
 11
3695.955405332777
 21
2633.448557758014
 31
0.0
  0
ENDBLK
  5
A07
330
A05
100
AcDbEntity
  8
0
100
AcDbBlockEnd
  0
BLOCK
  5
A20
330
A1F
100
AcDbEntity
  8
0
100
AcDbBlockBegin
  2
2
 70
     0
 10
0.0
 20
0.0
 30
0.0
  3
2
  1

  0
LINE
  5
A22
330
A1F
100
AcDbEntity
  8
0
  6
Continuous
 62
     7
370
    15
100
AcDbLine
 10
3648.177811723471
 20
2634.948557072561
 30
0.0
 11
1648.177811723471
 21
2634.948557072561
 31
0.0
  0
LINE
  5
A23
330
A1F
100
AcDbEntity
  8
0
  6
Continuous
 62
     7
370
    15
100
AcDbLine
 10
3648.177811723471
 20
2633.94855783997
 30
0.0
 11
1648.177811723471
 21
2633.94855783997
 31
0.0
  0
LINE
  5
A24
330
A1F
100
AcDbEntity
  8
0
  6
Continuous
 62
     7
370
    15
100
AcDbLine
 10
1648.177811723471
 20
2634.948557072561
 30
0.0
 11
1648.177811723471
 21
2633.94855783997
 31
0.0
  0
LINE
  5
A25
330
A1F
100
AcDbEntity
  8
0
  6
Continuous
 62
     7
370
    15
100
AcDbLine
 10
3648.177811723471
 20
2633.94855783997
 30
0.0
 11
3648.177811723471
 21
2634.948557072561
 31
0.0
  0
LINE
  5
A26
330
A1F
100
AcDbEntity
  8
0
  6
Continuous
 62
     7
370
    15
100
AcDbLine
 10
1648.177811723471
 20
2633.448557758014
 30
0.0
 11
3648.177811723471
 21
2633.448557758014
 31
0.0
  0
LINE
  5
A27
330
A1F
100
AcDbEntity
  8
0
  6
Continuous
 62
     7
370
    15
100
AcDbLine
 10
1648.177811723471
 20
2633.448557758014
 30
0.0
 11
1648.177811723471
 21
2633.94855783997
 31
0.0
  0
LINE
  5
A28
330
A1F
100
AcDbEntity
  8
0
  6
Continuous
 62
     7
370
    15
100
AcDbLine
 10
3648.177811723471
 20
2633.448557758014
 30
0.0
 11
3648.177811723471
 21
2633.94855783997
 31
0.0
  0
LINE
  5
A29
330
A1F
100
AcDbEntity
  8
0
  6
Continuous
 62
     7
370
    15
100
AcDbLine
 10
3648.177811723471
 20
2632.248557002525
 30
0.0
 11
1648.177811723471
 21
2632.248557002525
 31
0.0
  0
LINE
  5
A2A
330
A1F
100
AcDbEntity
  8
0
  6
Continuous
 62
     7
370
    15
100
AcDbLine
 10
1648.177811723471
 20
2632.248557002525
 30
0.0
 11
1648.177811723471
 21
2633.448557758014
 31
0.0
  0
LINE
  5
A2B
330
A1F
100
AcDbEntity
  8
0
  6
Continuous
 62
     7
370
    15
100
AcDbLine
 10
3648.177811723471
 20
2632.248557002525
 30
0.0
 11
3648.177811723471
 21
2633.448557758014
 31
0.0
  0
LINE
  5
A2C
330
A1F
100
AcDbEntity
  8
0
  6
Continuous
 62
     7
370
    15
100
AcDbLine
 10
1648.177811723471
 20
2622.648557477872
 30
0.0
 11
3648.177811723471
 21
2622.648557477872
 31
0.0
  0
LINE
  5
A2D
330
A1F
100
AcDbEntity
  8
0
  6
Continuous
 62
     7
370
    15
100
AcDbLine
 10
1648.177811723471
 20
2619.948557407837
 30
0.0
 11
3648.177811723471
 21
2619.948557407837
 31
0.0
  0
LINE
  5
A2E
330
A1F
100
AcDbEntity
  8
0
  6
Continuous
 62
     7
370
    15
100
AcDbLine
 10
1648.177811723471
 20
2619.948557407837
 30
0.0
 11
1648.177811723471
 21
2622.648557477872
 31
0.0
  0
LINE
  5
A2F
330
A1F
100
AcDbEntity
  8
0
  6
Continuous
 62
     7
370
    15
100
AcDbLine
 10
3648.177811723471
 20
2619.948557407837
 30
0.0
 11
3648.177811723471
 21
2622.648557477872
 31
0.0
  0
LINE
  5
A30
330
A1F
100
AcDbEntity
  8
0
  6
Continuous
 62
     7
370
    15
100
AcDbLine
 10
1648.177811723471
 20
2622.648557477872
 30
0.0
 11
1648.177811723471
 21
2632.248557002525
 31
0.0
  0
LINE
  5
A31
330
A1F
100
AcDbEntity
  8
0
  6
Continuous
 62
     7
370
    15
100
AcDbLine
 10
3648.177811723471
 20
2622.648557477872
 30
0.0
 11
3648.177811723471
 21
2632.248557002525
 31
0.0
  0
ENDBLK
  5
A21
330
A1F
100
AcDbEntity
  8
0
100
AcDbBlockEnd
  0
BLOCK
  5
A34
330
A33
100
AcDbEntity
  8
0
100
AcDbBlockBegin
  2
3
 70
     0
 10
0.0
 20
0.0
 30
0.0
  3
3
  1

  0
LINE
  5
A36
330
A33
100
AcDbEntity
  8
0
  6
Continuous
 62
     7
370
    15
100
AcDbLine
 10
3698.755406164262
 20
2590.043484794525
 30
0.0
 11
3695.955405332777
 21
2590.043484794525
 31
0.0
  0
LINE
  5
A37
330
A33
100
AcDbEntity
  8
0
  6
Continuous
 62
     7
370
    15
100
AcDbLine
 10
3698.755406164262
 20
2590.043484794525
 30
0.0
 11
3698.755406164262
 21
590.0434847945241
 31
0.0
  0
LINE
  5
A38
330
A33
100
AcDbEntity
  8
0
  6
Continuous
 62
     7
370
    15
100
AcDbLine
 10
3698.755406164262
 20
590.0434847945241
 30
0.0
 11
3695.955405332777
 21
590.0434847945241
 31
0.0
  0
LINE
  5
A39
330
A33
100
AcDbEntity
  8
0
  6
Continuous
 62
     7
370
    15
100
AcDbLine
 10
3695.955405332777
 20
590.0434847945241
 30
0.0
 11
3695.955405332777
 21
2590.043484794525
 31
0.0
  0
LINE
  5
A3A
330
A33
100
AcDbEntity
  8
0
  6
Continuous
 62
     7
370
    15
100
AcDbLine
 10
3666.555405915413
 20
590.0434847945241
 30
0.0
 11
3666.555405915413
 21
2590.043484794525
 31
0.0
  0
LINE
  5
A3B
330
A33
100
AcDbEntity
  8
0
  6
Continuous
 62
     7
370
    15
100
AcDbLine
 10
3666.555405915413
 20
590.0434847945241
 30
0.0
 11
3663.75540601525
 21
590.0434847945241
 31
0.0
  0
LINE
  5
A3C
330
A33
100
AcDbEntity
  8
0
  6
Continuous
 62
     7
370
    15
100
AcDbLine
 10
3663.75540601525
 20
2590.043484794525
 30
0.0
 11
3663.75540601525
 21
590.0434847945241
 31
0.0
  0
LINE
  5
A3D
330
A33
100
AcDbEntity
  8
0
  6
Continuous
 62
     7
370
    15
100
AcDbLine
 10
3666.555405915413
 20
2590.043484794525
 30
0.0
 11
3663.75540601525
 21
2590.043484794525
 31
0.0
  0
LINE
  5
A3E
330
A33
100
AcDbEntity
  8
0
  6
Continuous
 62
     7
370
    15
100
AcDbLine
 10
3693.255406194064
 20
2590.043484794525
 30
0.0
 11
3693.255406194064
 21
590.0434847945241
 31
0.0
  0
LINE
  5
A3F
330
A33
100
AcDbEntity
  8
0
  6
Continuous
 62
     7
370
    15
100
AcDbLine
 10
3695.955405332777
 20
590.0434847945241
 30
0.0
 11
3693.255406194064
 21
590.0434847945241
 31
0.0
  0
LINE
  5
A40
330
A33
100
AcDbEntity
  8
0
  6
Continuous
 62
     7
370
    15
100
AcDbLine
 10
3695.955405332777
 20
2590.043484794525
 30
0.0
 11
3693.255406194064
 21
2590.043484794525
 31
0.0
  0
LINE
  5
A41
330
A33
100
AcDbEntity
  8
0
  6
Continuous
 62
     7
370
    15
100
AcDbLine
 10
3669.255405752617
 20
590.0434847945241
 30
0.0
 11
3669.255405752617
 21
2590.043484794525
 31
0.0
  0
LINE
  5
A42
330
A33
100
AcDbEntity
  8
0
  6
Continuous
 62
     7
370
    15
100
AcDbLine
 10
3669.255405752617
 20
590.0434847945241
 30
0.0
 11
3666.555405915413
 21
590.0434847945241
 31
0.0
  0
LINE
  5
A43
330
A33
100
AcDbEntity
  8
0
  6
Continuous
 62
     7
370
    15
100
AcDbLine
 10
3669.255405752617
 20
2590.043484794525
 30
0.0
 11
3666.555405915413
 21
2590.043484794525
 31
0.0
  0
LINE
  5
A44
330
A33
100
AcDbEntity
  8
0
  6
Continuous
 62
     7
370
    15
100
AcDbLine
 10
3692.055406369898
 20
590.0434847945241
 30
0.0
 11
3692.055406369898
 21
2590.043484794525
 31
0.0
  0
LINE
  5
A45
330
A33
100
AcDbEntity
  8
0
  6
Continuous
 62
     7
370
    15
100
AcDbLine
 10
3693.255406194064
 20
590.0434847945241
 30
0.0
 11
3692.055406369898
 21
590.0434847945241
 31
0.0
  0
LINE
  5
A46
330
A33
100
AcDbEntity
  8
0
  6
Continuous
 62
     7
370
    15
100
AcDbLine
 10
3693.255406194064
 20
2590.043484794525
 30
0.0
 11
3692.055406369898
 21
2590.043484794525
 31
0.0
  0
LINE
  5
A47
330
A33
100
AcDbEntity
  8
0
  6
Continuous
 62
     7
370
    15
100
AcDbLine
 10
3670.455405809614
 20
2590.043484794525
 30
0.0
 11
3670.455405809614
 21
590.0434847945241
 31
0.0
  0
LINE
  5
A48
330
A33
100
AcDbEntity
  8
0
  6
Continuous
 62
     7
370
    15
100
AcDbLine
 10
3670.455405809614
 20
590.0434847945241
 30
0.0
 11
3669.255405752617
 21
590.0434847945241
 31
0.0
  0
LINE
  5
A49
330
A33
100
AcDbEntity
  8
0
  6
Continuous
 62
     7
370
    15
100
AcDbLine
 10
3669.255405752617
 20
2590.043484794525
 30
0.0
 11
3670.455405809614
 21
2590.043484794525
 31
0.0
  0
LINE
  5
A4A
330
A33
100
AcDbEntity
  8
0
  6
Continuous
 62
     7
370
    15
100
AcDbLine
 10
3684.405405395362
 20
2580.043485018042
 30
0.0
 11
3684.405405395362
 21
2568.343484404114
 31
0.0
  0
ARC
  5
A4B
330
A33
100
AcDbEntity
  8
0
  6
Continuous
 62
     7
370
    15
100
AcDbCircle
 10
3681.255405809615
 20
2580.043484794524
 30
0.0
 40
3.15000000000009
100
AcDbArc
 50
0.0
 51
180.0
  0
LINE
  5
A4C
330
A33
100
AcDbEntity
  8
0
  6
Continuous
 62
     7
370
    15
100
AcDbLine
 10
3678.105405852828
 20
2568.343484404114
 30
0.0
 11
3678.105405852828
 21
2580.043485018042
 31
0.0
  0
ARC
  5
A4D
330
A33
100
AcDbEntity
  8
0
  6
Continuous
 62
     7
370
    15
100
AcDbCircle
 10
3681.255405809615
 20
2568.343484794525
 30
0.0
 40
3.15000000000009
100
AcDbArc
 50
180.0
 51
0.0
  0
LINE
  5
A4E
330
A33
100
AcDbEntity
  8
0
  6
Continuous
 62
     7
370
    15
100
AcDbLine
 10
3678.105405852828
 20
2555.043484645513
 30
0.0
 11
3678.105405852828
 21
2543.343484031585
 31
0.0
  0
ARC
  5
A4F
330
A33
100
AcDbEntity
  8
0
  6
Continuous
 62
     7
370
    15
100
AcDbCircle
 10
3681.255405809615
 20
2543.343484794525
 30
0.0
 40
3.15000000000009
100
AcDbArc
 50
180.0
 51
0.0
  0
LINE
  5
A50
330
A33
100
AcDbEntity
  8
0
  6
Continuous
 62
     7
370
    15
100
AcDbLine
 10
3684.405405395362
 20
2543.343484031585
 30
0.0
 11
3684.405405395362
 21
2555.043484645513
 31
0.0
  0
ARC
  5
A51
330
A33
100
AcDbEntity
  8
0
  6
Continuous
 62
     7
370
    15
100
AcDbCircle
 10
3681.255405809615
 20
2555.043484794524
 30
0.0
 40
3.15000000000009
100
AcDbArc
 50
0.0
 51
180.0
  0
LINE
  5
A52
330
A33
100
AcDbEntity
  8
0
  6
Continuous
 62
     7
370
    15
100
AcDbLine
 10
3678.105405852828
 20
2530.043486135629
 30
0.0
 11
3678.105405852828
 21
2518.343485521701
 31
0.0
  0
ARC
  5
A53
330
A33
100
AcDbEntity
  8
0
  6
Continuous
 62
     7
370
    15
100
AcDbCircle
 10
3681.255405809615
 20
2518.343484794525
 30
0.0
 40
3.15000000000009
100
AcDbArc
 50
180.0
 51
0.0
  0
LINE
  5
A54
330
A33
100
AcDbEntity
  8
0
  6
Continuous
 62
     7
370
    15
100
AcDbLine
 10
3684.405405395362
 20
2518.343485521701
 30
0.0
 11
3684.405405395362
 21
2530.043486135629
 31
0.0
  0
ARC
  5
A55
330
A33
100
AcDbEntity
  8
0
  6
Continuous
 62
     7
370
    15
100
AcDbCircle
 10
3681.255405809615
 20
2530.043484794525
 30
0.0
 40
3.15000000000009
100
AcDbArc
 50
0.0
 51
180.0
  0
LINE
  5
A56
330
A33
100
AcDbEntity
  8
0
  6
Continuous
 62
     7
370
    15
100
AcDbLine
 10
3678.105405852828
 20
2505.043483900455
 30
0.0
 11
3678.105405852828
 21
2493.343487011817
 31
0.0
  0
ARC
  5
A57
330
A33
100
AcDbEntity
  8
0
  6
Continuous
 62
     7
370
    15
100
AcDbCircle
 10
3681.255405809615
 20
2493.343484794525
 30
0.0
 40
3.15000000000009
100
AcDbArc
 50
180.0
 51
0.0
  0
LINE
  5
A58
330
A33
100
AcDbEntity
  8
0
  6
Continuous
 62
     7
370
    15
100
AcDbLine
 10
3684.405405395362
 20
2493.343487011817
 30
0.0
 11
3684.405405395362
 21
2505.043483900455
 31
0.0
  0
ARC
  5
A59
330
A33
100
AcDbEntity
  8
0
  6
Continuous
 62
     7
370
    15
100
AcDbCircle
 10
3681.255405809615
 20
2505.043484794525
 30
0.0
 40
3.15000000000009
100
AcDbArc
 50
0.0
 51
180.0
  0
LINE
  5
A5A
330
A33
100
AcDbEntity
  8
0
  6
Continuous
 62
     7
370
    15
100
AcDbLine
 10
3678.105405852828
 20
2480.043485390571
 30
0.0
 11
3678.105405852828
 21
2468.343488501933
 31
0.0
  0
ARC
  5
A5B
330
A33
100
AcDbEntity
  8
0
  6
Continuous
 62
     7
370
    15
100
AcDbCircle
 10
3681.255405809615
 20
2468.343484794525
 30
0.0
 40
3.15000000000009
100
AcDbArc
 50
180.0
 51
0.0
  0
LINE
  5
A5C
330
A33
100
AcDbEntity
  8
0
  6
Continuous
 62
     7
370
    15
100
AcDbLine
 10
3684.405405395362
 20
2468.343488501933
 30
0.0
 11
3684.405405395362
 21
2480.043485390571
 31
0.0
  0
ARC
  5
A5D
330
A33
100
AcDbEntity
  8
0
  6
Continuous
 62
     7
370
    15
100
AcDbCircle
 10
3681.255405809615
 20
2480.043484794525
 30
0.0
 40
3.15000000000009
100
AcDbArc
 50
0.0
 51
180.0
  0
LINE
  5
A5E
330
A33
100
AcDbEntity
  8
0
  6
Continuous
 62
     7
370
    15
100
AcDbLine
 10
3678.105405852828
 20
2455.043479430107
 30
0.0
 11
3678.105405852828
 21
2443.34348999205
 31
0.0
  0
ARC
  5
A5F
330
A33
100
AcDbEntity
  8
0
  6
Continuous
 62
     7
370
    15
100
AcDbCircle
 10
3681.255405809615
 20
2443.343484794525
 30
0.0
 40
3.15000000000009
100
AcDbArc
 50
180.0
 51
0.0
  0
LINE
  5
A60
330
A33
100
AcDbEntity
  8
0
  6
Continuous
 62
     7
370
    15
100
AcDbLine
 10
3684.405405395362
 20
2443.34348999205
 30
0.0
 11
3684.405405395362
 21
2455.043479430107
 31
0.0
  0
ARC
  5
A61
330
A33
100
AcDbEntity
  8
0
  6
Continuous
 62
     7
370
    15
100
AcDbCircle
 10
3681.255405809615
 20
2455.043484794524
 30
0.0
 40
3.15000000000009
100
AcDbArc
 50
0.0
 51
180.0
  0
LINE
  5
A62
330
A33
100
AcDbEntity
  8
0
  6
Continuous
 62
     7
370
    15
100
AcDbLine
 10
3678.105405852828
 20
2430.043488370803
 30
0.0
 11
3678.105405852828
 21
2418.343484031585
 31
0.0
  0
ARC
  5
A63
330
A33
100
AcDbEntity
  8
0
  6
Continuous
 62
     7
370
    15
100
AcDbCircle
 10
3681.255405809615
 20
2418.343484794525
 30
0.0
 40
3.15000000000009
100
AcDbArc
 50
180.0
 51
0.0
  0
LINE
  5
A64
330
A33
100
AcDbEntity
  8
0
  6
Continuous
 62
     7
370
    15
100
AcDbLine
 10
3684.405405395362
 20
2418.343484031585
 30
0.0
 11
3684.405405395362
 21
2430.043488370803
 31
0.0
  0
ARC
  5
A65
330
A33
100
AcDbEntity
  8
0
  6
Continuous
 62
     7
370
    15
100
AcDbCircle
 10
3681.255405809615
 20
2430.043484794524
 30
0.0
 40
3.15000000000009
100
AcDbArc
 50
0.0
 51
180.0
  0
LINE
  5
A66
330
A33
100
AcDbEntity
  8
0
  6
Continuous
 62
     7
370
    15
100
AcDbLine
 10
3678.105405852828
 20
2405.043482410339
 30
0.0
 11
3678.105405852828
 21
2393.343478071121
 31
0.0
  0
ARC
  5
A67
330
A33
100
AcDbEntity
  8
0
  6
Continuous
 62
     7
370
    15
100
AcDbCircle
 10
3681.255405809615
 20
2393.343484794524
 30
0.0
 40
3.15000000000009
100
AcDbArc
 50
180.0
 51
0.0
  0
LINE
  5
A68
330
A33
100
AcDbEntity
  8
0
  6
Continuous
 62
     7
370
    15
100
AcDbLine
 10
3684.405405395362
 20
2393.343478071121
 30
0.0
 11
3684.405405395362
 21
2405.043482410339
 31
0.0
  0
ARC
  5
A69
330
A33
100
AcDbEntity
  8
0
  6
Continuous
 62
     7
370
    15
100
AcDbCircle
 10
3681.255405809615
 20
2405.043484794525
 30
0.0
 40
3.15000000000009
100
AcDbArc
 50
0.0
 51
180.0
  0
LINE
  5
A6A
330
A33
100
AcDbEntity
  8
0
  6
Continuous
 62
     7
370
    15
100
AcDbLine
 10
3678.105405852828
 20
2380.043491351035
 30
0.0
 11
3678.105405852828
 21
2368.343487011817
 31
0.0
  0
ARC
  5
A6B
330
A33
100
AcDbEntity
  8
0
  6
Continuous
 62
     7
370
    15
100
AcDbCircle
 10
3681.255405809615
 20
2368.343484794525
 30
0.0
 40
3.15000000000009
100
AcDbArc
 50
180.0
 51
0.0
  0
LINE
  5
A6C
330
A33
100
AcDbEntity
  8
0
  6
Continuous
 62
     7
370
    15
100
AcDbLine
 10
3684.405405395362
 20
2368.343487011817
 30
0.0
 11
3684.405405395362
 21
2380.043491351035
 31
0.0
  0
ARC
  5
A6D
330
A33
100
AcDbEntity
  8
0
  6
Continuous
 62
     7
370
    15
100
AcDbCircle
 10
3681.255405809615
 20
2380.043484794525
 30
0.0
 40
3.15000000000009
100
AcDbArc
 50
0.0
 51
180.0
  0
LINE
  5
A6E
330
A33
100
AcDbEntity
  8
0
  6
Continuous
 62
     7
370
    15
100
AcDbLine
 10
3678.105405852828
 20
2355.043485390571
 30
0.0
 11
3678.105405852828
 21
2343.343481051353
 31
0.0
  0
ARC
  5
A6F
330
A33
100
AcDbEntity
  8
0
  6
Continuous
 62
     7
370
    15
100
AcDbCircle
 10
3681.255405809615
 20
2343.343484794525
 30
0.0
 40
3.15000000000009
100
AcDbArc
 50
180.0
 51
0.0
  0
LINE
  5
A70
330
A33
100
AcDbEntity
  8
0
  6
Continuous
 62
     7
370
    15
100
AcDbLine
 10
3684.405405395362
 20
2343.343481051353
 30
0.0
 11
3684.405405395362
 21
2355.043485390571
 31
0.0
  0
ARC
  5
A71
330
A33
100
AcDbEntity
  8
0
  6
Continuous
 62
     7
370
    15
100
AcDbCircle
 10
3681.255405809615
 20
2355.043484794524
 30
0.0
 40
3.15000000000009
100
AcDbArc
 50
0.0
 51
180.0
  0
LINE
  5
A72
330
A33
100
AcDbEntity
  8
0
  6
Continuous
 62
     7
370
    15
100
AcDbLine
 10
3678.105405852828
 20
2330.043494331268
 30
0.0
 11
3678.105405852828
 21
2318.34348999205
 31
0.0
  0
ARC
  5
A73
330
A33
100
AcDbEntity
  8
0
  6
Continuous
 62
     7
370
    15
100
AcDbCircle
 10
3681.255405809615
 20
2318.343484794525
 30
0.0
 40
3.15000000000009
100
AcDbArc
 50
180.0
 51
0.0
  0
LINE
  5
A74
330
A33
100
AcDbEntity
  8
0
  6
Continuous
 62
     7
370
    15
100
AcDbLine
 10
3684.405405395362
 20
2318.34348999205
 30
0.0
 11
3684.405405395362
 21
2330.043494331268
 31
0.0
  0
ARC
  5
A75
330
A33
100
AcDbEntity
  8
0
  6
Continuous
 62
     7
370
    15
100
AcDbCircle
 10
3681.255405809615
 20
2330.043484794524
 30
0.0
 40
3.15000000000009
100
AcDbArc
 50
0.0
 51
180.0
  0
LINE
  5
A76
330
A33
100
AcDbEntity
  8
0
  6
Continuous
 62
     7
370
    15
100
AcDbLine
 10
3678.105405852828
 20
2305.043488370803
 30
0.0
 11
3678.105405852828
 21
2293.343484031585
 31
0.0
  0
ARC
  5
A77
330
A33
100
AcDbEntity
  8
0
  6
Continuous
 62
     7
370
    15
100
AcDbCircle
 10
3681.255405809615
 20
2293.343484794525
 30
0.0
 40
3.15000000000009
100
AcDbArc
 50
180.0
 51
0.0
  0
LINE
  5
A78
330
A33
100
AcDbEntity
  8
0
  6
Continuous
 62
     7
370
    15
100
AcDbLine
 10
3684.405405395362
 20
2293.343484031585
 30
0.0
 11
3684.405405395362
 21
2305.043488370803
 31
0.0
  0
ARC
  5
A79
330
A33
100
AcDbEntity
  8
0
  6
Continuous
 62
     7
370
    15
100
AcDbCircle
 10
3681.255405809615
 20
2305.043484794524
 30
0.0
 40
3.15000000000009
100
AcDbArc
 50
0.0
 51
180.0
  0
LINE
  5
A7A
330
A33
100
AcDbEntity
  8
0
  6
Continuous
 62
     7
370
    15
100
AcDbLine
 10
3678.105405852828
 20
2280.043482410339
 30
0.0
 11
3678.105405852828
 21
2268.343478071121
 31
0.0
  0
ARC
  5
A7B
330
A33
100
AcDbEntity
  8
0
  6
Continuous
 62
     7
370
    15
100
AcDbCircle
 10
3681.255405809615
 20
2268.343484794524
 30
0.0
 40
3.15000000000009
100
AcDbArc
 50
180.0
 51
0.0
  0
LINE
  5
A7C
330
A33
100
AcDbEntity
  8
0
  6
Continuous
 62
     7
370
    15
100
AcDbLine
 10
3684.405405395362
 20
2268.343478071121
 30
0.0
 11
3684.405405395362
 21
2280.043482410339
 31
0.0
  0
ARC
  5
A7D
330
A33
100
AcDbEntity
  8
0
  6
Continuous
 62
     7
370
    15
100
AcDbCircle
 10
3681.255405809615
 20
2280.043484794525
 30
0.0
 40
3.15000000000009
100
AcDbArc
 50
0.0
 51
180.0
  0
LINE
  5
A7E
330
A33
100
AcDbEntity
  8
0
  6
Continuous
 62
     7
370
    15
100
AcDbLine
 10
3678.105405852828
 20
2255.043476449874
 30
0.0
 11
3678.105405852828
 21
2243.343472110656
 31
0.0
  0
ARC
  5
A7F
330
A33
100
AcDbEntity
  8
0
  6
Continuous
 62
     7
370
    15
100
AcDbCircle
 10
3681.255405809615
 20
2243.343484794525
 30
0.0
 40
3.15000000000009
100
AcDbArc
 50
180.0
 51
0.0
  0
LINE
  5
A80
330
A33
100
AcDbEntity
  8
0
  6
Continuous
 62
     7
370
    15
100
AcDbLine
 10
3684.405405395362
 20
2243.343472110656
 30
0.0
 11
3684.405405395362
 21
2255.043476449874
 31
0.0
  0
ARC
  5
A81
330
A33
100
AcDbEntity
  8
0
  6
Continuous
 62
     7
370
    15
100
AcDbCircle
 10
3681.255405809615
 20
2255.043484794525
 30
0.0
 40
3.15000000000009
100
AcDbArc
 50
0.0
 51
180.0
  0
LINE
  5
A82
330
A33
100
AcDbEntity
  8
0
  6
Continuous
 62
     7
370
    15
100
AcDbLine
 10
3678.105405852828
 20
2230.04347048941
 30
0.0
 11
3678.105405852828
 21
2218.343495952514
 31
0.0
  0
ARC
  5
A83
330
A33
100
AcDbEntity
  8
0
  6
Continuous
 62
     7
370
    15
100
AcDbCircle
 10
3681.255405809615
 20
2218.343484794525
 30
0.0
 40
3.15000000000009
100
AcDbArc
 50
180.0
 51
0.0
  0
LINE
  5
A84
330
A33
100
AcDbEntity
  8
0
  6
Continuous
 62
     7
370
    15
100
AcDbLine
 10
3684.405405395362
 20
2218.343495952514
 30
0.0
 11
3684.405405395362
 21
2230.04347048941
 31
0.0
  0
ARC
  5
A85
330
A33
100
AcDbEntity
  8
0
  6
Continuous
 62
     7
370
    15
100
AcDbCircle
 10
3681.255405809615
 20
2230.043484794524
 30
0.0
 40
3.15000000000009
100
AcDbArc
 50
0.0
 51
180.0
  0
LINE
  5
A86
330
A33
100
AcDbEntity
  8
0
  6
Continuous
 62
     7
370
    15
100
AcDbLine
 10
3678.105405852828
 20
2205.043494331268
 30
0.0
 11
3678.105405852828
 21
2193.34348999205
 31
0.0
  0
ARC
  5
A87
330
A33
100
AcDbEntity
  8
0
  6
Continuous
 62
     7
370
    15
100
AcDbCircle
 10
3681.255405809615
 20
2193.343484794525
 30
0.0
 40
3.15000000000009
100
AcDbArc
 50
180.0
 51
0.0
  0
LINE
  5
A88
330
A33
100
AcDbEntity
  8
0
  6
Continuous
 62
     7
370
    15
100
AcDbLine
 10
3684.405405395362
 20
2193.34348999205
 30
0.0
 11
3684.405405395362
 21
2205.043494331268
 31
0.0
  0
ARC
  5
A89
330
A33
100
AcDbEntity
  8
0
  6
Continuous
 62
     7
370
    15
100
AcDbCircle
 10
3681.255405809615
 20
2205.043484794524
 30
0.0
 40
3.15000000000009
100
AcDbArc
 50
0.0
 51
180.0
  0
LINE
  5
A8A
330
A33
100
AcDbEntity
  8
0
  6
Continuous
 62
     7
370
    15
100
AcDbLine
 10
3678.105405852828
 20
2180.043488370803
 30
0.0
 11
3678.105405852828
 21
2168.343484031585
 31
0.0
  0
ARC
  5
A8B
330
A33
100
AcDbEntity
  8
0
  6
Continuous
 62
     7
370
    15
100
AcDbCircle
 10
3681.255405809615
 20
2168.343484794525
 30
0.0
 40
3.15000000000009
100
AcDbArc
 50
180.0
 51
0.0
  0
LINE
  5
A8C
330
A33
100
AcDbEntity
  8
0
  6
Continuous
 62
     7
370
    15
100
AcDbLine
 10
3684.405405395362
 20
2168.343484031585
 30
0.0
 11
3684.405405395362
 21
2180.043488370803
 31
0.0
  0
ARC
  5
A8D
330
A33
100
AcDbEntity
  8
0
  6
Continuous
 62
     7
370
    15
100
AcDbCircle
 10
3681.255405809615
 20
2180.043484794524
 30
0.0
 40
3.15000000000009
100
AcDbArc
 50
0.0
 51
180.0
  0
LINE
  5
A8E
330
A33
100
AcDbEntity
  8
0
  6
Continuous
 62
     7
370
    15
100
AcDbLine
 10
3678.105405852828
 20
2155.043482410339
 30
0.0
 11
3678.105405852828
 21
2143.343478071121
 31
0.0
  0
ARC
  5
A8F
330
A33
100
AcDbEntity
  8
0
  6
Continuous
 62
     7
370
    15
100
AcDbCircle
 10
3681.255405809615
 20
2143.343484794524
 30
0.0
 40
3.15000000000009
100
AcDbArc
 50
180.0
 51
0.0
  0
LINE
  5
A90
330
A33
100
AcDbEntity
  8
0
  6
Continuous
 62
     7
370
    15
100
AcDbLine
 10
3684.405405395362
 20
2143.343478071121
 30
0.0
 11
3684.405405395362
 21
2155.043482410339
 31
0.0
  0
ARC
  5
A91
330
A33
100
AcDbEntity
  8
0
  6
Continuous
 62
     7
370
    15
100
AcDbCircle
 10
3681.255405809615
 20
2155.043484794525
 30
0.0
 40
3.15000000000009
100
AcDbArc
 50
0.0
 51
180.0
  0
LINE
  5
A92
330
A33
100
AcDbEntity
  8
0
  6
Continuous
 62
     7
370
    15
100
AcDbLine
 10
3678.105405852828
 20
2130.043476449874
 30
0.0
 11
3678.105405852828
 21
2118.343472110656
 31
0.0
  0
ARC
  5
A93
330
A33
100
AcDbEntity
  8
0
  6
Continuous
 62
     7
370
    15
100
AcDbCircle
 10
3681.255405809615
 20
2118.343484794525
 30
0.0
 40
3.15000000000009
100
AcDbArc
 50
180.0
 51
0.0
  0
LINE
  5
A94
330
A33
100
AcDbEntity
  8
0
  6
Continuous
 62
     7
370
    15
100
AcDbLine
 10
3684.405405395362
 20
2118.343472110656
 30
0.0
 11
3684.405405395362
 21
2130.043476449874
 31
0.0
  0
ARC
  5
A95
330
A33
100
AcDbEntity
  8
0
  6
Continuous
 62
     7
370
    15
100
AcDbCircle
 10
3681.255405809615
 20
2130.043484794525
 30
0.0
 40
3.15000000000009
100
AcDbArc
 50
0.0
 51
180.0
  0
LINE
  5
A96
330
A33
100
AcDbEntity
  8
0
  6
Continuous
 62
     7
370
    15
100
AcDbLine
 10
3678.105405852828
 20
2105.04347048941
 30
0.0
 11
3678.105405852828
 21
2093.343495952514
 31
0.0
  0
ARC
  5
A97
330
A33
100
AcDbEntity
  8
0
  6
Continuous
 62
     7
370
    15
100
AcDbCircle
 10
3681.255405809615
 20
2093.343484794525
 30
0.0
 40
3.15000000000009
100
AcDbArc
 50
180.0
 51
0.0
  0
LINE
  5
A98
330
A33
100
AcDbEntity
  8
0
  6
Continuous
 62
     7
370
    15
100
AcDbLine
 10
3684.405405395362
 20
2093.343495952514
 30
0.0
 11
3684.405405395362
 21
2105.04347048941
 31
0.0
  0
ARC
  5
A99
330
A33
100
AcDbEntity
  8
0
  6
Continuous
 62
     7
370
    15
100
AcDbCircle
 10
3681.255405809615
 20
2105.043484794524
 30
0.0
 40
3.15000000000009
100
AcDbArc
 50
0.0
 51
180.0
  0
LINE
  5
A9A
330
A33
100
AcDbEntity
  8
0
  6
Continuous
 62
     7
370
    15
100
AcDbLine
 10
3678.105405852828
 20
2080.043494331268
 30
0.0
 11
3678.105405852828
 21
2068.343460189727
 31
0.0
  0
ARC
  5
A9B
330
A33
100
AcDbEntity
  8
0
  6
Continuous
 62
     7
370
    15
100
AcDbCircle
 10
3681.255405809615
 20
2068.343484794525
 30
0.0
 40
3.15000000000009
100
AcDbArc
 50
180.0
 51
0.0
  0
LINE
  5
A9C
330
A33
100
AcDbEntity
  8
0
  6
Continuous
 62
     7
370
    15
100
AcDbLine
 10
3684.405405395362
 20
2068.343460189727
 30
0.0
 11
3684.405405395362
 21
2080.043494331268
 31
0.0
  0
ARC
  5
A9D
330
A33
100
AcDbEntity
  8
0
  6
Continuous
 62
     7
370
    15
100
AcDbCircle
 10
3681.255405809615
 20
2080.043484794524
 30
0.0
 40
3.15000000000009
100
AcDbArc
 50
0.0
 51
180.0
  0
LINE
  5
A9E
330
A33
100
AcDbEntity
  8
0
  6
Continuous
 62
     7
370
    15
100
AcDbLine
 10
3678.105405852828
 20
2055.043458568481
 30
0.0
 11
3678.105405852828
 21
2043.343484031585
 31
0.0
  0
ARC
  5
A9F
330
A33
100
AcDbEntity
  8
0
  6
Continuous
 62
     7
370
    15
100
AcDbCircle
 10
3681.255405809615
 20
2043.343484794524
 30
0.0
 40
3.15000000000009
100
AcDbArc
 50
180.0
 51
0.0
  0
LINE
  5
AA0
330
A33
100
AcDbEntity
  8
0
  6
Continuous
 62
     7
370
    15
100
AcDbLine
 10
3684.405405395362
 20
2043.343484031585
 30
0.0
 11
3684.405405395362
 21
2055.043458568481
 31
0.0
  0
ARC
  5
AA1
330
A33
100
AcDbEntity
  8
0
  6
Continuous
 62
     7
370
    15
100
AcDbCircle
 10
3681.255405809615
 20
2055.043484794524
 30
0.0
 40
3.15000000000009
100
AcDbArc
 50
0.0
 51
180.0
  0
LINE
  5
AA2
330
A33
100
AcDbEntity
  8
0
  6
Continuous
 62
     7
370
    15
100
AcDbLine
 10
3678.105405852828
 20
2030.043482410339
 30
0.0
 11
3678.105405852828
 21
2018.343507873443
 31
0.0
  0
ARC
  5
AA3
330
A33
100
AcDbEntity
  8
0
  6
Continuous
 62
     7
370
    15
100
AcDbCircle
 10
3681.255405809615
 20
2018.343484794524
 30
0.0
 40
3.15000000000009
100
AcDbArc
 50
180.0
 51
0.0
  0
LINE
  5
AA4
330
A33
100
AcDbEntity
  8
0
  6
Continuous
 62
     7
370
    15
100
AcDbLine
 10
3684.405405395362
 20
2018.343507873443
 30
0.0
 11
3684.405405395362
 21
2030.043482410339
 31
0.0
  0
ARC
  5
AA5
330
A33
100
AcDbEntity
  8
0
  6
Continuous
 62
     7
370
    15
100
AcDbCircle
 10
3681.255405809615
 20
2030.043484794524
 30
0.0
 40
3.15000000000009
100
AcDbArc
 50
0.0
 51
180.0
  0
LINE
  5
AA6
330
A33
100
AcDbEntity
  8
0
  6
Continuous
 62
     7
370
    15
100
AcDbLine
 10
3678.105405852828
 20
2005.043506252197
 30
0.0
 11
3678.105405852828
 21
1993.343472110656
 31
0.0
  0
ARC
  5
AA7
330
A33
100
AcDbEntity
  8
0
  6
Continuous
 62
     7
370
    15
100
AcDbCircle
 10
3681.255405809615
 20
1993.343484794524
 30
0.0
 40
3.15000000000009
100
AcDbArc
 50
180.0
 51
0.0
  0
LINE
  5
AA8
330
A33
100
AcDbEntity
  8
0
  6
Continuous
 62
     7
370
    15
100
AcDbLine
 10
3684.405405395362
 20
1993.343472110656
 30
0.0
 11
3684.405405395362
 21
2005.043506252197
 31
0.0
  0
ARC
  5
AA9
330
A33
100
AcDbEntity
  8
0
  6
Continuous
 62
     7
370
    15
100
AcDbCircle
 10
3681.255405809615
 20
2005.043484794524
 30
0.0
 40
3.15000000000009
100
AcDbArc
 50
0.0
 51
180.0
  0
LINE
  5
AAA
330
A33
100
AcDbEntity
  8
0
  6
Continuous
 62
     7
370
    15
100
AcDbLine
 10
3678.105405852828
 20
1980.04347048941
 30
0.0
 11
3678.105405852828
 21
1968.343495952514
 31
0.0
  0
ARC
  5
AAB
330
A33
100
AcDbEntity
  8
0
  6
Continuous
 62
     7
370
    15
100
AcDbCircle
 10
3681.255405809615
 20
1968.343484794524
 30
0.0
 40
3.15000000000009
100
AcDbArc
 50
180.0
 51
0.0
  0
LINE
  5
AAC
330
A33
100
AcDbEntity
  8
0
  6
Continuous
 62
     7
370
    15
100
AcDbLine
 10
3684.405405395362
 20
1968.343495952514
 30
0.0
 11
3684.405405395362
 21
1980.04347048941
 31
0.0
  0
ARC
  5
AAD
330
A33
100
AcDbEntity
  8
0
  6
Continuous
 62
     7
370
    15
100
AcDbCircle
 10
3681.255405809615
 20
1980.043484794524
 30
0.0
 40
3.15000000000009
100
AcDbArc
 50
0.0
 51
180.0
  0
LINE
  5
AAE
330
A33
100
AcDbEntity
  8
0
  6
Continuous
 62
     7
370
    15
100
AcDbLine
 10
3678.105405852828
 20
1955.043494331268
 30
0.0
 11
3678.105405852828
 21
1943.343460189727
 31
0.0
  0
ARC
  5
AAF
330
A33
100
AcDbEntity
  8
0
  6
Continuous
 62
     7
370
    15
100
AcDbCircle
 10
3681.255405809615
 20
1943.343484794524
 30
0.0
 40
3.15000000000009
100
AcDbArc
 50
180.0
 51
0.0
  0
LINE
  5
AB0
330
A33
100
AcDbEntity
  8
0
  6
Continuous
 62
     7
370
    15
100
AcDbLine
 10
3684.405405395362
 20
1943.343460189727
 30
0.0
 11
3684.405405395362
 21
1955.043494331268
 31
0.0
  0
ARC
  5
AB1
330
A33
100
AcDbEntity
  8
0
  6
Continuous
 62
     7
370
    15
100
AcDbCircle
 10
3681.255405809615
 20
1955.043484794524
 30
0.0
 40
3.15000000000009
100
AcDbArc
 50
0.0
 51
180.0
  0
LINE
  5
AB2
330
A33
100
AcDbEntity
  8
0
  6
Continuous
 62
     7
370
    15
100
AcDbLine
 10
3678.105405852828
 20
1930.043458568481
 30
0.0
 11
3678.105405852828
 21
1918.343484031585
 31
0.0
  0
ARC
  5
AB3
330
A33
100
AcDbEntity
  8
0
  6
Continuous
 62
     7
370
    15
100
AcDbCircle
 10
3681.255405809615
 20
1918.343484794524
 30
0.0
 40
3.15000000000009
100
AcDbArc
 50
180.0
 51
0.0
  0
LINE
  5
AB4
330
A33
100
AcDbEntity
  8
0
  6
Continuous
 62
     7
370
    15
100
AcDbLine
 10
3684.405405395362
 20
1918.343484031585
 30
0.0
 11
3684.405405395362
 21
1930.043458568481
 31
0.0
  0
ARC
  5
AB5
330
A33
100
AcDbEntity
  8
0
  6
Continuous
 62
     7
370
    15
100
AcDbCircle
 10
3681.255405809615
 20
1930.043484794524
 30
0.0
 40
3.15000000000009
100
AcDbArc
 50
0.0
 51
180.0
  0
LINE
  5
AB6
330
A33
100
AcDbEntity
  8
0
  6
Continuous
 62
     7
370
    15
100
AcDbLine
 10
3678.105405852828
 20
1905.043482410339
 30
0.0
 11
3678.105405852828
 21
1893.343507873443
 31
0.0
  0
ARC
  5
AB7
330
A33
100
AcDbEntity
  8
0
  6
Continuous
 62
     7
370
    15
100
AcDbCircle
 10
3681.255405809615
 20
1893.343484794524
 30
0.0
 40
3.15000000000009
100
AcDbArc
 50
180.0
 51
0.0
  0
LINE
  5
AB8
330
A33
100
AcDbEntity
  8
0
  6
Continuous
 62
     7
370
    15
100
AcDbLine
 10
3684.405405395362
 20
1893.343507873443
 30
0.0
 11
3684.405405395362
 21
1905.043482410339
 31
0.0
  0
ARC
  5
AB9
330
A33
100
AcDbEntity
  8
0
  6
Continuous
 62
     7
370
    15
100
AcDbCircle
 10
3681.255405809615
 20
1905.043484794524
 30
0.0
 40
3.15000000000009
100
AcDbArc
 50
0.0
 51
180.0
  0
LINE
  5
ABA
330
A33
100
AcDbEntity
  8
0
  6
Continuous
 62
     7
370
    15
100
AcDbLine
 10
3678.105405852828
 20
1880.043506252197
 30
0.0
 11
3678.105405852828
 21
1868.343472110656
 31
0.0
  0
ARC
  5
ABB
330
A33
100
AcDbEntity
  8
0
  6
Continuous
 62
     7
370
    15
100
AcDbCircle
 10
3681.255405809615
 20
1868.343484794524
 30
0.0
 40
3.15000000000009
100
AcDbArc
 50
180.0
 51
0.0
  0
LINE
  5
ABC
330
A33
100
AcDbEntity
  8
0
  6
Continuous
 62
     7
370
    15
100
AcDbLine
 10
3684.405405395362
 20
1868.343472110656
 30
0.0
 11
3684.405405395362
 21
1880.043506252197
 31
0.0
  0
ARC
  5
ABD
330
A33
100
AcDbEntity
  8
0
  6
Continuous
 62
     7
370
    15
100
AcDbCircle
 10
3681.255405809615
 20
1880.043484794524
 30
0.0
 40
3.15000000000009
100
AcDbArc
 50
0.0
 51
180.0
  0
LINE
  5
ABE
330
A33
100
AcDbEntity
  8
0
  6
Continuous
 62
     7
370
    15
100
AcDbLine
 10
3678.105405852828
 20
1855.04347048941
 30
0.0
 11
3678.105405852828
 21
1843.343495952514
 31
0.0
  0
ARC
  5
ABF
330
A33
100
AcDbEntity
  8
0
  6
Continuous
 62
     7
370
    15
100
AcDbCircle
 10
3681.255405809615
 20
1843.343484794524
 30
0.0
 40
3.15000000000009
100
AcDbArc
 50
180.0
 51
0.0
  0
LINE
  5
AC0
330
A33
100
AcDbEntity
  8
0
  6
Continuous
 62
     7
370
    15
100
AcDbLine
 10
3684.405405395362
 20
1843.343495952514
 30
0.0
 11
3684.405405395362
 21
1855.04347048941
 31
0.0
  0
ARC
  5
AC1
330
A33
100
AcDbEntity
  8
0
  6
Continuous
 62
     7
370
    15
100
AcDbCircle
 10
3681.255405809615
 20
1855.043484794524
 30
0.0
 40
3.15000000000009
100
AcDbArc
 50
0.0
 51
180.0
  0
LINE
  5
AC2
330
A33
100
AcDbEntity
  8
0
  6
Continuous
 62
     7
370
    15
100
AcDbLine
 10
3678.105405852828
 20
1830.043494331268
 30
0.0
 11
3678.105405852828
 21
1818.343460189727
 31
0.0
  0
ARC
  5
AC3
330
A33
100
AcDbEntity
  8
0
  6
Continuous
 62
     7
370
    15
100
AcDbCircle
 10
3681.255405809615
 20
1818.343484794524
 30
0.0
 40
3.15000000000009
100
AcDbArc
 50
180.0
 51
0.0
  0
LINE
  5
AC4
330
A33
100
AcDbEntity
  8
0
  6
Continuous
 62
     7
370
    15
100
AcDbLine
 10
3684.405405395362
 20
1818.343460189727
 30
0.0
 11
3684.405405395362
 21
1830.043494331268
 31
0.0
  0
ARC
  5
AC5
330
A33
100
AcDbEntity
  8
0
  6
Continuous
 62
     7
370
    15
100
AcDbCircle
 10
3681.255405809615
 20
1830.043484794524
 30
0.0
 40
3.15000000000009
100
AcDbArc
 50
0.0
 51
180.0
  0
LINE
  5
AC6
330
A33
100
AcDbEntity
  8
0
  6
Continuous
 62
     7
370
    15
100
AcDbLine
 10
3678.105405852828
 20
1805.043458568481
 30
0.0
 11
3678.105405852828
 21
1793.343484031585
 31
0.0
  0
ARC
  5
AC7
330
A33
100
AcDbEntity
  8
0
  6
Continuous
 62
     7
370
    15
100
AcDbCircle
 10
3681.255405809615
 20
1793.343484794524
 30
0.0
 40
3.15000000000009
100
AcDbArc
 50
180.0
 51
0.0
  0
LINE
  5
AC8
330
A33
100
AcDbEntity
  8
0
  6
Continuous
 62
     7
370
    15
100
AcDbLine
 10
3684.405405395362
 20
1793.343484031585
 30
0.0
 11
3684.405405395362
 21
1805.043458568481
 31
0.0
  0
ARC
  5
AC9
330
A33
100
AcDbEntity
  8
0
  6
Continuous
 62
     7
370
    15
100
AcDbCircle
 10
3681.255405809615
 20
1805.043484794524
 30
0.0
 40
3.15000000000009
100
AcDbArc
 50
0.0
 51
180.0
  0
LINE
  5
ACA
330
A33
100
AcDbEntity
  8
0
  6
Continuous
 62
     7
370
    15
100
AcDbLine
 10
3678.105405852828
 20
1780.043482410339
 30
0.0
 11
3678.105405852828
 21
1768.343507873443
 31
0.0
  0
ARC
  5
ACB
330
A33
100
AcDbEntity
  8
0
  6
Continuous
 62
     7
370
    15
100
AcDbCircle
 10
3681.255405809615
 20
1768.343484794524
 30
0.0
 40
3.15000000000009
100
AcDbArc
 50
180.0
 51
0.0
  0
LINE
  5
ACC
330
A33
100
AcDbEntity
  8
0
  6
Continuous
 62
     7
370
    15
100
AcDbLine
 10
3684.405405395362
 20
1768.343507873443
 30
0.0
 11
3684.405405395362
 21
1780.043482410339
 31
0.0
  0
ARC
  5
ACD
330
A33
100
AcDbEntity
  8
0
  6
Continuous
 62
     7
370
    15
100
AcDbCircle
 10
3681.255405809615
 20
1780.043484794524
 30
0.0
 40
3.15000000000009
100
AcDbArc
 50
0.0
 51
180.0
  0
LINE
  5
ACE
330
A33
100
AcDbEntity
  8
0
  6
Continuous
 62
     7
370
    15
100
AcDbLine
 10
3678.105405852828
 20
1755.043506252197
 30
0.0
 11
3678.105405852828
 21
1743.343472110656
 31
0.0
  0
ARC
  5
ACF
330
A33
100
AcDbEntity
  8
0
  6
Continuous
 62
     7
370
    15
100
AcDbCircle
 10
3681.255405809615
 20
1743.343484794524
 30
0.0
 40
3.15000000000009
100
AcDbArc
 50
180.0
 51
0.0
  0
LINE
  5
AD0
330
A33
100
AcDbEntity
  8
0
  6
Continuous
 62
     7
370
    15
100
AcDbLine
 10
3684.405405395362
 20
1743.343472110656
 30
0.0
 11
3684.405405395362
 21
1755.043506252197
 31
0.0
  0
ARC
  5
AD1
330
A33
100
AcDbEntity
  8
0
  6
Continuous
 62
     7
370
    15
100
AcDbCircle
 10
3681.255405809615
 20
1755.043484794524
 30
0.0
 40
3.15000000000009
100
AcDbArc
 50
0.0
 51
180.0
  0
LINE
  5
AD2
330
A33
100
AcDbEntity
  8
0
  6
Continuous
 62
     7
370
    15
100
AcDbLine
 10
3678.105405852828
 20
1730.04347048941
 30
0.0
 11
3678.105405852828
 21
1718.343495952514
 31
0.0
  0
ARC
  5
AD3
330
A33
100
AcDbEntity
  8
0
  6
Continuous
 62
     7
370
    15
100
AcDbCircle
 10
3681.255405809615
 20
1718.343484794524
 30
0.0
 40
3.15000000000009
100
AcDbArc
 50
180.0
 51
0.0
  0
LINE
  5
AD4
330
A33
100
AcDbEntity
  8
0
  6
Continuous
 62
     7
370
    15
100
AcDbLine
 10
3684.405405395362
 20
1718.343495952514
 30
0.0
 11
3684.405405395362
 21
1730.04347048941
 31
0.0
  0
ARC
  5
AD5
330
A33
100
AcDbEntity
  8
0
  6
Continuous
 62
     7
370
    15
100
AcDbCircle
 10
3681.255405809615
 20
1730.043484794524
 30
0.0
 40
3.15000000000009
100
AcDbArc
 50
0.0
 51
180.0
  0
LINE
  5
AD6
330
A33
100
AcDbEntity
  8
0
  6
Continuous
 62
     7
370
    15
100
AcDbLine
 10
3678.105405852828
 20
1705.043494331268
 30
0.0
 11
3678.105405852828
 21
1693.343460189727
 31
0.0
  0
ARC
  5
AD7
330
A33
100
AcDbEntity
  8
0
  6
Continuous
 62
     7
370
    15
100
AcDbCircle
 10
3681.255405809615
 20
1693.343484794524
 30
0.0
 40
3.15000000000009
100
AcDbArc
 50
180.0
 51
0.0
  0
LINE
  5
AD8
330
A33
100
AcDbEntity
  8
0
  6
Continuous
 62
     7
370
    15
100
AcDbLine
 10
3684.405405395362
 20
1693.343460189727
 30
0.0
 11
3684.405405395362
 21
1705.043494331268
 31
0.0
  0
ARC
  5
AD9
330
A33
100
AcDbEntity
  8
0
  6
Continuous
 62
     7
370
    15
100
AcDbCircle
 10
3681.255405809615
 20
1705.043484794524
 30
0.0
 40
3.15000000000009
100
AcDbArc
 50
0.0
 51
180.0
  0
LINE
  5
ADA
330
A33
100
AcDbEntity
  8
0
  6
Continuous
 62
     7
370
    15
100
AcDbLine
 10
3678.105405852828
 20
1680.043458568481
 30
0.0
 11
3678.105405852828
 21
1668.343484031585
 31
0.0
  0
ARC
  5
ADB
330
A33
100
AcDbEntity
  8
0
  6
Continuous
 62
     7
370
    15
100
AcDbCircle
 10
3681.255405809615
 20
1668.343484794524
 30
0.0
 40
3.15000000000009
100
AcDbArc
 50
180.0
 51
0.0
  0
LINE
  5
ADC
330
A33
100
AcDbEntity
  8
0
  6
Continuous
 62
     7
370
    15
100
AcDbLine
 10
3684.405405395362
 20
1668.343484031585
 30
0.0
 11
3684.405405395362
 21
1680.043458568481
 31
0.0
  0
ARC
  5
ADD
330
A33
100
AcDbEntity
  8
0
  6
Continuous
 62
     7
370
    15
100
AcDbCircle
 10
3681.255405809615
 20
1680.043484794524
 30
0.0
 40
3.15000000000009
100
AcDbArc
 50
0.0
 51
180.0
  0
LINE
  5
ADE
330
A33
100
AcDbEntity
  8
0
  6
Continuous
 62
     7
370
    15
100
AcDbLine
 10
3678.105405852828
 20
1655.043482410339
 30
0.0
 11
3678.105405852828
 21
1643.343507873443
 31
0.0
  0
ARC
  5
ADF
330
A33
100
AcDbEntity
  8
0
  6
Continuous
 62
     7
370
    15
100
AcDbCircle
 10
3681.255405809615
 20
1643.343484794524
 30
0.0
 40
3.15000000000009
100
AcDbArc
 50
180.0
 51
0.0
  0
LINE
  5
AE0
330
A33
100
AcDbEntity
  8
0
  6
Continuous
 62
     7
370
    15
100
AcDbLine
 10
3684.405405395362
 20
1643.343507873443
 30
0.0
 11
3684.405405395362
 21
1655.043482410339
 31
0.0
  0
ARC
  5
AE1
330
A33
100
AcDbEntity
  8
0
  6
Continuous
 62
     7
370
    15
100
AcDbCircle
 10
3681.255405809615
 20
1655.043484794524
 30
0.0
 40
3.15000000000009
100
AcDbArc
 50
0.0
 51
180.0
  0
LINE
  5
AE2
330
A33
100
AcDbEntity
  8
0
  6
Continuous
 62
     7
370
    15
100
AcDbLine
 10
3678.105405852828
 20
1630.043506252197
 30
0.0
 11
3678.105405852828
 21
1618.343472110656
 31
0.0
  0
ARC
  5
AE3
330
A33
100
AcDbEntity
  8
0
  6
Continuous
 62
     7
370
    15
100
AcDbCircle
 10
3681.255405809615
 20
1618.343484794524
 30
0.0
 40
3.15000000000009
100
AcDbArc
 50
180.0
 51
0.0
  0
LINE
  5
AE4
330
A33
100
AcDbEntity
  8
0
  6
Continuous
 62
     7
370
    15
100
AcDbLine
 10
3684.405405395362
 20
1618.343472110656
 30
0.0
 11
3684.405405395362
 21
1630.043506252197
 31
0.0
  0
ARC
  5
AE5
330
A33
100
AcDbEntity
  8
0
  6
Continuous
 62
     7
370
    15
100
AcDbCircle
 10
3681.255405809615
 20
1630.043484794524
 30
0.0
 40
3.15000000000009
100
AcDbArc
 50
0.0
 51
180.0
  0
LINE
  5
AE6
330
A33
100
AcDbEntity
  8
0
  6
Continuous
 62
     7
370
    15
100
AcDbLine
 10
3678.105405852828
 20
1605.04347048941
 30
0.0
 11
3678.105405852828
 21
1593.343495952514
 31
0.0
  0
ARC
  5
AE7
330
A33
100
AcDbEntity
  8
0
  6
Continuous
 62
     7
370
    15
100
AcDbCircle
 10
3681.255405809615
 20
1593.343484794524
 30
0.0
 40
3.15000000000009
100
AcDbArc
 50
180.0
 51
0.0
  0
LINE
  5
AE8
330
A33
100
AcDbEntity
  8
0
  6
Continuous
 62
     7
370
    15
100
AcDbLine
 10
3684.405405395362
 20
1593.343495952514
 30
0.0
 11
3684.405405395362
 21
1605.04347048941
 31
0.0
  0
ARC
  5
AE9
330
A33
100
AcDbEntity
  8
0
  6
Continuous
 62
     7
370
    15
100
AcDbCircle
 10
3681.255405809615
 20
1605.043484794524
 30
0.0
 40
3.15000000000009
100
AcDbArc
 50
0.0
 51
180.0
  0
LINE
  5
AEA
330
A33
100
AcDbEntity
  8
0
  6
Continuous
 62
     7
370
    15
100
AcDbLine
 10
3678.105405852828
 20
1580.043494331267
 30
0.0
 11
3678.105405852828
 21
1568.343460189727
 31
0.0
  0
ARC
  5
AEB
330
A33
100
AcDbEntity
  8
0
  6
Continuous
 62
     7
370
    15
100
AcDbCircle
 10
3681.255405809615
 20
1568.343484794524
 30
0.0
 40
3.15000000000009
100
AcDbArc
 50
180.0
 51
0.0
  0
LINE
  5
AEC
330
A33
100
AcDbEntity
  8
0
  6
Continuous
 62
     7
370
    15
100
AcDbLine
 10
3684.405405395362
 20
1568.343460189727
 30
0.0
 11
3684.405405395362
 21
1580.043494331267
 31
0.0
  0
ARC
  5
AED
330
A33
100
AcDbEntity
  8
0
  6
Continuous
 62
     7
370
    15
100
AcDbCircle
 10
3681.255405809615
 20
1580.043484794524
 30
0.0
 40
3.15000000000009
100
AcDbArc
 50
0.0
 51
180.0
  0
LINE
  5
AEE
330
A33
100
AcDbEntity
  8
0
  6
Continuous
 62
     7
370
    15
100
AcDbLine
 10
3678.105405852828
 20
1555.043518173125
 30
0.0
 11
3678.105405852828
 21
1543.343484031585
 31
0.0
  0
ARC
  5
AEF
330
A33
100
AcDbEntity
  8
0
  6
Continuous
 62
     7
370
    15
100
AcDbCircle
 10
3681.255405809615
 20
1543.343484794524
 30
0.0
 40
3.15000000000009
100
AcDbArc
 50
180.0
 51
0.0
  0
LINE
  5
AF0
330
A33
100
AcDbEntity
  8
0
  6
Continuous
 62
     7
370
    15
100
AcDbLine
 10
3684.405405395362
 20
1543.343484031585
 30
0.0
 11
3684.405405395362
 21
1555.043518173125
 31
0.0
  0
ARC
  5
AF1
330
A33
100
AcDbEntity
  8
0
  6
Continuous
 62
     7
370
    15
100
AcDbCircle
 10
3681.255405809615
 20
1555.043484794524
 30
0.0
 40
3.15000000000009
100
AcDbArc
 50
0.0
 51
180.0
  0
LINE
  5
AF2
330
A33
100
AcDbEntity
  8
0
  6
Continuous
 62
     7
370
    15
100
AcDbLine
 10
3678.105405852828
 20
1530.043542014983
 30
0.0
 11
3678.105405852828
 21
1518.343507873443
 31
0.0
  0
ARC
  5
AF3
330
A33
100
AcDbEntity
  8
0
  6
Continuous
 62
     7
370
    15
100
AcDbCircle
 10
3681.255405809615
 20
1518.343484794524
 30
0.0
 40
3.15000000000009
100
AcDbArc
 50
180.0
 51
0.0
  0
LINE
  5
AF4
330
A33
100
AcDbEntity
  8
0
  6
Continuous
 62
     7
370
    15
100
AcDbLine
 10
3684.405405395362
 20
1518.343507873443
 30
0.0
 11
3684.405405395362
 21
1530.043542014983
 31
0.0
  0
ARC
  5
AF5
330
A33
100
AcDbEntity
  8
0
  6
Continuous
 62
     7
370
    15
100
AcDbCircle
 10
3681.255405809615
 20
1530.043484794524
 30
0.0
 40
3.15000000000009
100
AcDbArc
 50
0.0
 51
180.0
  0
LINE
  5
AF6
330
A33
100
AcDbEntity
  8
0
  6
Continuous
 62
     7
370
    15
100
AcDbLine
 10
3678.105405852828
 20
1505.043446647551
 30
0.0
 11
3678.105405852828
 21
1493.3435317153
 31
0.0
  0
ARC
  5
AF7
330
A33
100
AcDbEntity
  8
0
  6
Continuous
 62
     7
370
    15
100
AcDbCircle
 10
3681.255405809615
 20
1493.343484794524
 30
0.0
 40
3.15000000000009
100
AcDbArc
 50
180.0
 51
0.0
  0
LINE
  5
AF8
330
A33
100
AcDbEntity
  8
0
  6
Continuous
 62
     7
370
    15
100
AcDbLine
 10
3684.405405395362
 20
1493.3435317153
 30
0.0
 11
3684.405405395362
 21
1505.043446647551
 31
0.0
  0
ARC
  5
AF9
330
A33
100
AcDbEntity
  8
0
  6
Continuous
 62
     7
370
    15
100
AcDbCircle
 10
3681.255405809615
 20
1505.043484794524
 30
0.0
 40
3.15000000000009
100
AcDbArc
 50
0.0
 51
180.0
  0
LINE
  5
AFA
330
A33
100
AcDbEntity
  8
0
  6
Continuous
 62
     7
370
    15
100
AcDbLine
 10
3678.105405852828
 20
1480.043470489409
 30
0.0
 11
3678.105405852828
 21
1468.343436347869
 31
0.0
  0
ARC
  5
AFB
330
A33
100
AcDbEntity
  8
0
  6
Continuous
 62
     7
370
    15
100
AcDbCircle
 10
3681.255405809615
 20
1468.343484794524
 30
0.0
 40
3.15000000000009
100
AcDbArc
 50
180.0
 51
0.0
  0
LINE
  5
AFC
330
A33
100
AcDbEntity
  8
0
  6
Continuous
 62
     7
370
    15
100
AcDbLine
 10
3684.405405395362
 20
1468.343436347869
 30
0.0
 11
3684.405405395362
 21
1480.043470489409
 31
0.0
  0
ARC
  5
AFD
330
A33
100
AcDbEntity
  8
0
  6
Continuous
 62
     7
370
    15
100
AcDbCircle
 10
3681.255405809615
 20
1480.043484794524
 30
0.0
 40
3.15000000000009
100
AcDbArc
 50
0.0
 51
180.0
  0
LINE
  5
AFE
330
A33
100
AcDbEntity
  8
0
  6
Continuous
 62
     7
370
    15
100
AcDbLine
 10
3678.105405852828
 20
1455.043494331267
 30
0.0
 11
3678.105405852828
 21
1443.343460189727
 31
0.0
  0
ARC
  5
AFF
330
A33
100
AcDbEntity
  8
0
  6
Continuous
 62
     7
370
    15
100
AcDbCircle
 10
3681.255405809615
 20
1443.343484794524
 30
0.0
 40
3.15000000000009
100
AcDbArc
 50
180.0
 51
0.0
  0
LINE
  5
B00
330
A33
100
AcDbEntity
  8
0
  6
Continuous
 62
     7
370
    15
100
AcDbLine
 10
3684.405405395362
 20
1443.343460189727
 30
0.0
 11
3684.405405395362
 21
1455.043494331267
 31
0.0
  0
ARC
  5
B01
330
A33
100
AcDbEntity
  8
0
  6
Continuous
 62
     7
370
    15
100
AcDbCircle
 10
3681.255405809615
 20
1455.043484794524
 30
0.0
 40
3.15000000000009
100
AcDbArc
 50
0.0
 51
180.0
  0
LINE
  5
B02
330
A33
100
AcDbEntity
  8
0
  6
Continuous
 62
     7
370
    15
100
AcDbLine
 10
3678.105405852828
 20
1430.043518173125
 30
0.0
 11
3678.105405852828
 21
1418.343484031585
 31
0.0
  0
ARC
  5
B03
330
A33
100
AcDbEntity
  8
0
  6
Continuous
 62
     7
370
    15
100
AcDbCircle
 10
3681.255405809615
 20
1418.343484794524
 30
0.0
 40
3.15000000000009
100
AcDbArc
 50
180.0
 51
0.0
  0
LINE
  5
B04
330
A33
100
AcDbEntity
  8
0
  6
Continuous
 62
     7
370
    15
100
AcDbLine
 10
3684.405405395362
 20
1418.343484031585
 30
0.0
 11
3684.405405395362
 21
1430.043518173125
 31
0.0
  0
ARC
  5
B05
330
A33
100
AcDbEntity
  8
0
  6
Continuous
 62
     7
370
    15
100
AcDbCircle
 10
3681.255405809615
 20
1430.043484794524
 30
0.0
 40
3.15000000000009
100
AcDbArc
 50
0.0
 51
180.0
  0
LINE
  5
B06
330
A33
100
AcDbEntity
  8
0
  6
Continuous
 62
     7
370
    15
100
AcDbLine
 10
3678.105405852828
 20
1405.043542014983
 30
0.0
 11
3678.105405852828
 21
1393.343507873443
 31
0.0
  0
ARC
  5
B07
330
A33
100
AcDbEntity
  8
0
  6
Continuous
 62
     7
370
    15
100
AcDbCircle
 10
3681.255405809615
 20
1393.343484794524
 30
0.0
 40
3.15000000000009
100
AcDbArc
 50
180.0
 51
0.0
  0
LINE
  5
B08
330
A33
100
AcDbEntity
  8
0
  6
Continuous
 62
     7
370
    15
100
AcDbLine
 10
3684.405405395362
 20
1393.343507873443
 30
0.0
 11
3684.405405395362
 21
1405.043542014983
 31
0.0
  0
ARC
  5
B09
330
A33
100
AcDbEntity
  8
0
  6
Continuous
 62
     7
370
    15
100
AcDbCircle
 10
3681.255405809615
 20
1405.043484794524
 30
0.0
 40
3.15000000000009
100
AcDbArc
 50
0.0
 51
180.0
  0
LINE
  5
B0A
330
A33
100
AcDbEntity
  8
0
  6
Continuous
 62
     7
370
    15
100
AcDbLine
 10
3678.105405852828
 20
1380.043446647551
 30
0.0
 11
3678.105405852828
 21
1368.3435317153
 31
0.0
  0
ARC
  5
B0B
330
A33
100
AcDbEntity
  8
0
  6
Continuous
 62
     7
370
    15
100
AcDbCircle
 10
3681.255405809615
 20
1368.343484794524
 30
0.0
 40
3.15000000000009
100
AcDbArc
 50
180.0
 51
0.0
  0
LINE
  5
B0C
330
A33
100
AcDbEntity
  8
0
  6
Continuous
 62
     7
370
    15
100
AcDbLine
 10
3684.405405395362
 20
1368.3435317153
 30
0.0
 11
3684.405405395362
 21
1380.043446647551
 31
0.0
  0
ARC
  5
B0D
330
A33
100
AcDbEntity
  8
0
  6
Continuous
 62
     7
370
    15
100
AcDbCircle
 10
3681.255405809615
 20
1380.043484794524
 30
0.0
 40
3.15000000000009
100
AcDbArc
 50
0.0
 51
180.0
  0
LINE
  5
B0E
330
A33
100
AcDbEntity
  8
0
  6
Continuous
 62
     7
370
    15
100
AcDbLine
 10
3678.105405852828
 20
1355.043470489409
 30
0.0
 11
3678.105405852828
 21
1343.343436347869
 31
0.0
  0
ARC
  5
B0F
330
A33
100
AcDbEntity
  8
0
  6
Continuous
 62
     7
370
    15
100
AcDbCircle
 10
3681.255405809615
 20
1343.343484794524
 30
0.0
 40
3.15000000000009
100
AcDbArc
 50
180.0
 51
0.0
  0
LINE
  5
B10
330
A33
100
AcDbEntity
  8
0
  6
Continuous
 62
     7
370
    15
100
AcDbLine
 10
3684.405405395362
 20
1343.343436347869
 30
0.0
 11
3684.405405395362
 21
1355.043470489409
 31
0.0
  0
ARC
  5
B11
330
A33
100
AcDbEntity
  8
0
  6
Continuous
 62
     7
370
    15
100
AcDbCircle
 10
3681.255405809615
 20
1355.043484794524
 30
0.0
 40
3.15000000000009
100
AcDbArc
 50
0.0
 51
180.0
  0
LINE
  5
B12
330
A33
100
AcDbEntity
  8
0
  6
Continuous
 62
     7
370
    15
100
AcDbLine
 10
3678.105405852828
 20
1330.043494331267
 30
0.0
 11
3678.105405852828
 21
1318.343460189727
 31
0.0
  0
ARC
  5
B13
330
A33
100
AcDbEntity
  8
0
  6
Continuous
 62
     7
370
    15
100
AcDbCircle
 10
3681.255405809615
 20
1318.343484794524
 30
0.0
 40
3.15000000000009
100
AcDbArc
 50
180.0
 51
0.0
  0
LINE
  5
B14
330
A33
100
AcDbEntity
  8
0
  6
Continuous
 62
     7
370
    15
100
AcDbLine
 10
3684.405405395362
 20
1318.343460189727
 30
0.0
 11
3684.405405395362
 21
1330.043494331267
 31
0.0
  0
ARC
  5
B15
330
A33
100
AcDbEntity
  8
0
  6
Continuous
 62
     7
370
    15
100
AcDbCircle
 10
3681.255405809615
 20
1330.043484794524
 30
0.0
 40
3.15000000000009
100
AcDbArc
 50
0.0
 51
180.0
  0
LINE
  5
B16
330
A33
100
AcDbEntity
  8
0
  6
Continuous
 62
     7
370
    15
100
AcDbLine
 10
3678.105405852828
 20
1305.043518173125
 30
0.0
 11
3678.105405852828
 21
1293.343484031585
 31
0.0
  0
ARC
  5
B17
330
A33
100
AcDbEntity
  8
0
  6
Continuous
 62
     7
370
    15
100
AcDbCircle
 10
3681.255405809615
 20
1293.343484794524
 30
0.0
 40
3.15000000000009
100
AcDbArc
 50
180.0
 51
0.0
  0
LINE
  5
B18
330
A33
100
AcDbEntity
  8
0
  6
Continuous
 62
     7
370
    15
100
AcDbLine
 10
3684.405405395362
 20
1293.343484031585
 30
0.0
 11
3684.405405395362
 21
1305.043518173125
 31
0.0
  0
ARC
  5
B19
330
A33
100
AcDbEntity
  8
0
  6
Continuous
 62
     7
370
    15
100
AcDbCircle
 10
3681.255405809615
 20
1305.043484794524
 30
0.0
 40
3.15000000000009
100
AcDbArc
 50
0.0
 51
180.0
  0
LINE
  5
B1A
330
A33
100
AcDbEntity
  8
0
  6
Continuous
 62
     7
370
    15
100
AcDbLine
 10
3678.105405852828
 20
1280.043542014983
 30
0.0
 11
3678.105405852828
 21
1268.343507873443
 31
0.0
  0
ARC
  5
B1B
330
A33
100
AcDbEntity
  8
0
  6
Continuous
 62
     7
370
    15
100
AcDbCircle
 10
3681.255405809615
 20
1268.343484794524
 30
0.0
 40
3.15000000000009
100
AcDbArc
 50
180.0
 51
0.0
  0
LINE
  5
B1C
330
A33
100
AcDbEntity
  8
0
  6
Continuous
 62
     7
370
    15
100
AcDbLine
 10
3684.405405395362
 20
1268.343507873443
 30
0.0
 11
3684.405405395362
 21
1280.043542014983
 31
0.0
  0
ARC
  5
B1D
330
A33
100
AcDbEntity
  8
0
  6
Continuous
 62
     7
370
    15
100
AcDbCircle
 10
3681.255405809615
 20
1280.043484794524
 30
0.0
 40
3.15000000000009
100
AcDbArc
 50
0.0
 51
180.0
  0
LINE
  5
B1E
330
A33
100
AcDbEntity
  8
0
  6
Continuous
 62
     7
370
    15
100
AcDbLine
 10
3678.105405852828
 20
1255.043446647551
 30
0.0
 11
3678.105405852828
 21
1243.3435317153
 31
0.0
  0
ARC
  5
B1F
330
A33
100
AcDbEntity
  8
0
  6
Continuous
 62
     7
370
    15
100
AcDbCircle
 10
3681.255405809615
 20
1243.343484794524
 30
0.0
 40
3.15000000000009
100
AcDbArc
 50
180.0
 51
0.0
  0
LINE
  5
B20
330
A33
100
AcDbEntity
  8
0
  6
Continuous
 62
     7
370
    15
100
AcDbLine
 10
3684.405405395362
 20
1243.3435317153
 30
0.0
 11
3684.405405395362
 21
1255.043446647551
 31
0.0
  0
ARC
  5
B21
330
A33
100
AcDbEntity
  8
0
  6
Continuous
 62
     7
370
    15
100
AcDbCircle
 10
3681.255405809615
 20
1255.043484794524
 30
0.0
 40
3.15000000000009
100
AcDbArc
 50
0.0
 51
180.0
  0
LINE
  5
B22
330
A33
100
AcDbEntity
  8
0
  6
Continuous
 62
     7
370
    15
100
AcDbLine
 10
3678.105405852828
 20
1230.043470489409
 30
0.0
 11
3678.105405852828
 21
1218.343436347869
 31
0.0
  0
ARC
  5
B23
330
A33
100
AcDbEntity
  8
0
  6
Continuous
 62
     7
370
    15
100
AcDbCircle
 10
3681.255405809615
 20
1218.343484794524
 30
0.0
 40
3.15000000000009
100
AcDbArc
 50
180.0
 51
0.0
  0
LINE
  5
B24
330
A33
100
AcDbEntity
  8
0
  6
Continuous
 62
     7
370
    15
100
AcDbLine
 10
3684.405405395362
 20
1218.343436347869
 30
0.0
 11
3684.405405395362
 21
1230.043470489409
 31
0.0
  0
ARC
  5
B25
330
A33
100
AcDbEntity
  8
0
  6
Continuous
 62
     7
370
    15
100
AcDbCircle
 10
3681.255405809615
 20
1230.043484794524
 30
0.0
 40
3.15000000000009
100
AcDbArc
 50
0.0
 51
180.000000000013
  0
LINE
  5
B26
330
A33
100
AcDbEntity
  8
0
  6
Continuous
 62
     7
370
    15
100
AcDbLine
 10
3678.105405852828
 20
1205.043494331267
 30
0.0
 11
3678.105405852828
 21
1193.343460189727
 31
0.0
  0
ARC
  5
B27
330
A33
100
AcDbEntity
  8
0
  6
Continuous
 62
     7
370
    15
100
AcDbCircle
 10
3681.255405809615
 20
1193.343484794524
 30
0.0
 40
3.15000000000009
100
AcDbArc
 50
180.0
 51
0.0
  0
LINE
  5
B28
330
A33
100
AcDbEntity
  8
0
  6
Continuous
 62
     7
370
    15
100
AcDbLine
 10
3684.405405395362
 20
1193.343460189727
 30
0.0
 11
3684.405405395362
 21
1205.043494331267
 31
0.0
  0
ARC
  5
B29
330
A33
100
AcDbEntity
  8
0
  6
Continuous
 62
     7
370
    15
100
AcDbCircle
 10
3681.255405809615
 20
1205.043484794524
 30
0.0
 40
3.15000000000009
100
AcDbArc
 50
0.0
 51
180.000000000013
  0
LINE
  5
B2A
330
A33
100
AcDbEntity
  8
0
  6
Continuous
 62
     7
370
    15
100
AcDbLine
 10
3678.105405852828
 20
1180.043518173125
 30
0.0
 11
3678.105405852828
 21
1168.343484031584
 31
0.0
  0
ARC
  5
B2B
330
A33
100
AcDbEntity
  8
0
  6
Continuous
 62
     7
370
    15
100
AcDbCircle
 10
3681.255405809615
 20
1168.343484794524
 30
0.0
 40
3.15000000000009
100
AcDbArc
 50
180.0
 51
0.0
  0
LINE
  5
B2C
330
A33
100
AcDbEntity
  8
0
  6
Continuous
 62
     7
370
    15
100
AcDbLine
 10
3684.405405395362
 20
1168.343484031584
 30
0.0
 11
3684.405405395362
 21
1180.043518173125
 31
0.0
  0
ARC
  5
B2D
330
A33
100
AcDbEntity
  8
0
  6
Continuous
 62
     7
370
    15
100
AcDbCircle
 10
3681.255405809615
 20
1180.043484794524
 30
0.0
 40
3.15000000000009
100
AcDbArc
 50
0.0
 51
180.000000000013
  0
LINE
  5
B2E
330
A33
100
AcDbEntity
  8
0
  6
Continuous
 62
     7
370
    15
100
AcDbLine
 10
3678.105405852828
 20
1155.043542014983
 30
0.0
 11
3678.105405852828
 21
1143.343507873442
 31
0.0
  0
ARC
  5
B2F
330
A33
100
AcDbEntity
  8
0
  6
Continuous
 62
     7
370
    15
100
AcDbCircle
 10
3681.255405809615
 20
1143.343484794524
 30
0.0
 40
3.15000000000009
100
AcDbArc
 50
180.0
 51
0.0
  0
LINE
  5
B30
330
A33
100
AcDbEntity
  8
0
  6
Continuous
 62
     7
370
    15
100
AcDbLine
 10
3684.405405395362
 20
1143.343507873442
 30
0.0
 11
3684.405405395362
 21
1155.043542014983
 31
0.0
  0
ARC
  5
B31
330
A33
100
AcDbEntity
  8
0
  6
Continuous
 62
     7
370
    15
100
AcDbCircle
 10
3681.255405809615
 20
1155.043484794524
 30
0.0
 40
3.15000000000009
100
AcDbArc
 50
0.0
 51
180.0
  0
LINE
  5
B32
330
A33
100
AcDbEntity
  8
0
  6
Continuous
 62
     7
370
    15
100
AcDbLine
 10
3678.105405852828
 20
1130.043446647551
 30
0.0
 11
3678.105405852828
 21
1118.3435317153
 31
0.0
  0
ARC
  5
B33
330
A33
100
AcDbEntity
  8
0
  6
Continuous
 62
     7
370
    15
100
AcDbCircle
 10
3681.255405809615
 20
1118.343484794524
 30
0.0
 40
3.15000000000009
100
AcDbArc
 50
180.0
 51
0.0
  0
LINE
  5
B34
330
A33
100
AcDbEntity
  8
0
  6
Continuous
 62
     7
370
    15
100
AcDbLine
 10
3684.405405395362
 20
1118.3435317153
 30
0.0
 11
3684.405405395362
 21
1130.043446647551
 31
0.0
  0
ARC
  5
B35
330
A33
100
AcDbEntity
  8
0
  6
Continuous
 62
     7
370
    15
100
AcDbCircle
 10
3681.255405809615
 20
1130.043484794524
 30
0.0
 40
3.15000000000009
100
AcDbArc
 50
0.0
 51
180.0
  0
LINE
  5
B36
330
A33
100
AcDbEntity
  8
0
  6
Continuous
 62
     7
370
    15
100
AcDbLine
 10
3678.105405852828
 20
1105.043470489409
 30
0.0
 11
3678.105405852828
 21
1093.343436347869
 31
0.0
  0
ARC
  5
B37
330
A33
100
AcDbEntity
  8
0
  6
Continuous
 62
     7
370
    15
100
AcDbCircle
 10
3681.255405809615
 20
1093.343484794524
 30
0.0
 40
3.15000000000009
100
AcDbArc
 50
180.0
 51
0.0
  0
LINE
  5
B38
330
A33
100
AcDbEntity
  8
0
  6
Continuous
 62
     7
370
    15
100
AcDbLine
 10
3684.405405395362
 20
1093.343436347869
 30
0.0
 11
3684.405405395362
 21
1105.043470489409
 31
0.0
  0
ARC
  5
B39
330
A33
100
AcDbEntity
  8
0
  6
Continuous
 62
     7
370
    15
100
AcDbCircle
 10
3681.255405809615
 20
1105.043484794524
 30
0.0
 40
3.15000000000009
100
AcDbArc
 50
0.0
 51
180.000000000013
  0
LINE
  5
B3A
330
A33
100
AcDbEntity
  8
0
  6
Continuous
 62
     7
370
    15
100
AcDbLine
 10
3678.105405852828
 20
1080.043494331267
 30
0.0
 11
3678.105405852828
 21
1068.343460189727
 31
0.0
  0
ARC
  5
B3B
330
A33
100
AcDbEntity
  8
0
  6
Continuous
 62
     7
370
    15
100
AcDbCircle
 10
3681.255405809615
 20
1068.343484794524
 30
0.0
 40
3.15000000000009
100
AcDbArc
 50
180.0
 51
0.0
  0
LINE
  5
B3C
330
A33
100
AcDbEntity
  8
0
  6
Continuous
 62
     7
370
    15
100
AcDbLine
 10
3684.405405395362
 20
1068.343460189727
 30
0.0
 11
3684.405405395362
 21
1080.043494331267
 31
0.0
  0
ARC
  5
B3D
330
A33
100
AcDbEntity
  8
0
  6
Continuous
 62
     7
370
    15
100
AcDbCircle
 10
3681.255405809615
 20
1080.043484794524
 30
0.0
 40
3.15000000000009
100
AcDbArc
 50
0.0
 51
180.0
  0
LINE
  5
B3E
330
A33
100
AcDbEntity
  8
0
  6
Continuous
 62
     7
370
    15
100
AcDbLine
 10
3678.105405852828
 20
1055.043518173125
 30
0.0
 11
3678.105405852828
 21
1043.343484031584
 31
0.0
  0
ARC
  5
B3F
330
A33
100
AcDbEntity
  8
0
  6
Continuous
 62
     7
370
    15
100
AcDbCircle
 10
3681.255405809615
 20
1043.343484794524
 30
0.0
 40
3.15000000000009
100
AcDbArc
 50
180.0
 51
0.0
  0
LINE
  5
B40
330
A33
100
AcDbEntity
  8
0
  6
Continuous
 62
     7
370
    15
100
AcDbLine
 10
3684.405405395362
 20
1043.343484031584
 30
0.0
 11
3684.405405395362
 21
1055.043518173125
 31
0.0
  0
ARC
  5
B41
330
A33
100
AcDbEntity
  8
0
  6
Continuous
 62
     7
370
    15
100
AcDbCircle
 10
3681.255405809615
 20
1055.043484794524
 30
0.0
 40
3.15000000000009
100
AcDbArc
 50
0.0
 51
180.0
  0
LINE
  5
B42
330
A33
100
AcDbEntity
  8
0
  6
Continuous
 62
     7
370
    15
100
AcDbLine
 10
3678.105405852828
 20
1030.043542014983
 30
0.0
 11
3678.105405852828
 21
1018.343507873442
 31
0.0
  0
ARC
  5
B43
330
A33
100
AcDbEntity
  8
0
  6
Continuous
 62
     7
370
    15
100
AcDbCircle
 10
3681.255405809615
 20
1018.343484794524
 30
0.0
 40
3.15000000000009
100
AcDbArc
 50
180.0
 51
0.0
  0
LINE
  5
B44
330
A33
100
AcDbEntity
  8
0
  6
Continuous
 62
     7
370
    15
100
AcDbLine
 10
3684.405405395362
 20
1018.343507873442
 30
0.0
 11
3684.405405395362
 21
1030.043542014983
 31
0.0
  0
ARC
  5
B45
330
A33
100
AcDbEntity
  8
0
  6
Continuous
 62
     7
370
    15
100
AcDbCircle
 10
3681.255405809615
 20
1030.043484794524
 30
0.0
 40
3.15000000000009
100
AcDbArc
 50
0.0
 51
180.0
  0
LINE
  5
B46
330
A33
100
AcDbEntity
  8
0
  6
Continuous
 62
     7
370
    15
100
AcDbLine
 10
3678.105405852828
 20
1005.043446647551
 30
0.0
 11
3678.105405852828
 21
993.3435317153005
 31
0.0
  0
ARC
  5
B47
330
A33
100
AcDbEntity
  8
0
  6
Continuous
 62
     7
370
    15
100
AcDbCircle
 10
3681.255405809615
 20
993.3434847945243
 30
0.0
 40
3.15000000000009
100
AcDbArc
 50
180.0
 51
0.0
  0
LINE
  5
B48
330
A33
100
AcDbEntity
  8
0
  6
Continuous
 62
     7
370
    15
100
AcDbLine
 10
3684.405405395362
 20
993.3435317153005
 30
0.0
 11
3684.405405395362
 21
1005.043446647551
 31
0.0
  0
ARC
  5
B49
330
A33
100
AcDbEntity
  8
0
  6
Continuous
 62
     7
370
    15
100
AcDbCircle
 10
3681.255405809615
 20
1005.043484794524
 30
0.0
 40
3.15000000000009
100
AcDbArc
 50
0.0
 51
180.0
  0
LINE
  5
B4A
330
A33
100
AcDbEntity
  8
0
  6
Continuous
 62
     7
370
    15
100
AcDbLine
 10
3678.105405852828
 20
980.0434704894094
 30
0.0
 11
3678.105405852828
 21
968.3434363478689
 31
0.0
  0
ARC
  5
B4B
330
A33
100
AcDbEntity
  8
0
  6
Continuous
 62
     7
370
    15
100
AcDbCircle
 10
3681.255405809615
 20
968.3434847945241
 30
0.0
 40
3.15000000000009
100
AcDbArc
 50
180.0
 51
0.0
  0
LINE
  5
B4C
330
A33
100
AcDbEntity
  8
0
  6
Continuous
 62
     7
370
    15
100
AcDbLine
 10
3684.405405395362
 20
968.3434363478689
 30
0.0
 11
3684.405405395362
 21
980.0434704894094
 31
0.0
  0
ARC
  5
B4D
330
A33
100
AcDbEntity
  8
0
  6
Continuous
 62
     7
370
    15
100
AcDbCircle
 10
3681.255405809615
 20
980.0434847945243
 30
0.0
 40
3.15000000000009
100
AcDbArc
 50
0.0
 51
180.0
  0
LINE
  5
B4E
330
A33
100
AcDbEntity
  8
0
  6
Continuous
 62
     7
370
    15
100
AcDbLine
 10
3678.105405852828
 20
955.0434943312673
 30
0.0
 11
3678.105405852828
 21
943.3434601897268
 31
0.0
  0
ARC
  5
B4F
330
A33
100
AcDbEntity
  8
0
  6
Continuous
 62
     7
370
    15
100
AcDbCircle
 10
3681.255405809615
 20
943.3434847945241
 30
0.0
 40
3.15000000000009
100
AcDbArc
 50
180.0
 51
0.0
  0
LINE
  5
B50
330
A33
100
AcDbEntity
  8
0
  6
Continuous
 62
     7
370
    15
100
AcDbLine
 10
3684.405405395362
 20
943.3434601897268
 30
0.0
 11
3684.405405395362
 21
955.0434943312673
 31
0.0
  0
ARC
  5
B51
330
A33
100
AcDbEntity
  8
0
  6
Continuous
 62
     7
370
    15
100
AcDbCircle
 10
3681.255405809615
 20
955.0434847945243
 30
0.0
 40
3.15000000000009
100
AcDbArc
 50
0.0
 51
180.0
  0
LINE
  5
B52
330
A33
100
AcDbEntity
  8
0
  6
Continuous
 62
     7
370
    15
100
AcDbLine
 10
3678.105405852828
 20
930.0435181731252
 30
0.0
 11
3678.105405852828
 21
918.3434840315847
 31
0.0
  0
ARC
  5
B53
330
A33
100
AcDbEntity
  8
0
  6
Continuous
 62
     7
370
    15
100
AcDbCircle
 10
3681.255405809615
 20
918.3434847945241
 30
0.0
 40
3.15000000000009
100
AcDbArc
 50
180.0
 51
0.0
  0
LINE
  5
B54
330
A33
100
AcDbEntity
  8
0
  6
Continuous
 62
     7
370
    15
100
AcDbLine
 10
3684.405405395362
 20
918.3434840315847
 30
0.0
 11
3684.405405395362
 21
930.0435181731252
 31
0.0
  0
ARC
  5
B55
330
A33
100
AcDbEntity
  8
0
  6
Continuous
 62
     7
370
    15
100
AcDbCircle
 10
3681.255405809615
 20
930.0434847945243
 30
0.0
 40
3.15000000000009
100
AcDbArc
 50
0.0
 51
180.0
  0
LINE
  5
B56
330
A33
100
AcDbEntity
  8
0
  6
Continuous
 62
     7
370
    15
100
AcDbLine
 10
3678.105405852828
 20
905.0435420149831
 30
0.0
 11
3678.105405852828
 21
893.3435078734426
 31
0.0
  0
ARC
  5
B57
330
A33
100
AcDbEntity
  8
0
  6
Continuous
 62
     7
370
    15
100
AcDbCircle
 10
3681.255405809615
 20
893.3434847945243
 30
0.0
 40
3.15000000000009
100
AcDbArc
 50
180.0
 51
0.0
  0
LINE
  5
B58
330
A33
100
AcDbEntity
  8
0
  6
Continuous
 62
     7
370
    15
100
AcDbLine
 10
3684.405405395362
 20
893.3435078734426
 30
0.0
 11
3684.405405395362
 21
905.0435420149831
 31
0.0
  0
ARC
  5
B59
330
A33
100
AcDbEntity
  8
0
  6
Continuous
 62
     7
370
    15
100
AcDbCircle
 10
3681.255405809615
 20
905.0434847945242
 30
0.0
 40
3.15000000000009
100
AcDbArc
 50
0.0
 51
180.0
  0
LINE
  5
B5A
330
A33
100
AcDbEntity
  8
0
  6
Continuous
 62
     7
370
    15
100
AcDbLine
 10
3678.105405852828
 20
880.0434466475515
 30
0.0
 11
3678.105405852828
 21
868.3435317153005
 31
0.0
  0
ARC
  5
B5B
330
A33
100
AcDbEntity
  8
0
  6
Continuous
 62
     7
370
    15
100
AcDbCircle
 10
3681.255405809615
 20
868.3434847945243
 30
0.0
 40
3.15000000000009
100
AcDbArc
 50
180.0
 51
0.0
  0
LINE
  5
B5C
330
A33
100
AcDbEntity
  8
0
  6
Continuous
 62
     7
370
    15
100
AcDbLine
 10
3684.405405395362
 20
868.3435317153005
 30
0.0
 11
3684.405405395362
 21
880.0434466475515
 31
0.0
  0
ARC
  5
B5D
330
A33
100
AcDbEntity
  8
0
  6
Continuous
 62
     7
370
    15
100
AcDbCircle
 10
3681.255405809615
 20
880.0434847945242
 30
0.0
 40
3.15000000000009
100
AcDbArc
 50
0.0
 51
180.0
  0
LINE
  5
B5E
330
A33
100
AcDbEntity
  8
0
  6
Continuous
 62
     7
370
    15
100
AcDbLine
 10
3678.105405852828
 20
855.0434704894094
 30
0.0
 11
3678.105405852828
 21
843.3434363478689
 31
0.0
  0
ARC
  5
B5F
330
A33
100
AcDbEntity
  8
0
  6
Continuous
 62
     7
370
    15
100
AcDbCircle
 10
3681.255405809615
 20
843.3434847945241
 30
0.0
 40
3.15000000000009
100
AcDbArc
 50
180.0
 51
0.0
  0
LINE
  5
B60
330
A33
100
AcDbEntity
  8
0
  6
Continuous
 62
     7
370
    15
100
AcDbLine
 10
3684.405405395362
 20
843.3434363478689
 30
0.0
 11
3684.405405395362
 21
855.0434704894094
 31
0.0
  0
ARC
  5
B61
330
A33
100
AcDbEntity
  8
0
  6
Continuous
 62
     7
370
    15
100
AcDbCircle
 10
3681.255405809615
 20
855.0434847945243
 30
0.0
 40
3.15000000000009
100
AcDbArc
 50
0.0
 51
180.0
  0
LINE
  5
B62
330
A33
100
AcDbEntity
  8
0
  6
Continuous
 62
     7
370
    15
100
AcDbLine
 10
3678.105405852828
 20
830.0434943312673
 30
0.0
 11
3678.105405852828
 21
818.3434601897268
 31
0.0
  0
ARC
  5
B63
330
A33
100
AcDbEntity
  8
0
  6
Continuous
 62
     7
370
    15
100
AcDbCircle
 10
3681.255405809615
 20
818.3434847945241
 30
0.0
 40
3.15000000000009
100
AcDbArc
 50
180.0
 51
0.0
  0
LINE
  5
B64
330
A33
100
AcDbEntity
  8
0
  6
Continuous
 62
     7
370
    15
100
AcDbLine
 10
3684.405405395362
 20
818.3434601897268
 30
0.0
 11
3684.405405395362
 21
830.0434943312673
 31
0.0
  0
ARC
  5
B65
330
A33
100
AcDbEntity
  8
0
  6
Continuous
 62
     7
370
    15
100
AcDbCircle
 10
3681.255405809615
 20
830.0434847945243
 30
0.0
 40
3.15000000000009
100
AcDbArc
 50
0.0
 51
180.0
  0
LINE
  5
B66
330
A33
100
AcDbEntity
  8
0
  6
Continuous
 62
     7
370
    15
100
AcDbLine
 10
3678.105405852828
 20
805.0435181731252
 30
0.0
 11
3678.105405852828
 21
793.3434840315847
 31
0.0
  0
ARC
  5
B67
330
A33
100
AcDbEntity
  8
0
  6
Continuous
 62
     7
370
    15
100
AcDbCircle
 10
3681.255405809615
 20
793.3434847945241
 30
0.0
 40
3.15000000000009
100
AcDbArc
 50
180.0
 51
0.0
  0
LINE
  5
B68
330
A33
100
AcDbEntity
  8
0
  6
Continuous
 62
     7
370
    15
100
AcDbLine
 10
3684.405405395362
 20
793.3434840315847
 30
0.0
 11
3684.405405395362
 21
805.0435181731252
 31
0.0
  0
ARC
  5
B69
330
A33
100
AcDbEntity
  8
0
  6
Continuous
 62
     7
370
    15
100
AcDbCircle
 10
3681.255405809615
 20
805.0434847945243
 30
0.0
 40
3.15000000000009
100
AcDbArc
 50
0.0
 51
180.0
  0
LINE
  5
B6A
330
A33
100
AcDbEntity
  8
0
  6
Continuous
 62
     7
370
    15
100
AcDbLine
 10
3678.105405852828
 20
780.0435420149831
 30
0.0
 11
3678.105405852828
 21
768.3435078734426
 31
0.0
  0
ARC
  5
B6B
330
A33
100
AcDbEntity
  8
0
  6
Continuous
 62
     7
370
    15
100
AcDbCircle
 10
3681.255405809615
 20
768.3434847945243
 30
0.0
 40
3.15000000000009
100
AcDbArc
 50
180.0
 51
0.0
  0
LINE
  5
B6C
330
A33
100
AcDbEntity
  8
0
  6
Continuous
 62
     7
370
    15
100
AcDbLine
 10
3684.405405395362
 20
768.3435078734426
 30
0.0
 11
3684.405405395362
 21
780.0435420149831
 31
0.0
  0
ARC
  5
B6D
330
A33
100
AcDbEntity
  8
0
  6
Continuous
 62
     7
370
    15
100
AcDbCircle
 10
3681.255405809615
 20
780.0434847945241
 30
0.0
 40
3.15000000000009
100
AcDbArc
 50
0.0
 51
180.0
  0
LINE
  5
B6E
330
A33
100
AcDbEntity
  8
0
  6
Continuous
 62
     7
370
    15
100
AcDbLine
 10
3678.105405852828
 20
755.0434466475515
 30
0.0
 11
3678.105405852828
 21
743.3435317153005
 31
0.0
  0
ARC
  5
B6F
330
A33
100
AcDbEntity
  8
0
  6
Continuous
 62
     7
370
    15
100
AcDbCircle
 10
3681.255405809615
 20
743.3434847945243
 30
0.0
 40
3.15000000000009
100
AcDbArc
 50
180.0
 51
0.0
  0
LINE
  5
B70
330
A33
100
AcDbEntity
  8
0
  6
Continuous
 62
     7
370
    15
100
AcDbLine
 10
3684.405405395362
 20
743.3435317153005
 30
0.0
 11
3684.405405395362
 21
755.0434466475515
 31
0.0
  0
ARC
  5
B71
330
A33
100
AcDbEntity
  8
0
  6
Continuous
 62
     7
370
    15
100
AcDbCircle
 10
3681.255405809615
 20
755.0434847945241
 30
0.0
 40
3.15000000000009
100
AcDbArc
 50
0.0
 51
180.0
  0
LINE
  5
B72
330
A33
100
AcDbEntity
  8
0
  6
Continuous
 62
     7
370
    15
100
AcDbLine
 10
3678.105405852828
 20
730.0434704894094
 30
0.0
 11
3678.105405852828
 21
718.3434363478689
 31
0.0
  0
ARC
  5
B73
330
A33
100
AcDbEntity
  8
0
  6
Continuous
 62
     7
370
    15
100
AcDbCircle
 10
3681.255405809615
 20
718.3434847945241
 30
0.0
 40
3.15000000000009
100
AcDbArc
 50
180.0
 51
0.0
  0
LINE
  5
B74
330
A33
100
AcDbEntity
  8
0
  6
Continuous
 62
     7
370
    15
100
AcDbLine
 10
3684.405405395362
 20
718.3434363478689
 30
0.0
 11
3684.405405395362
 21
730.0434704894094
 31
0.0
  0
ARC
  5
B75
330
A33
100
AcDbEntity
  8
0
  6
Continuous
 62
     7
370
    15
100
AcDbCircle
 10
3681.255405809615
 20
730.0434847945243
 30
0.0
 40
3.15000000000009
100
AcDbArc
 50
0.0
 51
180.0
  0
LINE
  5
B76
330
A33
100
AcDbEntity
  8
0
  6
Continuous
 62
     7
370
    15
100
AcDbLine
 10
3678.105405852828
 20
705.0434943312673
 30
0.0
 11
3678.105405852828
 21
693.3434601897268
 31
0.0
  0
ARC
  5
B77
330
A33
100
AcDbEntity
  8
0
  6
Continuous
 62
     7
370
    15
100
AcDbCircle
 10
3681.255405809615
 20
693.3434847945241
 30
0.0
 40
3.15000000000009
100
AcDbArc
 50
180.0
 51
0.0
  0
LINE
  5
B78
330
A33
100
AcDbEntity
  8
0
  6
Continuous
 62
     7
370
    15
100
AcDbLine
 10
3684.405405395362
 20
693.3434601897268
 30
0.0
 11
3684.405405395362
 21
705.0434943312673
 31
0.0
  0
ARC
  5
B79
330
A33
100
AcDbEntity
  8
0
  6
Continuous
 62
     7
370
    15
100
AcDbCircle
 10
3681.255405809615
 20
705.0434847945243
 30
0.0
 40
3.15000000000009
100
AcDbArc
 50
0.0
 51
180.0
  0
LINE
  5
B7A
330
A33
100
AcDbEntity
  8
0
  6
Continuous
 62
     7
370
    15
100
AcDbLine
 10
3678.105405852828
 20
680.0435181731252
 30
0.0
 11
3678.105405852828
 21
668.3434840315847
 31
0.0
  0
ARC
  5
B7B
330
A33
100
AcDbEntity
  8
0
  6
Continuous
 62
     7
370
    15
100
AcDbCircle
 10
3681.255405809615
 20
668.3434847945241
 30
0.0
 40
3.15000000000009
100
AcDbArc
 50
180.0
 51
0.0
  0
LINE
  5
B7C
330
A33
100
AcDbEntity
  8
0
  6
Continuous
 62
     7
370
    15
100
AcDbLine
 10
3684.405405395362
 20
668.3434840315847
 30
0.0
 11
3684.405405395362
 21
680.0435181731252
 31
0.0
  0
ARC
  5
B7D
330
A33
100
AcDbEntity
  8
0
  6
Continuous
 62
     7
370
    15
100
AcDbCircle
 10
3681.255405809615
 20
680.0434847945243
 30
0.0
 40
3.15000000000009
100
AcDbArc
 50
0.0
 51
180.0
  0
LINE
  5
B7E
330
A33
100
AcDbEntity
  8
0
  6
Continuous
 62
     7
370
    15
100
AcDbLine
 10
3678.105405852828
 20
655.0435420149831
 30
0.0
 11
3678.105405852828
 21
643.3435078734426
 31
0.0
  0
ARC
  5
B7F
330
A33
100
AcDbEntity
  8
0
  6
Continuous
 62
     7
370
    15
100
AcDbCircle
 10
3681.255405809615
 20
643.3434847945243
 30
0.0
 40
3.15000000000009
100
AcDbArc
 50
180.0
 51
0.0
  0
LINE
  5
B80
330
A33
100
AcDbEntity
  8
0
  6
Continuous
 62
     7
370
    15
100
AcDbLine
 10
3684.405405395362
 20
643.3435078734426
 30
0.0
 11
3684.405405395362
 21
655.0435420149831
 31
0.0
  0
ARC
  5
B81
330
A33
100
AcDbEntity
  8
0
  6
Continuous
 62
     7
370
    15
100
AcDbCircle
 10
3681.255405809615
 20
655.0434847945241
 30
0.0
 40
3.15000000000009
100
AcDbArc
 50
0.0
 51
180.0
  0
LINE
  5
B82
330
A33
100
AcDbEntity
  8
0
  6
Continuous
 62
     7
370
    15
100
AcDbLine
 10
3678.105405852828
 20
630.0434466475515
 30
0.0
 11
3678.105405852828
 21
618.3435317153005
 31
0.0
  0
ARC
  5
B83
330
A33
100
AcDbEntity
  8
0
  6
Continuous
 62
     7
370
    15
100
AcDbCircle
 10
3681.255405809615
 20
618.3434847945243
 30
0.0
 40
3.15000000000009
100
AcDbArc
 50
180.0
 51
0.0
  0
LINE
  5
B84
330
A33
100
AcDbEntity
  8
0
  6
Continuous
 62
     7
370
    15
100
AcDbLine
 10
3684.405405395362
 20
618.3435317153005
 30
0.0
 11
3684.405405395362
 21
630.0434466475515
 31
0.0
  0
ARC
  5
B85
330
A33
100
AcDbEntity
  8
0
  6
Continuous
 62
     7
370
    15
100
AcDbCircle
 10
3681.255405809615
 20
630.0434847945241
 30
0.0
 40
3.15000000000009
100
AcDbArc
 50
0.0
 51
180.0
  0
LINE
  5
B86
330
A33
100
AcDbEntity
  8
0
  6
Continuous
 62
     7
370
    15
100
AcDbLine
 10
3678.105405852828
 20
605.0434704894094
 30
0.0
 11
3678.105405852828
 21
593.3434363478689
 31
0.0
  0
ARC
  5
B87
330
A33
100
AcDbEntity
  8
0
  6
Continuous
 62
     7
370
    15
100
AcDbCircle
 10
3681.255405809615
 20
593.3434847945241
 30
0.0
 40
3.15000000000009
100
AcDbArc
 50
180.0
 51
0.0
  0
LINE
  5
B88
330
A33
100
AcDbEntity
  8
0
  6
Continuous
 62
     7
370
    15
100
AcDbLine
 10
3684.405405395362
 20
593.3434363478689
 30
0.0
 11
3684.405405395362
 21
605.0434704894094
 31
0.0
  0
ARC
  5
B89
330
A33
100
AcDbEntity
  8
0
  6
Continuous
 62
     7
370
    15
100
AcDbCircle
 10
3681.255405809615
 20
605.0434847945243
 30
0.0
 40
3.15000000000009
100
AcDbArc
 50
0.0
 51
180.0
  0
LINE
  5
B8A
330
A33
100
AcDbEntity
  8
0
  6
Continuous
 62
     7
370
    15
100
AcDbLine
 10
3670.455405809614
 20
590.0434847945241
 30
0.0
 11
3692.055406369898
 21
590.0434847945241
 31
0.0
  0
LINE
  5
B8B
330
A33
100
AcDbEntity
  8
0
  6
Continuous
 62
     7
370
    15
100
AcDbLine
 10
3692.055406369898
 20
2590.043484794525
 30
0.0
 11
3670.455405809614
 21
2590.043484794525
 31
0.0
  0
ENDBLK
  5
A35
330
A33
100
AcDbEntity
  8
0
100
AcDbBlockEnd
  0
BLOCK
  5
B8E
330
B8D
100
AcDbEntity
  8
0
100
AcDbBlockBegin
  2
4
 70
     0
 10
0.0
 20
0.0
 30
0.0
  3
4
  1

  0
LINE
  5
B90
330
B8D
100
AcDbEntity
  8
0
  6
Continuous
 62
     7
370
    15
100
AcDbLine
 10
3313.293167877248
 20
2359.302348150156
 30
0.0
 11
1899.079605504151
 21
1542.894236327448
 31
0.0
  0
LINE
  5
B91
330
B8D
100
AcDbEntity
  8
0
  6
Continuous
 62
     7
370
    15
100
AcDbLine
 10
1899.021669392516
 20
1531.97077690142
 30
0.0
 11
3313.235231765614
 21
2348.378888724128
 31
0.0
  0
LINE
  5
B92
330
B8D
100
AcDbEntity
  8
0
  6
Continuous
 62
     7
370
    15
100
AcDbLine
 10
3316.622957253338
 20
2358.025704996086
 30
0.0
 11
3314.643057678067
 21
2359.168676692053
 31
0.0
  0
LINE
  5
B93
330
B8D
100
AcDbEntity
  8
0
  6
Continuous
 62
     7
370
    15
100
AcDbLine
 10
3316.622957253338
 20
2358.025704996086
 30
0.0
 11
1902.40939488024
 21
1541.617593173378
 31
0.0
  0
LINE
  5
B94
330
B8D
100
AcDbEntity
  8
0
  6
Continuous
 62
     7
370
    15
100
AcDbLine
 10
1902.40939488024
 20
1541.617593173378
 30
0.0
 11
1900.429495304969
 21
1542.760564869346
 31
0.0
  0
LINE
  5
B95
330
B8D
100
AcDbEntity
  8
0
  6
Continuous
 62
     7
370
    15
100
AcDbLine
 10
1900.429495304969
 20
1542.760564869346
 30
0.0
 11
3314.643057678067
 21
2359.168676692053
 31
0.0
  0
LINE
  5
B96
330
B8D
100
AcDbEntity
  8
0
  6
Continuous
 62
     7
370
    15
100
AcDbLine
 10
3316.622957253338
 20
2357.209164810821
 30
0.0
 11
3316.622957253338
 21
2358.025704996086
 31
0.0
  0
LINE
  5
B97
330
B8D
100
AcDbEntity
  8
0
  6
Continuous
 62
     7
370
    15
100
AcDbLine
 10
3316.622957253338
 20
2357.209164810821
 30
0.0
 11
1902.40939488024
 21
1540.801052988114
 31
0.0
  0
LINE
  5
B98
330
B8D
100
AcDbEntity
  8
0
  6
Continuous
 62
     7
370
    15
100
AcDbLine
 10
1902.40939488024
 20
1541.617593173378
 30
0.0
 11
1902.40939488024
 21
1540.801052988114
 31
0.0
  0
LINE
  5
B99
330
B8D
100
AcDbEntity
  8
0
  6
Continuous
 62
     7
370
    15
100
AcDbLine
 10
1880.489084363161
 20
1552.067258830709
 30
0.0
 11
1880.489084363161
 21
1544.228467424746
 31
0.0
  0
ARC
  5
B9A
330
B8D
100
AcDbEntity
  8
0
  6
Continuous
 62
     7
370
    15
100
AcDbCircle
 10
1878.646823769791
 20
1551.983425734037
 30
0.0
 40
1.844167042862656
100
AcDbArc
 50
2.605478985004395
 51
57.39449548599459
  0
LINE
  5
B9B
330
B8D
100
AcDbEntity
  8
0
  6
Continuous
 62
     7
370
    15
100
AcDbLine
 10
1878.980136636601
 20
1553.918205402582
 30
0.0
 11
1879.640556350071
 21
1553.536953217177
 31
0.0
  0
LINE
  5
B9C
330
B8D
100
AcDbEntity
  8
0
  6
Continuous
 62
     7
370
    15
100
AcDbLine
 10
1877.660657433344
 20
1555.088195005838
 30
0.0
 11
1878.980136636601
 21
1553.918205402582
 31
0.0
  0
LINE
  5
B9D
330
B8D
100
AcDbEntity
  8
0
  6
Continuous
 62
     7
370
    15
100
AcDbLine
 10
1877.660657433344
 20
1555.904735191103
 30
0.0
 11
1877.660657433344
 21
1555.088195005838
 31
0.0
  0
LINE
  5
B9E
330
B8D
100
AcDbEntity
  8
0
  6
Continuous
 62
     7
370
    15
100
AcDbLine
 10
1879.640556350071
 20
1554.761763875305
 30
0.0
 11
1877.660657433344
 21
1555.904735191103
 31
0.0
  0
ARC
  5
B9F
330
B8D
100
AcDbEntity
  8
0
  6
Continuous
 62
     7
370
    15
100
AcDbCircle
 10
1877.40466219788
 20
1551.266329159366
 30
0.0
 40
4.149371821516055
100
AcDbArc
 50
2.605469276124117
 51
57.39452801677267
  0
LINE
  5
BA0
330
B8D
100
AcDbEntity
  8
0
  6
Continuous
 62
     7
370
    15
100
AcDbLine
 10
1881.549744544161
 20
1543.616161335557
 30
0.0
 11
1881.549744544161
 21
1551.45495274152
 31
0.0
  0
ARC
  5
BA1
330
B8D
100
AcDbEntity
  8
0
  6
Continuous
 62
     7
370
    15
100
AcDbCircle
 10
1883.392003967451
 20
1543.699994370419
 30
0.0
 40
1.844165871183375
100
AcDbArc
 50
182.6054787191757
 51
237.3945214264832
  0
LINE
  5
BA2
330
B8D
100
AcDbEntity
  8
0
  6
Continuous
 62
     7
370
    15
100
AcDbLine
 10
1882.398272721887
 20
1542.146467424394
 30
0.0
 11
1897.671779591697
 21
1533.329259587998
 31
0.0
  0
ARC
  5
BA3
330
B8D
100
AcDbEntity
  8
0
  6
Continuous
 62
     7
370
    15
100
AcDbCircle
 10
1898.003018568712
 20
1533.735350808487
 30
0.0
 40
0.524050893761637
100
AcDbArc
 50
230.7966906397947
 51
9.214080368903882
  0
LINE
  5
BA4
330
B8D
100
AcDbEntity
  8
0
  6
Continuous
 62
     7
370
    15
100
AcDbLine
 10
1898.520307604788
 20
1541.658055219447
 30
0.0
 11
1898.520307604788
 21
1533.819263813484
 31
0.0
  0
ARC
  5
BA5
330
B8D
100
AcDbEntity
  8
0
  6
Continuous
 62
     7
370
    15
100
AcDbCircle
 10
1899.684207904272
 20
1541.846859431119
 30
0.0
 40
1.179114471747243
100
AcDbArc
 50
50.79670774610185
 51
189.2140782378096
  0
LINE
  5
BA6
330
B8D
100
AcDbEntity
  8
0
  6
Continuous
 62
     7
370
    15
100
AcDbLine
 10
1901.089915347711
 20
1541.154501835728
 30
0.0
 11
1902.40939488024
 21
1540.801052988114
 31
0.0
  0
LINE
  5
BA7
330
B8D
100
AcDbEntity
  8
0
  6
Continuous
 62
     7
370
    15
100
AcDbLine
 10
1901.089915347711
 20
1541.154501835728
 30
0.0
 11
1900.429495304969
 21
1541.535754211218
 31
0.0
  0
ARC
  5
BA8
330
B8D
100
AcDbEntity
  8
0
  6
Continuous
 62
     7
370
    15
100
AcDbCircle
 10
1900.09825655139
 20
1541.12966250614
 30
0.0
 40
0.5240511280453975
100
AcDbArc
 50
50.79674305783594
 51
189.2140857125127
  0
LINE
  5
BA9
330
B8D
100
AcDbEntity
  8
0
  6
Continuous
 62
     7
370
    15
100
AcDbLine
 10
1899.580967291879
 20
1533.206958009422
 30
0.0
 11
1899.580967291879
 21
1541.045749415385
 31
0.0
  0
ARC
  5
BAA
330
B8D
100
AcDbEntity
  8
0
  6
Continuous
 62
     7
370
    15
100
AcDbCircle
 10
1898.417066853465
 20
1533.018154038332
 30
0.0
 40
1.179114570362231
100
AcDbArc
 50
230.796720366674
 51
9.21406561723786
  0
LINE
  5
BAB
330
B8D
100
AcDbEntity
  8
0
  6
Continuous
 62
     7
370
    15
100
AcDbLine
 10
1882.398272721887
 20
1540.921656195919
 30
0.0
 11
1897.671779591697
 21
1532.104448359523
 31
0.0
  0
ARC
  5
BAC
330
B8D
100
AcDbEntity
  8
0
  6
Continuous
 62
     7
370
    15
100
AcDbCircle
 10
1884.63416821395
 20
1544.417091886383
 30
0.0
 40
4.149373364448629
100
AcDbArc
 50
182.6054804633487
 51
237.3945196822705
  0
ARC
  5
BAD
330
B8D
100
AcDbEntity
  8
0
  6
Continuous
 62
     7
370
    15
100
AcDbCircle
 10
3313.852174004937
 20
2358.064697281991
 30
0.0
 40
1.358038115173699
100
AcDbArc
 50
54.38243442763127
 51
114.3071264686764
  0
LINE
  5
BAE
330
B8D
100
AcDbEntity
  8
0
  6
Continuous
 62
     7
370
    15
100
AcDbLine
 10
3313.794529664977
 20
2349.61506983213
 30
0.0
 11
3313.794529664977
 21
2355.576348322296
 31
0.0
  0
LINE
  5
BAF
330
B8D
100
AcDbEntity
  8
0
  6
Continuous
 62
     7
370
    15
100
AcDbLine
 10
1899.580967291879
 20
1533.206958009422
 30
0.0
 11
3313.794529664977
 21
2349.61506983213
 31
0.0
  0
ARC
  5
BB0
330
B8D
100
AcDbEntity
  8
0
  6
Continuous
 62
     7
370
    15
100
AcDbCircle
 10
3312.46969818668
 20
2349.469861761869
 30
0.0
 40
1.332765481829168
100
AcDbArc
 50
305.0572615487439
 51
6.254932682853989
  0
ARC
  5
BB1
330
B8D
100
AcDbEntity
  8
0
  6
Continuous
 62
     7
370
    15
100
AcDbCircle
 10
3297.174905053152
 20
2347.165601320389
 30
0.0
 40
4.738875072259517
100
AcDbArc
 50
61.16444568185892
 51
118.0000495610434
  0
LINE
  5
BB2
330
B8D
100
AcDbEntity
  8
0
  6
Continuous
 62
     7
370
    15
100
AcDbLine
 10
3286.676984573809
 20
2346.573790029096
 30
0.0
 11
3294.950134347804
 21
2351.349777733867
 31
0.0
  0
LWPOLYLINE
  5
BB3
330
B8D
100
AcDbEntity
  8
0
  6
Continuous
 62
     7
370
    15
100
AcDbPolyline
 90
        6
 70
   128
 43
0.0
 10
3286.733950649383
 20
2343.9700388741
 10
3286.324042254567
 20
2344.244923582567
 10
3285.861704497293
 20
2344.817296366349
 10
3285.766357789249
 20
2345.446436082616
 10
3286.049501634634
 20
2346.056460108425
 10
3286.676984573809
 20
2346.573790029096
  0
LINE
  5
BB4
330
B8D
100
AcDbEntity
  8
0
  6
Continuous
 62
     7
370
    15
100
AcDbLine
 10
3304.30484403594
 20
2354.113499716524
 30
0.0
 11
3296.611835094985
 21
2358.554579247101
 31
0.0
  0
LINE
  5
BB5
330
B8D
100
AcDbEntity
  8
0
  6
Continuous
 62
     7
370
    15
100
AcDbLine
 10
3296.611835094985
 20
2358.554579247101
 30
0.0
 11
1882.398272721887
 21
1542.146467424394
 31
0.0
  0
LINE
  5
BB6
330
B8D
100
AcDbEntity
  8
0
  6
Continuous
 62
     7
370
    15
100
AcDbLine
 10
3277.272464554722
 20
2341.144676184015
 30
0.0
 11
3268.999314780727
 21
2336.368688479245
 31
0.0
  0
LWPOLYLINE
  5
BB7
330
B8D
100
AcDbEntity
  8
0
  6
Continuous
 62
     7
370
    15
100
AcDbPolyline
 90
        6
 70
   128
 43
0.0
 10
3268.999314780727
 20
2336.368688479245
 10
3268.371833158641
 20
2335.851359318913
 10
3268.088687996168
 20
2335.241334532764
 10
3268.1840360213
 20
2334.612195576837
 10
3268.646373778575
 20
2334.039822793054
 10
3269.056280856301
 20
2333.764937324247
  0
ARC
  5
BB8
330
B8D
100
AcDbEntity
  8
0
  6
Continuous
 62
     7
370
    15
100
AcDbCircle
 10
3279.497082535338
 20
2336.939506562219
 30
0.0
 40
4.757349756718543
100
AcDbArc
 50
61.284773528509
 51
117.8797266045285
  0
LINE
  5
BB9
330
B8D
100
AcDbEntity
  8
0
  6
Continuous
 62
     7
370
    15
100
AcDbLine
 10
3259.59479607873
 20
2330.939575394503
 30
0.0
 11
3251.321646304735
 21
2326.163587689732
 31
0.0
  0
LWPOLYLINE
  5
BBA
330
B8D
100
AcDbEntity
  8
0
  6
Continuous
 62
     7
370
    15
100
AcDbPolyline
 90
        6
 70
   128
 43
0.0
 10
3251.321646304735
 20
2326.163587689732
 10
3250.694164682649
 20
2325.6462585294
 10
3250.411016885997
 20
2325.036232222573
 10
3250.506367545308
 20
2324.407094787324
 10
3250.968702668404
 20
2323.834720482864
 10
3251.378612380309
 20
2323.559836534735
  0
ARC
  5
BBB
330
B8D
100
AcDbEntity
  8
0
  6
Continuous
 62
     7
370
    15
100
AcDbCircle
 10
3261.819413919749
 20
2326.73438662702
 30
0.0
 40
4.757366614919243
100
AcDbArc
 50
61.28488283907104
 51
117.8796172939663
  0
LINE
  5
BBC
330
B8D
100
AcDbEntity
  8
0
  6
Continuous
 62
     7
370
    15
100
AcDbLine
 10
3241.917124968559
 20
2320.734473084312
 30
0.0
 11
3233.643977828742
 21
2315.95848690022
 31
0.0
  0
LWPOLYLINE
  5
BBD
330
B8D
100
AcDbEntity
  8
0
  6
Continuous
 62
     7
370
    15
100
AcDbPolyline
 90
        6
 70
   128
 43
0.0
 10
3233.643977828742
 20
2315.95848690022
 10
3233.0164909383
 20
2315.44115469853
 10
3232.733348410004
 20
2314.831131433061
 10
3232.828693800959
 20
2314.201990956455
 10
3233.291034192411
 20
2313.629619693351
 10
3233.700943904316
 20
2313.354735745223
  0
ARC
  5
BBE
330
B8D
100
AcDbEntity
  8
0
  6
Continuous
 62
     7
370
    15
100
AcDbCircle
 10
3244.141742956676
 20
2316.529304491295
 30
0.0
 40
4.7573488508568
100
AcDbArc
 50
61.28476765476569
 51
117.8797324782895
  0
LINE
  5
BBF
330
B8D
100
AcDbEntity
  8
0
  6
Continuous
 62
     7
370
    15
100
AcDbLine
 10
3224.239456492568
 20
2310.529372294799
 30
0.0
 11
3215.96630935275
 21
2305.753386110707
 31
0.0
  0
LWPOLYLINE
  5
BC0
330
B8D
100
AcDbEntity
  8
0
  6
Continuous
 62
     7
370
    15
100
AcDbPolyline
 90
        6
 70
   128
 43
0.0
 10
3215.96630935275
 20
2305.753386110707
 10
3215.338822462308
 20
2305.236053909018
 10
3215.055679934012
 20
2304.626030643548
 10
3215.151025324966
 20
2303.996890166942
 10
3215.613365716419
 20
2303.424518903838
 10
3216.023275428324
 20
2303.149634955711
  0
ARC
  5
BC1
330
B8D
100
AcDbEntity
  8
0
  6
Continuous
 62
     7
370
    15
100
AcDbCircle
 10
3226.464074420084
 20
2306.324195390532
 30
0.0
 40
4.757356169094232
100
AcDbArc
 50
61.28481510720068
 51
117.8796850258402
  0
LINE
  5
BC2
330
B8D
100
AcDbEntity
  8
0
  6
Continuous
 62
     7
370
    15
100
AcDbLine
 10
3206.561782748219
 20
2300.32426846393
 30
0.0
 11
3198.288640876758
 21
2295.548285321195
 31
0.0
  0
LWPOLYLINE
  5
BC3
330
B8D
100
AcDbEntity
  8
0
  6
Continuous
 62
     7
370
    15
100
AcDbPolyline
 90
        6
 70
   128
 43
0.0
 10
3198.288640876758
 20
2295.548285321195
 10
3197.661153986315
 20
2295.030953119505
 10
3197.378011458019
 20
2294.420929854036
 10
3197.473356848974
 20
2293.79178937743
 10
3197.93569197207
 20
2293.219415072968
 10
3198.345601683975
 20
2292.944531124841
  0
ARC
  5
BC4
330
B8D
100
AcDbEntity
  8
0
  6
Continuous
 62
     7
370
    15
100
AcDbCircle
 10
3208.786406191578
 20
2296.119096027154
 30
0.0
 40
4.757354799441166
100
AcDbArc
 50
61.28480946905023
 51
117.8797689060245
  0
LINE
  5
BC5
330
B8D
100
AcDbEntity
  8
0
  6
Continuous
 62
     7
370
    15
100
AcDbLine
 10
3188.884119540582
 20
2290.119170715775
 30
0.0
 11
3180.610967132408
 21
2285.343181490326
 31
0.0
  0
LWPOLYLINE
  5
BC6
330
B8D
100
AcDbEntity
  8
0
  6
Continuous
 62
     7
370
    15
100
AcDbPolyline
 90
        6
 70
   128
 43
0.0
 10
3180.610967132408
 20
2285.343181490326
 10
3179.983480241967
 20
2284.825849288636
 10
3179.700337713671
 20
2284.215826023166
 10
3179.795683104626
 20
2283.58668554656
 10
3180.258028764435
 20
2283.014317324814
 10
3180.667938476338
 20
2282.739433376686
  0
ARC
  5
BC7
330
B8D
100
AcDbEntity
  8
0
  6
Continuous
 62
     7
370
    15
100
AcDbCircle
 10
3191.108732073455
 20
2285.914005966442
 30
0.0
 40
4.757342902340583
100
AcDbArc
 50
61.28472584078882
 51
117.8796960500102
  0
LINE
  5
BC8
330
B8D
100
AcDbEntity
  8
0
  6
Continuous
 62
     7
370
    15
100
AcDbLine
 10
3171.206445796233
 20
2279.914066884905
 30
0.0
 11
3162.93329338806
 21
2275.138077659455
 31
0.0
  0
LWPOLYLINE
  5
BC9
330
B8D
100
AcDbEntity
  8
0
  6
Continuous
 62
     7
370
    15
100
AcDbPolyline
 90
        6
 70
   128
 43
0.0
 10
3162.93329338806
 20
2275.138077659455
 10
3162.30581703433
 20
2274.620751540481
 10
3162.022674506034
 20
2274.010728275011
 10
3162.118019896989
 20
2273.381587798406
 10
3162.580355020085
 20
2272.809213493944
 10
3162.99026473199
 20
2272.534329545816
  0
ARC
  5
BCA
330
B8D
100
AcDbEntity
  8
0
  6
Continuous
 62
     7
370
    15
100
AcDbCircle
 10
3173.431069239593
 20
2275.708894448129
 30
0.0
 40
4.757354799441166
100
AcDbArc
 50
61.28480946905023
 51
117.8797689060245
  0
LINE
  5
BCB
330
B8D
100
AcDbEntity
  8
0
  6
Continuous
 62
     7
370
    15
100
AcDbLine
 10
3153.528782588597
 20
2269.70896913675
 30
0.0
 11
3145.255630180424
 21
2264.9329799113
 31
0.0
  0
LWPOLYLINE
  5
BCC
330
B8D
100
AcDbEntity
  8
0
  6
Continuous
 62
     7
370
    15
100
AcDbPolyline
 90
        6
 70
   128
 43
0.0
 10
3145.255630180424
 20
2264.9329799113
 10
3144.628143289982
 20
2264.415647709611
 10
3144.345000761686
 20
2263.805624444142
 10
3144.440346152641
 20
2263.176483967535
 10
3144.902681275737
 20
2262.604109663074
 10
3145.312590987642
 20
2262.329225714946
  0
ARC
  5
BCD
330
B8D
100
AcDbEntity
  8
0
  6
Continuous
 62
     7
370
    15
100
AcDbCircle
 10
3155.753395000261
 20
2265.503787764926
 30
0.0
 40
4.757357538809
100
AcDbArc
 50
61.28482074561938
 51
117.8796011451926
  0
LINE
  5
BCE
330
B8D
100
AcDbEntity
  8
0
  6
Continuous
 62
     7
370
    15
100
AcDbLine
 10
3135.851108844248
 20
2259.50386530588
 30
0.0
 11
3127.577956436075
 21
2254.727876080431
 31
0.0
  0
LWPOLYLINE
  5
BCF
330
B8D
100
AcDbEntity
  8
0
  6
Continuous
 62
     7
370
    15
100
AcDbPolyline
 90
        6
 70
   128
 43
0.0
 10
3127.577956436075
 20
2254.727876080431
 10
3126.950480082345
 20
2254.210549961456
 10
3126.667337554049
 20
2253.600526695986
 10
3126.762682945004
 20
2252.97138621938
 10
3127.2250180681
 20
2252.399011914919
 10
3127.634927780005
 20
2252.124127966791
  0
ARC
  5
BD0
330
B8D
100
AcDbEntity
  8
0
  6
Continuous
 62
     7
370
    15
100
AcDbCircle
 10
3138.075721468325
 20
2255.298713063899
 30
0.0
 40
4.757331889352081
100
AcDbArc
 50
61.28465443066831
 51
117.879767460145
  0
LINE
  5
BD1
330
B8D
100
AcDbEntity
  8
0
  6
Continuous
 62
     7
370
    15
100
AcDbLine
 10
3118.173445636612
 20
2249.298767557725
 30
0.0
 11
3109.900293228438
 21
2244.522778332276
 31
0.0
  0
LWPOLYLINE
  5
BD2
330
B8D
100
AcDbEntity
  8
0
  6
Continuous
 62
     7
370
    15
100
AcDbPolyline
 90
        6
 70
   128
 43
0.0
 10
3109.900293228438
 20
2244.522778332276
 10
3109.272816874709
 20
2244.005452213301
 10
3108.989653272989
 20
2243.395416782402
 10
3109.085009200656
 20
2242.76628238851
 10
3109.547344323752
 20
2242.19390808405
 10
3109.957254035656
 20
2241.919024135921
  0
ARC
  5
BD3
330
B8D
100
AcDbEntity
  8
0
  6
Continuous
 62
     7
370
    15
100
AcDbCircle
 10
3120.39804722899
 20
2245.093606380763
 30
0.0
 40
4.757334628659299
100
AcDbArc
 50
61.28466570695575
 51
117.8795996988733
  0
LINE
  5
BD4
330
B8D
100
AcDbEntity
  8
0
  6
Continuous
 62
     7
370
    15
100
AcDbLine
 10
3100.495771892263
 20
2239.093663726855
 30
0.0
 11
3092.22261948409
 21
2234.317674501406
 31
0.0
  0
LWPOLYLINE
  5
BD5
330
B8D
100
AcDbEntity
  8
0
  6
Continuous
 62
     7
370
    15
100
AcDbPolyline
 90
        6
 70
   128
 43
0.0
 10
3092.22261948409
 20
2234.317674501406
 10
3091.59514313036
 20
2233.800348382431
 10
3091.312000602064
 20
2233.190325116962
 10
3091.407335456306
 20
2232.561178557642
 10
3091.869670579403
 20
2231.98880425318
 10
3092.279580291308
 20
2231.713920305052
  0
ARC
  5
BD6
330
B8D
100
AcDbEntity
  8
0
  6
Continuous
 62
     7
370
    15
100
AcDbCircle
 10
3102.720395123248
 20
2234.888462159989
 30
0.0
 40
4.757380449134826
100
AcDbArc
 50
61.284975784171
 51
117.8796025908912
  0
LINE
  5
BD7
330
B8D
100
AcDbEntity
  8
0
  6
Continuous
 62
     7
370
    15
100
AcDbLine
 10
3082.818098147915
 20
2228.888559895986
 30
0.0
 11
3074.544945739742
 21
2224.112570670536
 31
0.0
  0
LWPOLYLINE
  5
BD8
330
B8D
100
AcDbEntity
  8
0
  6
Continuous
 62
     7
370
    15
100
AcDbPolyline
 90
        6
 70
   128
 43
0.0
 10
3074.544945739742
 20
2224.112570670536
 10
3073.917469386012
 20
2223.595244551562
 10
3073.634326857716
 20
2222.985221286092
 10
3073.729661711958
 20
2222.356074726771
 10
3074.192017908479
 20
2221.783712587739
 10
3074.60190654696
 20
2221.508816474182
  0
ARC
  5
BD9
330
B8D
100
AcDbEntity
  8
0
  6
Continuous
 62
     7
370
    15
100
AcDbCircle
 10
3085.042721378899
 20
2224.683358329121
 30
0.0
 40
4.757380449133365
100
AcDbArc
 50
61.284975784171
 51
117.8796025908912
  0
LINE
  5
BDA
330
B8D
100
AcDbEntity
  8
0
  6
Continuous
 62
     7
370
    15
100
AcDbLine
 10
3065.140424403566
 20
2218.683456065116
 30
0.0
 11
3056.867271995393
 21
2213.907466839667
 31
0.0
  0
LWPOLYLINE
  5
BDB
330
B8D
100
AcDbEntity
  8
0
  6
Continuous
 62
     7
370
    15
100
AcDbPolyline
 90
        6
 70
   128
 43
0.0
 10
3056.867271995393
 20
2213.907466839667
 10
3056.239795641663
 20
2213.390140720692
 10
3055.956653113367
 20
2212.780117455222
 10
3056.052009041034
 20
2212.150983061331
 10
3056.51434416413
 20
2211.57860875687
 10
3056.924253876035
 20
2211.303724808741
  0
ARC
  5
BDC
330
B8D
100
AcDbEntity
  8
0
  6
Continuous
 62
     7
370
    15
100
AcDbCircle
 10
3067.365048059296
 20
2214.47831275786
 30
0.0
 40
4.757329150289126
100
AcDbArc
 50
61.28464315536028
 51
117.8799352197031
  0
LINE
  5
BDD
330
B8D
100
AcDbEntity
  8
0
  6
Continuous
 62
     7
370
    15
100
AcDbLine
 10
3047.462750659218
 20
2208.478352234246
 30
0.0
 11
3039.189619324468
 21
2203.702375174227
 31
0.0
  0
LWPOLYLINE
  5
BDE
330
B8D
100
AcDbEntity
  8
0
  6
Continuous
 62
     7
370
    15
100
AcDbPolyline
 90
        6
 70
   128
 43
0.0
 10
3039.189619324468
 20
2203.702375174227
 10
3038.562121897315
 20
2203.185036889822
 10
3038.278979369018
 20
2202.575013624353
 10
3038.374335296686
 20
2201.945879230461
 10
3038.836670419782
 20
2201.373504926
 10
3039.246580131687
 20
2201.098620977872
  0
ARC
  5
BDF
330
B8D
100
AcDbEntity
  8
0
  6
Continuous
 62
     7
370
    15
100
AcDbCircle
 10
3049.687374314947
 20
2204.273208926989
 30
0.0
 40
4.757329150290853
100
AcDbArc
 50
61.28464315536028
 51
117.8799352197031
  0
LINE
  5
BE0
330
B8D
100
AcDbEntity
  8
0
  6
Continuous
 62
     7
370
    15
100
AcDbLine
 10
3029.785097988293
 20
2198.273260568806
 30
0.0
 11
3021.51194558012
 21
2193.497271343356
 31
0.0
  0
LWPOLYLINE
  5
BE1
330
B8D
100
AcDbEntity
  8
0
  6
Continuous
 62
     7
370
    15
100
AcDbPolyline
 90
        6
 70
   128
 43
0.0
 10
3021.51194558012
 20
2193.497271343356
 10
3020.88446922639
 20
2192.979945224382
 10
3020.60130562467
 20
2192.369909793483
 10
3020.696661552337
 20
2191.740775399591
 10
3021.158996675433
 20
2191.168401095131
 10
3021.568906387338
 20
2190.893517147003
  0
ARC
  5
BE2
330
B8D
100
AcDbEntity
  8
0
  6
Continuous
 62
     7
370
    15
100
AcDbCircle
 10
3032.009699580672
 20
2194.068099391845
 30
0.0
 40
4.75733462865823
100
AcDbArc
 50
61.28466570695575
 51
117.8795996988764
  0
LINE
  5
BE3
330
B8D
100
AcDbEntity
  8
0
  6
Continuous
 62
     7
370
    15
100
AcDbLine
 10
3012.107424243945
 20
2188.068156737936
 30
0.0
 11
3003.834271835771
 21
2183.292167512487
 31
0.0
  0
LWPOLYLINE
  5
BE4
330
B8D
100
AcDbEntity
  8
0
  6
Continuous
 62
     7
370
    15
100
AcDbPolyline
 90
        6
 70
   128
 43
0.0
 10
3003.834271835771
 20
2183.292167512487
 10
3003.206795482042
 20
2182.774841393512
 10
3002.923652953746
 20
2182.164818128043
 10
3003.018987807988
 20
2181.535671568722
 10
3003.481322931085
 20
2180.96329726426
 10
3003.891232642989
 20
2180.688413316133
  0
ARC
  5
BE5
330
B8D
100
AcDbEntity
  8
0
  6
Continuous
 62
     7
370
    15
100
AcDbCircle
 10
3014.332047474929
 20
2183.862955171072
 30
0.0
 40
4.757380449133221
100
AcDbArc
 50
61.284975784171
 51
117.8796025908912
  0
LINE
  5
BE6
330
B8D
100
AcDbEntity
  8
0
  6
Continuous
 62
     7
370
    15
100
AcDbLine
 10
2994.429750499596
 20
2177.863052907067
 30
0.0
 11
2986.156598091423
 21
2173.087063681617
 31
0.0
  0
LWPOLYLINE
  5
BE7
330
B8D
100
AcDbEntity
  8
0
  6
Continuous
 62
     7
370
    15
100
AcDbPolyline
 90
        6
 70
   128
 43
0.0
 10
2986.156598091423
 20
2173.087063681617
 10
2985.529121737693
 20
2172.569737562643
 10
2985.245979209397
 20
2171.959714297173
 10
2985.34131406364
 20
2171.330567737852
 10
2985.80367026016
 20
2170.75820559882
 10
2986.21355889864
 20
2170.483309485263
  0
ARC
  5
BE8
330
B8D
100
AcDbEntity
  8
0
  6
Continuous
 62
     7
370
    15
100
AcDbCircle
 10
2996.65437373058
 20
2173.657851340201
 30
0.0
 40
4.757380449133969
100
AcDbArc
 50
61.284975784171
 51
117.8796025908912
  0
LINE
  5
BE9
330
B8D
100
AcDbEntity
  8
0
  6
Continuous
 62
     7
370
    15
100
AcDbLine
 10
2976.752076755247
 20
2167.657949076197
 30
0.0
 11
2968.478924347074
 21
2162.881959850748
 31
0.0
  0
LWPOLYLINE
  5
BEA
330
B8D
100
AcDbEntity
  8
0
  6
Continuous
 62
     7
370
    15
100
AcDbPolyline
 90
        6
 70
   128
 43
0.0
 10
2968.478924347074
 20
2162.881959850748
 10
2967.851447993345
 20
2162.364633731773
 10
2967.568305465048
 20
2161.754610466303
 10
2967.663661392716
 20
2161.125476072411
 10
2968.125996515812
 20
2160.553101767951
 10
2968.535906227716
 20
2160.278217819822
  0
ARC
  5
BEB
330
B8D
100
AcDbEntity
  8
0
  6
Continuous
 62
     7
370
    15
100
AcDbCircle
 10
2978.976700410978
 20
2163.45280576894
 30
0.0
 40
4.757329150290463
100
AcDbArc
 50
61.28464315536028
 51
117.8799352197031
  0
LINE
  5
BEC
330
B8D
100
AcDbEntity
  8
0
  6
Continuous
 62
     7
370
    15
100
AcDbLine
 10
2959.074403010899
 20
2157.452845245327
 30
0.0
 11
2950.80127167615
 21
2152.676868185307
 31
0.0
  0
LWPOLYLINE
  5
BED
330
B8D
100
AcDbEntity
  8
0
  6
Continuous
 62
     7
370
    15
100
AcDbPolyline
 90
        6
 70
   128
 43
0.0
 10
2950.80127167615
 20
2152.676868185307
 10
2950.173774248996
 20
2152.159529900903
 10
2949.8906317207
 20
2151.549506635433
 10
2949.985987648366
 20
2150.920372241542
 10
2950.448322771462
 20
2150.34799793708
 10
2950.858232483368
 20
2150.073113988953
  0
ARC
  5
BEE
330
B8D
100
AcDbEntity
  8
0
  6
Continuous
 62
     7
370
    15
100
AcDbCircle
 10
2961.299026666628
 20
2153.247701938071
 30
0.0
 40
4.757329150289709
100
AcDbArc
 50
61.28464315536028
 51
117.8799352197031
  0
LINE
  5
BEF
330
B8D
100
AcDbEntity
  8
0
  6
Continuous
 62
     7
370
    15
100
AcDbLine
 10
2941.396750339975
 20
2147.247753579886
 30
0.0
 11
2933.123576858377
 21
2142.471752189008
 31
0.0
  0
LWPOLYLINE
  5
BF0
330
B8D
100
AcDbEntity
  8
0
  6
Continuous
 62
     7
370
    15
100
AcDbPolyline
 90
        6
 70
   128
 43
0.0
 10
2933.123576858377
 20
2142.471752189008
 10
2932.496100504647
 20
2141.954426070034
 10
2932.212957976352
 20
2141.344402804564
 10
2932.308334977443
 20
2140.715280576101
 10
2932.770649027115
 20
2140.142894106211
 10
2933.180558739019
 20
2139.868010158083
  0
ARC
  5
BF1
330
B8D
100
AcDbEntity
  8
0
  6
Continuous
 62
     7
370
    15
100
AcDbCircle
 10
2943.621351932353
 20
2143.042592402924
 30
0.0
 40
4.757334628659461
100
AcDbArc
 50
61.28466570695575
 51
117.8795996988472
  0
LINE
  5
BF2
330
B8D
100
AcDbEntity
  8
0
  6
Continuous
 62
     7
370
    15
100
AcDbLine
 10
2923.719055522202
 20
2137.042637583588
 30
0.0
 11
2915.445924187452
 21
2132.266660523568
 31
0.0
  0
LWPOLYLINE
  5
BF3
330
B8D
100
AcDbEntity
  8
0
  6
Continuous
 62
     7
370
    15
100
AcDbPolyline
 90
        6
 70
   128
 43
0.0
 10
2915.445924187452
 20
2132.266660523568
 10
2914.818447833723
 20
2131.749334404593
 10
2914.535305305427
 20
2131.139311139123
 10
2914.630640159669
 20
2130.510164579802
 10
2915.09299635619
 20
2129.93780244077
 10
2915.502906068095
 20
2129.662918492642
  0
ARC
  5
BF4
330
B8D
100
AcDbEntity
  8
0
  6
Continuous
 62
     7
370
    15
100
AcDbCircle
 10
2925.943701241104
 20
2132.837512145027
 30
0.0
 40
4.757323672892455
100
AcDbArc
 50
61.28462060768242
 51
117.8802707337566
  0
LINE
  5
BF5
330
B8D
100
AcDbEntity
  8
0
  6
Continuous
 62
     7
370
    15
100
AcDbLine
 10
2906.041402851278
 20
2126.837545918147
 30
0.0
 11
2897.768271516529
 21
2122.061568858127
 31
0.0
  0
LWPOLYLINE
  5
BF6
330
B8D
100
AcDbEntity
  8
0
  6
Continuous
 62
     7
370
    15
100
AcDbPolyline
 90
        6
 70
   128
 43
0.0
 10
2897.768271516529
 20
2122.061568858127
 10
2897.14075301595
 20
2121.544218408294
 10
2896.857610487654
 20
2120.934195142825
 10
2896.952987488745
 20
2120.305072914362
 10
2897.415301538417
 20
2119.732686444472
 10
2897.825211250323
 20
2119.457802496344
  0
ARC
  5
BF7
330
B8D
100
AcDbEntity
  8
0
  6
Continuous
 62
     7
370
    15
100
AcDbCircle
 10
2908.266004443655
 20
2122.632384741186
 30
0.0
 40
4.757334628658758
100
AcDbArc
 50
61.28466570695575
 51
117.8795996988733
  0
LINE
  5
BF8
330
B8D
100
AcDbEntity
  8
0
  6
Continuous
 62
     7
370
    15
100
AcDbLine
 10
2888.363750180353
 20
2116.632454252707
 30
0.0
 11
2880.090576698755
 21
2111.856452861828
 31
0.0
  0
LWPOLYLINE
  5
BF9
330
B8D
100
AcDbEntity
  8
0
  6
Continuous
 62
     7
370
    15
100
AcDbPolyline
 90
        6
 70
   128
 43
0.0
 10
2880.090576698755
 20
2111.856452861828
 10
2879.463100345026
 20
2111.339126742853
 10
2879.179957816729
 20
2110.729103477384
 10
2879.275292670973
 20
2110.099956918063
 10
2879.737648867493
 20
2109.527594779031
 10
2880.147558579398
 20
2109.252710830903
  0
ARC
  5
BFA
330
B8D
100
AcDbEntity
  8
0
  6
Continuous
 62
     7
370
    15
100
AcDbCircle
 10
2890.588351772732
 20
2112.427293075745
 30
0.0
 40
4.757334628658758
100
AcDbArc
 50
61.28466570695575
 51
117.8795996988733
  0
LINE
  5
BFB
330
B8D
100
AcDbEntity
  8
0
  6
Continuous
 62
     7
370
    15
100
AcDbLine
 10
2870.68605536258
 20
2106.427338256408
 30
0.0
 11
2862.412924027831
 21
2101.651361196387
 31
0.0
  0
LWPOLYLINE
  5
BFC
330
B8D
100
AcDbEntity
  8
0
  6
Continuous
 62
     7
370
    15
100
AcDbPolyline
 90
        6
 70
   128
 43
0.0
 10
2862.412924027831
 20
2101.651361196387
 10
2861.785447674102
 20
2101.134035077413
 10
2861.502305145806
 20
2100.524011811943
 10
2861.597640000048
 20
2099.894865252622
 10
2862.059954049721
 20
2099.322478782733
 10
2862.469863761625
 20
2099.047594834605
  0
ARC
  5
BFD
330
B8D
100
AcDbEntity
  8
0
  6
Continuous
 62
     7
370
    15
100
AcDbCircle
 10
2872.910700232314
 20
2102.222096298929
 30
0.0
 40
4.757426270303854
100
AcDbArc
 50
61.28528586103175
 51
117.8796054803711
  0
LINE
  5
BFE
330
B8D
100
AcDbEntity
  8
0
  6
Continuous
 62
     7
370
    15
100
AcDbLine
 10
2853.008402691656
 20
2096.222246590967
 30
0.0
 11
2844.735229210059
 21
2091.446245200089
 31
0.0
  0
LWPOLYLINE
  5
BFF
330
B8D
100
AcDbEntity
  8
0
  6
Continuous
 62
     7
370
    15
100
AcDbPolyline
 90
        6
 70
   128
 43
0.0
 10
2844.735229210059
 20
2091.446245200089
 10
2844.107752856329
 20
2090.928919081114
 10
2843.824610328033
 20
2090.318895815645
 10
2843.919987329124
 20
2089.689773587182
 10
2844.382301378796
 20
2089.117387117292
 10
2844.792211090701
 20
2088.842503169164
  0
ARC
  5
C00
330
B8D
100
AcDbEntity
  8
0
  6
Continuous
 62
     7
370
    15
100
AcDbCircle
 10
2855.233004284034
 20
2092.017085414005
 30
0.0
 40
4.757334628659336
100
AcDbArc
 50
61.28466570695575
 51
117.8795996988733
  0
LINE
  5
C01
330
B8D
100
AcDbEntity
  8
0
  6
Continuous
 62
     7
370
    15
100
AcDbLine
 10
2835.330707873883
 20
2086.017130594669
 30
0.0
 11
2827.057576539134
 21
2081.241153534648
 31
0.0
  0
LWPOLYLINE
  5
C02
330
B8D
100
AcDbEntity
  8
0
  6
Continuous
 62
     7
370
    15
100
AcDbPolyline
 90
        6
 70
   128
 43
0.0
 10
2827.057576539134
 20
2081.241153534648
 10
2826.430100185405
 20
2080.723827415674
 10
2826.146957657108
 20
2080.113804150204
 10
2826.242292511351
 20
2079.484657590883
 10
2826.704648707872
 20
2078.912295451851
 10
2827.114558419776
 20
2078.637411503724
  0
ARC
  5
C03
330
B8D
100
AcDbEntity
  8
0
  6
Continuous
 62
     7
370
    15
100
AcDbCircle
 10
2837.555353592786
 20
2081.812005156108
 30
0.0
 40
4.757323672892814
100
AcDbArc
 50
61.28462060768242
 51
117.8802707337566
  0
LINE
  5
C04
330
B8D
100
AcDbEntity
  8
0
  6
Continuous
 62
     7
370
    15
100
AcDbLine
 10
2817.653055202959
 20
2075.812038929228
 30
0.0
 11
2809.37992386821
 21
2071.036061869207
 31
0.0
  0
LWPOLYLINE
  5
C05
330
B8D
100
AcDbEntity
  8
0
  6
Continuous
 62
     7
370
    15
100
AcDbPolyline
 90
        6
 70
   128
 43
0.0
 10
2809.37992386821
 20
2071.036061869207
 10
2808.752405367632
 20
2070.518711419375
 10
2808.469262839336
 20
2069.908688153905
 10
2808.564639840426
 20
2069.279565925443
 10
2809.026953890099
 20
2068.707179455552
 10
2809.436863602004
 20
2068.432295507425
  0
ARC
  5
C06
330
B8D
100
AcDbEntity
  8
0
  6
Continuous
 62
     7
370
    15
100
AcDbCircle
 10
2819.877656795336
 20
2071.606877752267
 30
0.0
 40
4.757334628658613
100
AcDbArc
 50
61.28466570695575
 51
117.8795996988733
  0
LINE
  5
C07
330
B8D
100
AcDbEntity
  8
0
  6
Continuous
 62
     7
370
    15
100
AcDbLine
 10
2799.975402532035
 20
2065.606947263788
 30
0.0
 11
2791.702229050437
 21
2060.830945872909
 31
0.0
  0
LWPOLYLINE
  5
C08
330
B8D
100
AcDbEntity
  8
0
  6
Continuous
 62
     7
370
    15
100
AcDbPolyline
 90
        6
 70
   128
 43
0.0
 10
2791.702229050437
 20
2060.830945872909
 10
2791.074752696707
 20
2060.313619753934
 10
2790.791610168412
 20
2059.703596488464
 10
2790.886945022654
 20
2059.074449929144
 10
2791.349301219175
 20
2058.502087790111
 10
2791.759210931079
 20
2058.227203841984
  0
ARC
  5
C09
330
B8D
100
AcDbEntity
  8
0
  6
Continuous
 62
     7
370
    15
100
AcDbCircle
 10
2802.200004124413
 20
2061.401786086826
 30
0.0
 40
4.757334628658229
100
AcDbArc
 50
61.28466570695575
 51
117.8795996988764
  0
LINE
  5
C0A
330
B8D
100
AcDbEntity
  8
0
  6
Continuous
 62
     7
370
    15
100
AcDbLine
 10
2782.297707714262
 20
2055.401831267489
 30
0.0
 11
2774.024576379512
 21
2050.625854207468
 31
0.0
  0
LWPOLYLINE
  5
C0B
330
B8D
100
AcDbEntity
  8
0
  6
Continuous
 62
     7
370
    15
100
AcDbPolyline
 90
        6
 70
   128
 43
0.0
 10
2774.024576379512
 20
2050.625854207468
 10
2773.397100025783
 20
2050.108528088494
 10
2773.113957497487
 20
2049.498504823024
 10
2773.209292351729
 20
2048.869358263703
 10
2773.671606401402
 20
2048.296971793813
 10
2774.081516113306
 20
2048.022087845686
  0
ARC
  5
C0C
330
B8D
100
AcDbEntity
  8
0
  6
Continuous
 62
     7
370
    15
100
AcDbCircle
 10
2784.522352583995
 20
2051.196589310008
 30
0.0
 40
4.757426270305219
100
AcDbArc
 50
61.28528586106087
 51
117.8796054803711
  0
LINE
  5
C0D
330
B8D
100
AcDbEntity
  8
0
  6
Continuous
 62
     7
370
    15
100
AcDbLine
 10
2764.620055043338
 20
2045.196739602048
 30
0.0
 11
2756.34688156174
 21
2040.42073821117
 31
0.0
  0
LWPOLYLINE
  5
C0E
330
B8D
100
AcDbEntity
  8
0
  6
Continuous
 62
     7
370
    15
100
AcDbPolyline
 90
        6
 70
   128
 43
0.0
 10
2756.34688156174
 20
2040.42073821117
 10
2755.71940520801
 20
2039.903412092195
 10
2755.436262679714
 20
2039.293388826726
 10
2755.531639680805
 20
2038.664266598263
 10
2755.993953730477
 20
2038.091880128373
 10
2756.403863442382
 20
2037.816996180245
  0
ARC
  5
C0F
330
B8D
100
AcDbEntity
  8
0
  6
Continuous
 62
     7
370
    15
100
AcDbCircle
 10
2766.844656635715
 20
2040.991578425086
 30
0.0
 40
4.757334628659609
100
AcDbArc
 50
61.28466570695575
 51
117.8795996988472
  0
LINE
  5
C10
330
B8D
100
AcDbEntity
  8
0
  6
Continuous
 62
     7
370
    15
100
AcDbLine
 10
2746.942360225565
 20
2034.991623605749
 30
0.0
 11
2738.669228890815
 21
2030.215646545729
 31
0.0
  0
LWPOLYLINE
  5
C11
330
B8D
100
AcDbEntity
  8
0
  6
Continuous
 62
     7
370
    15
100
AcDbPolyline
 90
        6
 70
   128
 43
0.0
 10
2738.669228890815
 20
2030.215646545729
 10
2738.041752537086
 20
2029.698320426755
 10
2737.75861000879
 20
2029.088297161285
 10
2737.853944863033
 20
2028.459150601964
 10
2738.316301059553
 20
2027.886788462932
 10
2738.726210771458
 20
2027.611904514804
  0
ARC
  5
C12
330
B8D
100
AcDbEntity
  8
0
  6
Continuous
 62
     7
370
    15
100
AcDbCircle
 10
2749.167005944467
 20
2030.786498167189
 30
0.0
 40
4.757323672892624
100
AcDbArc
 50
61.28462060768242
 51
117.8802707337305
  0
LINE
  5
C13
330
B8D
100
AcDbEntity
  8
0
  6
Continuous
 62
     7
370
    15
100
AcDbLine
 10
2729.26470755464
 20
2024.786531940309
 30
0.0
 11
2720.991576219891
 21
2020.010554880288
 31
0.0
  0
LWPOLYLINE
  5
C14
330
B8D
100
AcDbEntity
  8
0
  6
Continuous
 62
     7
370
    15
100
AcDbPolyline
 90
        6
 70
   128
 43
0.0
 10
2720.991576219891
 20
2020.010554880288
 10
2720.364057719313
 20
2019.493204430456
 10
2720.080915191017
 20
2018.883181164986
 10
2720.176292192108
 20
2018.254058936523
 10
2720.63860624178
 20
2017.681672466633
 10
2721.048515953685
 20
2017.406788518505
  0
ARC
  5
C15
330
B8D
100
AcDbEntity
  8
0
  6
Continuous
 62
     7
370
    15
100
AcDbCircle
 10
2731.489309147018
 20
2020.581370763347
 30
0.0
 40
4.757334628659537
100
AcDbArc
 50
61.28466570695575
 51
117.8795996988472
  0
LINE
  5
C16
330
B8D
100
AcDbEntity
  8
0
  6
Continuous
 62
     7
370
    15
100
AcDbLine
 10
2711.587054883716
 20
2014.581440274868
 30
0.0
 11
2703.313881402118
 21
2009.80543888399
 31
0.0
  0
LWPOLYLINE
  5
C17
330
B8D
100
AcDbEntity
  8
0
  6
Continuous
 62
     7
370
    15
100
AcDbPolyline
 90
        6
 70
   128
 43
0.0
 10
2703.313881402118
 20
2009.80543888399
 10
2702.686405048389
 20
2009.288112765015
 10
2702.403262520093
 20
2008.678089499545
 10
2702.498597374335
 20
2008.048942940225
 10
2702.960953570856
 20
2007.476580801192
 10
2703.370863282761
 20
2007.201696853065
  0
ARC
  5
C18
330
B8D
100
AcDbEntity
  8
0
  6
Continuous
 62
     7
370
    15
100
AcDbCircle
 10
2713.811656476094
 20
2010.376279097906
 30
0.0
 40
4.757334628659336
100
AcDbArc
 50
61.28466570695575
 51
117.8795996988733
  0
LINE
  5
C19
330
B8D
100
AcDbEntity
  8
0
  6
Continuous
 62
     7
370
    15
100
AcDbLine
 10
2693.909360065943
 20
2004.37632427857
 30
0.0
 11
2685.636228731195
 21
1999.600347218549
 31
0.0
  0
LWPOLYLINE
  5
C1A
330
B8D
100
AcDbEntity
  8
0
  6
Continuous
 62
     7
370
    15
100
AcDbPolyline
 90
        6
 70
   128
 43
0.0
 10
2685.636228731195
 20
1999.600347218549
 10
2685.008752377465
 20
1999.083021099574
 10
2684.725609849168
 20
1998.472997834104
 10
2684.820944703411
 20
1997.843851274784
 10
2685.283258753083
 20
1997.271464804894
 10
2685.693168464988
 20
1996.996580856766
  0
ARC
  5
C1B
330
B8D
100
AcDbEntity
  8
0
  6
Continuous
 62
     7
370
    15
100
AcDbCircle
 10
2696.134004935676
 20
2000.171082321088
 30
0.0
 40
4.757426270305368
100
AcDbArc
 50
61.28528586106087
 51
117.8796054803711
  0
LINE
  5
C1C
330
B8D
100
AcDbEntity
  8
0
  6
Continuous
 62
     7
370
    15
100
AcDbLine
 10
2676.231707395019
 20
1994.171232613129
 30
0.0
 11
2667.958533913421
 21
1989.39523122225
 31
0.0
  0
LWPOLYLINE
  5
C1D
330
B8D
100
AcDbEntity
  8
0
  6
Continuous
 62
     7
370
    15
100
AcDbPolyline
 90
        6
 70
   128
 43
0.0
 10
2667.958533913421
 20
1989.39523122225
 10
2667.331057559692
 20
1988.877905103275
 10
2667.047915031396
 20
1988.267881837806
 10
2667.143292032487
 20
1987.638759609343
 10
2667.605606082159
 20
1987.066373139453
 10
2668.015515794064
 20
1986.791489191325
  0
ARC
  5
C1E
330
B8D
100
AcDbEntity
  8
0
  6
Continuous
 62
     7
370
    15
100
AcDbCircle
 10
2678.456308987396
 20
1989.966071436168
 30
0.0
 40
4.757334628658438
100
AcDbArc
 50
61.28466570695575
 51
117.8795996988733
  0
LINE
  5
C1F
330
B8D
100
AcDbEntity
  8
0
  6
Continuous
 62
     7
370
    15
100
AcDbLine
 10
2658.554012577246
 20
1983.96611661683
 30
0.0
 11
2650.280881242497
 21
1979.19013955681
 31
0.0
  0
LWPOLYLINE
  5
C20
330
B8D
100
AcDbEntity
  8
0
  6
Continuous
 62
     7
370
    15
100
AcDbPolyline
 90
        6
 70
   128
 43
0.0
 10
2650.280881242497
 20
1979.19013955681
 10
2649.653404888767
 20
1978.672813437835
 10
2649.370262360472
 20
1978.062790172365
 10
2649.465597214714
 20
1977.433643613045
 10
2649.927953411234
 20
1976.861281474013
 10
2650.337863123139
 20
1976.586397525885
  0
ARC
  5
C21
330
B8D
100
AcDbEntity
  8
0
  6
Continuous
 62
     7
370
    15
100
AcDbCircle
 10
2660.778658296149
 20
1979.760991178269
 30
0.0
 40
4.757323672893202
100
AcDbArc
 50
61.28462060768242
 51
117.8802707337566
  0
LINE
  5
C22
330
B8D
100
AcDbEntity
  8
0
  6
Continuous
 62
     7
370
    15
100
AcDbLine
 10
2640.876359906322
 20
1973.761024951389
 30
0.0
 11
2632.603228571573
 21
1968.985047891369
 31
0.0
  0
LWPOLYLINE
  5
C23
330
B8D
100
AcDbEntity
  8
0
  6
Continuous
 62
     7
370
    15
100
AcDbPolyline
 90
        6
 70
   128
 43
0.0
 10
2632.603228571573
 20
1968.985047891369
 10
2631.975710070995
 20
1968.467697441536
 10
2631.692567542698
 20
1967.857674176067
 10
2631.787944543789
 20
1967.228551947604
 10
2632.250258593462
 20
1966.656165477714
 10
2632.660168305366
 20
1966.381281529586
  0
ARC
  5
C24
330
B8D
100
AcDbEntity
  8
0
  6
Continuous
 62
     7
370
    15
100
AcDbCircle
 10
2643.1009614987
 20
1969.555863774426
 30
0.0
 40
4.757334628660781
100
AcDbArc
 50
61.28466570698174
 51
117.8795996988472
  0
LINE
  5
C25
330
B8D
100
AcDbEntity
  8
0
  6
Continuous
 62
     7
370
    15
100
AcDbLine
 10
2623.198707235398
 20
1963.555933285949
 30
0.0
 11
2614.9255337538
 21
1958.779931895071
 31
0.0
  0
LWPOLYLINE
  5
C26
330
B8D
100
AcDbEntity
  8
0
  6
Continuous
 62
     7
370
    15
100
AcDbPolyline
 90
        6
 70
   128
 43
0.0
 10
2614.9255337538
 20
1958.779931895071
 10
2614.29805740007
 20
1958.262605776096
 10
2614.014914871774
 20
1957.652582510626
 10
2614.110249726016
 20
1957.023435951305
 10
2614.572605922537
 20
1956.451073812273
 10
2614.982515634442
 20
1956.176189864146
  0
ARC
  5
C27
330
B8D
100
AcDbEntity
  8
0
  6
Continuous
 62
     7
370
    15
100
AcDbCircle
 10
2625.423308827776
 20
1959.350772108986
 30
0.0
 40
4.757334628659694
100
AcDbArc
 50
61.28466570695575
 51
117.8795996988733
  0
LINE
  5
C28
330
B8D
100
AcDbEntity
  8
0
  6
Continuous
 62
     7
370
    15
100
AcDbLine
 10
2605.521012417625
 20
1953.35081728965
 30
0.0
 11
2597.247881082875
 21
1948.57484022963
 31
0.0
  0
LWPOLYLINE
  5
C29
330
B8D
100
AcDbEntity
  8
0
  6
Continuous
 62
     7
370
    15
100
AcDbPolyline
 90
        6
 70
   128
 43
0.0
 10
2597.247881082875
 20
1948.57484022963
 10
2596.620404729146
 20
1948.057514110655
 10
2596.33726220085
 20
1947.447490845186
 10
2596.432597055092
 20
1946.818344285865
 10
2596.894911104765
 20
1946.245957815975
 10
2597.304820816669
 20
1945.971073867847
  0
ARC
  5
C2A
330
B8D
100
AcDbEntity
  8
0
  6
Continuous
 62
     7
370
    15
100
AcDbCircle
 10
2607.745657287357
 20
1949.14557533217
 30
0.0
 40
4.757426270304536
100
AcDbArc
 50
61.28528586103175
 51
117.8796054803711
  0
LINE
  5
C2B
330
B8D
100
AcDbEntity
  8
0
  6
Continuous
 62
     7
370
    15
100
AcDbLine
 10
2587.8433597467
 20
1943.14572562421
 30
0.0
 11
2579.570186265102
 21
1938.369724233331
 31
0.0
  0
LWPOLYLINE
  5
C2C
330
B8D
100
AcDbEntity
  8
0
  6
Continuous
 62
     7
370
    15
100
AcDbPolyline
 90
        6
 70
   128
 43
0.0
 10
2579.570186265102
 20
1938.369724233331
 10
2578.942752058222
 20
1937.852422445214
 10
2578.659567383077
 20
1937.242374848887
 10
2578.754902237319
 20
1936.613228289566
 10
2579.217300580688
 20
1936.040890481392
 10
2579.627210292593
 20
1935.766006533264
  0
ARC
  5
C2D
330
B8D
100
AcDbEntity
  8
0
  6
Continuous
 62
     7
370
    15
100
AcDbCircle
 10
2590.068004251799
 20
1938.940433633459
 30
0.0
 40
4.757470325870398
100
AcDbArc
 50
61.2855715122817
 51
117.8793198291218
  0
LINE
  5
C2E
330
B8D
100
AcDbEntity
  8
0
  6
Continuous
 62
     7
370
    15
100
AcDbLine
 10
2570.165707075776
 20
1932.940633958769
 30
0.0
 11
2561.892533594178
 21
1928.16463256789
 31
0.0
  0
LWPOLYLINE
  5
C2F
330
B8D
100
AcDbEntity
  8
0
  6
Continuous
 62
     7
370
    15
100
AcDbPolyline
 90
        6
 70
   128
 43
0.0
 10
2561.892533594178
 20
1928.16463256789
 10
2561.2650150936
 20
1927.647282118058
 10
2560.981914712153
 20
1927.037283183446
 10
2561.077249566395
 20
1926.408136624125
 10
2561.539563616067
 20
1925.835750154235
 10
2561.949473327972
 20
1925.560866206108
  0
ARC
  5
C30
330
B8D
100
AcDbEntity
  8
0
  6
Continuous
 62
     7
370
    15
100
AcDbCircle
 10
2572.390265026206
 20
1928.735503528946
 30
0.0
 40
4.757287042699957
100
AcDbArc
 50
61.28433120380638
 51
117.8793082547872
  0
LINE
  5
C31
330
B8D
100
AcDbEntity
  8
0
  6
Continuous
 62
     7
370
    15
100
AcDbLine
 10
2552.488054404851
 20
1922.735542293328
 30
0.0
 11
2544.214880923254
 21
1917.95954090245
 31
0.0
  0
LWPOLYLINE
  5
C32
330
B8D
100
AcDbEntity
  8
0
  6
Continuous
 62
     7
370
    15
100
AcDbPolyline
 90
        6
 70
   128
 43
0.0
 10
2544.214880923254
 20
1917.95954090245
 10
2543.587362422676
 20
1917.442190452617
 10
2543.304262041228
 20
1916.832191518005
 10
2543.399596895471
 20
1916.203044958685
 10
2543.861910945143
 20
1915.630658488795
 10
2544.271820657048
 20
1915.355774540667
  0
ARC
  5
C33
330
B8D
100
AcDbEntity
  8
0
  6
Continuous
 62
     7
370
    15
100
AcDbCircle
 10
2554.712612355282
 20
1918.530411863505
 30
0.0
 40
4.757287042700213
100
AcDbArc
 50
61.28433120380638
 51
117.8793082547872
  0
LINE
  5
C34
330
B8D
100
AcDbEntity
  8
0
  6
Continuous
 62
     7
370
    15
100
AcDbLine
 10
2534.81031744023
 20
1912.530401966172
 30
0.0
 11
2526.53722825233
 21
1907.754449237009
 31
0.0
  0
LWPOLYLINE
  5
C35
330
B8D
100
AcDbEntity
  8
0
  6
Continuous
 62
     7
370
    15
100
AcDbPolyline
 90
        6
 70
   128
 43
0.0
 10
2526.53722825233
 20
1907.754449237009
 10
2525.909709751751
 20
1907.237098787177
 10
2525.626609370304
 20
1906.627099852565
 10
2525.721944224547
 20
1905.997953293244
 10
2526.184258274219
 20
1905.425566823354
 10
2526.594167986124
 20
1905.150682875226
  0
ARC
  5
C36
330
B8D
100
AcDbEntity
  8
0
  6
Continuous
 62
     7
370
    15
100
AcDbCircle
 10
2537.034962674564
 20
1908.325210037416
 30
0.0
 40
4.757382218858979
100
AcDbArc
 50
61.28500023045185
 51
117.8798911109708
  0
LINE
  5
C37
330
B8D
100
AcDbEntity
  8
0
  6
Continuous
 62
     7
370
    15
100
AcDbLine
 10
2517.132664769306
 20
1902.325310300731
 30
0.0
 11
2508.859491287708
 21
1897.549308909853
 31
0.0
  0
LWPOLYLINE
  5
C38
330
B8D
100
AcDbEntity
  8
0
  6
Continuous
 62
     7
370
    15
100
AcDbPolyline
 90
        6
 70
   128
 43
0.0
 10
2508.859491287708
 20
1897.549308909853
 10
2508.232057080828
 20
1897.032007121736
 10
2507.948872405683
 20
1896.421959525408
 10
2508.044207259926
 20
1895.792812966088
 10
2508.506605603294
 20
1895.220475157913
 10
2508.916515315199
 20
1894.945591209786
  0
ARC
  5
C39
330
B8D
100
AcDbEntity
  8
0
  6
Continuous
 62
     7
370
    15
100
AcDbCircle
 10
2519.357310003639
 20
1898.120118371975
 30
0.0
 40
4.757382218859527
100
AcDbArc
 50
61.28500023045185
 51
117.8798911109708
  0
LINE
  5
C3A
330
B8D
100
AcDbEntity
  8
0
  6
Continuous
 62
     7
370
    15
100
AcDbLine
 10
2499.455012098382
 20
1892.12021863529
 30
0.0
 11
2491.181838616784
 21
1887.344217244412
 31
0.0
  0
LWPOLYLINE
  5
C3B
330
B8D
100
AcDbEntity
  8
0
  6
Continuous
 62
     7
370
    15
100
AcDbPolyline
 90
        6
 70
   128
 43
0.0
 10
2491.181838616784
 20
1887.344217244412
 10
2490.554404409903
 20
1886.826915456295
 10
2490.271219734758
 20
1886.216867859968
 10
2490.366554589001
 20
1885.587721300647
 10
2490.82895293237
 20
1885.015383492472
 10
2491.238862644275
 20
1884.740499544345
  0
ARC
  5
C3C
330
B8D
100
AcDbEntity
  8
0
  6
Continuous
 62
     7
370
    15
100
AcDbCircle
 10
2501.679656603481
 20
1887.91492664454
 30
0.0
 40
4.757470325870064
100
AcDbArc
 50
61.2855715122817
 51
117.8793198291218
  0
LINE
  5
C3D
330
B8D
100
AcDbEntity
  8
0
  6
Continuous
 62
     7
370
    15
100
AcDbLine
 10
2481.777359427458
 20
1881.915126969849
 30
0.0
 11
2473.50418594586
 21
1877.139125578971
 31
0.0
  0
LWPOLYLINE
  5
C3E
330
B8D
100
AcDbEntity
  8
0
  6
Continuous
 62
     7
370
    15
100
AcDbPolyline
 90
        6
 70
   128
 43
0.0
 10
2473.50418594586
 20
1877.139125578971
 10
2472.876667445282
 20
1876.621775129139
 10
2472.593567063834
 20
1876.011776194527
 10
2472.688901918076
 20
1875.382629635206
 10
2473.151215967749
 20
1874.810243165316
 10
2473.561125679653
 20
1874.535359217189
  0
ARC
  5
C3F
330
B8D
100
AcDbEntity
  8
0
  6
Continuous
 62
     7
370
    15
100
AcDbCircle
 10
2484.001917377887
 20
1877.709996540029
 30
0.0
 40
4.757287042698441
100
AcDbArc
 50
61.28433120377726
 51
117.8793082547872
  0
LINE
  5
C40
330
B8D
100
AcDbEntity
  8
0
  6
Continuous
 62
     7
370
    15
100
AcDbLine
 10
2464.099706756533
 20
1871.710035304409
 30
0.0
 11
2455.826533274935
 21
1866.934033913531
 31
0.0
  0
LWPOLYLINE
  5
C41
330
B8D
100
AcDbEntity
  8
0
  6
Continuous
 62
     7
370
    15
100
AcDbPolyline
 90
        6
 70
   128
 43
0.0
 10
2455.826533274935
 20
1866.934033913531
 10
2455.199014774358
 20
1866.416683463698
 10
2454.91591439291
 20
1865.806684529086
 10
2455.011249247152
 20
1865.177537969765
 10
2455.473563296825
 20
1864.605151499876
 10
2455.883473008729
 20
1864.330267551748
  0
ARC
  5
C42
330
B8D
100
AcDbEntity
  8
0
  6
Continuous
 62
     7
370
    15
100
AcDbCircle
 10
2466.324264706963
 20
1867.504904874587
 30
0.0
 40
4.757287042699378
100
AcDbArc
 50
61.28433120377726
 51
117.8793082547872
  0
LINE
  5
C43
330
B8D
100
AcDbEntity
  8
0
  6
Continuous
 62
     7
370
    15
100
AcDbLine
 10
2446.421969791912
 20
1861.504894977252
 30
0.0
 11
2438.148880604011
 21
1856.72894224809
 31
0.0
  0
LWPOLYLINE
  5
C44
330
B8D
100
AcDbEntity
  8
0
  6
Continuous
 62
     7
370
    15
100
AcDbPolyline
 90
        6
 70
   128
 43
0.0
 10
2438.148880604011
 20
1856.72894224809
 10
2437.521362103433
 20
1856.211591798257
 10
2437.238261721986
 20
1855.601592863645
 10
2437.333596576228
 20
1854.972446304325
 10
2437.7959106259
 20
1854.400059834435
 10
2438.205820337805
 20
1854.125175886307
  0
ARC
  5
C45
330
B8D
100
AcDbEntity
  8
0
  6
Continuous
 62
     7
370
    15
100
AcDbCircle
 10
2448.646615026245
 20
1857.299703048498
 30
0.0
 40
4.757382218858539
100
AcDbArc
 50
61.28500023045185
 51
117.8798911109708
  0
LINE
  5
C46
330
B8D
100
AcDbEntity
  8
0
  6
Continuous
 62
     7
370
    15
100
AcDbLine
 10
2428.744317120987
 20
1851.299803311812
 30
0.0
 11
2420.47114363939
 21
1846.523801920934
 31
0.0
  0
LWPOLYLINE
  5
C47
330
B8D
100
AcDbEntity
  8
0
  6
Continuous
 62
     7
370
    15
100
AcDbPolyline
 90
        6
 70
   128
 43
0.0
 10
2420.47114363939
 20
1846.523801920934
 10
2419.843709432509
 20
1846.006500132817
 10
2419.560524757364
 20
1845.396452536489
 10
2419.655859611607
 20
1844.767305977169
 10
2420.118257954976
 20
1844.194968168994
 10
2420.528167666881
 20
1843.920084220867
  0
ARC
  5
C48
330
B8D
100
AcDbEntity
  8
0
  6
Continuous
 62
     7
370
    15
100
AcDbCircle
 10
2430.968962355321
 20
1847.094611383054
 30
0.0
 40
4.757382218860583
100
AcDbArc
 50
61.28500023045185
 51
117.8798911109708
  0
LINE
  5
C49
330
B8D
100
AcDbEntity
  8
0
  6
Continuous
 62
     7
370
    15
100
AcDbLine
 10
2411.066664450063
 20
1841.094711646371
 30
0.0
 11
2402.793490968466
 21
1836.318710255493
 31
0.0
  0
LWPOLYLINE
  5
C4A
330
B8D
100
AcDbEntity
  8
0
  6
Continuous
 62
     7
370
    15
100
AcDbPolyline
 90
        6
 70
   128
 43
0.0
 10
2402.793490968466
 20
1836.318710255493
 10
2402.166056761584
 20
1835.801408467376
 10
2401.88287208644
 20
1835.191360871048
 10
2401.978206940683
 20
1834.562214311728
 10
2402.440605284052
 20
1833.989876503553
 10
2402.850514995956
 20
1833.714992555426
  0
ARC
  5
C4B
330
B8D
100
AcDbEntity
  8
0
  6
Continuous
 62
     7
370
    15
100
AcDbCircle
 10
2413.291308955162
 20
1836.889419655619
 30
0.0
 40
4.757470325871694
100
AcDbArc
 50
61.28557151231081
 51
117.8793198291218
  0
LINE
  5
C4C
330
B8D
100
AcDbEntity
  8
0
  6
Continuous
 62
     7
370
    15
100
AcDbLine
 10
2393.389011779139
 20
1830.88961998093
 30
0.0
 11
2385.115838297541
 21
1826.113618590052
 31
0.0
  0
LWPOLYLINE
  5
C4D
330
B8D
100
AcDbEntity
  8
0
  6
Continuous
 62
     7
370
    15
100
AcDbPolyline
 90
        6
 70
   128
 43
0.0
 10
2385.115838297541
 20
1826.113618590052
 10
2384.488319796963
 20
1825.59626814022
 10
2384.205219415516
 20
1824.986269205608
 10
2384.300554269758
 20
1824.357122646287
 10
2384.76286831943
 20
1823.784736176397
 10
2385.172778031335
 20
1823.509852228269
  0
ARC
  5
C4E
330
B8D
100
AcDbEntity
  8
0
  6
Continuous
 62
     7
370
    15
100
AcDbCircle
 10
2395.613569729569
 20
1826.684489551108
 30
0.0
 40
4.757287042699677
100
AcDbArc
 50
61.28433120380638
 51
117.8793082547872
  0
LINE
  5
C4F
330
B8D
100
AcDbEntity
  8
0
  6
Continuous
 62
     7
370
    15
100
AcDbLine
 10
2375.711359108214
 20
1820.68452831549
 30
0.0
 11
2367.438185626617
 21
1815.908526924611
 31
0.0
  0
LWPOLYLINE
  5
C50
330
B8D
100
AcDbEntity
  8
0
  6
Continuous
 62
     7
370
    15
100
AcDbPolyline
 90
        6
 70
   128
 43
0.0
 10
2367.438185626617
 20
1815.908526924611
 10
2366.810667126038
 20
1815.391176474779
 10
2366.527566744591
 20
1814.781177540167
 10
2366.622901598833
 20
1814.152030980846
 10
2367.085215648506
 20
1813.579644510956
 10
2367.49512536041
 20
1813.304760562829
  0
ARC
  5
C51
330
B8D
100
AcDbEntity
  8
0
  6
Continuous
 62
     7
370
    15
100
AcDbCircle
 10
2377.935917058644
 20
1816.479397885667
 30
0.0
 40
4.757287042699427
100
AcDbArc
 50
61.28433120377726
 51
117.8793082547872
  0
LINE
  5
C52
330
B8D
100
AcDbEntity
  8
0
  6
Continuous
 62
     7
370
    15
100
AcDbLine
 10
2358.033622143593
 20
1810.479387988333
 30
0.0
 11
2349.760532955692
 21
1805.703435259171
 31
0.0
  0
LWPOLYLINE
  5
C53
330
B8D
100
AcDbEntity
  8
0
  6
Continuous
 62
     7
370
    15
100
AcDbPolyline
 90
        6
 70
   128
 43
0.0
 10
2349.760532955692
 20
1805.703435259171
 10
2349.133014455114
 20
1805.186084809338
 10
2348.849914073667
 20
1804.576085874726
 10
2348.945248927909
 20
1803.946939315405
 10
2349.407562977581
 20
1803.374552845516
 10
2349.817472689486
 20
1803.099668897388
  0
ARC
  5
C54
330
B8D
100
AcDbEntity
  8
0
  6
Continuous
 62
     7
370
    15
100
AcDbCircle
 10
2360.258267377927
 20
1806.274196059579
 30
0.0
 40
4.757382218857288
100
AcDbArc
 50
61.28500023045185
 51
117.8798911109708
  0
LINE
  5
C55
330
B8D
100
AcDbEntity
  8
0
  6
Continuous
 62
     7
370
    15
100
AcDbLine
 10
2340.355969472669
 20
1800.274296322893
 30
0.0
 11
2332.082795991071
 21
1795.498294932015
 31
0.0
  0
LWPOLYLINE
  5
C56
330
B8D
100
AcDbEntity
  8
0
  6
Continuous
 62
     7
370
    15
100
AcDbPolyline
 90
        6
 70
   128
 43
0.0
 10
2332.082795991071
 20
1795.498294932015
 10
2331.45536178419
 20
1794.980993143897
 10
2331.172177109045
 20
1794.37094554757
 10
2331.267511963288
 20
1793.741798988249
 10
2331.729910306657
 20
1793.169461180075
 10
2332.139820018562
 20
1792.894577231947
  0
ARC
  5
C57
330
B8D
100
AcDbEntity
  8
0
  6
Continuous
 62
     7
370
    15
100
AcDbCircle
 10
2342.580614707003
 20
1796.069104394137
 30
0.0
 40
4.75738221885931
100
AcDbArc
 50
61.28500023045185
 51
117.8798911109708
  0
LINE
  5
C58
330
B8D
100
AcDbEntity
  8
0
  6
Continuous
 62
     7
370
    15
100
AcDbLine
 10
2322.678316801744
 20
1790.069204657452
 30
0.0
 11
2314.405143320147
 21
1785.293203266574
 31
0.0
  0
LWPOLYLINE
  5
C59
330
B8D
100
AcDbEntity
  8
0
  6
Continuous
 62
     7
370
    15
100
AcDbPolyline
 90
        6
 70
   128
 43
0.0
 10
2314.405143320147
 20
1785.293203266574
 10
2313.777709113266
 20
1784.775901478457
 10
2313.494524438121
 20
1784.165853882129
 10
2313.589859292363
 20
1783.536707322809
 10
2314.052257635733
 20
1782.964369514634
 10
2314.462167347638
 20
1782.689485566506
  0
ARC
  5
C5A
330
B8D
100
AcDbEntity
  8
0
  6
Continuous
 62
     7
370
    15
100
AcDbCircle
 10
2324.902961306844
 20
1785.863912666701
 30
0.0
 40
4.757470325871226
100
AcDbArc
 50
61.28557151231081
 51
117.8793198291218
  0
LINE
  5
C5B
330
B8D
100
AcDbEntity
  8
0
  6
Continuous
 62
     7
370
    15
100
AcDbLine
 10
2305.00066413082
 20
1779.864112992011
 30
0.0
 11
2296.727490649223
 21
1775.088111601133
 31
0.0
  0
LWPOLYLINE
  5
C5C
330
B8D
100
AcDbEntity
  8
0
  6
Continuous
 62
     7
370
    15
100
AcDbPolyline
 90
        6
 70
   128
 43
0.0
 10
2296.727490649223
 20
1775.088111601133
 10
2296.099972148644
 20
1774.5707611513
 10
2295.816871767197
 20
1773.960762216688
 10
2295.912206621439
 20
1773.331615657368
 10
2296.374520671111
 20
1772.759229187478
 10
2296.784430383016
 20
1772.48434523935
  0
ARC
  5
C5D
330
B8D
100
AcDbEntity
  8
0
  6
Continuous
 62
     7
370
    15
100
AcDbCircle
 10
2307.22522208125
 20
1775.658982562188
 30
0.0
 40
4.757287042701168
100
AcDbArc
 50
61.28433120380638
 51
117.8793082547872
  0
LINE
  5
C5E
330
B8D
100
AcDbEntity
  8
0
  6
Continuous
 62
     7
370
    15
100
AcDbLine
 10
2287.323011459895
 20
1769.65902132657
 30
0.0
 11
2279.049837978298
 21
1764.883019935692
 31
0.0
  0
LWPOLYLINE
  5
C5F
330
B8D
100
AcDbEntity
  8
0
  6
Continuous
 62
     7
370
    15
100
AcDbPolyline
 90
        6
 70
   128
 43
0.0
 10
2279.049837978298
 20
1764.883019935692
 10
2278.42231947772
 20
1764.365669485859
 10
2278.139219096273
 20
1763.755670551248
 10
2278.234553950515
 20
1763.126523991927
 10
2278.696868000187
 20
1762.554137522037
 10
2279.106777712092
 20
1762.279253573909
  0
ARC
  5
C60
330
B8D
100
AcDbEntity
  8
0
  6
Continuous
 62
     7
370
    15
100
AcDbCircle
 10
2289.547569410325
 20
1765.453890896748
 30
0.0
 40
4.757287042699546
100
AcDbArc
 50
61.28433120377726
 51
117.8793082547872
  0
LINE
  5
C61
330
B8D
100
AcDbEntity
  8
0
  6
Continuous
 62
     7
370
    15
100
AcDbLine
 10
2269.645274495275
 20
1759.453880999414
 30
0.0
 11
2261.372185307374
 21
1754.677928270251
 31
0.0
  0
LWPOLYLINE
  5
C62
330
B8D
100
AcDbEntity
  8
0
  6
Continuous
 62
     7
370
    15
100
AcDbPolyline
 90
        6
 70
   128
 43
0.0
 10
2261.372185307374
 20
1754.677928270251
 10
2260.744666806795
 20
1754.160577820419
 10
2260.461566425348
 20
1753.550578885807
 10
2260.55690127959
 20
1752.921432326486
 10
2261.019215329263
 20
1752.349045856596
 10
2261.429125041168
 20
1752.074161908469
  0
ARC
  5
C63
330
B8D
100
AcDbEntity
  8
0
  6
Continuous
 62
     7
370
    15
100
AcDbCircle
 10
2271.869919729608
 20
1755.248689070659
 30
0.0
 40
4.757382218858707
100
AcDbArc
 50
61.28500023045185
 51
117.8798911109708
  0
LINE
  5
C64
330
B8D
100
AcDbEntity
  8
0
  6
Continuous
 62
     7
370
    15
100
AcDbLine
 10
2251.96762182435
 20
1749.248789333973
 30
0.0
 11
2243.694448342752
 21
1744.472787943095
 31
0.0
  0
LWPOLYLINE
  5
C65
330
B8D
100
AcDbEntity
  8
0
  6
Continuous
 62
     7
370
    15
100
AcDbPolyline
 90
        6
 70
   128
 43
0.0
 10
2243.694448342752
 20
1744.472787943095
 10
2243.067014135871
 20
1743.955486154978
 10
2242.783829460727
 20
1743.345438558651
 10
2242.87916431497
 20
1742.71629199933
 10
2243.341562658338
 20
1742.143954191156
 10
2243.751472370243
 20
1741.869070243028
  0
ARC
  5
C66
330
B8D
100
AcDbEntity
  8
0
  6
Continuous
 62
     7
370
    15
100
AcDbCircle
 10
2254.192267058684
 20
1745.043597405218
 30
0.0
 40
4.757382218858869
100
AcDbArc
 50
61.28500023045185
 51
117.8798911109708
  0
LINE
  5
C67
330
B8D
100
AcDbEntity
  8
0
  6
Continuous
 62
     7
370
    15
100
AcDbLine
 10
2234.289969153426
 20
1739.043697668532
 30
0.0
 11
2226.016795671828
 21
1734.267696277655
 31
0.0
  0
LWPOLYLINE
  5
C68
330
B8D
100
AcDbEntity
  8
0
  6
Continuous
 62
     7
370
    15
100
AcDbPolyline
 90
        6
 70
   128
 43
0.0
 10
2226.016795671828
 20
1734.267696277655
 10
2225.389361464948
 20
1733.750394489537
 10
2225.106176789802
 20
1733.14034689321
 10
2225.201511644046
 20
1732.511200333889
 10
2225.663909987414
 20
1731.938862525715
 10
2226.073819699319
 20
1731.663978577587
  0
ARC
  5
C69
330
B8D
100
AcDbEntity
  8
0
  6
Continuous
 62
     7
370
    15
100
AcDbCircle
 10
2236.514613658524
 20
1734.838405677785
 30
0.0
 40
4.757470325867806
100
AcDbArc
 50
61.2855715122817
 51
117.8793198291218
  0
LINE
  5
C6A
330
B8D
100
AcDbEntity
  8
0
  6
Continuous
 62
     7
370
    15
100
AcDbLine
 10
2216.612316482502
 20
1728.838606003092
 30
0.0
 11
2208.339143000904
 21
1724.062604612214
 31
0.0
  0
LWPOLYLINE
  5
C6B
330
B8D
100
AcDbEntity
  8
0
  6
Continuous
 62
     7
370
    15
100
AcDbPolyline
 90
        6
 70
   128
 43
0.0
 10
2208.339143000904
 20
1724.062604612214
 10
2207.711624500325
 20
1723.545254162381
 10
2207.428524118878
 20
1722.935255227769
 10
2207.523858973121
 20
1722.306108668449
 10
2207.986173022793
 20
1721.733722198558
 10
2208.396082734697
 20
1721.458838250431
  0
ARC
  5
C6C
330
B8D
100
AcDbEntity
  8
0
  6
Continuous
 62
     7
370
    15
100
AcDbCircle
 10
2218.836874432931
 20
1724.633475573267
 30
0.0
 40
4.75728704270167
100
AcDbArc
 50
61.28433120380638
 51
117.8793082547872
  0
LINE
  5
C6D
330
B8D
100
AcDbEntity
  8
0
  6
Continuous
 62
     7
370
    15
100
AcDbLine
 10
2198.934663811577
 20
1718.633514337651
 30
0.0
 11
2190.661490329979
 21
1713.857512946773
 31
0.0
  0
LWPOLYLINE
  5
C6E
330
B8D
100
AcDbEntity
  8
0
  6
Continuous
 62
     7
370
    15
100
AcDbPolyline
 90
        6
 70
   128
 43
0.0
 10
2190.661490329979
 20
1713.857512946773
 10
2190.033971829401
 20
1713.34016249694
 10
2189.750871447953
 20
1712.730163562328
 10
2189.846206302197
 20
1712.101017003008
 10
2190.308520351869
 20
1711.528630533118
 10
2190.718430063773
 20
1711.25374658499
  0
ARC
  5
C6F
330
B8D
100
AcDbEntity
  8
0
  6
Continuous
 62
     7
370
    15
100
AcDbCircle
 10
2201.159221762007
 20
1714.428383907828
 30
0.0
 40
4.757287042700577
100
AcDbArc
 50
61.28433120380638
 51
117.8793082547872
  0
LINE
  5
C70
330
B8D
100
AcDbEntity
  8
0
  6
Continuous
 62
     7
370
    15
100
AcDbLine
 10
2181.256926846955
 20
1708.428374010495
 30
0.0
 11
2172.983837659055
 21
1703.652421281332
 31
0.0
  0
LWPOLYLINE
  5
C71
330
B8D
100
AcDbEntity
  8
0
  6
Continuous
 62
     7
370
    15
100
AcDbPolyline
 90
        6
 70
   128
 43
0.0
 10
2172.983837659055
 20
1703.652421281332
 10
2172.356319158477
 20
1703.135070831499
 10
2172.073218777029
 20
1702.525071896888
 10
2172.168553631272
 20
1701.895925337567
 10
2172.630867680945
 20
1701.323538867677
 10
2173.040777392849
 20
1701.048654919549
  0
ARC
  5
C72
330
B8D
100
AcDbEntity
  8
0
  6
Continuous
 62
     7
370
    15
100
AcDbCircle
 10
2183.481572081289
 20
1704.223182081734
 30
0.0
 40
4.757382218863229
100
AcDbArc
 50
61.28500023048096
 51
117.8798911109417
  0
LINE
  5
C73
330
B8D
100
AcDbEntity
  8
0
  6
Continuous
 62
     7
370
    15
100
AcDbLine
 10
2163.579274176031
 20
1698.223282345054
 30
0.0
 11
2155.306100694434
 21
1693.447280954176
 31
0.0
  0
LWPOLYLINE
  5
C74
330
B8D
100
AcDbEntity
  8
0
  6
Continuous
 62
     7
370
    15
100
AcDbPolyline
 90
        6
 70
   128
 43
0.0
 10
2155.306100694434
 20
1693.447280954176
 10
2154.678666487553
 20
1692.929979166059
 10
2154.395481812409
 20
1692.319931569732
 10
2154.490816666651
 20
1691.690785010411
 10
2154.95321501002
 20
1691.118447202236
 10
2155.363124721925
 20
1690.843563254108
  0
ARC
  5
C75
330
B8D
100
AcDbEntity
  8
0
  6
Continuous
 62
     7
370
    15
100
AcDbCircle
 10
2165.803919410365
 20
1694.018090416298
 30
0.0
 40
4.757382218860037
100
AcDbArc
 50
61.28500023045185
 51
117.8798911109708
  0
LINE
  5
C76
330
B8D
100
AcDbEntity
  8
0
  6
Continuous
 62
     7
370
    15
100
AcDbLine
 10
2145.901621505107
 20
1688.018190679613
 30
0.0
 11
2137.62844802351
 21
1683.242189288735
 31
0.0
  0
LWPOLYLINE
  5
C77
330
B8D
100
AcDbEntity
  8
0
  6
Continuous
 62
     7
370
    15
100
AcDbPolyline
 90
        6
 70
   128
 43
0.0
 10
2137.62844802351
 20
1683.242189288735
 10
2137.001013816628
 20
1682.724887500618
 10
2136.717829141484
 20
1682.114839904291
 10
2136.813163995726
 20
1681.48569334497
 10
2137.275562339096
 20
1680.913355536796
 10
2137.685472051
 20
1680.638471588668
  0
ARC
  5
C78
330
B8D
100
AcDbEntity
  8
0
  6
Continuous
 62
     7
370
    15
100
AcDbCircle
 10
2148.126266010207
 20
1683.812898688862
 30
0.0
 40
4.757470325871137
100
AcDbArc
 50
61.28557151231081
 51
117.8793198291218
  0
LINE
  5
C79
330
B8D
100
AcDbEntity
  8
0
  6
Continuous
 62
     7
370
    15
100
AcDbLine
 10
2128.223968834182
 20
1677.813099014173
 30
0.0
 11
2119.950795352585
 21
1673.037097623295
 31
0.0
  0
LWPOLYLINE
  5
C7A
330
B8D
100
AcDbEntity
  8
0
  6
Continuous
 62
     7
370
    15
100
AcDbPolyline
 90
        6
 70
   128
 43
0.0
 10
2119.950795352585
 20
1673.037097623295
 10
2119.323276852008
 20
1672.519747173462
 10
2119.04017647056
 20
1671.90974823885
 10
2119.135511324802
 20
1671.280601679529
 10
2119.597825374474
 20
1670.708215209639
 10
2120.007735086379
 20
1670.433331261511
  0
ARC
  5
C7B
330
B8D
100
AcDbEntity
  8
0
  6
Continuous
 62
     7
370
    15
100
AcDbCircle
 10
2130.448526784613
 20
1673.60796858435
 30
0.0
 40
4.757287042700264
100
AcDbArc
 50
61.28433120380638
 51
117.8793082547872
  0
LINE
  5
C7C
330
B8D
100
AcDbEntity
  8
0
  6
Continuous
 62
     7
370
    15
100
AcDbLine
 10
2110.546316163258
 20
1667.608007348732
 30
0.0
 11
2102.273142681661
 21
1662.832005957854
 31
0.0
  0
LWPOLYLINE
  5
C7D
330
B8D
100
AcDbEntity
  8
0
  6
Continuous
 62
     7
370
    15
100
AcDbPolyline
 90
        6
 70
   128
 43
0.0
 10
2102.273142681661
 20
1662.832005957854
 10
2101.645624181083
 20
1662.314655508021
 10
2101.362523799636
 20
1661.704656573409
 10
2101.457858653878
 20
1661.075510014088
 10
2101.92017270355
 20
1660.503123544199
 10
2102.330082415455
 20
1660.228239596071
  0
ARC
  5
C7E
330
B8D
100
AcDbEntity
  8
0
  6
Continuous
 62
     7
370
    15
100
AcDbCircle
 10
2112.770874113689
 20
1663.40287691891
 30
0.0
 40
4.757287042699259
100
AcDbArc
 50
61.28433120377726
 51
117.8793082547872
  0
LINE
  5
C7F
330
B8D
100
AcDbEntity
  8
0
  6
Continuous
 62
     7
370
    15
100
AcDbLine
 10
2092.868579198637
 20
1657.402867021575
 30
0.0
 11
2084.595490010737
 21
1652.626914292413
 31
0.0
  0
LWPOLYLINE
  5
C80
330
B8D
100
AcDbEntity
  8
0
  6
Continuous
 62
     7
370
    15
100
AcDbPolyline
 90
        6
 70
   128
 43
0.0
 10
2084.595490010737
 20
1652.626914292413
 10
2083.967971510158
 20
1652.10956384258
 10
2083.684871128711
 20
1651.499564907968
 10
2083.780205982953
 20
1650.870418348648
 10
2084.242520032626
 20
1650.298031878758
 10
2084.65242974453
 20
1650.02314793063
  0
ARC
  5
C81
330
B8D
100
AcDbEntity
  8
0
  6
Continuous
 62
     7
370
    15
100
AcDbCircle
 10
2095.093224432971
 20
1653.197675092823
 30
0.0
 40
4.757382218856497
100
AcDbArc
 50
61.28500023045185
 51
117.8798911109739
  0
LINE
  5
C82
330
B8D
100
AcDbEntity
  8
0
  6
Continuous
 62
     7
370
    15
100
AcDbLine
 10
2075.190926527713
 20
1647.197775356135
 30
0.0
 11
2066.917753046115
 21
1642.421773965257
 31
0.0
  0
LWPOLYLINE
  5
C83
330
B8D
100
AcDbEntity
  8
0
  6
Continuous
 62
     7
370
    15
100
AcDbPolyline
 90
        6
 70
   128
 43
0.0
 10
2066.917753046115
 20
1642.421773965257
 10
2066.290318839234
 20
1641.904472177139
 10
2066.007134164089
 20
1641.294424580812
 10
2066.102469018332
 20
1640.665278021492
 10
2066.564867361701
 20
1640.092940213317
 10
2066.974777073606
 20
1639.818056265189
  0
ARC
  5
C84
330
B8D
100
AcDbEntity
  8
0
  6
Continuous
 62
     7
370
    15
100
AcDbCircle
 10
2077.415571762047
 20
1642.992583427379
 30
0.0
 40
4.757382218859411
100
AcDbArc
 50
61.28500023045185
 51
117.8798911109708
  0
LINE
  5
C85
330
B8D
100
AcDbEntity
  8
0
  6
Continuous
 62
     7
370
    15
100
AcDbLine
 10
2057.513273856789
 20
1636.992683690694
 30
0.0
 11
2049.240100375191
 21
1632.216682299816
 31
0.0
  0
LWPOLYLINE
  5
C86
330
B8D
100
AcDbEntity
  8
0
  6
Continuous
 62
     7
370
    15
100
AcDbPolyline
 90
        6
 70
   128
 43
0.0
 10
2049.240100375191
 20
1632.216682299816
 10
2048.61266616831
 20
1631.699380511699
 10
2048.329481493165
 20
1631.089332915371
 10
2048.424816347408
 20
1630.460186356051
 10
2048.887214690777
 20
1629.887848547876
 10
2049.297124402682
 20
1629.612964599749
  0
ARC
  5
C87
330
B8D
100
AcDbEntity
  8
0
  6
Continuous
 62
     7
370
    15
100
AcDbCircle
 10
2059.737918361888
 20
1632.787391699945
 30
0.0
 40
4.757470325868914
100
AcDbArc
 50
61.2855715122817
 51
117.8793198291478
  0
LINE
  5
C88
330
B8D
100
AcDbEntity
  8
0
  6
Continuous
 62
     7
370
    15
100
AcDbLine
 10
2039.835621185864
 20
1626.787592025253
 30
0.0
 11
2031.562447704267
 21
1622.011590634375
 31
0.0
  0
LWPOLYLINE
  5
C89
330
B8D
100
AcDbEntity
  8
0
  6
Continuous
 62
     7
370
    15
100
AcDbPolyline
 90
        6
 70
   128
 43
0.0
 10
2031.562447704267
 20
1622.011590634375
 10
2030.934929203689
 20
1621.494240184542
 10
2030.651828822241
 20
1620.884241249931
 10
2030.747163676483
 20
1620.25509469061
 10
2031.209477726156
 20
1619.68270822072
 10
2031.619387438061
 20
1619.407824272592
  0
ARC
  5
C8A
330
B8D
100
AcDbEntity
  8
0
  6
Continuous
 62
     7
370
    15
100
AcDbCircle
 10
2042.060179136295
 20
1622.582461595428
 30
0.0
 40
4.757287042702799
100
AcDbArc
 50
61.28433120380638
 51
117.8793082547872
  0
LINE
  5
C8B
330
B8D
100
AcDbEntity
  8
0
  6
Continuous
 62
     7
370
    15
100
AcDbLine
 10
2022.15796851494
 20
1616.582500359813
 30
0.0
 11
2013.884795033343
 21
1611.806498968935
 31
0.0
  0
LWPOLYLINE
  5
C8C
330
B8D
100
AcDbEntity
  8
0
  6
Continuous
 62
     7
370
    15
100
AcDbPolyline
 90
        6
 70
   128
 43
0.0
 10
2013.884795033343
 20
1611.806498968935
 10
2013.257276532764
 20
1611.289148519102
 10
2012.974176151317
 20
1610.67914958449
 10
2013.069511005559
 20
1610.050003025169
 10
2013.531825055231
 20
1609.477616555279
 10
2013.941734767136
 20
1609.202732607152
  0
ARC
  5
C8D
330
B8D
100
AcDbEntity
  8
0
  6
Continuous
 62
     7
370
    15
100
AcDbCircle
 10
2024.38252646537
 20
1612.37736992999
 30
0.0
 40
4.757287042700062
100
AcDbArc
 50
61.28433120380638
 51
117.8793082547872
  0
LINE
  5
C8E
330
B8D
100
AcDbEntity
  8
0
  6
Continuous
 62
     7
370
    15
100
AcDbLine
 10
2004.480231550318
 20
1606.377360032657
 30
0.0
 11
1996.207142362418
 21
1601.601407303494
 31
0.0
  0
LWPOLYLINE
  5
C8F
330
B8D
100
AcDbEntity
  8
0
  6
Continuous
 62
     7
370
    15
100
AcDbPolyline
 90
        6
 70
   128
 43
0.0
 10
1996.207142362418
 20
1601.601407303494
 10
1995.57962386184
 20
1601.084056853661
 10
1995.296523480392
 20
1600.474057919049
 10
1995.391858334635
 20
1599.844911359729
 10
1995.854172384307
 20
1599.272524889838
 10
1996.264082096212
 20
1598.997640941711
  0
ARC
  5
C90
330
B8D
100
AcDbEntity
  8
0
  6
Continuous
 62
     7
370
    15
100
AcDbCircle
 10
2006.704876784652
 20
1602.172168103901
 30
0.0
 40
4.757382218859246
100
AcDbArc
 50
61.28500023045185
 51
117.8798911109708
  0
LINE
  5
C91
330
B8D
100
AcDbEntity
  8
0
  6
Continuous
 62
     7
370
    15
100
AcDbLine
 10
1986.802578879394
 20
1596.172268367215
 30
0.0
 11
1978.529405397797
 21
1591.396266976338
 31
0.0
  0
LWPOLYLINE
  5
C92
330
B8D
100
AcDbEntity
  8
0
  6
Continuous
 62
     7
370
    15
100
AcDbPolyline
 90
        6
 70
   128
 43
0.0
 10
1978.529405397797
 20
1591.396266976338
 10
1977.901971190915
 20
1590.87896518822
 10
1977.618786515771
 20
1590.268917591893
 10
1977.714121370013
 20
1589.639771032572
 10
1978.176519713383
 20
1589.067433224398
 10
1978.586429425287
 20
1588.79254927627
  0
ARC
  5
C93
330
B8D
100
AcDbEntity
  8
0
  6
Continuous
 62
     7
370
    15
100
AcDbCircle
 10
1989.027224113728
 20
1591.967076438461
 30
0.0
 40
4.757382218858549
100
AcDbArc
 50
61.28500023045185
 51
117.8798911109708
  0
LINE
  5
C94
330
B8D
100
AcDbEntity
  8
0
  6
Continuous
 62
     7
370
    15
100
AcDbLine
 10
1969.12492620847
 20
1585.967176701775
 30
0.0
 11
1960.851752726872
 21
1581.191175310897
 31
0.0
  0
LWPOLYLINE
  5
C95
330
B8D
100
AcDbEntity
  8
0
  6
Continuous
 62
     7
370
    15
100
AcDbPolyline
 90
        6
 70
   128
 43
0.0
 10
1960.851752726872
 20
1581.191175310897
 10
1960.224318519991
 20
1580.67387352278
 10
1959.941133844847
 20
1580.063825926452
 10
1960.036468699089
 20
1579.434679367132
 10
1960.498867042458
 20
1578.862341558957
 10
1960.908776754363
 20
1578.587457610829
  0
ARC
  5
C96
330
B8D
100
AcDbEntity
  8
0
  6
Continuous
 62
     7
370
    15
100
AcDbCircle
 10
1971.349570713569
 20
1581.761884711025
 30
0.0
 40
4.757470325870523
100
AcDbArc
 50
61.28557151231081
 51
117.8793198291218
  0
LINE
  5
C97
330
B8D
100
AcDbEntity
  8
0
  6
Continuous
 62
     7
370
    15
100
AcDbLine
 10
1951.447273537545
 20
1575.762085036334
 30
0.0
 11
1943.174100055948
 21
1570.986083645456
 31
0.0
  0
LWPOLYLINE
  5
C98
330
B8D
100
AcDbEntity
  8
0
  6
Continuous
 62
     7
370
    15
100
AcDbPolyline
 90
        6
 70
   128
 43
0.0
 10
1943.174100055948
 20
1570.986083645456
 10
1942.54658155537
 20
1570.468733195623
 10
1942.263481173922
 20
1569.858734261012
 10
1942.358816028165
 20
1569.229587701691
 10
1942.821130077837
 20
1568.657201231801
 10
1943.231039789742
 20
1568.382317283673
  0
ARC
  5
C99
330
B8D
100
AcDbEntity
  8
0
  6
Continuous
 62
     7
370
    15
100
AcDbCircle
 10
1953.671831487976
 20
1571.556954606513
 30
0.0
 40
4.757287042698757
100
AcDbArc
 50
61.28433120377726
 51
117.8793082547872
  0
LINE
  5
C9A
330
B8D
100
AcDbEntity
  8
0
  6
Continuous
 62
     7
370
    15
100
AcDbLine
 10
1933.769620866621
 20
1565.556993370893
 30
0.0
 11
1925.496447385024
 21
1560.780991980015
 31
0.0
  0
LWPOLYLINE
  5
C9B
330
B8D
100
AcDbEntity
  8
0
  6
Continuous
 62
     7
370
    15
100
AcDbPolyline
 90
        6
 70
   128
 43
0.0
 10
1925.496447385024
 20
1560.780991980015
 10
1924.868928884445
 20
1560.263641530182
 10
1924.585828502998
 20
1559.653642595571
 10
1924.68116335724
 20
1559.02449603625
 10
1925.143477406913
 20
1558.45210956636
 10
1925.553387118817
 20
1558.177225618232
  0
ARC
  5
C9C
330
B8D
100
AcDbEntity
  8
0
  6
Continuous
 62
     7
370
    15
100
AcDbCircle
 10
1935.99417881705
 20
1561.351862941074
 30
0.0
 40
4.757287042697751
100
AcDbArc
 50
61.28433120377726
 51
117.8793082547872
  0
LINE
  5
C9D
330
B8D
100
AcDbEntity
  8
0
  6
Continuous
 62
     7
370
    15
100
AcDbLine
 10
1916.091883902
 20
1555.351853043737
 30
0.0
 11
1907.818794714099
 21
1550.575900314575
 31
0.0
  0
LWPOLYLINE
  5
C9E
330
B8D
100
AcDbEntity
  8
0
  6
Continuous
 62
     7
370
    15
100
AcDbPolyline
 90
        6
 70
   128
 43
0.0
 10
1907.818794714099
 20
1550.575900314575
 10
1907.191276213521
 20
1550.058549864742
 10
1906.908175832073
 20
1549.44855093013
 10
1907.003510686316
 20
1548.819404370809
 10
1907.465824735988
 20
1548.247017900919
 10
1907.875734447893
 20
1547.972133952792
  0
ARC
  5
C9F
330
B8D
100
AcDbEntity
  8
0
  6
Continuous
 62
     7
370
    15
100
AcDbCircle
 10
1918.316529136333
 20
1551.14666111498
 30
0.0
 40
4.757382218860126
100
AcDbArc
 50
61.28500023045185
 51
117.8798911109708
  0
LINE
  5
CA0
330
B8D
100
AcDbEntity
  8
0
  6
Continuous
 62
     7
370
    15
100
AcDbLine
 10
1898.414231231075
 20
1545.146761378297
 30
0.0
 11
1890.141057749478
 21
1540.370759987418
 31
0.0
  0
LWPOLYLINE
  5
CA1
330
B8D
100
AcDbEntity
  8
0
  6
Continuous
 62
     7
370
    15
100
AcDbPolyline
 90
       10
 70
   128
 43
0.0
 10
1890.141057749478
 20
1540.370759987418
 10
1889.513623542596
 20
1539.853458199301
 10
1889.230438867452
 20
1539.243410602974
 10
1889.325773721694
 20
1538.614264043653
 10
1889.788172065064
 20
1538.041926235479
 10
1890.561735322633
 20
1537.595357672363
 10
1891.553160249966
 20
1537.328421170817
 10
1892.642992800216
 20
1537.27338515076
 10
1893.69974073293
 20
1537.436864183972
 10
1894.595830147476
 20
1537.799074621916
  0
LINE
  5
CA2
330
B8D
100
AcDbEntity
  8
0
  6
Continuous
 62
     7
370
    15
100
AcDbLine
 10
1894.595830147476
 20
1537.799074621916
 30
0.0
 11
1898.520291799719
 21
1540.064618110307
 31
0.0
  0
ARC
  5
CA3
330
B8D
100
AcDbEntity
  8
0
  6
Continuous
 62
     7
370
    15
100
AcDbCircle
 10
1900.638876465409
 20
1540.94156944954
 30
0.0
 40
4.757382218859845
100
AcDbArc
 50
61.28500023045185
 51
117.8798911109708
  0
LINE
  5
CA4
330
B8D
100
AcDbEntity
  8
0
  6
Continuous
 62
     7
370
    15
100
AcDbLine
 10
1890.141057749478
 20
1539.145948758943
 30
0.0
 11
1890.141057749478
 21
1540.370759987418
 31
0.0
  0
LWPOLYLINE
  5
CA5
330
B8D
100
AcDbEntity
  8
0
  6
Continuous
 62
     7
370
    15
100
AcDbPolyline
 90
        3
 70
   128
 43
0.0
 10
1890.141057749478
 20
1539.145948758943
 10
1889.513623542596
 20
1538.628646970826
 10
1889.402510620487
 20
1538.472548171075
  0
LINE
  5
CA6
330
B8D
100
AcDbEntity
  8
0
  6
Continuous
 62
     7
370
    15
100
AcDbLine
 10
1879.640556350071
 20
1554.761763875305
 30
0.0
 11
3293.854118723168
 21
2371.169875698013
 31
0.0
  0
ARC
  5
CA7
330
B8D
100
AcDbEntity
  8
0
  6
Continuous
 62
     7
370
    15
100
AcDbCircle
 10
3291.618224570975
 20
2367.674440982072
 30
0.0
 40
4.149371821518596
100
AcDbArc
 50
2.605469276137131
 51
57.39452801674021
  0
LINE
  5
CA8
330
B8D
100
AcDbEntity
  8
0
  6
Continuous
 62
     7
370
    15
100
AcDbLine
 10
1881.549744544161
 20
1551.45495274152
 30
0.0
 11
3295.763306917259
 21
2367.863064564228
 31
0.0
  0
LINE
  5
CA9
330
B8D
100
AcDbEntity
  8
0
  6
Continuous
 62
     7
370
    15
100
AcDbLine
 10
3295.763306917259
 20
2360.024273158265
 30
0.0
 11
3295.763306917259
 21
2367.863064564228
 31
0.0
  0
LINE
  5
CAA
330
B8D
100
AcDbEntity
  8
0
  6
Continuous
 62
     7
370
    15
100
AcDbLine
 10
1881.549744544161
 20
1543.616161335557
 30
0.0
 11
3295.763306917259
 21
2360.024273158265
 31
0.0
  0
LINE
  5
CAB
330
B8D
100
AcDbEntity
  8
0
  6
Continuous
 62
     7
370
    15
100
AcDbLine
 10
3291.874219806442
 20
2372.312847013811
 30
0.0
 11
1877.660657433344
 21
1555.904735191103
 31
0.0
  0
LINE
  5
CAC
330
B8D
100
AcDbEntity
  8
0
  6
Continuous
 62
     7
370
    15
100
AcDbLine
 10
3293.854118723168
 20
2371.169875698013
 30
0.0
 11
3291.874219806442
 21
2372.312847013811
 31
0.0
  0
LINE
  5
CAD
330
B8D
100
AcDbEntity
  8
0
  6
Continuous
 62
     7
370
    15
100
AcDbLine
 10
1898.414231231075
 20
1543.921950149821
 30
0.0
 11
1898.414231231075
 21
1545.146761378297
 31
0.0
  0
LINE
  5
CAE
330
B8D
100
AcDbEntity
  8
0
  6
Continuous
 62
     7
370
    15
100
AcDbLine
 10
1898.414231231075
 20
1543.921950149821
 30
0.0
 11
1890.141057749478
 21
1539.145948758943
 31
0.0
  0
ARC
  5
CAF
330
B8D
100
AcDbEntity
  8
0
  6
Continuous
 62
     7
370
    15
100
AcDbCircle
 10
3297.605566340547
 20
2360.108106193126
 30
0.0
 40
1.844165871181461
100
AcDbArc
 50
182.6054787191497
 51
237.3945214264832
  0
ARC
  5
CB0
330
B8D
100
AcDbEntity
  8
0
  6
Continuous
 62
     7
370
    15
100
AcDbCircle
 10
1900.655947384514
 20
1539.517557184145
 30
0.0
 40
4.942061180185286
100
AcDbArc
 50
78.69175102487616
 51
116.9748554925126
  0
LINE
  5
CB1
330
B8D
100
AcDbEntity
  8
0
  6
Continuous
 62
     7
370
    15
100
AcDbLine
 10
1907.818794714099
 20
1549.351089086099
 30
0.0
 11
1907.818794714099
 21
1550.575900314575
 31
0.0
  0
LWPOLYLINE
  5
CB2
330
B8D
100
AcDbEntity
  8
0
  6
Continuous
 62
     7
370
    15
100
AcDbPolyline
 90
        3
 70
   128
 43
0.0
 10
1907.818794714099
 20
1549.351089086099
 10
1907.191276213521
 20
1548.833738636267
 10
1907.080163291412
 20
1548.677639836515
  0
LINE
  5
CB3
330
B8D
100
AcDbEntity
  8
0
  6
Continuous
 62
     7
370
    15
100
AcDbLine
 10
1916.091883902
 20
1554.127041815262
 30
0.0
 11
1916.091883902
 21
1555.351853043737
 31
0.0
  0
LINE
  5
CB4
330
B8D
100
AcDbEntity
  8
0
  6
Continuous
 62
     7
370
    15
100
AcDbLine
 10
1916.091883902
 20
1554.127041815262
 30
0.0
 11
1907.818794714099
 21
1549.351089086099
 31
0.0
  0
ARC
  5
CB5
330
B8D
100
AcDbEntity
  8
0
  6
Continuous
 62
     7
370
    15
100
AcDbCircle
 10
1918.333600055438
 20
1549.722648849586
 30
0.0
 40
4.942061180184618
100
AcDbArc
 50
78.69175102487616
 51
116.9748554925126
  0
LINE
  5
CB6
330
B8D
100
AcDbEntity
  8
0
  6
Continuous
 62
     7
370
    15
100
AcDbLine
 10
1925.496447385024
 20
1559.55618075154
 30
0.0
 11
1925.496447385024
 21
1560.780991980015
 31
0.0
  0
LWPOLYLINE
  5
CB7
330
B8D
100
AcDbEntity
  8
0
  6
Continuous
 62
     7
370
    15
100
AcDbPolyline
 90
        3
 70
   128
 43
0.0
 10
1925.496447385024
 20
1559.55618075154
 10
1924.868928884445
 20
1559.038830301708
 10
1924.757815962336
 20
1558.882731501956
  0
LINE
  5
CB8
330
B8D
100
AcDbEntity
  8
0
  6
Continuous
 62
     7
370
    15
100
AcDbLine
 10
1933.769620866621
 20
1564.332182142418
 30
0.0
 11
1933.769620866621
 21
1565.556993370893
 31
0.0
  0
LINE
  5
CB9
330
B8D
100
AcDbEntity
  8
0
  6
Continuous
 62
     7
370
    15
100
AcDbLine
 10
1933.769620866621
 20
1564.332182142418
 30
0.0
 11
1925.496447385024
 21
1559.55618075154
 31
0.0
  0
ARC
  5
CBA
330
B8D
100
AcDbEntity
  8
0
  6
Continuous
 62
     7
370
    15
100
AcDbCircle
 10
1936.011631945529
 20
1559.925645436142
 30
0.0
 40
4.944105522913458
100
AcDbArc
 50
78.69997390944262
 51
116.9666326079574
  0
LINE
  5
CBB
330
B8D
100
AcDbEntity
  8
0
  6
Continuous
 62
     7
370
    15
100
AcDbLine
 10
1943.174100055948
 20
1569.761272416981
 30
0.0
 11
1943.174100055948
 21
1570.986083645456
 31
0.0
  0
LWPOLYLINE
  5
CBC
330
B8D
100
AcDbEntity
  8
0
  6
Continuous
 62
     7
370
    15
100
AcDbPolyline
 90
        3
 70
   128
 43
0.0
 10
1943.174100055948
 20
1569.761272416981
 10
1942.54658155537
 20
1569.243921967149
 10
1942.43546863326
 20
1569.087823167397
  0
LINE
  5
CBD
330
B8D
100
AcDbEntity
  8
0
  6
Continuous
 62
     7
370
    15
100
AcDbLine
 10
1951.447273537545
 20
1574.537273807859
 30
0.0
 11
1951.447273537545
 21
1575.762085036334
 31
0.0
  0
LINE
  5
CBE
330
B8D
100
AcDbEntity
  8
0
  6
Continuous
 62
     7
370
    15
100
AcDbLine
 10
1951.447273537545
 20
1574.537273807859
 30
0.0
 11
1943.174100055948
 21
1569.761272416981
 31
0.0
  0
ARC
  5
CBF
330
B8D
100
AcDbEntity
  8
0
  6
Continuous
 62
     7
370
    15
100
AcDbCircle
 10
1953.689010840461
 20
1570.132727111849
 30
0.0
 40
4.942207779183042
100
AcDbArc
 50
78.69234092468442
 51
116.9742655926917
  0
LINE
  5
CC0
330
B8D
100
AcDbEntity
  8
0
  6
Continuous
 62
     7
370
    15
100
AcDbLine
 10
1960.851752726872
 20
1579.966364082421
 30
0.0
 11
1960.851752726872
 21
1581.191175310897
 31
0.0
  0
LWPOLYLINE
  5
CC1
330
B8D
100
AcDbEntity
  8
0
  6
Continuous
 62
     7
370
    15
100
AcDbPolyline
 90
        3
 70
   128
 43
0.0
 10
1960.851752726872
 20
1579.966364082421
 10
1960.224318519991
 20
1579.449062294304
 10
1960.113121304185
 20
1579.292914832837
  0
LINE
  5
CC2
330
B8D
100
AcDbEntity
  8
0
  6
Continuous
 62
     7
370
    15
100
AcDbLine
 10
1969.12492620847
 20
1584.7423654733
 30
0.0
 11
1969.12492620847
 21
1585.967176701775
 31
0.0
  0
LINE
  5
CC3
330
B8D
100
AcDbEntity
  8
0
  6
Continuous
 62
     7
370
    15
100
AcDbLine
 10
1969.12492620847
 20
1584.7423654733
 30
0.0
 11
1960.851752726872
 21
1579.966364082421
 31
0.0
  0
ARC
  5
CC4
330
B8D
100
AcDbEntity
  8
0
  6
Continuous
 62
     7
370
    15
100
AcDbCircle
 10
1971.366663511384
 20
1580.337818777294
 30
0.0
 40
4.942207779178479
100
AcDbArc
 50
78.69234092468442
 51
116.9742655927208
  0
LINE
  5
CC5
330
B8D
100
AcDbEntity
  8
0
  6
Continuous
 62
     7
370
    15
100
AcDbLine
 10
1978.529405397797
 20
1590.171455747863
 30
0.0
 11
1978.529405397797
 21
1591.396266976338
 31
0.0
  0
LWPOLYLINE
  5
CC6
330
B8D
100
AcDbEntity
  8
0
  6
Continuous
 62
     7
370
    15
100
AcDbPolyline
 90
        3
 70
   128
 43
0.0
 10
1978.529405397797
 20
1590.171455747863
 10
1977.901971190915
 20
1589.654153959745
 10
1977.790858268806
 20
1589.498055159994
  0
LINE
  5
CC7
330
B8D
100
AcDbEntity
  8
0
  6
Continuous
 62
     7
370
    15
100
AcDbLine
 10
1986.802578879394
 20
1594.947457138741
 30
0.0
 11
1986.802578879394
 21
1596.172268367215
 31
0.0
  0
LINE
  5
CC8
330
B8D
100
AcDbEntity
  8
0
  6
Continuous
 62
     7
370
    15
100
AcDbLine
 10
1986.802578879394
 20
1594.947457138741
 30
0.0
 11
1978.529405397797
 21
1590.171455747863
 31
0.0
  0
ARC
  5
CC9
330
B8D
100
AcDbEntity
  8
0
  6
Continuous
 62
     7
370
    15
100
AcDbCircle
 10
1989.044295032833
 20
1590.543064173062
 30
0.0
 40
4.942061180186936
100
AcDbArc
 50
78.69175102487616
 51
116.9748554925126
  0
LINE
  5
CCA
330
B8D
100
AcDbEntity
  8
0
  6
Continuous
 62
     7
370
    15
100
AcDbLine
 10
1996.207142362418
 20
1600.376596075019
 30
0.0
 11
1996.207142362418
 21
1601.601407303494
 31
0.0
  0
LWPOLYLINE
  5
CCB
330
B8D
100
AcDbEntity
  8
0
  6
Continuous
 62
     7
370
    15
100
AcDbPolyline
 90
        3
 70
   128
 43
0.0
 10
1996.207142362418
 20
1600.376596075019
 10
1995.57962386184
 20
1599.859245625186
 10
1995.468510939731
 20
1599.703146825434
  0
LINE
  5
CCC
330
B8D
100
AcDbEntity
  8
0
  6
Continuous
 62
     7
370
    15
100
AcDbLine
 10
2004.480231550318
 20
1605.152548804181
 30
0.0
 11
2004.480231550318
 21
1606.377360032657
 31
0.0
  0
LINE
  5
CCD
330
B8D
100
AcDbEntity
  8
0
  6
Continuous
 62
     7
370
    15
100
AcDbLine
 10
2004.480231550318
 20
1605.152548804181
 30
0.0
 11
1996.207142362418
 21
1600.376596075019
 31
0.0
  0
ARC
  5
CCE
330
B8D
100
AcDbEntity
  8
0
  6
Continuous
 62
     7
370
    15
100
AcDbCircle
 10
2006.721947703758
 20
1600.7481558385
 30
0.0
 40
4.942061180189924
100
AcDbArc
 50
78.69175102487616
 51
116.9748554924864
  0
LINE
  5
CCF
330
B8D
100
AcDbEntity
  8
0
  6
Continuous
 62
     7
370
    15
100
AcDbLine
 10
2013.884795033343
 20
1610.581687740459
 30
0.0
 11
2013.884795033343
 21
1611.806498968935
 31
0.0
  0
LWPOLYLINE
  5
CD0
330
B8D
100
AcDbEntity
  8
0
  6
Continuous
 62
     7
370
    15
100
AcDbPolyline
 90
        3
 70
   128
 43
0.0
 10
2013.884795033343
 20
1610.581687740459
 10
2013.257276532764
 20
1610.064337290627
 10
2013.146163610655
 20
1609.908238490875
  0
LINE
  5
CD1
330
B8D
100
AcDbEntity
  8
0
  6
Continuous
 62
     7
370
    15
100
AcDbLine
 10
2022.15796851494
 20
1615.357689131338
 30
0.0
 11
2022.15796851494
 21
1616.582500359813
 31
0.0
  0
LINE
  5
CD2
330
B8D
100
AcDbEntity
  8
0
  6
Continuous
 62
     7
370
    15
100
AcDbLine
 10
2022.15796851494
 20
1615.357689131338
 30
0.0
 11
2013.884795033343
 21
1610.581687740459
 31
0.0
  0
ARC
  5
CD3
330
B8D
100
AcDbEntity
  8
0
  6
Continuous
 62
     7
370
    15
100
AcDbCircle
 10
2024.399979593847
 20
1610.951152425064
 30
0.0
 40
4.944105522910985
100
AcDbArc
 50
78.69997390941581
 51
116.9666326079574
  0
LINE
  5
CD4
330
B8D
100
AcDbEntity
  8
0
  6
Continuous
 62
     7
370
    15
100
AcDbLine
 10
2031.562447704267
 20
1620.7867794059
 30
0.0
 11
2031.562447704267
 21
1622.011590634375
 31
0.0
  0
LWPOLYLINE
  5
CD5
330
B8D
100
AcDbEntity
  8
0
  6
Continuous
 62
     7
370
    15
100
AcDbPolyline
 90
        3
 70
   128
 43
0.0
 10
2031.562447704267
 20
1620.7867794059
 10
2030.934929203689
 20
1620.269428956068
 10
2030.823816281579
 20
1620.113330156316
  0
LINE
  5
CD6
330
B8D
100
AcDbEntity
  8
0
  6
Continuous
 62
     7
370
    15
100
AcDbLine
 10
2039.835621185864
 20
1625.562780796778
 30
0.0
 11
2039.835621185864
 21
1626.787592025253
 31
0.0
  0
LINE
  5
CD7
330
B8D
100
AcDbEntity
  8
0
  6
Continuous
 62
     7
370
    15
100
AcDbLine
 10
2039.835621185864
 20
1625.562780796778
 30
0.0
 11
2031.562447704267
 21
1620.7867794059
 31
0.0
  0
ARC
  5
CD8
330
B8D
100
AcDbEntity
  8
0
  6
Continuous
 62
     7
370
    15
100
AcDbCircle
 10
2042.077358488779
 20
1621.158234100769
 30
0.0
 40
4.942207779181928
100
AcDbArc
 50
78.69234092468442
 51
116.9742655926917
  0
LINE
  5
CD9
330
B8D
100
AcDbEntity
  8
0
  6
Continuous
 62
     7
370
    15
100
AcDbLine
 10
2049.240100375191
 20
1630.991871071341
 30
0.0
 11
2049.240100375191
 21
1632.216682299816
 31
0.0
  0
LWPOLYLINE
  5
CDA
330
B8D
100
AcDbEntity
  8
0
  6
Continuous
 62
     7
370
    15
100
AcDbPolyline
 90
        3
 70
   128
 43
0.0
 10
2049.240100375191
 20
1630.991871071341
 10
2048.61266616831
 20
1630.474569283224
 10
2048.501468952504
 20
1630.318421821757
  0
LINE
  5
CDB
330
B8D
100
AcDbEntity
  8
0
  6
Continuous
 62
     7
370
    15
100
AcDbLine
 10
2057.513273856789
 20
1635.767872462219
 30
0.0
 11
2057.513273856789
 21
1636.992683690694
 31
0.0
  0
LINE
  5
CDC
330
B8D
100
AcDbEntity
  8
0
  6
Continuous
 62
     7
370
    15
100
AcDbLine
 10
2057.513273856789
 20
1635.767872462219
 30
0.0
 11
2049.240100375191
 21
1630.991871071341
 31
0.0
  0
ARC
  5
CDD
330
B8D
100
AcDbEntity
  8
0
  6
Continuous
 62
     7
370
    15
100
AcDbCircle
 10
2059.755011159703
 20
1631.363325766217
 30
0.0
 40
4.942207779175451
100
AcDbArc
 50
78.69234092465759
 51
116.9742655927208
  0
LINE
  5
CDE
330
B8D
100
AcDbEntity
  8
0
  6
Continuous
 62
     7
370
    15
100
AcDbLine
 10
2066.917753046115
 20
1641.196962736781
 30
0.0
 11
2066.917753046115
 21
1642.421773965257
 31
0.0
  0
LWPOLYLINE
  5
CDF
330
B8D
100
AcDbEntity
  8
0
  6
Continuous
 62
     7
370
    15
100
AcDbPolyline
 90
        3
 70
   128
 43
0.0
 10
2066.917753046115
 20
1641.196962736781
 10
2066.290318839234
 20
1640.679660948665
 10
2066.179205917125
 20
1640.523562148913
  0
LINE
  5
CE0
330
B8D
100
AcDbEntity
  8
0
  6
Continuous
 62
     7
370
    15
100
AcDbLine
 10
2075.190926527713
 20
1645.97296412766
 30
0.0
 11
2075.190926527713
 21
1647.197775356135
 31
0.0
  0
LINE
  5
CE1
330
B8D
100
AcDbEntity
  8
0
  6
Continuous
 62
     7
370
    15
100
AcDbLine
 10
2075.190926527713
 20
1645.97296412766
 30
0.0
 11
2066.917753046115
 21
1641.196962736781
 31
0.0
  0
ARC
  5
CE2
330
B8D
100
AcDbEntity
  8
0
  6
Continuous
 62
     7
370
    15
100
AcDbCircle
 10
2077.432642681153
 20
1641.568571161982
 30
0.0
 40
4.942061180185966
100
AcDbArc
 50
78.69175102487616
 51
116.9748554925126
  0
LINE
  5
CE3
330
B8D
100
AcDbEntity
  8
0
  6
Continuous
 62
     7
370
    15
100
AcDbLine
 10
2084.595490010737
 20
1651.402103063938
 30
0.0
 11
2084.595490010737
 21
1652.626914292413
 31
0.0
  0
LWPOLYLINE
  5
CE4
330
B8D
100
AcDbEntity
  8
0
  6
Continuous
 62
     7
370
    15
100
AcDbPolyline
 90
        3
 70
   128
 43
0.0
 10
2084.595490010737
 20
1651.402103063938
 10
2083.967971510158
 20
1650.884752614105
 10
2083.856858588049
 20
1650.728653814354
  0
LINE
  5
CE5
330
B8D
100
AcDbEntity
  8
0
  6
Continuous
 62
     7
370
    15
100
AcDbLine
 10
2092.868579198637
 20
1656.1780557931
 30
0.0
 11
2092.868579198637
 21
1657.402867021575
 31
0.0
  0
LINE
  5
CE6
330
B8D
100
AcDbEntity
  8
0
  6
Continuous
 62
     7
370
    15
100
AcDbLine
 10
2092.868579198637
 20
1656.1780557931
 30
0.0
 11
2084.595490010737
 21
1651.402103063938
 31
0.0
  0
ARC
  5
CE7
330
B8D
100
AcDbEntity
  8
0
  6
Continuous
 62
     7
370
    15
100
AcDbCircle
 10
2095.110295352077
 20
1651.773662827424
 30
0.0
 40
4.942061180184543
100
AcDbArc
 50
78.69175102487616
 51
116.9748554925126
  0
LINE
  5
CE8
330
B8D
100
AcDbEntity
  8
0
  6
Continuous
 62
     7
370
    15
100
AcDbLine
 10
2102.273142681661
 20
1661.607194729378
 30
0.0
 11
2102.273142681661
 21
1662.832005957854
 31
0.0
  0
LWPOLYLINE
  5
CE9
330
B8D
100
AcDbEntity
  8
0
  6
Continuous
 62
     7
370
    15
100
AcDbPolyline
 90
        3
 70
   128
 43
0.0
 10
2102.273142681661
 20
1661.607194729378
 10
2101.645624181083
 20
1661.089844279546
 10
2101.534511258973
 20
1660.933745479794
  0
LINE
  5
CEA
330
B8D
100
AcDbEntity
  8
0
  6
Continuous
 62
     7
370
    15
100
AcDbLine
 10
2110.546316163258
 20
1666.383196120257
 30
0.0
 11
2110.546316163258
 21
1667.608007348732
 31
0.0
  0
LINE
  5
CEB
330
B8D
100
AcDbEntity
  8
0
  6
Continuous
 62
     7
370
    15
100
AcDbLine
 10
2110.546316163258
 20
1666.383196120257
 30
0.0
 11
2102.273142681661
 21
1661.607194729378
 31
0.0
  0
ARC
  5
CEC
330
B8D
100
AcDbEntity
  8
0
  6
Continuous
 62
     7
370
    15
100
AcDbCircle
 10
2112.788327242166
 20
1661.976659413983
 30
0.0
 40
4.944105522911128
100
AcDbArc
 50
78.69997390941581
 51
116.9666326079574
  0
LINE
  5
CED
330
B8D
100
AcDbEntity
  8
0
  6
Continuous
 62
     7
370
    15
100
AcDbLine
 10
2119.950795352585
 20
1671.812286394819
 30
0.0
 11
2119.950795352585
 21
1673.037097623295
 31
0.0
  0
LWPOLYLINE
  5
CEE
330
B8D
100
AcDbEntity
  8
0
  6
Continuous
 62
     7
370
    15
100
AcDbPolyline
 90
        3
 70
   128
 43
0.0
 10
2119.950795352585
 20
1671.812286394819
 10
2119.323276852008
 20
1671.294935944987
 10
2119.212163929898
 20
1671.138837145235
  0
LINE
  5
CEF
330
B8D
100
AcDbEntity
  8
0
  6
Continuous
 62
     7
370
    15
100
AcDbLine
 10
2128.223968834182
 20
1676.588287785697
 30
0.0
 11
2128.223968834182
 21
1677.813099014173
 31
0.0
  0
LINE
  5
CF0
330
B8D
100
AcDbEntity
  8
0
  6
Continuous
 62
     7
370
    15
100
AcDbLine
 10
2128.223968834182
 20
1676.588287785697
 30
0.0
 11
2119.950795352585
 21
1671.812286394819
 31
0.0
  0
ARC
  5
CF1
330
B8D
100
AcDbEntity
  8
0
  6
Continuous
 62
     7
370
    15
100
AcDbCircle
 10
2130.465706137097
 20
1672.183741089693
 30
0.0
 40
4.942207779177681
100
AcDbArc
 50
78.69234092468442
 51
116.9742655927208
  0
LINE
  5
CF2
330
B8D
100
AcDbEntity
  8
0
  6
Continuous
 62
     7
370
    15
100
AcDbLine
 10
2137.62844802351
 20
1682.01737806026
 30
0.0
 11
2137.62844802351
 21
1683.242189288735
 31
0.0
  0
LWPOLYLINE
  5
CF3
330
B8D
100
AcDbEntity
  8
0
  6
Continuous
 62
     7
370
    15
100
AcDbPolyline
 90
        3
 70
   128
 43
0.0
 10
2137.62844802351
 20
1682.01737806026
 10
2137.001013816628
 20
1681.500076272143
 10
2136.889816600822
 20
1681.343928810676
  0
LINE
  5
CF4
330
B8D
100
AcDbEntity
  8
0
  6
Continuous
 62
     7
370
    15
100
AcDbLine
 10
2145.901621505107
 20
1686.793379451138
 30
0.0
 11
2145.901621505107
 21
1688.018190679613
 31
0.0
  0
LINE
  5
CF5
330
B8D
100
AcDbEntity
  8
0
  6
Continuous
 62
     7
370
    15
100
AcDbLine
 10
2145.901621505107
 20
1686.793379451138
 30
0.0
 11
2137.62844802351
 21
1682.01737806026
 31
0.0
  0
ARC
  5
CF6
330
B8D
100
AcDbEntity
  8
0
  6
Continuous
 62
     7
370
    15
100
AcDbCircle
 10
2148.143358808022
 20
1682.388832755131
 30
0.0
 40
4.94220777918058
100
AcDbArc
 50
78.69234092468442
 51
116.9742655926917
  0
LINE
  5
CF7
330
B8D
100
AcDbEntity
  8
0
  6
Continuous
 62
     7
370
    15
100
AcDbLine
 10
2155.306100694434
 20
1692.222469725701
 30
0.0
 11
2155.306100694434
 21
1693.447280954176
 31
0.0
  0
LWPOLYLINE
  5
CF8
330
B8D
100
AcDbEntity
  8
0
  6
Continuous
 62
     7
370
    15
100
AcDbPolyline
 90
        3
 70
   128
 43
0.0
 10
2155.306100694434
 20
1692.222469725701
 10
2154.678666487553
 20
1691.705167937584
 10
2154.567553565443
 20
1691.549069137832
  0
LINE
  5
CF9
330
B8D
100
AcDbEntity
  8
0
  6
Continuous
 62
     7
370
    15
100
AcDbLine
 10
2163.579274176031
 20
1696.998471116579
 30
0.0
 11
2163.579274176031
 21
1698.223282345054
 31
0.0
  0
LINE
  5
CFA
330
B8D
100
AcDbEntity
  8
0
  6
Continuous
 62
     7
370
    15
100
AcDbLine
 10
2163.579274176031
 20
1696.998471116579
 30
0.0
 11
2155.306100694434
 21
1692.222469725701
 31
0.0
  0
ARC
  5
CFB
330
B8D
100
AcDbEntity
  8
0
  6
Continuous
 62
     7
370
    15
100
AcDbCircle
 10
2165.820990329471
 20
1692.594078150901
 30
0.0
 40
4.942061180186581
100
AcDbArc
 50
78.69175102487616
 51
116.9748554925126
  0
LINE
  5
CFC
330
B8D
100
AcDbEntity
  8
0
  6
Continuous
 62
     7
370
    15
100
AcDbLine
 10
2172.983837659055
 20
1702.427610052857
 30
0.0
 11
2172.983837659055
 21
1703.652421281332
 31
0.0
  0
LWPOLYLINE
  5
CFD
330
B8D
100
AcDbEntity
  8
0
  6
Continuous
 62
     7
370
    15
100
AcDbPolyline
 90
        3
 70
   128
 43
0.0
 10
2172.983837659055
 20
1702.427610052857
 10
2172.356319158477
 20
1701.910259603025
 10
2172.245206236367
 20
1701.754160803273
  0
LINE
  5
CFE
330
B8D
100
AcDbEntity
  8
0
  6
Continuous
 62
     7
370
    15
100
AcDbLine
 10
2181.256926846955
 20
1707.20356278202
 30
0.0
 11
2181.256926846955
 21
1708.428374010495
 31
0.0
  0
LINE
  5
CFF
330
B8D
100
AcDbEntity
  8
0
  6
Continuous
 62
     7
370
    15
100
AcDbLine
 10
2181.256926846955
 20
1707.20356278202
 30
0.0
 11
2172.983837659055
 21
1702.427610052857
 31
0.0
  0
ARC
  5
D00
330
B8D
100
AcDbEntity
  8
0
  6
Continuous
 62
     7
370
    15
100
AcDbCircle
 10
2183.498643000395
 20
1702.799169816343
 30
0.0
 40
4.942061180185053
100
AcDbArc
 50
78.69175102487616
 51
116.9748554925126
  0
LINE
  5
D01
330
B8D
100
AcDbEntity
  8
0
  6
Continuous
 62
     7
370
    15
100
AcDbLine
 10
2190.661490329979
 20
1712.632701718298
 30
0.0
 11
2190.661490329979
 21
1713.857512946773
 31
0.0
  0
LWPOLYLINE
  5
D02
330
B8D
100
AcDbEntity
  8
0
  6
Continuous
 62
     7
370
    15
100
AcDbPolyline
 90
        3
 70
   128
 43
0.0
 10
2190.661490329979
 20
1712.632701718298
 10
2190.033971829401
 20
1712.115351268465
 10
2189.922858907292
 20
1711.959252468714
  0
LINE
  5
D03
330
B8D
100
AcDbEntity
  8
0
  6
Continuous
 62
     7
370
    15
100
AcDbLine
 10
2198.934663811577
 20
1717.408703109176
 30
0.0
 11
2198.934663811577
 21
1718.633514337651
 31
0.0
  0
LINE
  5
D04
330
B8D
100
AcDbEntity
  8
0
  6
Continuous
 62
     7
370
    15
100
AcDbLine
 10
2198.934663811577
 20
1717.408703109176
 30
0.0
 11
2190.661490329979
 21
1712.632701718298
 31
0.0
  0
ARC
  5
D05
330
B8D
100
AcDbEntity
  8
0
  6
Continuous
 62
     7
370
    15
100
AcDbCircle
 10
2201.176674890485
 20
1713.002166402895
 30
0.0
 40
4.944105522918365
100
AcDbArc
 50
78.69997390944262
 51
116.9666326079283
  0
LINE
  5
D06
330
B8D
100
AcDbEntity
  8
0
  6
Continuous
 62
     7
370
    15
100
AcDbLine
 10
2208.339143000904
 20
1722.837793383738
 30
0.0
 11
2208.339143000904
 21
1724.062604612214
 31
0.0
  0
LWPOLYLINE
  5
D07
330
B8D
100
AcDbEntity
  8
0
  6
Continuous
 62
     7
370
    15
100
AcDbPolyline
 90
        3
 70
   128
 43
0.0
 10
2208.339143000904
 20
1722.837793383738
 10
2207.711624500325
 20
1722.320442933906
 10
2207.600511578216
 20
1722.164344134154
  0
LINE
  5
D08
330
B8D
100
AcDbEntity
  8
0
  6
Continuous
 62
     7
370
    15
100
AcDbLine
 10
2216.612316482502
 20
1727.613794774617
 30
0.0
 11
2216.612316482502
 21
1728.838606003092
 31
0.0
  0
LINE
  5
D09
330
B8D
100
AcDbEntity
  8
0
  6
Continuous
 62
     7
370
    15
100
AcDbLine
 10
2216.612316482502
 20
1727.613794774617
 30
0.0
 11
2208.339143000904
 21
1722.837793383738
 31
0.0
  0
ARC
  5
D0A
330
B8D
100
AcDbEntity
  8
0
  6
Continuous
 62
     7
370
    15
100
AcDbCircle
 10
2218.854053785416
 20
1723.209248078611
 30
0.0
 40
4.942207779178773
100
AcDbArc
 50
78.69234092465759
 51
116.9742655927208
  0
LINE
  5
D0B
330
B8D
100
AcDbEntity
  8
0
  6
Continuous
 62
     7
370
    15
100
AcDbLine
 10
2226.016795671828
 20
1733.042885049179
 30
0.0
 11
2226.016795671828
 21
1734.267696277655
 31
0.0
  0
LWPOLYLINE
  5
D0C
330
B8D
100
AcDbEntity
  8
0
  6
Continuous
 62
     7
370
    15
100
AcDbPolyline
 90
        3
 70
   128
 43
0.0
 10
2226.016795671828
 20
1733.042885049179
 10
2225.389361464948
 20
1732.525583261062
 10
2225.278164249141
 20
1732.369435799595
  0
LINE
  5
D0D
330
B8D
100
AcDbEntity
  8
0
  6
Continuous
 62
     7
370
    15
100
AcDbLine
 10
2234.289969153426
 20
1737.818886440058
 30
0.0
 11
2234.289969153426
 21
1739.043697668532
 31
0.0
  0
LINE
  5
D0E
330
B8D
100
AcDbEntity
  8
0
  6
Continuous
 62
     7
370
    15
100
AcDbLine
 10
2234.289969153426
 20
1737.818886440058
 30
0.0
 11
2226.016795671828
 21
1733.042885049179
 31
0.0
  0
ARC
  5
D0F
330
B8D
100
AcDbEntity
  8
0
  6
Continuous
 62
     7
370
    15
100
AcDbCircle
 10
2236.531706456341
 20
1733.414339744048
 30
0.0
 40
4.942207779181928
100
AcDbArc
 50
78.69234092468442
 51
116.9742655926917
  0
LINE
  5
D10
330
B8D
100
AcDbEntity
  8
0
  6
Continuous
 62
     7
370
    15
100
AcDbLine
 10
2243.694448342752
 20
1743.24797671462
 30
0.0
 11
2243.694448342752
 21
1744.472787943095
 31
0.0
  0
LWPOLYLINE
  5
D11
330
B8D
100
AcDbEntity
  8
0
  6
Continuous
 62
     7
370
    15
100
AcDbPolyline
 90
        3
 70
   128
 43
0.0
 10
2243.694448342752
 20
1743.24797671462
 10
2243.067014135871
 20
1742.730674926503
 10
2242.955901213762
 20
1742.574576126752
  0
LINE
  5
D12
330
B8D
100
AcDbEntity
  8
0
  6
Continuous
 62
     7
370
    15
100
AcDbLine
 10
2251.96762182435
 20
1748.023978105498
 30
0.0
 11
2251.96762182435
 21
1749.248789333973
 31
0.0
  0
LINE
  5
D13
330
B8D
100
AcDbEntity
  8
0
  6
Continuous
 62
     7
370
    15
100
AcDbLine
 10
2251.96762182435
 20
1748.023978105498
 30
0.0
 11
2243.694448342752
 21
1743.24797671462
 31
0.0
  0
ARC
  5
D14
330
B8D
100
AcDbEntity
  8
0
  6
Continuous
 62
     7
370
    15
100
AcDbCircle
 10
2254.209337977789
 20
1743.619585139821
 30
0.0
 40
4.942061180185962
100
AcDbArc
 50
78.69175102487616
 51
116.9748554925126
  0
LINE
  5
D15
330
B8D
100
AcDbEntity
  8
0
  6
Continuous
 62
     7
370
    15
100
AcDbLine
 10
2261.372185307374
 20
1753.453117041776
 30
0.0
 11
2261.372185307374
 21
1754.677928270251
 31
0.0
  0
LWPOLYLINE
  5
D16
330
B8D
100
AcDbEntity
  8
0
  6
Continuous
 62
     7
370
    15
100
AcDbPolyline
 90
        3
 70
   128
 43
0.0
 10
2261.372185307374
 20
1753.453117041776
 10
2260.744666806795
 20
1752.935766591944
 10
2260.633553884687
 20
1752.779667792192
  0
LINE
  5
D17
330
B8D
100
AcDbEntity
  8
0
  6
Continuous
 62
     7
370
    15
100
AcDbLine
 10
2269.645274495275
 20
1758.229069770939
 30
0.0
 11
2269.645274495275
 21
1759.453880999414
 31
0.0
  0
LINE
  5
D18
330
B8D
100
AcDbEntity
  8
0
  6
Continuous
 62
     7
370
    15
100
AcDbLine
 10
2269.645274495275
 20
1758.229069770939
 30
0.0
 11
2261.372185307374
 21
1753.453117041776
 31
0.0
  0
ARC
  5
D19
330
B8D
100
AcDbEntity
  8
0
  6
Continuous
 62
     7
370
    15
100
AcDbCircle
 10
2271.886990648714
 20
1753.824676805264
 30
0.0
 40
4.94206118018404
100
AcDbArc
 50
78.69175102487616
 51
116.9748554925126
  0
LINE
  5
D1A
330
B8D
100
AcDbEntity
  8
0
  6
Continuous
 62
     7
370
    15
100
AcDbLine
 10
2279.049837978298
 20
1763.658208707217
 30
0.0
 11
2279.049837978298
 21
1764.883019935692
 31
0.0
  0
LWPOLYLINE
  5
D1B
330
B8D
100
AcDbEntity
  8
0
  6
Continuous
 62
     7
370
    15
100
AcDbPolyline
 90
        3
 70
   128
 43
0.0
 10
2279.049837978298
 20
1763.658208707217
 10
2278.42231947772
 20
1763.140858257384
 10
2278.311206555611
 20
1762.984759457633
  0
LINE
  5
D1C
330
B8D
100
AcDbEntity
  8
0
  6
Continuous
 62
     7
370
    15
100
AcDbLine
 10
2287.323011459895
 20
1768.434210098095
 30
0.0
 11
2287.323011459895
 21
1769.65902132657
 31
0.0
  0
LINE
  5
D1D
330
B8D
100
AcDbEntity
  8
0
  6
Continuous
 62
     7
370
    15
100
AcDbLine
 10
2287.323011459895
 20
1768.434210098095
 30
0.0
 11
2279.049837978298
 21
1763.658208707217
 31
0.0
  0
ARC
  5
D1E
330
B8D
100
AcDbEntity
  8
0
  6
Continuous
 62
     7
370
    15
100
AcDbCircle
 10
2289.565022538802
 20
1764.027673391824
 30
0.0
 40
4.944105522909256
100
AcDbArc
 50
78.69997390941581
 51
116.9666326079574
  0
LINE
  5
D1F
330
B8D
100
AcDbEntity
  8
0
  6
Continuous
 62
     7
370
    15
100
AcDbLine
 10
2296.727490649223
 20
1773.863300372658
 30
0.0
 11
2296.727490649223
 21
1775.088111601133
 31
0.0
  0
LWPOLYLINE
  5
D20
330
B8D
100
AcDbEntity
  8
0
  6
Continuous
 62
     7
370
    15
100
AcDbPolyline
 90
        3
 70
   128
 43
0.0
 10
2296.727490649223
 20
1773.863300372658
 10
2296.099972148644
 20
1773.345949922825
 10
2295.988859226535
 20
1773.189851123074
  0
LINE
  5
D21
330
B8D
100
AcDbEntity
  8
0
  6
Continuous
 62
     7
370
    15
100
AcDbLine
 10
2305.00066413082
 20
1778.639301763536
 30
0.0
 11
2305.00066413082
 21
1779.864112992011
 31
0.0
  0
LINE
  5
D22
330
B8D
100
AcDbEntity
  8
0
  6
Continuous
 62
     7
370
    15
100
AcDbLine
 10
2305.00066413082
 20
1778.639301763536
 30
0.0
 11
2296.727490649223
 21
1773.863300372658
 31
0.0
  0
ARC
  5
D23
330
B8D
100
AcDbEntity
  8
0
  6
Continuous
 62
     7
370
    15
100
AcDbCircle
 10
2307.242401433734
 20
1774.234755067531
 30
0.0
 40
4.94220777917777
100
AcDbArc
 50
78.69234092465759
 51
116.9742655927208
  0
LINE
  5
D24
330
B8D
100
AcDbEntity
  8
0
  6
Continuous
 62
     7
370
    15
100
AcDbLine
 10
2314.405143320147
 20
1784.068392038098
 30
0.0
 11
2314.405143320147
 21
1785.293203266574
 31
0.0
  0
LWPOLYLINE
  5
D25
330
B8D
100
AcDbEntity
  8
0
  6
Continuous
 62
     7
370
    15
100
AcDbPolyline
 90
        3
 70
   128
 43
0.0
 10
2314.405143320147
 20
1784.068392038098
 10
2313.777709113266
 20
1783.551090249981
 10
2313.666511897459
 20
1783.394942788514
  0
LINE
  5
D26
330
B8D
100
AcDbEntity
  8
0
  6
Continuous
 62
     7
370
    15
100
AcDbLine
 10
2322.678316801744
 20
1788.844393428977
 30
0.0
 11
2322.678316801744
 21
1790.069204657452
 31
0.0
  0
LINE
  5
D27
330
B8D
100
AcDbEntity
  8
0
  6
Continuous
 62
     7
370
    15
100
AcDbLine
 10
2322.678316801744
 20
1788.844393428977
 30
0.0
 11
2314.405143320147
 21
1784.068392038098
 31
0.0
  0
ARC
  5
D28
330
B8D
100
AcDbEntity
  8
0
  6
Continuous
 62
     7
370
    15
100
AcDbCircle
 10
2324.920054104659
 20
1784.439846732967
 30
0.0
 40
4.942207779182474
100
AcDbArc
 50
78.69234092468442
 51
116.9742655926917
  0
LINE
  5
D29
330
B8D
100
AcDbEntity
  8
0
  6
Continuous
 62
     7
370
    15
100
AcDbLine
 10
2332.082795991071
 20
1794.273483703539
 30
0.0
 11
2332.082795991071
 21
1795.498294932015
 31
0.0
  0
LWPOLYLINE
  5
D2A
330
B8D
100
AcDbEntity
  8
0
  6
Continuous
 62
     7
370
    15
100
AcDbPolyline
 90
        3
 70
   128
 43
0.0
 10
2332.082795991071
 20
1794.273483703539
 10
2331.45536178419
 20
1793.756181915422
 10
2331.34424886208
 20
1793.600083115671
  0
LINE
  5
D2B
330
B8D
100
AcDbEntity
  8
0
  6
Continuous
 62
     7
370
    15
100
AcDbLine
 10
2340.355969472669
 20
1799.049485094418
 30
0.0
 11
2340.355969472669
 21
1800.274296322893
 31
0.0
  0
LINE
  5
D2C
330
B8D
100
AcDbEntity
  8
0
  6
Continuous
 62
     7
370
    15
100
AcDbLine
 10
2340.355969472669
 20
1799.049485094418
 30
0.0
 11
2332.082795991071
 21
1794.273483703539
 31
0.0
  0
ARC
  5
D2D
330
B8D
100
AcDbEntity
  8
0
  6
Continuous
 62
     7
370
    15
100
AcDbCircle
 10
2342.597685626107
 20
1794.645092128742
 30
0.0
 40
4.942061180184283
100
AcDbArc
 50
78.69175102487616
 51
116.9748554925126
  0
LINE
  5
D2E
330
B8D
100
AcDbEntity
  8
0
  6
Continuous
 62
     7
370
    15
100
AcDbLine
 10
2349.760532955692
 20
1804.478624030696
 30
0.0
 11
2349.760532955692
 21
1805.703435259171
 31
0.0
  0
LWPOLYLINE
  5
D2F
330
B8D
100
AcDbEntity
  8
0
  6
Continuous
 62
     7
370
    15
100
AcDbPolyline
 90
        3
 70
   128
 43
0.0
 10
2349.760532955692
 20
1804.478624030696
 10
2349.133014455114
 20
1803.961273580863
 10
2349.021901533005
 20
1803.805174781111
  0
LINE
  5
D30
330
B8D
100
AcDbEntity
  8
0
  6
Continuous
 62
     7
370
    15
100
AcDbLine
 10
2358.033622143593
 20
1809.254576759858
 30
0.0
 11
2358.033622143593
 21
1810.479387988333
 31
0.0
  0
LINE
  5
D31
330
B8D
100
AcDbEntity
  8
0
  6
Continuous
 62
     7
370
    15
100
AcDbLine
 10
2358.033622143593
 20
1809.254576759858
 30
0.0
 11
2349.760532955692
 21
1804.478624030696
 31
0.0
  0
ARC
  5
D32
330
B8D
100
AcDbEntity
  8
0
  6
Continuous
 62
     7
370
    15
100
AcDbCircle
 10
2360.275338297033
 20
1804.850183794179
 30
0.0
 40
4.942061180186928
100
AcDbArc
 50
78.691751024903
 51
116.9748554925126
  0
LINE
  5
D33
330
B8D
100
AcDbEntity
  8
0
  6
Continuous
 62
     7
370
    15
100
AcDbLine
 10
2367.438185626617
 20
1814.683715696136
 30
0.0
 11
2367.438185626617
 21
1815.908526924611
 31
0.0
  0
LWPOLYLINE
  5
D34
330
B8D
100
AcDbEntity
  8
0
  6
Continuous
 62
     7
370
    15
100
AcDbPolyline
 90
        3
 70
   128
 43
0.0
 10
2367.438185626617
 20
1814.683715696136
 10
2366.810667126038
 20
1814.166365246304
 10
2366.699554203929
 20
1814.010266446552
  0
LINE
  5
D35
330
B8D
100
AcDbEntity
  8
0
  6
Continuous
 62
     7
370
    15
100
AcDbLine
 10
2375.711359108214
 20
1819.459717087014
 30
0.0
 11
2375.711359108214
 21
1820.68452831549
 31
0.0
  0
LINE
  5
D36
330
B8D
100
AcDbEntity
  8
0
  6
Continuous
 62
     7
370
    15
100
AcDbLine
 10
2375.711359108214
 20
1819.459717087014
 30
0.0
 11
2367.438185626617
 21
1814.683715696136
 31
0.0
  0
ARC
  5
D37
330
B8D
100
AcDbEntity
  8
0
  6
Continuous
 62
     7
370
    15
100
AcDbCircle
 10
2377.953370187123
 20
1815.053180380736
 30
0.0
 40
4.944105522915544
100
AcDbArc
 50
78.69997390944262
 51
116.9666326079574
  0
LINE
  5
D38
330
B8D
100
AcDbEntity
  8
0
  6
Continuous
 62
     7
370
    15
100
AcDbLine
 10
2385.115838297541
 20
1824.888807361577
 30
0.0
 11
2385.115838297541
 21
1826.113618590052
 31
0.0
  0
LWPOLYLINE
  5
D39
330
B8D
100
AcDbEntity
  8
0
  6
Continuous
 62
     7
370
    15
100
AcDbPolyline
 90
        3
 70
   128
 43
0.0
 10
2385.115838297541
 20
1824.888807361577
 10
2384.488319796963
 20
1824.371456911745
 10
2384.377206874853
 20
1824.215358111993
  0
LINE
  5
D3A
330
B8D
100
AcDbEntity
  8
0
  6
Continuous
 62
     7
370
    15
100
AcDbLine
 10
2393.389011779139
 20
1829.664808752455
 30
0.0
 11
2393.389011779139
 21
1830.88961998093
 31
0.0
  0
LINE
  5
D3B
330
B8D
100
AcDbEntity
  8
0
  6
Continuous
 62
     7
370
    15
100
AcDbLine
 10
2393.389011779139
 20
1829.664808752455
 30
0.0
 11
2385.115838297541
 21
1824.888807361577
 31
0.0
  0
ARC
  5
D3C
330
B8D
100
AcDbEntity
  8
0
  6
Continuous
 62
     7
370
    15
100
AcDbCircle
 10
2395.630749082053
 20
1825.26026205645
 30
0.0
 40
4.942207779178016
100
AcDbArc
 50
78.69234092468442
 51
116.9742655927208
  0
LINE
  5
D3D
330
B8D
100
AcDbEntity
  8
0
  6
Continuous
 62
     7
370
    15
100
AcDbLine
 10
2402.793490968466
 20
1835.093899027018
 30
0.0
 11
2402.793490968466
 21
1836.318710255493
 31
0.0
  0
LWPOLYLINE
  5
D3E
330
B8D
100
AcDbEntity
  8
0
  6
Continuous
 62
     7
370
    15
100
AcDbPolyline
 90
        3
 70
   128
 43
0.0
 10
2402.793490968466
 20
1835.093899027018
 10
2402.166056761584
 20
1834.576597238901
 10
2402.054859545778
 20
1834.420449777434
  0
LINE
  5
D3F
330
B8D
100
AcDbEntity
  8
0
  6
Continuous
 62
     7
370
    15
100
AcDbLine
 10
2411.066664450063
 20
1839.869900417896
 30
0.0
 11
2411.066664450063
 21
1841.094711646371
 31
0.0
  0
LINE
  5
D40
330
B8D
100
AcDbEntity
  8
0
  6
Continuous
 62
     7
370
    15
100
AcDbLine
 10
2411.066664450063
 20
1839.869900417896
 30
0.0
 11
2402.793490968466
 21
1835.093899027018
 31
0.0
  0
ARC
  5
D41
330
B8D
100
AcDbEntity
  8
0
  6
Continuous
 62
     7
370
    15
100
AcDbCircle
 10
2413.308401752977
 20
1835.465353721889
 30
0.0
 40
4.942207779180412
100
AcDbArc
 50
78.69234092468442
 51
116.9742655926917
  0
LINE
  5
D42
330
B8D
100
AcDbEntity
  8
0
  6
Continuous
 62
     7
370
    15
100
AcDbLine
 10
2420.47114363939
 20
1845.298990692458
 30
0.0
 11
2420.47114363939
 21
1846.523801920934
 31
0.0
  0
LWPOLYLINE
  5
D43
330
B8D
100
AcDbEntity
  8
0
  6
Continuous
 62
     7
370
    15
100
AcDbPolyline
 90
        3
 70
   128
 43
0.0
 10
2420.47114363939
 20
1845.298990692458
 10
2419.843709432509
 20
1844.781688904341
 10
2419.732596510399
 20
1844.62559010459
  0
LINE
  5
D44
330
B8D
100
AcDbEntity
  8
0
  6
Continuous
 62
     7
370
    15
100
AcDbLine
 10
2428.744317120987
 20
1850.074992083337
 30
0.0
 11
2428.744317120987
 21
1851.299803311812
 31
0.0
  0
LINE
  5
D45
330
B8D
100
AcDbEntity
  8
0
  6
Continuous
 62
     7
370
    15
100
AcDbLine
 10
2428.744317120987
 20
1850.074992083337
 30
0.0
 11
2420.47114363939
 21
1845.298990692458
 31
0.0
  0
ARC
  5
D46
330
B8D
100
AcDbEntity
  8
0
  6
Continuous
 62
     7
370
    15
100
AcDbCircle
 10
2430.986033274427
 20
1845.670599117658
 30
0.0
 40
4.942061180187137
100
AcDbArc
 50
78.69175102487616
 51
116.9748554925126
  0
LINE
  5
D47
330
B8D
100
AcDbEntity
  8
0
  6
Continuous
 62
     7
370
    15
100
AcDbLine
 10
2438.148880604011
 20
1855.504131019615
 30
0.0
 11
2438.148880604011
 21
1856.72894224809
 31
0.0
  0
LWPOLYLINE
  5
D48
330
B8D
100
AcDbEntity
  8
0
  6
Continuous
 62
     7
370
    15
100
AcDbPolyline
 90
        3
 70
   128
 43
0.0
 10
2438.148880604011
 20
1855.504131019615
 10
2437.521362103433
 20
1854.986780569782
 10
2437.410249181324
 20
1854.830681770031
  0
LINE
  5
D49
330
B8D
100
AcDbEntity
  8
0
  6
Continuous
 62
     7
370
    15
100
AcDbLine
 10
2446.421969791912
 20
1860.280083748778
 30
0.0
 11
2446.421969791912
 21
1861.504894977252
 31
0.0
  0
LINE
  5
D4A
330
B8D
100
AcDbEntity
  8
0
  6
Continuous
 62
     7
370
    15
100
AcDbLine
 10
2446.421969791912
 20
1860.280083748778
 30
0.0
 11
2438.148880604011
 21
1855.504131019615
 31
0.0
  0
ARC
  5
D4B
330
B8D
100
AcDbEntity
  8
0
  6
Continuous
 62
     7
370
    15
100
AcDbCircle
 10
2448.66368594535
 20
1855.8756907831
 30
0.0
 40
4.942061180185498
100
AcDbArc
 50
78.69175102487616
 51
116.9748554925126
  0
LINE
  5
D4C
330
B8D
100
AcDbEntity
  8
0
  6
Continuous
 62
     7
370
    15
100
AcDbLine
 10
2455.826533274935
 20
1865.709222685056
 30
0.0
 11
2455.826533274935
 21
1866.934033913531
 31
0.0
  0
LWPOLYLINE
  5
D4D
330
B8D
100
AcDbEntity
  8
0
  6
Continuous
 62
     7
370
    15
100
AcDbPolyline
 90
        3
 70
   128
 43
0.0
 10
2455.826533274935
 20
1865.709222685056
 10
2455.199014774358
 20
1865.191872235223
 10
2455.087901852248
 20
1865.035773435472
  0
LINE
  5
D4E
330
B8D
100
AcDbEntity
  8
0
  6
Continuous
 62
     7
370
    15
100
AcDbLine
 10
2464.099706756533
 20
1870.485224075934
 30
0.0
 11
2464.099706756533
 21
1871.710035304409
 31
0.0
  0
LINE
  5
D4F
330
B8D
100
AcDbEntity
  8
0
  6
Continuous
 62
     7
370
    15
100
AcDbLine
 10
2464.099706756533
 20
1870.485224075934
 30
0.0
 11
2455.826533274935
 21
1865.709222685056
 31
0.0
  0
ARC
  5
D50
330
B8D
100
AcDbEntity
  8
0
  6
Continuous
 62
     7
370
    15
100
AcDbCircle
 10
2466.341717835441
 20
1866.078687369661
 30
0.0
 40
4.944105522910772
100
AcDbArc
 50
78.69997390941581
 51
116.9666326079574
  0
LINE
  5
D51
330
B8D
100
AcDbEntity
  8
0
  6
Continuous
 62
     7
370
    15
100
AcDbLine
 10
2473.50418594586
 20
1875.914314350496
 30
0.0
 11
2473.50418594586
 21
1877.139125578971
 31
0.0
  0
LWPOLYLINE
  5
D52
330
B8D
100
AcDbEntity
  8
0
  6
Continuous
 62
     7
370
    15
100
AcDbPolyline
 90
        3
 70
   128
 43
0.0
 10
2473.50418594586
 20
1875.914314350496
 10
2472.876667445282
 20
1875.396963900664
 10
2472.765554523173
 20
1875.240865100912
  0
LINE
  5
D53
330
B8D
100
AcDbEntity
  8
0
  6
Continuous
 62
     7
370
    15
100
AcDbLine
 10
2481.777359427458
 20
1880.690315741374
 30
0.0
 11
2481.777359427458
 21
1881.915126969849
 31
0.0
  0
LINE
  5
D54
330
B8D
100
AcDbEntity
  8
0
  6
Continuous
 62
     7
370
    15
100
AcDbLine
 10
2481.777359427458
 20
1880.690315741374
 30
0.0
 11
2473.50418594586
 21
1875.914314350496
 31
0.0
  0
ARC
  5
D55
330
B8D
100
AcDbEntity
  8
0
  6
Continuous
 62
     7
370
    15
100
AcDbCircle
 10
2484.019096730372
 20
1876.285769045369
 30
0.0
 40
4.942207779178628
100
AcDbArc
 50
78.69234092468442
 51
116.9742655927208
  0
LINE
  5
D56
330
B8D
100
AcDbEntity
  8
0
  6
Continuous
 62
     7
370
    15
100
AcDbLine
 10
2491.181838616784
 20
1886.119406015937
 30
0.0
 11
2491.181838616784
 21
1887.344217244412
 31
0.0
  0
LWPOLYLINE
  5
D57
330
B8D
100
AcDbEntity
  8
0
  6
Continuous
 62
     7
370
    15
100
AcDbPolyline
 90
        3
 70
   128
 43
0.0
 10
2491.181838616784
 20
1886.119406015937
 10
2490.554404409903
 20
1885.60210422782
 10
2490.443207194096
 20
1885.445956766353
  0
LINE
  5
D58
330
B8D
100
AcDbEntity
  8
0
  6
Continuous
 62
     7
370
    15
100
AcDbLine
 10
2499.455012098382
 20
1890.895407406815
 30
0.0
 11
2499.455012098382
 21
1892.12021863529
 31
0.0
  0
LINE
  5
D59
330
B8D
100
AcDbEntity
  8
0
  6
Continuous
 62
     7
370
    15
100
AcDbLine
 10
2499.455012098382
 20
1890.895407406815
 30
0.0
 11
2491.181838616784
 21
1886.119406015937
 31
0.0
  0
ARC
  5
D5A
330
B8D
100
AcDbEntity
  8
0
  6
Continuous
 62
     7
370
    15
100
AcDbCircle
 10
2501.696749401296
 20
1886.490860710807
 30
0.0
 40
4.942207779181538
100
AcDbArc
 50
78.69234092468442
 51
116.9742655926917
  0
LINE
  5
D5B
330
B8D
100
AcDbEntity
  8
0
  6
Continuous
 62
     7
370
    15
100
AcDbLine
 10
2508.859491287708
 20
1896.324497681378
 30
0.0
 11
2508.859491287708
 21
1897.549308909853
 31
0.0
  0
LWPOLYLINE
  5
D5C
330
B8D
100
AcDbEntity
  8
0
  6
Continuous
 62
     7
370
    15
100
AcDbPolyline
 90
        3
 70
   128
 43
0.0
 10
2508.859491287708
 20
1896.324497681378
 10
2508.232057080828
 20
1895.807195893261
 10
2508.120944158718
 20
1895.651097093509
  0
LINE
  5
D5D
330
B8D
100
AcDbEntity
  8
0
  6
Continuous
 62
     7
370
    15
100
AcDbLine
 10
2517.132664769306
 20
1901.100499072256
 30
0.0
 11
2517.132664769306
 21
1902.325310300731
 31
0.0
  0
LINE
  5
D5E
330
B8D
100
AcDbEntity
  8
0
  6
Continuous
 62
     7
370
    15
100
AcDbLine
 10
2517.132664769306
 20
1901.100499072256
 30
0.0
 11
2508.859491287708
 21
1896.324497681378
 31
0.0
  0
ARC
  5
D5F
330
B8D
100
AcDbEntity
  8
0
  6
Continuous
 62
     7
370
    15
100
AcDbCircle
 10
2519.374380922745
 20
1896.696106106578
 30
0.0
 40
4.942061180186111
100
AcDbArc
 50
78.69175102487616
 51
116.9748554925126
  0
LINE
  5
D60
330
B8D
100
AcDbEntity
  8
0
  6
Continuous
 62
     7
370
    15
100
AcDbLine
 10
2526.53722825233
 20
1906.529638008534
 30
0.0
 11
2526.53722825233
 21
1907.754449237009
 31
0.0
  0
LWPOLYLINE
  5
D61
330
B8D
100
AcDbEntity
  8
0
  6
Continuous
 62
     7
370
    15
100
AcDbPolyline
 90
        3
 70
   128
 43
0.0
 10
2526.53722825233
 20
1906.529638008534
 10
2525.909709751751
 20
1906.012287558701
 10
2525.798596829643
 20
1905.856188758949
  0
LINE
  5
D62
330
B8D
100
AcDbEntity
  8
0
  6
Continuous
 62
     7
370
    15
100
AcDbLine
 10
2534.81031744023
 20
1911.305590737697
 30
0.0
 11
2534.81031744023
 21
1912.530401966172
 31
0.0
  0
LINE
  5
D63
330
B8D
100
AcDbEntity
  8
0
  6
Continuous
 62
     7
370
    15
100
AcDbLine
 10
2534.81031744023
 20
1911.305590737697
 30
0.0
 11
2526.53722825233
 21
1906.529638008534
 31
0.0
  0
ARC
  5
D64
330
B8D
100
AcDbEntity
  8
0
  6
Continuous
 62
     7
370
    15
100
AcDbCircle
 10
2537.05203359367
 20
1906.901197772018
 30
0.0
 40
4.942061180187031
100
AcDbArc
 50
78.69175102487616
 51
116.9748554925126
  0
LINE
  5
D65
330
B8D
100
AcDbEntity
  8
0
  6
Continuous
 62
     7
370
    15
100
AcDbLine
 10
2544.214880923254
 20
1916.734729673975
 30
0.0
 11
2544.214880923254
 21
1917.95954090245
 31
0.0
  0
LWPOLYLINE
  5
D66
330
B8D
100
AcDbEntity
  8
0
  6
Continuous
 62
     7
370
    15
100
AcDbPolyline
 90
        3
 70
   128
 43
0.0
 10
2544.214880923254
 20
1916.734729673975
 10
2543.587362422676
 20
1916.217379224142
 10
2543.476249500566
 20
1916.061280424391
  0
LINE
  5
D67
330
B8D
100
AcDbEntity
  8
0
  6
Continuous
 62
     7
370
    15
100
AcDbLine
 10
2552.488054404851
 20
1921.510731064853
 30
0.0
 11
2552.488054404851
 21
1922.735542293328
 31
0.0
  0
LINE
  5
D68
330
B8D
100
AcDbEntity
  8
0
  6
Continuous
 62
     7
370
    15
100
AcDbLine
 10
2552.488054404851
 20
1921.510731064853
 30
0.0
 11
2544.214880923254
 21
1916.734729673975
 31
0.0
  0
ARC
  5
D69
330
B8D
100
AcDbEntity
  8
0
  6
Continuous
 62
     7
370
    15
100
AcDbCircle
 10
2554.730065483759
 20
1917.104194358578
 30
0.0
 40
4.944105522913002
100
AcDbArc
 50
78.69997390941581
 51
116.9666326079574
  0
LINE
  5
D6A
330
B8D
100
AcDbEntity
  8
0
  6
Continuous
 62
     7
370
    15
100
AcDbLine
 10
2561.892533594178
 20
1926.939821339416
 30
0.0
 11
2561.892533594178
 21
1928.16463256789
 31
0.0
  0
LWPOLYLINE
  5
D6B
330
B8D
100
AcDbEntity
  8
0
  6
Continuous
 62
     7
370
    15
100
AcDbPolyline
 90
        3
 70
   128
 43
0.0
 10
2561.892533594178
 20
1926.939821339416
 10
2561.2650150936
 20
1926.422470889583
 10
2561.153902171491
 20
1926.266372089832
  0
LINE
  5
D6C
330
B8D
100
AcDbEntity
  8
0
  6
Continuous
 62
     7
370
    15
100
AcDbLine
 10
2570.165707075776
 20
1931.715822730294
 30
0.0
 11
2570.165707075776
 21
1932.940633958769
 31
0.0
  0
LINE
  5
D6D
330
B8D
100
AcDbEntity
  8
0
  6
Continuous
 62
     7
370
    15
100
AcDbLine
 10
2570.165707075776
 20
1931.715822730294
 30
0.0
 11
2561.892533594178
 21
1926.939821339416
 31
0.0
  0
ARC
  5
D6E
330
B8D
100
AcDbEntity
  8
0
  6
Continuous
 62
     7
370
    15
100
AcDbCircle
 10
2572.40744437869
 20
1927.311276034285
 30
0.0
 40
4.942207779181416
100
AcDbArc
 50
78.69234092468442
 51
116.9742655926917
  0
LINE
  5
D6F
330
B8D
100
AcDbEntity
  8
0
  6
Continuous
 62
     7
370
    15
100
AcDbLine
 10
2579.570186265102
 20
1937.144913004856
 30
0.0
 11
2579.570186265102
 21
1938.369724233331
 31
0.0
  0
LWPOLYLINE
  5
D70
330
B8D
100
AcDbEntity
  8
0
  6
Continuous
 62
     7
370
    15
100
AcDbPolyline
 90
        3
 70
   128
 43
0.0
 10
2579.570186265102
 20
1937.144913004856
 10
2578.942752058222
 20
1936.627611216739
 10
2578.831554842415
 20
1936.471463755272
  0
LINE
  5
D71
330
B8D
100
AcDbEntity
  8
0
  6
Continuous
 62
     7
370
    15
100
AcDbLine
 10
2587.8433597467
 20
1941.920914395734
 30
0.0
 11
2587.8433597467
 21
1943.14572562421
 31
0.0
  0
LINE
  5
D72
330
B8D
100
AcDbEntity
  8
0
  6
Continuous
 62
     7
370
    15
100
AcDbLine
 10
2587.8433597467
 20
1941.920914395734
 30
0.0
 11
2579.570186265102
 21
1937.144913004856
 31
0.0
  0
ARC
  5
D73
330
B8D
100
AcDbEntity
  8
0
  6
Continuous
 62
     7
370
    15
100
AcDbCircle
 10
2590.085097049615
 20
1937.516367699726
 30
0.0
 40
4.94220777918132
100
AcDbArc
 50
78.69234092468442
 51
116.9742655926917
  0
LINE
  5
D74
330
B8D
100
AcDbEntity
  8
0
  6
Continuous
 62
     7
370
    15
100
AcDbLine
 10
2597.247881082875
 20
1947.350029001155
 30
0.0
 11
2597.247881082875
 21
1948.57484022963
 31
0.0
  0
LWPOLYLINE
  5
D75
330
B8D
100
AcDbEntity
  8
0
  6
Continuous
 62
     7
370
    15
100
AcDbPolyline
 90
        3
 70
   128
 43
0.0
 10
2597.247881082875
 20
1947.350029001155
 10
2596.620404729146
 20
1946.83270288218
 10
2596.509249660188
 20
1946.67657975157
  0
LINE
  5
D76
330
B8D
100
AcDbEntity
  8
0
  6
Continuous
 62
     7
370
    15
100
AcDbLine
 10
2605.521012417625
 20
1952.126006061175
 30
0.0
 11
2605.521012417625
 21
1953.35081728965
 31
0.0
  0
LINE
  5
D77
330
B8D
100
AcDbEntity
  8
0
  6
Continuous
 62
     7
370
    15
100
AcDbLine
 10
2605.521012417625
 20
1952.126006061175
 30
0.0
 11
2597.247881082875
 21
1947.350029001155
 31
0.0
  0
ARC
  5
D78
330
B8D
100
AcDbEntity
  8
0
  6
Continuous
 62
     7
370
    15
100
AcDbCircle
 10
2607.762739145209
 20
1947.721536234642
 30
0.0
 40
4.942134475508241
100
AcDbArc
 50
78.69204596261631
 51
116.9745605547721
  0
LINE
  5
D79
330
B8D
100
AcDbEntity
  8
0
  6
Continuous
 62
     7
370
    15
100
AcDbLine
 10
2614.9255337538
 20
1957.555120666595
 30
0.0
 11
2614.9255337538
 21
1958.779931895071
 31
0.0
  0
LWPOLYLINE
  5
D7A
330
B8D
100
AcDbEntity
  8
0
  6
Continuous
 62
     7
370
    15
100
AcDbPolyline
 90
        3
 70
   128
 43
0.0
 10
2614.9255337538
 20
1957.555120666595
 10
2614.29805740007
 20
1957.03779454762
 10
2614.186944477961
 20
1956.881695747869
  0
LINE
  5
D7B
330
B8D
100
AcDbEntity
  8
0
  6
Continuous
 62
     7
370
    15
100
AcDbLine
 10
2623.198707235398
 20
1962.331122057474
 30
0.0
 11
2623.198707235398
 21
1963.555933285949
 31
0.0
  0
LINE
  5
D7C
330
B8D
100
AcDbEntity
  8
0
  6
Continuous
 62
     7
370
    15
100
AcDbLine
 10
2623.198707235398
 20
1962.331122057474
 30
0.0
 11
2614.9255337538
 21
1957.555120666595
 31
0.0
  0
ARC
  5
D7D
330
B8D
100
AcDbEntity
  8
0
  6
Continuous
 62
     7
370
    15
100
AcDbCircle
 10
2625.440433962981
 20
1957.926652230941
 30
0.0
 40
4.942134475507588
100
AcDbArc
 50
78.69204596261631
 51
116.9745605547721
  0
LINE
  5
D7E
330
B8D
100
AcDbEntity
  8
0
  6
Continuous
 62
     7
370
    15
100
AcDbLine
 10
2632.603228571573
 20
1967.760236662894
 30
0.0
 11
2632.603228571573
 21
1968.985047891369
 31
0.0
  0
LWPOLYLINE
  5
D7F
330
B8D
100
AcDbEntity
  8
0
  6
Continuous
 62
     7
370
    15
100
AcDbPolyline
 90
        3
 70
   128
 43
0.0
 10
2632.603228571573
 20
1967.760236662894
 10
2631.975710070995
 20
1967.242886213061
 10
2631.864597148885
 20
1967.08678741331
  0
LINE
  5
D80
330
B8D
100
AcDbEntity
  8
0
  6
Continuous
 62
     7
370
    15
100
AcDbLine
 10
2640.876359906322
 20
1972.536213722914
 30
0.0
 11
2640.876359906322
 21
1973.761024951389
 31
0.0
  0
LINE
  5
D81
330
B8D
100
AcDbEntity
  8
0
  6
Continuous
 62
     7
370
    15
100
AcDbLine
 10
2640.876359906322
 20
1972.536213722914
 30
0.0
 11
2632.603228571573
 21
1967.760236662894
 31
0.0
  0
ARC
  5
D82
330
B8D
100
AcDbEntity
  8
0
  6
Continuous
 62
     7
370
    15
100
AcDbCircle
 10
2643.118086633906
 20
1968.13174389638
 30
0.0
 40
4.942134475508915
100
AcDbArc
 50
78.69204596261631
 51
116.9745605547721
  0
LINE
  5
D83
330
B8D
100
AcDbEntity
  8
0
  6
Continuous
 62
     7
370
    15
100
AcDbLine
 10
2650.280881242497
 20
1977.965328328335
 30
0.0
 11
2650.280881242497
 21
1979.19013955681
 31
0.0
  0
LWPOLYLINE
  5
D84
330
B8D
100
AcDbEntity
  8
0
  6
Continuous
 62
     7
370
    15
100
AcDbPolyline
 90
        3
 70
   128
 43
0.0
 10
2650.280881242497
 20
1977.965328328335
 10
2649.653404888767
 20
1977.44800220936
 10
2649.542291966658
 20
1977.291903409608
  0
LINE
  5
D85
330
B8D
100
AcDbEntity
  8
0
  6
Continuous
 62
     7
370
    15
100
AcDbLine
 10
2658.554012577246
 20
1982.741305388355
 30
0.0
 11
2658.554012577246
 21
1983.96611661683
 31
0.0
  0
LINE
  5
D86
330
B8D
100
AcDbEntity
  8
0
  6
Continuous
 62
     7
370
    15
100
AcDbLine
 10
2658.554012577246
 20
1982.741305388355
 30
0.0
 11
2650.280881242497
 21
1977.965328328335
 31
0.0
  0
ARC
  5
D87
330
B8D
100
AcDbEntity
  8
0
  6
Continuous
 62
     7
370
    15
100
AcDbCircle
 10
2660.795709278417
 20
1978.337053816428
 30
0.0
 40
4.941926345956523
100
AcDbArc
 50
78.69120843257697
 51
116.9753980848354
  0
LINE
  5
D88
330
B8D
100
AcDbEntity
  8
0
  6
Continuous
 62
     7
370
    15
100
AcDbLine
 10
2667.958533913421
 20
1988.170419993775
 30
0.0
 11
2667.958533913421
 21
1989.39523122225
 31
0.0
  0
LWPOLYLINE
  5
D89
330
B8D
100
AcDbEntity
  8
0
  6
Continuous
 62
     7
370
    15
100
AcDbPolyline
 90
        3
 70
   128
 43
0.0
 10
2667.958533913421
 20
1988.170419993775
 10
2667.331057559692
 20
1987.6530938748
 10
2667.219944637583
 20
1987.496995075049
  0
LINE
  5
D8A
330
B8D
100
AcDbEntity
  8
0
  6
Continuous
 62
     7
370
    15
100
AcDbLine
 10
2676.231707395019
 20
1992.946421384653
 30
0.0
 11
2676.231707395019
 21
1994.171232613129
 31
0.0
  0
LINE
  5
D8B
330
B8D
100
AcDbEntity
  8
0
  6
Continuous
 62
     7
370
    15
100
AcDbLine
 10
2676.231707395019
 20
1992.946421384653
 30
0.0
 11
2667.958533913421
 21
1988.170419993775
 31
0.0
  0
ARC
  5
D8C
330
B8D
100
AcDbEntity
  8
0
  6
Continuous
 62
     7
370
    15
100
AcDbCircle
 10
2678.473434122603
 20
1988.541951558124
 30
0.0
 40
4.942134475505248
100
AcDbArc
 50
78.69204596261631
 51
116.9745605547721
  0
LINE
  5
D8D
330
B8D
100
AcDbEntity
  8
0
  6
Continuous
 62
     7
370
    15
100
AcDbLine
 10
2685.636228731195
 20
1998.375535990074
 30
0.0
 11
2685.636228731195
 21
1999.600347218549
 31
0.0
  0
LWPOLYLINE
  5
D8E
330
B8D
100
AcDbEntity
  8
0
  6
Continuous
 62
     7
370
    15
100
AcDbPolyline
 90
        3
 70
   128
 43
0.0
 10
2685.636228731195
 20
1998.375535990074
 10
2685.008752377465
 20
1997.858209871099
 10
2684.897597308506
 20
1997.70208674049
  0
LINE
  5
D8F
330
B8D
100
AcDbEntity
  8
0
  6
Continuous
 62
     7
370
    15
100
AcDbLine
 10
2693.909360065943
 20
2003.151513050095
 30
0.0
 11
2693.909360065943
 21
2004.37632427857
 31
0.0
  0
LINE
  5
D90
330
B8D
100
AcDbEntity
  8
0
  6
Continuous
 62
     7
370
    15
100
AcDbLine
 10
2693.909360065943
 20
2003.151513050095
 30
0.0
 11
2685.636228731195
 21
1998.375535990074
 31
0.0
  0
ARC
  5
D91
330
B8D
100
AcDbEntity
  8
0
  6
Continuous
 62
     7
370
    15
100
AcDbCircle
 10
2696.151086793527
 20
1998.747043223562
 30
0.0
 40
4.942134475507939
100
AcDbArc
 50
78.69204596261631
 51
116.9745605547721
  0
LINE
  5
D92
330
B8D
100
AcDbEntity
  8
0
  6
Continuous
 62
     7
370
    15
100
AcDbLine
 10
2703.313881402118
 20
2008.580627655515
 30
0.0
 11
2703.313881402118
 21
2009.80543888399
 31
0.0
  0
LWPOLYLINE
  5
D93
330
B8D
100
AcDbEntity
  8
0
  6
Continuous
 62
     7
370
    15
100
AcDbPolyline
 90
        3
 70
   128
 43
0.0
 10
2703.313881402118
 20
2008.580627655515
 10
2702.686405048389
 20
2008.06330153654
 10
2702.57529212628
 20
2007.907202736788
  0
LINE
  5
D94
330
B8D
100
AcDbEntity
  8
0
  6
Continuous
 62
     7
370
    15
100
AcDbLine
 10
2711.587054883716
 20
2013.356629046393
 30
0.0
 11
2711.587054883716
 21
2014.581440274868
 31
0.0
  0
LINE
  5
D95
330
B8D
100
AcDbEntity
  8
0
  6
Continuous
 62
     7
370
    15
100
AcDbLine
 10
2711.587054883716
 20
2013.356629046393
 30
0.0
 11
2703.313881402118
 21
2008.580627655515
 31
0.0
  0
ARC
  5
D96
330
B8D
100
AcDbEntity
  8
0
  6
Continuous
 62
     7
370
    15
100
AcDbCircle
 10
2713.8287816113
 20
2008.952159219859
 30
0.0
 40
4.942134475509595
100
AcDbArc
 50
78.69204596261631
 51
116.9745605547721
  0
LINE
  5
D97
330
B8D
100
AcDbEntity
  8
0
  6
Continuous
 62
     7
370
    15
100
AcDbLine
 10
2720.991576219891
 20
2018.785743651813
 30
0.0
 11
2720.991576219891
 21
2020.010554880288
 31
0.0
  0
LWPOLYLINE
  5
D98
330
B8D
100
AcDbEntity
  8
0
  6
Continuous
 62
     7
370
    15
100
AcDbPolyline
 90
        3
 70
   128
 43
0.0
 10
2720.991576219891
 20
2018.785743651813
 10
2720.364057719313
 20
2018.268393201981
 10
2720.252944797204
 20
2018.112294402229
  0
LINE
  5
D99
330
B8D
100
AcDbEntity
  8
0
  6
Continuous
 62
     7
370
    15
100
AcDbLine
 10
2729.26470755464
 20
2023.561720711834
 30
0.0
 11
2729.26470755464
 21
2024.786531940309
 31
0.0
  0
LINE
  5
D9A
330
B8D
100
AcDbEntity
  8
0
  6
Continuous
 62
     7
370
    15
100
AcDbLine
 10
2729.26470755464
 20
2023.561720711834
 30
0.0
 11
2720.991576219891
 21
2018.785743651813
 31
0.0
  0
ARC
  5
D9B
330
B8D
100
AcDbEntity
  8
0
  6
Continuous
 62
     7
370
    15
100
AcDbCircle
 10
2731.506434282224
 20
2019.157250885299
 30
0.0
 40
4.942134475509359
100
AcDbArc
 50
78.69204596261631
 51
116.9745605547721
  0
LINE
  5
D9C
330
B8D
100
AcDbEntity
  8
0
  6
Continuous
 62
     7
370
    15
100
AcDbLine
 10
2738.669228890815
 20
2028.990835317254
 30
0.0
 11
2738.669228890815
 21
2030.215646545729
 31
0.0
  0
LWPOLYLINE
  5
D9D
330
B8D
100
AcDbEntity
  8
0
  6
Continuous
 62
     7
370
    15
100
AcDbPolyline
 90
        3
 70
   128
 43
0.0
 10
2738.669228890815
 20
2028.990835317254
 10
2738.041752537086
 20
2028.473509198279
 10
2737.930639614976
 20
2028.317410398528
  0
LINE
  5
D9E
330
B8D
100
AcDbEntity
  8
0
  6
Continuous
 62
     7
370
    15
100
AcDbLine
 10
2746.942360225565
 20
2033.766812377274
 30
0.0
 11
2746.942360225565
 21
2034.991623605749
 31
0.0
  0
LINE
  5
D9F
330
B8D
100
AcDbEntity
  8
0
  6
Continuous
 62
     7
370
    15
100
AcDbLine
 10
2746.942360225565
 20
2033.766812377274
 30
0.0
 11
2738.669228890815
 21
2028.990835317254
 31
0.0
  0
ARC
  5
DA0
330
B8D
100
AcDbEntity
  8
0
  6
Continuous
 62
     7
370
    15
100
AcDbCircle
 10
2749.184056926735
 20
2029.362560805347
 30
0.0
 40
4.941926345956846
100
AcDbArc
 50
78.69120843257697
 51
116.9753980848092
  0
LINE
  5
DA1
330
B8D
100
AcDbEntity
  8
0
  6
Continuous
 62
     7
370
    15
100
AcDbLine
 10
2756.34688156174
 20
2039.195926982695
 30
0.0
 11
2756.34688156174
 21
2040.42073821117
 31
0.0
  0
LWPOLYLINE
  5
DA2
330
B8D
100
AcDbEntity
  8
0
  6
Continuous
 62
     7
370
    15
100
AcDbPolyline
 90
        3
 70
   128
 43
0.0
 10
2756.34688156174
 20
2039.195926982695
 10
2755.71940520801
 20
2038.67860086372
 10
2755.608292285901
 20
2038.522502063969
  0
LINE
  5
DA3
330
B8D
100
AcDbEntity
  8
0
  6
Continuous
 62
     7
370
    15
100
AcDbLine
 10
2764.620055043338
 20
2043.971928373573
 30
0.0
 11
2764.620055043338
 21
2045.196739602048
 31
0.0
  0
LINE
  5
DA4
330
B8D
100
AcDbEntity
  8
0
  6
Continuous
 62
     7
370
    15
100
AcDbLine
 10
2764.620055043338
 20
2043.971928373573
 30
0.0
 11
2756.34688156174
 21
2039.195926982695
 31
0.0
  0
ARC
  5
DA5
330
B8D
100
AcDbEntity
  8
0
  6
Continuous
 62
     7
370
    15
100
AcDbCircle
 10
2766.861781770921
 20
2039.567458547041
 30
0.0
 40
4.942134475507449
100
AcDbArc
 50
78.69204596261631
 51
116.9745605547721
  0
LINE
  5
DA6
330
B8D
100
AcDbEntity
  8
0
  6
Continuous
 62
     7
370
    15
100
AcDbLine
 10
2774.024576379512
 20
2049.401042978994
 30
0.0
 11
2774.024576379512
 21
2050.625854207468
 31
0.0
  0
LWPOLYLINE
  5
DA7
330
B8D
100
AcDbEntity
  8
0
  6
Continuous
 62
     7
370
    15
100
AcDbPolyline
 90
        3
 70
   128
 43
0.0
 10
2774.024576379512
 20
2049.401042978994
 10
2773.397100025783
 20
2048.883716860018
 10
2773.285944956825
 20
2048.727593729409
  0
LINE
  5
DA8
330
B8D
100
AcDbEntity
  8
0
  6
Continuous
 62
     7
370
    15
100
AcDbLine
 10
2782.297707714262
 20
2054.177020039014
 30
0.0
 11
2782.297707714262
 21
2055.401831267489
 31
0.0
  0
LINE
  5
DA9
330
B8D
100
AcDbEntity
  8
0
  6
Continuous
 62
     7
370
    15
100
AcDbLine
 10
2782.297707714262
 20
2054.177020039014
 30
0.0
 11
2774.024576379512
 21
2049.401042978994
 31
0.0
  0
ARC
  5
DAA
330
B8D
100
AcDbEntity
  8
0
  6
Continuous
 62
     7
370
    15
100
AcDbCircle
 10
2784.539434441846
 20
2049.772550212481
 30
0.0
 40
4.9421344755078
100
AcDbArc
 50
78.69204596261631
 51
116.9745605547721
  0
LINE
  5
DAB
330
B8D
100
AcDbEntity
  8
0
  6
Continuous
 62
     7
370
    15
100
AcDbLine
 10
2791.702229050437
 20
2059.606134644434
 30
0.0
 11
2791.702229050437
 21
2060.830945872909
 31
0.0
  0
LWPOLYLINE
  5
DAC
330
B8D
100
AcDbEntity
  8
0
  6
Continuous
 62
     7
370
    15
100
AcDbPolyline
 90
        3
 70
   128
 43
0.0
 10
2791.702229050437
 20
2059.606134644434
 10
2791.074752696707
 20
2059.088808525459
 10
2790.963639774598
 20
2058.932709725707
  0
LINE
  5
DAD
330
B8D
100
AcDbEntity
  8
0
  6
Continuous
 62
     7
370
    15
100
AcDbLine
 10
2799.975402532035
 20
2064.382136035312
 30
0.0
 11
2799.975402532035
 21
2065.606947263788
 31
0.0
  0
LINE
  5
DAE
330
B8D
100
AcDbEntity
  8
0
  6
Continuous
 62
     7
370
    15
100
AcDbLine
 10
2799.975402532035
 20
2064.382136035312
 30
0.0
 11
2791.702229050437
 21
2059.606134644434
 31
0.0
  0
ARC
  5
DAF
330
B8D
100
AcDbEntity
  8
0
  6
Continuous
 62
     7
370
    15
100
AcDbCircle
 10
2802.217129259618
 20
2059.977666208779
 30
0.0
 40
4.942134475508123
100
AcDbArc
 50
78.69204596261631
 51
116.9745605547721
  0
LINE
  5
DB0
330
B8D
100
AcDbEntity
  8
0
  6
Continuous
 62
     7
370
    15
100
AcDbLine
 10
2809.37992386821
 20
2069.811250640732
 30
0.0
 11
2809.37992386821
 21
2071.036061869207
 31
0.0
  0
LWPOLYLINE
  5
DB1
330
B8D
100
AcDbEntity
  8
0
  6
Continuous
 62
     7
370
    15
100
AcDbPolyline
 90
        3
 70
   128
 43
0.0
 10
2809.37992386821
 20
2069.811250640732
 10
2808.752405367632
 20
2069.2939001909
 10
2808.641292445523
 20
2069.137801391149
  0
LINE
  5
DB2
330
B8D
100
AcDbEntity
  8
0
  6
Continuous
 62
     7
370
    15
100
AcDbLine
 10
2817.653055202959
 20
2074.587227700753
 30
0.0
 11
2817.653055202959
 21
2075.812038929228
 31
0.0
  0
LINE
  5
DB3
330
B8D
100
AcDbEntity
  8
0
  6
Continuous
 62
     7
370
    15
100
AcDbLine
 10
2817.653055202959
 20
2074.587227700753
 30
0.0
 11
2809.37992386821
 21
2069.811250640732
 31
0.0
  0
ARC
  5
DB4
330
B8D
100
AcDbEntity
  8
0
  6
Continuous
 62
     7
370
    15
100
AcDbCircle
 10
2819.894781930543
 20
2070.182757874221
 30
0.0
 40
4.942134475507532
100
AcDbArc
 50
78.69204596261631
 51
116.9745605547721
  0
LINE
  5
DB5
330
B8D
100
AcDbEntity
  8
0
  6
Continuous
 62
     7
370
    15
100
AcDbLine
 10
2827.057576539134
 20
2080.016342306173
 30
0.0
 11
2827.057576539134
 21
2081.241153534648
 31
0.0
  0
LWPOLYLINE
  5
DB6
330
B8D
100
AcDbEntity
  8
0
  6
Continuous
 62
     7
370
    15
100
AcDbPolyline
 90
        3
 70
   128
 43
0.0
 10
2827.057576539134
 20
2080.016342306173
 10
2826.430100185405
 20
2079.499016187198
 10
2826.318987263296
 20
2079.342917387447
  0
LINE
  5
DB7
330
B8D
100
AcDbEntity
  8
0
  6
Continuous
 62
     7
370
    15
100
AcDbLine
 10
2835.330707873883
 20
2084.792319366194
 30
0.0
 11
2835.330707873883
 21
2086.017130594669
 31
0.0
  0
LINE
  5
DB8
330
B8D
100
AcDbEntity
  8
0
  6
Continuous
 62
     7
370
    15
100
AcDbLine
 10
2835.330707873883
 20
2084.792319366194
 30
0.0
 11
2827.057576539134
 21
2080.016342306173
 31
0.0
  0
ARC
  5
DB9
330
B8D
100
AcDbEntity
  8
0
  6
Continuous
 62
     7
370
    15
100
AcDbCircle
 10
2837.572404575053
 20
2080.388067794266
 30
0.0
 40
4.941926345957086
100
AcDbArc
 50
78.69120843257697
 51
116.9753980848092
  0
LINE
  5
DBA
330
B8D
100
AcDbEntity
  8
0
  6
Continuous
 62
     7
370
    15
100
AcDbLine
 10
2844.735229210059
 20
2090.221433971614
 30
0.0
 11
2844.735229210059
 21
2091.446245200089
 31
0.0
  0
LWPOLYLINE
  5
DBB
330
B8D
100
AcDbEntity
  8
0
  6
Continuous
 62
     7
370
    15
100
AcDbPolyline
 90
        3
 70
   128
 43
0.0
 10
2844.735229210059
 20
2090.221433971614
 10
2844.107752856329
 20
2089.704107852639
 10
2843.99663993422
 20
2089.548009052888
  0
LINE
  5
DBC
330
B8D
100
AcDbEntity
  8
0
  6
Continuous
 62
     7
370
    15
100
AcDbLine
 10
2853.008402691656
 20
2094.997435362492
 30
0.0
 11
2853.008402691656
 21
2096.222246590967
 31
0.0
  0
LINE
  5
DBD
330
B8D
100
AcDbEntity
  8
0
  6
Continuous
 62
     7
370
    15
100
AcDbLine
 10
2853.008402691656
 20
2094.997435362492
 30
0.0
 11
2844.735229210059
 21
2090.221433971614
 31
0.0
  0
ARC
  5
DBE
330
B8D
100
AcDbEntity
  8
0
  6
Continuous
 62
     7
370
    15
100
AcDbCircle
 10
2855.25012941924
 20
2090.592965535958
 30
0.0
 40
4.942134475509511
100
AcDbArc
 50
78.69204596261631
 51
116.9745605547721
  0
LINE
  5
DBF
330
B8D
100
AcDbEntity
  8
0
  6
Continuous
 62
     7
370
    15
100
AcDbLine
 10
2862.412924027831
 20
2100.426549967912
 30
0.0
 11
2862.412924027831
 21
2101.651361196387
 31
0.0
  0
LWPOLYLINE
  5
DC0
330
B8D
100
AcDbEntity
  8
0
  6
Continuous
 62
     7
370
    15
100
AcDbPolyline
 90
        3
 70
   128
 43
0.0
 10
2862.412924027831
 20
2100.426549967912
 10
2861.785447674102
 20
2099.909223848937
 10
2861.674292605144
 20
2099.753100718328
  0
LINE
  5
DC1
330
B8D
100
AcDbEntity
  8
0
  6
Continuous
 62
     7
370
    15
100
AcDbLine
 10
2870.68605536258
 20
2105.202527027933
 30
0.0
 11
2870.68605536258
 21
2106.427338256408
 31
0.0
  0
LINE
  5
DC2
330
B8D
100
AcDbEntity
  8
0
  6
Continuous
 62
     7
370
    15
100
AcDbLine
 10
2870.68605536258
 20
2105.202527027933
 30
0.0
 11
2862.412924027831
 21
2100.426549967912
 31
0.0
  0
ARC
  5
DC3
330
B8D
100
AcDbEntity
  8
0
  6
Continuous
 62
     7
370
    15
100
AcDbCircle
 10
2872.927782090164
 20
2100.798057201399
 30
0.0
 40
4.942134475508954
100
AcDbArc
 50
78.69204596261631
 51
116.9745605547721
  0
LINE
  5
DC4
330
B8D
100
AcDbEntity
  8
0
  6
Continuous
 62
     7
370
    15
100
AcDbLine
 10
2880.090576698755
 20
2110.631641633353
 30
0.0
 11
2880.090576698755
 21
2111.856452861828
 31
0.0
  0
LWPOLYLINE
  5
DC5
330
B8D
100
AcDbEntity
  8
0
  6
Continuous
 62
     7
370
    15
100
AcDbPolyline
 90
        3
 70
   128
 43
0.0
 10
2880.090576698755
 20
2110.631641633353
 10
2879.463100345026
 20
2110.114315514378
 10
2879.351987422917
 20
2109.958216714627
  0
LINE
  5
DC6
330
B8D
100
AcDbEntity
  8
0
  6
Continuous
 62
     7
370
    15
100
AcDbLine
 10
2888.363750180353
 20
2115.407643024231
 30
0.0
 11
2888.363750180353
 21
2116.632454252707
 31
0.0
  0
LINE
  5
DC7
330
B8D
100
AcDbEntity
  8
0
  6
Continuous
 62
     7
370
    15
100
AcDbLine
 10
2888.363750180353
 20
2115.407643024231
 30
0.0
 11
2880.090576698755
 21
2110.631641633353
 31
0.0
  0
ARC
  5
DC8
330
B8D
100
AcDbEntity
  8
0
  6
Continuous
 62
     7
370
    15
100
AcDbCircle
 10
2890.605476907938
 20
2111.003173197698
 30
0.0
 40
4.942134475508285
100
AcDbArc
 50
78.69204596261631
 51
116.9745605547721
  0
LINE
  5
DC9
330
B8D
100
AcDbEntity
  8
0
  6
Continuous
 62
     7
370
    15
100
AcDbLine
 10
2897.768271516529
 20
2120.836757629652
 30
0.0
 11
2897.768271516529
 21
2122.061568858127
 31
0.0
  0
LWPOLYLINE
  5
DCA
330
B8D
100
AcDbEntity
  8
0
  6
Continuous
 62
     7
370
    15
100
AcDbPolyline
 90
        3
 70
   128
 43
0.0
 10
2897.768271516529
 20
2120.836757629652
 10
2897.14075301595
 20
2120.319407179819
 10
2897.029640093841
 20
2120.163308380068
  0
LINE
  5
DCB
330
B8D
100
AcDbEntity
  8
0
  6
Continuous
 62
     7
370
    15
100
AcDbLine
 10
2906.041402851278
 20
2125.612734689672
 30
0.0
 11
2906.041402851278
 21
2126.837545918147
 31
0.0
  0
LINE
  5
DCC
330
B8D
100
AcDbEntity
  8
0
  6
Continuous
 62
     7
370
    15
100
AcDbLine
 10
2906.041402851278
 20
2125.612734689672
 30
0.0
 11
2897.768271516529
 21
2120.836757629652
 31
0.0
  0
ARC
  5
DCD
330
B8D
100
AcDbEntity
  8
0
  6
Continuous
 62
     7
370
    15
100
AcDbCircle
 10
2908.283129578861
 20
2121.20826486314
 30
0.0
 40
4.942134475507967
100
AcDbArc
 50
78.69204596261631
 51
116.9745605547721
  0
LINE
  5
DCE
330
B8D
100
AcDbEntity
  8
0
  6
Continuous
 62
     7
370
    15
100
AcDbLine
 10
2915.445924187452
 20
2131.041849295093
 30
0.0
 11
2915.445924187452
 21
2132.266660523568
 31
0.0
  0
LWPOLYLINE
  5
DCF
330
B8D
100
AcDbEntity
  8
0
  6
Continuous
 62
     7
370
    15
100
AcDbPolyline
 90
        3
 70
   128
 43
0.0
 10
2915.445924187452
 20
2131.041849295093
 10
2914.818447833723
 20
2130.524523176117
 10
2914.707334911614
 20
2130.368424376367
  0
LINE
  5
DD0
330
B8D
100
AcDbEntity
  8
0
  6
Continuous
 62
     7
370
    15
100
AcDbLine
 10
2923.719055522202
 20
2135.817826355113
 30
0.0
 11
2923.719055522202
 21
2137.042637583588
 31
0.0
  0
LINE
  5
DD1
330
B8D
100
AcDbEntity
  8
0
  6
Continuous
 62
     7
370
    15
100
AcDbLine
 10
2923.719055522202
 20
2135.817826355113
 30
0.0
 11
2915.445924187452
 21
2131.041849295093
 31
0.0
  0
ARC
  5
DD2
330
B8D
100
AcDbEntity
  8
0
  6
Continuous
 62
     7
370
    15
100
AcDbCircle
 10
2925.960752223372
 20
2131.413574783186
 30
0.0
 40
4.941926345956819
100
AcDbArc
 50
78.69120843257697
 51
116.9753980848092
  0
LINE
  5
DD3
330
B8D
100
AcDbEntity
  8
0
  6
Continuous
 62
     7
370
    15
100
AcDbLine
 10
2933.123576858377
 20
2141.246940960533
 30
0.0
 11
2933.123576858377
 21
2142.471752189008
 31
0.0
  0
LWPOLYLINE
  5
DD4
330
B8D
100
AcDbEntity
  8
0
  6
Continuous
 62
     7
370
    15
100
AcDbPolyline
 90
        3
 70
   128
 43
0.0
 10
2933.123576858377
 20
2141.246940960533
 10
2932.496100504647
 20
2140.729614841559
 10
2932.384987582538
 20
2140.573516041807
  0
LINE
  5
DD5
330
B8D
100
AcDbEntity
  8
0
  6
Continuous
 62
     7
370
    15
100
AcDbLine
 10
2941.396750339975
 20
2146.022942351411
 30
0.0
 11
2941.396750339975
 21
2147.247753579886
 31
0.0
  0
LINE
  5
DD6
330
B8D
100
AcDbEntity
  8
0
  6
Continuous
 62
     7
370
    15
100
AcDbLine
 10
2941.396750339975
 20
2146.022942351411
 30
0.0
 11
2933.123576858377
 21
2141.246940960533
 31
0.0
  0
ARC
  5
DD7
330
B8D
100
AcDbEntity
  8
0
  6
Continuous
 62
     7
370
    15
100
AcDbCircle
 10
2943.638477067559
 20
2141.618472524879
 30
0.0
 40
4.942134475507953
100
AcDbArc
 50
78.69204596261631
 51
116.9745605547721
  0
LINE
  5
DD8
330
B8D
100
AcDbEntity
  8
0
  6
Continuous
 62
     7
370
    15
100
AcDbLine
 10
2950.80127167615
 20
2151.452056956832
 30
0.0
 11
2950.80127167615
 21
2152.676868185307
 31
0.0
  0
LWPOLYLINE
  5
DD9
330
B8D
100
AcDbEntity
  8
0
  6
Continuous
 62
     7
370
    15
100
AcDbPolyline
 90
        3
 70
   128
 43
0.0
 10
2950.80127167615
 20
2151.452056956832
 10
2950.173774248996
 20
2150.934718672428
 10
2950.062661326887
 20
2150.778619872676
  0
LINE
  5
DDA
330
B8D
100
AcDbEntity
  8
0
  6
Continuous
 62
     7
370
    15
100
AcDbLine
 10
2959.074403010899
 20
2156.228034016852
 30
0.0
 11
2959.074403010899
 21
2157.452845245327
 31
0.0
  0
LINE
  5
DDB
330
B8D
100
AcDbEntity
  8
0
  6
Continuous
 62
     7
370
    15
100
AcDbLine
 10
2959.074403010899
 20
2156.228034016852
 30
0.0
 11
2950.80127167615
 21
2151.452056956832
 31
0.0
  0
ARC
  5
DDC
330
B8D
100
AcDbEntity
  8
0
  6
Continuous
 62
     7
370
    15
100
AcDbCircle
 10
2961.31611472483
 20
2151.823673320864
 30
0.0
 40
4.94203040750899
100
AcDbArc
 50
78.69162719395649
 51
116.9749793234124
  0
LINE
  5
DDD
330
B8D
100
AcDbEntity
  8
0
  6
Continuous
 62
     7
370
    15
100
AcDbLine
 10
2968.478924347074
 20
2161.657148622273
 30
0.0
 11
2968.478924347074
 21
2162.881959850748
 31
0.0
  0
LWPOLYLINE
  5
DDE
330
B8D
100
AcDbEntity
  8
0
  6
Continuous
 62
     7
370
    15
100
AcDbPolyline
 90
        3
 70
   128
 43
0.0
 10
2968.478924347074
 20
2161.657148622273
 10
2967.851447993345
 20
2161.139822503298
 10
2967.740313997811
 20
2160.983711538117
  0
LINE
  5
DDF
330
B8D
100
AcDbEntity
  8
0
  6
Continuous
 62
     7
370
    15
100
AcDbLine
 10
2976.752076755247
 20
2166.433137847722
 30
0.0
 11
2976.752076755247
 21
2167.657949076197
 31
0.0
  0
LINE
  5
DE0
330
B8D
100
AcDbEntity
  8
0
  6
Continuous
 62
     7
370
    15
100
AcDbLine
 10
2976.752076755247
 20
2166.433137847722
 30
0.0
 11
2968.478924347074
 21
2161.657148622273
 31
0.0
  0
ARC
  5
DE1
330
B8D
100
AcDbEntity
  8
0
  6
Continuous
 62
     7
370
    15
100
AcDbCircle
 10
2978.993788469179
 20
2162.028777151734
 30
0.0
 40
4.942030407508726
100
AcDbArc
 50
78.69162719395649
 51
116.9749793234124
  0
LINE
  5
DE2
330
B8D
100
AcDbEntity
  8
0
  6
Continuous
 62
     7
370
    15
100
AcDbLine
 10
2986.156598091423
 20
2171.862252453142
 30
0.0
 11
2986.156598091423
 21
2173.087063681617
 31
0.0
  0
LWPOLYLINE
  5
DE3
330
B8D
100
AcDbEntity
  8
0
  6
Continuous
 62
     7
370
    15
100
AcDbPolyline
 90
        3
 70
   128
 43
0.0
 10
2986.156598091423
 20
2171.862252453142
 10
2985.529121737693
 20
2171.344926334167
 10
2985.41798774216
 20
2171.188815368987
  0
LINE
  5
DE4
330
B8D
100
AcDbEntity
  8
0
  6
Continuous
 62
     7
370
    15
100
AcDbLine
 10
2994.429750499596
 20
2176.638241678591
 30
0.0
 11
2994.429750499596
 21
2177.863052907067
 31
0.0
  0
LINE
  5
DE5
330
B8D
100
AcDbEntity
  8
0
  6
Continuous
 62
     7
370
    15
100
AcDbLine
 10
2994.429750499596
 20
2176.638241678591
 30
0.0
 11
2986.156598091423
 21
2171.862252453142
 31
0.0
  0
ARC
  5
DE6
330
B8D
100
AcDbEntity
  8
0
  6
Continuous
 62
     7
370
    15
100
AcDbCircle
 10
2996.67147722718
 20
2172.233771852058
 30
0.0
 40
4.942134475508522
100
AcDbArc
 50
78.69204596261631
 51
116.9745605547721
  0
LINE
  5
DE7
330
B8D
100
AcDbEntity
  8
0
  6
Continuous
 62
     7
370
    15
100
AcDbLine
 10
3003.834271835771
 20
2182.067356284012
 30
0.0
 11
3003.834271835771
 21
2183.292167512487
 31
0.0
  0
LWPOLYLINE
  5
DE8
330
B8D
100
AcDbEntity
  8
0
  6
Continuous
 62
     7
370
    15
100
AcDbPolyline
 90
        3
 70
   128
 43
0.0
 10
3003.834271835771
 20
2182.067356284012
 10
3003.206795482042
 20
2181.550030165037
 10
3003.095661486508
 20
2181.393919199857
  0
LINE
  5
DE9
330
B8D
100
AcDbEntity
  8
0
  6
Continuous
 62
     7
370
    15
100
AcDbLine
 10
3012.107424243945
 20
2186.843345509461
 30
0.0
 11
3012.107424243945
 21
2188.068156737936
 31
0.0
  0
LINE
  5
DEA
330
B8D
100
AcDbEntity
  8
0
  6
Continuous
 62
     7
370
    15
100
AcDbLine
 10
3012.107424243945
 20
2186.843345509461
 30
0.0
 11
3003.834271835771
 21
2182.067356284012
 31
0.0
  0
ARC
  5
DEB
330
B8D
100
AcDbEntity
  8
0
  6
Continuous
 62
     7
370
    15
100
AcDbCircle
 10
3014.349150971529
 20
2182.438875682928
 30
0.0
 40
4.942134475507967
100
AcDbArc
 50
78.69204596261631
 51
116.9745605547721
  0
LINE
  5
DEC
330
B8D
100
AcDbEntity
  8
0
  6
Continuous
 62
     7
370
    15
100
AcDbLine
 10
3021.51194558012
 20
2192.272460114881
 30
0.0
 11
3021.51194558012
 21
2193.497271343356
 31
0.0
  0
LWPOLYLINE
  5
DED
330
B8D
100
AcDbEntity
  8
0
  6
Continuous
 62
     7
370
    15
100
AcDbPolyline
 90
        3
 70
   128
 43
0.0
 10
3021.51194558012
 20
2192.272460114881
 10
3020.88446922639
 20
2191.755133995906
 10
3020.773335230857
 20
2191.599023030726
  0
LINE
  5
DEE
330
B8D
100
AcDbEntity
  8
0
  6
Continuous
 62
     7
370
    15
100
AcDbLine
 10
3029.785097988293
 20
2197.04844934033
 30
0.0
 11
3029.785097988293
 21
2198.273260568806
 31
0.0
  0
LINE
  5
DEF
330
B8D
100
AcDbEntity
  8
0
  6
Continuous
 62
     7
370
    15
100
AcDbLine
 10
3029.785097988293
 20
2197.04844934033
 30
0.0
 11
3021.51194558012
 21
2192.272460114881
 31
0.0
  0
ARC
  5
DF0
330
B8D
100
AcDbEntity
  8
0
  6
Continuous
 62
     7
370
    15
100
AcDbCircle
 10
3032.026824715878
 20
2192.643979513798
 30
0.0
 40
4.942134475508292
100
AcDbArc
 50
78.69204596261631
 51
116.9745605547721
  0
LINE
  5
DF1
330
B8D
100
AcDbEntity
  8
0
  6
Continuous
 62
     7
370
    15
100
AcDbLine
 10
3039.189619324468
 20
2202.477563945751
 30
0.0
 11
3039.189619324468
 21
2203.702375174227
 31
0.0
  0
LWPOLYLINE
  5
DF2
330
B8D
100
AcDbEntity
  8
0
  6
Continuous
 62
     7
370
    15
100
AcDbPolyline
 90
        3
 70
   128
 43
0.0
 10
3039.189619324468
 20
2202.477563945751
 10
3038.562121897315
 20
2201.960225661347
 10
3038.451008975205
 20
2201.804126861595
  0
LINE
  5
DF3
330
B8D
100
AcDbEntity
  8
0
  6
Continuous
 62
     7
370
    15
100
AcDbLine
 10
3047.462750659218
 20
2207.253541005771
 30
0.0
 11
3047.462750659218
 21
2208.478352234246
 31
0.0
  0
LINE
  5
DF4
330
B8D
100
AcDbEntity
  8
0
  6
Continuous
 62
     7
370
    15
100
AcDbLine
 10
3047.462750659218
 20
2207.253541005771
 30
0.0
 11
3039.189619324468
 21
2202.477563945751
 31
0.0
  0
ARC
  5
DF5
330
B8D
100
AcDbEntity
  8
0
  6
Continuous
 62
     7
370
    15
100
AcDbCircle
 10
3049.704462373148
 20
2202.849180309785
 30
0.0
 40
4.942030407507676
100
AcDbArc
 50
78.69162719395649
 51
116.9749793234124
  0
LINE
  5
DF6
330
B8D
100
AcDbEntity
  8
0
  6
Continuous
 62
     7
370
    15
100
AcDbLine
 10
3056.867271995393
 20
2212.682655611192
 30
0.0
 11
3056.867271995393
 21
2213.907466839667
 31
0.0
  0
LWPOLYLINE
  5
DF7
330
B8D
100
AcDbEntity
  8
0
  6
Continuous
 62
     7
370
    15
100
AcDbPolyline
 90
        3
 70
   128
 43
0.0
 10
3056.867271995393
 20
2212.682655611192
 10
3056.239795641663
 20
2212.165329492217
 10
3056.12866164613
 20
2212.009218527037
  0
LINE
  5
DF8
330
B8D
100
AcDbEntity
  8
0
  6
Continuous
 62
     7
370
    15
100
AcDbLine
 10
3065.140424403566
 20
2217.458644836641
 30
0.0
 11
3065.140424403566
 21
2218.683456065116
 31
0.0
  0
LINE
  5
DF9
330
B8D
100
AcDbEntity
  8
0
  6
Continuous
 62
     7
370
    15
100
AcDbLine
 10
3065.140424403566
 20
2217.458644836641
 30
0.0
 11
3056.867271995393
 21
2212.682655611192
 31
0.0
  0
ARC
  5
DFA
330
B8D
100
AcDbEntity
  8
0
  6
Continuous
 62
     7
370
    15
100
AcDbCircle
 10
3067.382136117497
 20
2213.054284140652
 30
0.0
 40
4.942030407509236
100
AcDbArc
 50
78.69162719395649
 51
116.9749793234124
  0
LINE
  5
DFB
330
B8D
100
AcDbEntity
  8
0
  6
Continuous
 62
     7
370
    15
100
AcDbLine
 10
3074.544945739742
 20
2222.887759442061
 30
0.0
 11
3074.544945739742
 21
2224.112570670536
 31
0.0
  0
LWPOLYLINE
  5
DFC
330
B8D
100
AcDbEntity
  8
0
  6
Continuous
 62
     7
370
    15
100
AcDbPolyline
 90
        3
 70
   128
 43
0.0
 10
3074.544945739742
 20
2222.887759442061
 10
3073.917469386012
 20
2222.370433323086
 10
3073.806335390478
 20
2222.214322357906
  0
LINE
  5
DFD
330
B8D
100
AcDbEntity
  8
0
  6
Continuous
 62
     7
370
    15
100
AcDbLine
 10
3082.818098147915
 20
2227.663748667511
 30
0.0
 11
3082.818098147915
 21
2228.888559895986
 31
0.0
  0
LINE
  5
DFE
330
B8D
100
AcDbEntity
  8
0
  6
Continuous
 62
     7
370
    15
100
AcDbLine
 10
3082.818098147915
 20
2227.663748667511
 30
0.0
 11
3074.544945739742
 21
2222.887759442061
 31
0.0
  0
ARC
  5
DFF
330
B8D
100
AcDbEntity
  8
0
  6
Continuous
 62
     7
370
    15
100
AcDbCircle
 10
3085.059824875499
 20
2223.259278840977
 30
0.0
 40
4.942134475507947
100
AcDbArc
 50
78.69204596261631
 51
116.9745605547721
  0
LINE
  5
E00
330
B8D
100
AcDbEntity
  8
0
  6
Continuous
 62
     7
370
    15
100
AcDbLine
 10
3092.22261948409
 20
2233.092863272931
 30
0.0
 11
3092.22261948409
 21
2234.317674501406
 31
0.0
  0
LWPOLYLINE
  5
E01
330
B8D
100
AcDbEntity
  8
0
  6
Continuous
 62
     7
370
    15
100
AcDbPolyline
 90
        3
 70
   128
 43
0.0
 10
3092.22261948409
 20
2233.092863272931
 10
3091.59514313036
 20
2232.575537153957
 10
3091.484009134827
 20
2232.419426188776
  0
LINE
  5
E02
330
B8D
100
AcDbEntity
  8
0
  6
Continuous
 62
     7
370
    15
100
AcDbLine
 10
3100.495771892263
 20
2237.86885249838
 30
0.0
 11
3100.495771892263
 21
2239.093663726855
 31
0.0
  0
LINE
  5
E03
330
B8D
100
AcDbEntity
  8
0
  6
Continuous
 62
     7
370
    15
100
AcDbLine
 10
3100.495771892263
 20
2237.86885249838
 30
0.0
 11
3092.22261948409
 21
2233.092863272931
 31
0.0
  0
ARC
  5
E04
330
B8D
100
AcDbEntity
  8
0
  6
Continuous
 62
     7
370
    15
100
AcDbCircle
 10
3102.737498619847
 20
2233.464382671847
 30
0.0
 40
4.942134475508337
100
AcDbArc
 50
78.69204596261631
 51
116.9745605547721
  0
LINE
  5
E05
330
B8D
100
AcDbEntity
  8
0
  6
Continuous
 62
     7
370
    15
100
AcDbLine
 10
3109.900293228438
 20
2243.297967103801
 30
0.0
 11
3109.900293228438
 21
2244.522778332276
 31
0.0
  0
LWPOLYLINE
  5
E06
330
B8D
100
AcDbEntity
  8
0
  6
Continuous
 62
     7
370
    15
100
AcDbPolyline
 90
        3
 70
   128
 43
0.0
 10
3109.900293228438
 20
2243.297967103801
 10
3109.272816874709
 20
2242.780640984825
 10
3109.161682879176
 20
2242.624530019645
  0
LINE
  5
E07
330
B8D
100
AcDbEntity
  8
0
  6
Continuous
 62
     7
370
    15
100
AcDbLine
 10
3118.173445636612
 20
2248.07395632925
 30
0.0
 11
3118.173445636612
 21
2249.298767557725
 31
0.0
  0
LINE
  5
E08
330
B8D
100
AcDbEntity
  8
0
  6
Continuous
 62
     7
370
    15
100
AcDbLine
 10
3118.173445636612
 20
2248.07395632925
 30
0.0
 11
3109.900293228438
 21
2243.297967103801
 31
0.0
  0
ARC
  5
E09
330
B8D
100
AcDbEntity
  8
0
  6
Continuous
 62
     7
370
    15
100
AcDbCircle
 10
3120.415172364195
 20
2243.669486502719
 30
0.0
 40
4.942134475506652
100
AcDbArc
 50
78.69204596261631
 51
116.9745605547721
  0
LINE
  5
E0A
330
B8D
100
AcDbEntity
  8
0
  6
Continuous
 62
     7
370
    15
100
AcDbLine
 10
3127.577956436075
 20
2253.503064851956
 30
0.0
 11
3127.577956436075
 21
2254.727876080431
 31
0.0
  0
LWPOLYLINE
  5
E0B
330
B8D
100
AcDbEntity
  8
0
  6
Continuous
 62
     7
370
    15
100
AcDbPolyline
 90
        3
 70
   128
 43
0.0
 10
3127.577956436075
 20
2253.503064851956
 10
3126.950480082345
 20
2252.985738732981
 10
3126.839346086812
 20
2252.829627767801
  0
LINE
  5
E0C
330
B8D
100
AcDbEntity
  8
0
  6
Continuous
 62
     7
370
    15
100
AcDbLine
 10
3135.851108844248
 20
2258.279054077405
 30
0.0
 11
3135.851108844248
 21
2259.50386530588
 31
0.0
  0
LINE
  5
E0D
330
B8D
100
AcDbEntity
  8
0
  6
Continuous
 62
     7
370
    15
100
AcDbLine
 10
3135.851108844248
 20
2258.279054077405
 30
0.0
 11
3127.577956436075
 21
2253.503064851956
 31
0.0
  0
ARC
  5
E0E
330
B8D
100
AcDbEntity
  8
0
  6
Continuous
 62
     7
370
    15
100
AcDbCircle
 10
3138.092828064894
 20
2253.874638816956
 30
0.0
 40
4.942082440701605
100
AcDbArc
 50
78.69183657739346
 51
116.9747699399926
  0
LINE
  5
E0F
330
B8D
100
AcDbEntity
  8
0
  6
Continuous
 62
     7
370
    15
100
AcDbLine
 10
3145.255630180424
 20
2263.708168682825
 30
0.0
 11
3145.255630180424
 21
2264.9329799113
 31
0.0
  0
LWPOLYLINE
  5
E10
330
B8D
100
AcDbEntity
  8
0
  6
Continuous
 62
     7
370
    15
100
AcDbPolyline
 90
        3
 70
   128
 43
0.0
 10
3145.255630180424
 20
2263.708168682825
 10
3144.628143289982
 20
2263.190836481136
 10
3144.517019831161
 20
2263.03473159867
  0
LINE
  5
E11
330
B8D
100
AcDbEntity
  8
0
  6
Continuous
 62
     7
370
    15
100
AcDbLine
 10
3153.528782588597
 20
2268.484157908275
 30
0.0
 11
3153.528782588597
 21
2269.70896913675
 31
0.0
  0
LINE
  5
E12
330
B8D
100
AcDbEntity
  8
0
  6
Continuous
 62
     7
370
    15
100
AcDbLine
 10
3153.528782588597
 20
2268.484157908275
 30
0.0
 11
3145.255630180424
 21
2263.708168682825
 31
0.0
  0
ARC
  5
E13
330
B8D
100
AcDbEntity
  8
0
  6
Continuous
 62
     7
370
    15
100
AcDbCircle
 10
3155.770543517314
 20
2264.079439482128
 30
0.0
 40
4.94237154361749
100
AcDbArc
 50
78.69299985264065
 51
116.9736066647428
  0
LINE
  5
E14
330
B8D
100
AcDbEntity
  8
0
  6
Continuous
 62
     7
370
    15
100
AcDbLine
 10
3162.93329338806
 20
2273.91326643098
 30
0.0
 11
3162.93329338806
 21
2275.138077659455
 31
0.0
  0
LWPOLYLINE
  5
E15
330
B8D
100
AcDbEntity
  8
0
  6
Continuous
 62
     7
370
    15
100
AcDbPolyline
 90
        3
 70
   128
 43
0.0
 10
3162.93329338806
 20
2273.91326643098
 10
3162.30581703433
 20
2273.395940312006
 10
3162.194683038797
 20
2273.239829346825
  0
LINE
  5
E16
330
B8D
100
AcDbEntity
  8
0
  6
Continuous
 62
     7
370
    15
100
AcDbLine
 10
3171.206445796233
 20
2278.68925565643
 30
0.0
 11
3171.206445796233
 21
2279.914066884905
 31
0.0
  0
LINE
  5
E17
330
B8D
100
AcDbEntity
  8
0
  6
Continuous
 62
     7
370
    15
100
AcDbLine
 10
3171.206445796233
 20
2278.68925565643
 30
0.0
 11
3162.93329338806
 21
2273.91326643098
 31
0.0
  0
ARC
  5
E18
330
B8D
100
AcDbEntity
  8
0
  6
Continuous
 62
     7
370
    15
100
AcDbCircle
 10
3173.448165016879
 20
2274.284840395981
 30
0.0
 40
4.942082440701648
100
AcDbArc
 50
78.69183657739346
 51
116.9747699399926
  0
LINE
  5
E19
330
B8D
100
AcDbEntity
  8
0
  6
Continuous
 62
     7
370
    15
100
AcDbLine
 10
3180.610967132408
 20
2284.11837026185
 30
0.0
 11
3180.610967132408
 21
2285.343181490326
 31
0.0
  0
LWPOLYLINE
  5
E1A
330
B8D
100
AcDbEntity
  8
0
  6
Continuous
 62
     7
370
    15
100
AcDbPolyline
 90
        3
 70
   128
 43
0.0
 10
3180.610967132408
 20
2284.11837026185
 10
3179.983480241967
 20
2283.601038060161
 10
3179.872356783145
 20
2283.444933177695
  0
LINE
  5
E1B
330
B8D
100
AcDbEntity
  8
0
  6
Continuous
 62
     7
370
    15
100
AcDbLine
 10
3188.884119540582
 20
2288.894359487299
 30
0.0
 11
3188.884119540582
 21
2290.119170715775
 31
0.0
  0
LINE
  5
E1C
330
B8D
100
AcDbEntity
  8
0
  6
Continuous
 62
     7
370
    15
100
AcDbLine
 10
3188.884119540582
 20
2288.894359487299
 30
0.0
 11
3180.610967132408
 21
2284.11837026185
 31
0.0
  0
ARC
  5
E1D
330
B8D
100
AcDbEntity
  8
0
  6
Continuous
 62
     7
370
    15
100
AcDbCircle
 10
3191.125875606009
 20
2284.489676411213
 30
0.0
 40
4.942337833215442
100
AcDbArc
 50
78.69286421814092
 51
116.9737422992406
  0
LINE
  5
E1E
330
B8D
100
AcDbEntity
  8
0
  6
Continuous
 62
     7
370
    15
100
AcDbLine
 10
3198.288640876758
 20
2294.32347409272
 30
0.0
 11
3198.288640876758
 21
2295.548285321195
 31
0.0
  0
LWPOLYLINE
  5
E1F
330
B8D
100
AcDbEntity
  8
0
  6
Continuous
 62
     7
370
    15
100
AcDbPolyline
 90
        3
 70
   128
 43
0.0
 10
3198.288640876758
 20
2294.32347409272
 10
3197.661153986315
 20
2293.80614189103
 10
3197.550030527494
 20
2293.650037008565
  0
LINE
  5
E20
330
B8D
100
AcDbEntity
  8
0
  6
Continuous
 62
     7
370
    15
100
AcDbLine
 10
3206.561782748219
 20
2299.099457235455
 30
0.0
 11
3206.561782748219
 21
2300.32426846393
 31
0.0
  0
LINE
  5
E21
330
B8D
100
AcDbEntity
  8
0
  6
Continuous
 62
     7
370
    15
100
AcDbLine
 10
3206.561782748219
 20
2299.099457235455
 30
0.0
 11
3198.288640876758
 21
2294.32347409272
 31
0.0
  0
ARC
  5
E22
330
B8D
100
AcDbEntity
  8
0
  6
Continuous
 62
     7
370
    15
100
AcDbCircle
 10
3208.803501968864
 20
2294.695041975005
 30
0.0
 40
4.942082440702512
100
AcDbArc
 50
78.69183657739346
 51
116.9747699399926
  0
LINE
  5
E23
330
B8D
100
AcDbEntity
  8
0
  6
Continuous
 62
     7
370
    15
100
AcDbLine
 10
3215.96630935275
 20
2304.528574882232
 30
0.0
 11
3215.96630935275
 21
2305.753386110707
 31
0.0
  0
LWPOLYLINE
  5
E24
330
B8D
100
AcDbEntity
  8
0
  6
Continuous
 62
     7
370
    15
100
AcDbPolyline
 90
        3
 70
   128
 43
0.0
 10
3215.96630935275
 20
2304.528574882232
 10
3215.338822462308
 20
2304.011242680543
 10
3215.227699003487
 20
2303.855137798077
  0
LINE
  5
E25
330
B8D
100
AcDbEntity
  8
0
  6
Continuous
 62
     7
370
    15
100
AcDbLine
 10
3224.239456492568
 20
2309.304561066324
 30
0.0
 11
3224.239456492568
 21
2310.529372294799
 31
0.0
  0
LINE
  5
E26
330
B8D
100
AcDbEntity
  8
0
  6
Continuous
 62
     7
370
    15
100
AcDbLine
 10
3224.239456492568
 20
2309.304561066324
 30
0.0
 11
3215.96630935275
 21
2304.528574882232
 31
0.0
  0
ARC
  5
E27
330
B8D
100
AcDbEntity
  8
0
  6
Continuous
 62
     7
370
    15
100
AcDbCircle
 10
3226.481196566477
 20
2304.899994228639
 30
0.0
 40
4.942226986552422
100
AcDbArc
 50
78.69241821047876
 51
116.9741883069027
  0
LINE
  5
E28
330
B8D
100
AcDbEntity
  8
0
  6
Continuous
 62
     7
370
    15
100
AcDbLine
 10
3233.643977828742
 20
2314.733675671745
 30
0.0
 11
3233.643977828742
 21
2315.95848690022
 31
0.0
  0
LWPOLYLINE
  5
E29
330
B8D
100
AcDbEntity
  8
0
  6
Continuous
 62
     7
370
    15
100
AcDbPolyline
 90
        3
 70
   128
 43
0.0
 10
3233.643977828742
 20
2314.733675671745
 10
3233.0164909383
 20
2314.216343470056
 10
3232.905367479478
 20
2314.060238587589
  0
LINE
  5
E2A
330
B8D
100
AcDbEntity
  8
0
  6
Continuous
 62
     7
370
    15
100
AcDbLine
 10
3241.917124968559
 20
2319.509661855836
 30
0.0
 11
3241.917124968559
 21
2320.734473084312
 31
0.0
  0
LINE
  5
E2B
330
B8D
100
AcDbEntity
  8
0
  6
Continuous
 62
     7
370
    15
100
AcDbLine
 10
3241.917124968559
 20
2319.509661855836
 30
0.0
 11
3233.643977828742
 21
2314.733675671745
 31
0.0
  0
ARC
  5
E2C
330
B8D
100
AcDbEntity
  8
0
  6
Continuous
 62
     7
370
    15
100
AcDbCircle
 10
3244.158862610843
 20
2315.105112693046
 30
0.0
 40
4.942210131536819
100
AcDbArc
 50
78.69235039003083
 51
116.9742561273621
  0
LINE
  5
E2D
330
B8D
100
AcDbEntity
  8
0
  6
Continuous
 62
     7
370
    15
100
AcDbLine
 10
3251.321646304735
 20
2324.938776461257
 30
0.0
 11
3251.321646304735
 21
2326.163587689732
 31
0.0
  0
LWPOLYLINE
  5
E2E
330
B8D
100
AcDbEntity
  8
0
  6
Continuous
 62
     7
370
    15
100
AcDbPolyline
 90
        3
 70
   128
 43
0.0
 10
3251.321646304735
 20
2324.938776461257
 10
3250.694164682649
 20
2324.421447300925
 10
3250.583035955472
 20
2324.265339377102
  0
LINE
  5
E2F
330
B8D
100
AcDbEntity
  8
0
  6
Continuous
 62
     7
370
    15
100
AcDbLine
 10
3259.59479607873
 20
2329.714764166028
 30
0.0
 11
3259.59479607873
 21
2330.939575394503
 31
0.0
  0
LINE
  5
E30
330
B8D
100
AcDbEntity
  8
0
  6
Continuous
 62
     7
370
    15
100
AcDbLine
 10
3259.59479607873
 20
2329.714764166028
 30
0.0
 11
3251.321646304735
 21
2324.938776461257
 31
0.0
  0
ARC
  5
E31
330
B8D
100
AcDbEntity
  8
0
  6
Continuous
 62
     7
370
    15
100
AcDbCircle
 10
3261.836534936821
 20
2325.310206165822
 30
0.0
 40
4.94221855901336
100
AcDbArc
 50
78.69238430019092
 51
116.9742222171862
  0
LINE
  5
E32
330
B8D
100
AcDbEntity
  8
0
  6
Continuous
 62
     7
370
    15
100
AcDbLine
 10
3268.999314780727
 20
2335.143877250769
 30
0.0
 11
3268.999314780727
 21
2336.368688479245
 31
0.0
  0
LWPOLYLINE
  5
E33
330
B8D
100
AcDbEntity
  8
0
  6
Continuous
 62
     7
370
    15
100
AcDbPolyline
 90
        3
 70
   128
 43
0.0
 10
3268.999314780727
 20
2335.143877250769
 10
3268.371833158641
 20
2334.626548090438
 10
3268.260704431464
 20
2334.470440166614
  0
LINE
  5
E34
330
B8D
100
AcDbEntity
  8
0
  6
Continuous
 62
     7
370
    15
100
AcDbLine
 10
3277.272464554722
 20
2339.91986495554
 30
0.0
 11
3277.272464554722
 21
2341.144676184015
 31
0.0
  0
LINE
  5
E35
330
B8D
100
AcDbEntity
  8
0
  6
Continuous
 62
     7
370
    15
100
AcDbLine
 10
3277.272464554722
 20
2339.91986495554
 30
0.0
 11
3268.999314780727
 21
2335.143877250769
 31
0.0
  0
ARC
  5
E36
330
B8D
100
AcDbEntity
  8
0
  6
Continuous
 62
     7
370
    15
100
AcDbCircle
 10
3279.514194201809
 20
2335.515373907872
 30
0.0
 40
4.942154712229247
100
AcDbArc
 50
78.69212739283492
 51
116.9744791245639
  0
LINE
  5
E37
330
B8D
100
AcDbEntity
  8
0
  6
Continuous
 62
     7
370
    15
100
AcDbLine
 10
3286.676984573809
 20
2345.348978800621
 30
0.0
 11
3286.676984573809
 21
2346.573790029096
 31
0.0
  0
LWPOLYLINE
  5
E38
330
B8D
100
AcDbEntity
  8
0
  6
Continuous
 62
     7
370
    15
100
AcDbPolyline
 90
        3
 70
   128
 43
0.0
 10
3286.676984573809
 20
2345.348978800621
 10
3286.049501634634
 20
2344.831648879949
 10
3285.938374224546
 20
2344.675541716466
  0
LINE
  5
E39
330
B8D
100
AcDbEntity
  8
0
  6
Continuous
 62
     7
370
    15
100
AcDbLine
 10
3294.950134347804
 20
2351.349777733867
 30
0.0
 11
3294.950134347804
 21
2350.124966505392
 31
0.0
  0
LINE
  5
E3A
330
B8D
100
AcDbEntity
  8
0
  6
Continuous
 62
     7
370
    15
100
AcDbLine
 10
3294.950134347804
 20
2350.124966505392
 30
0.0
 11
3286.676984573809
 21
2345.348978800621
 31
0.0
  0
ARC
  5
E3B
330
B8D
100
AcDbEntity
  8
0
  6
Continuous
 62
     7
370
    15
100
AcDbCircle
 10
3297.191868600345
 20
2345.7204419818
 30
0.0
 40
4.942186635279652
100
AcDbArc
 50
78.692255846023
 51
116.9743506713838
  0
LINE
  5
E3C
330
B8D
100
AcDbEntity
  8
0
  6
Continuous
 62
     8
370
    15
100
AcDbLine
 10
1900.429636233494
 20
1541.535675567008
 30
0.0
 11
1899.580967291879
 21
1541.045749415385
 31
0.0
  0
LINE
  5
E3D
330
B8D
100
AcDbEntity
  8
0
  6
Continuous
 62
     8
370
    15
100
AcDbLine
 10
1897.671779591697
 20
1533.329259587998
 30
0.0
 11
1898.520279945918
 21
1533.819088416191
 31
0.0
  0
ENDBLK
  5
B8F
330
B8D
100
AcDbEntity
  8
0
100
AcDbBlockEnd
  0
ENDSEC
  0
SECTION
  2
ENTITIES
  0
INSERT
  5
A1E
330
1F
100
AcDbEntity
  8
0
100
AcDbBlockReference
  2
1
 10
0.0
 20
0.0
 30
0.0
  0
INSERT
  5
A32
330
1F
100
AcDbEntity
  8
0
100
AcDbBlockReference
  2
2
 10
0.0
 20
0.0
 30
0.0
  0
INSERT
  5
B8C
330
1F
100
AcDbEntity
  8
0
100
AcDbBlockReference
  2
3
 10
0.0
 20
0.0
 30
0.0
  0
INSERT
  5
E3E
330
1F
100
AcDbEntity
  8
0
100
AcDbBlockReference
  2
4
 10
1995.726018178341
 20
262.542065205555
 30
0.0
  0
ENDSEC
  0
SECTION
  2
OBJECTS
  0
DICTIONARY
  5
C
330
0
100
AcDbDictionary
281
     1
  3
ACAD_COLOR
350
6B
  3
ACAD_GROUP
350
D
  3
ACAD_LAYOUT
350
1A
  3
ACAD_MATERIAL
350
6A
  3
ACAD_MLEADERSTYLE
350
12D
  3
ACAD_MLINESTYLE
350
17
  3
ACAD_PLOTSETTINGS
350
19
  3
ACAD_PLOTSTYLENAME
350
E
  3
ACAD_SCALELIST
350
10C
  3
ACAD_TABLESTYLE
350
7E
  3
ACAD_VISUALSTYLE
350
EF
  3
ACDB_RECOMPOSE_DATA
350
15D
  3
AcDbVariableDictionary
350
5E
  3
DWGPROPS
350
E4C
  0
DICTIONARY
  5
13C
330
10
100
AcDbDictionary
280
     1
281
     1
  3
ADSK_XREC_LAYER_RECONCILED
360
E3F
  0
DICTIONARY
  5
6B
102
{ACAD_REACTORS
330
C
102
}
330
C
100
AcDbDictionary
281
     1
  0
DICTIONARY
  5
D
102
{ACAD_REACTORS
330
C
102
}
330
C
100
AcDbDictionary
281
     1
  0
DICTIONARY
  5
1A
102
{ACAD_REACTORS
330
C
102
}
330
C
100
AcDbDictionary
281
     1
  3
Layout1
350
D3
  3
Layout2
350
D7
  3
Model
350
22
  0
DICTIONARY
  5
6A
102
{ACAD_REACTORS
330
C
102
}
330
C
100
AcDbDictionary
281
     1
  3
ByBlock
350
ED
  3
ByLayer
350
EC
  3
Global
350
EE
  0
DICTIONARY
  5
12D
102
{ACAD_REACTORS
330
C
102
}
330
C
100
AcDbDictionary
281
     1
  3
Annotative
350
13B
  3
Standard
350
12E
  0
DICTIONARY
  5
17
102
{ACAD_REACTORS
330
C
102
}
330
C
100
AcDbDictionary
281
     1
  3
Standard
350
18
  0
DICTIONARY
  5
19
102
{ACAD_REACTORS
330
C
102
}
330
C
100
AcDbDictionary
281
     1
  0
ACDBDICTIONARYWDFLT
  5
E
102
{ACAD_REACTORS
330
C
102
}
330
C
100
AcDbDictionary
281
     1
  3
Normal
350
F
100
AcDbDictionaryWithDefault
340
F
  0
DICTIONARY
  5
10C
102
{ACAD_REACTORS
330
C
102
}
330
C
100
AcDbDictionary
281
     1
  3
A0
350
10D
  3
A1
350
188
  3
A2
350
189
  3
A3
350
18A
  3
A4
350
18B
  3
A5
350
18C
  3
A6
350
18D
  3
A7
350
18E
  3
A8
350
18F
  3
A9
350
190
  3
B0
350
191
  3
B1
350
192
  3
B2
350
193
  3
B3
350
194
  3
B4
350
195
  3
B5
350
196
  3
B6
350
197
  3
B7
350
198
  3
B8
350
199
  3
B9
350
19A
  3
C0
350
19B
  3
C1
350
19C
  3
C2
350
19D
  3
C3
350
19E
  3
C4
350
19F
  3
C5
350
1A0
  3
C6
350
1A1
  3
C7
350
1A2
  3
C8
350
1A3
  3
C9
350
1A4
  3
D0
350
1A5
  3
D1
350
1A6
  3
D2
350
1A7
  0
DICTIONARY
  5
7E
102
{ACAD_REACTORS
330
C
102
}
330
C
100
AcDbDictionary
281
     1
  3
Standard
350
7F
  0
DICTIONARY
  5
EF
102
{ACAD_REACTORS
330
C
102
}
330
C
100
AcDbDictionary
281
     1
  3
2dWireframe
350
F5
  3
3D Hidden
350
F7
  3
3dWireframe
350
F6
  3
Basic
350
F4
  3
Brighten
350
FB
  3
ColorChange
350
FF
  3
Conceptual
350
F8
  3
Dim
350
FA
  3
Facepattern
350
FE
  3
Flat
350
F0
  3
FlatWithEdges
350
F1
  3
Gouraud
350
F2
  3
GouraudWithEdges
350
F3
  3
Linepattern
350
FD
  3
Realistic
350
F9
  3
Thicken
350
FC
  0
XRECORD
  5
15D
102
{ACAD_REACTORS
330
C
102
}
330
C
100
AcDbXrecord
280
     1
 90
        1
330
7F
  0
DICTIONARY
  5
5E
102
{ACAD_REACTORS
330
C
102
}
330
C
100
AcDbDictionary
281
     1
  3
CANNOSCALE
350
146
  3
CMLEADERSTYLE
350
145
  3
CTABLESTYLE
350
84
  3
DIMASSOC
350
5F
  3
HIDETEXT
350
63
  3
INDEXCTL
350
E48
  3
LIGHTINGUNITS
350
E46
  3
MSLTSCALE
350
E45
  3
PSOLHEIGHT
350
E4A
  3
PSOLWIDTH
350
E49
  3
SORTENTS
350
E47
  0
XRECORD
  5
E4C
102
{ACAD_REACTORS
330
C
102
}
330
C
100
AcDbXrecord
280
     1
  1
DWGPROPS COOKIE
  2

  3

  4

  6

  7

  8
orhan kara
  9

300
=
301
=
302
=
303
=
304
=
305
=
306
=
307
=
308
=
309
=
 40
0.0004009490740741
 41
2458570.574085637
 42
2459082.580735903
  1

 90
        0
  0
XRECORD
  5
E3F
102
{ACAD_REACTORS
330
13C
102
}
330
13C
100
AcDbXrecord
280
     1
290
     1
  0
LAYOUT
  5
D3
102
{ACAD_XDICTIONARY
360
E50
102
}
102
{ACAD_REACTORS
330
1A
102
}
330
1A
100
AcDbPlotSettings
  1

  2
C:\Documents and Settings\basas\Application Data\Autodesk\AutoCAD 2005\R16.1\enu\plotters\Default Windows System Printer.pc3
  4

  6

 40
0.0
 41
0.0
 42
0.0
 43
0.0
 44
0.0
 45
0.0
 46
0.0
 47
0.0
 48
0.0
 49
0.0
140
0.0
141
0.0
142
1.0
143
1.0
 70
   688
 72
     0
 73
     0
 74
     5
  7

 75
    16
147
1.0
148
0.0
149
0.0
100
AcDbLayout
  1
Layout1
 70
     1
 71
     1
 10
0.0
 20
0.0
 11
12.0
 21
9.0
 12
0.0
 22
0.0
 32
0.0
 14
0.0
 24
0.0
 34
0.0
 15
0.0
 25
0.0
 35
0.0
146
0.0
 13
0.0
 23
0.0
 33
0.0
 16
1.0
 26
0.0
 36
0.0
 17
0.0
 27
1.0
 37
0.0
 76
     0
330
D2
  0
LAYOUT
  5
D7
102
{ACAD_XDICTIONARY
360
E52
102
}
102
{ACAD_REACTORS
330
1A
102
}
330
1A
100
AcDbPlotSettings
  1

  2
C:\Documents and Settings\basas\Application Data\Autodesk\AutoCAD 2005\R16.1\enu\plotters\Default Windows System Printer.pc3
  4

  6

 40
0.0
 41
0.0
 42
0.0
 43
0.0
 44
0.0
 45
0.0
 46
0.0
 47
0.0
 48
0.0
 49
0.0
140
0.0
141
0.0
142
1.0
143
1.0
 70
   688
 72
     0
 73
     0
 74
     5
  7

 75
    16
147
1.0
148
0.0
149
0.0
100
AcDbLayout
  1
Layout2
 70
     1
 71
     2
 10
0.0
 20
0.0
 11
12.0
 21
9.0
 12
0.0
 22
0.0
 32
0.0
 14
0.0
 24
0.0
 34
0.0
 15
0.0
 25
0.0
 35
0.0
146
0.0
 13
0.0
 23
0.0
 33
0.0
 16
1.0
 26
0.0
 36
0.0
 17
0.0
 27
1.0
 37
0.0
 76
     0
330
D6
  0
LAYOUT
  5
22
102
{ACAD_XDICTIONARY
360
E4D
102
}
102
{ACAD_REACTORS
330
1A
102
}
330
1A
100
AcDbPlotSettings
  1

  2
none_device
  4
ISO_A4_(210.00_x_297.00_MM)
  6

 40
7.5
 41
20.0
 42
7.5
 43
20.0
 44
210.0
 45
297.0
 46
11.54999923706054
 47
-13.65000009536743
 48
0.0
 49
0.0
140
0.0
141
0.0
142
1.0
143
8.704084754739808
 70
 11952
 72
     1
 73
     0
 74
     0
  7

 75
     0
147
0.1148885871608098
148
0.0
149
0.0
100
AcDbLayout
  1
Model
 70
     1
 71
     0
 10
0.0
 20
0.0
 11
12.0
 21
9.0
 12
0.0
 22
0.0
 32
0.0
 14
0.0
 24
0.0
 34
0.0
 15
0.0
 25
0.0
 35
0.0
146
0.0
 13
0.0
 23
0.0
 33
0.0
 16
1.0
 26
0.0
 36
0.0
 17
0.0
 27
1.0
 37
0.0
 76
     0
330
1F
331
EA
1001
ACAD_PSEXT
1000
None
1000
None
1000
Not applicable
1000
The layout will not be plotted unless a new plotter configuration name is selected.
1070
     0
  0
MATERIAL
  5
ED
102
{ACAD_XDICTIONARY
360
E56
102
}
102
{ACAD_REACTORS
330
6A
102
}
330
6A
100
AcDbMaterial
  1
ByBlock
  0
MATERIAL
  5
EC
102
{ACAD_XDICTIONARY
360
E54
102
}
102
{ACAD_REACTORS
330
6A
102
}
330
6A
100
AcDbMaterial
  1
ByLayer
  0
MATERIAL
  5
EE
102
{ACAD_XDICTIONARY
360
173
102
}
102
{ACAD_REACTORS
330
6A
102
}
330
6A
100
AcDbMaterial
  1
Global
 43
0.0007999999797903
 43
0.0
 43
0.0
 43
0.0
 43
0.0
 43
0.0007999999797903
 43
0.0
 43
0.0
 43
0.0
 43
0.0
 43
1.0
 43
0.0
 43
0.0
 43
0.0
 43
0.0
 43
1.0
 49
0.0007999999797903
 49
0.0
 49
0.0
 49
0.0
 49
0.0
 49
0.0007999999797903
 49
0.0
 49
0.0
 49
0.0
 49
0.0
 49
1.0
 49
0.0
 49
0.0
 49
0.0
 49
0.0
 49
1.0
142
0.0007999999797903
142
0.0
142
0.0
142
0.0
142
0.0
142
0.0007999999797903
142
0.0
142
0.0
142
0.0
142
0.0
142
1.0
142
0.0
142
0.0
142
0.0
142
0.0
142
1.0
144
0.0007999999797903
144
0.0
144
0.0
144
0.0
144
0.0
144
0.0007999999797903
144
0.0
144
0.0
144
0.0
144
0.0
144
1.0
144
0.0
144
0.0
144
0.0
144
0.0
144
1.0
1001
ACAD
1070
    -1
1070
     3
1070
     0
1000

1071
        0
1070
     0
  0
MLEADERSTYLE
  5
13B
102
{ACAD_REACTORS
330
12D
102
}
330
12D
100
AcDbMLeaderStyle
170
     2
171
     1
172
     0
 90
        2
 40
0.0
 41
0.0
173
     1
 91
-1056964608
340
14
 92
       -2
290
     1
 42
2.0
291
     1
 43
8.0
  3
Standard
 44
4.0
300

342
11
174
     1
178
     1
175
     1
176
     0
 93
-1056964608
 45
4.0
292
     0
297
     0
 46
4.0
 94
-1056964608
 47
1.0
 49
1.0
140
1.0
293
     1
141
0.0
294
     1
177
     0
142
1.0
295
     0
296
     1
143
3.75
1001
ACAD_MLEADERVER
1070
     2
  0
MLEADERSTYLE
  5
12E
102
{ACAD_REACTORS
330
12D
102
}
330
12D
100
AcDbMLeaderStyle
170
     2
171
     1
172
     0
 90
        2
 40
0.0
 41
0.0
173
     1
 91
-1056964608
340
14
 92
       -2
290
     1
 42
2.0
291
     1
 43
8.0
  3
Standard
 44
4.0
300

342
11
174
     1
178
     1
175
     1
176
     0
 93
-1056964608
 45
4.0
292
     0
297
     0
 46
4.0
 94
-1056964608
 47
1.0
 49
1.0
140
1.0
293
     1
141
0.0
294
     1
177
     0
142
1.0
295
     0
296
     0
143
3.75
1001
ACAD_MLEADERVER
1070
     2
  0
MLINESTYLE
  5
18
102
{ACAD_REACTORS
330
17
102
}
330
17
100
AcDbMlineStyle
  2
STANDARD
 70
     0
  3

 62
   256
 51
90.0
 52
90.0
 71
     2
 49
0.5
 62
   256
  6
BYLAYER
 49
-0.5
 62
   256
  6
BYLAYER
  0
ACDBPLACEHOLDER
  5
F
102
{ACAD_REACTORS
330
E
102
}
330
E
  0
SCALE
  5
10D
102
{ACAD_REACTORS
330
10C
102
}
330
10C
100
AcDbScale
 70
     0
300
1:1
140
1.0
141
1.0
290
     1
  0
SCALE
  5
188
102
{ACAD_REACTORS
330
10C
102
}
330
10C
100
AcDbScale
 70
     0
300
1:2
140
1.0
141
2.0
290
     0
  0
SCALE
  5
189
102
{ACAD_REACTORS
330
10C
102
}
330
10C
100
AcDbScale
 70
     0
300
1:4
140
1.0
141
4.0
290
     0
  0
SCALE
  5
18A
102
{ACAD_REACTORS
330
10C
102
}
330
10C
100
AcDbScale
 70
     0
300
1:5
140
1.0
141
5.0
290
     0
  0
SCALE
  5
18B
102
{ACAD_REACTORS
330
10C
102
}
330
10C
100
AcDbScale
 70
     0
300
1:8
140
1.0
141
8.0
290
     0
  0
SCALE
  5
18C
102
{ACAD_REACTORS
330
10C
102
}
330
10C
100
AcDbScale
 70
     0
300
1:10
140
1.0
141
10.0
290
     0
  0
SCALE
  5
18D
102
{ACAD_REACTORS
330
10C
102
}
330
10C
100
AcDbScale
 70
     0
300
1:16
140
1.0
141
16.0
290
     0
  0
SCALE
  5
18E
102
{ACAD_REACTORS
330
10C
102
}
330
10C
100
AcDbScale
 70
     0
300
1:20
140
1.0
141
20.0
290
     0
  0
SCALE
  5
18F
102
{ACAD_REACTORS
330
10C
102
}
330
10C
100
AcDbScale
 70
     0
300
1:30
140
1.0
141
30.0
290
     0
  0
SCALE
  5
190
102
{ACAD_REACTORS
330
10C
102
}
330
10C
100
AcDbScale
 70
     0
300
1:40
140
1.0
141
40.0
290
     0
  0
SCALE
  5
191
102
{ACAD_REACTORS
330
10C
102
}
330
10C
100
AcDbScale
 70
     0
300
1:50
140
1.0
141
50.0
290
     0
  0
SCALE
  5
192
102
{ACAD_REACTORS
330
10C
102
}
330
10C
100
AcDbScale
 70
     0
300
1:100
140
1.0
141
100.0
290
     0
  0
SCALE
  5
193
102
{ACAD_REACTORS
330
10C
102
}
330
10C
100
AcDbScale
 70
     0
300
2:1
140
2.0
141
1.0
290
     0
  0
SCALE
  5
194
102
{ACAD_REACTORS
330
10C
102
}
330
10C
100
AcDbScale
 70
     0
300
4:1
140
4.0
141
1.0
290
     0
  0
SCALE
  5
195
102
{ACAD_REACTORS
330
10C
102
}
330
10C
100
AcDbScale
 70
     0
300
8:1
140
8.0
141
1.0
290
     0
  0
SCALE
  5
196
102
{ACAD_REACTORS
330
10C
102
}
330
10C
100
AcDbScale
 70
     0
300
10:1
140
10.0
141
1.0
290
     0
  0
SCALE
  5
197
102
{ACAD_REACTORS
330
10C
102
}
330
10C
100
AcDbScale
 70
     0
300
100:1
140
100.0
141
1.0
290
     0
  0
SCALE
  5
198
102
{ACAD_REACTORS
330
10C
102
}
330
10C
100
AcDbScale
 70
     0
300
1/128" = 1'-0"
140
0.0078125
141
12.0
290
     0
  0
SCALE
  5
199
102
{ACAD_REACTORS
330
10C
102
}
330
10C
100
AcDbScale
 70
     0
300
1/64" = 1'-0"
140
0.015625
141
12.0
290
     0
  0
SCALE
  5
19A
102
{ACAD_REACTORS
330
10C
102
}
330
10C
100
AcDbScale
 70
     0
300
1/32" = 1'-0"
140
0.03125
141
12.0
290
     0
  0
SCALE
  5
19B
102
{ACAD_REACTORS
330
10C
102
}
330
10C
100
AcDbScale
 70
     0
300
1/16" = 1'-0"
140
0.0625
141
12.0
290
     0
  0
SCALE
  5
19C
102
{ACAD_REACTORS
330
10C
102
}
330
10C
100
AcDbScale
 70
     0
300
3/32" = 1'-0"
140
0.09375
141
12.0
290
     0
  0
SCALE
  5
19D
102
{ACAD_REACTORS
330
10C
102
}
330
10C
100
AcDbScale
 70
     0
300
1/8" = 1'-0"
140
0.125
141
12.0
290
     0
  0
SCALE
  5
19E
102
{ACAD_REACTORS
330
10C
102
}
330
10C
100
AcDbScale
 70
     0
300
3/16" = 1'-0"
140
0.1875
141
12.0
290
     0
  0
SCALE
  5
19F
102
{ACAD_REACTORS
330
10C
102
}
330
10C
100
AcDbScale
 70
     0
300
1/4" = 1'-0"
140
0.25
141
12.0
290
     0
  0
SCALE
  5
1A0
102
{ACAD_REACTORS
330
10C
102
}
330
10C
100
AcDbScale
 70
     0
300
3/8" = 1'-0"
140
0.375
141
12.0
290
     0
  0
SCALE
  5
1A1
102
{ACAD_REACTORS
330
10C
102
}
330
10C
100
AcDbScale
 70
     0
300
1/2" = 1'-0"
140
0.5
141
12.0
290
     0
  0
SCALE
  5
1A2
102
{ACAD_REACTORS
330
10C
102
}
330
10C
100
AcDbScale
 70
     0
300
3/4" = 1'-0"
140
0.75
141
12.0
290
     0
  0
SCALE
  5
1A3
102
{ACAD_REACTORS
330
10C
102
}
330
10C
100
AcDbScale
 70
     0
300
1" = 1'-0"
140
1.0
141
12.0
290
     0
  0
SCALE
  5
1A4
102
{ACAD_REACTORS
330
10C
102
}
330
10C
100
AcDbScale
 70
     0
300
1-1/2" = 1'-0"
140
1.5
141
12.0
290
     0
  0
SCALE
  5
1A5
102
{ACAD_REACTORS
330
10C
102
}
330
10C
100
AcDbScale
 70
     0
300
3" = 1'-0"
140
3.0
141
12.0
290
     0
  0
SCALE
  5
1A6
102
{ACAD_REACTORS
330
10C
102
}
330
10C
100
AcDbScale
 70
     0
300
6" = 1'-0"
140
6.0
141
12.0
290
     0
  0
SCALE
  5
1A7
102
{ACAD_REACTORS
330
10C
102
}
330
10C
100
AcDbScale
 70
     0
300
1'-0" = 1'-0"
140
12.0
141
12.0
290
     0
  0
TABLESTYLE
  5
7F
102
{ACAD_XDICTIONARY
360
162
102
}
102
{ACAD_REACTORS
330
7E
102
}
330
7E
100
AcDbTableStyle
  3
Standard
 70
     0
 71
     0
 40
1.5
 41
1.5
280
     0
281
     0
  7
Standard
140
4.5
170
     2
 62
     0
 63
     7
283
     0
274
    -2
284
     1
 64
     0
275
    -2
285
     1
 65
     0
276
    -2
286
     1
 66
     0
277
    -2
287
     1
 67
     0
278
    -2
288
     1
 68
     0
279
    -2
289
     1
 69
     0
  7
Standard
140
6.0
170
     5
 62
     0
 63
     7
283
     0
274
    -2
284
     1
 64
     0
275
    -2
285
     1
 65
     0
276
    -2
286
     1
 66
     0
277
    -2
287
     1
 67
     0
278
    -2
288
     1
 68
     0
279
    -2
289
     1
 69
     0
  7
Standard
140
4.5
170
     5
 62
     0
 63
     7
283
     0
274
    -2
284
     1
 64
     0
275
    -2
285
     1
 65
     0
276
    -2
286
     1
 66
     0
277
    -2
287
     1
 67
     0
278
    -2
288
     1
 68
     0
279
    -2
289
     1
 69
     0
  0
VISUALSTYLE
  5
F5
102
{ACAD_REACTORS
330
EF
102
}
330
EF
100
AcDbVisualStyle
  2
2dWireframe
 70
     4
 71
     0
 72
     2
 73
     1
 90
        0
 40
-0.6
 41
-30.0
 62
     5
 63
     7
 74
     1
 91
        4
 64
     7
 65
   257
 75
     1
175
     1
 42
1.0
 92
        0
 66
   257
 43
1.0
 76
     1
 77
     6
 78
     2
 67
     7
 79
     5
170
     0
171
     0
290
     0
174
     0
 93
        1
 44
0.0
173
     0
291
     0
 45
0.0
1001
ACAD
1000
AcDbSavedByObjectVersion
1070
     0
  0
VISUALSTYLE
  5
F7
102
{ACAD_REACTORS
330
EF
102
}
330
EF
100
AcDbVisualStyle
  2
3D Hidden
 70
     6
 71
     1
 72
     2
 73
     2
 90
        0
 40
-0.6
 41
-30.0
 62
     5
 63
     7
 74
     2
 91
        2
 64
     7
 65
   257
 75
     2
175
     1
 42
40.0
 92
        0
 66
   257
 43
1.0
 76
     1
 77
     6
 78
     2
 67
     7
 79
     3
170
     0
171
     0
290
     0
174
     0
 93
        1
 44
0.0
173
     0
291
     0
 45
0.0
1001
ACAD
1000
AcDbSavedByObjectVersion
1070
     0
  0
VISUALSTYLE
  5
F6
102
{ACAD_REACTORS
330
EF
102
}
330
EF
100
AcDbVisualStyle
  2
3dWireframe
 70
     5
 71
     0
 72
     2
 73
     1
 90
        0
 40
-0.6
 41
-30.0
 62
     5
 63
     7
 74
     1
 91
        4
 64
     7
 65
   257
 75
     1
175
     1
 42
1.0
 92
        0
 66
   257
 43
1.0
 76
     1
 77
     6
 78
     2
 67
     7
 79
     5
170
     0
171
     0
290
     0
174
     0
 93
        1
 44
0.0
173
     0
291
     0
 45
0.0
1001
ACAD
1000
AcDbSavedByObjectVersion
1070
     0
  0
VISUALSTYLE
  5
F4
102
{ACAD_REACTORS
330
EF
102
}
330
EF
100
AcDbVisualStyle
  2
Basic
 70
     7
 71
     1
 72
     0
 73
     1
 90
        0
 40
-0.6
 41
-30.0
 62
     5
 63
     7
 74
     0
 91
        4
 64
     7
 65
   257
 75
     1
175
     1
 42
1.0
 92
        8
 66
     7
 43
1.0
 76
     1
 77
     6
 78
     2
 67
     7
 79
     5
170
     0
171
     0
290
     0
174
     0
 93
        1
 44
0.0
173
     0
291
     1
 45
0.0
1001
ACAD
1000
AcDbSavedByObjectVersion
1070
     0
  0
VISUALSTYLE
  5
FB
102
{ACAD_REACTORS
330
EF
102
}
330
EF
100
AcDbVisualStyle
  2
Brighten
 70
    12
 71
     2
 72
     2
 73
     1
 90
        0
 40
-0.6
 41
-30.0
 62
     5
 63
     7
 74
     1
 91
        4
 64
     7
 65
   257
 75
     1
175
     1
 42
1.0
 92
        8
 66
     7
 43
1.0
 76
     1
 77
     6
 78
     2
 67
     7
 79
     5
170
     0
171
     0
290
     0
174
     0
 93
        1
 44
50.0
173
     0
291
     1
 45
0.0
1001
ACAD
1000
AcDbSavedByObjectVersion
1070
     0
  0
VISUALSTYLE
  5
FF
102
{ACAD_REACTORS
330
EF
102
}
330
EF
100
AcDbVisualStyle
  2
ColorChange
 70
    16
 71
     2
 72
     2
 73
     3
 90
        0
 40
-0.6
 41
-30.0
 62
     5
 63
     8
 74
     1
 91
        4
 64
     7
 65
   257
 75
     1
175
     1
 42
1.0
 92
        8
 66
     8
 43
1.0
 76
     1
 77
     6
 78
     2
 67
     7
 79
     5
170
     0
171
     0
290
     0
174
     0
 93
        1
 44
0.0
173
     0
291
     1
 45
0.0
1001
ACAD
1000
AcDbSavedByObjectVersion
1070
     0
  0
VISUALSTYLE
  5
F8
102
{ACAD_REACTORS
330
EF
102
}
330
EF
100
AcDbVisualStyle
  2
Conceptual
 70
     9
 71
     3
 72
     2
 73
     1
 90
        0
 40
-0.6
 41
-30.0
 62
     5
 63
     7
 74
     2
 91
        2
 64
     7
 65
   257
 75
     1
175
     1
 42
40.0
 92
        8
 66
     7
 43
1.0
 76
     1
 77
     6
 78
     2
 67
     7
 79
     3
170
     0
171
     0
290
     0
174
     0
 93
        1
 44
0.0
173
     0
291
     0
 45
0.0
1001
ACAD
1000
AcDbSavedByObjectVersion
1070
     0
  0
VISUALSTYLE
  5
FA
102
{ACAD_REACTORS
330
EF
102
}
330
EF
100
AcDbVisualStyle
  2
Dim
 70
    11
 71
     2
 72
     2
 73
     1
 90
        0
 40
-0.6
 41
-30.0
 62
     5
 63
     7
 74
     1
 91
        4
 64
     7
 65
   257
 75
     1
175
     1
 42
1.0
 92
        8
 66
     7
 43
1.0
 76
     1
 77
     6
 78
     2
 67
     7
 79
     5
170
     0
171
     0
290
     0
174
     0
 93
        1
 44
-50.0
173
     0
291
     1
 45
0.0
1001
ACAD
1000
AcDbSavedByObjectVersion
1070
     0
  0
VISUALSTYLE
  5
FE
102
{ACAD_REACTORS
330
EF
102
}
330
EF
100
AcDbVisualStyle
  2
Facepattern
 70
    15
 71
     2
 72
     2
 73
     1
 90
        0
 40
-0.6
 41
-30.0
 62
     5
 63
     7
 74
     1
 91
        4
 64
     7
 65
   257
 75
     1
175
     1
 42
1.0
 92
        8
 66
     7
 43
1.0
 76
     1
 77
     6
 78
     2
 67
     7
 79
     5
170
     0
171
     0
290
     0
174
     0
 93
        1
 44
0.0
173
     0
291
     1
 45
0.0
1001
ACAD
1000
AcDbSavedByObjectVersion
1070
     0
  0
VISUALSTYLE
  5
F0
102
{ACAD_REACTORS
330
EF
102
}
330
EF
100
AcDbVisualStyle
  2
Flat
 70
     0
 71
     2
 72
     1
 73
     1
 90
        2
 40
-0.6
 41
30.0
 62
     5
 63
     7
 74
     0
 91
        4
 64
     7
 65
   257
 75
     1
175
     1
 42
1.0
 92
        8
 66
     7
 43
1.0
 76
     1
 77
     6
 78
     2
 67
     7
 79
     5
170
     0
171
     0
290
     0
174
     0
 93
        1
 44
0.0
173
     0
291
     1
 45
0.0
1001
ACAD
1000
AcDbSavedByObjectVersion
1070
     0
  0
VISUALSTYLE
  5
F1
102
{ACAD_REACTORS
330
EF
102
}
330
EF
100
AcDbVisualStyle
  2
FlatWithEdges
 70
     1
 71
     2
 72
     1
 73
     1
 90
        2
 40
-0.6
 41
30.0
 62
     5
 63
     7
 74
     1
 91
        4
 64
     7
 65
   257
 75
     1
175
     1
 42
1.0
 92
        0
 66
   257
 43
1.0
 76
     1
 77
     6
 78
     2
 67
     7
 79
     5
170
     0
171
     0
290
     0
174
     0
 93
        1
 44
0.0
173
     0
291
     1
 45
0.0
1001
ACAD
1000
AcDbSavedByObjectVersion
1070
     0
  0
VISUALSTYLE
  5
F2
102
{ACAD_REACTORS
330
EF
102
}
330
EF
100
AcDbVisualStyle
  2
Gouraud
 70
     2
 71
     2
 72
     2
 73
     1
 90
        2
 40
-0.6
 41
30.0
 62
     5
 63
     7
 74
     0
 91
        4
 64
     7
 65
   257
 75
     1
175
     1
 42
1.0
 92
        0
 66
     7
 43
1.0
 76
     1
 77
     6
 78
     2
 67
     7
 79
     5
170
     0
171
     0
290
     0
174
     0
 93
        1
 44
0.0
173
     0
291
     1
 45
0.0
1001
ACAD
1000
AcDbSavedByObjectVersion
1070
     0
  0
VISUALSTYLE
  5
F3
102
{ACAD_REACTORS
330
EF
102
}
330
EF
100
AcDbVisualStyle
  2
GouraudWithEdges
 70
     3
 71
     2
 72
     2
 73
     1
 90
        2
 40
-0.6
 41
30.0
 62
     5
 63
     7
 74
     1
 91
        4
 64
     7
 65
   257
 75
     1
175
     1
 42
1.0
 92
        0
 66
   257
 43
1.0
 76
     1
 77
     6
 78
     2
 67
     7
 79
     5
170
     0
171
     0
290
     0
174
     0
 93
        1
 44
0.0
173
     0
291
     1
 45
0.0
1001
ACAD
1000
AcDbSavedByObjectVersion
1070
     0
  0
VISUALSTYLE
  5
FD
102
{ACAD_REACTORS
330
EF
102
}
330
EF
100
AcDbVisualStyle
  2
Linepattern
 70
    14
 71
     2
 72
     2
 73
     1
 90
        0
 40
-0.6
 41
-30.0
 62
     5
 63
     7
 74
     1
 91
        4
 64
     7
 65
   257
 75
     7
175
     7
 42
1.0
 92
        8
 66
     7
 43
1.0
 76
     1
 77
     6
 78
     2
 67
     7
 79
     5
170
     0
171
     0
290
     0
174
     0
 93
        1
 44
0.0
173
     0
291
     1
 45
0.0
1001
ACAD
1000
AcDbSavedByObjectVersion
1070
     0
  0
VISUALSTYLE
  5
F9
102
{ACAD_REACTORS
330
EF
102
}
330
EF
100
AcDbVisualStyle
  2
Realistic
 70
     8
 71
     2
 72
     2
 73
     1
 90
        0
 40
-0.6
 41
-30.0
 62
     5
 63
     7
 74
     1
 91
        0
 64
     7
 65
   257
 75
     1
175
     1
 42
1.0
 92
        8
 66
     8
 43
1.0
 76
     1
 77
     6
 78
     2
 67
     7
 79
     5
170
     0
171
     0
290
     0
174
     0
 93
       13
 44
0.0
173
     0
291
     0
 45
0.0
1001
ACAD
1000
AcDbSavedByObjectVersion
1070
     0
  0
VISUALSTYLE
  5
FC
102
{ACAD_REACTORS
330
EF
102
}
330
EF
100
AcDbVisualStyle
  2
Thicken
 70
    13
 71
     2
 72
     2
 73
     1
 90
        0
 40
-0.6
 41
-30.0
 62
     5
 63
     7
 74
     1
 91
        4
 64
     7
 65
   257
 75
     1
175
     1
 42
1.0
 92
       12
 66
     7
 43
1.0
 76
     1
 77
     6
 78
     2
 67
     7
 79
     5
170
     0
171
     0
290
     0
174
     0
 93
        1
 44
0.0
173
     0
291
     1
 45
0.0
1001
ACAD
1000
AcDbSavedByObjectVersion
1070
     0
  0
DICTIONARYVAR
  5
146
102
{ACAD_REACTORS
330
5E
102
}
330
5E
100
DictionaryVariables
280
     0
  1
1:1
  0
DICTIONARYVAR
  5
145
102
{ACAD_REACTORS
330
5E
102
}
330
5E
100
DictionaryVariables
280
     0
  1
STANDARD
  0
DICTIONARYVAR
  5
84
102
{ACAD_REACTORS
330
5E
102
}
330
5E
100
DictionaryVariables
280
     0
  1
STANDARD
  0
DICTIONARYVAR
  5
5F
102
{ACAD_REACTORS
330
5E
102
}
330
5E
100
DictionaryVariables
280
     0
  1
2
  0
DICTIONARYVAR
  5
63
102
{ACAD_REACTORS
330
5E
102
}
330
5E
100
DictionaryVariables
280
     0
  1
1
  0
DICTIONARYVAR
  5
E48
102
{ACAD_REACTORS
330
5E
102
}
330
5E
100
DictionaryVariables
280
     0
  1
0
  0
DICTIONARYVAR
  5
E46
102
{ACAD_REACTORS
330
5E
102
}
330
5E
100
DictionaryVariables
280
     0
  1
2
  0
DICTIONARYVAR
  5
E45
102
{ACAD_REACTORS
330
5E
102
}
330
5E
100
DictionaryVariables
280
     0
  1
1
  0
DICTIONARYVAR
  5
E4A
102
{ACAD_REACTORS
330
5E
102
}
330
5E
100
DictionaryVariables
280
     0
  1
80.000000
  0
DICTIONARYVAR
  5
E49
102
{ACAD_REACTORS
330
5E
102
}
330
5E
100
DictionaryVariables
280
     0
  1
5.000000
  0
DICTIONARYVAR
  5
E47
102
{ACAD_REACTORS
330
5E
102
}
330
5E
100
DictionaryVariables
280
     0
  1
127
  0
DICTIONARY
  5
E50
330
D3
100
AcDbDictionary
280
     1
281
     1
  3
ACAD_XREC_ROUNDTRIP
360
E51
  0
DICTIONARY
  5
E52
330
D7
100
AcDbDictionary
280
     1
281
     1
  3
ACAD_XREC_ROUNDTRIP
360
E53
  0
DICTIONARY
  5
E4D
330
22
100
AcDbDictionary
280
     1
281
     1
  3
ACAD_XREC_ROUNDTRIP
360
E4E
  0
DICTIONARY
  5
E56
330
ED
100
AcDbDictionary
280
     1
281
     1
  3
ACAD_XREC_ROUNDTRIP
360
E57
  0
DICTIONARY
  5
E54
330
EC
100
AcDbDictionary
280
     1
281
     1
  3
ACAD_XREC_ROUNDTRIP
360
E55
  0
DICTIONARY
  5
173
330
EE
100
AcDbDictionary
280
     1
281
     1
  3
ACAD_XREC_ROUNDTRIP
360
E58
  3
BUMPTILE
360
175
  3
DIFFUSETILE
360
174
  3
OPACITYTILE
360
176
  3
REFLECTIONTILE
360
177
  0
DICTIONARY
  5
162
330
7F
100
AcDbDictionary
280
     1
281
     1
  3
ACAD_ROUNDTRIP_2008_TABLESTYLE_CELLSTYLEMAP
360
E4B
  3
ACAD_XREC_ROUNDTRIP
360
E4F
  0
XRECORD
  5
E51
102
{ACAD_REACTORS
330
E50
102
}
330
E50
100
AcDbXrecord
280
     1
102
SHADEPLOT
 70
     0
102
SHADEPLOTRESLEVEL
 70
     2
102
SHADEPLOTCUSTOMDPI
 70
   300
  0
XRECORD
  5
E53
102
{ACAD_REACTORS
330
E52
102
}
330
E52
100
AcDbXrecord
280
     1
102
SHADEPLOT
 70
     0
102
SHADEPLOTRESLEVEL
 70
     2
102
SHADEPLOTCUSTOMDPI
 70
   300
  0
XRECORD
  5
E4E
102
{ACAD_REACTORS
330
E4D
102
}
330
E4D
100
AcDbXrecord
280
     1
102
SHADEPLOT
 70
     0
102
SHADEPLOTRESLEVEL
 70
     2
102
SHADEPLOTCUSTOMDPI
 70
   300
  0
XRECORD
  5
E57
102
{ACAD_REACTORS
330
E56
102
}
330
E56
100
AcDbXrecord
280
     1
102
MATERIAL
148
0.0
149
0.0
149
0.0
 93
        0
 94
       63
282
     0
 72
     1
 77
     1
171
     1
175
     1
179
     1
273
     0
  0
XRECORD
  5
E55
102
{ACAD_REACTORS
330
E54
102
}
330
E54
100
AcDbXrecord
280
     1
102
MATERIAL
148
0.0
149
0.0
149
0.0
 93
        0
 94
       63
282
     0
 72
     1
 77
     1
171
     1
175
     1
179
     1
273
     0
  0
XRECORD
  5
E58
102
{ACAD_REACTORS
330
173
102
}
330
173
100
AcDbXrecord
280
     1
102
MATERIAL
148
0.0
149
0.0
149
0.0
 93
        0
 94
       63
282
     0
 72
     1
 77
     1
171
     1
175
     1
179
     1
273
     0
  0
XRECORD
  5
175
102
{ACAD_REACTORS
330
173
102
}
330
173
100
AcDbXrecord
280
     1
270
     1
271
     1
  0
XRECORD
  5
174
102
{ACAD_REACTORS
330
173
102
}
330
173
100
AcDbXrecord
280
     1
270
     1
271
     1
  0
XRECORD
  5
176
102
{ACAD_REACTORS
330
173
102
}
330
173
100
AcDbXrecord
280
     1
270
     1
271
     1
  0
XRECORD
  5
177
102
{ACAD_REACTORS
330
173
102
}
330
173
100
AcDbXrecord
280
     1
270
     1
271
     1
  0
CELLSTYLEMAP
  5
E4B
102
{ACAD_REACTORS
330
162
102
}
330
162
100
AcDbCellStyleMap
 90
        3
300
CELLSTYLE
  1
TABLEFORMAT_BEGIN
 90
        5
170
     1
 91
        0
 92
    32768
 62
   257
 93
        1
300
CONTENTFORMAT
  1
CONTENTFORMAT_BEGIN
 90
        0
 91
        0
 92
      512
 93
        0
300

 40
0.0
140
1.0
 94
        5
 62
     0
340
11
144
6.0
309
CONTENTFORMAT_END
171
     1
301
MARGIN
  1
CELLMARGIN_BEGIN
 40
1.5
 40
1.5
 40
1.5
 40
1.5
 40
4.5
 40
4.5
309
CELLMARGIN_END
 94
        6
 95
        1
302
GRIDFORMAT
  1
GRIDFORMAT_BEGIN
 90
        0
 91
        1
 62
     0
 92
       -2
340
14
 93
        0
 40
1.125
309
GRIDFORMAT_END
 95
        2
302
GRIDFORMAT
  1
GRIDFORMAT_BEGIN
 90
        0
 91
        1
 62
     0
 92
       -2
340
14
 93
        0
 40
1.125
309
GRIDFORMAT_END
 95
        4
302
GRIDFORMAT
  1
GRIDFORMAT_BEGIN
 90
        0
 91
        1
 62
     0
 92
       -2
340
14
 93
        0
 40
1.125
309
GRIDFORMAT_END
 95
        8
302
GRIDFORMAT
  1
GRIDFORMAT_BEGIN
 90
        0
 91
        1
 62
     0
 92
       -2
340
14
 93
        0
 40
1.125
309
GRIDFORMAT_END
 95
       16
302
GRIDFORMAT
  1
GRIDFORMAT_BEGIN
 90
        0
 91
        1
 62
     0
 92
       -2
340
14
 93
        0
 40
1.125
309
GRIDFORMAT_END
 95
       32
302
GRIDFORMAT
  1
GRIDFORMAT_BEGIN
 90
        0
 91
        1
 62
     0
 92
       -2
340
14
 93
        0
 40
1.125
309
GRIDFORMAT_END
309
TABLEFORMAT_END
  1
CELLSTYLE_BEGIN
 90
        1
 91
        1
300
_TITLE
309
CELLSTYLE_END
300
CELLSTYLE
  1
TABLEFORMAT_BEGIN
 90
        5
170
     1
 91
        0
 92
        0
 62
   257
 93
        1
300
CONTENTFORMAT
  1
CONTENTFORMAT_BEGIN
 90
        0
 91
        0
 92
      512
 93
        0
300

 40
0.0
140
1.0
 94
        5
 62
     0
340
11
144
4.5
309
CONTENTFORMAT_END
171
     1
301
MARGIN
  1
CELLMARGIN_BEGIN
 40
1.5
 40
1.5
 40
1.5
 40
1.5
 40
4.5
 40
4.5
309
CELLMARGIN_END
 94
        6
 95
        1
302
GRIDFORMAT
  1
GRIDFORMAT_BEGIN
 90
        0
 91
        1
 62
     0
 92
       -2
340
14
 93
        0
 40
1.125
309
GRIDFORMAT_END
 95
        2
302
GRIDFORMAT
  1
GRIDFORMAT_BEGIN
 90
        0
 91
        1
 62
     0
 92
       -2
340
14
 93
        0
 40
1.125
309
GRIDFORMAT_END
 95
        4
302
GRIDFORMAT
  1
GRIDFORMAT_BEGIN
 90
        0
 91
        1
 62
     0
 92
       -2
340
14
 93
        0
 40
1.125
309
GRIDFORMAT_END
 95
        8
302
GRIDFORMAT
  1
GRIDFORMAT_BEGIN
 90
        0
 91
        1
 62
     0
 92
       -2
340
14
 93
        0
 40
1.125
309
GRIDFORMAT_END
 95
       16
302
GRIDFORMAT
  1
GRIDFORMAT_BEGIN
 90
        0
 91
        1
 62
     0
 92
       -2
340
14
 93
        0
 40
1.125
309
GRIDFORMAT_END
 95
       32
302
GRIDFORMAT
  1
GRIDFORMAT_BEGIN
 90
        0
 91
        1
 62
     0
 92
       -2
340
14
 93
        0
 40
1.125
309
GRIDFORMAT_END
309
TABLEFORMAT_END
  1
CELLSTYLE_BEGIN
 90
        2
 91
        1
300
_HEADER
309
CELLSTYLE_END
300
CELLSTYLE
  1
TABLEFORMAT_BEGIN
 90
        5
170
     1
 91
        0
 92
        0
 62
   257
 93
        1
300
CONTENTFORMAT
  1
CONTENTFORMAT_BEGIN
 90
        0
 91
        0
 92
      512
 93
        0
300

 40
0.0
140
1.0
 94
        2
 62
     0
340
11
144
4.5
309
CONTENTFORMAT_END
171
     1
301
MARGIN
  1
CELLMARGIN_BEGIN
 40
1.5
 40
1.5
 40
1.5
 40
1.5
 40
4.5
 40
4.5
309
CELLMARGIN_END
 94
        6
 95
        1
302
GRIDFORMAT
  1
GRIDFORMAT_BEGIN
 90
        0
 91
        1
 62
     0
 92
       -2
340
14
 93
        0
 40
1.125
309
GRIDFORMAT_END
 95
        2
302
GRIDFORMAT
  1
GRIDFORMAT_BEGIN
 90
        0
 91
        1
 62
     0
 92
       -2
340
14
 93
        0
 40
1.125
309
GRIDFORMAT_END
 95
        4
302
GRIDFORMAT
  1
GRIDFORMAT_BEGIN
 90
        0
 91
        1
 62
     0
 92
       -2
340
14
 93
        0
 40
1.125
309
GRIDFORMAT_END
 95
        8
302
GRIDFORMAT
  1
GRIDFORMAT_BEGIN
 90
        0
 91
        1
 62
     0
 92
       -2
340
14
 93
        0
 40
1.125
309
GRIDFORMAT_END
 95
       16
302
GRIDFORMAT
  1
GRIDFORMAT_BEGIN
 90
        0
 91
        1
 62
     0
 92
       -2
340
14
 93
        0
 40
1.125
309
GRIDFORMAT_END
 95
       32
302
GRIDFORMAT
  1
GRIDFORMAT_BEGIN
 90
        0
 91
        1
 62
     0
 92
       -2
340
14
 93
        0
 40
1.125
309
GRIDFORMAT_END
309
TABLEFORMAT_END
  1
CELLSTYLE_BEGIN
 90
        3
 91
        2
300
_DATA
309
CELLSTYLE_END
  0
XRECORD
  5
E4F
102
{ACAD_REACTORS
330
162
102
}
330
162
100
AcDbXrecord
280
     1
102
ACAD_ROUNDTRIP_PRE2007_TABLESTYLE
 90
      512
 91
        0
  1

 92
      512
 93
        0
  2

 94
      512
 95
        0
  3

  0
ENDSEC
  0
EOF
