  0
SECTION
  2
HEADER
  9
$ACADVER
  1
AC1015
  9
$ACADMAINTVER
 70
    20
  9
$DWGCODEPAGE
  3
ANSI_1254
  9
$INSBASE
 10
0.0
 20
0.0
 30
0.0
  9
$EXTMIN
 10
1838.955902050395
 20
947.2068225537704
 30
0.0
  9
$EXTMAX
 10
3712.211808226383
 20
1999.990072965887
 30
0.0
  9
$LIMMIN
 10
0.0
 20
0.0
  9
$LIMMAX
 10
420.0
 20
297.0
  9
$ORTHOMODE
 70
     0
  9
$REGENMODE
 70
     1
  9
$FILLMODE
 70
     1
  9
$QTEXTMODE
 70
     0
  9
$MIRRTEXT
 70
     0
  9
$LTSCALE
 40
1.0
  9
$ATTMODE
 70
     1
  9
$TEXTSIZE
 40
2.5
  9
$TRACEWID
 40
1.0
  9
$TEXTSTYLE
  7
Standard
  9
$CLAYER
  8
0
  9
$CELTYPE
  6
ByLayer
  9
$CECOLOR
 62
   256
  9
$CELTSCALE
 40
1.0
  9
$DISPSILH
 70
     0
  9
$DIMSCALE
 40
1.0
  9
$DIMASZ
 40
2.5
  9
$DIMEXO
 40
0.625
  9
$DIMDLI
 40
3.75
  9
$DIMRND
 40
0.0
  9
$DIMDLE
 40
0.0
  9
$DIMEXE
 40
1.25
  9
$DIMTP
 40
0.0
  9
$DIMTM
 40
0.0
  9
$DIMTXT
 40
2.5
  9
$DIMCEN
 40
2.5
  9
$DIMTSZ
 40
0.0
  9
$DIMTOL
 70
     0
  9
$DIMLIM
 70
     0
  9
$DIMTIH
 70
     0
  9
$DIMTOH
 70
     0
  9
$DIMSE1
 70
     0
  9
$DIMSE2
 70
     0
  9
$DIMTAD
 70
     1
  9
$DIMZIN
 70
     8
  9
$DIMBLK
  1

  9
$DIMASO
 70
     1
  9
$DIMSHO
 70
     1
  9
$DIMPOST
  1

  9
$DIMAPOST
  1

  9
$DIMALT
 70
     0
  9
$DIMALTD
 70
     3
  9
$DIMALTF
 40
0.03937007874016
  9
$DIMLFAC
 40
1.0
  9
$DIMTOFL
 70
     1
  9
$DIMTVP
 40
0.0
  9
$DIMTIX
 70
     0
  9
$DIMSOXD
 70
     0
  9
$DIMSAH
 70
     0
  9
$DIMBLK1
  1

  9
$DIMBLK2
  1

  9
$DIMSTYLE
  2
ISO-25
  9
$DIMCLRD
 70
     0
  9
$DIMCLRE
 70
     0
  9
$DIMCLRT
 70
     0
  9
$DIMTFAC
 40
1.0
  9
$DIMGAP
 40
0.625
  9
$DIMJUST
 70
     0
  9
$DIMSD1
 70
     0
  9
$DIMSD2
 70
     0
  9
$DIMTOLJ
 70
     0
  9
$DIMTZIN
 70
     8
  9
$DIMALTZ
 70
     0
  9
$DIMALTTZ
 70
     0
  9
$DIMUPT
 70
     0
  9
$DIMDEC
 70
     2
  9
$DIMTDEC
 70
     2
  9
$DIMALTU
 70
     2
  9
$DIMALTTD
 70
     3
  9
$DIMTXSTY
  7
Standard
  9
$DIMAUNIT
 70
     0
  9
$DIMADEC
 70
     0
  9
$DIMALTRND
 40
0.0
  9
$DIMAZIN
 70
     0
  9
$DIMDSEP
 70
    44
  9
$DIMATFIT
 70
     3
  9
$DIMFRAC
 70
     0
  9
$DIMLDRBLK
  1

  9
$DIMLUNIT
 70
     2
  9
$DIMLWD
 70
    -2
  9
$DIMLWE
 70
    -2
  9
$DIMTMOVE
 70
     0
  9
$LUNITS
 70
     2
  9
$LUPREC
 70
     4
  9
$SKETCHINC
 40
1.0
  9
$FILLETRAD
 40
0.0
  9
$AUNITS
 70
     0
  9
$AUPREC
 70
     0
  9
$MENU
  1
.
  9
$ELEVATION
 40
0.0
  9
$PELEVATION
 40
0.0
  9
$THICKNESS
 40
0.0
  9
$LIMCHECK
 70
     0
  9
$CHAMFERA
 40
0.0
  9
$CHAMFERB
 40
0.0
  9
$CHAMFERC
 40
0.0
  9
$CHAMFERD
 40
0.0
  9
$SKPOLY
 70
     0
  9
$TDCREATE
 40
2458570.570530266
  9
$TDUCREATE
 40
2458570.445530266
  9
$TDUPDATE
 40
2459082.580537280
  9
$TDUUPDATE
 40
2459082.455537280
  9
$TDINDWG
 40
0.0004261921
  9
$TDUSRTIMER
 40
0.0004261921
  9
$USRTIMER
 70
     1
  9
$ANGBASE
 50
0.0
  9
$ANGDIR
 70
     0
  9
$PDMODE
 70
     0
  9
$PDSIZE
 40
0.0
  9
$PLINEWID
 40
0.0
  9
$SPLFRAME
 70
     0
  9
$SPLINETYPE
 70
     6
  9
$SPLINESEGS
 70
     8
  9
$HANDSEED
  5
8B9
  9
$SURFTAB1
 70
     6
  9
$SURFTAB2
 70
     6
  9
$SURFTYPE
 70
     6
  9
$SURFU
 70
     6
  9
$SURFV
 70
     6
  9
$UCSBASE
  2

  9
$UCSNAME
  2

  9
$UCSORG
 10
0.0
 20
0.0
 30
0.0
  9
$UCSXDIR
 10
1.0
 20
0.0
 30
0.0
  9
$UCSYDIR
 10
0.0
 20
1.0
 30
0.0
  9
$UCSORTHOREF
  2

  9
$UCSORTHOVIEW
 70
     0
  9
$UCSORGTOP
 10
0.0
 20
0.0
 30
0.0
  9
$UCSORGBOTTOM
 10
0.0
 20
0.0
 30
0.0
  9
$UCSORGLEFT
 10
0.0
 20
0.0
 30
0.0
  9
$UCSORGRIGHT
 10
0.0
 20
0.0
 30
0.0
  9
$UCSORGFRONT
 10
0.0
 20
0.0
 30
0.0
  9
$UCSORGBACK
 10
0.0
 20
0.0
 30
0.0
  9
$PUCSBASE
  2

  9
$PUCSNAME
  2

  9
$PUCSORG
 10
0.0
 20
0.0
 30
0.0
  9
$PUCSXDIR
 10
1.0
 20
0.0
 30
0.0
  9
$PUCSYDIR
 10
0.0
 20
1.0
 30
0.0
  9
$PUCSORTHOREF
  2

  9
$PUCSORTHOVIEW
 70
     0
  9
$PUCSORGTOP
 10
0.0
 20
0.0
 30
0.0
  9
$PUCSORGBOTTOM
 10
0.0
 20
0.0
 30
0.0
  9
$PUCSORGLEFT
 10
0.0
 20
0.0
 30
0.0
  9
$PUCSORGRIGHT
 10
0.0
 20
0.0
 30
0.0
  9
$PUCSORGFRONT
 10
0.0
 20
0.0
 30
0.0
  9
$PUCSORGBACK
 10
0.0
 20
0.0
 30
0.0
  9
$USERI1
 70
     0
  9
$USERI2
 70
     0
  9
$USERI3
 70
     0
  9
$USERI4
 70
     0
  9
$USERI5
 70
     0
  9
$USERR1
 40
0.0
  9
$USERR2
 40
0.0
  9
$USERR3
 40
0.0
  9
$USERR4
 40
0.0
  9
$USERR5
 40
0.0
  9
$WORLDVIEW
 70
     1
  9
$SHADEDGE
 70
     3
  9
$SHADEDIF
 70
    70
  9
$TILEMODE
 70
     1
  9
$MAXACTVP
 70
    64
  9
$PINSBASE
 10
0.0
 20
0.0
 30
0.0
  9
$PLIMCHECK
 70
     0
  9
$PEXTMIN
 10
0.0
 20
0.0
 30
0.0
  9
$PEXTMAX
 10
0.0
 20
0.0
 30
0.0
  9
$PLIMMIN
 10
0.0
 20
0.0
  9
$PLIMMAX
 10
12.0
 20
9.0
  9
$UNITMODE
 70
     0
  9
$VISRETAIN
 70
     1
  9
$PLINEGEN
 70
     0
  9
$PSLTSCALE
 70
     1
  9
$TREEDEPTH
 70
  3020
  9
$CMLSTYLE
  2
Standard
  9
$CMLJUST
 70
     0
  9
$CMLSCALE
 40
20.0
  9
$PROXYGRAPHICS
 70
     1
  9
$MEASUREMENT
 70
     1
  9
$CELWEIGHT
370
    -1
  9
$ENDCAPS
280
     0
  9
$JOINSTYLE
280
     0
  9
$LWDISPLAY
290
     0
  9
$INSUNITS
 70
     4
  9
$HYPERLINKBASE
  1

  9
$STYLESHEET
  1

  9
$XEDIT
290
     1
  9
$CEPSNTYPE
380
     0
  9
$PSTYLEMODE
290
     1
  9
$FINGERPRINTGUID
  2
{13992ACA-07F7-405C-8C80-45551B652832}
  9
$VERSIONGUID
  2
{1BEA0E3F-F800-4AD0-AA54-6778E2827033}
  9
$EXTNAMES
290
     1
  9
$PSVPSCALE
 40
0.0
  9
$OLESTARTUP
290
     0
  0
ENDSEC
  0
SECTION
  2
CLASSES
  0
CLASS
  1
ACDBDICTIONARYWDFLT
  2
AcDbDictionaryWithDefault
  3
ObjectDBX Classes
 90
        0
280
     0
281
     0
  0
CLASS
  1
ACDBPLACEHOLDER
  2
AcDbPlaceHolder
  3
ObjectDBX Classes
 90
        0
280
     0
281
     0
  0
CLASS
  1
LAYOUT
  2
AcDbLayout
  3
ObjectDBX Classes
 90
        0
280
     0
281
     0
  0
CLASS
  1
DICTIONARYVAR
  2
AcDbDictionaryVar
  3
ObjectDBX Classes
 90
        0
280
     0
281
     0
  0
CLASS
  1
TABLESTYLE
  2
AcDbTableStyle
  3
ObjectDBX Classes
 90
     4095
280
     0
281
     0
  0
CLASS
  1
MATERIAL
  2
AcDbMaterial
  3
ObjectDBX Classes
 90
     1153
280
     0
281
     0
  0
CLASS
  1
VISUALSTYLE
  2
AcDbVisualStyle
  3
ObjectDBX Classes
 90
     4095
280
     0
281
     0
  0
CLASS
  1
SCALE
  2
AcDbScale
  3
ObjectDBX Classes
 90
     1153
280
     0
281
     0
  0
CLASS
  1
MLEADERSTYLE
  2
AcDbMLeaderStyle
  3
ACDB_MLEADERSTYLE_CLASS
 90
     4095
280
     0
281
     0
  0
CLASS
  1
CELLSTYLEMAP
  2
AcDbCellStyleMap
  3
ObjectDBX Classes
 90
     1152
280
     0
281
     0
  0
ENDSEC
  0
SECTION
  2
TABLES
  0
TABLE
  2
VPORT
  5
8
330
0
100
AcDbSymbolTable
 70
     1
  0
VPORT
  5
EA
330
8
100
AcDbSymbolTableRecord
100
AcDbViewportTableRecord
  2
*Active
 70
     0
 10
0.0
 20
0.0
 11
1.0
 21
1.0
 12
2775.583855138389
 22
1499.466600802861
 13
0.0
 23
0.0
 14
10.0
 24
10.0
 15
10.0
 25
10.0
 16
0.0
 26
0.0
 36
1.0
 17
0.0
 27
0.0
 37
0.0
 40
1112.298341279884
 41
1.903110047846889
 42
50.0
 43
0.0
 44
0.0
 50
0.0
 51
0.0
 71
     0
 72
  1000
 73
     1
 74
     3
 75
     0
 76
     0
 77
     0
 78
     0
281
     0
 65
     1
110
0.0
120
0.0
130
0.0
111
1.0
121
0.0
131
0.0
112
0.0
122
1.0
132
0.0
 79
     0
146
0.0
  0
ENDTAB
  0
TABLE
  2
LTYPE
  5
5
330
0
100
AcDbSymbolTable
 70
     1
  0
LTYPE
  5
14
330
5
100
AcDbSymbolTableRecord
100
AcDbLinetypeTableRecord
  2
ByBlock
 70
     0
  3

 72
    65
 73
     0
 40
0.0
  0
LTYPE
  5
15
330
5
100
AcDbSymbolTableRecord
100
AcDbLinetypeTableRecord
  2
ByLayer
 70
     0
  3

 72
    65
 73
     0
 40
0.0
  0
LTYPE
  5
16
330
5
100
AcDbSymbolTableRecord
100
AcDbLinetypeTableRecord
  2
Continuous
 70
     0
  3
Solid line
 72
    65
 73
     0
 40
0.0
  0
ENDTAB
  0
TABLE
  2
LAYER
  5
2
330
0
100
AcDbSymbolTable
 70
     1
  0
LAYER
  5
10
102
{ACAD_XDICTIONARY
360
13C
102
}
330
2
100
AcDbSymbolTableRecord
100
AcDbLayerTableRecord
  2
0
 70
     0
 62
     7
  6
Continuous
370
    -3
390
F
  0
ENDTAB
  0
TABLE
  2
STYLE
  5
3
330
0
100
AcDbSymbolTable
 70
     2
  0
STYLE
  5
11
330
3
100
AcDbSymbolTableRecord
100
AcDbTextStyleTableRecord
  2
Standard
 70
     0
 40
0.0
 41
1.0
 50
0.0
 71
     0
 42
2.5
  3
txt
  4

  0
STYLE
  5
132
330
3
100
AcDbSymbolTableRecord
100
AcDbTextStyleTableRecord
  2
Annotative
 70
     0
 40
0.0
 41
1.0
 50
0.0
 71
     0
 42
2.5
  3
txt.shx
  4

1001
AcadAnnotative
1000
AnnotativeData
1002
{
1070
     1
1070
     1
1002
}
  0
ENDTAB
  0
TABLE
  2
VIEW
  5
6
330
0
100
AcDbSymbolTable
 70
     0
  0
ENDTAB
  0
TABLE
  2
UCS
  5
7
330
0
100
AcDbSymbolTable
 70
     0
  0
ENDTAB
  0
TABLE
  2
APPID
  5
9
330
0
100
AcDbSymbolTable
 70
     7
  0
APPID
  5
12
330
9
100
AcDbSymbolTableRecord
100
AcDbRegAppTableRecord
  2
ACAD
 70
     0
  0
APPID
  5
9E
330
9
100
AcDbSymbolTableRecord
100
AcDbRegAppTableRecord
  2
ACAD_PSEXT
 70
     0
  0
APPID
  5
133
330
9
100
AcDbSymbolTableRecord
100
AcDbRegAppTableRecord
  2
AcadAnnoPO
 70
     0
  0
APPID
  5
134
330
9
100
AcDbSymbolTableRecord
100
AcDbRegAppTableRecord
  2
AcadAnnotative
 70
     0
  0
APPID
  5
135
330
9
100
AcDbSymbolTableRecord
100
AcDbRegAppTableRecord
  2
ACAD_DSTYLE_DIMJAG
 70
     0
  0
APPID
  5
136
330
9
100
AcDbSymbolTableRecord
100
AcDbRegAppTableRecord
  2
ACAD_DSTYLE_DIMTALN
 70
     0
  0
APPID
  5
165
330
9
100
AcDbSymbolTableRecord
100
AcDbRegAppTableRecord
  2
ACAD_MLEADERVER
 70
     0
  0
ENDTAB
  0
TABLE
  2
DIMSTYLE
  5
A
330
0
100
AcDbSymbolTable
 70
     2
100
AcDbDimStyleTable
 71
     2
340
27
340
137
  0
DIMSTYLE
105
27
330
A
100
AcDbSymbolTableRecord
100
AcDbDimStyleTableRecord
  2
ISO-25
 70
     0
 41
2.5
 42
0.625
 43
3.75
 44
1.25
 73
     0
 74
     0
 77
     1
 78
     8
140
2.5
141
2.5
143
0.03937007874016
147
0.625
171
     3
172
     1
271
     2
272
     2
274
     3
278
    44
283
     0
284
     8
340
11
  0
DIMSTYLE
105
137
330
A
100
AcDbSymbolTableRecord
100
AcDbDimStyleTableRecord
  2
Annotative
 70
     0
 40
0.0
 41
2.5
 42
0.625
 43
3.75
 44
1.25
 73
     0
 74
     0
 77
     1
 78
     8
140
2.5
141
2.5
143
0.03937007874016
147
0.625
171
     3
172
     1
271
     2
272
     2
274
     3
278
    44
283
     0
284
     8
340
11
1001
AcadAnnotative
1000
AnnotativeData
1002
{
1070
     1
1070
     1
1002
}
1001
ACAD_DSTYLE_DIMJAG
1070
   388
1040
1.5
1001
ACAD_DSTYLE_DIMTALN
1070
   392
1070
     0
  0
ENDTAB
  0
TABLE
  2
BLOCK_RECORD
  5
1
330
0
100
AcDbSymbolTable
 70
     5
  0
BLOCK_RECORD
  5
1F
330
1
100
AcDbSymbolTableRecord
100
AcDbBlockTableRecord
  2
*Model_Space
340
22
  0
BLOCK_RECORD
  5
D2
330
1
100
AcDbSymbolTableRecord
100
AcDbBlockTableRecord
  2
*Paper_Space
340
D3
  0
BLOCK_RECORD
  5
D6
330
1
100
AcDbSymbolTableRecord
100
AcDbBlockTableRecord
  2
*Paper_Space0
340
D7
  0
BLOCK_RECORD
  5
645
330
1
100
AcDbSymbolTableRecord
100
AcDbBlockTableRecord
  2
1
340
0
310
2800000020000000200000000100080000000000000400000000000000000000000000000000000000000000000080000080000000808000800000008000800080800000C0C0C000C0DCC000F0CAA6000020400000206000002080000020A0000020C0000020E00000400000004020000040400000406000004080000040A0
310
000040C0000040E00000600000006020000060400000606000006080000060A0000060C0000060E00000800000008020000080400000806000008080000080A0000080C0000080E00000A0000000A0200000A0400000A0600000A0800000A0A00000A0C00000A0E00000C0000000C0200000C0400000C0600000C0800000C0
310
A00000C0C00000C0E00000E0000000E0200000E0400000E0600000E0800000E0A00000E0C00000E0E00040000000400020004000400040006000400080004000A0004000C0004000E00040200000402020004020400040206000402080004020A0004020C0004020E000404000004040200040404000404060004040800040
310
40A0004040C0004040E00040600000406020004060400040606000406080004060A0004060C0004060E00040800000408020004080400040806000408080004080A0004080C0004080E00040A0000040A0200040A0400040A0600040A0800040A0A00040A0C00040A0E00040C0000040C0200040C0400040C0600040C08000
310
40C0A00040C0C00040C0E00040E0000040E0200040E0400040E0600040E0800040E0A00040E0C00040E0E00080000000800020008000400080006000800080008000A0008000C0008000E00080200000802020008020400080206000802080008020A0008020C0008020E00080400000804020008040400080406000804080
310
008040A0008040C0008040E00080600000806020008060400080606000806080008060A0008060C0008060E00080800000808020008080400080806000808080008080A0008080C0008080E00080A0000080A0200080A0400080A0600080A0800080A0A00080A0C00080A0E00080C0000080C0200080C0400080C0600080C0
310
800080C0A00080C0C00080C0E00080E0000080E0200080E0400080E0600080E0800080E0A00080E0C00080E0E000C0000000C0002000C0004000C0006000C0008000C000A000C000C000C000E000C0200000C0202000C0204000C0206000C0208000C020A000C020C000C020E000C0400000C0402000C0404000C0406000C0
310
408000C040A000C040C000C040E000C0600000C0602000C0604000C0606000C0608000C060A000C060C000C060E000C0800000C0802000C0804000C0806000C0808000C080A000C080C000C080E000C0A00000C0A02000C0A04000C0A06000C0A08000C0A0A000C0A0C000C0A0E000C0C00000C0C02000C0C04000C0C06000
310
C0C08000C0C0A000F0FBFF00A4A0A000808080000000FF0000FF000000FFFF00FF000000FF00FF00FFFF0000FFFFFF0000000000000000000000000000000000000000000000000000000000000000000000000000000000000000000000000000000000000000000000000000000000000000000000000000000000000000
310
00000000000000000000000000000000000000000000000000000000000000000000000000000000000000000000000000000000000000000000000000000000000000000000000000000000000000000000000000000000000000000000000000000000000000000000000000000000000000000000000000000000000000
310
0000000000000000000000000000000000000000000000000000000000000000000000000000000000000000000000000000000000000000000000000000000000000000000000000000000000000000000000000000000000FFFFFFFFFFFFFFFFFFFFFFFFFFFFFFFFFFFF00000000000000000000000000FF000000000000
310
000000000000000000000000FF000000000000000000000000FFFFFFFFFFFFFFFFFFFFFFFFFFFFFFFFFFFFFFFF0000000000000000000000FFFF000000000000000000000000000000000000FFFF00000000000000000000FFFF000000000000000000000000000000000000FFFF00000000000000000000FFFF0000000000
310
00000000000000000000000000FFFF00000000000000000000FFFF000000000000000000000000000000000000FFFF00000000000000000000FFFF000000000000000000000000000000000000FFFF00000000000000000000FFFF000000000000000000000000000000000000FFFF00000000000000000000FFFF00000000
310
0000000000000000000000000000FFFF00000000000000000000FFFF000000000000000000000000000000000000FFFF0000000000000000FFFFFF0000000000000000000000000000000000000000FFFFFF00000000FFFF0000FF0000000000000000000000000000000000000000FF0000FFFF0000FFFFFFFF0000000000
310
0000000000000000000000000000000000FFFFFFFF00000000000000000000000000000000000000000000000000000000000000000000000000000000000000000000000000000000000000000000000000000000000000000000000000000000000000000000000000000000000000000000000000000000000000000000
310
00000000000000000000000000000000000000000000000000000000000000000000000000000000000000000000000000000000000000000000000000000000000000000000000000000000000000000000000000000000000000000000000000000000000000000000000000000000000000000000000000000000000000
310
0000000000000000000000000000000000000000000000000000000000000000000000000000000000000000000000000000000000000000
102
{BLKREFS
331
65E
102
}
1001
ACAD
1000
DesignCenter Data
1002
{
1070
     1
1070
     4
1002
}
  0
BLOCK_RECORD
  5
65F
330
1
100
AcDbSymbolTableRecord
100
AcDbBlockTableRecord
  2
2
340
0
310
2800000020000000200000000100080000000000000400000000000000000000000000000000000000000000000080000080000000808000800000008000800080800000C0C0C000C0DCC000F0CAA6000020400000206000002080000020A0000020C0000020E00000400000004020000040400000406000004080000040A0
310
000040C0000040E00000600000006020000060400000606000006080000060A0000060C0000060E00000800000008020000080400000806000008080000080A0000080C0000080E00000A0000000A0200000A0400000A0600000A0800000A0A00000A0C00000A0E00000C0000000C0200000C0400000C0600000C0800000C0
310
A00000C0C00000C0E00000E0000000E0200000E0400000E0600000E0800000E0A00000E0C00000E0E00040000000400020004000400040006000400080004000A0004000C0004000E00040200000402020004020400040206000402080004020A0004020C0004020E000404000004040200040404000404060004040800040
310
40A0004040C0004040E00040600000406020004060400040606000406080004060A0004060C0004060E00040800000408020004080400040806000408080004080A0004080C0004080E00040A0000040A0200040A0400040A0600040A0800040A0A00040A0C00040A0E00040C0000040C0200040C0400040C0600040C08000
310
40C0A00040C0C00040C0E00040E0000040E0200040E0400040E0600040E0800040E0A00040E0C00040E0E00080000000800020008000400080006000800080008000A0008000C0008000E00080200000802020008020400080206000802080008020A0008020C0008020E00080400000804020008040400080406000804080
310
008040A0008040C0008040E00080600000806020008060400080606000806080008060A0008060C0008060E00080800000808020008080400080806000808080008080A0008080C0008080E00080A0000080A0200080A0400080A0600080A0800080A0A00080A0C00080A0E00080C0000080C0200080C0400080C0600080C0
310
800080C0A00080C0C00080C0E00080E0000080E0200080E0400080E0600080E0800080E0A00080E0C00080E0E000C0000000C0002000C0004000C0006000C0008000C000A000C000C000C000E000C0200000C0202000C0204000C0206000C0208000C020A000C020C000C020E000C0400000C0402000C0404000C0406000C0
310
408000C040A000C040C000C040E000C0600000C0602000C0604000C0606000C0608000C060A000C060C000C060E000C0800000C0802000C0804000C0806000C0808000C080A000C080C000C080E000C0A00000C0A02000C0A04000C0A06000C0A08000C0A0A000C0A0C000C0A0E000C0C00000C0C02000C0C04000C0C06000
310
C0C08000C0C0A000F0FBFF00A4A0A000808080000000FF0000FF000000FFFF00FF000000FF00FF00FFFF0000FFFFFF0000000000000000000000000000000000000000000000000000000000000000000000000000000000000000000000000000000000000000000000000000000000000000000000000000000000000000
310
00000000000000000000000000000000000000000000000000000000000000000000000000000000000000000000000000000000000000000000000000000000000000000000000000000000000000000000000000000000000000000000000000000000000000000000000000000000000000000000000000000000000000
310
00000000000000000000000000000000000000000000000000000000000000000000000000000000000000000000000000000000000000000000000000000000000000000000000000000000000000000000000000000000000000000000000000000000000000000000000000000000000000000000000000000000000000
310
00000000000000000000000000000000000000000000000000000000000000000000000000000000000000000000000000000000000000000000000000000000000000000000000000000000000000000000000000000000000000000000000000000000000000000000000000000000000000000000000000000000000000
310
000000000000000000000000000000000000000000FFFFFFFFFFFFFFFFFFFFFFFFFFFFFFFFFFFFFFFFFFFFFFFFFFFFFFFFFFFF0000FFFFFFFFFFFFFFFFFFFFFFFFFFFFFFFFFFFFFFFFFFFFFFFFFFFFFFFFFFFF0000000000000000000000000000000000000000000000000000000000000000000000000000000000000000
310
00000000000000000000000000000000000000000000000000000000000000000000000000000000000000000000000000000000000000000000000000000000000000000000000000000000000000000000000000000000000000000000000000000000000000000000000000000000000000000000000000000000000000
310
00000000000000000000000000000000000000000000000000000000000000000000000000000000000000000000000000000000000000000000000000000000000000000000000000000000000000000000000000000000000000000000000000000000000000000000000000000000000000000000000000000000000000
310
00000000000000000000000000000000000000000000000000000000000000000000000000000000000000000000000000000000000000000000000000000000000000000000000000000000000000000000000000000000000000000000000000000000000000000000000000000000000000000000000000000000000000
310
0000000000000000000000000000000000000000000000000000000000000000000000000000000000000000000000000000000000000000
102
{BLKREFS
331
672
102
}
1001
ACAD
1000
DesignCenter Data
1002
{
1070
     1
1070
     4
1002
}
  0
BLOCK_RECORD
  5
673
330
1
100
AcDbSymbolTableRecord
100
AcDbBlockTableRecord
  2
3
340
0
310
2800000020000000200000000100080000000000000400000000000000000000000000000000000000000000000080000080000000808000800000008000800080800000C0C0C000C0DCC000F0CAA6000020400000206000002080000020A0000020C0000020E00000400000004020000040400000406000004080000040A0
310
000040C0000040E00000600000006020000060400000606000006080000060A0000060C0000060E00000800000008020000080400000806000008080000080A0000080C0000080E00000A0000000A0200000A0400000A0600000A0800000A0A00000A0C00000A0E00000C0000000C0200000C0400000C0600000C0800000C0
310
A00000C0C00000C0E00000E0000000E0200000E0400000E0600000E0800000E0A00000E0C00000E0E00040000000400020004000400040006000400080004000A0004000C0004000E00040200000402020004020400040206000402080004020A0004020C0004020E000404000004040200040404000404060004040800040
310
40A0004040C0004040E00040600000406020004060400040606000406080004060A0004060C0004060E00040800000408020004080400040806000408080004080A0004080C0004080E00040A0000040A0200040A0400040A0600040A0800040A0A00040A0C00040A0E00040C0000040C0200040C0400040C0600040C08000
310
40C0A00040C0C00040C0E00040E0000040E0200040E0400040E0600040E0800040E0A00040E0C00040E0E00080000000800020008000400080006000800080008000A0008000C0008000E00080200000802020008020400080206000802080008020A0008020C0008020E00080400000804020008040400080406000804080
310
008040A0008040C0008040E00080600000806020008060400080606000806080008060A0008060C0008060E00080800000808020008080400080806000808080008080A0008080C0008080E00080A0000080A0200080A0400080A0600080A0800080A0A00080A0C00080A0E00080C0000080C0200080C0400080C0600080C0
310
800080C0A00080C0C00080C0E00080E0000080E0200080E0400080E0600080E0800080E0A00080E0C00080E0E000C0000000C0002000C0004000C0006000C0008000C000A000C000C000C000E000C0200000C0202000C0204000C0206000C0208000C020A000C020C000C020E000C0400000C0402000C0404000C0406000C0
310
408000C040A000C040C000C040E000C0600000C0602000C0604000C0606000C0608000C060A000C060C000C060E000C0800000C0802000C0804000C0806000C0808000C080A000C080C000C080E000C0A00000C0A02000C0A04000C0A06000C0A08000C0A0A000C0A0C000C0A0E000C0C00000C0C02000C0C04000C0C06000
310
C0C08000C0C0A000F0FBFF00A4A0A000808080000000FF0000FF000000FFFF00FF000000FF00FF00FFFF0000FFFFFF000000000000000000000000000000000000000000000000000000000000000000000000000000000000000000000000FFFF000000000000000000000000000000000000000000000000000000000000
310
FFFF000000000000000000000000000000000000000000000000000000000000FFFF000000000000000000000000000000000000000000000000000000000000FFFF000000000000000000000000000000000000000000000000000000000000FFFF0000000000000000000000000000000000000000000000000000000000
310
00FFFF000000000000000000000000000000000000000000000000000000000000FFFF000000000000000000000000000000000000000000000000000000000000FFFF000000000000000000000000000000000000000000000000000000000000FFFF00000000000000000000000000000000000000000000000000000000
310
0000FFFF000000000000000000000000000000000000000000000000000000000000FFFF000000000000000000000000000000000000000000000000000000000000FFFF000000000000000000000000000000000000000000000000000000000000FFFF000000000000000000000000000000000000000000000000000000
310
000000FFFF000000000000000000000000000000000000000000000000000000000000FFFF000000000000000000000000000000000000000000000000000000000000FFFF000000000000000000000000000000000000000000000000000000000000FFFF0000000000000000000000000000000000000000000000000000
310
00000000FFFF000000000000000000000000000000000000000000000000000000000000FFFF000000000000000000000000000000000000000000000000000000000000FFFF000000000000000000000000000000000000000000000000000000000000FFFF00000000000000000000000000000000000000000000000000
310
0000000000FFFF000000000000000000000000000000000000000000000000000000000000FFFF000000000000000000000000000000000000000000000000000000000000FFFF000000000000000000000000000000000000000000000000000000000000FFFF000000000000000000000000000000000000000000000000
310
000000000000FFFF000000000000000000000000000000000000000000000000000000000000FFFF000000000000000000000000000000000000000000000000000000000000FFFF000000000000000000000000000000000000000000000000000000000000FFFF0000000000000000000000000000000000000000000000
310
00000000000000FFFF0000000000000000000000000000000000000000000000000000000000000000000000000000000000000000000000
102
{BLKREFS
331
72C
102
}
1001
ACAD
1000
DesignCenter Data
1002
{
1070
     1
1070
     4
1002
}
  0
BLOCK_RECORD
  5
72D
330
1
100
AcDbSymbolTableRecord
100
AcDbBlockTableRecord
  2
4
340
0
310
2800000020000000200000000100080000000000000400000000000000000000000000000000000000000000000080000080000000808000800000008000800080800000C0C0C000C0DCC000F0CAA6000020400000206000002080000020A0000020C0000020E00000400000004020000040400000406000004080000040A0
310
000040C0000040E00000600000006020000060400000606000006080000060A0000060C0000060E00000800000008020000080400000806000008080000080A0000080C0000080E00000A0000000A0200000A0400000A0600000A0800000A0A00000A0C00000A0E00000C0000000C0200000C0400000C0600000C0800000C0
310
A00000C0C00000C0E00000E0000000E0200000E0400000E0600000E0800000E0A00000E0C00000E0E00040000000400020004000400040006000400080004000A0004000C0004000E00040200000402020004020400040206000402080004020A0004020C0004020E000404000004040200040404000404060004040800040
310
40A0004040C0004040E00040600000406020004060400040606000406080004060A0004060C0004060E00040800000408020004080400040806000408080004080A0004080C0004080E00040A0000040A0200040A0400040A0600040A0800040A0A00040A0C00040A0E00040C0000040C0200040C0400040C0600040C08000
310
40C0A00040C0C00040C0E00040E0000040E0200040E0400040E0600040E0800040E0A00040E0C00040E0E00080000000800020008000400080006000800080008000A0008000C0008000E00080200000802020008020400080206000802080008020A0008020C0008020E00080400000804020008040400080406000804080
310
008040A0008040C0008040E00080600000806020008060400080606000806080008060A0008060C0008060E00080800000808020008080400080806000808080008080A0008080C0008080E00080A0000080A0200080A0400080A0600080A0800080A0A00080A0C00080A0E00080C0000080C0200080C0400080C0600080C0
310
800080C0A00080C0C00080C0E00080E0000080E0200080E0400080E0600080E0800080E0A00080E0C00080E0E000C0000000C0002000C0004000C0006000C0008000C000A000C000C000C000E000C0200000C0202000C0204000C0206000C0208000C020A000C020C000C020E000C0400000C0402000C0404000C0406000C0
310
408000C040A000C040C000C040E000C0600000C0602000C0604000C0606000C0608000C060A000C060C000C060E000C0800000C0802000C0804000C0806000C0808000C080A000C080C000C080E000C0A00000C0A02000C0A04000C0A06000C0A08000C0A0A000C0A0C000C0A0E000C0C00000C0C02000C0C04000C0C06000
310
C0C08000C0C0A000F0FBFF00A4A0A000808080000000FF0000FF000000FFFF00FF000000FF00FF00FFFF0000FFFFFF0000000000000000000000000000000000000000000000000000000000000000000000000000000000000000000000000000000000000000000000000000000000000000000000000000000000000000
310
00000000000000000000000000000000000000000000000000000000000000000000000000000000000000000000000000000000000000000000000000000000000000000000000000000000000000000000000000000000000000000000000000000000000000000000000000000000000000000000000000000000000000
310
0000000000000000000000000000000000000000FF000000000000000000000000000000000000000000000000000000000000FFFFFFFF0000000000000000000000000000000000000000000000000000000000FFFFFFFFFF0000000000000000000000000000000000000000000000000000000000FFFFFFFF0000000000
310
00000000000000000000000000000000000000000000000000FFFFFFFF000000000000000000000000000000000000000000000000000000000000FFFFFFFF0000000000000000000000000000000000000000000000000000000000FFFFFFFF000000000000000000000000000000000000000000000000000000000000FF
310
FFFFFF000000000000000000000000000000000000000000000000000000000000FFFFFFFF000000000000000000000000000000000000000000000000000000000000FFFFFFFF0000000000000000000000000000000000000000000000000000000000FFFFFFFF0000000000000000000000000000000000000000000000
310
00000000000000FFFFFFFF000000000000000000000000000000000000000000000000000000000000FFFFFFFF000000000000000000000000000000000000000000000000000000000000FFFFFFFF0000000000000000000000000000000000000000000000000000000000FFFFFFFFFF0000000000000000000000000000
310
000000000000000000000000000000FFFFFFFFFF0000000000000000000000000000000000000000000000000000000000FFFFFFFF000000000000000000000000000000000000000000000000000000000000FF00000000000000000000000000000000000000000000000000000000000000000000000000000000000000
310
00000000000000000000000000000000000000000000000000000000000000000000000000000000000000000000000000000000000000000000000000000000000000000000000000000000000000000000000000000000000000000000000000000000000000000000000000000000000000000000000000000000000000
310
0000000000000000000000000000000000000000000000000000000000000000000000000000000000000000000000000000000000000000
102
{BLKREFS
331
89E
102
}
1001
ACAD
1000
DesignCenter Data
1002
{
1070
     1
1070
     4
1002
}
  0
ENDTAB
  0
ENDSEC
  0
SECTION
  2
BLOCKS
  0
BLOCK
  5
20
330
1F
100
AcDbEntity
  8
0
100
AcDbBlockBegin
  2
*Model_Space
 70
     0
 10
0.0
 20
0.0
 30
0.0
  3
*Model_Space
  1

  0
ENDBLK
  5
21
330
1F
100
AcDbEntity
  8
0
100
AcDbBlockEnd
  0
BLOCK
  5
D4
330
D2
100
AcDbEntity
 67
     1
  8
0
100
AcDbBlockBegin
  2
*Paper_Space
 70
     0
 10
0.0
 20
0.0
 30
0.0
  3
*Paper_Space
  1

  0
ENDBLK
  5
D5
330
D2
100
AcDbEntity
 67
     1
  8
0
100
AcDbBlockEnd
  0
BLOCK
  5
D8
330
D6
100
AcDbEntity
 67
     1
  8
0
100
AcDbBlockBegin
  2
*Paper_Space0
 70
     0
 10
0.0
 20
0.0
 30
0.0
  3
*Paper_Space0
  1

  0
ENDBLK
  5
D9
330
D6
100
AcDbEntity
 67
     1
  8
0
100
AcDbBlockEnd
  0
BLOCK
  5
646
330
645
100
AcDbEntity
  8
0
100
AcDbBlockBegin
  2
1
 70
     0
 10
0.0
 20
0.0
 30
0.0
  3
1
  1

  0
LINE
  5
648
330
645
100
AcDbEntity
  8
0
  6
Continuous
 62
     7
370
    15
100
AcDbLine
 10
2860.99498964337
 20
1979.201616191623
 30
0.0
 11
2860.99498964337
 21
1969.601616191623
 31
0.0
  0
ARC
  5
649
330
645
100
AcDbEntity
  8
0
  6
Continuous
 62
     7
370
    15
100
AcDbCircle
 10
2859.79498964337
 20
1979.201616191623
 30
0.0
 40
1.200000000000017
100
AcDbArc
 50
0.0000000000065138
 51
90.0
  0
LINE
  5
64A
330
645
100
AcDbEntity
  8
0
  6
Continuous
 62
     7
370
    15
100
AcDbLine
 10
2856.99498964337
 20
1980.901616191623
 30
0.0
 11
2858.861015047155
 21
1980.401616191623
 31
0.0
  0
LINE
  5
64B
330
645
100
AcDbEntity
  8
0
  6
Continuous
 62
     7
370
    15
100
AcDbLine
 10
2859.79498964337
 20
1981.901616191623
 30
0.0
 11
2856.99498964337
 21
1981.901616191623
 31
0.0
  0
ARC
  5
64C
330
645
100
AcDbEntity
  8
0
  6
Continuous
 62
     7
370
    15
100
AcDbCircle
 10
2859.79498964337
 20
1979.201616191623
 30
0.0
 40
2.699999999999988
100
AcDbArc
 50
0.0
 51
90.0
  0
LINE
  5
64D
330
645
100
AcDbEntity
  8
0
  6
Continuous
 62
     7
370
    15
100
AcDbLine
 10
2862.49498964337
 20
1969.601616191623
 30
0.0
 11
2862.49498964337
 21
1979.201616191623
 31
0.0
  0
ARC
  5
64E
330
645
100
AcDbEntity
  8
0
  6
Continuous
 62
     7
370
    15
100
AcDbCircle
 10
2863.69498964337
 20
1969.601616191623
 30
0.0
 40
1.199999999999988
100
AcDbArc
 50
180.0
 51
270.0
  0
LINE
  5
64F
330
645
100
AcDbEntity
  8
0
  6
Continuous
 62
     7
370
    15
100
AcDbLine
 10
2863.69498964337
 20
1968.401616191623
 30
0.0
 11
2885.29498964337
 21
1968.401616191623
 31
0.0
  0
ARC
  5
650
330
645
100
AcDbEntity
  8
0
  6
Continuous
 62
     7
370
    15
100
AcDbCircle
 10
2885.29498964337
 20
1969.601616191623
 30
0.0
 40
1.200000000000073
100
AcDbArc
 50
270.0
 51
0.0
  0
LINE
  5
651
330
645
100
AcDbEntity
  8
0
  6
Continuous
 62
     7
370
    15
100
AcDbLine
 10
2886.49498964337
 20
1979.201616191623
 30
0.0
 11
2886.49498964337
 21
1969.601616191623
 31
0.0
  0
ARC
  5
652
330
645
100
AcDbEntity
  8
0
  6
Continuous
 62
     7
370
    15
100
AcDbCircle
 10
2889.19498964337
 20
1979.201616191623
 30
0.0
 40
2.700000000000017
100
AcDbArc
 50
90.0
 51
180.0
  0
ARC
  5
653
330
645
100
AcDbEntity
  8
0
  6
Continuous
 62
     7
370
    15
100
AcDbCircle
 10
2889.19498964337
 20
1979.201616191623
 30
0.0
 40
1.199999999999988
100
AcDbArc
 50
90.0
 51
180.0
  0
LINE
  5
654
330
645
100
AcDbEntity
  8
0
  6
Continuous
 62
     7
370
    15
100
AcDbLine
 10
2887.99498964337
 20
1969.601616191623
 30
0.0
 11
2887.99498964337
 21
1979.201616191623
 31
0.0
  0
ARC
  5
655
330
645
100
AcDbEntity
  8
0
  6
Continuous
 62
     7
370
    15
100
AcDbCircle
 10
2885.29498964337
 20
1969.601616191623
 30
0.0
 40
2.700000000000017
100
AcDbArc
 50
270.0
 51
0.0
  0
LINE
  5
656
330
645
100
AcDbEntity
  8
0
  6
Continuous
 62
     7
370
    15
100
AcDbLine
 10
2863.69498964337
 20
1966.901616191623
 30
0.0
 11
2885.29498964337
 21
1966.901616191623
 31
0.0
  0
ARC
  5
657
330
645
100
AcDbEntity
  8
0
  6
Continuous
 62
     7
370
    15
100
AcDbCircle
 10
2863.69498964337
 20
1969.601616191623
 30
0.0
 40
2.69999999999996
100
AcDbArc
 50
180.0
 51
270.0
  0
LINE
  5
658
330
645
100
AcDbEntity
  8
0
  6
Continuous
 62
     7
370
    15
100
AcDbLine
 10
2891.99498964337
 20
1981.901616191623
 30
0.0
 11
2889.19498964337
 21
1981.901616191623
 31
0.0
  0
LINE
  5
659
330
645
100
AcDbEntity
  8
0
  6
Continuous
 62
     7
370
    15
100
AcDbLine
 10
2890.128964239585
 20
1980.401616191623
 30
0.0
 11
2891.99498964337
 21
1980.901616191623
 31
0.0
  0
LINE
  5
65A
330
645
100
AcDbEntity
  8
0
  6
Continuous
 62
     7
370
    15
100
AcDbLine
 10
2858.861015047155
 20
1980.401616191623
 30
0.0
 11
2859.79498964337
 21
1980.401616191623
 31
0.0
  0
LINE
  5
65B
330
645
100
AcDbEntity
  8
0
  6
Continuous
 62
     7
370
    15
100
AcDbLine
 10
2856.99498964337
 20
1981.901616191623
 30
0.0
 11
2856.99498964337
 21
1980.901616191623
 31
0.0
  0
LINE
  5
65C
330
645
100
AcDbEntity
  8
0
  6
Continuous
 62
     7
370
    15
100
AcDbLine
 10
2891.99498964337
 20
1981.901616191623
 30
0.0
 11
2891.99498964337
 21
1980.901616191623
 31
0.0
  0
LINE
  5
65D
330
645
100
AcDbEntity
  8
0
  6
Continuous
 62
     7
370
    15
100
AcDbLine
 10
2890.128964239585
 20
1980.401616191623
 30
0.0
 11
2889.19498964337
 21
1980.401616191623
 31
0.0
  0
ENDBLK
  5
647
330
645
100
AcDbEntity
  8
0
100
AcDbBlockEnd
  0
BLOCK
  5
660
330
65F
100
AcDbEntity
  8
0
100
AcDbBlockBegin
  2
2
 70
     0
 10
0.0
 20
0.0
 30
0.0
  3
2
  1

  0
LINE
  5
662
330
65F
100
AcDbEntity
  8
0
  6
Continuous
 62
     7
370
    15
100
AcDbLine
 10
2838.955902050395
 20
1981.901616191623
 30
0.0
 11
1838.955902050395
 21
1981.901616191623
 31
0.0
  0
LINE
  5
663
330
65F
100
AcDbEntity
  8
0
  6
Continuous
 62
     7
370
    15
100
AcDbLine
 10
2838.955902050395
 20
1980.901616191623
 30
0.0
 11
1838.955902050395
 21
1980.901616191623
 31
0.0
  0
LINE
  5
664
330
65F
100
AcDbEntity
  8
0
  6
Continuous
 62
     7
370
    15
100
AcDbLine
 10
1838.955902050395
 20
1981.901616191623
 30
0.0
 11
1838.955902050395
 21
1980.901616191623
 31
0.0
  0
LINE
  5
665
330
65F
100
AcDbEntity
  8
0
  6
Continuous
 62
     7
370
    15
100
AcDbLine
 10
2838.955902050395
 20
1980.901616191623
 30
0.0
 11
2838.955902050395
 21
1981.901616191623
 31
0.0
  0
LINE
  5
666
330
65F
100
AcDbEntity
  8
0
  6
Continuous
 62
     7
370
    15
100
AcDbLine
 10
1838.955902050395
 20
1980.401616191623
 30
0.0
 11
2838.955902050395
 21
1980.401616191623
 31
0.0
  0
LINE
  5
667
330
65F
100
AcDbEntity
  8
0
  6
Continuous
 62
     7
370
    15
100
AcDbLine
 10
1838.955902050395
 20
1980.401616191623
 30
0.0
 11
1838.955902050395
 21
1980.901616191623
 31
0.0
  0
LINE
  5
668
330
65F
100
AcDbEntity
  8
0
  6
Continuous
 62
     7
370
    15
100
AcDbLine
 10
2838.955902050395
 20
1980.401616191623
 30
0.0
 11
2838.955902050395
 21
1980.901616191623
 31
0.0
  0
LINE
  5
669
330
65F
100
AcDbEntity
  8
0
  6
Continuous
 62
     7
370
    15
100
AcDbLine
 10
2838.955902050395
 20
1979.201616191623
 30
0.0
 11
1838.955902050395
 21
1979.201616191623
 31
0.0
  0
LINE
  5
66A
330
65F
100
AcDbEntity
  8
0
  6
Continuous
 62
     7
370
    15
100
AcDbLine
 10
1838.955902050395
 20
1979.201616191623
 30
0.0
 11
1838.955902050395
 21
1980.401616191623
 31
0.0
  0
LINE
  5
66B
330
65F
100
AcDbEntity
  8
0
  6
Continuous
 62
     7
370
    15
100
AcDbLine
 10
2838.955902050395
 20
1979.201616191623
 30
0.0
 11
2838.955902050395
 21
1980.401616191623
 31
0.0
  0
LINE
  5
66C
330
65F
100
AcDbEntity
  8
0
  6
Continuous
 62
     7
370
    15
100
AcDbLine
 10
1838.955902050395
 20
1969.601616191623
 30
0.0
 11
2838.955902050395
 21
1969.601616191623
 31
0.0
  0
LINE
  5
66D
330
65F
100
AcDbEntity
  8
0
  6
Continuous
 62
     7
370
    15
100
AcDbLine
 10
1838.955902050395
 20
1966.901616191623
 30
0.0
 11
2838.955902050395
 21
1966.901616191623
 31
0.0
  0
LINE
  5
66E
330
65F
100
AcDbEntity
  8
0
  6
Continuous
 62
     7
370
    15
100
AcDbLine
 10
1838.955902050395
 20
1966.901616191623
 30
0.0
 11
1838.955902050395
 21
1969.601616191623
 31
0.0
  0
LINE
  5
66F
330
65F
100
AcDbEntity
  8
0
  6
Continuous
 62
     7
370
    15
100
AcDbLine
 10
2838.955902050395
 20
1966.901616191623
 30
0.0
 11
2838.955902050395
 21
1969.601616191623
 31
0.0
  0
LINE
  5
670
330
65F
100
AcDbEntity
  8
0
  6
Continuous
 62
     7
370
    15
100
AcDbLine
 10
1838.955902050395
 20
1969.601616191623
 30
0.0
 11
1838.955902050395
 21
1979.201616191623
 31
0.0
  0
LINE
  5
671
330
65F
100
AcDbEntity
  8
0
  6
Continuous
 62
     7
370
    15
100
AcDbLine
 10
2838.955902050395
 20
1969.601616191623
 30
0.0
 11
2838.955902050395
 21
1979.201616191623
 31
0.0
  0
ENDBLK
  5
661
330
65F
100
AcDbEntity
  8
0
100
AcDbBlockEnd
  0
BLOCK
  5
674
330
673
100
AcDbEntity
  8
0
100
AcDbBlockBegin
  2
3
 70
     0
 10
0.0
 20
0.0
 30
0.0
  3
3
  1

  0
LINE
  5
676
330
673
100
AcDbEntity
  8
0
  6
Continuous
 62
     7
370
    15
100
AcDbLine
 10
2891.99498964337
 20
1947.20682255377
 30
0.0
 11
2889.19498964337
 21
1947.20682255377
 31
0.0
  0
LINE
  5
677
330
673
100
AcDbEntity
  8
0
  6
Continuous
 62
     7
370
    15
100
AcDbLine
 10
2891.99498964337
 20
1947.20682255377
 30
0.0
 11
2891.99498964337
 21
947.2068225537704
 31
0.0
  0
LINE
  5
678
330
673
100
AcDbEntity
  8
0
  6
Continuous
 62
     7
370
    15
100
AcDbLine
 10
2891.99498964337
 20
947.2068225537704
 30
0.0
 11
2889.19498964337
 21
947.2068225537704
 31
0.0
  0
LINE
  5
679
330
673
100
AcDbEntity
  8
0
  6
Continuous
 62
     7
370
    15
100
AcDbLine
 10
2889.19498964337
 20
947.2068225537704
 30
0.0
 11
2889.19498964337
 21
1947.20682255377
 31
0.0
  0
LINE
  5
67A
330
673
100
AcDbEntity
  8
0
  6
Continuous
 62
     7
370
    15
100
AcDbLine
 10
2856.99498964337
 20
1947.20682255377
 30
0.0
 11
2856.99498964337
 21
947.2068225537704
 31
0.0
  0
LINE
  5
67B
330
673
100
AcDbEntity
  8
0
  6
Continuous
 62
     7
370
    15
100
AcDbLine
 10
2859.79498964337
 20
947.2068225537704
 30
0.0
 11
2859.79498964337
 21
1947.20682255377
 31
0.0
  0
LINE
  5
67C
330
673
100
AcDbEntity
  8
0
  6
Continuous
 62
     7
370
    15
100
AcDbLine
 10
2859.79498964337
 20
947.2068225537704
 30
0.0
 11
2856.99498964337
 21
947.2068225537704
 31
0.0
  0
LINE
  5
67D
330
673
100
AcDbEntity
  8
0
  6
Continuous
 62
     7
370
    15
100
AcDbLine
 10
2859.79498964337
 20
1947.20682255377
 30
0.0
 11
2856.99498964337
 21
1947.20682255377
 31
0.0
  0
LINE
  5
67E
330
673
100
AcDbEntity
  8
0
  6
Continuous
 62
     7
370
    15
100
AcDbLine
 10
2886.49498964337
 20
1947.20682255377
 30
0.0
 11
2886.49498964337
 21
947.2068225537704
 31
0.0
  0
LINE
  5
67F
330
673
100
AcDbEntity
  8
0
  6
Continuous
 62
     7
370
    15
100
AcDbLine
 10
2889.19498964337
 20
947.2068225537704
 30
0.0
 11
2886.49498964337
 21
947.2068225537704
 31
0.0
  0
LINE
  5
680
330
673
100
AcDbEntity
  8
0
  6
Continuous
 62
     7
370
    15
100
AcDbLine
 10
2889.19498964337
 20
1947.20682255377
 30
0.0
 11
2886.49498964337
 21
1947.20682255377
 31
0.0
  0
LINE
  5
681
330
673
100
AcDbEntity
  8
0
  6
Continuous
 62
     7
370
    15
100
AcDbLine
 10
2862.49498964337
 20
947.2068225537704
 30
0.0
 11
2862.49498964337
 21
1947.20682255377
 31
0.0
  0
LINE
  5
682
330
673
100
AcDbEntity
  8
0
  6
Continuous
 62
     7
370
    15
100
AcDbLine
 10
2862.49498964337
 20
947.2068225537704
 30
0.0
 11
2859.79498964337
 21
947.2068225537704
 31
0.0
  0
LINE
  5
683
330
673
100
AcDbEntity
  8
0
  6
Continuous
 62
     7
370
    15
100
AcDbLine
 10
2862.49498964337
 20
1947.20682255377
 30
0.0
 11
2859.79498964337
 21
1947.20682255377
 31
0.0
  0
LINE
  5
684
330
673
100
AcDbEntity
  8
0
  6
Continuous
 62
     7
370
    15
100
AcDbLine
 10
2885.29498964337
 20
947.2068225537704
 30
0.0
 11
2885.29498964337
 21
1947.20682255377
 31
0.0
  0
LINE
  5
685
330
673
100
AcDbEntity
  8
0
  6
Continuous
 62
     7
370
    15
100
AcDbLine
 10
2886.49498964337
 20
947.2068225537704
 30
0.0
 11
2885.29498964337
 21
947.2068225537704
 31
0.0
  0
LINE
  5
686
330
673
100
AcDbEntity
  8
0
  6
Continuous
 62
     7
370
    15
100
AcDbLine
 10
2886.49498964337
 20
1947.20682255377
 30
0.0
 11
2885.29498964337
 21
1947.20682255377
 31
0.0
  0
LINE
  5
687
330
673
100
AcDbEntity
  8
0
  6
Continuous
 62
     7
370
    15
100
AcDbLine
 10
2863.69498964337
 20
1947.20682255377
 30
0.0
 11
2863.69498964337
 21
947.2068225537704
 31
0.0
  0
LINE
  5
688
330
673
100
AcDbEntity
  8
0
  6
Continuous
 62
     7
370
    15
100
AcDbLine
 10
2863.69498964337
 20
947.2068225537704
 30
0.0
 11
2862.49498964337
 21
947.2068225537704
 31
0.0
  0
LINE
  5
689
330
673
100
AcDbEntity
  8
0
  6
Continuous
 62
     7
370
    15
100
AcDbLine
 10
2862.49498964337
 20
1947.20682255377
 30
0.0
 11
2863.69498964337
 21
1947.20682255377
 31
0.0
  0
LINE
  5
68A
330
673
100
AcDbEntity
  8
0
  6
Continuous
 62
     7
370
    15
100
AcDbLine
 10
2877.64498964337
 20
1937.20682255377
 30
0.0
 11
2877.64498964337
 21
1925.50682255377
 31
0.0
  0
ARC
  5
68B
330
673
100
AcDbEntity
  8
0
  6
Continuous
 62
     7
370
    15
100
AcDbCircle
 10
2874.49498964337
 20
1937.20682255377
 30
0.0
 40
3.150000000000005
100
AcDbArc
 50
0.0
 51
180.0
  0
LINE
  5
68C
330
673
100
AcDbEntity
  8
0
  6
Continuous
 62
     7
370
    15
100
AcDbLine
 10
2871.34498964337
 20
1925.50682255377
 30
0.0
 11
2871.34498964337
 21
1937.20682255377
 31
0.0
  0
ARC
  5
68D
330
673
100
AcDbEntity
  8
0
  6
Continuous
 62
     7
370
    15
100
AcDbCircle
 10
2874.49498964337
 20
1925.50682255377
 30
0.0
 40
3.150000000000005
100
AcDbArc
 50
180.0
 51
0.0
  0
LINE
  5
68E
330
673
100
AcDbEntity
  8
0
  6
Continuous
 62
     7
370
    15
100
AcDbLine
 10
2871.34498964337
 20
1912.20682255377
 30
0.0
 11
2871.34498964337
 21
1900.50682255377
 31
0.0
  0
ARC
  5
68F
330
673
100
AcDbEntity
  8
0
  6
Continuous
 62
     7
370
    15
100
AcDbCircle
 10
2874.49498964337
 20
1900.50682255377
 30
0.0
 40
3.150000000000005
100
AcDbArc
 50
180.0
 51
0.0
  0
LINE
  5
690
330
673
100
AcDbEntity
  8
0
  6
Continuous
 62
     7
370
    15
100
AcDbLine
 10
2877.64498964337
 20
1900.50682255377
 30
0.0
 11
2877.64498964337
 21
1912.20682255377
 31
0.0
  0
ARC
  5
691
330
673
100
AcDbEntity
  8
0
  6
Continuous
 62
     7
370
    15
100
AcDbCircle
 10
2874.49498964337
 20
1912.20682255377
 30
0.0
 40
3.150000000000005
100
AcDbArc
 50
0.0
 51
180.0
  0
LINE
  5
692
330
673
100
AcDbEntity
  8
0
  6
Continuous
 62
     7
370
    15
100
AcDbLine
 10
2871.34498964337
 20
1887.20682255377
 30
0.0
 11
2871.34498964337
 21
1875.50682255377
 31
0.0
  0
ARC
  5
693
330
673
100
AcDbEntity
  8
0
  6
Continuous
 62
     7
370
    15
100
AcDbCircle
 10
2874.49498964337
 20
1875.50682255377
 30
0.0
 40
3.150000000000005
100
AcDbArc
 50
180.0
 51
0.0
  0
LINE
  5
694
330
673
100
AcDbEntity
  8
0
  6
Continuous
 62
     7
370
    15
100
AcDbLine
 10
2877.64498964337
 20
1875.50682255377
 30
0.0
 11
2877.64498964337
 21
1887.20682255377
 31
0.0
  0
ARC
  5
695
330
673
100
AcDbEntity
  8
0
  6
Continuous
 62
     7
370
    15
100
AcDbCircle
 10
2874.49498964337
 20
1887.20682255377
 30
0.0
 40
3.150000000000005
100
AcDbArc
 50
0.0
 51
180.0
  0
LINE
  5
696
330
673
100
AcDbEntity
  8
0
  6
Continuous
 62
     7
370
    15
100
AcDbLine
 10
2871.34498964337
 20
1862.20682255377
 30
0.0
 11
2871.34498964337
 21
1850.50682255377
 31
0.0
  0
ARC
  5
697
330
673
100
AcDbEntity
  8
0
  6
Continuous
 62
     7
370
    15
100
AcDbCircle
 10
2874.49498964337
 20
1850.50682255377
 30
0.0
 40
3.150000000000005
100
AcDbArc
 50
180.0
 51
0.0
  0
LINE
  5
698
330
673
100
AcDbEntity
  8
0
  6
Continuous
 62
     7
370
    15
100
AcDbLine
 10
2877.64498964337
 20
1850.50682255377
 30
0.0
 11
2877.64498964337
 21
1862.20682255377
 31
0.0
  0
ARC
  5
699
330
673
100
AcDbEntity
  8
0
  6
Continuous
 62
     7
370
    15
100
AcDbCircle
 10
2874.49498964337
 20
1862.20682255377
 30
0.0
 40
3.150000000000005
100
AcDbArc
 50
0.0
 51
180.0
  0
LINE
  5
69A
330
673
100
AcDbEntity
  8
0
  6
Continuous
 62
     7
370
    15
100
AcDbLine
 10
2871.34498964337
 20
1837.20682255377
 30
0.0
 11
2871.34498964337
 21
1825.50682255377
 31
0.0
  0
ARC
  5
69B
330
673
100
AcDbEntity
  8
0
  6
Continuous
 62
     7
370
    15
100
AcDbCircle
 10
2874.49498964337
 20
1825.50682255377
 30
0.0
 40
3.150000000000005
100
AcDbArc
 50
180.0
 51
0.0
  0
LINE
  5
69C
330
673
100
AcDbEntity
  8
0
  6
Continuous
 62
     7
370
    15
100
AcDbLine
 10
2877.64498964337
 20
1825.50682255377
 30
0.0
 11
2877.64498964337
 21
1837.20682255377
 31
0.0
  0
ARC
  5
69D
330
673
100
AcDbEntity
  8
0
  6
Continuous
 62
     7
370
    15
100
AcDbCircle
 10
2874.49498964337
 20
1837.20682255377
 30
0.0
 40
3.150000000000005
100
AcDbArc
 50
0.0
 51
180.0
  0
LINE
  5
69E
330
673
100
AcDbEntity
  8
0
  6
Continuous
 62
     7
370
    15
100
AcDbLine
 10
2871.34498964337
 20
1812.20682255377
 30
0.0
 11
2871.34498964337
 21
1800.50682255377
 31
0.0
  0
ARC
  5
69F
330
673
100
AcDbEntity
  8
0
  6
Continuous
 62
     7
370
    15
100
AcDbCircle
 10
2874.49498964337
 20
1800.50682255377
 30
0.0
 40
3.150000000000005
100
AcDbArc
 50
180.0
 51
0.0
  0
LINE
  5
6A0
330
673
100
AcDbEntity
  8
0
  6
Continuous
 62
     7
370
    15
100
AcDbLine
 10
2877.64498964337
 20
1800.50682255377
 30
0.0
 11
2877.64498964337
 21
1812.20682255377
 31
0.0
  0
ARC
  5
6A1
330
673
100
AcDbEntity
  8
0
  6
Continuous
 62
     7
370
    15
100
AcDbCircle
 10
2874.49498964337
 20
1812.20682255377
 30
0.0
 40
3.150000000000005
100
AcDbArc
 50
0.0
 51
180.0
  0
LINE
  5
6A2
330
673
100
AcDbEntity
  8
0
  6
Continuous
 62
     7
370
    15
100
AcDbLine
 10
2871.34498964337
 20
1787.20682255377
 30
0.0
 11
2871.34498964337
 21
1775.50682255377
 31
0.0
  0
ARC
  5
6A3
330
673
100
AcDbEntity
  8
0
  6
Continuous
 62
     7
370
    15
100
AcDbCircle
 10
2874.49498964337
 20
1775.50682255377
 30
0.0
 40
3.150000000000005
100
AcDbArc
 50
180.0
 51
0.0
  0
LINE
  5
6A4
330
673
100
AcDbEntity
  8
0
  6
Continuous
 62
     7
370
    15
100
AcDbLine
 10
2877.64498964337
 20
1775.50682255377
 30
0.0
 11
2877.64498964337
 21
1787.20682255377
 31
0.0
  0
ARC
  5
6A5
330
673
100
AcDbEntity
  8
0
  6
Continuous
 62
     7
370
    15
100
AcDbCircle
 10
2874.49498964337
 20
1787.20682255377
 30
0.0
 40
3.150000000000005
100
AcDbArc
 50
0.0
 51
180.0
  0
LINE
  5
6A6
330
673
100
AcDbEntity
  8
0
  6
Continuous
 62
     7
370
    15
100
AcDbLine
 10
2871.34498964337
 20
1762.20682255377
 30
0.0
 11
2871.34498964337
 21
1750.50682255377
 31
0.0
  0
ARC
  5
6A7
330
673
100
AcDbEntity
  8
0
  6
Continuous
 62
     7
370
    15
100
AcDbCircle
 10
2874.49498964337
 20
1750.50682255377
 30
0.0
 40
3.150000000000005
100
AcDbArc
 50
180.0
 51
0.0
  0
LINE
  5
6A8
330
673
100
AcDbEntity
  8
0
  6
Continuous
 62
     7
370
    15
100
AcDbLine
 10
2877.64498964337
 20
1750.50682255377
 30
0.0
 11
2877.64498964337
 21
1762.20682255377
 31
0.0
  0
ARC
  5
6A9
330
673
100
AcDbEntity
  8
0
  6
Continuous
 62
     7
370
    15
100
AcDbCircle
 10
2874.49498964337
 20
1762.20682255377
 30
0.0
 40
3.150000000000005
100
AcDbArc
 50
0.0
 51
180.0
  0
LINE
  5
6AA
330
673
100
AcDbEntity
  8
0
  6
Continuous
 62
     7
370
    15
100
AcDbLine
 10
2871.34498964337
 20
1737.20682255377
 30
0.0
 11
2871.34498964337
 21
1725.50682255377
 31
0.0
  0
ARC
  5
6AB
330
673
100
AcDbEntity
  8
0
  6
Continuous
 62
     7
370
    15
100
AcDbCircle
 10
2874.49498964337
 20
1725.50682255377
 30
0.0
 40
3.150000000000005
100
AcDbArc
 50
180.0
 51
0.0
  0
LINE
  5
6AC
330
673
100
AcDbEntity
  8
0
  6
Continuous
 62
     7
370
    15
100
AcDbLine
 10
2877.64498964337
 20
1725.50682255377
 30
0.0
 11
2877.64498964337
 21
1737.20682255377
 31
0.0
  0
ARC
  5
6AD
330
673
100
AcDbEntity
  8
0
  6
Continuous
 62
     7
370
    15
100
AcDbCircle
 10
2874.49498964337
 20
1737.20682255377
 30
0.0
 40
3.150000000000005
100
AcDbArc
 50
0.0
 51
180.0
  0
LINE
  5
6AE
330
673
100
AcDbEntity
  8
0
  6
Continuous
 62
     7
370
    15
100
AcDbLine
 10
2871.34498964337
 20
1712.20682255377
 30
0.0
 11
2871.34498964337
 21
1700.50682255377
 31
0.0
  0
ARC
  5
6AF
330
673
100
AcDbEntity
  8
0
  6
Continuous
 62
     7
370
    15
100
AcDbCircle
 10
2874.49498964337
 20
1700.50682255377
 30
0.0
 40
3.150000000000005
100
AcDbArc
 50
180.0
 51
0.0
  0
LINE
  5
6B0
330
673
100
AcDbEntity
  8
0
  6
Continuous
 62
     7
370
    15
100
AcDbLine
 10
2877.64498964337
 20
1700.50682255377
 30
0.0
 11
2877.64498964337
 21
1712.20682255377
 31
0.0
  0
ARC
  5
6B1
330
673
100
AcDbEntity
  8
0
  6
Continuous
 62
     7
370
    15
100
AcDbCircle
 10
2874.49498964337
 20
1712.20682255377
 30
0.0
 40
3.150000000000005
100
AcDbArc
 50
0.0
 51
180.0
  0
LINE
  5
6B2
330
673
100
AcDbEntity
  8
0
  6
Continuous
 62
     7
370
    15
100
AcDbLine
 10
2871.34498964337
 20
1687.20682255377
 30
0.0
 11
2871.34498964337
 21
1675.50682255377
 31
0.0
  0
ARC
  5
6B3
330
673
100
AcDbEntity
  8
0
  6
Continuous
 62
     7
370
    15
100
AcDbCircle
 10
2874.49498964337
 20
1675.50682255377
 30
0.0
 40
3.150000000000005
100
AcDbArc
 50
180.0
 51
0.0
  0
LINE
  5
6B4
330
673
100
AcDbEntity
  8
0
  6
Continuous
 62
     7
370
    15
100
AcDbLine
 10
2877.64498964337
 20
1675.50682255377
 30
0.0
 11
2877.64498964337
 21
1687.20682255377
 31
0.0
  0
ARC
  5
6B5
330
673
100
AcDbEntity
  8
0
  6
Continuous
 62
     7
370
    15
100
AcDbCircle
 10
2874.49498964337
 20
1687.20682255377
 30
0.0
 40
3.150000000000005
100
AcDbArc
 50
0.0
 51
180.0
  0
LINE
  5
6B6
330
673
100
AcDbEntity
  8
0
  6
Continuous
 62
     7
370
    15
100
AcDbLine
 10
2871.34498964337
 20
1662.20682255377
 30
0.0
 11
2871.34498964337
 21
1650.50682255377
 31
0.0
  0
ARC
  5
6B7
330
673
100
AcDbEntity
  8
0
  6
Continuous
 62
     7
370
    15
100
AcDbCircle
 10
2874.49498964337
 20
1650.50682255377
 30
0.0
 40
3.150000000000005
100
AcDbArc
 50
180.0
 51
0.0
  0
LINE
  5
6B8
330
673
100
AcDbEntity
  8
0
  6
Continuous
 62
     7
370
    15
100
AcDbLine
 10
2877.64498964337
 20
1650.50682255377
 30
0.0
 11
2877.64498964337
 21
1662.20682255377
 31
0.0
  0
ARC
  5
6B9
330
673
100
AcDbEntity
  8
0
  6
Continuous
 62
     7
370
    15
100
AcDbCircle
 10
2874.49498964337
 20
1662.20682255377
 30
0.0
 40
3.150000000000005
100
AcDbArc
 50
0.0
 51
180.0
  0
LINE
  5
6BA
330
673
100
AcDbEntity
  8
0
  6
Continuous
 62
     7
370
    15
100
AcDbLine
 10
2871.34498964337
 20
1637.20682255377
 30
0.0
 11
2871.34498964337
 21
1625.50682255377
 31
0.0
  0
ARC
  5
6BB
330
673
100
AcDbEntity
  8
0
  6
Continuous
 62
     7
370
    15
100
AcDbCircle
 10
2874.49498964337
 20
1625.50682255377
 30
0.0
 40
3.150000000000005
100
AcDbArc
 50
180.0
 51
0.0
  0
LINE
  5
6BC
330
673
100
AcDbEntity
  8
0
  6
Continuous
 62
     7
370
    15
100
AcDbLine
 10
2877.64498964337
 20
1625.50682255377
 30
0.0
 11
2877.64498964337
 21
1637.20682255377
 31
0.0
  0
ARC
  5
6BD
330
673
100
AcDbEntity
  8
0
  6
Continuous
 62
     7
370
    15
100
AcDbCircle
 10
2874.49498964337
 20
1637.20682255377
 30
0.0
 40
3.150000000000005
100
AcDbArc
 50
0.0
 51
180.0
  0
LINE
  5
6BE
330
673
100
AcDbEntity
  8
0
  6
Continuous
 62
     7
370
    15
100
AcDbLine
 10
2871.34498964337
 20
1612.20682255377
 30
0.0
 11
2871.34498964337
 21
1600.50682255377
 31
0.0
  0
ARC
  5
6BF
330
673
100
AcDbEntity
  8
0
  6
Continuous
 62
     7
370
    15
100
AcDbCircle
 10
2874.49498964337
 20
1600.50682255377
 30
0.0
 40
3.150000000000005
100
AcDbArc
 50
180.0
 51
0.0
  0
LINE
  5
6C0
330
673
100
AcDbEntity
  8
0
  6
Continuous
 62
     7
370
    15
100
AcDbLine
 10
2877.64498964337
 20
1600.50682255377
 30
0.0
 11
2877.64498964337
 21
1612.20682255377
 31
0.0
  0
ARC
  5
6C1
330
673
100
AcDbEntity
  8
0
  6
Continuous
 62
     7
370
    15
100
AcDbCircle
 10
2874.49498964337
 20
1612.20682255377
 30
0.0
 40
3.150000000000005
100
AcDbArc
 50
0.0
 51
180.0
  0
LINE
  5
6C2
330
673
100
AcDbEntity
  8
0
  6
Continuous
 62
     7
370
    15
100
AcDbLine
 10
2871.34498964337
 20
1587.20682255377
 30
0.0
 11
2871.34498964337
 21
1575.50682255377
 31
0.0
  0
ARC
  5
6C3
330
673
100
AcDbEntity
  8
0
  6
Continuous
 62
     7
370
    15
100
AcDbCircle
 10
2874.49498964337
 20
1575.50682255377
 30
0.0
 40
3.150000000000005
100
AcDbArc
 50
180.0
 51
0.0
  0
LINE
  5
6C4
330
673
100
AcDbEntity
  8
0
  6
Continuous
 62
     7
370
    15
100
AcDbLine
 10
2877.64498964337
 20
1575.50682255377
 30
0.0
 11
2877.64498964337
 21
1587.20682255377
 31
0.0
  0
ARC
  5
6C5
330
673
100
AcDbEntity
  8
0
  6
Continuous
 62
     7
370
    15
100
AcDbCircle
 10
2874.49498964337
 20
1587.20682255377
 30
0.0
 40
3.150000000000005
100
AcDbArc
 50
0.0
 51
180.0
  0
LINE
  5
6C6
330
673
100
AcDbEntity
  8
0
  6
Continuous
 62
     7
370
    15
100
AcDbLine
 10
2871.34498964337
 20
1562.20682255377
 30
0.0
 11
2871.34498964337
 21
1550.50682255377
 31
0.0
  0
ARC
  5
6C7
330
673
100
AcDbEntity
  8
0
  6
Continuous
 62
     7
370
    15
100
AcDbCircle
 10
2874.49498964337
 20
1550.50682255377
 30
0.0
 40
3.150000000000005
100
AcDbArc
 50
180.0
 51
0.0
  0
LINE
  5
6C8
330
673
100
AcDbEntity
  8
0
  6
Continuous
 62
     7
370
    15
100
AcDbLine
 10
2877.64498964337
 20
1550.50682255377
 30
0.0
 11
2877.64498964337
 21
1562.20682255377
 31
0.0
  0
ARC
  5
6C9
330
673
100
AcDbEntity
  8
0
  6
Continuous
 62
     7
370
    15
100
AcDbCircle
 10
2874.49498964337
 20
1562.20682255377
 30
0.0
 40
3.150000000000005
100
AcDbArc
 50
0.0
 51
180.0
  0
LINE
  5
6CA
330
673
100
AcDbEntity
  8
0
  6
Continuous
 62
     7
370
    15
100
AcDbLine
 10
2871.34498964337
 20
1537.20682255377
 30
0.0
 11
2871.34498964337
 21
1525.50682255377
 31
0.0
  0
ARC
  5
6CB
330
673
100
AcDbEntity
  8
0
  6
Continuous
 62
     7
370
    15
100
AcDbCircle
 10
2874.49498964337
 20
1525.50682255377
 30
0.0
 40
3.150000000000005
100
AcDbArc
 50
180.0
 51
0.0
  0
LINE
  5
6CC
330
673
100
AcDbEntity
  8
0
  6
Continuous
 62
     7
370
    15
100
AcDbLine
 10
2877.64498964337
 20
1525.50682255377
 30
0.0
 11
2877.64498964337
 21
1537.20682255377
 31
0.0
  0
ARC
  5
6CD
330
673
100
AcDbEntity
  8
0
  6
Continuous
 62
     7
370
    15
100
AcDbCircle
 10
2874.49498964337
 20
1537.20682255377
 30
0.0
 40
3.150000000000005
100
AcDbArc
 50
0.0
 51
180.0
  0
LINE
  5
6CE
330
673
100
AcDbEntity
  8
0
  6
Continuous
 62
     7
370
    15
100
AcDbLine
 10
2871.34498964337
 20
1512.20682255377
 30
0.0
 11
2871.34498964337
 21
1500.50682255377
 31
0.0
  0
ARC
  5
6CF
330
673
100
AcDbEntity
  8
0
  6
Continuous
 62
     7
370
    15
100
AcDbCircle
 10
2874.49498964337
 20
1500.50682255377
 30
0.0
 40
3.150000000000005
100
AcDbArc
 50
180.0
 51
0.0
  0
LINE
  5
6D0
330
673
100
AcDbEntity
  8
0
  6
Continuous
 62
     7
370
    15
100
AcDbLine
 10
2877.64498964337
 20
1500.50682255377
 30
0.0
 11
2877.64498964337
 21
1512.20682255377
 31
0.0
  0
ARC
  5
6D1
330
673
100
AcDbEntity
  8
0
  6
Continuous
 62
     7
370
    15
100
AcDbCircle
 10
2874.49498964337
 20
1512.20682255377
 30
0.0
 40
3.150000000000005
100
AcDbArc
 50
0.0
 51
180.0
  0
LINE
  5
6D2
330
673
100
AcDbEntity
  8
0
  6
Continuous
 62
     7
370
    15
100
AcDbLine
 10
2871.34498964337
 20
1487.20682255377
 30
0.0
 11
2871.34498964337
 21
1475.50682255377
 31
0.0
  0
ARC
  5
6D3
330
673
100
AcDbEntity
  8
0
  6
Continuous
 62
     7
370
    15
100
AcDbCircle
 10
2874.49498964337
 20
1475.50682255377
 30
0.0
 40
3.150000000000005
100
AcDbArc
 50
180.0
 51
0.0
  0
LINE
  5
6D4
330
673
100
AcDbEntity
  8
0
  6
Continuous
 62
     7
370
    15
100
AcDbLine
 10
2877.64498964337
 20
1475.50682255377
 30
0.0
 11
2877.64498964337
 21
1487.20682255377
 31
0.0
  0
ARC
  5
6D5
330
673
100
AcDbEntity
  8
0
  6
Continuous
 62
     7
370
    15
100
AcDbCircle
 10
2874.49498964337
 20
1487.20682255377
 30
0.0
 40
3.150000000000005
100
AcDbArc
 50
0.0
 51
180.0
  0
LINE
  5
6D6
330
673
100
AcDbEntity
  8
0
  6
Continuous
 62
     7
370
    15
100
AcDbLine
 10
2871.34498964337
 20
1462.20682255377
 30
0.0
 11
2871.34498964337
 21
1450.50682255377
 31
0.0
  0
ARC
  5
6D7
330
673
100
AcDbEntity
  8
0
  6
Continuous
 62
     7
370
    15
100
AcDbCircle
 10
2874.49498964337
 20
1450.50682255377
 30
0.0
 40
3.150000000000005
100
AcDbArc
 50
180.0
 51
0.0
  0
LINE
  5
6D8
330
673
100
AcDbEntity
  8
0
  6
Continuous
 62
     7
370
    15
100
AcDbLine
 10
2877.64498964337
 20
1450.50682255377
 30
0.0
 11
2877.64498964337
 21
1462.20682255377
 31
0.0
  0
ARC
  5
6D9
330
673
100
AcDbEntity
  8
0
  6
Continuous
 62
     7
370
    15
100
AcDbCircle
 10
2874.49498964337
 20
1462.20682255377
 30
0.0
 40
3.150000000000005
100
AcDbArc
 50
0.0
 51
180.0
  0
LINE
  5
6DA
330
673
100
AcDbEntity
  8
0
  6
Continuous
 62
     7
370
    15
100
AcDbLine
 10
2871.34498964337
 20
1437.20682255377
 30
0.0
 11
2871.34498964337
 21
1425.50682255377
 31
0.0
  0
ARC
  5
6DB
330
673
100
AcDbEntity
  8
0
  6
Continuous
 62
     7
370
    15
100
AcDbCircle
 10
2874.49498964337
 20
1425.50682255377
 30
0.0
 40
3.150000000000005
100
AcDbArc
 50
180.0
 51
0.0
  0
LINE
  5
6DC
330
673
100
AcDbEntity
  8
0
  6
Continuous
 62
     7
370
    15
100
AcDbLine
 10
2877.64498964337
 20
1425.50682255377
 30
0.0
 11
2877.64498964337
 21
1437.20682255377
 31
0.0
  0
ARC
  5
6DD
330
673
100
AcDbEntity
  8
0
  6
Continuous
 62
     7
370
    15
100
AcDbCircle
 10
2874.49498964337
 20
1437.20682255377
 30
0.0
 40
3.150000000000005
100
AcDbArc
 50
0.0
 51
180.0
  0
LINE
  5
6DE
330
673
100
AcDbEntity
  8
0
  6
Continuous
 62
     7
370
    15
100
AcDbLine
 10
2871.34498964337
 20
1412.20682255377
 30
0.0
 11
2871.34498964337
 21
1400.50682255377
 31
0.0
  0
ARC
  5
6DF
330
673
100
AcDbEntity
  8
0
  6
Continuous
 62
     7
370
    15
100
AcDbCircle
 10
2874.49498964337
 20
1400.50682255377
 30
0.0
 40
3.150000000000005
100
AcDbArc
 50
180.0
 51
0.0
  0
LINE
  5
6E0
330
673
100
AcDbEntity
  8
0
  6
Continuous
 62
     7
370
    15
100
AcDbLine
 10
2877.64498964337
 20
1400.50682255377
 30
0.0
 11
2877.64498964337
 21
1412.20682255377
 31
0.0
  0
ARC
  5
6E1
330
673
100
AcDbEntity
  8
0
  6
Continuous
 62
     7
370
    15
100
AcDbCircle
 10
2874.49498964337
 20
1412.20682255377
 30
0.0
 40
3.150000000000005
100
AcDbArc
 50
0.0
 51
180.0
  0
LINE
  5
6E2
330
673
100
AcDbEntity
  8
0
  6
Continuous
 62
     7
370
    15
100
AcDbLine
 10
2871.34498964337
 20
1387.20682255377
 30
0.0
 11
2871.34498964337
 21
1375.50682255377
 31
0.0
  0
ARC
  5
6E3
330
673
100
AcDbEntity
  8
0
  6
Continuous
 62
     7
370
    15
100
AcDbCircle
 10
2874.49498964337
 20
1375.50682255377
 30
0.0
 40
3.150000000000005
100
AcDbArc
 50
180.0
 51
0.0
  0
LINE
  5
6E4
330
673
100
AcDbEntity
  8
0
  6
Continuous
 62
     7
370
    15
100
AcDbLine
 10
2877.64498964337
 20
1375.50682255377
 30
0.0
 11
2877.64498964337
 21
1387.20682255377
 31
0.0
  0
ARC
  5
6E5
330
673
100
AcDbEntity
  8
0
  6
Continuous
 62
     7
370
    15
100
AcDbCircle
 10
2874.49498964337
 20
1387.20682255377
 30
0.0
 40
3.150000000000005
100
AcDbArc
 50
0.0
 51
180.0
  0
LINE
  5
6E6
330
673
100
AcDbEntity
  8
0
  6
Continuous
 62
     7
370
    15
100
AcDbLine
 10
2871.34498964337
 20
1362.20682255377
 30
0.0
 11
2871.34498964337
 21
1350.50682255377
 31
0.0
  0
ARC
  5
6E7
330
673
100
AcDbEntity
  8
0
  6
Continuous
 62
     7
370
    15
100
AcDbCircle
 10
2874.49498964337
 20
1350.50682255377
 30
0.0
 40
3.150000000000005
100
AcDbArc
 50
180.0
 51
0.0
  0
LINE
  5
6E8
330
673
100
AcDbEntity
  8
0
  6
Continuous
 62
     7
370
    15
100
AcDbLine
 10
2877.64498964337
 20
1350.50682255377
 30
0.0
 11
2877.64498964337
 21
1362.20682255377
 31
0.0
  0
ARC
  5
6E9
330
673
100
AcDbEntity
  8
0
  6
Continuous
 62
     7
370
    15
100
AcDbCircle
 10
2874.49498964337
 20
1362.20682255377
 30
0.0
 40
3.150000000000005
100
AcDbArc
 50
0.0
 51
180.0
  0
LINE
  5
6EA
330
673
100
AcDbEntity
  8
0
  6
Continuous
 62
     7
370
    15
100
AcDbLine
 10
2871.34498964337
 20
1337.20682255377
 30
0.0
 11
2871.34498964337
 21
1325.50682255377
 31
0.0
  0
ARC
  5
6EB
330
673
100
AcDbEntity
  8
0
  6
Continuous
 62
     7
370
    15
100
AcDbCircle
 10
2874.49498964337
 20
1325.50682255377
 30
0.0
 40
3.150000000000005
100
AcDbArc
 50
180.0
 51
0.0
  0
LINE
  5
6EC
330
673
100
AcDbEntity
  8
0
  6
Continuous
 62
     7
370
    15
100
AcDbLine
 10
2877.64498964337
 20
1325.50682255377
 30
0.0
 11
2877.64498964337
 21
1337.20682255377
 31
0.0
  0
ARC
  5
6ED
330
673
100
AcDbEntity
  8
0
  6
Continuous
 62
     7
370
    15
100
AcDbCircle
 10
2874.49498964337
 20
1337.20682255377
 30
0.0
 40
3.150000000000005
100
AcDbArc
 50
0.0
 51
180.0
  0
LINE
  5
6EE
330
673
100
AcDbEntity
  8
0
  6
Continuous
 62
     7
370
    15
100
AcDbLine
 10
2871.34498964337
 20
1312.20682255377
 30
0.0
 11
2871.34498964337
 21
1300.50682255377
 31
0.0
  0
ARC
  5
6EF
330
673
100
AcDbEntity
  8
0
  6
Continuous
 62
     7
370
    15
100
AcDbCircle
 10
2874.49498964337
 20
1300.50682255377
 30
0.0
 40
3.150000000000005
100
AcDbArc
 50
180.0
 51
0.0
  0
LINE
  5
6F0
330
673
100
AcDbEntity
  8
0
  6
Continuous
 62
     7
370
    15
100
AcDbLine
 10
2877.64498964337
 20
1300.50682255377
 30
0.0
 11
2877.64498964337
 21
1312.20682255377
 31
0.0
  0
ARC
  5
6F1
330
673
100
AcDbEntity
  8
0
  6
Continuous
 62
     7
370
    15
100
AcDbCircle
 10
2874.49498964337
 20
1312.20682255377
 30
0.0
 40
3.150000000000005
100
AcDbArc
 50
0.0
 51
180.0
  0
LINE
  5
6F2
330
673
100
AcDbEntity
  8
0
  6
Continuous
 62
     7
370
    15
100
AcDbLine
 10
2871.34498964337
 20
1287.20682255377
 30
0.0
 11
2871.34498964337
 21
1275.50682255377
 31
0.0
  0
ARC
  5
6F3
330
673
100
AcDbEntity
  8
0
  6
Continuous
 62
     7
370
    15
100
AcDbCircle
 10
2874.49498964337
 20
1275.50682255377
 30
0.0
 40
3.150000000000005
100
AcDbArc
 50
180.0
 51
0.0
  0
LINE
  5
6F4
330
673
100
AcDbEntity
  8
0
  6
Continuous
 62
     7
370
    15
100
AcDbLine
 10
2877.64498964337
 20
1275.50682255377
 30
0.0
 11
2877.64498964337
 21
1287.20682255377
 31
0.0
  0
ARC
  5
6F5
330
673
100
AcDbEntity
  8
0
  6
Continuous
 62
     7
370
    15
100
AcDbCircle
 10
2874.49498964337
 20
1287.20682255377
 30
0.0
 40
3.150000000000005
100
AcDbArc
 50
0.0
 51
180.0
  0
LINE
  5
6F6
330
673
100
AcDbEntity
  8
0
  6
Continuous
 62
     7
370
    15
100
AcDbLine
 10
2871.34498964337
 20
1262.20682255377
 30
0.0
 11
2871.34498964337
 21
1250.50682255377
 31
0.0
  0
ARC
  5
6F7
330
673
100
AcDbEntity
  8
0
  6
Continuous
 62
     7
370
    15
100
AcDbCircle
 10
2874.49498964337
 20
1250.50682255377
 30
0.0
 40
3.150000000000005
100
AcDbArc
 50
180.0
 51
0.0
  0
LINE
  5
6F8
330
673
100
AcDbEntity
  8
0
  6
Continuous
 62
     7
370
    15
100
AcDbLine
 10
2877.64498964337
 20
1250.50682255377
 30
0.0
 11
2877.64498964337
 21
1262.20682255377
 31
0.0
  0
ARC
  5
6F9
330
673
100
AcDbEntity
  8
0
  6
Continuous
 62
     7
370
    15
100
AcDbCircle
 10
2874.49498964337
 20
1262.20682255377
 30
0.0
 40
3.150000000000005
100
AcDbArc
 50
0.0
 51
180.0
  0
LINE
  5
6FA
330
673
100
AcDbEntity
  8
0
  6
Continuous
 62
     7
370
    15
100
AcDbLine
 10
2871.34498964337
 20
1237.20682255377
 30
0.0
 11
2871.34498964337
 21
1225.50682255377
 31
0.0
  0
ARC
  5
6FB
330
673
100
AcDbEntity
  8
0
  6
Continuous
 62
     7
370
    15
100
AcDbCircle
 10
2874.49498964337
 20
1225.50682255377
 30
0.0
 40
3.150000000000005
100
AcDbArc
 50
180.0
 51
0.0
  0
LINE
  5
6FC
330
673
100
AcDbEntity
  8
0
  6
Continuous
 62
     7
370
    15
100
AcDbLine
 10
2877.64498964337
 20
1225.50682255377
 30
0.0
 11
2877.64498964337
 21
1237.20682255377
 31
0.0
  0
ARC
  5
6FD
330
673
100
AcDbEntity
  8
0
  6
Continuous
 62
     7
370
    15
100
AcDbCircle
 10
2874.49498964337
 20
1237.20682255377
 30
0.0
 40
3.150000000000005
100
AcDbArc
 50
0.0
 51
180.0
  0
LINE
  5
6FE
330
673
100
AcDbEntity
  8
0
  6
Continuous
 62
     7
370
    15
100
AcDbLine
 10
2871.34498964337
 20
1212.20682255377
 30
0.0
 11
2871.34498964337
 21
1200.50682255377
 31
0.0
  0
ARC
  5
6FF
330
673
100
AcDbEntity
  8
0
  6
Continuous
 62
     7
370
    15
100
AcDbCircle
 10
2874.49498964337
 20
1200.50682255377
 30
0.0
 40
3.150000000000005
100
AcDbArc
 50
180.0
 51
0.0
  0
LINE
  5
700
330
673
100
AcDbEntity
  8
0
  6
Continuous
 62
     7
370
    15
100
AcDbLine
 10
2877.64498964337
 20
1200.50682255377
 30
0.0
 11
2877.64498964337
 21
1212.20682255377
 31
0.0
  0
ARC
  5
701
330
673
100
AcDbEntity
  8
0
  6
Continuous
 62
     7
370
    15
100
AcDbCircle
 10
2874.49498964337
 20
1212.20682255377
 30
0.0
 40
3.150000000000005
100
AcDbArc
 50
0.0
 51
180.0
  0
LINE
  5
702
330
673
100
AcDbEntity
  8
0
  6
Continuous
 62
     7
370
    15
100
AcDbLine
 10
2871.34498964337
 20
1187.20682255377
 30
0.0
 11
2871.34498964337
 21
1175.50682255377
 31
0.0
  0
ARC
  5
703
330
673
100
AcDbEntity
  8
0
  6
Continuous
 62
     7
370
    15
100
AcDbCircle
 10
2874.49498964337
 20
1175.50682255377
 30
0.0
 40
3.150000000000005
100
AcDbArc
 50
180.0
 51
0.0
  0
LINE
  5
704
330
673
100
AcDbEntity
  8
0
  6
Continuous
 62
     7
370
    15
100
AcDbLine
 10
2877.64498964337
 20
1175.50682255377
 30
0.0
 11
2877.64498964337
 21
1187.20682255377
 31
0.0
  0
ARC
  5
705
330
673
100
AcDbEntity
  8
0
  6
Continuous
 62
     7
370
    15
100
AcDbCircle
 10
2874.49498964337
 20
1187.20682255377
 30
0.0
 40
3.150000000000005
100
AcDbArc
 50
0.0
 51
180.0
  0
LINE
  5
706
330
673
100
AcDbEntity
  8
0
  6
Continuous
 62
     7
370
    15
100
AcDbLine
 10
2871.34498964337
 20
1162.20682255377
 30
0.0
 11
2871.34498964337
 21
1150.50682255377
 31
0.0
  0
ARC
  5
707
330
673
100
AcDbEntity
  8
0
  6
Continuous
 62
     7
370
    15
100
AcDbCircle
 10
2874.49498964337
 20
1150.50682255377
 30
0.0
 40
3.150000000000005
100
AcDbArc
 50
180.0
 51
0.0
  0
LINE
  5
708
330
673
100
AcDbEntity
  8
0
  6
Continuous
 62
     7
370
    15
100
AcDbLine
 10
2877.64498964337
 20
1150.50682255377
 30
0.0
 11
2877.64498964337
 21
1162.20682255377
 31
0.0
  0
ARC
  5
709
330
673
100
AcDbEntity
  8
0
  6
Continuous
 62
     7
370
    15
100
AcDbCircle
 10
2874.49498964337
 20
1162.20682255377
 30
0.0
 40
3.150000000000005
100
AcDbArc
 50
0.0
 51
180.0
  0
LINE
  5
70A
330
673
100
AcDbEntity
  8
0
  6
Continuous
 62
     7
370
    15
100
AcDbLine
 10
2871.34498964337
 20
1137.20682255377
 30
0.0
 11
2871.34498964337
 21
1125.50682255377
 31
0.0
  0
ARC
  5
70B
330
673
100
AcDbEntity
  8
0
  6
Continuous
 62
     7
370
    15
100
AcDbCircle
 10
2874.49498964337
 20
1125.50682255377
 30
0.0
 40
3.150000000000005
100
AcDbArc
 50
180.0
 51
0.0
  0
LINE
  5
70C
330
673
100
AcDbEntity
  8
0
  6
Continuous
 62
     7
370
    15
100
AcDbLine
 10
2877.64498964337
 20
1125.50682255377
 30
0.0
 11
2877.64498964337
 21
1137.20682255377
 31
0.0
  0
ARC
  5
70D
330
673
100
AcDbEntity
  8
0
  6
Continuous
 62
     7
370
    15
100
AcDbCircle
 10
2874.49498964337
 20
1137.20682255377
 30
0.0
 40
3.150000000000005
100
AcDbArc
 50
0.0
 51
180.0
  0
LINE
  5
70E
330
673
100
AcDbEntity
  8
0
  6
Continuous
 62
     7
370
    15
100
AcDbLine
 10
2871.34498964337
 20
1112.20682255377
 30
0.0
 11
2871.34498964337
 21
1100.50682255377
 31
0.0
  0
ARC
  5
70F
330
673
100
AcDbEntity
  8
0
  6
Continuous
 62
     7
370
    15
100
AcDbCircle
 10
2874.49498964337
 20
1100.50682255377
 30
0.0
 40
3.150000000000005
100
AcDbArc
 50
180.0
 51
0.0
  0
LINE
  5
710
330
673
100
AcDbEntity
  8
0
  6
Continuous
 62
     7
370
    15
100
AcDbLine
 10
2877.64498964337
 20
1100.50682255377
 30
0.0
 11
2877.64498964337
 21
1112.20682255377
 31
0.0
  0
ARC
  5
711
330
673
100
AcDbEntity
  8
0
  6
Continuous
 62
     7
370
    15
100
AcDbCircle
 10
2874.49498964337
 20
1112.20682255377
 30
0.0
 40
3.150000000000005
100
AcDbArc
 50
0.0
 51
180.0
  0
LINE
  5
712
330
673
100
AcDbEntity
  8
0
  6
Continuous
 62
     7
370
    15
100
AcDbLine
 10
2871.34498964337
 20
1087.20682255377
 30
0.0
 11
2871.34498964337
 21
1075.50682255377
 31
0.0
  0
ARC
  5
713
330
673
100
AcDbEntity
  8
0
  6
Continuous
 62
     7
370
    15
100
AcDbCircle
 10
2874.49498964337
 20
1075.50682255377
 30
0.0
 40
3.150000000000005
100
AcDbArc
 50
180.0
 51
0.0
  0
LINE
  5
714
330
673
100
AcDbEntity
  8
0
  6
Continuous
 62
     7
370
    15
100
AcDbLine
 10
2877.64498964337
 20
1075.50682255377
 30
0.0
 11
2877.64498964337
 21
1087.20682255377
 31
0.0
  0
ARC
  5
715
330
673
100
AcDbEntity
  8
0
  6
Continuous
 62
     7
370
    15
100
AcDbCircle
 10
2874.49498964337
 20
1087.20682255377
 30
0.0
 40
3.150000000000005
100
AcDbArc
 50
0.0
 51
180.0
  0
LINE
  5
716
330
673
100
AcDbEntity
  8
0
  6
Continuous
 62
     7
370
    15
100
AcDbLine
 10
2871.34498964337
 20
1062.20682255377
 30
0.0
 11
2871.34498964337
 21
1050.50682255377
 31
0.0
  0
ARC
  5
717
330
673
100
AcDbEntity
  8
0
  6
Continuous
 62
     7
370
    15
100
AcDbCircle
 10
2874.49498964337
 20
1050.50682255377
 30
0.0
 40
3.150000000000005
100
AcDbArc
 50
180.0
 51
0.0
  0
LINE
  5
718
330
673
100
AcDbEntity
  8
0
  6
Continuous
 62
     7
370
    15
100
AcDbLine
 10
2877.64498964337
 20
1050.50682255377
 30
0.0
 11
2877.64498964337
 21
1062.20682255377
 31
0.0
  0
ARC
  5
719
330
673
100
AcDbEntity
  8
0
  6
Continuous
 62
     7
370
    15
100
AcDbCircle
 10
2874.49498964337
 20
1062.20682255377
 30
0.0
 40
3.150000000000005
100
AcDbArc
 50
0.0
 51
180.0
  0
LINE
  5
71A
330
673
100
AcDbEntity
  8
0
  6
Continuous
 62
     7
370
    15
100
AcDbLine
 10
2871.34498964337
 20
1037.20682255377
 30
0.0
 11
2871.34498964337
 21
1025.50682255377
 31
0.0
  0
ARC
  5
71B
330
673
100
AcDbEntity
  8
0
  6
Continuous
 62
     7
370
    15
100
AcDbCircle
 10
2874.49498964337
 20
1025.50682255377
 30
0.0
 40
3.150000000000005
100
AcDbArc
 50
180.0
 51
0.0
  0
LINE
  5
71C
330
673
100
AcDbEntity
  8
0
  6
Continuous
 62
     7
370
    15
100
AcDbLine
 10
2877.64498964337
 20
1025.50682255377
 30
0.0
 11
2877.64498964337
 21
1037.20682255377
 31
0.0
  0
ARC
  5
71D
330
673
100
AcDbEntity
  8
0
  6
Continuous
 62
     7
370
    15
100
AcDbCircle
 10
2874.49498964337
 20
1037.20682255377
 30
0.0
 40
3.150000000000005
100
AcDbArc
 50
0.0
 51
180.0
  0
LINE
  5
71E
330
673
100
AcDbEntity
  8
0
  6
Continuous
 62
     7
370
    15
100
AcDbLine
 10
2871.34498964337
 20
1012.20682255377
 30
0.0
 11
2871.34498964337
 21
1000.50682255377
 31
0.0
  0
ARC
  5
71F
330
673
100
AcDbEntity
  8
0
  6
Continuous
 62
     7
370
    15
100
AcDbCircle
 10
2874.49498964337
 20
1000.50682255377
 30
0.0
 40
3.150000000000005
100
AcDbArc
 50
180.0
 51
0.0
  0
LINE
  5
720
330
673
100
AcDbEntity
  8
0
  6
Continuous
 62
     7
370
    15
100
AcDbLine
 10
2877.64498964337
 20
1000.50682255377
 30
0.0
 11
2877.64498964337
 21
1012.20682255377
 31
0.0
  0
ARC
  5
721
330
673
100
AcDbEntity
  8
0
  6
Continuous
 62
     7
370
    15
100
AcDbCircle
 10
2874.49498964337
 20
1012.20682255377
 30
0.0
 40
3.150000000000005
100
AcDbArc
 50
0.0
 51
180.0
  0
LINE
  5
722
330
673
100
AcDbEntity
  8
0
  6
Continuous
 62
     7
370
    15
100
AcDbLine
 10
2871.34498964337
 20
987.2068225537702
 30
0.0
 11
2871.34498964337
 21
975.5068225537703
 31
0.0
  0
ARC
  5
723
330
673
100
AcDbEntity
  8
0
  6
Continuous
 62
     7
370
    15
100
AcDbCircle
 10
2874.49498964337
 20
975.5068225537703
 30
0.0
 40
3.150000000000005
100
AcDbArc
 50
180.0
 51
0.0
  0
LINE
  5
724
330
673
100
AcDbEntity
  8
0
  6
Continuous
 62
     7
370
    15
100
AcDbLine
 10
2877.64498964337
 20
975.5068225537703
 30
0.0
 11
2877.64498964337
 21
987.2068225537702
 31
0.0
  0
ARC
  5
725
330
673
100
AcDbEntity
  8
0
  6
Continuous
 62
     7
370
    15
100
AcDbCircle
 10
2874.49498964337
 20
987.2068225537702
 30
0.0
 40
3.150000000000005
100
AcDbArc
 50
0.0
 51
180.0
  0
LINE
  5
726
330
673
100
AcDbEntity
  8
0
  6
Continuous
 62
     7
370
    15
100
AcDbLine
 10
2871.34498964337
 20
962.2068225537702
 30
0.0
 11
2871.34498964337
 21
950.5068225537703
 31
0.0
  0
ARC
  5
727
330
673
100
AcDbEntity
  8
0
  6
Continuous
 62
     7
370
    15
100
AcDbCircle
 10
2874.49498964337
 20
950.5068225537703
 30
0.0
 40
3.150000000000005
100
AcDbArc
 50
180.0
 51
0.0
  0
LINE
  5
728
330
673
100
AcDbEntity
  8
0
  6
Continuous
 62
     7
370
    15
100
AcDbLine
 10
2877.64498964337
 20
950.5068225537703
 30
0.0
 11
2877.64498964337
 21
962.2068225537702
 31
0.0
  0
ARC
  5
729
330
673
100
AcDbEntity
  8
0
  6
Continuous
 62
     7
370
    15
100
AcDbCircle
 10
2874.49498964337
 20
962.2068225537702
 30
0.0
 40
3.150000000000005
100
AcDbArc
 50
0.0
 51
180.0
  0
LINE
  5
72A
330
673
100
AcDbEntity
  8
0
  6
Continuous
 62
     7
370
    15
100
AcDbLine
 10
2863.69498964337
 20
947.2068225537704
 30
0.0
 11
2885.29498964337
 21
947.2068225537704
 31
0.0
  0
LINE
  5
72B
330
673
100
AcDbEntity
  8
0
  6
Continuous
 62
     7
370
    15
100
AcDbLine
 10
2885.29498964337
 20
1947.20682255377
 30
0.0
 11
2863.69498964337
 21
1947.20682255377
 31
0.0
  0
ENDBLK
  5
675
330
673
100
AcDbEntity
  8
0
100
AcDbBlockEnd
  0
BLOCK
  5
72E
330
72D
100
AcDbEntity
  8
0
100
AcDbBlockBegin
  2
4
 70
     0
 10
0.0
 20
0.0
 30
0.0
  3
4
  1

  0
LINE
  5
730
330
72D
100
AcDbEntity
  8
0
  6
Continuous
 62
     7
370
    15
100
AcDbLine
 10
2715.193166596316
 20
1832.212634981613
 30
0.0
 11
2008.086385409767
 21
1424.00857907026
 31
0.0
  0
LINE
  5
731
330
72D
100
AcDbEntity
  8
0
  6
Continuous
 62
     7
370
    15
100
AcDbLine
 10
2008.028449541257
 20
1413.085119237355
 30
0.0
 11
2715.135230727806
 21
1821.289175148709
 31
0.0
  0
LINE
  5
732
330
72D
100
AcDbEntity
  8
0
  6
Continuous
 62
     7
370
    15
100
AcDbLine
 10
1989.495864469365
 20
1433.181601518532
 30
0.0
 11
1989.495864469365
 21
1425.342809724428
 31
0.0
  0
ARC
  5
733
330
72D
100
AcDbEntity
  8
0
  6
Continuous
 62
     7
370
    15
100
AcDbCircle
 10
1987.653605147724
 20
1433.097768495819
 30
0.0
 40
1.844165769086265
100
AcDbArc
 50
2.605478485656367
 51
57.39452165998434
  0
LINE
  5
734
330
72D
100
AcDbEntity
  8
0
  6
Continuous
 62
     7
370
    15
100
AcDbLine
 10
1987.986916561502
 20
1435.032547578181
 30
0.0
 11
1988.647336331941
 21
1434.651295359888
 31
0.0
  0
LINE
  5
735
330
72D
100
AcDbEntity
  8
0
  6
Continuous
 62
     7
370
    15
100
AcDbLine
 10
1986.667437344619
 20
1436.202537122383
 30
0.0
 11
1987.986916561502
 21
1435.032547578181
 31
0.0
  0
LINE
  5
736
330
72D
100
AcDbEntity
  8
0
  6
Continuous
 62
     7
370
    15
100
AcDbLine
 10
1986.667437344619
 20
1437.019077934269
 30
0.0
 11
1986.667437344619
 21
1436.202537122383
 31
0.0
  0
LINE
  5
737
330
72D
100
AcDbEntity
  8
0
  6
Continuous
 62
     7
370
    15
100
AcDbLine
 10
1988.647336331941
 20
1435.876106577717
 30
0.0
 11
1986.667437344619
 21
1437.019077934269
 31
0.0
  0
ARC
  5
738
330
72D
100
AcDbEntity
  8
0
  6
Continuous
 62
     7
370
    15
100
AcDbCircle
 10
1986.411441167453
 20
1432.380671133561
 30
0.0
 40
4.14937298044455
100
AcDbArc
 50
2.60547848564986
 51
57.39452165996985
  0
LINE
  5
739
330
72D
100
AcDbEntity
  8
0
  6
Continuous
 62
     7
370
    15
100
AcDbLine
 10
1990.556524641145
 20
1424.730503640561
 30
0.0
 11
1990.556524641145
 21
1432.569295434665
 31
0.0
  0
ARC
  5
73A
330
72D
100
AcDbEntity
  8
0
  6
Continuous
 62
     7
370
    15
100
AcDbCircle
 10
1992.398783962786
 20
1424.814336663274
 30
0.0
 40
1.844165769086776
100
AcDbArc
 50
182.6054784856563
 51
237.3945216599699
  0
LINE
  5
73B
330
72D
100
AcDbEntity
  8
0
  6
Continuous
 62
     7
370
    15
100
AcDbLine
 10
1991.405052778569
 20
1423.260809799205
 30
0.0
 11
2006.678559252199
 21
1414.44360219152
 31
0.0
  0
ARC
  5
73C
330
72D
100
AcDbEntity
  8
0
  6
Continuous
 62
     7
370
    15
100
AcDbCircle
 10
2007.009798148711
 20
1414.849693662408
 30
0.0
 40
0.5240510369141335
100
AcDbArc
 50
230.7967147642825
 51
9.214036990475655
  0
LINE
  5
73D
330
72D
100
AcDbEntity
  8
0
  6
Continuous
 62
     7
370
    15
100
AcDbLine
 10
2007.527087389622
 20
1422.772398092792
 30
0.0
 11
2007.527087389622
 21
1414.933606298689
 31
0.0
  0
ARC
  5
73E
330
72D
100
AcDbEntity
  8
0
  6
Continuous
 62
     7
370
    15
100
AcDbCircle
 10
2008.690988181674
 20
1422.961201524424
 30
0.0
 40
1.179114833057029
100
AcDbArc
 50
50.79671476428251
 51
189.2140369904564
  0
LINE
  5
73F
330
72D
100
AcDbEntity
  8
0
  6
Continuous
 62
     7
370
    15
100
AcDbLine
 10
2011.416174686148
 20
1422.731935977371
 30
0.0
 11
2009.436275698826
 21
1423.874907333923
 31
0.0
  0
LINE
  5
740
330
72D
100
AcDbEntity
  8
0
  6
Continuous
 62
     7
370
    15
100
AcDbLine
 10
2011.416174686148
 20
1422.731935977371
 30
0.0
 11
2011.416174686148
 21
1421.915395165486
 31
0.0
  0
LINE
  5
741
330
72D
100
AcDbEntity
  8
0
  6
Continuous
 62
     7
370
    15
100
AcDbLine
 10
2010.096695469266
 20
1422.268843897801
 30
0.0
 11
2011.416174686148
 21
1421.915395165486
 31
0.0
  0
LINE
  5
742
330
72D
100
AcDbEntity
  8
0
  6
Continuous
 62
     7
370
    15
100
AcDbLine
 10
2010.096695469266
 20
1422.268843897801
 30
0.0
 11
2009.436275698826
 21
1422.650096116094
 31
0.0
  0
ARC
  5
743
330
72D
100
AcDbEntity
  8
0
  6
Continuous
 62
     7
370
    15
100
AcDbCircle
 10
2009.105036802314
 20
1422.244004645206
 30
0.0
 40
0.5240510369143205
100
AcDbArc
 50
50.79671476431506
 51
189.2140369904306
  0
LINE
  5
744
330
72D
100
AcDbEntity
  8
0
  6
Continuous
 62
     7
370
    15
100
AcDbLine
 10
2008.587747561402
 20
1414.321300214822
 30
0.0
 11
2008.587747561402
 21
1422.160092008925
 31
0.0
  0
ARC
  5
745
330
72D
100
AcDbEntity
  8
0
  6
Continuous
 62
     7
370
    15
100
AcDbCircle
 10
2007.42384676935
 20
1414.13249678319
 30
0.0
 40
1.179114833056797
100
AcDbArc
 50
230.7967147642825
 51
9.214036990475655
  0
LINE
  5
746
330
72D
100
AcDbEntity
  8
0
  6
Continuous
 62
     7
370
    15
100
AcDbLine
 10
1991.405052778569
 20
1422.035998581377
 30
0.0
 11
2006.678559252199
 21
1413.218790973691
 31
0.0
  0
ARC
  5
747
330
72D
100
AcDbEntity
  8
0
  6
Continuous
 62
     7
370
    15
100
AcDbCircle
 10
1993.640947943057
 20
1425.531434025532
 30
0.0
 40
4.149372980444555
100
AcDbArc
 50
182.6054784856563
 51
237.3945216599699
  0
LINE
  5
748
330
72D
100
AcDbEntity
  8
0
  6
Continuous
 62
     7
370
    15
100
AcDbLine
 10
2718.522955872697
 20
1830.935991888725
 30
0.0
 11
2011.416174686148
 21
1422.731935977371
 31
0.0
  0
LINE
  5
749
330
72D
100
AcDbEntity
  8
0
  6
Continuous
 62
     7
370
    15
100
AcDbLine
 10
2718.522955872697
 20
1830.119451076839
 30
0.0
 11
2718.522955872697
 21
1830.935991888725
 31
0.0
  0
LINE
  5
74A
330
72D
100
AcDbEntity
  8
0
  6
Continuous
 62
     7
370
    15
100
AcDbLine
 10
2718.522955872697
 20
1830.119451076839
 30
0.0
 11
2011.416174686148
 21
1421.915395165486
 31
0.0
  0
LINE
  5
74B
330
72D
100
AcDbEntity
  8
0
  6
Continuous
 62
     7
370
    15
100
AcDbLine
 10
2718.522955872697
 20
1830.935991888725
 30
0.0
 11
2716.543056885375
 21
1832.078963245277
 31
0.0
  0
LINE
  5
74C
330
72D
100
AcDbEntity
  8
0
  6
Continuous
 62
     7
370
    15
100
AcDbLine
 10
2009.436275698826
 20
1423.874907333923
 30
0.0
 11
2716.543056885375
 21
1832.078963245277
 31
0.0
  0
ARC
  5
74D
330
72D
100
AcDbEntity
  8
0
  6
Continuous
 62
     7
370
    15
100
AcDbCircle
 10
2715.752172737279
 20
1830.974983656657
 30
0.0
 40
1.358038536934919
100
AcDbArc
 50
54.38242252480598
 51
114.307119046098
  0
LINE
  5
74E
330
72D
100
AcDbEntity
  8
0
  6
Continuous
 62
     7
370
    15
100
AcDbLine
 10
2715.694528747951
 20
1822.525356126176
 30
0.0
 11
2715.694528747951
 21
1828.486634853194
 31
0.0
  0
LINE
  5
74F
330
72D
100
AcDbEntity
  8
0
  6
Continuous
 62
     7
370
    15
100
AcDbLine
 10
2008.587747561402
 20
1414.321300214822
 30
0.0
 11
2715.694528747951
 21
1822.525356126176
 31
0.0
  0
ARC
  5
750
330
72D
100
AcDbEntity
  8
0
  6
Continuous
 62
     7
370
    15
100
AcDbCircle
 10
2714.371523611742
 20
1822.379321935259
 30
0.0
 40
1.331040410864074
100
AcDbArc
 50
305.0133328713337
 51
6.298847522041009
  0
ARC
  5
751
330
72D
100
AcDbEntity
  8
0
  6
Continuous
 62
     7
370
    15
100
AcDbCircle
 10
2699.074903949148
 20
1820.075887379669
 30
0.0
 40
4.738875464828287
100
AcDbArc
 50
61.1644477318808
 51
118.0000499741735
  0
LINE
  5
752
330
72D
100
AcDbEntity
  8
0
  6
Continuous
 62
     7
370
    15
100
AcDbLine
 10
2688.576983689447
 20
1819.48407666956
 30
0.0
 11
2696.850133029329
 21
1824.260064123723
 31
0.0
  0
LWPOLYLINE
  5
753
330
72D
100
AcDbEntity
  8
0
  6
Continuous
 62
     7
370
    15
100
AcDbPolyline
 90
        6
 70
   128
 43
0.0
 10
2688.633949929569
 20
1816.880325557283
 10
2688.224041110674
 20
1817.155210213201
 10
2687.761703697374
 20
1817.727582772107
 10
2687.666356751196
 20
1818.356722802317
 10
2687.949500521019
 20
1818.966746731068
 10
2688.576983689447
 20
1819.48407666956
  0
LINE
  5
754
330
72D
100
AcDbEntity
  8
0
  6
Continuous
 62
     7
370
    15
100
AcDbLine
 10
2706.204842920791
 20
1827.023786171485
 30
0.0
 11
2698.511833965118
 21
1831.464865710559
 31
0.0
  0
LINE
  5
755
330
72D
100
AcDbEntity
  8
0
  6
Continuous
 62
     7
370
    15
100
AcDbLine
 10
2698.511833965118
 20
1831.464865710559
 30
0.0
 11
1991.405052778569
 21
1423.260809799205
 31
0.0
  0
LINE
  5
756
330
72D
100
AcDbEntity
  8
0
  6
Continuous
 62
     7
370
    15
100
AcDbLine
 10
2679.172463499666
 20
1814.05496272594
 30
0.0
 11
2670.899314159783
 21
1809.278975271777
 31
0.0
  0
LWPOLYLINE
  5
757
330
72D
100
AcDbEntity
  8
0
  6
Continuous
 62
     7
370
    15
100
AcDbPolyline
 90
        6
 70
   128
 43
0.0
 10
2670.899314159783
 20
1809.278975271777
 10
2670.271830991355
 20
1808.761645333284
 10
2669.988687221532
 20
1808.151621404533
 10
2670.084034167711
 20
1807.522481374323
 10
2670.54637158101
 20
1806.950108815417
 10
2670.956280399905
 20
1806.675224159499
  0
ARC
  5
758
330
72D
100
AcDbEntity
  8
0
  6
Continuous
 62
     7
370
    15
100
AcDbCircle
 10
2681.397081304883
 20
1809.849786243067
 30
0.0
 40
4.757355739420112
100
AcDbArc
 50
61.2848116089856
 51
117.8796860970697
  0
LINE
  5
759
330
72D
100
AcDbEntity
  8
0
  6
Continuous
 62
     7
370
    15
100
AcDbLine
 10
2661.494793970002
 20
1803.849861328156
 30
0.0
 11
2653.22164463012
 21
1799.073873873993
 31
0.0
  0
LWPOLYLINE
  5
75A
330
72D
100
AcDbEntity
  8
0
  6
Continuous
 62
     7
370
    15
100
AcDbPolyline
 90
        6
 70
   128
 43
0.0
 10
2653.22164463012
 20
1799.073873873993
 10
2652.594161461692
 20
1798.5565439355
 10
2652.311017691868
 20
1797.946520006749
 10
2652.406364638047
 20
1797.317379976539
 10
2652.868702051347
 20
1796.745007417633
 10
2653.278610870242
 20
1796.470122761715
  0
ARC
  5
75B
330
72D
100
AcDbEntity
  8
0
  6
Continuous
 62
     7
370
    15
100
AcDbCircle
 10
2663.719411775219
 20
1799.644684845283
 30
0.0
 40
4.757355739420376
100
AcDbArc
 50
61.2848116089856
 51
117.8796860970582
  0
LINE
  5
75C
330
72D
100
AcDbEntity
  8
0
  6
Continuous
 62
     7
370
    15
100
AcDbLine
 10
2643.817124440339
 20
1793.644759930372
 30
0.0
 11
2635.543975100456
 21
1788.868772476209
 31
0.0
  0
LWPOLYLINE
  5
75D
330
72D
100
AcDbEntity
  8
0
  6
Continuous
 62
     7
370
    15
100
AcDbPolyline
 90
        6
 70
   128
 43
0.0
 10
2635.543975100456
 20
1788.868772476209
 10
2634.916491932028
 20
1788.351442537717
 10
2634.633348162204
 20
1787.741418608965
 10
2634.728695108382
 20
1787.112278578755
 10
2635.191032521683
 20
1786.539906019849
 10
2635.600941340578
 20
1786.265021363931
  0
ARC
  5
75E
330
72D
100
AcDbEntity
  8
0
  6
Continuous
 62
     7
370
    15
100
AcDbCircle
 10
2646.041742245555
 20
1789.439583447499
 30
0.0
 40
4.757355739420521
100
AcDbArc
 50
61.2848116089856
 51
117.8796860970582
  0
LINE
  5
75F
330
72D
100
AcDbEntity
  8
0
  6
Continuous
 62
     7
370
    15
100
AcDbLine
 10
2626.139454910675
 20
1783.439658532588
 30
0.0
 11
2617.866305570792
 21
1778.663671078425
 31
0.0
  0
LWPOLYLINE
  5
760
330
72D
100
AcDbEntity
  8
0
  6
Continuous
 62
     7
370
    15
100
AcDbPolyline
 90
        6
 70
   128
 43
0.0
 10
2617.866305570792
 20
1778.663671078425
 10
2617.238822402365
 20
1778.146341139933
 10
2616.955678632541
 20
1777.536317211181
 10
2617.051025578719
 20
1776.907177180971
 10
2617.513362992019
 20
1776.334804622065
 10
2617.923271810914
 20
1776.059919966147
  0
ARC
  5
761
330
72D
100
AcDbEntity
  8
0
  6
Continuous
 62
     7
370
    15
100
AcDbCircle
 10
2628.364072715891
 20
1779.234482049715
 30
0.0
 40
4.757355739420365
100
AcDbArc
 50
61.2848116089856
 51
117.8796860970582
  0
LINE
  5
762
330
72D
100
AcDbEntity
  8
0
  6
Continuous
 62
     7
370
    15
100
AcDbLine
 10
2608.461785381011
 20
1773.234557134804
 30
0.0
 11
2600.188636041128
 21
1768.458569680641
 31
0.0
  0
LWPOLYLINE
  5
763
330
72D
100
AcDbEntity
  8
0
  6
Continuous
 62
     7
370
    15
100
AcDbPolyline
 90
        6
 70
   128
 43
0.0
 10
2600.188636041128
 20
1768.458569680641
 10
2599.561152872701
 20
1767.941239742149
 10
2599.278009102877
 20
1767.331215813397
 10
2599.373356049055
 20
1766.702075783188
 10
2599.835693462356
 20
1766.129703224282
 10
2600.24560228125
 20
1765.854818568363
  0
ARC
  5
764
330
72D
100
AcDbEntity
  8
0
  6
Continuous
 62
     7
370
    15
100
AcDbCircle
 10
2610.686403186228
 20
1769.029380651931
 30
0.0
 40
4.757355739420411
100
AcDbArc
 50
61.2848116089856
 51
117.8796860970582
  0
LINE
  5
765
330
72D
100
AcDbEntity
  8
0
  6
Continuous
 62
     7
370
    15
100
AcDbLine
 10
2590.784115851347
 20
1763.02945573702
 30
0.0
 11
2582.510966511465
 21
1758.253468282857
 31
0.0
  0
LWPOLYLINE
  5
766
330
72D
100
AcDbEntity
  8
0
  6
Continuous
 62
     7
370
    15
100
AcDbPolyline
 90
        6
 70
   128
 43
0.0
 10
2582.510966511465
 20
1758.253468282857
 10
2581.883483343037
 20
1757.736138344365
 10
2581.600339573213
 20
1757.126114415613
 10
2581.695686519392
 20
1756.496974385404
 10
2582.158023932692
 20
1755.924601826498
 10
2582.567932751587
 20
1755.64971717058
  0
ARC
  5
767
330
72D
100
AcDbEntity
  8
0
  6
Continuous
 62
     7
370
    15
100
AcDbCircle
 10
2593.008733656564
 20
1758.824279254147
 30
0.0
 40
4.757355739420169
100
AcDbArc
 50
61.2848116089856
 51
117.8796860970697
  0
LINE
  5
768
330
72D
100
AcDbEntity
  8
0
  6
Continuous
 62
     7
370
    15
100
AcDbLine
 10
2573.106446321684
 20
1752.824354339237
 30
0.0
 11
2564.833296981801
 21
1748.048366885074
 31
0.0
  0
LWPOLYLINE
  5
769
330
72D
100
AcDbEntity
  8
0
  6
Continuous
 62
     7
370
    15
100
AcDbPolyline
 90
        6
 70
   128
 43
0.0
 10
2564.833296981801
 20
1748.048366885074
 10
2564.205813813373
 20
1747.531036946582
 10
2563.922670043549
 20
1746.92101301783
 10
2564.018016989728
 20
1746.29187298762
 10
2564.480354403028
 20
1745.719500428714
 10
2564.890263221923
 20
1745.444615772796
  0
ARC
  5
76A
330
72D
100
AcDbEntity
  8
0
  6
Continuous
 62
     7
370
    15
100
AcDbCircle
 10
2575.3310641269
 20
1748.619177856363
 30
0.0
 40
4.757355739420674
100
AcDbArc
 50
61.2848116089856
 51
117.8796860970697
  0
LINE
  5
76B
330
72D
100
AcDbEntity
  8
0
  6
Continuous
 62
     7
370
    15
100
AcDbLine
 10
2555.42877679202
 20
1742.619252941453
 30
0.0
 11
2547.155627452137
 21
1737.84326548729
 31
0.0
  0
LWPOLYLINE
  5
76C
330
72D
100
AcDbEntity
  8
0
  6
Continuous
 62
     7
370
    15
100
AcDbPolyline
 90
        6
 70
   128
 43
0.0
 10
2547.155627452137
 20
1737.84326548729
 10
2546.52814428371
 20
1737.325935548797
 10
2546.245000513886
 20
1736.715911620046
 10
2546.340347460064
 20
1736.086771589836
 10
2546.802684873365
 20
1735.51439903093
 10
2547.21259369226
 20
1735.239514375012
  0
ARC
  5
76D
330
72D
100
AcDbEntity
  8
0
  6
Continuous
 62
     7
370
    15
100
AcDbCircle
 10
2557.653394597237
 20
1738.41407645858
 30
0.0
 40
4.757355739420265
100
AcDbArc
 50
61.2848116089856
 51
117.8796860970582
  0
LINE
  5
76E
330
72D
100
AcDbEntity
  8
0
  6
Continuous
 62
     7
370
    15
100
AcDbLine
 10
2537.751107262356
 20
1732.414151543669
 30
0.0
 11
2529.477957922474
 21
1727.638164089506
 31
0.0
  0
LWPOLYLINE
  5
76F
330
72D
100
AcDbEntity
  8
0
  6
Continuous
 62
     7
370
    15
100
AcDbPolyline
 90
        6
 70
   128
 43
0.0
 10
2529.477957922474
 20
1727.638164089506
 10
2528.850474754046
 20
1727.120834151014
 10
2528.567330984222
 20
1726.510810222262
 10
2528.662677930401
 20
1725.881670192052
 10
2529.125015343701
 20
1725.309297633146
 10
2529.534924162596
 20
1725.034412977228
  0
ARC
  5
770
330
72D
100
AcDbEntity
  8
0
  6
Continuous
 62
     7
370
    15
100
AcDbCircle
 10
2539.975725067573
 20
1728.208975060796
 30
0.0
 40
4.757355739419889
100
AcDbArc
 50
61.2848116089856
 51
117.8796860970697
  0
LINE
  5
771
330
72D
100
AcDbEntity
  8
0
  6
Continuous
 62
     7
370
    15
100
AcDbLine
 10
2520.073437732692
 20
1722.209050145885
 30
0.0
 11
2511.80028839281
 21
1717.433062691722
 31
0.0
  0
LWPOLYLINE
  5
772
330
72D
100
AcDbEntity
  8
0
  6
Continuous
 62
     7
370
    15
100
AcDbPolyline
 90
        6
 70
   128
 43
0.0
 10
2511.80028839281
 20
1717.433062691722
 10
2511.172805224382
 20
1716.91573275323
 10
2510.889661454559
 20
1716.305708824478
 10
2510.985008400737
 20
1715.676568794268
 10
2511.447345814037
 20
1715.104196235362
 10
2511.857254632932
 20
1714.829311579444
  0
ARC
  5
773
330
72D
100
AcDbEntity
  8
0
  6
Continuous
 62
     7
370
    15
100
AcDbCircle
 10
2522.298055537909
 20
1718.003873663012
 30
0.0
 40
4.757355739420139
100
AcDbArc
 50
61.2848116089856
 51
117.8796860970697
  0
LINE
  5
774
330
72D
100
AcDbEntity
  8
0
  6
Continuous
 62
     7
370
    15
100
AcDbLine
 10
2502.395768203029
 20
1712.003948748101
 30
0.0
 11
2494.122618863146
 21
1707.227961293938
 31
0.0
  0
LWPOLYLINE
  5
775
330
72D
100
AcDbEntity
  8
0
  6
Continuous
 62
     7
370
    15
100
AcDbPolyline
 90
        6
 70
   128
 43
0.0
 10
2494.122618863146
 20
1707.227961293938
 10
2493.495135694718
 20
1706.710631355446
 10
2493.211991924895
 20
1706.100607426694
 10
2493.307338871073
 20
1705.471467396485
 10
2493.769676284374
 20
1704.899094837578
 10
2494.179585103268
 20
1704.62421018166
  0
ARC
  5
776
330
72D
100
AcDbEntity
  8
0
  6
Continuous
 62
     7
370
    15
100
AcDbCircle
 10
2504.620386008245
 20
1707.798772265228
 30
0.0
 40
4.757355739419993
100
AcDbArc
 50
61.2848116089856
 51
117.8796860970697
  0
LINE
  5
777
330
72D
100
AcDbEntity
  8
0
  6
Continuous
 62
     7
370
    15
100
AcDbLine
 10
2484.718098673365
 20
1701.798847350317
 30
0.0
 11
2476.444949333482
 21
1697.022859896154
 31
0.0
  0
LWPOLYLINE
  5
778
330
72D
100
AcDbEntity
  8
0
  6
Continuous
 62
     7
370
    15
100
AcDbPolyline
 90
        6
 70
   128
 43
0.0
 10
2476.444949333482
 20
1697.022859896154
 10
2475.817466165054
 20
1696.505529957662
 10
2475.534322395231
 20
1695.89550602891
 10
2475.629669341409
 20
1695.266365998701
 10
2476.09200675471
 20
1694.693993439795
 10
2476.501915573604
 20
1694.419108783877
  0
ARC
  5
779
330
72D
100
AcDbEntity
  8
0
  6
Continuous
 62
     7
370
    15
100
AcDbCircle
 10
2486.942716478582
 20
1697.593670867443
 30
0.0
 40
4.757355739421132
100
AcDbArc
 50
61.28481160900015
 51
117.8796860970582
  0
LINE
  5
77A
330
72D
100
AcDbEntity
  8
0
  6
Continuous
 62
     7
370
    15
100
AcDbLine
 10
2467.040429143701
 20
1691.593745952533
 30
0.0
 11
2458.767279803819
 21
1686.817758498371
 31
0.0
  0
LWPOLYLINE
  5
77B
330
72D
100
AcDbEntity
  8
0
  6
Continuous
 62
     7
370
    15
100
AcDbPolyline
 90
        6
 70
   128
 43
0.0
 10
2458.767279803819
 20
1686.817758498371
 10
2458.139796635391
 20
1686.300428559878
 10
2457.856652865567
 20
1685.690404631126
 10
2457.951999811746
 20
1685.061264600917
 10
2458.414337225045
 20
1684.488892042011
 10
2458.824246043941
 20
1684.214007386093
  0
ARC
  5
77C
330
72D
100
AcDbEntity
  8
0
  6
Continuous
 62
     7
370
    15
100
AcDbCircle
 10
2469.265046948918
 20
1687.38856946966
 30
0.0
 40
4.75735573942106
100
AcDbArc
 50
61.28481160900015
 51
117.8796860970582
  0
LINE
  5
77D
330
72D
100
AcDbEntity
  8
0
  6
Continuous
 62
     7
370
    15
100
AcDbLine
 10
2449.362759614038
 20
1681.388644554749
 30
0.0
 11
2441.089610274155
 21
1676.612657100587
 31
0.0
  0
LWPOLYLINE
  5
77E
330
72D
100
AcDbEntity
  8
0
  6
Continuous
 62
     7
370
    15
100
AcDbPolyline
 90
        6
 70
   128
 43
0.0
 10
2441.089610274155
 20
1676.612657100587
 10
2440.462127105727
 20
1676.095327162095
 10
2440.178983335904
 20
1675.485303233342
 10
2440.274330282082
 20
1674.856163203133
 10
2440.736667695382
 20
1674.283790644227
 10
2441.146576514277
 20
1674.008905988309
  0
ARC
  5
77F
330
72D
100
AcDbEntity
  8
0
  6
Continuous
 62
     7
370
    15
100
AcDbCircle
 10
2451.587377419254
 20
1677.183468071875
 30
0.0
 40
4.757355739421186
100
AcDbArc
 50
61.28481160900015
 51
117.8796860970582
  0
LINE
  5
780
330
72D
100
AcDbEntity
  8
0
  6
Continuous
 62
     7
370
    15
100
AcDbLine
 10
2431.685090084374
 20
1671.183543156965
 30
0.0
 11
2423.411940744491
 21
1666.407555702803
 31
0.0
  0
LWPOLYLINE
  5
781
330
72D
100
AcDbEntity
  8
0
  6
Continuous
 62
     7
370
    15
100
AcDbPolyline
 90
        6
 70
   128
 43
0.0
 10
2423.411940744491
 20
1666.407555702803
 10
2422.784457576063
 20
1665.890225764311
 10
2422.50131380624
 20
1665.280201835559
 10
2422.596660752418
 20
1664.651061805349
 10
2423.058998165719
 20
1664.078689246443
 10
2423.468906984613
 20
1663.803804590525
  0
ARC
  5
782
330
72D
100
AcDbEntity
  8
0
  6
Continuous
 62
     7
370
    15
100
AcDbCircle
 10
2433.90970788959
 20
1666.978366674093
 30
0.0
 40
4.757355739419926
100
AcDbArc
 50
61.2848116089856
 51
117.8796860970697
  0
LINE
  5
783
330
72D
100
AcDbEntity
  8
0
  6
Continuous
 62
     7
370
    15
100
AcDbLine
 10
2414.00742055471
 20
1660.978441759182
 30
0.0
 11
2405.734271214828
 21
1656.202454305019
 31
0.0
  0
LWPOLYLINE
  5
784
330
72D
100
AcDbEntity
  8
0
  6
Continuous
 62
     7
370
    15
100
AcDbPolyline
 90
        6
 70
   128
 43
0.0
 10
2405.734271214828
 20
1656.202454305019
 10
2405.1067880464
 20
1655.685124366527
 10
2404.823644276576
 20
1655.075100437775
 10
2404.918991222754
 20
1654.445960407565
 10
2405.381328636055
 20
1653.873587848659
 10
2405.791237454949
 20
1653.598703192741
  0
ARC
  5
785
330
72D
100
AcDbEntity
  8
0
  6
Continuous
 62
     7
370
    15
100
AcDbCircle
 10
2416.232038359927
 20
1656.773265276309
 30
0.0
 40
4.75735573942015
100
AcDbArc
 50
61.2848116089856
 51
117.8796860970582
  0
LINE
  5
786
330
72D
100
AcDbEntity
  8
0
  6
Continuous
 62
     7
370
    15
100
AcDbLine
 10
2396.329751025046
 20
1650.773340361398
 30
0.0
 11
2388.056601685164
 21
1645.997352907235
 31
0.0
  0
LWPOLYLINE
  5
787
330
72D
100
AcDbEntity
  8
0
  6
Continuous
 62
     7
370
    15
100
AcDbPolyline
 90
        6
 70
   128
 43
0.0
 10
2388.056601685164
 20
1645.997352907235
 10
2387.429118516736
 20
1645.480022968743
 10
2387.145974746912
 20
1644.869999039991
 10
2387.241321693091
 20
1644.240859009781
 10
2387.703659106391
 20
1643.668486450875
 10
2388.113567925286
 20
1643.393601794957
  0
ARC
  5
788
330
72D
100
AcDbEntity
  8
0
  6
Continuous
 62
     7
370
    15
100
AcDbCircle
 10
2398.554368830263
 20
1646.568163878525
 30
0.0
 40
4.757355739420124
100
AcDbArc
 50
61.2848116089856
 51
117.8796860970697
  0
LINE
  5
789
330
72D
100
AcDbEntity
  8
0
  6
Continuous
 62
     7
370
    15
100
AcDbLine
 10
2378.652081495383
 20
1640.568238963614
 30
0.0
 11
2370.378932155499
 21
1635.792251509451
 31
0.0
  0
LWPOLYLINE
  5
78A
330
72D
100
AcDbEntity
  8
0
  6
Continuous
 62
     7
370
    15
100
AcDbPolyline
 90
        6
 70
   128
 43
0.0
 10
2370.378932155499
 20
1635.792251509451
 10
2369.751448987072
 20
1635.274921570959
 10
2369.468305217249
 20
1634.664897642207
 10
2369.563652163427
 20
1634.035757611998
 10
2370.025989576727
 20
1633.463385053091
 10
2370.435898395622
 20
1633.188500397173
  0
ARC
  5
78B
330
72D
100
AcDbEntity
  8
0
  6
Continuous
 62
     7
370
    15
100
AcDbCircle
 10
2380.876699300599
 20
1636.363062480741
 30
0.0
 40
4.757355739420024
100
AcDbArc
 50
61.2848116089856
 51
117.8796860970697
  0
LINE
  5
78C
330
72D
100
AcDbEntity
  8
0
  6
Continuous
 62
     7
370
    15
100
AcDbLine
 10
2360.974411965719
 20
1630.36313756583
 30
0.0
 11
2352.701262625836
 21
1625.587150111667
 31
0.0
  0
LWPOLYLINE
  5
78D
330
72D
100
AcDbEntity
  8
0
  6
Continuous
 62
     7
370
    15
100
AcDbPolyline
 90
        6
 70
   128
 43
0.0
 10
2352.701262625836
 20
1625.587150111667
 10
2352.073779457409
 20
1625.069820173175
 10
2351.790635687585
 20
1624.459796244423
 10
2351.885982633763
 20
1623.830656214214
 10
2352.348320047064
 20
1623.258283655308
 10
2352.758228865958
 20
1622.983398999389
  0
ARC
  5
78E
330
72D
100
AcDbEntity
  8
0
  6
Continuous
 62
     7
370
    15
100
AcDbCircle
 10
2363.199029770935
 20
1626.157961082956
 30
0.0
 40
4.757355739421132
100
AcDbArc
 50
61.28481160900015
 51
117.8796860970582
  0
LINE
  5
78F
330
72D
100
AcDbEntity
  8
0
  6
Continuous
 62
     7
370
    15
100
AcDbLine
 10
2343.296742436055
 20
1620.158036168047
 30
0.0
 11
2335.023593096173
 21
1615.382048713884
 31
0.0
  0
LWPOLYLINE
  5
790
330
72D
100
AcDbEntity
  8
0
  6
Continuous
 62
     7
370
    15
100
AcDbPolyline
 90
        6
 70
   128
 43
0.0
 10
2335.023593096173
 20
1615.382048713884
 10
2334.396109927745
 20
1614.864718775391
 10
2334.112966157921
 20
1614.254694846639
 10
2334.208313104099
 20
1613.62555481643
 10
2334.6706505174
 20
1613.053182257524
 10
2335.080559336295
 20
1612.778297601606
  0
ARC
  5
791
330
72D
100
AcDbEntity
  8
0
  6
Continuous
 62
     7
370
    15
100
AcDbCircle
 10
2345.521360241272
 20
1615.952859685173
 30
0.0
 40
4.7573557394203
100
AcDbArc
 50
61.2848116089856
 51
117.8796860970582
  0
LINE
  5
792
330
72D
100
AcDbEntity
  8
0
  6
Continuous
 62
     7
370
    15
100
AcDbLine
 10
2325.619072906391
 20
1609.952934770262
 30
0.0
 11
2317.345923566509
 21
1605.1769473161
 31
0.0
  0
LWPOLYLINE
  5
793
330
72D
100
AcDbEntity
  8
0
  6
Continuous
 62
     7
370
    15
100
AcDbPolyline
 90
        6
 70
   128
 43
0.0
 10
2317.345923566509
 20
1605.1769473161
 10
2316.718440398081
 20
1604.659617377607
 10
2316.435296628257
 20
1604.049593448856
 10
2316.530643574436
 20
1603.420453418646
 10
2316.992980987736
 20
1602.84808085974
 10
2317.402889806631
 20
1602.573196203822
  0
ARC
  5
794
330
72D
100
AcDbEntity
  8
0
  6
Continuous
 62
     7
370
    15
100
AcDbCircle
 10
2327.843690711608
 20
1605.747758287388
 30
0.0
 40
4.757355739421879
100
AcDbArc
 50
61.28481160900015
 51
117.8796860970551
  0
LINE
  5
795
330
72D
100
AcDbEntity
  8
0
  6
Continuous
 62
     7
370
    15
100
AcDbLine
 10
2307.941403376728
 20
1599.747833372479
 30
0.0
 11
2299.668254036845
 21
1594.971845918316
 31
0.0
  0
LWPOLYLINE
  5
796
330
72D
100
AcDbEntity
  8
0
  6
Continuous
 62
     7
370
    15
100
AcDbPolyline
 90
        6
 70
   128
 43
0.0
 10
2299.668254036845
 20
1594.971845918316
 10
2299.040770868417
 20
1594.454515979824
 10
2298.757627098594
 20
1593.844492051072
 10
2298.852974044772
 20
1593.215352020862
 10
2299.315311458073
 20
1592.642979461956
 10
2299.725220276967
 20
1592.368094806038
  0
ARC
  5
797
330
72D
100
AcDbEntity
  8
0
  6
Continuous
 62
     7
370
    15
100
AcDbCircle
 10
2310.166021181945
 20
1595.542656889606
 30
0.0
 40
4.757355739420249
100
AcDbArc
 50
61.2848116089856
 51
117.8796860970582
  0
LINE
  5
798
330
72D
100
AcDbEntity
  8
0
  6
Continuous
 62
     7
370
    15
100
AcDbLine
 10
2290.263733847064
 20
1589.542731974695
 30
0.0
 11
2281.990584507181
 21
1584.766744520532
 31
0.0
  0
LWPOLYLINE
  5
799
330
72D
100
AcDbEntity
  8
0
  6
Continuous
 62
     7
370
    15
100
AcDbPolyline
 90
        6
 70
   128
 43
0.0
 10
2281.990584507181
 20
1584.766744520532
 10
2281.363101338754
 20
1584.24941458204
 10
2281.07995756893
 20
1583.639390653288
 10
2281.175304515108
 20
1583.010250623078
 10
2281.637641928409
 20
1582.437878064173
 10
2282.047550747304
 20
1582.162993408254
  0
ARC
  5
79A
330
72D
100
AcDbEntity
  8
0
  6
Continuous
 62
     7
370
    15
100
AcDbCircle
 10
2292.488351652281
 20
1585.337555491821
 30
0.0
 40
4.757355739421222
100
AcDbArc
 50
61.28481160900015
 51
117.8796860970551
  0
LINE
  5
79B
330
72D
100
AcDbEntity
  8
0
  6
Continuous
 62
     7
370
    15
100
AcDbLine
 10
2272.5860643174
 20
1579.337630576911
 30
0.0
 11
2264.312914977518
 21
1574.561643122748
 31
0.0
  0
LWPOLYLINE
  5
79C
330
72D
100
AcDbEntity
  8
0
  6
Continuous
 62
     7
370
    15
100
AcDbPolyline
 90
        6
 70
   128
 43
0.0
 10
2264.312914977518
 20
1574.561643122748
 10
2263.68543180909
 20
1574.044313184256
 10
2263.402288039266
 20
1573.434289255504
 10
2263.497634985445
 20
1572.805149225295
 10
2263.959972398745
 20
1572.232776666388
 10
2264.36988121764
 20
1571.95789201047
  0
ARC
  5
79D
330
72D
100
AcDbEntity
  8
0
  6
Continuous
 62
     7
370
    15
100
AcDbCircle
 10
2274.810682122617
 20
1575.132454094039
 30
0.0
 40
4.757355739419597
100
AcDbArc
 50
61.2848116089856
 51
117.8796860970697
  0
LINE
  5
79E
330
72D
100
AcDbEntity
  8
0
  6
Continuous
 62
     7
370
    15
100
AcDbLine
 10
2254.908394787737
 20
1569.132529179127
 30
0.0
 11
2246.635245447854
 21
1564.356541724964
 31
0.0
  0
LWPOLYLINE
  5
79F
330
72D
100
AcDbEntity
  8
0
  6
Continuous
 62
     7
370
    15
100
AcDbPolyline
 90
        6
 70
   128
 43
0.0
 10
2246.635245447854
 20
1564.356541724964
 10
2246.007762279426
 20
1563.839211786472
 10
2245.724618509603
 20
1563.22918785772
 10
2245.819965455781
 20
1562.600047827511
 10
2246.282302869081
 20
1562.027675268605
 10
2246.692211687976
 20
1561.752790612686
  0
ARC
  5
7A0
330
72D
100
AcDbEntity
  8
0
  6
Continuous
 62
     7
370
    15
100
AcDbCircle
 10
2257.133012592953
 20
1564.927352696255
 30
0.0
 40
4.757355739419826
100
AcDbArc
 50
61.2848116089856
 51
117.8796860970697
  0
LINE
  5
7A1
330
72D
100
AcDbEntity
  8
0
  6
Continuous
 62
     7
370
    15
100
AcDbLine
 10
2237.230725258072
 20
1558.927427781343
 30
0.0
 11
2228.95757591819
 21
1554.151440327181
 31
0.0
  0
LWPOLYLINE
  5
7A2
330
72D
100
AcDbEntity
  8
0
  6
Continuous
 62
     7
370
    15
100
AcDbPolyline
 90
        6
 70
   128
 43
0.0
 10
2228.95757591819
 20
1554.151440327181
 10
2228.330092749762
 20
1553.634110388688
 10
2228.046948979939
 20
1553.024086459936
 10
2228.142295926117
 20
1552.394946429727
 10
2228.604633339418
 20
1551.822573870821
 10
2229.014542158312
 20
1551.547689214902
  0
ARC
  5
7A3
330
72D
100
AcDbEntity
  8
0
  6
Continuous
 62
     7
370
    15
100
AcDbCircle
 10
2239.45534306329
 20
1554.72225129847
 30
0.0
 40
4.75735573942073
100
AcDbArc
 50
61.2848116089856
 51
117.8796860970582
  0
LINE
  5
7A4
330
72D
100
AcDbEntity
  8
0
  6
Continuous
 62
     7
370
    15
100
AcDbLine
 10
2219.553055728409
 20
1548.72232638356
 30
0.0
 11
2211.279906388526
 21
1543.946338929397
 31
0.0
  0
LWPOLYLINE
  5
7A5
330
72D
100
AcDbEntity
  8
0
  6
Continuous
 62
     7
370
    15
100
AcDbPolyline
 90
        6
 70
   128
 43
0.0
 10
2211.279906388526
 20
1543.946338929397
 10
2210.652423220099
 20
1543.429008990904
 10
2210.369279450275
 20
1542.818985062153
 10
2210.464626396453
 20
1542.189845031943
 10
2210.926963809754
 20
1541.617472473037
 10
2211.336872628649
 20
1541.342587817119
  0
ARC
  5
7A6
330
72D
100
AcDbEntity
  8
0
  6
Continuous
 62
     7
370
    15
100
AcDbCircle
 10
2221.777673533626
 20
1544.517149900686
 30
0.0
 40
4.757355739420878
100
AcDbArc
 50
61.2848116089856
 51
117.8796860970582
  0
LINE
  5
7A7
330
72D
100
AcDbEntity
  8
0
  6
Continuous
 62
     7
370
    15
100
AcDbLine
 10
2201.875386198745
 20
1538.517224985776
 30
0.0
 11
2193.602236858863
 21
1533.741237531613
 31
0.0
  0
LWPOLYLINE
  5
7A8
330
72D
100
AcDbEntity
  8
0
  6
Continuous
 62
     7
370
    15
100
AcDbPolyline
 90
        6
 70
   128
 43
0.0
 10
2193.602236858863
 20
1533.741237531613
 10
2192.974753690435
 20
1533.223907593121
 10
2192.691609920611
 20
1532.613883664369
 10
2192.78695686679
 20
1531.984743634159
 10
2193.24929428009
 20
1531.412371075253
 10
2193.659203098985
 20
1531.137486419335
  0
ARC
  5
7A9
330
72D
100
AcDbEntity
  8
0
  6
Continuous
 62
     7
370
    15
100
AcDbCircle
 10
2204.100004003961
 20
1534.312048502902
 30
0.0
 40
4.757355739420624
100
AcDbArc
 50
61.2848116089856
 51
117.8796860970582
  0
LINE
  5
7AA
330
72D
100
AcDbEntity
  8
0
  6
Continuous
 62
     7
370
    15
100
AcDbLine
 10
2184.197716669082
 20
1528.312123587992
 30
0.0
 11
2175.924567329199
 21
1523.536136133829
 31
0.0
  0
LWPOLYLINE
  5
7AB
330
72D
100
AcDbEntity
  8
0
  6
Continuous
 62
     7
370
    15
100
AcDbPolyline
 90
        6
 70
   128
 43
0.0
 10
2175.924567329199
 20
1523.536136133829
 10
2175.297084160771
 20
1523.018806195337
 10
2175.013940390948
 20
1522.408782266585
 10
2175.109287337126
 20
1521.779642236375
 10
2175.571624750426
 20
1521.207269677469
 10
2175.981533569321
 20
1520.932385021551
  0
ARC
  5
7AC
330
72D
100
AcDbEntity
  8
0
  6
Continuous
 62
     7
370
    15
100
AcDbCircle
 10
2186.422334474298
 20
1524.106947105119
 30
0.0
 40
4.757355739420175
100
AcDbArc
 50
61.2848116089856
 51
117.8796860970582
  0
LINE
  5
7AD
330
72D
100
AcDbEntity
  8
0
  6
Continuous
 62
     7
370
    15
100
AcDbLine
 10
2166.520047139418
 20
1518.107022190208
 30
0.0
 11
2158.246897799536
 21
1513.331034736045
 31
0.0
  0
LWPOLYLINE
  5
7AE
330
72D
100
AcDbEntity
  8
0
  6
Continuous
 62
     7
370
    15
100
AcDbPolyline
 90
        6
 70
   128
 43
0.0
 10
2158.246897799536
 20
1513.331034736045
 10
2157.619414631108
 20
1512.813704797553
 10
2157.336270861284
 20
1512.203680868801
 10
2157.431617807462
 20
1511.574540838592
 10
2157.893955220762
 20
1511.002168279685
 10
2158.303864039657
 20
1510.727283623767
  0
ARC
  5
7AF
330
72D
100
AcDbEntity
  8
0
  6
Continuous
 62
     7
370
    15
100
AcDbCircle
 10
2168.744664944634
 20
1513.901845707336
 30
0.0
 40
4.757355739419652
100
AcDbArc
 50
61.2848116089856
 51
117.8796860970697
  0
LINE
  5
7B0
330
72D
100
AcDbEntity
  8
0
  6
Continuous
 62
     7
370
    15
100
AcDbLine
 10
2148.842377609755
 20
1507.901920792424
 30
0.0
 11
2140.569228269872
 21
1503.125933338261
 31
0.0
  0
LWPOLYLINE
  5
7B1
330
72D
100
AcDbEntity
  8
0
  6
Continuous
 62
     7
370
    15
100
AcDbPolyline
 90
        6
 70
   128
 43
0.0
 10
2140.569228269872
 20
1503.125933338261
 10
2139.941745101443
 20
1502.608603399769
 10
2139.65860133162
 20
1501.998579471017
 10
2139.753948277798
 20
1501.369439440808
 10
2140.216285691099
 20
1500.797066881902
 10
2140.626194509994
 20
1500.522182225983
  0
ARC
  5
7B2
330
72D
100
AcDbEntity
  8
0
  6
Continuous
 62
     7
370
    15
100
AcDbCircle
 10
2151.066995414971
 20
1503.696744309552
 30
0.0
 40
4.757355739419572
100
AcDbArc
 50
61.2848116089856
 51
117.8796860970697
  0
LINE
  5
7B3
330
72D
100
AcDbEntity
  8
0
  6
Continuous
 62
     7
370
    15
100
AcDbLine
 10
2131.16470808009
 20
1497.69681939464
 30
0.0
 11
2122.891558740208
 21
1492.920831940478
 31
0.0
  0
LWPOLYLINE
  5
7B4
330
72D
100
AcDbEntity
  8
0
  6
Continuous
 62
     7
370
    15
100
AcDbPolyline
 90
        6
 70
   128
 43
0.0
 10
2122.891558740208
 20
1492.920831940478
 10
2122.26407557178
 20
1492.403502001985
 10
2121.980931801957
 20
1491.793478073233
 10
2122.076278748135
 20
1491.164338043024
 10
2122.538616161435
 20
1490.591965484118
 10
2122.94852498033
 20
1490.3170808282
  0
ARC
  5
7B5
330
72D
100
AcDbEntity
  8
0
  6
Continuous
 62
     7
370
    15
100
AcDbCircle
 10
2133.389325885307
 20
1493.491642911768
 30
0.0
 40
4.757355739419647
100
AcDbArc
 50
61.2848116089856
 51
117.8796860970697
  0
LINE
  5
7B6
330
72D
100
AcDbEntity
  8
0
  6
Continuous
 62
     7
370
    15
100
AcDbLine
 10
2113.487038550427
 20
1487.491717996856
 30
0.0
 11
2105.213889210544
 21
1482.715730542694
 31
0.0
  0
LWPOLYLINE
  5
7B7
330
72D
100
AcDbEntity
  8
0
  6
Continuous
 62
     7
370
    15
100
AcDbPolyline
 90
        6
 70
   128
 43
0.0
 10
2105.213889210544
 20
1482.715730542694
 10
2104.586406042116
 20
1482.198400604201
 10
2104.303262272293
 20
1481.588376675449
 10
2104.398609218471
 20
1480.95923664524
 10
2104.860946631771
 20
1480.386864086334
 10
2105.270855450666
 20
1480.111979430416
  0
ARC
  5
7B8
330
72D
100
AcDbEntity
  8
0
  6
Continuous
 62
     7
370
    15
100
AcDbCircle
 10
2115.711656355643
 20
1483.286541513984
 30
0.0
 40
4.757355739420102
100
AcDbArc
 50
61.2848116089856
 51
117.8796860970697
  0
LINE
  5
7B9
330
72D
100
AcDbEntity
  8
0
  6
Continuous
 62
     7
370
    15
100
AcDbLine
 10
2095.809369020763
 20
1477.286616599073
 30
0.0
 11
2087.536219680881
 21
1472.51062914491
 31
0.0
  0
LWPOLYLINE
  5
7BA
330
72D
100
AcDbEntity
  8
0
  6
Continuous
 62
     7
370
    15
100
AcDbPolyline
 90
        6
 70
   128
 43
0.0
 10
2087.536219680881
 20
1472.51062914491
 10
2086.908736512453
 20
1471.993299206418
 10
2086.625592742629
 20
1471.383275277666
 10
2086.720939688808
 20
1470.754135247456
 10
2087.183277102107
 20
1470.18176268855
 10
2087.593185921003
 20
1469.906878032632
  0
ARC
  5
7BB
330
72D
100
AcDbEntity
  8
0
  6
Continuous
 62
     7
370
    15
100
AcDbCircle
 10
2098.03398682598
 20
1473.081440116201
 30
0.0
 40
4.757355739419593
100
AcDbArc
 50
61.2848116089856
 51
117.8796860970697
  0
LINE
  5
7BC
330
72D
100
AcDbEntity
  8
0
  6
Continuous
 62
     7
370
    15
100
AcDbLine
 10
2078.1316994911
 20
1467.081515201289
 30
0.0
 11
2069.858550151217
 21
1462.305527747126
 31
0.0
  0
LWPOLYLINE
  5
7BD
330
72D
100
AcDbEntity
  8
0
  6
Continuous
 62
     7
370
    15
100
AcDbPolyline
 90
        6
 70
   128
 43
0.0
 10
2069.858550151217
 20
1462.305527747126
 10
2069.231066982789
 20
1461.788197808634
 10
2068.947923212965
 20
1461.178173879882
 10
2069.043270159144
 20
1460.549033849672
 10
2069.505607572444
 20
1459.976661290766
 10
2069.915516391338
 20
1459.701776634848
  0
ARC
  5
7BE
330
72D
100
AcDbEntity
  8
0
  6
Continuous
 62
     7
370
    15
100
AcDbCircle
 10
2080.356317296316
 20
1462.876338718416
 30
0.0
 40
4.757355739419801
100
AcDbArc
 50
61.2848116089856
 51
117.8796860970697
  0
LINE
  5
7BF
330
72D
100
AcDbEntity
  8
0
  6
Continuous
 62
     7
370
    15
100
AcDbLine
 10
2060.454029961436
 20
1456.876413803505
 30
0.0
 11
2052.180880621553
 21
1452.100426349342
 31
0.0
  0
LWPOLYLINE
  5
7C0
330
72D
100
AcDbEntity
  8
0
  6
Continuous
 62
     7
370
    15
100
AcDbPolyline
 90
        6
 70
   128
 43
0.0
 10
2052.180880621553
 20
1452.100426349342
 10
2051.553397453126
 20
1451.58309641085
 10
2051.270253683302
 20
1450.973072482098
 10
2051.36560062948
 20
1450.343932451889
 10
2051.82793804278
 20
1449.771559892982
 10
2052.237846861675
 20
1449.496675237064
  0
ARC
  5
7C1
330
72D
100
AcDbEntity
  8
0
  6
Continuous
 62
     7
370
    15
100
AcDbCircle
 10
2062.678647766652
 20
1452.671237320632
 30
0.0
 40
4.757355739420702
100
AcDbArc
 50
61.28481160900015
 51
117.8796860970582
  0
LINE
  5
7C2
330
72D
100
AcDbEntity
  8
0
  6
Continuous
 62
     7
370
    15
100
AcDbLine
 10
2042.776360431772
 20
1446.671312405721
 30
0.0
 11
2034.503211091889
 21
1441.895324951558
 31
0.0
  0
LWPOLYLINE
  5
7C3
330
72D
100
AcDbEntity
  8
0
  6
Continuous
 62
     7
370
    15
100
AcDbPolyline
 90
        6
 70
   128
 43
0.0
 10
2034.503211091889
 20
1441.895324951558
 10
2033.875727923462
 20
1441.377995013066
 10
2033.592584153637
 20
1440.767971084314
 10
2033.687931099817
 20
1440.138831054104
 10
2034.150268513116
 20
1439.566458495199
 10
2034.560177332011
 20
1439.29157383928
  0
ARC
  5
7C4
330
72D
100
AcDbEntity
  8
0
  6
Continuous
 62
     7
370
    15
100
AcDbCircle
 10
2045.000978236989
 20
1442.466135922847
 30
0.0
 40
4.757355739420747
100
AcDbArc
 50
61.28481160900015
 51
117.8796860970582
  0
LINE
  5
7C5
330
72D
100
AcDbEntity
  8
0
  6
Continuous
 62
     7
370
    15
100
AcDbLine
 10
2025.098690902108
 20
1436.466211007937
 30
0.0
 11
2016.825541562226
 21
1431.690223553774
 31
0.0
  0
LWPOLYLINE
  5
7C6
330
72D
100
AcDbEntity
  8
0
  6
Continuous
 62
     7
370
    15
100
AcDbPolyline
 90
        6
 70
   128
 43
0.0
 10
2016.825541562226
 20
1431.690223553774
 10
2016.198058393797
 20
1431.172893615282
 10
2015.914914623974
 20
1430.56286968653
 10
2016.010261570153
 20
1429.933729656321
 10
2016.472598983453
 20
1429.361357097415
 10
2016.882507802348
 20
1429.086472441496
  0
ARC
  5
7C7
330
72D
100
AcDbEntity
  8
0
  6
Continuous
 62
     7
370
    15
100
AcDbCircle
 10
2027.323308707325
 20
1432.261034525063
 30
0.0
 40
4.757355739421406
100
AcDbArc
 50
61.28481160900015
 51
117.8796860970551
  0
LINE
  5
7C8
330
72D
100
AcDbEntity
  8
0
  6
Continuous
 62
     7
370
    15
100
AcDbLine
 10
2007.421021372445
 20
1426.261109610154
 30
0.0
 11
1999.147872032562
 21
1421.48512215599
 31
0.0
  0
LWPOLYLINE
  5
7C9
330
72D
100
AcDbEntity
  8
0
  6
Continuous
 62
     7
370
    15
100
AcDbPolyline
 90
       10
 70
   128
 43
0.0
 10
1999.147872032562
 20
1421.48512215599
 10
1998.520388864134
 20
1420.967792217498
 10
1998.23724509431
 20
1420.357768288746
 10
1998.332592040489
 20
1419.728628258537
 10
1998.794929453789
 20
1419.156255699631
 10
1999.568492618793
 20
1418.709687189952
 10
2000.559978401227
 20
1418.442785482416
 10
2001.649798982954
 20
1418.387742862002
 10
2002.706505917783
 20
1418.551198281075
 10
2003.602644754037
 20
1418.913436603749
  0
LINE
  5
7CA
330
72D
100
AcDbEntity
  8
0
  6
Continuous
 62
     7
370
    15
100
AcDbLine
 10
2003.602644754037
 20
1418.913436603749
 30
0.0
 11
2007.527087389622
 21
1421.178969114057
 31
0.0
  0
ARC
  5
7CB
330
72D
100
AcDbEntity
  8
0
  6
Continuous
 62
     7
370
    15
100
AcDbCircle
 10
2009.645639177661
 20
1422.055933127279
 30
0.0
 40
4.75735573942116
100
AcDbArc
 50
61.28481160900015
 51
117.8796860970582
  0
LINE
  5
7CC
330
72D
100
AcDbEntity
  8
0
  6
Continuous
 62
     7
370
    15
100
AcDbLine
 10
1999.147872032562
 20
1420.260310938162
 30
0.0
 11
1999.147872032562
 21
1421.48512215599
 31
0.0
  0
LWPOLYLINE
  5
7CD
330
72D
100
AcDbEntity
  8
0
  6
Continuous
 62
     7
370
    15
100
AcDbPolyline
 90
        3
 70
   128
 43
0.0
 10
1999.147872032562
 20
1420.260310938162
 10
1998.520388864134
 20
1419.74298099967
 10
1998.409262059492
 20
1419.586873770987
  0
LINE
  5
7CE
330
72D
100
AcDbEntity
  8
0
  6
Continuous
 62
     7
370
    15
100
AcDbLine
 10
1988.647336331941
 20
1435.876106577717
 30
0.0
 11
2695.754117518491
 21
1844.080162489071
 31
0.0
  0
ARC
  5
7CF
330
72D
100
AcDbEntity
  8
0
  6
Continuous
 62
     7
370
    15
100
AcDbCircle
 10
2693.518222354001
 20
1840.584727044915
 30
0.0
 40
4.149372980444674
100
AcDbArc
 50
2.605478485656367
 51
57.39452165996985
  0
LINE
  5
7D0
330
72D
100
AcDbEntity
  8
0
  6
Continuous
 62
     7
370
    15
100
AcDbLine
 10
1990.556524641145
 20
1432.569295434665
 30
0.0
 11
2697.663305827694
 21
1840.773351346019
 31
0.0
  0
LINE
  5
7D1
330
72D
100
AcDbEntity
  8
0
  6
Continuous
 62
     7
370
    15
100
AcDbLine
 10
2697.663305827694
 20
1832.934559551915
 30
0.0
 11
2697.663305827694
 21
1840.773351346019
 31
0.0
  0
LINE
  5
7D2
330
72D
100
AcDbEntity
  8
0
  6
Continuous
 62
     7
370
    15
100
AcDbLine
 10
1990.556524641145
 20
1424.730503640561
 30
0.0
 11
2697.663305827694
 21
1832.934559551915
 31
0.0
  0
LINE
  5
7D3
330
72D
100
AcDbEntity
  8
0
  6
Continuous
 62
     7
370
    15
100
AcDbLine
 10
2693.774218531168
 20
1845.223133845622
 30
0.0
 11
1986.667437344619
 21
1437.019077934269
 31
0.0
  0
LINE
  5
7D4
330
72D
100
AcDbEntity
  8
0
  6
Continuous
 62
     7
370
    15
100
AcDbLine
 10
2695.754117518491
 20
1844.080162489071
 30
0.0
 11
2693.774218531168
 21
1845.223133845622
 31
0.0
  0
LINE
  5
7D5
330
72D
100
AcDbEntity
  8
0
  6
Continuous
 62
     7
370
    15
100
AcDbLine
 10
2007.421021372445
 20
1425.036298392325
 30
0.0
 11
2007.421021372445
 21
1426.261109610154
 31
0.0
  0
LINE
  5
7D6
330
72D
100
AcDbEntity
  8
0
  6
Continuous
 62
     7
370
    15
100
AcDbLine
 10
2007.421021372445
 20
1425.036298392325
 30
0.0
 11
1999.147872032562
 21
1420.260310938162
 31
0.0
  0
ARC
  5
7D7
330
72D
100
AcDbEntity
  8
0
  6
Continuous
 62
     7
370
    15
100
AcDbCircle
 10
2699.505565149335
 20
1833.018392574628
 30
0.0
 40
1.84416576908629
100
AcDbArc
 50
182.6054784856498
 51
237.3945216599699
  0
ARC
  5
7D8
330
72D
100
AcDbEntity
  8
0
  6
Continuous
 62
     7
370
    15
100
AcDbCircle
 10
2009.662755388656
 20
1420.631775660635
 30
0.0
 40
4.942184931122481
100
AcDbArc
 50
78.69224273473505
 51
116.9743576524833
  0
LINE
  5
7D9
330
72D
100
AcDbEntity
  8
0
  6
Continuous
 62
     7
370
    15
100
AcDbLine
 10
2016.825541562226
 20
1430.465412335946
 30
0.0
 11
2016.825541562226
 21
1431.690223553774
 31
0.0
  0
LWPOLYLINE
  5
7DA
330
72D
100
AcDbEntity
  8
0
  6
Continuous
 62
     7
370
    15
100
AcDbPolyline
 90
        3
 70
   128
 43
0.0
 10
2016.825541562226
 20
1430.465412335946
 10
2016.198058393797
 20
1429.948082397453
 10
2016.086931589116
 20
1429.791975168708
  0
LINE
  5
7DB
330
72D
100
AcDbEntity
  8
0
  6
Continuous
 62
     7
370
    15
100
AcDbLine
 10
2025.098690902108
 20
1435.241399790109
 30
0.0
 11
2025.098690902108
 21
1436.466211007937
 31
0.0
  0
LINE
  5
7DC
330
72D
100
AcDbEntity
  8
0
  6
Continuous
 62
     7
370
    15
100
AcDbLine
 10
2025.098690902108
 20
1435.241399790109
 30
0.0
 11
2016.825541562226
 21
1430.465412335946
 31
0.0
  0
ARC
  5
7DD
330
72D
100
AcDbEntity
  8
0
  6
Continuous
 62
     7
370
    15
100
AcDbCircle
 10
2027.340424918319
 20
1430.83687705842
 30
0.0
 40
4.942184931121043
100
AcDbArc
 50
78.69224273473505
 51
116.9743576524833
  0
LINE
  5
7DE
330
72D
100
AcDbEntity
  8
0
  6
Continuous
 62
     7
370
    15
100
AcDbLine
 10
2034.503211091889
 20
1440.67051373373
 30
0.0
 11
2034.503211091889
 21
1441.895324951558
 31
0.0
  0
LWPOLYLINE
  5
7DF
330
72D
100
AcDbEntity
  8
0
  6
Continuous
 62
     7
370
    15
100
AcDbPolyline
 90
        3
 70
   128
 43
0.0
 10
2034.503211091889
 20
1440.67051373373
 10
2033.875727923462
 20
1440.153183795237
 10
2033.7646011188
 20
1439.997076566523
  0
LINE
  5
7E0
330
72D
100
AcDbEntity
  8
0
  6
Continuous
 62
     7
370
    15
100
AcDbLine
 10
2042.776360431772
 20
1445.446501187892
 30
0.0
 11
2042.776360431772
 21
1446.671312405721
 31
0.0
  0
LINE
  5
7E1
330
72D
100
AcDbEntity
  8
0
  6
Continuous
 62
     7
370
    15
100
AcDbLine
 10
2042.776360431772
 20
1445.446501187892
 30
0.0
 11
2034.503211091889
 21
1440.67051373373
 31
0.0
  0
ARC
  5
7E2
330
72D
100
AcDbEntity
  8
0
  6
Continuous
 62
     7
370
    15
100
AcDbCircle
 10
2045.018094447984
 20
1441.041978456202
 30
0.0
 40
4.942184931122614
100
AcDbArc
 50
78.69224273473505
 51
116.9743576524804
  0
LINE
  5
7E3
330
72D
100
AcDbEntity
  8
0
  6
Continuous
 62
     7
370
    15
100
AcDbLine
 10
2052.180880621553
 20
1450.875615131514
 30
0.0
 11
2052.180880621553
 21
1452.100426349342
 31
0.0
  0
LWPOLYLINE
  5
7E4
330
72D
100
AcDbEntity
  8
0
  6
Continuous
 62
     7
370
    15
100
AcDbPolyline
 90
        3
 70
   128
 43
0.0
 10
2052.180880621553
 20
1450.875615131514
 10
2051.553397453126
 20
1450.358285193021
 10
2051.442270648446
 20
1450.202177964279
  0
LINE
  5
7E5
330
72D
100
AcDbEntity
  8
0
  6
Continuous
 62
     7
370
    15
100
AcDbLine
 10
2060.454029961436
 20
1455.651602585676
 30
0.0
 11
2060.454029961436
 21
1456.876413803505
 31
0.0
  0
LINE
  5
7E6
330
72D
100
AcDbEntity
  8
0
  6
Continuous
 62
     7
370
    15
100
AcDbLine
 10
2060.454029961436
 20
1455.651602585676
 30
0.0
 11
2052.180880621553
 21
1450.875615131514
 31
0.0
  0
ARC
  5
7E7
330
72D
100
AcDbEntity
  8
0
  6
Continuous
 62
     7
370
    15
100
AcDbCircle
 10
2062.695763977647
 20
1451.247079853988
 30
0.0
 40
4.942184931121111
100
AcDbArc
 50
78.69224273473505
 51
116.9743576524949
  0
LINE
  5
7E8
330
72D
100
AcDbEntity
  8
0
  6
Continuous
 62
     7
370
    15
100
AcDbLine
 10
2069.858550151217
 20
1461.080716529297
 30
0.0
 11
2069.858550151217
 21
1462.305527747126
 31
0.0
  0
LWPOLYLINE
  5
7E9
330
72D
100
AcDbEntity
  8
0
  6
Continuous
 62
     7
370
    15
100
AcDbPolyline
 90
        3
 70
   128
 43
0.0
 10
2069.858550151217
 20
1461.080716529297
 10
2069.231066982789
 20
1460.563386590805
 10
2069.119940178123
 20
1460.407279362084
  0
LINE
  5
7EA
330
72D
100
AcDbEntity
  8
0
  6
Continuous
 62
     7
370
    15
100
AcDbLine
 10
2078.1316994911
 20
1465.85670398346
 30
0.0
 11
2078.1316994911
 21
1467.081515201289
 31
0.0
  0
LINE
  5
7EB
330
72D
100
AcDbEntity
  8
0
  6
Continuous
 62
     7
370
    15
100
AcDbLine
 10
2078.1316994911
 20
1465.85670398346
 30
0.0
 11
2069.858550151217
 21
1461.080716529297
 31
0.0
  0
ARC
  5
7EC
330
72D
100
AcDbEntity
  8
0
  6
Continuous
 62
     7
370
    15
100
AcDbCircle
 10
2080.373433507311
 20
1461.452181251771
 30
0.0
 40
4.942184931121254
100
AcDbArc
 50
78.69224273472228
 51
116.9743576524833
  0
LINE
  5
7ED
330
72D
100
AcDbEntity
  8
0
  6
Continuous
 62
     7
370
    15
100
AcDbLine
 10
2087.536219680881
 20
1471.285817927081
 30
0.0
 11
2087.536219680881
 21
1472.51062914491
 31
0.0
  0
LWPOLYLINE
  5
7EE
330
72D
100
AcDbEntity
  8
0
  6
Continuous
 62
     7
370
    15
100
AcDbPolyline
 90
        3
 70
   128
 43
0.0
 10
2087.536219680881
 20
1471.285817927081
 10
2086.908736512453
 20
1470.768487988589
 10
2086.797609707801
 20
1470.612380759892
  0
LINE
  5
7EF
330
72D
100
AcDbEntity
  8
0
  6
Continuous
 62
     7
370
    15
100
AcDbLine
 10
2095.809369020763
 20
1476.061805381244
 30
0.0
 11
2095.809369020763
 21
1477.286616599073
 31
0.0
  0
LINE
  5
7F0
330
72D
100
AcDbEntity
  8
0
  6
Continuous
 62
     7
370
    15
100
AcDbLine
 10
2095.809369020763
 20
1476.061805381244
 30
0.0
 11
2087.536219680881
 21
1471.285817927081
 31
0.0
  0
ARC
  5
7F1
330
72D
100
AcDbEntity
  8
0
  6
Continuous
 62
     7
370
    15
100
AcDbCircle
 10
2098.051103036974
 20
1471.657282649555
 30
0.0
 40
4.942184931121414
100
AcDbArc
 50
78.69224273473505
 51
116.9743576524833
  0
LINE
  5
7F2
330
72D
100
AcDbEntity
  8
0
  6
Continuous
 62
     7
370
    15
100
AcDbLine
 10
2105.213889210544
 20
1481.490919324865
 30
0.0
 11
2105.213889210544
 21
1482.715730542694
 31
0.0
  0
LWPOLYLINE
  5
7F3
330
72D
100
AcDbEntity
  8
0
  6
Continuous
 62
     7
370
    15
100
AcDbPolyline
 90
        3
 70
   128
 43
0.0
 10
2105.213889210544
 20
1481.490919324865
 10
2104.586406042116
 20
1480.973589386373
 10
2104.475279237444
 20
1480.817482157642
  0
LINE
  5
7F4
330
72D
100
AcDbEntity
  8
0
  6
Continuous
 62
     7
370
    15
100
AcDbLine
 10
2113.487038550427
 20
1486.266906779028
 30
0.0
 11
2113.487038550427
 21
1487.491717996856
 31
0.0
  0
LINE
  5
7F5
330
72D
100
AcDbEntity
  8
0
  6
Continuous
 62
     7
370
    15
100
AcDbLine
 10
2113.487038550427
 20
1486.266906779028
 30
0.0
 11
2105.213889210544
 21
1481.490919324865
 31
0.0
  0
ARC
  5
7F6
330
72D
100
AcDbEntity
  8
0
  6
Continuous
 62
     7
370
    15
100
AcDbCircle
 10
2115.728772566638
 20
1481.862384047343
 30
0.0
 40
4.942184931118089
100
AcDbArc
 50
78.69224273472228
 51
116.9743576524979
  0
LINE
  5
7F7
330
72D
100
AcDbEntity
  8
0
  6
Continuous
 62
     7
370
    15
100
AcDbLine
 10
2122.891558740208
 20
1491.696020722649
 30
0.0
 11
2122.891558740208
 21
1492.920831940478
 31
0.0
  0
LWPOLYLINE
  5
7F8
330
72D
100
AcDbEntity
  8
0
  6
Continuous
 62
     7
370
    15
100
AcDbPolyline
 90
        3
 70
   128
 43
0.0
 10
2122.891558740208
 20
1491.696020722649
 10
2122.26407557178
 20
1491.178690784157
 10
2122.15294876713
 20
1491.022583555461
  0
LINE
  5
7F9
330
72D
100
AcDbEntity
  8
0
  6
Continuous
 62
     7
370
    15
100
AcDbLine
 10
2131.16470808009
 20
1496.472008176812
 30
0.0
 11
2131.16470808009
 21
1497.69681939464
 31
0.0
  0
LINE
  5
7FA
330
72D
100
AcDbEntity
  8
0
  6
Continuous
 62
     7
370
    15
100
AcDbLine
 10
2131.16470808009
 20
1496.472008176812
 30
0.0
 11
2122.891558740208
 21
1491.696020722649
 31
0.0
  0
ARC
  5
7FB
330
72D
100
AcDbEntity
  8
0
  6
Continuous
 62
     7
370
    15
100
AcDbCircle
 10
2133.406442096302
 20
1492.067485445122
 30
0.0
 40
4.94218493112213
100
AcDbArc
 50
78.69224273473505
 51
116.9743576524804
  0
LINE
  5
7FC
330
72D
100
AcDbEntity
  8
0
  6
Continuous
 62
     7
370
    15
100
AcDbLine
 10
2140.569228269872
 20
1501.901122120433
 30
0.0
 11
2140.569228269872
 21
1503.125933338261
 31
0.0
  0
LWPOLYLINE
  5
7FD
330
72D
100
AcDbEntity
  8
0
  6
Continuous
 62
     7
370
    15
100
AcDbPolyline
 90
        3
 70
   128
 43
0.0
 10
2140.569228269872
 20
1501.901122120433
 10
2139.941745101443
 20
1501.38379218194
 10
2139.830618296779
 20
1501.227684953221
  0
LINE
  5
7FE
330
72D
100
AcDbEntity
  8
0
  6
Continuous
 62
     7
370
    15
100
AcDbLine
 10
2148.842377609755
 20
1506.677109574596
 30
0.0
 11
2148.842377609755
 21
1507.901920792424
 31
0.0
  0
LINE
  5
7FF
330
72D
100
AcDbEntity
  8
0
  6
Continuous
 62
     7
370
    15
100
AcDbLine
 10
2148.842377609755
 20
1506.677109574596
 30
0.0
 11
2140.569228269872
 21
1501.901122120433
 31
0.0
  0
ARC
  5
800
330
72D
100
AcDbEntity
  8
0
  6
Continuous
 62
     7
370
    15
100
AcDbCircle
 10
2151.084111625966
 20
1502.272586842905
 30
0.0
 40
4.942184931122531
100
AcDbArc
 50
78.69224273473505
 51
116.9743576524833
  0
LINE
  5
801
330
72D
100
AcDbEntity
  8
0
  6
Continuous
 62
     7
370
    15
100
AcDbLine
 10
2158.246897799536
 20
1512.106223518216
 30
0.0
 11
2158.246897799536
 21
1513.331034736045
 31
0.0
  0
LWPOLYLINE
  5
802
330
72D
100
AcDbEntity
  8
0
  6
Continuous
 62
     7
370
    15
100
AcDbPolyline
 90
        3
 70
   128
 43
0.0
 10
2158.246897799536
 20
1512.106223518216
 10
2157.619414631108
 20
1511.588893579724
 10
2157.508287826444
 20
1511.432786351007
  0
LINE
  5
803
330
72D
100
AcDbEntity
  8
0
  6
Continuous
 62
     7
370
    15
100
AcDbLine
 10
2166.520047139418
 20
1516.88221097238
 30
0.0
 11
2166.520047139418
 21
1518.107022190208
 31
0.0
  0
LINE
  5
804
330
72D
100
AcDbEntity
  8
0
  6
Continuous
 62
     7
370
    15
100
AcDbLine
 10
2166.520047139418
 20
1516.88221097238
 30
0.0
 11
2158.246897799536
 21
1512.106223518216
 31
0.0
  0
ARC
  5
805
330
72D
100
AcDbEntity
  8
0
  6
Continuous
 62
     7
370
    15
100
AcDbCircle
 10
2168.761781155629
 20
1512.47768824069
 30
0.0
 40
4.942184931121897
100
AcDbArc
 50
78.69224273473505
 51
116.9743576524833
  0
LINE
  5
806
330
72D
100
AcDbEntity
  8
0
  6
Continuous
 62
     7
370
    15
100
AcDbLine
 10
2175.924567329199
 20
1522.311324916
 30
0.0
 11
2175.924567329199
 21
1523.536136133829
 31
0.0
  0
LWPOLYLINE
  5
807
330
72D
100
AcDbEntity
  8
0
  6
Continuous
 62
     7
370
    15
100
AcDbPolyline
 90
        3
 70
   128
 43
0.0
 10
2175.924567329199
 20
1522.311324916
 10
2175.297084160771
 20
1521.793994977508
 10
2175.185957356108
 20
1521.637887748793
  0
LINE
  5
808
330
72D
100
AcDbEntity
  8
0
  6
Continuous
 62
     7
370
    15
100
AcDbLine
 10
2184.197716669082
 20
1527.087312370163
 30
0.0
 11
2184.197716669082
 21
1528.312123587992
 31
0.0
  0
LINE
  5
809
330
72D
100
AcDbEntity
  8
0
  6
Continuous
 62
     7
370
    15
100
AcDbLine
 10
2184.197716669082
 20
1527.087312370163
 30
0.0
 11
2175.924567329199
 21
1522.311324916
 31
0.0
  0
ARC
  5
80A
330
72D
100
AcDbEntity
  8
0
  6
Continuous
 62
     7
370
    15
100
AcDbCircle
 10
2186.439450685293
 20
1522.682789638474
 30
0.0
 40
4.942184931122099
100
AcDbArc
 50
78.69224273473505
 51
116.9743576524833
  0
LINE
  5
80B
330
72D
100
AcDbEntity
  8
0
  6
Continuous
 62
     7
370
    15
100
AcDbLine
 10
2193.602236858863
 20
1532.516426313784
 30
0.0
 11
2193.602236858863
 21
1533.741237531613
 31
0.0
  0
LWPOLYLINE
  5
80C
330
72D
100
AcDbEntity
  8
0
  6
Continuous
 62
     7
370
    15
100
AcDbPolyline
 90
        3
 70
   128
 43
0.0
 10
2193.602236858863
 20
1532.516426313784
 10
2192.974753690435
 20
1531.999096375292
 10
2192.863626885764
 20
1531.842989146563
  0
LINE
  5
80D
330
72D
100
AcDbEntity
  8
0
  6
Continuous
 62
     7
370
    15
100
AcDbLine
 10
2201.875386198745
 20
1537.292413767947
 30
0.0
 11
2201.875386198745
 21
1538.517224985776
 31
0.0
  0
LINE
  5
80E
330
72D
100
AcDbEntity
  8
0
  6
Continuous
 62
     7
370
    15
100
AcDbLine
 10
2201.875386198745
 20
1537.292413767947
 30
0.0
 11
2193.602236858863
 21
1532.516426313784
 31
0.0
  0
ARC
  5
80F
330
72D
100
AcDbEntity
  8
0
  6
Continuous
 62
     7
370
    15
100
AcDbCircle
 10
2204.117120214957
 20
1532.887891036259
 30
0.0
 40
4.942184931120831
100
AcDbArc
 50
78.69224273473505
 51
116.9743576524833
  0
LINE
  5
810
330
72D
100
AcDbEntity
  8
0
  6
Continuous
 62
     7
370
    15
100
AcDbLine
 10
2211.279906388526
 20
1542.721527711568
 30
0.0
 11
2211.279906388526
 21
1543.946338929397
 31
0.0
  0
LWPOLYLINE
  5
811
330
72D
100
AcDbEntity
  8
0
  6
Continuous
 62
     7
370
    15
100
AcDbPolyline
 90
        3
 70
   128
 43
0.0
 10
2211.279906388526
 20
1542.721527711568
 10
2210.652423220099
 20
1542.204197773076
 10
2210.541296415442
 20
1542.04809054437
  0
LINE
  5
812
330
72D
100
AcDbEntity
  8
0
  6
Continuous
 62
     7
370
    15
100
AcDbLine
 10
2219.553055728409
 20
1547.497515165731
 30
0.0
 11
2219.553055728409
 21
1548.72232638356
 31
0.0
  0
LINE
  5
813
330
72D
100
AcDbEntity
  8
0
  6
Continuous
 62
     7
370
    15
100
AcDbLine
 10
2219.553055728409
 20
1547.497515165731
 30
0.0
 11
2211.279906388526
 21
1542.721527711568
 31
0.0
  0
ARC
  5
814
330
72D
100
AcDbEntity
  8
0
  6
Continuous
 62
     7
370
    15
100
AcDbCircle
 10
2221.79478974462
 20
1543.09299243404
 30
0.0
 40
4.942184931123245
100
AcDbArc
 50
78.69224273473505
 51
116.9743576524804
  0
LINE
  5
815
330
72D
100
AcDbEntity
  8
0
  6
Continuous
 62
     7
370
    15
100
AcDbLine
 10
2228.95757591819
 20
1552.926629109352
 30
0.0
 11
2228.95757591819
 21
1554.151440327181
 31
0.0
  0
LWPOLYLINE
  5
816
330
72D
100
AcDbEntity
  8
0
  6
Continuous
 62
     7
370
    15
100
AcDbPolyline
 90
        3
 70
   128
 43
0.0
 10
2228.95757591819
 20
1552.926629109352
 10
2228.330092749762
 20
1552.40929917086
 10
2228.2189659451
 20
1552.253191942145
  0
LINE
  5
817
330
72D
100
AcDbEntity
  8
0
  6
Continuous
 62
     7
370
    15
100
AcDbLine
 10
2237.230725258072
 20
1557.702616563515
 30
0.0
 11
2237.230725258072
 21
1558.927427781343
 31
0.0
  0
LINE
  5
818
330
72D
100
AcDbEntity
  8
0
  6
Continuous
 62
     7
370
    15
100
AcDbLine
 10
2237.230725258072
 20
1557.702616563515
 30
0.0
 11
2228.95757591819
 21
1552.926629109352
 31
0.0
  0
ARC
  5
819
330
72D
100
AcDbEntity
  8
0
  6
Continuous
 62
     7
370
    15
100
AcDbCircle
 10
2239.472459274284
 20
1553.298093831825
 30
0.0
 40
4.942184931122049
100
AcDbArc
 50
78.69224273473505
 51
116.9743576524833
  0
LINE
  5
81A
330
72D
100
AcDbEntity
  8
0
  6
Continuous
 62
     7
370
    15
100
AcDbLine
 10
2246.635245447854
 20
1563.131730507136
 30
0.0
 11
2246.635245447854
 21
1564.356541724964
 31
0.0
  0
LWPOLYLINE
  5
81B
330
72D
100
AcDbEntity
  8
0
  6
Continuous
 62
     7
370
    15
100
AcDbPolyline
 90
        3
 70
   128
 43
0.0
 10
2246.635245447854
 20
1563.131730507136
 10
2246.007762279426
 20
1562.614400568644
 10
2245.89663547475
 20
1562.458293339908
  0
LINE
  5
81C
330
72D
100
AcDbEntity
  8
0
  6
Continuous
 62
     7
370
    15
100
AcDbLine
 10
2254.908394787737
 20
1567.907717961299
 30
0.0
 11
2254.908394787737
 21
1569.132529179127
 31
0.0
  0
LINE
  5
81D
330
72D
100
AcDbEntity
  8
0
  6
Continuous
 62
     7
370
    15
100
AcDbLine
 10
2254.908394787737
 20
1567.907717961299
 30
0.0
 11
2246.635245447854
 21
1563.131730507136
 31
0.0
  0
ARC
  5
81E
330
72D
100
AcDbEntity
  8
0
  6
Continuous
 62
     7
370
    15
100
AcDbCircle
 10
2257.150128803948
 20
1563.50319522961
 30
0.0
 40
4.942184931121545
100
AcDbArc
 50
78.69224273473505
 51
116.9743576524833
  0
LINE
  5
81F
330
72D
100
AcDbEntity
  8
0
  6
Continuous
 62
     7
370
    15
100
AcDbLine
 10
2264.312914977518
 20
1573.33683190492
 30
0.0
 11
2264.312914977518
 21
1574.561643122748
 31
0.0
  0
LWPOLYLINE
  5
820
330
72D
100
AcDbEntity
  8
0
  6
Continuous
 62
     7
370
    15
100
AcDbPolyline
 90
        3
 70
   128
 43
0.0
 10
2264.312914977518
 20
1573.33683190492
 10
2263.68543180909
 20
1572.819501966427
 10
2263.574305004442
 20
1572.663394737735
  0
LINE
  5
821
330
72D
100
AcDbEntity
  8
0
  6
Continuous
 62
     7
370
    15
100
AcDbLine
 10
2272.5860643174
 20
1578.112819359082
 30
0.0
 11
2272.5860643174
 21
1579.337630576911
 31
0.0
  0
LINE
  5
822
330
72D
100
AcDbEntity
  8
0
  6
Continuous
 62
     7
370
    15
100
AcDbLine
 10
2272.5860643174
 20
1578.112819359082
 30
0.0
 11
2264.312914977518
 21
1573.33683190492
 31
0.0
  0
ARC
  5
823
330
72D
100
AcDbEntity
  8
0
  6
Continuous
 62
     7
370
    15
100
AcDbCircle
 10
2274.827798333612
 20
1573.708296627392
 30
0.0
 40
4.942184931122414
100
AcDbArc
 50
78.69224273473505
 51
116.9743576524804
  0
LINE
  5
824
330
72D
100
AcDbEntity
  8
0
  6
Continuous
 62
     7
370
    15
100
AcDbLine
 10
2281.990584507181
 20
1583.541933302704
 30
0.0
 11
2281.990584507181
 21
1584.766744520532
 31
0.0
  0
LWPOLYLINE
  5
825
330
72D
100
AcDbEntity
  8
0
  6
Continuous
 62
     7
370
    15
100
AcDbPolyline
 90
        3
 70
   128
 43
0.0
 10
2281.990584507181
 20
1583.541933302704
 10
2281.363101338754
 20
1583.024603364211
 10
2281.251974534107
 20
1582.868496135522
  0
LINE
  5
826
330
72D
100
AcDbEntity
  8
0
  6
Continuous
 62
     7
370
    15
100
AcDbLine
 10
2290.263733847064
 20
1588.317920756866
 30
0.0
 11
2290.263733847064
 21
1589.542731974695
 31
0.0
  0
LINE
  5
827
330
72D
100
AcDbEntity
  8
0
  6
Continuous
 62
     7
370
    15
100
AcDbLine
 10
2290.263733847064
 20
1588.317920756866
 30
0.0
 11
2281.990584507181
 21
1583.541933302704
 31
0.0
  0
ARC
  5
828
330
72D
100
AcDbEntity
  8
0
  6
Continuous
 62
     7
370
    15
100
AcDbCircle
 10
2292.505467863275
 20
1583.913398025177
 30
0.0
 40
4.942184931121592
100
AcDbArc
 50
78.69224273473505
 51
116.9743576524833
  0
LINE
  5
829
330
72D
100
AcDbEntity
  8
0
  6
Continuous
 62
     7
370
    15
100
AcDbLine
 10
2299.668254036845
 20
1593.747034700487
 30
0.0
 11
2299.668254036845
 21
1594.971845918316
 31
0.0
  0
LWPOLYLINE
  5
82A
330
72D
100
AcDbEntity
  8
0
  6
Continuous
 62
     7
370
    15
100
AcDbPolyline
 90
        3
 70
   128
 43
0.0
 10
2299.668254036845
 20
1593.747034700487
 10
2299.040770868417
 20
1593.229704761995
 10
2298.929644063757
 20
1593.073597533283
  0
LINE
  5
82B
330
72D
100
AcDbEntity
  8
0
  6
Continuous
 62
     7
370
    15
100
AcDbLine
 10
2307.941403376728
 20
1598.52302215465
 30
0.0
 11
2307.941403376728
 21
1599.747833372479
 31
0.0
  0
LINE
  5
82C
330
72D
100
AcDbEntity
  8
0
  6
Continuous
 62
     7
370
    15
100
AcDbLine
 10
2307.941403376728
 20
1598.52302215465
 30
0.0
 11
2299.668254036845
 21
1593.747034700487
 31
0.0
  0
ARC
  5
82D
330
72D
100
AcDbEntity
  8
0
  6
Continuous
 62
     7
370
    15
100
AcDbCircle
 10
2310.183137392939
 20
1594.11849942296
 30
0.0
 40
4.942184931122107
100
AcDbArc
 50
78.69224273473505
 51
116.9743576524833
  0
LINE
  5
82E
330
72D
100
AcDbEntity
  8
0
  6
Continuous
 62
     7
370
    15
100
AcDbLine
 10
2317.345923566509
 20
1603.952136098271
 30
0.0
 11
2317.345923566509
 21
1605.1769473161
 31
0.0
  0
LWPOLYLINE
  5
82F
330
72D
100
AcDbEntity
  8
0
  6
Continuous
 62
     7
370
    15
100
AcDbPolyline
 90
        3
 70
   128
 43
0.0
 10
2317.345923566509
 20
1603.952136098271
 10
2316.718440398081
 20
1603.434806159779
 10
2316.607313593435
 20
1603.27869893109
  0
LINE
  5
830
330
72D
100
AcDbEntity
  8
0
  6
Continuous
 62
     7
370
    15
100
AcDbLine
 10
2325.619072906391
 20
1608.728123552434
 30
0.0
 11
2325.619072906391
 21
1609.952934770262
 31
0.0
  0
LINE
  5
831
330
72D
100
AcDbEntity
  8
0
  6
Continuous
 62
     7
370
    15
100
AcDbLine
 10
2325.619072906391
 20
1608.728123552434
 30
0.0
 11
2317.345923566509
 21
1603.952136098271
 31
0.0
  0
ARC
  5
832
330
72D
100
AcDbEntity
  8
0
  6
Continuous
 62
     7
370
    15
100
AcDbCircle
 10
2327.860806922603
 20
1604.323600820744
 30
0.0
 40
4.942184931123088
100
AcDbArc
 50
78.69224273473505
 51
116.9743576524804
  0
LINE
  5
833
330
72D
100
AcDbEntity
  8
0
  6
Continuous
 62
     7
370
    15
100
AcDbLine
 10
2335.023593096173
 20
1614.157237496055
 30
0.0
 11
2335.023593096173
 21
1615.382048713884
 31
0.0
  0
LWPOLYLINE
  5
834
330
72D
100
AcDbEntity
  8
0
  6
Continuous
 62
     7
370
    15
100
AcDbPolyline
 90
        3
 70
   128
 43
0.0
 10
2335.023593096173
 20
1614.157237496055
 10
2334.396109927745
 20
1613.639907557563
 10
2334.284983123073
 20
1613.483800328833
  0
LINE
  5
835
330
72D
100
AcDbEntity
  8
0
  6
Continuous
 62
     7
370
    15
100
AcDbLine
 10
2343.296742436055
 20
1618.933224950218
 30
0.0
 11
2343.296742436055
 21
1620.158036168047
 31
0.0
  0
LINE
  5
836
330
72D
100
AcDbEntity
  8
0
  6
Continuous
 62
     7
370
    15
100
AcDbLine
 10
2343.296742436055
 20
1618.933224950218
 30
0.0
 11
2335.023593096173
 21
1614.157237496055
 31
0.0
  0
ARC
  5
837
330
72D
100
AcDbEntity
  8
0
  6
Continuous
 62
     7
370
    15
100
AcDbCircle
 10
2345.538476452267
 20
1614.528702218528
 30
0.0
 40
4.942184931122715
100
AcDbArc
 50
78.69224273473505
 51
116.9743576524804
  0
LINE
  5
838
330
72D
100
AcDbEntity
  8
0
  6
Continuous
 62
     7
370
    15
100
AcDbLine
 10
2352.701262625836
 20
1624.362338893839
 30
0.0
 11
2352.701262625836
 21
1625.587150111667
 31
0.0
  0
LWPOLYLINE
  5
839
330
72D
100
AcDbEntity
  8
0
  6
Continuous
 62
     7
370
    15
100
AcDbPolyline
 90
        3
 70
   128
 43
0.0
 10
2352.701262625836
 20
1624.362338893839
 10
2352.073779457409
 20
1623.845008955347
 10
2351.962652652759
 20
1623.688901726653
  0
LINE
  5
83A
330
72D
100
AcDbEntity
  8
0
  6
Continuous
 62
     7
370
    15
100
AcDbLine
 10
2360.974411965719
 20
1629.138326348002
 30
0.0
 11
2360.974411965719
 21
1630.36313756583
 31
0.0
  0
LINE
  5
83B
330
72D
100
AcDbEntity
  8
0
  6
Continuous
 62
     7
370
    15
100
AcDbLine
 10
2360.974411965719
 20
1629.138326348002
 30
0.0
 11
2352.701262625836
 21
1624.362338893839
 31
0.0
  0
ARC
  5
83C
330
72D
100
AcDbEntity
  8
0
  6
Continuous
 62
     7
370
    15
100
AcDbCircle
 10
2363.21614598193
 20
1624.733803616313
 30
0.0
 40
4.942184931121545
100
AcDbArc
 50
78.69224273473505
 51
116.9743576524833
  0
LINE
  5
83D
330
72D
100
AcDbEntity
  8
0
  6
Continuous
 62
     7
370
    15
100
AcDbLine
 10
2370.378932155499
 20
1634.567440291623
 30
0.0
 11
2370.378932155499
 21
1635.792251509451
 31
0.0
  0
LWPOLYLINE
  5
83E
330
72D
100
AcDbEntity
  8
0
  6
Continuous
 62
     7
370
    15
100
AcDbPolyline
 90
        3
 70
   128
 43
0.0
 10
2370.378932155499
 20
1634.567440291623
 10
2369.751448987072
 20
1634.05011035313
 10
2369.640322182414
 20
1633.894003124423
  0
LINE
  5
83F
330
72D
100
AcDbEntity
  8
0
  6
Continuous
 62
     7
370
    15
100
AcDbLine
 10
2378.652081495383
 20
1639.343427745785
 30
0.0
 11
2378.652081495383
 21
1640.568238963614
 31
0.0
  0
LINE
  5
840
330
72D
100
AcDbEntity
  8
0
  6
Continuous
 62
     7
370
    15
100
AcDbLine
 10
2378.652081495383
 20
1639.343427745785
 30
0.0
 11
2370.378932155499
 21
1634.567440291623
 31
0.0
  0
ARC
  5
841
330
72D
100
AcDbEntity
  8
0
  6
Continuous
 62
     7
370
    15
100
AcDbCircle
 10
2380.893815511594
 20
1634.938905014095
 30
0.0
 40
4.942184931122476
100
AcDbArc
 50
78.69224273473505
 51
116.9743576524804
  0
LINE
  5
842
330
72D
100
AcDbEntity
  8
0
  6
Continuous
 62
     7
370
    15
100
AcDbLine
 10
2388.056601685164
 20
1644.772541689407
 30
0.0
 11
2388.056601685164
 21
1645.997352907235
 31
0.0
  0
LWPOLYLINE
  5
843
330
72D
100
AcDbEntity
  8
0
  6
Continuous
 62
     7
370
    15
100
AcDbPolyline
 90
        3
 70
   128
 43
0.0
 10
2388.056601685164
 20
1644.772541689407
 10
2387.429118516736
 20
1644.255211750914
 10
2387.317991712071
 20
1644.099104522197
  0
LINE
  5
844
330
72D
100
AcDbEntity
  8
0
  6
Continuous
 62
     7
370
    15
100
AcDbLine
 10
2396.329751025046
 20
1649.548529143569
 30
0.0
 11
2396.329751025046
 21
1650.773340361398
 31
0.0
  0
LINE
  5
845
330
72D
100
AcDbEntity
  8
0
  6
Continuous
 62
     7
370
    15
100
AcDbLine
 10
2396.329751025046
 20
1649.548529143569
 30
0.0
 11
2388.056601685164
 21
1644.772541689407
 31
0.0
  0
ARC
  5
846
330
72D
100
AcDbEntity
  8
0
  6
Continuous
 62
     7
370
    15
100
AcDbCircle
 10
2398.571485041258
 20
1645.144006411879
 30
0.0
 40
4.942184931123101
100
AcDbArc
 50
78.69224273473505
 51
116.9743576524804
  0
LINE
  5
847
330
72D
100
AcDbEntity
  8
0
  6
Continuous
 62
     7
370
    15
100
AcDbLine
 10
2405.734271214828
 20
1654.977643087191
 30
0.0
 11
2405.734271214828
 21
1656.202454305019
 31
0.0
  0
LWPOLYLINE
  5
848
330
72D
100
AcDbEntity
  8
0
  6
Continuous
 62
     7
370
    15
100
AcDbPolyline
 90
        3
 70
   128
 43
0.0
 10
2405.734271214828
 20
1654.977643087191
 10
2405.1067880464
 20
1654.460313148698
 10
2404.995661241731
 20
1654.304205919973
  0
LINE
  5
849
330
72D
100
AcDbEntity
  8
0
  6
Continuous
 62
     7
370
    15
100
AcDbLine
 10
2414.00742055471
 20
1659.753630541353
 30
0.0
 11
2414.00742055471
 21
1660.978441759182
 31
0.0
  0
LINE
  5
84A
330
72D
100
AcDbEntity
  8
0
  6
Continuous
 62
     7
370
    15
100
AcDbLine
 10
2414.00742055471
 20
1659.753630541353
 30
0.0
 11
2405.734271214828
 21
1654.977643087191
 31
0.0
  0
ARC
  5
84B
330
72D
100
AcDbEntity
  8
0
  6
Continuous
 62
     7
370
    15
100
AcDbCircle
 10
2416.249154570921
 20
1655.349107809665
 30
0.0
 40
4.942184931120932
100
AcDbArc
 50
78.69224273473505
 51
116.9743576524833
  0
LINE
  5
84C
330
72D
100
AcDbEntity
  8
0
  6
Continuous
 62
     7
370
    15
100
AcDbLine
 10
2423.411940744491
 20
1665.182744484974
 30
0.0
 11
2423.411940744491
 21
1666.407555702803
 31
0.0
  0
LWPOLYLINE
  5
84D
330
72D
100
AcDbEntity
  8
0
  6
Continuous
 62
     7
370
    15
100
AcDbPolyline
 90
        3
 70
   128
 43
0.0
 10
2423.411940744491
 20
1665.182744484974
 10
2422.784457576063
 20
1664.665414546482
 10
2422.673330771401
 20
1664.509307317767
  0
LINE
  5
84E
330
72D
100
AcDbEntity
  8
0
  6
Continuous
 62
     7
370
    15
100
AcDbLine
 10
2431.685090084374
 20
1669.958731939137
 30
0.0
 11
2431.685090084374
 21
1671.183543156965
 31
0.0
  0
LINE
  5
84F
330
72D
100
AcDbEntity
  8
0
  6
Continuous
 62
     7
370
    15
100
AcDbLine
 10
2431.685090084374
 20
1669.958731939137
 30
0.0
 11
2423.411940744491
 21
1665.182744484974
 31
0.0
  0
ARC
  5
850
330
72D
100
AcDbEntity
  8
0
  6
Continuous
 62
     7
370
    15
100
AcDbCircle
 10
2433.926824100586
 20
1665.554209207446
 30
0.0
 40
4.9421849311232
100
AcDbArc
 50
78.69224273473505
 51
116.9743576524804
  0
LINE
  5
851
330
72D
100
AcDbEntity
  8
0
  6
Continuous
 62
     7
370
    15
100
AcDbLine
 10
2441.089610274155
 20
1675.387845882758
 30
0.0
 11
2441.089610274155
 21
1676.612657100587
 31
0.0
  0
LWPOLYLINE
  5
852
330
72D
100
AcDbEntity
  8
0
  6
Continuous
 62
     7
370
    15
100
AcDbPolyline
 90
        3
 70
   128
 43
0.0
 10
2441.089610274155
 20
1675.387845882758
 10
2440.462127105727
 20
1674.870515944266
 10
2440.351000301065
 20
1674.714408715551
  0
LINE
  5
853
330
72D
100
AcDbEntity
  8
0
  6
Continuous
 62
     7
370
    15
100
AcDbLine
 10
2449.362759614038
 20
1680.163833336921
 30
0.0
 11
2449.362759614038
 21
1681.388644554749
 31
0.0
  0
LINE
  5
854
330
72D
100
AcDbEntity
  8
0
  6
Continuous
 62
     7
370
    15
100
AcDbLine
 10
2449.362759614038
 20
1680.163833336921
 30
0.0
 11
2441.089610274155
 21
1675.387845882758
 31
0.0
  0
ARC
  5
855
330
72D
100
AcDbEntity
  8
0
  6
Continuous
 62
     7
370
    15
100
AcDbCircle
 10
2451.604493630249
 20
1675.759310605232
 30
0.0
 40
4.942184931121459
100
AcDbArc
 50
78.69224273473505
 51
116.9743576524833
  0
LINE
  5
856
330
72D
100
AcDbEntity
  8
0
  6
Continuous
 62
     7
370
    15
100
AcDbLine
 10
2458.767279803819
 20
1685.592947280542
 30
0.0
 11
2458.767279803819
 21
1686.817758498371
 31
0.0
  0
LWPOLYLINE
  5
857
330
72D
100
AcDbEntity
  8
0
  6
Continuous
 62
     7
370
    15
100
AcDbPolyline
 90
        3
 70
   128
 43
0.0
 10
2458.767279803819
 20
1685.592947280542
 10
2458.139796635391
 20
1685.07561734205
 10
2458.02866983073
 20
1684.919510113337
  0
LINE
  5
858
330
72D
100
AcDbEntity
  8
0
  6
Continuous
 62
     7
370
    15
100
AcDbLine
 10
2467.040429143701
 20
1690.368934734705
 30
0.0
 11
2467.040429143701
 21
1691.593745952533
 31
0.0
  0
LINE
  5
859
330
72D
100
AcDbEntity
  8
0
  6
Continuous
 62
     7
370
    15
100
AcDbLine
 10
2467.040429143701
 20
1690.368934734705
 30
0.0
 11
2458.767279803819
 21
1685.592947280542
 31
0.0
  0
ARC
  5
85A
330
72D
100
AcDbEntity
  8
0
  6
Continuous
 62
     7
370
    15
100
AcDbCircle
 10
2469.282163159913
 20
1685.964412003015
 30
0.0
 40
4.942184931122665
100
AcDbArc
 50
78.69224273473505
 51
116.9743576524804
  0
LINE
  5
85B
330
72D
100
AcDbEntity
  8
0
  6
Continuous
 62
     7
370
    15
100
AcDbLine
 10
2476.444949333482
 20
1695.798048678326
 30
0.0
 11
2476.444949333482
 21
1697.022859896154
 31
0.0
  0
LWPOLYLINE
  5
85C
330
72D
100
AcDbEntity
  8
0
  6
Continuous
 62
     7
370
    15
100
AcDbPolyline
 90
        3
 70
   128
 43
0.0
 10
2476.444949333482
 20
1695.798048678326
 10
2475.817466165055
 20
1695.280718739834
 10
2475.706339360391
 20
1695.124611511116
  0
LINE
  5
85D
330
72D
100
AcDbEntity
  8
0
  6
Continuous
 62
     7
370
    15
100
AcDbLine
 10
2484.718098673365
 20
1700.574036132489
 30
0.0
 11
2484.718098673365
 21
1701.798847350317
 31
0.0
  0
LINE
  5
85E
330
72D
100
AcDbEntity
  8
0
  6
Continuous
 62
     7
370
    15
100
AcDbLine
 10
2484.718098673365
 20
1700.574036132489
 30
0.0
 11
2476.444949333482
 21
1695.798048678326
 31
0.0
  0
ARC
  5
85F
330
72D
100
AcDbEntity
  8
0
  6
Continuous
 62
     7
370
    15
100
AcDbCircle
 10
2486.959832689576
 20
1696.169513400799
 30
0.0
 40
4.94218493112156
100
AcDbArc
 50
78.69224273473505
 51
116.9743576524833
  0
LINE
  5
860
330
72D
100
AcDbEntity
  8
0
  6
Continuous
 62
     7
370
    15
100
AcDbLine
 10
2494.122618863146
 20
1706.00315007611
 30
0.0
 11
2494.122618863146
 21
1707.227961293938
 31
0.0
  0
LWPOLYLINE
  5
861
330
72D
100
AcDbEntity
  8
0
  6
Continuous
 62
     7
370
    15
100
AcDbPolyline
 90
        3
 70
   128
 43
0.0
 10
2494.122618863146
 20
1706.00315007611
 10
2493.495135694718
 20
1705.485820137617
 10
2493.384008890055
 20
1705.329712908901
  0
LINE
  5
862
330
72D
100
AcDbEntity
  8
0
  6
Continuous
 62
     7
370
    15
100
AcDbLine
 10
2502.395768203029
 20
1710.779137530273
 30
0.0
 11
2502.395768203029
 21
1712.003948748101
 31
0.0
  0
LINE
  5
863
330
72D
100
AcDbEntity
  8
0
  6
Continuous
 62
     7
370
    15
100
AcDbLine
 10
2502.395768203029
 20
1710.779137530273
 30
0.0
 11
2494.122618863146
 21
1706.00315007611
 31
0.0
  0
ARC
  5
864
330
72D
100
AcDbEntity
  8
0
  6
Continuous
 62
     7
370
    15
100
AcDbCircle
 10
2504.63750221924
 20
1706.374614798583
 30
0.0
 40
4.942184931121744
100
AcDbArc
 50
78.69224273473505
 51
116.9743576524833
  0
LINE
  5
865
330
72D
100
AcDbEntity
  8
0
  6
Continuous
 62
     7
370
    15
100
AcDbLine
 10
2511.80028839281
 20
1716.208251473894
 30
0.0
 11
2511.80028839281
 21
1717.433062691722
 31
0.0
  0
LWPOLYLINE
  5
866
330
72D
100
AcDbEntity
  8
0
  6
Continuous
 62
     7
370
    15
100
AcDbPolyline
 90
        3
 70
   128
 43
0.0
 10
2511.80028839281
 20
1716.208251473894
 10
2511.172805224382
 20
1715.690921535401
 10
2511.06167841972
 20
1715.534814306687
  0
LINE
  5
867
330
72D
100
AcDbEntity
  8
0
  6
Continuous
 62
     7
370
    15
100
AcDbLine
 10
2520.073437732692
 20
1720.984238928056
 30
0.0
 11
2520.073437732692
 21
1722.209050145885
 31
0.0
  0
LINE
  5
868
330
72D
100
AcDbEntity
  8
0
  6
Continuous
 62
     7
370
    15
100
AcDbLine
 10
2520.073437732692
 20
1720.984238928056
 30
0.0
 11
2511.80028839281
 21
1716.208251473894
 31
0.0
  0
ARC
  5
869
330
72D
100
AcDbEntity
  8
0
  6
Continuous
 62
     7
370
    15
100
AcDbCircle
 10
2522.315171748904
 20
1716.579716196366
 30
0.0
 40
4.94218493112246
100
AcDbArc
 50
78.69224273473505
 51
116.9743576524804
  0
LINE
  5
86A
330
72D
100
AcDbEntity
  8
0
  6
Continuous
 62
     7
370
    15
100
AcDbLine
 10
2529.477957922474
 20
1726.413352871677
 30
0.0
 11
2529.477957922474
 21
1727.638164089506
 31
0.0
  0
LWPOLYLINE
  5
86B
330
72D
100
AcDbEntity
  8
0
  6
Continuous
 62
     7
370
    15
100
AcDbPolyline
 90
        3
 70
   128
 43
0.0
 10
2529.477957922474
 20
1726.413352871677
 10
2528.850474754046
 20
1725.896022933185
 10
2528.739347949384
 20
1725.739915704471
  0
LINE
  5
86C
330
72D
100
AcDbEntity
  8
0
  6
Continuous
 62
     7
370
    15
100
AcDbLine
 10
2537.751107262356
 20
1731.18934032584
 30
0.0
 11
2537.751107262356
 21
1732.414151543669
 31
0.0
  0
LINE
  5
86D
330
72D
100
AcDbEntity
  8
0
  6
Continuous
 62
     7
370
    15
100
AcDbLine
 10
2537.751107262356
 20
1731.18934032584
 30
0.0
 11
2529.477957922474
 21
1726.413352871677
 31
0.0
  0
ARC
  5
86E
330
72D
100
AcDbEntity
  8
0
  6
Continuous
 62
     7
370
    15
100
AcDbCircle
 10
2539.992841278568
 20
1726.784817594151
 30
0.0
 40
4.942184931122072
100
AcDbArc
 50
78.69224273473505
 51
116.9743576524833
  0
LINE
  5
86F
330
72D
100
AcDbEntity
  8
0
  6
Continuous
 62
     7
370
    15
100
AcDbLine
 10
2547.155627452137
 20
1736.618454269461
 30
0.0
 11
2547.155627452137
 21
1737.84326548729
 31
0.0
  0
LWPOLYLINE
  5
870
330
72D
100
AcDbEntity
  8
0
  6
Continuous
 62
     7
370
    15
100
AcDbPolyline
 90
        3
 70
   128
 43
0.0
 10
2547.155627452137
 20
1736.618454269461
 10
2546.52814428371
 20
1736.101124330969
 10
2546.417017479047
 20
1735.945017102255
  0
LINE
  5
871
330
72D
100
AcDbEntity
  8
0
  6
Continuous
 62
     7
370
    15
100
AcDbLine
 10
2555.42877679202
 20
1741.394441723624
 30
0.0
 11
2555.42877679202
 21
1742.619252941453
 31
0.0
  0
LINE
  5
872
330
72D
100
AcDbEntity
  8
0
  6
Continuous
 62
     7
370
    15
100
AcDbLine
 10
2555.42877679202
 20
1741.394441723624
 30
0.0
 11
2547.155627452137
 21
1736.618454269461
 31
0.0
  0
ARC
  5
873
330
72D
100
AcDbEntity
  8
0
  6
Continuous
 62
     7
370
    15
100
AcDbCircle
 10
2557.670510808232
 20
1736.989918991933
 30
0.0
 40
4.942184931123478
100
AcDbArc
 50
78.69224273473505
 51
116.9743576524804
  0
LINE
  5
874
330
72D
100
AcDbEntity
  8
0
  6
Continuous
 62
     7
370
    15
100
AcDbLine
 10
2564.833296981801
 20
1746.823555667245
 30
0.0
 11
2564.833296981801
 21
1748.048366885074
 31
0.0
  0
LWPOLYLINE
  5
875
330
72D
100
AcDbEntity
  8
0
  6
Continuous
 62
     7
370
    15
100
AcDbPolyline
 90
        3
 70
   128
 43
0.0
 10
2564.833296981801
 20
1746.823555667245
 10
2564.205813813373
 20
1746.306225728753
 10
2564.094687008712
 20
1746.150118500041
  0
LINE
  5
876
330
72D
100
AcDbEntity
  8
0
  6
Continuous
 62
     7
370
    15
100
AcDbLine
 10
2573.106446321684
 20
1751.599543121408
 30
0.0
 11
2573.106446321684
 21
1752.824354339237
 31
0.0
  0
LINE
  5
877
330
72D
100
AcDbEntity
  8
0
  6
Continuous
 62
     7
370
    15
100
AcDbLine
 10
2573.106446321684
 20
1751.599543121408
 30
0.0
 11
2564.833296981801
 21
1746.823555667245
 31
0.0
  0
ARC
  5
878
330
72D
100
AcDbEntity
  8
0
  6
Continuous
 62
     7
370
    15
100
AcDbCircle
 10
2575.348180337895
 20
1747.195020389719
 30
0.0
 40
4.94218493112208
100
AcDbArc
 50
78.69224273473505
 51
116.9743576524833
  0
LINE
  5
879
330
72D
100
AcDbEntity
  8
0
  6
Continuous
 62
     7
370
    15
100
AcDbLine
 10
2582.510966511465
 20
1757.028657065029
 30
0.0
 11
2582.510966511465
 21
1758.253468282857
 31
0.0
  0
LWPOLYLINE
  5
87A
330
72D
100
AcDbEntity
  8
0
  6
Continuous
 62
     7
370
    15
100
AcDbPolyline
 90
        3
 70
   128
 43
0.0
 10
2582.510966511465
 20
1757.028657065029
 10
2581.883483343037
 20
1756.511327126537
 10
2581.772356538374
 20
1756.355219897821
  0
LINE
  5
87B
330
72D
100
AcDbEntity
  8
0
  6
Continuous
 62
     7
370
    15
100
AcDbLine
 10
2590.784115851347
 20
1761.804644519192
 30
0.0
 11
2590.784115851347
 21
1763.02945573702
 31
0.0
  0
LINE
  5
87C
330
72D
100
AcDbEntity
  8
0
  6
Continuous
 62
     7
370
    15
100
AcDbLine
 10
2590.784115851347
 20
1761.804644519192
 30
0.0
 11
2582.510966511465
 21
1757.028657065029
 31
0.0
  0
ARC
  5
87D
330
72D
100
AcDbEntity
  8
0
  6
Continuous
 62
     7
370
    15
100
AcDbCircle
 10
2593.025849867558
 20
1757.400121787502
 30
0.0
 40
4.942184931122115
100
AcDbArc
 50
78.69224273473505
 51
116.9743576524833
  0
LINE
  5
87E
330
72D
100
AcDbEntity
  8
0
  6
Continuous
 62
     7
370
    15
100
AcDbLine
 10
2600.188636041128
 20
1767.233758462813
 30
0.0
 11
2600.188636041128
 21
1768.458569680641
 31
0.0
  0
LWPOLYLINE
  5
87F
330
72D
100
AcDbEntity
  8
0
  6
Continuous
 62
     7
370
    15
100
AcDbPolyline
 90
        3
 70
   128
 43
0.0
 10
2600.188636041128
 20
1767.233758462813
 10
2599.561152872701
 20
1766.71642852432
 10
2599.450026068037
 20
1766.560321295605
  0
LINE
  5
880
330
72D
100
AcDbEntity
  8
0
  6
Continuous
 62
     7
370
    15
100
AcDbLine
 10
2608.461785381011
 20
1772.009745916976
 30
0.0
 11
2608.461785381011
 21
1773.234557134804
 31
0.0
  0
LINE
  5
881
330
72D
100
AcDbEntity
  8
0
  6
Continuous
 62
     7
370
    15
100
AcDbLine
 10
2608.461785381011
 20
1772.009745916976
 30
0.0
 11
2600.188636041128
 21
1767.233758462813
 31
0.0
  0
ARC
  5
882
330
72D
100
AcDbEntity
  8
0
  6
Continuous
 62
     7
370
    15
100
AcDbCircle
 10
2610.703519397223
 20
1767.605223185285
 30
0.0
 40
4.94218493112272
100
AcDbArc
 50
78.69224273473505
 51
116.9743576524804
  0
LINE
  5
883
330
72D
100
AcDbEntity
  8
0
  6
Continuous
 62
     7
370
    15
100
AcDbLine
 10
2617.866305570792
 20
1777.438859860597
 30
0.0
 11
2617.866305570792
 21
1778.663671078425
 31
0.0
  0
LWPOLYLINE
  5
884
330
72D
100
AcDbEntity
  8
0
  6
Continuous
 62
     7
370
    15
100
AcDbPolyline
 90
        3
 70
   128
 43
0.0
 10
2617.866305570792
 20
1777.438859860597
 10
2617.238822402365
 20
1776.921529922104
 10
2617.127695597703
 20
1776.76542269339
  0
LINE
  5
885
330
72D
100
AcDbEntity
  8
0
  6
Continuous
 62
     7
370
    15
100
AcDbLine
 10
2626.139454910675
 20
1782.214847314759
 30
0.0
 11
2626.139454910675
 21
1783.439658532588
 31
0.0
  0
LINE
  5
886
330
72D
100
AcDbEntity
  8
0
  6
Continuous
 62
     7
370
    15
100
AcDbLine
 10
2626.139454910675
 20
1782.214847314759
 30
0.0
 11
2617.866305570792
 21
1777.438859860597
 31
0.0
  0
ARC
  5
887
330
72D
100
AcDbEntity
  8
0
  6
Continuous
 62
     7
370
    15
100
AcDbCircle
 10
2628.381188926886
 20
1777.81032458307
 30
0.0
 40
4.942184931122283
100
AcDbArc
 50
78.69224273473505
 51
116.9743576524833
  0
LINE
  5
888
330
72D
100
AcDbEntity
  8
0
  6
Continuous
 62
     7
370
    15
100
AcDbLine
 10
2635.543975100456
 20
1787.64396125838
 30
0.0
 11
2635.543975100456
 21
1788.868772476209
 31
0.0
  0
LWPOLYLINE
  5
889
330
72D
100
AcDbEntity
  8
0
  6
Continuous
 62
     7
370
    15
100
AcDbPolyline
 90
        3
 70
   128
 43
0.0
 10
2635.543975100456
 20
1787.64396125838
 10
2634.916491932028
 20
1787.126631319888
 10
2634.805365127367
 20
1786.970524091175
  0
LINE
  5
88A
330
72D
100
AcDbEntity
  8
0
  6
Continuous
 62
     7
370
    15
100
AcDbLine
 10
2643.817124440339
 20
1792.419948712543
 30
0.0
 11
2643.817124440339
 21
1793.644759930372
 31
0.0
  0
LINE
  5
88B
330
72D
100
AcDbEntity
  8
0
  6
Continuous
 62
     7
370
    15
100
AcDbLine
 10
2643.817124440339
 20
1792.419948712543
 30
0.0
 11
2635.543975100456
 21
1787.64396125838
 31
0.0
  0
ARC
  5
88C
330
72D
100
AcDbEntity
  8
0
  6
Continuous
 62
     7
370
    15
100
AcDbCircle
 10
2646.05885845655
 20
1788.015425980853
 30
0.0
 40
4.94218493112253
100
AcDbArc
 50
78.69224273473505
 51
116.9743576524804
  0
LINE
  5
88D
330
72D
100
AcDbEntity
  8
0
  6
Continuous
 62
     7
370
    15
100
AcDbLine
 10
2653.22164463012
 20
1797.849062656164
 30
0.0
 11
2653.22164463012
 21
1799.073873873993
 31
0.0
  0
LWPOLYLINE
  5
88E
330
72D
100
AcDbEntity
  8
0
  6
Continuous
 62
     7
370
    15
100
AcDbPolyline
 90
        3
 70
   128
 43
0.0
 10
2653.22164463012
 20
1797.849062656164
 10
2652.594161461692
 20
1797.331732717672
 10
2652.48303465703
 20
1797.175625488958
  0
LINE
  5
88F
330
72D
100
AcDbEntity
  8
0
  6
Continuous
 62
     7
370
    15
100
AcDbLine
 10
2661.494793970002
 20
1802.625050110327
 30
0.0
 11
2661.494793970002
 21
1803.849861328156
 31
0.0
  0
LINE
  5
890
330
72D
100
AcDbEntity
  8
0
  6
Continuous
 62
     7
370
    15
100
AcDbLine
 10
2661.494793970002
 20
1802.625050110327
 30
0.0
 11
2653.22164463012
 21
1797.849062656164
 31
0.0
  0
ARC
  5
891
330
72D
100
AcDbEntity
  8
0
  6
Continuous
 62
     7
370
    15
100
AcDbCircle
 10
2663.736527986213
 20
1798.220527378638
 30
0.0
 40
4.942184931122101
100
AcDbArc
 50
78.69224273473505
 51
116.9743576524833
  0
LINE
  5
892
330
72D
100
AcDbEntity
  8
0
  6
Continuous
 62
     7
370
    15
100
AcDbLine
 10
2670.899314159783
 20
1808.054164053948
 30
0.0
 11
2670.899314159783
 21
1809.278975271777
 31
0.0
  0
LWPOLYLINE
  5
893
330
72D
100
AcDbEntity
  8
0
  6
Continuous
 62
     7
370
    15
100
AcDbPolyline
 90
        3
 70
   128
 43
0.0
 10
2670.899314159783
 20
1808.054164053948
 10
2670.271830991355
 20
1807.536834115456
 10
2670.160704186693
 20
1807.380726886742
  0
LINE
  5
894
330
72D
100
AcDbEntity
  8
0
  6
Continuous
 62
     7
370
    15
100
AcDbLine
 10
2679.172463499666
 20
1812.830151508111
 30
0.0
 11
2679.172463499666
 21
1814.05496272594
 31
0.0
  0
LINE
  5
895
330
72D
100
AcDbEntity
  8
0
  6
Continuous
 62
     7
370
    15
100
AcDbLine
 10
2679.172463499666
 20
1812.830151508111
 30
0.0
 11
2670.899314159783
 21
1808.054164053948
 31
0.0
  0
ARC
  5
896
330
72D
100
AcDbEntity
  8
0
  6
Continuous
 62
     7
370
    15
100
AcDbCircle
 10
2681.414197515878
 20
1808.425628776421
 30
0.0
 40
4.94218493112223
100
AcDbArc
 50
78.69224273473505
 51
116.9743576524804
  0
LINE
  5
897
330
72D
100
AcDbEntity
  8
0
  6
Continuous
 62
     7
370
    15
100
AcDbLine
 10
2688.576983689447
 20
1818.259265451732
 30
0.0
 11
2688.576983689447
 21
1819.48407666956
 31
0.0
  0
LWPOLYLINE
  5
898
330
72D
100
AcDbEntity
  8
0
  6
Continuous
 62
     7
370
    15
100
AcDbPolyline
 90
        3
 70
   128
 43
0.0
 10
2688.576983689447
 20
1818.259265451732
 10
2687.949500521019
 20
1817.74193551324
 10
2687.838373716357
 20
1817.585828284526
  0
LINE
  5
899
330
72D
100
AcDbEntity
  8
0
  6
Continuous
 62
     7
370
    15
100
AcDbLine
 10
2696.850133029329
 20
1824.260064123723
 30
0.0
 11
2696.850133029329
 21
1823.035252905895
 31
0.0
  0
LINE
  5
89A
330
72D
100
AcDbEntity
  8
0
  6
Continuous
 62
     7
370
    15
100
AcDbLine
 10
2696.850133029329
 20
1823.035252905895
 30
0.0
 11
2688.576983689447
 21
1818.259265451732
 31
0.0
  0
ARC
  5
89B
330
72D
100
AcDbEntity
  8
0
  6
Continuous
 62
     7
370
    15
100
AcDbCircle
 10
2699.091867045542
 20
1818.630730174205
 30
0.0
 40
4.942184931122023
100
AcDbArc
 50
78.69224273473505
 51
116.9743576524833
  0
LINE
  5
89C
330
72D
100
AcDbEntity
  8
0
  6
Continuous
 62
     8
370
    15
100
AcDbLine
 10
2009.436413619721
 20
1422.650016496057
 30
0.0
 11
2008.587747561402
 21
1422.160092008925
 31
0.0
  0
LINE
  5
89D
330
72D
100
AcDbEntity
  8
0
  6
Continuous
 62
     8
370
    15
100
AcDbLine
 10
2006.678559252199
 20
1414.44360219152
 30
0.0
 11
2007.527087378415
 21
1414.933447052144
 31
0.0
  0
ENDBLK
  5
72F
330
72D
100
AcDbEntity
  8
0
100
AcDbBlockEnd
  0
ENDSEC
  0
SECTION
  2
ENTITIES
  0
INSERT
  5
65E
330
1F
100
AcDbEntity
  8
0
100
AcDbBlockReference
  2
1
 10
0.0
 20
0.0
 30
0.0
  0
INSERT
  5
672
330
1F
100
AcDbEntity
  8
0
100
AcDbBlockReference
  2
2
 10
0.0
 20
0.0
 30
0.0
  0
INSERT
  5
72C
330
1F
100
AcDbEntity
  8
0
100
AcDbBlockReference
  2
3
 10
0.0
 20
0.0
 30
0.0
  0
INSERT
  5
89E
330
1F
100
AcDbEntity
  8
0
100
AcDbBlockReference
  2
4
 10
993.6888523536859
 20
154.7669391202646
 30
0.0
  0
ENDSEC
  0
SECTION
  2
OBJECTS
  0
DICTIONARY
  5
C
330
0
100
AcDbDictionary
281
     1
  3
ACAD_COLOR
350
6B
  3
ACAD_GROUP
350
D
  3
ACAD_LAYOUT
350
1A
  3
ACAD_MATERIAL
350
6A
  3
ACAD_MLEADERSTYLE
350
12D
  3
ACAD_MLINESTYLE
350
17
  3
ACAD_PLOTSETTINGS
350
19
  3
ACAD_PLOTSTYLENAME
350
E
  3
ACAD_SCALELIST
350
10C
  3
ACAD_TABLESTYLE
350
7E
  3
ACAD_VISUALSTYLE
350
EF
  3
ACDB_RECOMPOSE_DATA
350
15D
  3
AcDbVariableDictionary
350
5E
  3
DWGPROPS
350
8AC
  0
DICTIONARY
  5
13C
330
10
100
AcDbDictionary
280
     1
281
     1
  3
ADSK_XREC_LAYER_RECONCILED
360
89F
  0
DICTIONARY
  5
6B
102
{ACAD_REACTORS
330
C
102
}
330
C
100
AcDbDictionary
281
     1
  0
DICTIONARY
  5
D
102
{ACAD_REACTORS
330
C
102
}
330
C
100
AcDbDictionary
281
     1
  0
DICTIONARY
  5
1A
102
{ACAD_REACTORS
330
C
102
}
330
C
100
AcDbDictionary
281
     1
  3
Layout1
350
D3
  3
Layout2
350
D7
  3
Model
350
22
  0
DICTIONARY
  5
6A
102
{ACAD_REACTORS
330
C
102
}
330
C
100
AcDbDictionary
281
     1
  3
ByBlock
350
ED
  3
ByLayer
350
EC
  3
Global
350
EE
  0
DICTIONARY
  5
12D
102
{ACAD_REACTORS
330
C
102
}
330
C
100
AcDbDictionary
281
     1
  3
Annotative
350
13B
  3
Standard
350
12E
  0
DICTIONARY
  5
17
102
{ACAD_REACTORS
330
C
102
}
330
C
100
AcDbDictionary
281
     1
  3
Standard
350
18
  0
DICTIONARY
  5
19
102
{ACAD_REACTORS
330
C
102
}
330
C
100
AcDbDictionary
281
     1
  0
ACDBDICTIONARYWDFLT
  5
E
102
{ACAD_REACTORS
330
C
102
}
330
C
100
AcDbDictionary
281
     1
  3
Normal
350
F
100
AcDbDictionaryWithDefault
340
F
  0
DICTIONARY
  5
10C
102
{ACAD_REACTORS
330
C
102
}
330
C
100
AcDbDictionary
281
     1
  3
A0
350
10D
  3
A1
350
188
  3
A2
350
189
  3
A3
350
18A
  3
A4
350
18B
  3
A5
350
18C
  3
A6
350
18D
  3
A7
350
18E
  3
A8
350
18F
  3
A9
350
190
  3
B0
350
191
  3
B1
350
192
  3
B2
350
193
  3
B3
350
194
  3
B4
350
195
  3
B5
350
196
  3
B6
350
197
  3
B7
350
198
  3
B8
350
199
  3
B9
350
19A
  3
C0
350
19B
  3
C1
350
19C
  3
C2
350
19D
  3
C3
350
19E
  3
C4
350
19F
  3
C5
350
1A0
  3
C6
350
1A1
  3
C7
350
1A2
  3
C8
350
1A3
  3
C9
350
1A4
  3
D0
350
1A5
  3
D1
350
1A6
  3
D2
350
1A7
  0
DICTIONARY
  5
7E
102
{ACAD_REACTORS
330
C
102
}
330
C
100
AcDbDictionary
281
     1
  3
Standard
350
7F
  0
DICTIONARY
  5
EF
102
{ACAD_REACTORS
330
C
102
}
330
C
100
AcDbDictionary
281
     1
  3
2dWireframe
350
F5
  3
3D Hidden
350
F7
  3
3dWireframe
350
F6
  3
Basic
350
F4
  3
Brighten
350
FB
  3
ColorChange
350
FF
  3
Conceptual
350
F8
  3
Dim
350
FA
  3
Facepattern
350
FE
  3
Flat
350
F0
  3
FlatWithEdges
350
F1
  3
Gouraud
350
F2
  3
GouraudWithEdges
350
F3
  3
Linepattern
350
FD
  3
Realistic
350
F9
  3
Thicken
350
FC
  0
XRECORD
  5
15D
102
{ACAD_REACTORS
330
C
102
}
330
C
100
AcDbXrecord
280
     1
 90
        1
330
7F
  0
DICTIONARY
  5
5E
102
{ACAD_REACTORS
330
C
102
}
330
C
100
AcDbDictionary
281
     1
  3
CANNOSCALE
350
146
  3
CMLEADERSTYLE
350
145
  3
CTABLESTYLE
350
84
  3
DIMASSOC
350
5F
  3
HIDETEXT
350
63
  3
INDEXCTL
350
8A8
  3
LIGHTINGUNITS
350
8A6
  3
MSLTSCALE
350
8A5
  3
PSOLHEIGHT
350
8AA
  3
PSOLWIDTH
350
8A9
  3
SORTENTS
350
8A7
  0
XRECORD
  5
8AC
102
{ACAD_REACTORS
330
C
102
}
330
C
100
AcDbXrecord
280
     1
  1
DWGPROPS COOKIE
  2

  3

  4

  6

  7

  8
orhan kara
  9

300
=
301
=
302
=
303
=
304
=
305
=
306
=
307
=
308
=
309
=
 40
0.0004261342592593
 41
2458570.570530266
 42
2459082.58053728
  1

 90
        0
  0
XRECORD
  5
89F
102
{ACAD_REACTORS
330
13C
102
}
330
13C
100
AcDbXrecord
280
     1
290
     1
  0
LAYOUT
  5
D3
102
{ACAD_XDICTIONARY
360
8B0
102
}
102
{ACAD_REACTORS
330
1A
102
}
330
1A
100
AcDbPlotSettings
  1

  2
C:\Documents and Settings\basas\Application Data\Autodesk\AutoCAD 2005\R16.1\enu\plotters\Default Windows System Printer.pc3
  4

  6

 40
0.0
 41
0.0
 42
0.0
 43
0.0
 44
0.0
 45
0.0
 46
0.0
 47
0.0
 48
0.0
 49
0.0
140
0.0
141
0.0
142
1.0
143
1.0
 70
   688
 72
     0
 73
     0
 74
     5
  7

 75
    16
147
1.0
148
0.0
149
0.0
100
AcDbLayout
  1
Layout1
 70
     1
 71
     1
 10
0.0
 20
0.0
 11
12.0
 21
9.0
 12
0.0
 22
0.0
 32
0.0
 14
0.0
 24
0.0
 34
0.0
 15
0.0
 25
0.0
 35
0.0
146
0.0
 13
0.0
 23
0.0
 33
0.0
 16
1.0
 26
0.0
 36
0.0
 17
0.0
 27
1.0
 37
0.0
 76
     0
330
D2
  0
LAYOUT
  5
D7
102
{ACAD_XDICTIONARY
360
8B2
102
}
102
{ACAD_REACTORS
330
1A
102
}
330
1A
100
AcDbPlotSettings
  1

  2
C:\Documents and Settings\basas\Application Data\Autodesk\AutoCAD 2005\R16.1\enu\plotters\Default Windows System Printer.pc3
  4

  6

 40
0.0
 41
0.0
 42
0.0
 43
0.0
 44
0.0
 45
0.0
 46
0.0
 47
0.0
 48
0.0
 49
0.0
140
0.0
141
0.0
142
1.0
143
1.0
 70
   688
 72
     0
 73
     0
 74
     5
  7

 75
    16
147
1.0
148
0.0
149
0.0
100
AcDbLayout
  1
Layout2
 70
     1
 71
     2
 10
0.0
 20
0.0
 11
12.0
 21
9.0
 12
0.0
 22
0.0
 32
0.0
 14
0.0
 24
0.0
 34
0.0
 15
0.0
 25
0.0
 35
0.0
146
0.0
 13
0.0
 23
0.0
 33
0.0
 16
1.0
 26
0.0
 36
0.0
 17
0.0
 27
1.0
 37
0.0
 76
     0
330
D6
  0
LAYOUT
  5
22
102
{ACAD_XDICTIONARY
360
8AD
102
}
102
{ACAD_REACTORS
330
1A
102
}
330
1A
100
AcDbPlotSettings
  1

  2
none_device
  4
ISO_A4_(210.00_x_297.00_MM)
  6

 40
7.5
 41
20.0
 42
7.5
 43
20.0
 44
210.0
 45
297.0
 46
11.54999923706054
 47
-13.65000009536743
 48
0.0
 49
0.0
140
0.0
141
0.0
142
1.0
143
8.704084754739808
 70
 11952
 72
     1
 73
     0
 74
     0
  7

 75
     0
147
0.1148885871608098
148
0.0
149
0.0
100
AcDbLayout
  1
Model
 70
     1
 71
     0
 10
0.0
 20
0.0
 11
12.0
 21
9.0
 12
0.0
 22
0.0
 32
0.0
 14
0.0
 24
0.0
 34
0.0
 15
0.0
 25
0.0
 35
0.0
146
0.0
 13
0.0
 23
0.0
 33
0.0
 16
1.0
 26
0.0
 36
0.0
 17
0.0
 27
1.0
 37
0.0
 76
     0
330
1F
331
EA
1001
ACAD_PSEXT
1000
None
1000
None
1000
Not applicable
1000
The layout will not be plotted unless a new plotter configuration name is selected.
1070
     0
  0
MATERIAL
  5
ED
102
{ACAD_XDICTIONARY
360
8B6
102
}
102
{ACAD_REACTORS
330
6A
102
}
330
6A
100
AcDbMaterial
  1
ByBlock
  0
MATERIAL
  5
EC
102
{ACAD_XDICTIONARY
360
8B4
102
}
102
{ACAD_REACTORS
330
6A
102
}
330
6A
100
AcDbMaterial
  1
ByLayer
  0
MATERIAL
  5
EE
102
{ACAD_XDICTIONARY
360
173
102
}
102
{ACAD_REACTORS
330
6A
102
}
330
6A
100
AcDbMaterial
  1
Global
 43
0.0007999999797903
 43
0.0
 43
0.0
 43
0.0
 43
0.0
 43
0.0007999999797903
 43
0.0
 43
0.0
 43
0.0
 43
0.0
 43
1.0
 43
0.0
 43
0.0
 43
0.0
 43
0.0
 43
1.0
 49
0.0007999999797903
 49
0.0
 49
0.0
 49
0.0
 49
0.0
 49
0.0007999999797903
 49
0.0
 49
0.0
 49
0.0
 49
0.0
 49
1.0
 49
0.0
 49
0.0
 49
0.0
 49
0.0
 49
1.0
142
0.0007999999797903
142
0.0
142
0.0
142
0.0
142
0.0
142
0.0007999999797903
142
0.0
142
0.0
142
0.0
142
0.0
142
1.0
142
0.0
142
0.0
142
0.0
142
0.0
142
1.0
144
0.0007999999797903
144
0.0
144
0.0
144
0.0
144
0.0
144
0.0007999999797903
144
0.0
144
0.0
144
0.0
144
0.0
144
1.0
144
0.0
144
0.0
144
0.0
144
0.0
144
1.0
1001
ACAD
1070
    -1
1070
     3
1070
     0
1000

1071
        0
1070
     0
  0
MLEADERSTYLE
  5
13B
102
{ACAD_REACTORS
330
12D
102
}
330
12D
100
AcDbMLeaderStyle
170
     2
171
     1
172
     0
 90
        2
 40
0.0
 41
0.0
173
     1
 91
-1056964608
340
14
 92
       -2
290
     1
 42
2.0
291
     1
 43
8.0
  3
Standard
 44
4.0
300

342
11
174
     1
178
     1
175
     1
176
     0
 93
-1056964608
 45
4.0
292
     0
297
     0
 46
4.0
 94
-1056964608
 47
1.0
 49
1.0
140
1.0
293
     1
141
0.0
294
     1
177
     0
142
1.0
295
     0
296
     1
143
3.75
1001
ACAD_MLEADERVER
1070
     2
  0
MLEADERSTYLE
  5
12E
102
{ACAD_REACTORS
330
12D
102
}
330
12D
100
AcDbMLeaderStyle
170
     2
171
     1
172
     0
 90
        2
 40
0.0
 41
0.0
173
     1
 91
-1056964608
340
14
 92
       -2
290
     1
 42
2.0
291
     1
 43
8.0
  3
Standard
 44
4.0
300

342
11
174
     1
178
     1
175
     1
176
     0
 93
-1056964608
 45
4.0
292
     0
297
     0
 46
4.0
 94
-1056964608
 47
1.0
 49
1.0
140
1.0
293
     1
141
0.0
294
     1
177
     0
142
1.0
295
     0
296
     0
143
3.75
1001
ACAD_MLEADERVER
1070
     2
  0
MLINESTYLE
  5
18
102
{ACAD_REACTORS
330
17
102
}
330
17
100
AcDbMlineStyle
  2
STANDARD
 70
     0
  3

 62
   256
 51
90.0
 52
90.0
 71
     2
 49
0.5
 62
   256
  6
BYLAYER
 49
-0.5
 62
   256
  6
BYLAYER
  0
ACDBPLACEHOLDER
  5
F
102
{ACAD_REACTORS
330
E
102
}
330
E
  0
SCALE
  5
10D
102
{ACAD_REACTORS
330
10C
102
}
330
10C
100
AcDbScale
 70
     0
300
1:1
140
1.0
141
1.0
290
     1
  0
SCALE
  5
188
102
{ACAD_REACTORS
330
10C
102
}
330
10C
100
AcDbScale
 70
     0
300
1:2
140
1.0
141
2.0
290
     0
  0
SCALE
  5
189
102
{ACAD_REACTORS
330
10C
102
}
330
10C
100
AcDbScale
 70
     0
300
1:4
140
1.0
141
4.0
290
     0
  0
SCALE
  5
18A
102
{ACAD_REACTORS
330
10C
102
}
330
10C
100
AcDbScale
 70
     0
300
1:5
140
1.0
141
5.0
290
     0
  0
SCALE
  5
18B
102
{ACAD_REACTORS
330
10C
102
}
330
10C
100
AcDbScale
 70
     0
300
1:8
140
1.0
141
8.0
290
     0
  0
SCALE
  5
18C
102
{ACAD_REACTORS
330
10C
102
}
330
10C
100
AcDbScale
 70
     0
300
1:10
140
1.0
141
10.0
290
     0
  0
SCALE
  5
18D
102
{ACAD_REACTORS
330
10C
102
}
330
10C
100
AcDbScale
 70
     0
300
1:16
140
1.0
141
16.0
290
     0
  0
SCALE
  5
18E
102
{ACAD_REACTORS
330
10C
102
}
330
10C
100
AcDbScale
 70
     0
300
1:20
140
1.0
141
20.0
290
     0
  0
SCALE
  5
18F
102
{ACAD_REACTORS
330
10C
102
}
330
10C
100
AcDbScale
 70
     0
300
1:30
140
1.0
141
30.0
290
     0
  0
SCALE
  5
190
102
{ACAD_REACTORS
330
10C
102
}
330
10C
100
AcDbScale
 70
     0
300
1:40
140
1.0
141
40.0
290
     0
  0
SCALE
  5
191
102
{ACAD_REACTORS
330
10C
102
}
330
10C
100
AcDbScale
 70
     0
300
1:50
140
1.0
141
50.0
290
     0
  0
SCALE
  5
192
102
{ACAD_REACTORS
330
10C
102
}
330
10C
100
AcDbScale
 70
     0
300
1:100
140
1.0
141
100.0
290
     0
  0
SCALE
  5
193
102
{ACAD_REACTORS
330
10C
102
}
330
10C
100
AcDbScale
 70
     0
300
2:1
140
2.0
141
1.0
290
     0
  0
SCALE
  5
194
102
{ACAD_REACTORS
330
10C
102
}
330
10C
100
AcDbScale
 70
     0
300
4:1
140
4.0
141
1.0
290
     0
  0
SCALE
  5
195
102
{ACAD_REACTORS
330
10C
102
}
330
10C
100
AcDbScale
 70
     0
300
8:1
140
8.0
141
1.0
290
     0
  0
SCALE
  5
196
102
{ACAD_REACTORS
330
10C
102
}
330
10C
100
AcDbScale
 70
     0
300
10:1
140
10.0
141
1.0
290
     0
  0
SCALE
  5
197
102
{ACAD_REACTORS
330
10C
102
}
330
10C
100
AcDbScale
 70
     0
300
100:1
140
100.0
141
1.0
290
     0
  0
SCALE
  5
198
102
{ACAD_REACTORS
330
10C
102
}
330
10C
100
AcDbScale
 70
     0
300
1/128" = 1'-0"
140
0.0078125
141
12.0
290
     0
  0
SCALE
  5
199
102
{ACAD_REACTORS
330
10C
102
}
330
10C
100
AcDbScale
 70
     0
300
1/64" = 1'-0"
140
0.015625
141
12.0
290
     0
  0
SCALE
  5
19A
102
{ACAD_REACTORS
330
10C
102
}
330
10C
100
AcDbScale
 70
     0
300
1/32" = 1'-0"
140
0.03125
141
12.0
290
     0
  0
SCALE
  5
19B
102
{ACAD_REACTORS
330
10C
102
}
330
10C
100
AcDbScale
 70
     0
300
1/16" = 1'-0"
140
0.0625
141
12.0
290
     0
  0
SCALE
  5
19C
102
{ACAD_REACTORS
330
10C
102
}
330
10C
100
AcDbScale
 70
     0
300
3/32" = 1'-0"
140
0.09375
141
12.0
290
     0
  0
SCALE
  5
19D
102
{ACAD_REACTORS
330
10C
102
}
330
10C
100
AcDbScale
 70
     0
300
1/8" = 1'-0"
140
0.125
141
12.0
290
     0
  0
SCALE
  5
19E
102
{ACAD_REACTORS
330
10C
102
}
330
10C
100
AcDbScale
 70
     0
300
3/16" = 1'-0"
140
0.1875
141
12.0
290
     0
  0
SCALE
  5
19F
102
{ACAD_REACTORS
330
10C
102
}
330
10C
100
AcDbScale
 70
     0
300
1/4" = 1'-0"
140
0.25
141
12.0
290
     0
  0
SCALE
  5
1A0
102
{ACAD_REACTORS
330
10C
102
}
330
10C
100
AcDbScale
 70
     0
300
3/8" = 1'-0"
140
0.375
141
12.0
290
     0
  0
SCALE
  5
1A1
102
{ACAD_REACTORS
330
10C
102
}
330
10C
100
AcDbScale
 70
     0
300
1/2" = 1'-0"
140
0.5
141
12.0
290
     0
  0
SCALE
  5
1A2
102
{ACAD_REACTORS
330
10C
102
}
330
10C
100
AcDbScale
 70
     0
300
3/4" = 1'-0"
140
0.75
141
12.0
290
     0
  0
SCALE
  5
1A3
102
{ACAD_REACTORS
330
10C
102
}
330
10C
100
AcDbScale
 70
     0
300
1" = 1'-0"
140
1.0
141
12.0
290
     0
  0
SCALE
  5
1A4
102
{ACAD_REACTORS
330
10C
102
}
330
10C
100
AcDbScale
 70
     0
300
1-1/2" = 1'-0"
140
1.5
141
12.0
290
     0
  0
SCALE
  5
1A5
102
{ACAD_REACTORS
330
10C
102
}
330
10C
100
AcDbScale
 70
     0
300
3" = 1'-0"
140
3.0
141
12.0
290
     0
  0
SCALE
  5
1A6
102
{ACAD_REACTORS
330
10C
102
}
330
10C
100
AcDbScale
 70
     0
300
6" = 1'-0"
140
6.0
141
12.0
290
     0
  0
SCALE
  5
1A7
102
{ACAD_REACTORS
330
10C
102
}
330
10C
100
AcDbScale
 70
     0
300
1'-0" = 1'-0"
140
12.0
141
12.0
290
     0
  0
TABLESTYLE
  5
7F
102
{ACAD_XDICTIONARY
360
162
102
}
102
{ACAD_REACTORS
330
7E
102
}
330
7E
100
AcDbTableStyle
  3
Standard
 70
     0
 71
     0
 40
1.5
 41
1.5
280
     0
281
     0
  7
Standard
140
4.5
170
     2
 62
     0
 63
     7
283
     0
274
    -2
284
     1
 64
     0
275
    -2
285
     1
 65
     0
276
    -2
286
     1
 66
     0
277
    -2
287
     1
 67
     0
278
    -2
288
     1
 68
     0
279
    -2
289
     1
 69
     0
  7
Standard
140
6.0
170
     5
 62
     0
 63
     7
283
     0
274
    -2
284
     1
 64
     0
275
    -2
285
     1
 65
     0
276
    -2
286
     1
 66
     0
277
    -2
287
     1
 67
     0
278
    -2
288
     1
 68
     0
279
    -2
289
     1
 69
     0
  7
Standard
140
4.5
170
     5
 62
     0
 63
     7
283
     0
274
    -2
284
     1
 64
     0
275
    -2
285
     1
 65
     0
276
    -2
286
     1
 66
     0
277
    -2
287
     1
 67
     0
278
    -2
288
     1
 68
     0
279
    -2
289
     1
 69
     0
  0
VISUALSTYLE
  5
F5
102
{ACAD_REACTORS
330
EF
102
}
330
EF
100
AcDbVisualStyle
  2
2dWireframe
 70
     4
 71
     0
 72
     2
 73
     1
 90
        0
 40
-0.6
 41
-30.0
 62
     5
 63
     7
 74
     1
 91
        4
 64
     7
 65
   257
 75
     1
175
     1
 42
1.0
 92
        0
 66
   257
 43
1.0
 76
     1
 77
     6
 78
     2
 67
     7
 79
     5
170
     0
171
     0
290
     0
174
     0
 93
        1
 44
0.0
173
     0
291
     0
 45
0.0
1001
ACAD
1000
AcDbSavedByObjectVersion
1070
     0
  0
VISUALSTYLE
  5
F7
102
{ACAD_REACTORS
330
EF
102
}
330
EF
100
AcDbVisualStyle
  2
3D Hidden
 70
     6
 71
     1
 72
     2
 73
     2
 90
        0
 40
-0.6
 41
-30.0
 62
     5
 63
     7
 74
     2
 91
        2
 64
     7
 65
   257
 75
     2
175
     1
 42
40.0
 92
        0
 66
   257
 43
1.0
 76
     1
 77
     6
 78
     2
 67
     7
 79
     3
170
     0
171
     0
290
     0
174
     0
 93
        1
 44
0.0
173
     0
291
     0
 45
0.0
1001
ACAD
1000
AcDbSavedByObjectVersion
1070
     0
  0
VISUALSTYLE
  5
F6
102
{ACAD_REACTORS
330
EF
102
}
330
EF
100
AcDbVisualStyle
  2
3dWireframe
 70
     5
 71
     0
 72
     2
 73
     1
 90
        0
 40
-0.6
 41
-30.0
 62
     5
 63
     7
 74
     1
 91
        4
 64
     7
 65
   257
 75
     1
175
     1
 42
1.0
 92
        0
 66
   257
 43
1.0
 76
     1
 77
     6
 78
     2
 67
     7
 79
     5
170
     0
171
     0
290
     0
174
     0
 93
        1
 44
0.0
173
     0
291
     0
 45
0.0
1001
ACAD
1000
AcDbSavedByObjectVersion
1070
     0
  0
VISUALSTYLE
  5
F4
102
{ACAD_REACTORS
330
EF
102
}
330
EF
100
AcDbVisualStyle
  2
Basic
 70
     7
 71
     1
 72
     0
 73
     1
 90
        0
 40
-0.6
 41
-30.0
 62
     5
 63
     7
 74
     0
 91
        4
 64
     7
 65
   257
 75
     1
175
     1
 42
1.0
 92
        8
 66
     7
 43
1.0
 76
     1
 77
     6
 78
     2
 67
     7
 79
     5
170
     0
171
     0
290
     0
174
     0
 93
        1
 44
0.0
173
     0
291
     1
 45
0.0
1001
ACAD
1000
AcDbSavedByObjectVersion
1070
     0
  0
VISUALSTYLE
  5
FB
102
{ACAD_REACTORS
330
EF
102
}
330
EF
100
AcDbVisualStyle
  2
Brighten
 70
    12
 71
     2
 72
     2
 73
     1
 90
        0
 40
-0.6
 41
-30.0
 62
     5
 63
     7
 74
     1
 91
        4
 64
     7
 65
   257
 75
     1
175
     1
 42
1.0
 92
        8
 66
     7
 43
1.0
 76
     1
 77
     6
 78
     2
 67
     7
 79
     5
170
     0
171
     0
290
     0
174
     0
 93
        1
 44
50.0
173
     0
291
     1
 45
0.0
1001
ACAD
1000
AcDbSavedByObjectVersion
1070
     0
  0
VISUALSTYLE
  5
FF
102
{ACAD_REACTORS
330
EF
102
}
330
EF
100
AcDbVisualStyle
  2
ColorChange
 70
    16
 71
     2
 72
     2
 73
     3
 90
        0
 40
-0.6
 41
-30.0
 62
     5
 63
     8
 74
     1
 91
        4
 64
     7
 65
   257
 75
     1
175
     1
 42
1.0
 92
        8
 66
     8
 43
1.0
 76
     1
 77
     6
 78
     2
 67
     7
 79
     5
170
     0
171
     0
290
     0
174
     0
 93
        1
 44
0.0
173
     0
291
     1
 45
0.0
1001
ACAD
1000
AcDbSavedByObjectVersion
1070
     0
  0
VISUALSTYLE
  5
F8
102
{ACAD_REACTORS
330
EF
102
}
330
EF
100
AcDbVisualStyle
  2
Conceptual
 70
     9
 71
     3
 72
     2
 73
     1
 90
        0
 40
-0.6
 41
-30.0
 62
     5
 63
     7
 74
     2
 91
        2
 64
     7
 65
   257
 75
     1
175
     1
 42
40.0
 92
        8
 66
     7
 43
1.0
 76
     1
 77
     6
 78
     2
 67
     7
 79
     3
170
     0
171
     0
290
     0
174
     0
 93
        1
 44
0.0
173
     0
291
     0
 45
0.0
1001
ACAD
1000
AcDbSavedByObjectVersion
1070
     0
  0
VISUALSTYLE
  5
FA
102
{ACAD_REACTORS
330
EF
102
}
330
EF
100
AcDbVisualStyle
  2
Dim
 70
    11
 71
     2
 72
     2
 73
     1
 90
        0
 40
-0.6
 41
-30.0
 62
     5
 63
     7
 74
     1
 91
        4
 64
     7
 65
   257
 75
     1
175
     1
 42
1.0
 92
        8
 66
     7
 43
1.0
 76
     1
 77
     6
 78
     2
 67
     7
 79
     5
170
     0
171
     0
290
     0
174
     0
 93
        1
 44
-50.0
173
     0
291
     1
 45
0.0
1001
ACAD
1000
AcDbSavedByObjectVersion
1070
     0
  0
VISUALSTYLE
  5
FE
102
{ACAD_REACTORS
330
EF
102
}
330
EF
100
AcDbVisualStyle
  2
Facepattern
 70
    15
 71
     2
 72
     2
 73
     1
 90
        0
 40
-0.6
 41
-30.0
 62
     5
 63
     7
 74
     1
 91
        4
 64
     7
 65
   257
 75
     1
175
     1
 42
1.0
 92
        8
 66
     7
 43
1.0
 76
     1
 77
     6
 78
     2
 67
     7
 79
     5
170
     0
171
     0
290
     0
174
     0
 93
        1
 44
0.0
173
     0
291
     1
 45
0.0
1001
ACAD
1000
AcDbSavedByObjectVersion
1070
     0
  0
VISUALSTYLE
  5
F0
102
{ACAD_REACTORS
330
EF
102
}
330
EF
100
AcDbVisualStyle
  2
Flat
 70
     0
 71
     2
 72
     1
 73
     1
 90
        2
 40
-0.6
 41
30.0
 62
     5
 63
     7
 74
     0
 91
        4
 64
     7
 65
   257
 75
     1
175
     1
 42
1.0
 92
        8
 66
     7
 43
1.0
 76
     1
 77
     6
 78
     2
 67
     7
 79
     5
170
     0
171
     0
290
     0
174
     0
 93
        1
 44
0.0
173
     0
291
     1
 45
0.0
1001
ACAD
1000
AcDbSavedByObjectVersion
1070
     0
  0
VISUALSTYLE
  5
F1
102
{ACAD_REACTORS
330
EF
102
}
330
EF
100
AcDbVisualStyle
  2
FlatWithEdges
 70
     1
 71
     2
 72
     1
 73
     1
 90
        2
 40
-0.6
 41
30.0
 62
     5
 63
     7
 74
     1
 91
        4
 64
     7
 65
   257
 75
     1
175
     1
 42
1.0
 92
        0
 66
   257
 43
1.0
 76
     1
 77
     6
 78
     2
 67
     7
 79
     5
170
     0
171
     0
290
     0
174
     0
 93
        1
 44
0.0
173
     0
291
     1
 45
0.0
1001
ACAD
1000
AcDbSavedByObjectVersion
1070
     0
  0
VISUALSTYLE
  5
F2
102
{ACAD_REACTORS
330
EF
102
}
330
EF
100
AcDbVisualStyle
  2
Gouraud
 70
     2
 71
     2
 72
     2
 73
     1
 90
        2
 40
-0.6
 41
30.0
 62
     5
 63
     7
 74
     0
 91
        4
 64
     7
 65
   257
 75
     1
175
     1
 42
1.0
 92
        0
 66
     7
 43
1.0
 76
     1
 77
     6
 78
     2
 67
     7
 79
     5
170
     0
171
     0
290
     0
174
     0
 93
        1
 44
0.0
173
     0
291
     1
 45
0.0
1001
ACAD
1000
AcDbSavedByObjectVersion
1070
     0
  0
VISUALSTYLE
  5
F3
102
{ACAD_REACTORS
330
EF
102
}
330
EF
100
AcDbVisualStyle
  2
GouraudWithEdges
 70
     3
 71
     2
 72
     2
 73
     1
 90
        2
 40
-0.6
 41
30.0
 62
     5
 63
     7
 74
     1
 91
        4
 64
     7
 65
   257
 75
     1
175
     1
 42
1.0
 92
        0
 66
   257
 43
1.0
 76
     1
 77
     6
 78
     2
 67
     7
 79
     5
170
     0
171
     0
290
     0
174
     0
 93
        1
 44
0.0
173
     0
291
     1
 45
0.0
1001
ACAD
1000
AcDbSavedByObjectVersion
1070
     0
  0
VISUALSTYLE
  5
FD
102
{ACAD_REACTORS
330
EF
102
}
330
EF
100
AcDbVisualStyle
  2
Linepattern
 70
    14
 71
     2
 72
     2
 73
     1
 90
        0
 40
-0.6
 41
-30.0
 62
     5
 63
     7
 74
     1
 91
        4
 64
     7
 65
   257
 75
     7
175
     7
 42
1.0
 92
        8
 66
     7
 43
1.0
 76
     1
 77
     6
 78
     2
 67
     7
 79
     5
170
     0
171
     0
290
     0
174
     0
 93
        1
 44
0.0
173
     0
291
     1
 45
0.0
1001
ACAD
1000
AcDbSavedByObjectVersion
1070
     0
  0
VISUALSTYLE
  5
F9
102
{ACAD_REACTORS
330
EF
102
}
330
EF
100
AcDbVisualStyle
  2
Realistic
 70
     8
 71
     2
 72
     2
 73
     1
 90
        0
 40
-0.6
 41
-30.0
 62
     5
 63
     7
 74
     1
 91
        0
 64
     7
 65
   257
 75
     1
175
     1
 42
1.0
 92
        8
 66
     8
 43
1.0
 76
     1
 77
     6
 78
     2
 67
     7
 79
     5
170
     0
171
     0
290
     0
174
     0
 93
       13
 44
0.0
173
     0
291
     0
 45
0.0
1001
ACAD
1000
AcDbSavedByObjectVersion
1070
     0
  0
VISUALSTYLE
  5
FC
102
{ACAD_REACTORS
330
EF
102
}
330
EF
100
AcDbVisualStyle
  2
Thicken
 70
    13
 71
     2
 72
     2
 73
     1
 90
        0
 40
-0.6
 41
-30.0
 62
     5
 63
     7
 74
     1
 91
        4
 64
     7
 65
   257
 75
     1
175
     1
 42
1.0
 92
       12
 66
     7
 43
1.0
 76
     1
 77
     6
 78
     2
 67
     7
 79
     5
170
     0
171
     0
290
     0
174
     0
 93
        1
 44
0.0
173
     0
291
     1
 45
0.0
1001
ACAD
1000
AcDbSavedByObjectVersion
1070
     0
  0
DICTIONARYVAR
  5
146
102
{ACAD_REACTORS
330
5E
102
}
330
5E
100
DictionaryVariables
280
     0
  1
1:1
  0
DICTIONARYVAR
  5
145
102
{ACAD_REACTORS
330
5E
102
}
330
5E
100
DictionaryVariables
280
     0
  1
STANDARD
  0
DICTIONARYVAR
  5
84
102
{ACAD_REACTORS
330
5E
102
}
330
5E
100
DictionaryVariables
280
     0
  1
STANDARD
  0
DICTIONARYVAR
  5
5F
102
{ACAD_REACTORS
330
5E
102
}
330
5E
100
DictionaryVariables
280
     0
  1
2
  0
DICTIONARYVAR
  5
63
102
{ACAD_REACTORS
330
5E
102
}
330
5E
100
DictionaryVariables
280
     0
  1
1
  0
DICTIONARYVAR
  5
8A8
102
{ACAD_REACTORS
330
5E
102
}
330
5E
100
DictionaryVariables
280
     0
  1
0
  0
DICTIONARYVAR
  5
8A6
102
{ACAD_REACTORS
330
5E
102
}
330
5E
100
DictionaryVariables
280
     0
  1
2
  0
DICTIONARYVAR
  5
8A5
102
{ACAD_REACTORS
330
5E
102
}
330
5E
100
DictionaryVariables
280
     0
  1
1
  0
DICTIONARYVAR
  5
8AA
102
{ACAD_REACTORS
330
5E
102
}
330
5E
100
DictionaryVariables
280
     0
  1
80.000000
  0
DICTIONARYVAR
  5
8A9
102
{ACAD_REACTORS
330
5E
102
}
330
5E
100
DictionaryVariables
280
     0
  1
5.000000
  0
DICTIONARYVAR
  5
8A7
102
{ACAD_REACTORS
330
5E
102
}
330
5E
100
DictionaryVariables
280
     0
  1
127
  0
DICTIONARY
  5
8B0
330
D3
100
AcDbDictionary
280
     1
281
     1
  3
ACAD_XREC_ROUNDTRIP
360
8B1
  0
DICTIONARY
  5
8B2
330
D7
100
AcDbDictionary
280
     1
281
     1
  3
ACAD_XREC_ROUNDTRIP
360
8B3
  0
DICTIONARY
  5
8AD
330
22
100
AcDbDictionary
280
     1
281
     1
  3
ACAD_XREC_ROUNDTRIP
360
8AE
  0
DICTIONARY
  5
8B6
330
ED
100
AcDbDictionary
280
     1
281
     1
  3
ACAD_XREC_ROUNDTRIP
360
8B7
  0
DICTIONARY
  5
8B4
330
EC
100
AcDbDictionary
280
     1
281
     1
  3
ACAD_XREC_ROUNDTRIP
360
8B5
  0
DICTIONARY
  5
173
330
EE
100
AcDbDictionary
280
     1
281
     1
  3
ACAD_XREC_ROUNDTRIP
360
8B8
  3
BUMPTILE
360
175
  3
DIFFUSETILE
360
174
  3
OPACITYTILE
360
176
  3
REFLECTIONTILE
360
177
  0
DICTIONARY
  5
162
330
7F
100
AcDbDictionary
280
     1
281
     1
  3
ACAD_ROUNDTRIP_2008_TABLESTYLE_CELLSTYLEMAP
360
8AB
  3
ACAD_XREC_ROUNDTRIP
360
8AF
  0
XRECORD
  5
8B1
102
{ACAD_REACTORS
330
8B0
102
}
330
8B0
100
AcDbXrecord
280
     1
102
SHADEPLOT
 70
     0
102
SHADEPLOTRESLEVEL
 70
     2
102
SHADEPLOTCUSTOMDPI
 70
   300
  0
XRECORD
  5
8B3
102
{ACAD_REACTORS
330
8B2
102
}
330
8B2
100
AcDbXrecord
280
     1
102
SHADEPLOT
 70
     0
102
SHADEPLOTRESLEVEL
 70
     2
102
SHADEPLOTCUSTOMDPI
 70
   300
  0
XRECORD
  5
8AE
102
{ACAD_REACTORS
330
8AD
102
}
330
8AD
100
AcDbXrecord
280
     1
102
SHADEPLOT
 70
     0
102
SHADEPLOTRESLEVEL
 70
     2
102
SHADEPLOTCUSTOMDPI
 70
   300
  0
XRECORD
  5
8B7
102
{ACAD_REACTORS
330
8B6
102
}
330
8B6
100
AcDbXrecord
280
     1
102
MATERIAL
148
0.0
149
0.0
149
0.0
 93
        0
 94
       63
282
     0
 72
     1
 77
     1
171
     1
175
     1
179
     1
273
     0
  0
XRECORD
  5
8B5
102
{ACAD_REACTORS
330
8B4
102
}
330
8B4
100
AcDbXrecord
280
     1
102
MATERIAL
148
0.0
149
0.0
149
0.0
 93
        0
 94
       63
282
     0
 72
     1
 77
     1
171
     1
175
     1
179
     1
273
     0
  0
XRECORD
  5
8B8
102
{ACAD_REACTORS
330
173
102
}
330
173
100
AcDbXrecord
280
     1
102
MATERIAL
148
0.0
149
0.0
149
0.0
 93
        0
 94
       63
282
     0
 72
     1
 77
     1
171
     1
175
     1
179
     1
273
     0
  0
XRECORD
  5
175
102
{ACAD_REACTORS
330
173
102
}
330
173
100
AcDbXrecord
280
     1
270
     1
271
     1
  0
XRECORD
  5
174
102
{ACAD_REACTORS
330
173
102
}
330
173
100
AcDbXrecord
280
     1
270
     1
271
     1
  0
XRECORD
  5
176
102
{ACAD_REACTORS
330
173
102
}
330
173
100
AcDbXrecord
280
     1
270
     1
271
     1
  0
XRECORD
  5
177
102
{ACAD_REACTORS
330
173
102
}
330
173
100
AcDbXrecord
280
     1
270
     1
271
     1
  0
CELLSTYLEMAP
  5
8AB
102
{ACAD_REACTORS
330
162
102
}
330
162
100
AcDbCellStyleMap
 90
        3
300
CELLSTYLE
  1
TABLEFORMAT_BEGIN
 90
        5
170
     1
 91
        0
 92
    32768
 62
   257
 93
        1
300
CONTENTFORMAT
  1
CONTENTFORMAT_BEGIN
 90
        0
 91
        0
 92
      512
 93
        0
300

 40
0.0
140
1.0
 94
        5
 62
     0
340
11
144
6.0
309
CONTENTFORMAT_END
171
     1
301
MARGIN
  1
CELLMARGIN_BEGIN
 40
1.5
 40
1.5
 40
1.5
 40
1.5
 40
4.5
 40
4.5
309
CELLMARGIN_END
 94
        6
 95
        1
302
GRIDFORMAT
  1
GRIDFORMAT_BEGIN
 90
        0
 91
        1
 62
     0
 92
       -2
340
14
 93
        0
 40
1.125
309
GRIDFORMAT_END
 95
        2
302
GRIDFORMAT
  1
GRIDFORMAT_BEGIN
 90
        0
 91
        1
 62
     0
 92
       -2
340
14
 93
        0
 40
1.125
309
GRIDFORMAT_END
 95
        4
302
GRIDFORMAT
  1
GRIDFORMAT_BEGIN
 90
        0
 91
        1
 62
     0
 92
       -2
340
14
 93
        0
 40
1.125
309
GRIDFORMAT_END
 95
        8
302
GRIDFORMAT
  1
GRIDFORMAT_BEGIN
 90
        0
 91
        1
 62
     0
 92
       -2
340
14
 93
        0
 40
1.125
309
GRIDFORMAT_END
 95
       16
302
GRIDFORMAT
  1
GRIDFORMAT_BEGIN
 90
        0
 91
        1
 62
     0
 92
       -2
340
14
 93
        0
 40
1.125
309
GRIDFORMAT_END
 95
       32
302
GRIDFORMAT
  1
GRIDFORMAT_BEGIN
 90
        0
 91
        1
 62
     0
 92
       -2
340
14
 93
        0
 40
1.125
309
GRIDFORMAT_END
309
TABLEFORMAT_END
  1
CELLSTYLE_BEGIN
 90
        1
 91
        1
300
_TITLE
309
CELLSTYLE_END
300
CELLSTYLE
  1
TABLEFORMAT_BEGIN
 90
        5
170
     1
 91
        0
 92
        0
 62
   257
 93
        1
300
CONTENTFORMAT
  1
CONTENTFORMAT_BEGIN
 90
        0
 91
        0
 92
      512
 93
        0
300

 40
0.0
140
1.0
 94
        5
 62
     0
340
11
144
4.5
309
CONTENTFORMAT_END
171
     1
301
MARGIN
  1
CELLMARGIN_BEGIN
 40
1.5
 40
1.5
 40
1.5
 40
1.5
 40
4.5
 40
4.5
309
CELLMARGIN_END
 94
        6
 95
        1
302
GRIDFORMAT
  1
GRIDFORMAT_BEGIN
 90
        0
 91
        1
 62
     0
 92
       -2
340
14
 93
        0
 40
1.125
309
GRIDFORMAT_END
 95
        2
302
GRIDFORMAT
  1
GRIDFORMAT_BEGIN
 90
        0
 91
        1
 62
     0
 92
       -2
340
14
 93
        0
 40
1.125
309
GRIDFORMAT_END
 95
        4
302
GRIDFORMAT
  1
GRIDFORMAT_BEGIN
 90
        0
 91
        1
 62
     0
 92
       -2
340
14
 93
        0
 40
1.125
309
GRIDFORMAT_END
 95
        8
302
GRIDFORMAT
  1
GRIDFORMAT_BEGIN
 90
        0
 91
        1
 62
     0
 92
       -2
340
14
 93
        0
 40
1.125
309
GRIDFORMAT_END
 95
       16
302
GRIDFORMAT
  1
GRIDFORMAT_BEGIN
 90
        0
 91
        1
 62
     0
 92
       -2
340
14
 93
        0
 40
1.125
309
GRIDFORMAT_END
 95
       32
302
GRIDFORMAT
  1
GRIDFORMAT_BEGIN
 90
        0
 91
        1
 62
     0
 92
       -2
340
14
 93
        0
 40
1.125
309
GRIDFORMAT_END
309
TABLEFORMAT_END
  1
CELLSTYLE_BEGIN
 90
        2
 91
        1
300
_HEADER
309
CELLSTYLE_END
300
CELLSTYLE
  1
TABLEFORMAT_BEGIN
 90
        5
170
     1
 91
        0
 92
        0
 62
   257
 93
        1
300
CONTENTFORMAT
  1
CONTENTFORMAT_BEGIN
 90
        0
 91
        0
 92
      512
 93
        0
300

 40
0.0
140
1.0
 94
        2
 62
     0
340
11
144
4.5
309
CONTENTFORMAT_END
171
     1
301
MARGIN
  1
CELLMARGIN_BEGIN
 40
1.5
 40
1.5
 40
1.5
 40
1.5
 40
4.5
 40
4.5
309
CELLMARGIN_END
 94
        6
 95
        1
302
GRIDFORMAT
  1
GRIDFORMAT_BEGIN
 90
        0
 91
        1
 62
     0
 92
       -2
340
14
 93
        0
 40
1.125
309
GRIDFORMAT_END
 95
        2
302
GRIDFORMAT
  1
GRIDFORMAT_BEGIN
 90
        0
 91
        1
 62
     0
 92
       -2
340
14
 93
        0
 40
1.125
309
GRIDFORMAT_END
 95
        4
302
GRIDFORMAT
  1
GRIDFORMAT_BEGIN
 90
        0
 91
        1
 62
     0
 92
       -2
340
14
 93
        0
 40
1.125
309
GRIDFORMAT_END
 95
        8
302
GRIDFORMAT
  1
GRIDFORMAT_BEGIN
 90
        0
 91
        1
 62
     0
 92
       -2
340
14
 93
        0
 40
1.125
309
GRIDFORMAT_END
 95
       16
302
GRIDFORMAT
  1
GRIDFORMAT_BEGIN
 90
        0
 91
        1
 62
     0
 92
       -2
340
14
 93
        0
 40
1.125
309
GRIDFORMAT_END
 95
       32
302
GRIDFORMAT
  1
GRIDFORMAT_BEGIN
 90
        0
 91
        1
 62
     0
 92
       -2
340
14
 93
        0
 40
1.125
309
GRIDFORMAT_END
309
TABLEFORMAT_END
  1
CELLSTYLE_BEGIN
 90
        3
 91
        2
300
_DATA
309
CELLSTYLE_END
  0
XRECORD
  5
8AF
102
{ACAD_REACTORS
330
162
102
}
330
162
100
AcDbXrecord
280
     1
102
ACAD_ROUNDTRIP_PRE2007_TABLESTYLE
 90
      512
 91
        0
  1

 92
      512
 93
        0
  2

 94
      512
 95
        0
  3

  0
ENDSEC
  0
EOF
