  0
SECTION
  2
HEADER
  9
$ACADVER
  1
AC1015
  9
$ACADMAINTVER
 70
    20
  9
$DWGCODEPAGE
  3
ANSI_1254
  9
$INSBASE
 10
0.0
 20
0.0
 30
0.0
  9
$EXTMIN
 10
1747.189222476642
 20
944.7935589423078
 30
0.0
  9
$EXTMAX
 10
2349.852392447941
 20
1273.017301086001
 30
0.0
  9
$LIMMIN
 10
0.0
 20
0.0
  9
$LIMMAX
 10
420.0
 20
297.0
  9
$ORTHOMODE
 70
     0
  9
$REGENMODE
 70
     1
  9
$FILLMODE
 70
     1
  9
$QTEXTMODE
 70
     0
  9
$MIRRTEXT
 70
     0
  9
$LTSCALE
 40
1.0
  9
$ATTMODE
 70
     1
  9
$TEXTSIZE
 40
2.5
  9
$TRACEWID
 40
1.0
  9
$TEXTSTYLE
  7
Standard
  9
$CLAYER
  8
0
  9
$CELTYPE
  6
ByLayer
  9
$CECOLOR
 62
   256
  9
$CELTSCALE
 40
1.0
  9
$DISPSILH
 70
     0
  9
$DIMSCALE
 40
1.0
  9
$DIMASZ
 40
2.5
  9
$DIMEXO
 40
0.625
  9
$DIMDLI
 40
3.75
  9
$DIMRND
 40
0.0
  9
$DIMDLE
 40
0.0
  9
$DIMEXE
 40
1.25
  9
$DIMTP
 40
0.0
  9
$DIMTM
 40
0.0
  9
$DIMTXT
 40
2.5
  9
$DIMCEN
 40
2.5
  9
$DIMTSZ
 40
0.0
  9
$DIMTOL
 70
     0
  9
$DIMLIM
 70
     0
  9
$DIMTIH
 70
     0
  9
$DIMTOH
 70
     0
  9
$DIMSE1
 70
     0
  9
$DIMSE2
 70
     0
  9
$DIMTAD
 70
     1
  9
$DIMZIN
 70
     8
  9
$DIMBLK
  1

  9
$DIMASO
 70
     1
  9
$DIMSHO
 70
     1
  9
$DIMPOST
  1

  9
$DIMAPOST
  1

  9
$DIMALT
 70
     0
  9
$DIMALTD
 70
     3
  9
$DIMALTF
 40
0.03937007874016
  9
$DIMLFAC
 40
1.0
  9
$DIMTOFL
 70
     1
  9
$DIMTVP
 40
0.0
  9
$DIMTIX
 70
     0
  9
$DIMSOXD
 70
     0
  9
$DIMSAH
 70
     0
  9
$DIMBLK1
  1

  9
$DIMBLK2
  1

  9
$DIMSTYLE
  2
ISO-25
  9
$DIMCLRD
 70
     0
  9
$DIMCLRE
 70
     0
  9
$DIMCLRT
 70
     0
  9
$DIMTFAC
 40
1.0
  9
$DIMGAP
 40
0.625
  9
$DIMJUST
 70
     0
  9
$DIMSD1
 70
     0
  9
$DIMSD2
 70
     0
  9
$DIMTOLJ
 70
     0
  9
$DIMTZIN
 70
     8
  9
$DIMALTZ
 70
     0
  9
$DIMALTTZ
 70
     0
  9
$DIMUPT
 70
     0
  9
$DIMDEC
 70
     2
  9
$DIMTDEC
 70
     2
  9
$DIMALTU
 70
     2
  9
$DIMALTTD
 70
     3
  9
$DIMTXSTY
  7
Standard
  9
$DIMAUNIT
 70
     0
  9
$DIMADEC
 70
     0
  9
$DIMALTRND
 40
0.0
  9
$DIMAZIN
 70
     0
  9
$DIMDSEP
 70
    44
  9
$DIMATFIT
 70
     3
  9
$DIMFRAC
 70
     0
  9
$DIMLDRBLK
  1

  9
$DIMLUNIT
 70
     2
  9
$DIMLWD
 70
    -2
  9
$DIMLWE
 70
    -2
  9
$DIMTMOVE
 70
     0
  9
$LUNITS
 70
     2
  9
$LUPREC
 70
     4
  9
$SKETCHINC
 40
1.0
  9
$FILLETRAD
 40
0.0
  9
$AUNITS
 70
     0
  9
$AUPREC
 70
     0
  9
$MENU
  1
.
  9
$ELEVATION
 40
0.0
  9
$PELEVATION
 40
0.0
  9
$THICKNESS
 40
0.0
  9
$LIMCHECK
 70
     0
  9
$CHAMFERA
 40
0.0
  9
$CHAMFERB
 40
0.0
  9
$CHAMFERC
 40
0.0
  9
$CHAMFERD
 40
0.0
  9
$SKPOLY
 70
     0
  9
$TDCREATE
 40
2458570.559100776
  9
$TDUCREATE
 40
2458570.434100776
  9
$TDUPDATE
 40
2459082.549999479
  9
$TDUUPDATE
 40
2459082.424999479
  9
$TDINDWG
 40
0.0003577431
  9
$TDUSRTIMER
 40
0.0003577431
  9
$USRTIMER
 70
     1
  9
$ANGBASE
 50
0.0
  9
$ANGDIR
 70
     0
  9
$PDMODE
 70
     0
  9
$PDSIZE
 40
0.0
  9
$PLINEWID
 40
0.0
  9
$SPLFRAME
 70
     0
  9
$SPLINETYPE
 70
     6
  9
$SPLINESEGS
 70
     8
  9
$HANDSEED
  5
4D5
  9
$SURFTAB1
 70
     6
  9
$SURFTAB2
 70
     6
  9
$SURFTYPE
 70
     6
  9
$SURFU
 70
     6
  9
$SURFV
 70
     6
  9
$UCSBASE
  2

  9
$UCSNAME
  2

  9
$UCSORG
 10
0.0
 20
0.0
 30
0.0
  9
$UCSXDIR
 10
1.0
 20
0.0
 30
0.0
  9
$UCSYDIR
 10
0.0
 20
1.0
 30
0.0
  9
$UCSORTHOREF
  2

  9
$UCSORTHOVIEW
 70
     0
  9
$UCSORGTOP
 10
0.0
 20
0.0
 30
0.0
  9
$UCSORGBOTTOM
 10
0.0
 20
0.0
 30
0.0
  9
$UCSORGLEFT
 10
0.0
 20
0.0
 30
0.0
  9
$UCSORGRIGHT
 10
0.0
 20
0.0
 30
0.0
  9
$UCSORGFRONT
 10
0.0
 20
0.0
 30
0.0
  9
$UCSORGBACK
 10
0.0
 20
0.0
 30
0.0
  9
$PUCSBASE
  2

  9
$PUCSNAME
  2

  9
$PUCSORG
 10
0.0
 20
0.0
 30
0.0
  9
$PUCSXDIR
 10
1.0
 20
0.0
 30
0.0
  9
$PUCSYDIR
 10
0.0
 20
1.0
 30
0.0
  9
$PUCSORTHOREF
  2

  9
$PUCSORTHOVIEW
 70
     0
  9
$PUCSORGTOP
 10
0.0
 20
0.0
 30
0.0
  9
$PUCSORGBOTTOM
 10
0.0
 20
0.0
 30
0.0
  9
$PUCSORGLEFT
 10
0.0
 20
0.0
 30
0.0
  9
$PUCSORGRIGHT
 10
0.0
 20
0.0
 30
0.0
  9
$PUCSORGFRONT
 10
0.0
 20
0.0
 30
0.0
  9
$PUCSORGBACK
 10
0.0
 20
0.0
 30
0.0
  9
$USERI1
 70
     0
  9
$USERI2
 70
     0
  9
$USERI3
 70
     0
  9
$USERI4
 70
     0
  9
$USERI5
 70
     0
  9
$USERR1
 40
0.0
  9
$USERR2
 40
0.0
  9
$USERR3
 40
0.0
  9
$USERR4
 40
0.0
  9
$USERR5
 40
0.0
  9
$WORLDVIEW
 70
     1
  9
$SHADEDGE
 70
     3
  9
$SHADEDIF
 70
    70
  9
$TILEMODE
 70
     1
  9
$MAXACTVP
 70
    64
  9
$PINSBASE
 10
0.0
 20
0.0
 30
0.0
  9
$PLIMCHECK
 70
     0
  9
$PEXTMIN
 10
0.0
 20
0.0
 30
0.0
  9
$PEXTMAX
 10
0.0
 20
0.0
 30
0.0
  9
$PLIMMIN
 10
0.0
 20
0.0
  9
$PLIMMAX
 10
12.0
 20
9.0
  9
$UNITMODE
 70
     0
  9
$VISRETAIN
 70
     1
  9
$PLINEGEN
 70
     0
  9
$PSLTSCALE
 70
     1
  9
$TREEDEPTH
 70
  3020
  9
$CMLSTYLE
  2
Standard
  9
$CMLJUST
 70
     0
  9
$CMLSCALE
 40
20.0
  9
$PROXYGRAPHICS
 70
     1
  9
$MEASUREMENT
 70
     1
  9
$CELWEIGHT
370
    -1
  9
$ENDCAPS
280
     0
  9
$JOINSTYLE
280
     0
  9
$LWDISPLAY
290
     0
  9
$INSUNITS
 70
     4
  9
$HYPERLINKBASE
  1

  9
$STYLESHEET
  1

  9
$XEDIT
290
     1
  9
$CEPSNTYPE
380
     0
  9
$PSTYLEMODE
290
     1
  9
$FINGERPRINTGUID
  2
{D6D77EB9-569C-48CB-96B2-751B1185D337}
  9
$VERSIONGUID
  2
{F18C95D6-2050-402E-B0EC-28AE948AD158}
  9
$EXTNAMES
290
     1
  9
$PSVPSCALE
 40
0.0
  9
$OLESTARTUP
290
     0
  0
ENDSEC
  0
SECTION
  2
CLASSES
  0
CLASS
  1
ACDBDICTIONARYWDFLT
  2
AcDbDictionaryWithDefault
  3
ObjectDBX Classes
 90
        0
280
     0
281
     0
  0
CLASS
  1
ACDBPLACEHOLDER
  2
AcDbPlaceHolder
  3
ObjectDBX Classes
 90
        0
280
     0
281
     0
  0
CLASS
  1
LAYOUT
  2
AcDbLayout
  3
ObjectDBX Classes
 90
        0
280
     0
281
     0
  0
CLASS
  1
DICTIONARYVAR
  2
AcDbDictionaryVar
  3
ObjectDBX Classes
 90
        0
280
     0
281
     0
  0
CLASS
  1
TABLESTYLE
  2
AcDbTableStyle
  3
ObjectDBX Classes
 90
     4095
280
     0
281
     0
  0
CLASS
  1
MATERIAL
  2
AcDbMaterial
  3
ObjectDBX Classes
 90
     1153
280
     0
281
     0
  0
CLASS
  1
VISUALSTYLE
  2
AcDbVisualStyle
  3
ObjectDBX Classes
 90
     4095
280
     0
281
     0
  0
CLASS
  1
SCALE
  2
AcDbScale
  3
ObjectDBX Classes
 90
     1153
280
     0
281
     0
  0
CLASS
  1
MLEADERSTYLE
  2
AcDbMLeaderStyle
  3
ACDB_MLEADERSTYLE_CLASS
 90
     4095
280
     0
281
     0
  0
CLASS
  1
CELLSTYLEMAP
  2
AcDbCellStyleMap
  3
ObjectDBX Classes
 90
     1152
280
     0
281
     0
  0
ENDSEC
  0
SECTION
  2
TABLES
  0
TABLE
  2
VPORT
  5
8
330
0
100
AcDbSymbolTable
 70
     1
  0
VPORT
  5
EA
330
8
100
AcDbSymbolTableRecord
100
AcDbViewportTableRecord
  2
*Active
 70
     0
 10
0.0
 20
0.0
 11
1.0
 21
1.0
 12
2077.12867257282
 22
1087.976276924986
 13
0.0
 23
0.0
 14
10.0
 24
10.0
 15
10.0
 25
10.0
 16
0.0
 26
0.0
 36
1.0
 17
0.0
 27
0.0
 37
0.0
 40
436.0550216065981
 41
1.903110047846889
 42
50.0
 43
0.0
 44
0.0
 50
0.0
 51
0.0
 71
     0
 72
  1000
 73
     1
 74
     3
 75
     0
 76
     0
 77
     0
 78
     0
281
     0
 65
     1
110
0.0
120
0.0
130
0.0
111
1.0
121
0.0
131
0.0
112
0.0
122
1.0
132
0.0
 79
     0
146
0.0
  0
ENDTAB
  0
TABLE
  2
LTYPE
  5
5
330
0
100
AcDbSymbolTable
 70
     1
  0
LTYPE
  5
14
330
5
100
AcDbSymbolTableRecord
100
AcDbLinetypeTableRecord
  2
ByBlock
 70
     0
  3

 72
    65
 73
     0
 40
0.0
  0
LTYPE
  5
15
330
5
100
AcDbSymbolTableRecord
100
AcDbLinetypeTableRecord
  2
ByLayer
 70
     0
  3

 72
    65
 73
     0
 40
0.0
  0
LTYPE
  5
16
330
5
100
AcDbSymbolTableRecord
100
AcDbLinetypeTableRecord
  2
Continuous
 70
     0
  3
Solid line
 72
    65
 73
     0
 40
0.0
  0
ENDTAB
  0
TABLE
  2
LAYER
  5
2
330
0
100
AcDbSymbolTable
 70
     1
  0
LAYER
  5
10
102
{ACAD_XDICTIONARY
360
13C
102
}
330
2
100
AcDbSymbolTableRecord
100
AcDbLayerTableRecord
  2
0
 70
     0
 62
     7
  6
Continuous
370
    -3
390
F
  0
ENDTAB
  0
TABLE
  2
STYLE
  5
3
330
0
100
AcDbSymbolTable
 70
     2
  0
STYLE
  5
11
330
3
100
AcDbSymbolTableRecord
100
AcDbTextStyleTableRecord
  2
Standard
 70
     0
 40
0.0
 41
1.0
 50
0.0
 71
     0
 42
2.5
  3
txt
  4

  0
STYLE
  5
132
330
3
100
AcDbSymbolTableRecord
100
AcDbTextStyleTableRecord
  2
Annotative
 70
     0
 40
0.0
 41
1.0
 50
0.0
 71
     0
 42
2.5
  3
txt.shx
  4

1001
AcadAnnotative
1000
AnnotativeData
1002
{
1070
     1
1070
     1
1002
}
  0
ENDTAB
  0
TABLE
  2
VIEW
  5
6
330
0
100
AcDbSymbolTable
 70
     0
  0
ENDTAB
  0
TABLE
  2
UCS
  5
7
330
0
100
AcDbSymbolTable
 70
     0
  0
ENDTAB
  0
TABLE
  2
APPID
  5
9
330
0
100
AcDbSymbolTable
 70
     7
  0
APPID
  5
12
330
9
100
AcDbSymbolTableRecord
100
AcDbRegAppTableRecord
  2
ACAD
 70
     0
  0
APPID
  5
9E
330
9
100
AcDbSymbolTableRecord
100
AcDbRegAppTableRecord
  2
ACAD_PSEXT
 70
     0
  0
APPID
  5
133
330
9
100
AcDbSymbolTableRecord
100
AcDbRegAppTableRecord
  2
AcadAnnoPO
 70
     0
  0
APPID
  5
134
330
9
100
AcDbSymbolTableRecord
100
AcDbRegAppTableRecord
  2
AcadAnnotative
 70
     0
  0
APPID
  5
135
330
9
100
AcDbSymbolTableRecord
100
AcDbRegAppTableRecord
  2
ACAD_DSTYLE_DIMJAG
 70
     0
  0
APPID
  5
136
330
9
100
AcDbSymbolTableRecord
100
AcDbRegAppTableRecord
  2
ACAD_DSTYLE_DIMTALN
 70
     0
  0
APPID
  5
165
330
9
100
AcDbSymbolTableRecord
100
AcDbRegAppTableRecord
  2
ACAD_MLEADERVER
 70
     0
  0
ENDTAB
  0
TABLE
  2
DIMSTYLE
  5
A
330
0
100
AcDbSymbolTable
 70
     2
100
AcDbDimStyleTable
 71
     2
340
27
340
137
  0
DIMSTYLE
105
27
330
A
100
AcDbSymbolTableRecord
100
AcDbDimStyleTableRecord
  2
ISO-25
 70
     0
 41
2.5
 42
0.625
 43
3.75
 44
1.25
 73
     0
 74
     0
 77
     1
 78
     8
140
2.5
141
2.5
143
0.03937007874016
147
0.625
171
     3
172
     1
271
     2
272
     2
274
     3
278
    44
283
     0
284
     8
340
11
  0
DIMSTYLE
105
137
330
A
100
AcDbSymbolTableRecord
100
AcDbDimStyleTableRecord
  2
Annotative
 70
     0
 40
0.0
 41
2.5
 42
0.625
 43
3.75
 44
1.25
 73
     0
 74
     0
 77
     1
 78
     8
140
2.5
141
2.5
143
0.03937007874016
147
0.625
171
     3
172
     1
271
     2
272
     2
274
     3
278
    44
283
     0
284
     8
340
11
1001
AcadAnnotative
1000
AnnotativeData
1002
{
1070
     1
1070
     1
1002
}
1001
ACAD_DSTYLE_DIMJAG
1070
   388
1040
1.5
1001
ACAD_DSTYLE_DIMTALN
1070
   392
1070
     0
  0
ENDTAB
  0
TABLE
  2
BLOCK_RECORD
  5
1
330
0
100
AcDbSymbolTable
 70
     5
  0
BLOCK_RECORD
  5
1F
330
1
100
AcDbSymbolTableRecord
100
AcDbBlockTableRecord
  2
*Model_Space
340
22
  0
BLOCK_RECORD
  5
D2
330
1
100
AcDbSymbolTableRecord
100
AcDbBlockTableRecord
  2
*Paper_Space
340
D3
  0
BLOCK_RECORD
  5
D6
330
1
100
AcDbSymbolTableRecord
100
AcDbBlockTableRecord
  2
*Paper_Space0
340
D7
  0
BLOCK_RECORD
  5
3AD
330
1
100
AcDbSymbolTableRecord
100
AcDbBlockTableRecord
  2
1
340
0
310
2800000020000000200000000100080000000000000400000000000000000000000000000000000000000000000080000080000000808000800000008000800080800000C0C0C000C0DCC000F0CAA6000020400000206000002080000020A0000020C0000020E00000400000004020000040400000406000004080000040A0
310
000040C0000040E00000600000006020000060400000606000006080000060A0000060C0000060E00000800000008020000080400000806000008080000080A0000080C0000080E00000A0000000A0200000A0400000A0600000A0800000A0A00000A0C00000A0E00000C0000000C0200000C0400000C0600000C0800000C0
310
A00000C0C00000C0E00000E0000000E0200000E0400000E0600000E0800000E0A00000E0C00000E0E00040000000400020004000400040006000400080004000A0004000C0004000E00040200000402020004020400040206000402080004020A0004020C0004020E000404000004040200040404000404060004040800040
310
40A0004040C0004040E00040600000406020004060400040606000406080004060A0004060C0004060E00040800000408020004080400040806000408080004080A0004080C0004080E00040A0000040A0200040A0400040A0600040A0800040A0A00040A0C00040A0E00040C0000040C0200040C0400040C0600040C08000
310
40C0A00040C0C00040C0E00040E0000040E0200040E0400040E0600040E0800040E0A00040E0C00040E0E00080000000800020008000400080006000800080008000A0008000C0008000E00080200000802020008020400080206000802080008020A0008020C0008020E00080400000804020008040400080406000804080
310
008040A0008040C0008040E00080600000806020008060400080606000806080008060A0008060C0008060E00080800000808020008080400080806000808080008080A0008080C0008080E00080A0000080A0200080A0400080A0600080A0800080A0A00080A0C00080A0E00080C0000080C0200080C0400080C0600080C0
310
800080C0A00080C0C00080C0E00080E0000080E0200080E0400080E0600080E0800080E0A00080E0C00080E0E000C0000000C0002000C0004000C0006000C0008000C000A000C000C000C000E000C0200000C0202000C0204000C0206000C0208000C020A000C020C000C020E000C0400000C0402000C0404000C0406000C0
310
408000C040A000C040C000C040E000C0600000C0602000C0604000C0606000C0608000C060A000C060C000C060E000C0800000C0802000C0804000C0806000C0808000C080A000C080C000C080E000C0A00000C0A02000C0A04000C0A06000C0A08000C0A0A000C0A0C000C0A0E000C0C00000C0C02000C0C04000C0C06000
310
C0C08000C0C0A000F0FBFF00A4A0A000808080000000FF0000FF000000FFFF00FF000000FF00FF00FFFF0000FFFFFF0000000000000000000000000000000000000000000000000000000000000000000000000000000000000000000000000000000000000000000000000000000000000000000000000000000000000000
310
00000000000000000000000000000000000000000000000000000000000000000000000000000000000000000000000000000000000000000000000000000000000000000000000000000000000000000000000000000000000000000000000000000000000000000000000000000000000000000000000000000000000000
310
00000000000000000000000000000000000000000000000000000000000000000000000000000000000000000000000000000000000000000000000000000000000000000000000000000000000000000000000000000000000000000000000000000000000000000000000000000000000000000000000000000000000000
310
000000000000000000000000000000000000000000000000000000000000000000000000000000000000000000000000000000000000000000FFFFFFFFFFFFFFFFFFFFFFFFFFFFFFFFFFFFFFFF000000000000000000000000FFFFFFFFFFFFFFFFFFFFFFFFFFFFFFFFFFFFFFFFFF00000000000000000000FF000000000000
310
0000000000000000000000000000FF00000000000000000000FF0000000000000000000000000000000000000000FF00000000000000000000FF0000000000000000000000000000000000000000FF00000000000000000000FF0000000000000000000000000000000000000000FF000000000000FFFFFFFFFF0000000000
310
00000000000000000000000000000000FFFFFFFF0000FFFFFFFF00000000000000000000000000000000000000000000FFFFFFFF000000000000000000000000000000000000000000000000000000000000000000000000000000000000000000000000000000000000000000000000000000000000000000000000000000
310
00000000000000000000000000000000000000000000000000000000000000000000000000000000000000000000000000000000000000000000000000000000000000000000000000000000000000000000000000000000000000000000000000000000000000000000000000000000000000000000000000000000000000
310
00000000000000000000000000000000000000000000000000000000000000000000000000000000000000000000000000000000000000000000000000000000000000000000000000000000000000000000000000000000000000000000000000000000000000000000000000000000000000000000000000000000000000
310
0000000000000000000000000000000000000000000000000000000000000000000000000000000000000000000000000000000000000000
102
{BLKREFS
331
3C4
102
}
1001
ACAD
1000
DesignCenter Data
1002
{
1070
     1
1070
     4
1002
}
  0
BLOCK_RECORD
  5
3C5
330
1
100
AcDbSymbolTableRecord
100
AcDbBlockTableRecord
  2
2
340
0
310
2800000020000000200000000100080000000000000400000000000000000000000000000000000000000000000080000080000000808000800000008000800080800000C0C0C000C0DCC000F0CAA6000020400000206000002080000020A0000020C0000020E00000400000004020000040400000406000004080000040A0
310
000040C0000040E00000600000006020000060400000606000006080000060A0000060C0000060E00000800000008020000080400000806000008080000080A0000080C0000080E00000A0000000A0200000A0400000A0600000A0800000A0A00000A0C00000A0E00000C0000000C0200000C0400000C0600000C0800000C0
310
A00000C0C00000C0E00000E0000000E0200000E0400000E0600000E0800000E0A00000E0C00000E0E00040000000400020004000400040006000400080004000A0004000C0004000E00040200000402020004020400040206000402080004020A0004020C0004020E000404000004040200040404000404060004040800040
310
40A0004040C0004040E00040600000406020004060400040606000406080004060A0004060C0004060E00040800000408020004080400040806000408080004080A0004080C0004080E00040A0000040A0200040A0400040A0600040A0800040A0A00040A0C00040A0E00040C0000040C0200040C0400040C0600040C08000
310
40C0A00040C0C00040C0E00040E0000040E0200040E0400040E0600040E0800040E0A00040E0C00040E0E00080000000800020008000400080006000800080008000A0008000C0008000E00080200000802020008020400080206000802080008020A0008020C0008020E00080400000804020008040400080406000804080
310
008040A0008040C0008040E00080600000806020008060400080606000806080008060A0008060C0008060E00080800000808020008080400080806000808080008080A0008080C0008080E00080A0000080A0200080A0400080A0600080A0800080A0A00080A0C00080A0E00080C0000080C0200080C0400080C0600080C0
310
800080C0A00080C0C00080C0E00080E0000080E0200080E0400080E0600080E0800080E0A00080E0C00080E0E000C0000000C0002000C0004000C0006000C0008000C000A000C000C000C000E000C0200000C0202000C0204000C0206000C0208000C020A000C020C000C020E000C0400000C0402000C0404000C0406000C0
310
408000C040A000C040C000C040E000C0600000C0602000C0604000C0606000C0608000C060A000C060C000C060E000C0800000C0802000C0804000C0806000C0808000C080A000C080C000C080E000C0A00000C0A02000C0A04000C0A06000C0A08000C0A0A000C0A0C000C0A0E000C0C00000C0C02000C0C04000C0C06000
310
C0C08000C0C0A000F0FBFF00A4A0A000808080000000FF0000FF000000FFFF00FF000000FF00FF00FFFF0000FFFFFF0000000000000000000000000000000000000000000000000000000000000000000000000000000000000000000000000000000000000000000000000000000000000000000000000000000000000000
310
00000000000000000000000000000000000000000000000000000000000000000000000000000000000000000000000000000000000000000000000000000000000000000000000000000000000000000000000000000000000000000000000000000000000000000000000000000000000000000000000000000000000000
310
00000000000000000000000000000000000000000000000000000000000000000000000000000000000000000000000000000000000000000000000000000000000000000000000000000000000000000000000000000000000000000000000000000000000000000000000000000000000000000000000000000000000000
310
00000000000000000000000000000000000000000000000000000000000000000000000000000000000000000000000000000000000000000000000000000000000000000000000000000000000000000000000000000000000000000000000000000000000000000000000000000000000000000000000000000000000000
310
000000000000000000000000000000000000000000FFFFFFFFFFFFFFFFFFFFFFFFFFFFFFFFFFFFFFFFFFFFFFFFFFFFFFFFFFFF0000FFFFFFFFFFFFFFFFFFFFFFFFFFFFFFFFFFFFFFFFFFFFFFFFFFFFFFFFFFFF0000000000000000000000000000000000000000000000000000000000000000000000000000000000000000
310
00000000000000000000000000000000000000000000000000000000000000000000000000000000000000000000000000000000000000000000000000000000000000000000000000000000000000000000000000000000000000000000000000000000000000000000000000000000000000000000000000000000000000
310
00000000000000000000000000000000000000000000000000000000000000000000000000000000000000000000000000000000000000000000000000000000000000000000000000000000000000000000000000000000000000000000000000000000000000000000000000000000000000000000000000000000000000
310
00000000000000000000000000000000000000000000000000000000000000000000000000000000000000000000000000000000000000000000000000000000000000000000000000000000000000000000000000000000000000000000000000000000000000000000000000000000000000000000000000000000000000
310
0000000000000000000000000000000000000000000000000000000000000000000000000000000000000000000000000000000000000000
102
{BLKREFS
331
3D5
102
}
1001
ACAD
1000
DesignCenter Data
1002
{
1070
     1
1070
     4
1002
}
  0
BLOCK_RECORD
  5
3D6
330
1
100
AcDbSymbolTableRecord
100
AcDbBlockTableRecord
  2
3
340
0
310
2800000020000000200000000100080000000000000400000000000000000000000000000000000000000000000080000080000000808000800000008000800080800000C0C0C000C0DCC000F0CAA6000020400000206000002080000020A0000020C0000020E00000400000004020000040400000406000004080000040A0
310
000040C0000040E00000600000006020000060400000606000006080000060A0000060C0000060E00000800000008020000080400000806000008080000080A0000080C0000080E00000A0000000A0200000A0400000A0600000A0800000A0A00000A0C00000A0E00000C0000000C0200000C0400000C0600000C0800000C0
310
A00000C0C00000C0E00000E0000000E0200000E0400000E0600000E0800000E0A00000E0C00000E0E00040000000400020004000400040006000400080004000A0004000C0004000E00040200000402020004020400040206000402080004020A0004020C0004020E000404000004040200040404000404060004040800040
310
40A0004040C0004040E00040600000406020004060400040606000406080004060A0004060C0004060E00040800000408020004080400040806000408080004080A0004080C0004080E00040A0000040A0200040A0400040A0600040A0800040A0A00040A0C00040A0E00040C0000040C0200040C0400040C0600040C08000
310
40C0A00040C0C00040C0E00040E0000040E0200040E0400040E0600040E0800040E0A00040E0C00040E0E00080000000800020008000400080006000800080008000A0008000C0008000E00080200000802020008020400080206000802080008020A0008020C0008020E00080400000804020008040400080406000804080
310
008040A0008040C0008040E00080600000806020008060400080606000806080008060A0008060C0008060E00080800000808020008080400080806000808080008080A0008080C0008080E00080A0000080A0200080A0400080A0600080A0800080A0A00080A0C00080A0E00080C0000080C0200080C0400080C0600080C0
310
800080C0A00080C0C00080C0E00080E0000080E0200080E0400080E0600080E0800080E0A00080E0C00080E0E000C0000000C0002000C0004000C0006000C0008000C000A000C000C000C000E000C0200000C0202000C0204000C0206000C0208000C020A000C020C000C020E000C0400000C0402000C0404000C0406000C0
310
408000C040A000C040C000C040E000C0600000C0602000C0604000C0606000C0608000C060A000C060C000C060E000C0800000C0802000C0804000C0806000C0808000C080A000C080C000C080E000C0A00000C0A02000C0A04000C0A06000C0A08000C0A0A000C0A0C000C0A0E000C0C00000C0C02000C0C04000C0C06000
310
C0C08000C0C0A000F0FBFF00A4A0A000808080000000FF0000FF000000FFFF00FF000000FF00FF00FFFF0000FFFFFF0000000000000000000000000000000000000000000000000000000000000000000000000000000000000000000000FFFFFFFF00000000000000000000000000000000000000000000000000000000FF
310
FFFFFF00000000000000000000000000000000000000000000000000000000FFFFFFFF00000000000000000000000000000000000000000000000000000000FF0000FF00000000000000000000000000000000000000000000000000000000FFFFFFFF00000000000000000000000000000000000000000000000000000000
310
FFFFFFFF00000000000000000000000000000000000000000000000000000000FFFFFFFF00000000000000000000000000000000000000000000000000000000FFFFFFFF00000000000000000000000000000000000000000000000000000000FFFFFFFF000000000000000000000000000000000000000000000000000000
310
00FFFFFFFF00000000000000000000000000000000000000000000000000000000FF0000FF00000000000000000000000000000000000000000000000000000000FFFFFFFF00000000000000000000000000000000000000000000000000000000FFFFFFFF0000000000000000000000000000000000000000000000000000
310
0000FFFFFFFF00000000000000000000000000000000000000000000000000000000FFFFFFFF00000000000000000000000000000000000000000000000000000000FFFFFFFF00000000000000000000000000000000000000000000000000000000FFFFFFFF00000000000000000000000000000000000000000000000000
310
000000FF0000FF00000000000000000000000000000000000000000000000000000000FFFFFFFF00000000000000000000000000000000000000000000000000000000FFFFFFFF00000000000000000000000000000000000000000000000000000000FFFFFFFF000000000000000000000000000000000000000000000000
310
00000000FFFFFFFF00000000000000000000000000000000000000000000000000000000FFFFFFFF00000000000000000000000000000000000000000000000000000000FFFFFFFF00000000000000000000000000000000000000000000000000000000FF0000FF0000000000000000000000000000000000000000000000
310
0000000000FFFFFFFF00000000000000000000000000000000000000000000000000000000FFFFFFFF00000000000000000000000000000000000000000000000000000000FFFFFFFF00000000000000000000000000000000000000000000000000000000FFFFFFFF00000000000000000000000000000000000000000000
310
000000000000FFFFFFFF00000000000000000000000000000000000000000000000000000000000000000000000000000000000000000000
102
{BLKREFS
331
41F
102
}
1001
ACAD
1000
DesignCenter Data
1002
{
1070
     1
1070
     4
1002
}
  0
BLOCK_RECORD
  5
420
330
1
100
AcDbSymbolTableRecord
100
AcDbBlockTableRecord
  2
4
340
0
310
2800000020000000200000000100080000000000000400000000000000000000000000000000000000000000000080000080000000808000800000008000800080800000C0C0C000C0DCC000F0CAA6000020400000206000002080000020A0000020C0000020E00000400000004020000040400000406000004080000040A0
310
000040C0000040E00000600000006020000060400000606000006080000060A0000060C0000060E00000800000008020000080400000806000008080000080A0000080C0000080E00000A0000000A0200000A0400000A0600000A0800000A0A00000A0C00000A0E00000C0000000C0200000C0400000C0600000C0800000C0
310
A00000C0C00000C0E00000E0000000E0200000E0400000E0600000E0800000E0A00000E0C00000E0E00040000000400020004000400040006000400080004000A0004000C0004000E00040200000402020004020400040206000402080004020A0004020C0004020E000404000004040200040404000404060004040800040
310
40A0004040C0004040E00040600000406020004060400040606000406080004060A0004060C0004060E00040800000408020004080400040806000408080004080A0004080C0004080E00040A0000040A0200040A0400040A0600040A0800040A0A00040A0C00040A0E00040C0000040C0200040C0400040C0600040C08000
310
40C0A00040C0C00040C0E00040E0000040E0200040E0400040E0600040E0800040E0A00040E0C00040E0E00080000000800020008000400080006000800080008000A0008000C0008000E00080200000802020008020400080206000802080008020A0008020C0008020E00080400000804020008040400080406000804080
310
008040A0008040C0008040E00080600000806020008060400080606000806080008060A0008060C0008060E00080800000808020008080400080806000808080008080A0008080C0008080E00080A0000080A0200080A0400080A0600080A0800080A0A00080A0C00080A0E00080C0000080C0200080C0400080C0600080C0
310
800080C0A00080C0C00080C0E00080E0000080E0200080E0400080E0600080E0800080E0A00080E0C00080E0E000C0000000C0002000C0004000C0006000C0008000C000A000C000C000C000E000C0200000C0202000C0204000C0206000C0208000C020A000C020C000C020E000C0400000C0402000C0404000C0406000C0
310
408000C040A000C040C000C040E000C0600000C0602000C0604000C0606000C0608000C060A000C060C000C060E000C0800000C0802000C0804000C0806000C0808000C080A000C080C000C080E000C0A00000C0A02000C0A04000C0A06000C0A08000C0A0A000C0A0C000C0A0E000C0C00000C0C02000C0C04000C0C06000
310
C0C08000C0C0A000F0FBFF00A4A0A000808080000000FF0000FF000000FFFF00FF000000FF00FF00FFFF0000FFFFFF0000000000000000000000000000000000000000000000000000000000000000000000000000000000000000000000000000000000000000000000000000000000000000000000000000000000000000
310
000000000000000000000000000000000000000000000000000000000000000000000000000000000000000000000000000000000000000000000000000000000000000000000000000000000000000000000000000000000000000000000000000000000000000000000000000000000000000000FFFF0000000000000000
310
0000000000000000000000000000000000000000FFFFFFFFFFFF00000000000000000000000000000000000000000000000000FFFFFFFFFFFFFFFF00000000000000000000000000000000000000000000000000FFFFFFFF00FFFFFF0000000000000000000000000000000000000000000000000000FFFFFF00FFFFFFFF00
310
000000000000000000000000000000000000000000000000FFFFFFFFFFFFFFFF0000000000000000000000000000000000000000000000000000FFFFFF00FFFFFFFF00000000000000000000000000000000000000000000000000FFFFFFFFFFFFFFFF0000000000000000000000000000000000000000000000000000FFFF
310
FFFFFFFFFFFF00000000000000000000000000000000000000000000000000FFFFFFFFFFFFFFFF0000000000000000000000000000000000000000000000000000FFFFFFFFFFFFFF0000000000000000000000000000000000000000000000000000FFFFFF00FFFFFFFF000000000000000000000000000000000000000000
310
00000000FFFFFFFFFFFFFFFF0000000000000000000000000000000000000000000000000000FFFFFFFFFFFFFFFF00000000000000000000000000000000000000000000000000FFFFFFFFFFFFFFFF0000000000000000000000000000000000000000000000000000FFFFFFFFFFFFFF000000000000000000000000000000
310
0000000000000000000000FFFFFF00FFFFFFFF0000000000000000000000000000000000000000000000000000FFFFFFFFFFFFFF0000000000000000000000000000000000000000000000000000FFFFFFFFFFFFFF000000000000000000000000000000000000000000000000000000FF0000000000000000000000000000
310
00000000000000000000000000000000000000000000000000000000000000000000000000000000000000000000000000000000000000000000000000000000000000000000000000000000000000000000000000000000000000000000000000000000000000000000000000000000000000000000000000000000000000
310
0000000000000000000000000000000000000000000000000000000000000000000000000000000000000000000000000000000000000000
102
{BLKREFS
331
4BA
102
}
1001
ACAD
1000
DesignCenter Data
1002
{
1070
     1
1070
     4
1002
}
  0
ENDTAB
  0
ENDSEC
  0
SECTION
  2
BLOCKS
  0
BLOCK
  5
20
330
1F
100
AcDbEntity
  8
0
100
AcDbBlockBegin
  2
*Model_Space
 70
     0
 10
0.0
 20
0.0
 30
0.0
  3
*Model_Space
  1

  0
ENDBLK
  5
21
330
1F
100
AcDbEntity
  8
0
100
AcDbBlockEnd
  0
BLOCK
  5
D4
330
D2
100
AcDbEntity
 67
     1
  8
0
100
AcDbBlockBegin
  2
*Paper_Space
 70
     0
 10
0.0
 20
0.0
 30
0.0
  3
*Paper_Space
  1

  0
ENDBLK
  5
D5
330
D2
100
AcDbEntity
 67
     1
  8
0
100
AcDbBlockEnd
  0
BLOCK
  5
D8
330
D6
100
AcDbEntity
 67
     1
  8
0
100
AcDbBlockBegin
  2
*Paper_Space0
 70
     0
 10
0.0
 20
0.0
 30
0.0
  3
*Paper_Space0
  1

  0
ENDBLK
  5
D9
330
D6
100
AcDbEntity
 67
     1
  8
0
100
AcDbBlockEnd
  0
BLOCK
  5
3AE
330
3AD
100
AcDbEntity
  8
0
100
AcDbBlockBegin
  2
1
 70
     0
 10
0.0
 20
0.0
 30
0.0
  3
1
  1

  0
LINE
  5
3B0
330
3AD
100
AcDbEntity
  8
0
  6
Continuous
 62
     7
370
    15
100
AcDbLine
 10
2074.198532547907
 20
1273.017301086001
 30
0.0
 11
2071.098532547907
 21
1273.017301086001
 31
0.0
  0
ARC
  5
3B1
330
3AD
100
AcDbEntity
  8
0
  6
Continuous
 62
     7
370
    15
100
AcDbCircle
 10
2074.198532547907
 20
1271.217301086001
 30
0.0
 40
1.800000000000011
100
AcDbArc
 50
0.0
 51
90.0
  0
LINE
  5
3B2
330
3AD
100
AcDbEntity
  8
0
  6
Continuous
 62
     7
370
    15
100
AcDbLine
 10
2075.998532547906
 20
1267.317301086001
 30
0.0
 11
2075.998532547906
 21
1271.217301086001
 31
0.0
  0
ARC
  5
3B3
330
3AD
100
AcDbEntity
  8
0
  6
Continuous
 62
     7
370
    15
100
AcDbCircle
 10
2076.798532547906
 20
1267.317301086001
 30
0.0
 40
0.799999999999983
100
AcDbArc
 50
180.0
 51
270.0
  0
LINE
  5
3B4
330
3AD
100
AcDbEntity
  8
0
  6
Continuous
 62
     7
370
    15
100
AcDbLine
 10
2100.398532547906
 20
1266.517301086002
 30
0.0
 11
2076.798532547906
 21
1266.517301086002
 31
0.0
  0
ARC
  5
3B5
330
3AD
100
AcDbEntity
  8
0
  6
Continuous
 62
     7
370
    15
100
AcDbCircle
 10
2100.398532547906
 20
1267.317301086001
 30
0.0
 40
0.799999999999983
100
AcDbArc
 50
270.0
 51
0.0
  0
LINE
  5
3B6
330
3AD
100
AcDbEntity
  8
0
  6
Continuous
 62
     7
370
    15
100
AcDbLine
 10
2101.198532547906
 20
1271.217301086001
 30
0.0
 11
2101.198532547906
 21
1267.317301086001
 31
0.0
  0
ARC
  5
3B7
330
3AD
100
AcDbEntity
  8
0
  6
Continuous
 62
     7
370
    15
100
AcDbCircle
 10
2102.998532547907
 20
1271.217301086001
 30
0.0
 40
1.800000000000068
100
AcDbArc
 50
90.0
 51
180.0
  0
LINE
  5
3B8
330
3AD
100
AcDbEntity
  8
0
  6
Continuous
 62
     7
370
    15
100
AcDbLine
 10
2106.098532547906
 20
1273.017301086001
 30
0.0
 11
2102.998532547907
 21
1273.017301086001
 31
0.0
  0
ARC
  5
3B9
330
3AD
100
AcDbEntity
  8
0
  6
Continuous
 62
     7
370
    15
100
AcDbCircle
 10
2102.998532547907
 20
1271.217301086002
 30
0.0
 40
0.8000000000000682
100
AcDbArc
 50
90.0
 51
180.0
  0
LINE
  5
3BA
330
3AD
100
AcDbEntity
  8
0
  6
Continuous
 62
     7
370
    15
100
AcDbLine
 10
2102.198532547907
 20
1267.317301086002
 30
0.0
 11
2102.198532547907
 21
1271.217301086002
 31
0.0
  0
ARC
  5
3BB
330
3AD
100
AcDbEntity
  8
0
  6
Continuous
 62
     7
370
    15
100
AcDbCircle
 10
2100.398532547906
 20
1267.317301086002
 30
0.0
 40
1.800000000000039
100
AcDbArc
 50
270.0
 51
0.0
  0
LINE
  5
3BC
330
3AD
100
AcDbEntity
  8
0
  6
Continuous
 62
     7
370
    15
100
AcDbLine
 10
2076.798532547906
 20
1265.517301086001
 30
0.0
 11
2100.398532547906
 21
1265.517301086001
 31
0.0
  0
ARC
  5
3BD
330
3AD
100
AcDbEntity
  8
0
  6
Continuous
 62
     7
370
    15
100
AcDbCircle
 10
2076.798532547906
 20
1267.317301086002
 30
0.0
 40
1.800000000000011
100
AcDbArc
 50
180.0
 51
270.0
  0
LINE
  5
3BE
330
3AD
100
AcDbEntity
  8
0
  6
Continuous
 62
     7
370
    15
100
AcDbLine
 10
2074.998532547907
 20
1271.217301086002
 30
0.0
 11
2074.998532547907
 21
1267.317301086002
 31
0.0
  0
ARC
  5
3BF
330
3AD
100
AcDbEntity
  8
0
  6
Continuous
 62
     7
370
    15
100
AcDbCircle
 10
2074.198532547907
 20
1271.217301086002
 30
0.0
 40
0.8000000000000113
100
AcDbArc
 50
0.0
 51
90.0
  0
LINE
  5
3C0
330
3AD
100
AcDbEntity
  8
0
  6
Continuous
 62
     7
370
    15
100
AcDbLine
 10
2071.098532547907
 20
1272.017301086002
 30
0.0
 11
2074.198532547907
 21
1272.017301086002
 31
0.0
  0
LINE
  5
3C1
330
3AD
100
AcDbEntity
  8
0
  6
Continuous
 62
     7
370
    15
100
AcDbLine
 10
2071.098532547907
 20
1273.017301086001
 30
0.0
 11
2071.098532547907
 21
1272.017301086002
 31
0.0
  0
LINE
  5
3C2
330
3AD
100
AcDbEntity
  8
0
  6
Continuous
 62
     7
370
    15
100
AcDbLine
 10
2106.098532547906
 20
1273.017301086001
 30
0.0
 11
2106.098532547906
 21
1272.017301086002
 31
0.0
  0
LINE
  5
3C3
330
3AD
100
AcDbEntity
  8
0
  6
Continuous
 62
     7
370
    15
100
AcDbLine
 10
2102.998532547907
 20
1272.017301086002
 30
0.0
 11
2106.098532547906
 21
1272.017301086002
 31
0.0
  0
ENDBLK
  5
3AF
330
3AD
100
AcDbEntity
  8
0
100
AcDbBlockEnd
  0
BLOCK
  5
3C6
330
3C5
100
AcDbEntity
  8
0
100
AcDbBlockBegin
  2
2
 70
     0
 10
0.0
 20
0.0
 30
0.0
  3
2
  1

  0
LINE
  5
3C8
330
3C5
100
AcDbEntity
  8
0
  6
Continuous
 62
     7
370
    15
100
AcDbLine
 10
1747.189222476642
 20
1273.017301086001
 30
0.0
 11
2047.189222476642
 21
1273.017301086001
 31
0.0
  0
LINE
  5
3C9
330
3C5
100
AcDbEntity
  8
0
  6
Continuous
 62
     7
370
    15
100
AcDbLine
 10
1747.189222476642
 20
1273.017301086001
 30
0.0
 11
1747.189222476642
 21
1272.017301086002
 31
0.0
  0
LINE
  5
3CA
330
3C5
100
AcDbEntity
  8
0
  6
Continuous
 62
     7
370
    15
100
AcDbLine
 10
1747.189222476642
 20
1272.017301086002
 30
0.0
 11
2047.189222476642
 21
1272.017301086002
 31
0.0
  0
LINE
  5
3CB
330
3C5
100
AcDbEntity
  8
0
  6
Continuous
 62
     7
370
    15
100
AcDbLine
 10
2047.189222476642
 20
1272.017301086002
 30
0.0
 11
2047.189222476642
 21
1273.017301086001
 31
0.0
  0
LINE
  5
3CC
330
3C5
100
AcDbEntity
  8
0
  6
Continuous
 62
     7
370
    15
100
AcDbLine
 10
2047.189222476642
 20
1271.217301086002
 30
0.0
 11
1747.189222476642
 21
1271.217301086002
 31
0.0
  0
LINE
  5
3CD
330
3C5
100
AcDbEntity
  8
0
  6
Continuous
 62
     7
370
    15
100
AcDbLine
 10
1747.189222476642
 20
1271.217301086002
 30
0.0
 11
1747.189222476642
 21
1272.017301086002
 31
0.0
  0
LINE
  5
3CE
330
3C5
100
AcDbEntity
  8
0
  6
Continuous
 62
     7
370
    15
100
AcDbLine
 10
2047.189222476642
 20
1272.017301086002
 30
0.0
 11
2047.189222476642
 21
1271.217301086002
 31
0.0
  0
LINE
  5
3CF
330
3C5
100
AcDbEntity
  8
0
  6
Continuous
 62
     7
370
    15
100
AcDbLine
 10
2047.189222476642
 20
1267.317301086002
 30
0.0
 11
1747.189222476642
 21
1267.317301086002
 31
0.0
  0
LINE
  5
3D0
330
3C5
100
AcDbEntity
  8
0
  6
Continuous
 62
     7
370
    15
100
AcDbLine
 10
1747.189222476642
 20
1267.317301086002
 30
0.0
 11
1747.189222476642
 21
1271.217301086002
 31
0.0
  0
LINE
  5
3D1
330
3C5
100
AcDbEntity
  8
0
  6
Continuous
 62
     7
370
    15
100
AcDbLine
 10
2047.189222476642
 20
1267.317301086002
 30
0.0
 11
2047.189222476642
 21
1271.217301086002
 31
0.0
  0
LINE
  5
3D2
330
3C5
100
AcDbEntity
  8
0
  6
Continuous
 62
     7
370
    15
100
AcDbLine
 10
1747.189222476642
 20
1265.517301086001
 30
0.0
 11
2047.189222476642
 21
1265.517301086001
 31
0.0
  0
LINE
  5
3D3
330
3C5
100
AcDbEntity
  8
0
  6
Continuous
 62
     7
370
    15
100
AcDbLine
 10
1747.189222476642
 20
1265.517301086001
 30
0.0
 11
1747.189222476642
 21
1267.317301086002
 31
0.0
  0
LINE
  5
3D4
330
3C5
100
AcDbEntity
  8
0
  6
Continuous
 62
     7
370
    15
100
AcDbLine
 10
2047.189222476642
 20
1265.517301086001
 30
0.0
 11
2047.189222476642
 21
1267.317301086002
 31
0.0
  0
ENDBLK
  5
3C7
330
3C5
100
AcDbEntity
  8
0
100
AcDbBlockEnd
  0
BLOCK
  5
3D7
330
3D6
100
AcDbEntity
  8
0
100
AcDbBlockBegin
  2
3
 70
     0
 10
0.0
 20
0.0
 30
0.0
  3
3
  1

  0
LINE
  5
3D9
330
3D6
100
AcDbEntity
  8
0
  6
Continuous
 62
     7
370
    15
100
AcDbLine
 10
2102.998532547907
 20
944.7935589423078
 30
0.0
 11
2102.998532547907
 21
1244.793558942308
 31
0.0
  0
LINE
  5
3DA
330
3D6
100
AcDbEntity
  8
0
  6
Continuous
 62
     7
370
    15
100
AcDbLine
 10
2106.098532547906
 20
944.7935589423078
 30
0.0
 11
2102.998532547907
 21
944.7935589423078
 31
0.0
  0
LINE
  5
3DB
330
3D6
100
AcDbEntity
  8
0
  6
Continuous
 62
     7
370
    15
100
AcDbLine
 10
2106.098532547906
 20
1244.793558942308
 30
0.0
 11
2102.998532547907
 21
1244.793558942308
 31
0.0
  0
LINE
  5
3DC
330
3D6
100
AcDbEntity
  8
0
  6
Continuous
 62
     7
370
    15
100
AcDbLine
 10
2106.098532547906
 20
944.7935589423078
 30
0.0
 11
2106.098532547906
 21
1244.793558942308
 31
0.0
  0
LINE
  5
3DD
330
3D6
100
AcDbEntity
  8
0
  6
Continuous
 62
     7
370
    15
100
AcDbLine
 10
2074.198532547907
 20
944.7935589423078
 30
0.0
 11
2074.198532547907
 21
1244.793558942308
 31
0.0
  0
LINE
  5
3DE
330
3D6
100
AcDbEntity
  8
0
  6
Continuous
 62
     7
370
    15
100
AcDbLine
 10
2074.198532547907
 20
944.7935589423078
 30
0.0
 11
2071.098532547907
 21
944.7935589423078
 31
0.0
  0
LINE
  5
3DF
330
3D6
100
AcDbEntity
  8
0
  6
Continuous
 62
     7
370
    15
100
AcDbLine
 10
2071.098532547907
 20
1244.793558942308
 30
0.0
 11
2071.098532547907
 21
944.7935589423078
 31
0.0
  0
LINE
  5
3E0
330
3D6
100
AcDbEntity
  8
0
  6
Continuous
 62
     7
370
    15
100
AcDbLine
 10
2074.198532547907
 20
1244.793558942308
 30
0.0
 11
2071.098532547907
 21
1244.793558942308
 31
0.0
  0
LINE
  5
3E1
330
3D6
100
AcDbEntity
  8
0
  6
Continuous
 62
     7
370
    15
100
AcDbLine
 10
2101.198532547906
 20
1244.793558942308
 30
0.0
 11
2101.198532547906
 21
944.7935589423078
 31
0.0
  0
LINE
  5
3E2
330
3D6
100
AcDbEntity
  8
0
  6
Continuous
 62
     7
370
    15
100
AcDbLine
 10
2102.998532547907
 20
944.7935589423078
 30
0.0
 11
2101.198532547906
 21
944.7935589423078
 31
0.0
  0
LINE
  5
3E3
330
3D6
100
AcDbEntity
  8
0
  6
Continuous
 62
     7
370
    15
100
AcDbLine
 10
2102.998532547907
 20
1244.793558942308
 30
0.0
 11
2101.198532547906
 21
1244.793558942308
 31
0.0
  0
LINE
  5
3E4
330
3D6
100
AcDbEntity
  8
0
  6
Continuous
 62
     7
370
    15
100
AcDbLine
 10
2075.998532547906
 20
944.7935589423078
 30
0.0
 11
2075.998532547906
 21
1244.793558942308
 31
0.0
  0
LINE
  5
3E5
330
3D6
100
AcDbEntity
  8
0
  6
Continuous
 62
     7
370
    15
100
AcDbLine
 10
2075.998532547906
 20
944.7935589423078
 30
0.0
 11
2074.198532547907
 21
944.7935589423078
 31
0.0
  0
LINE
  5
3E6
330
3D6
100
AcDbEntity
  8
0
  6
Continuous
 62
     7
370
    15
100
AcDbLine
 10
2075.998532547906
 20
1244.793558942308
 30
0.0
 11
2074.198532547907
 21
1244.793558942308
 31
0.0
  0
LINE
  5
3E7
330
3D6
100
AcDbEntity
  8
0
  6
Continuous
 62
     7
370
    15
100
AcDbLine
 10
2100.398532547906
 20
944.7935589423078
 30
0.0
 11
2100.398532547906
 21
1244.793558942308
 31
0.0
  0
LINE
  5
3E8
330
3D6
100
AcDbEntity
  8
0
  6
Continuous
 62
     7
370
    15
100
AcDbLine
 10
2101.198532547906
 20
944.7935589423078
 30
0.0
 11
2100.398532547906
 21
944.7935589423078
 31
0.0
  0
LINE
  5
3E9
330
3D6
100
AcDbEntity
  8
0
  6
Continuous
 62
     7
370
    15
100
AcDbLine
 10
2100.398532547906
 20
1244.793558942308
 30
0.0
 11
2101.198532547906
 21
1244.793558942308
 31
0.0
  0
LINE
  5
3EA
330
3D6
100
AcDbEntity
  8
0
  6
Continuous
 62
     7
370
    15
100
AcDbLine
 10
2076.798532547906
 20
1244.793558942308
 30
0.0
 11
2076.798532547906
 21
944.7935589423078
 31
0.0
  0
LINE
  5
3EB
330
3D6
100
AcDbEntity
  8
0
  6
Continuous
 62
     7
370
    15
100
AcDbLine
 10
2076.798532547906
 20
944.7935589423078
 30
0.0
 11
2075.998532547906
 21
944.7935589423078
 31
0.0
  0
LINE
  5
3EC
330
3D6
100
AcDbEntity
  8
0
  6
Continuous
 62
     7
370
    15
100
AcDbLine
 10
2075.998532547906
 20
1244.793558942308
 30
0.0
 11
2076.798532547906
 21
1244.793558942308
 31
0.0
  0
LINE
  5
3ED
330
3D6
100
AcDbEntity
  8
0
  6
Continuous
 62
     7
370
    15
100
AcDbLine
 10
2091.748532547907
 20
964.7935589423079
 30
0.0
 11
2091.748532547907
 21
953.0935589423078
 31
0.0
  0
ARC
  5
3EE
330
3D6
100
AcDbEntity
  8
0
  6
Continuous
 62
     7
370
    15
100
AcDbCircle
 10
2088.598532547907
 20
964.7935589423079
 30
0.0
 40
3.150000000000005
100
AcDbArc
 50
0.0
 51
180.0
  0
LINE
  5
3EF
330
3D6
100
AcDbEntity
  8
0
  6
Continuous
 62
     7
370
    15
100
AcDbLine
 10
2085.448532547907
 20
953.0935589423078
 30
0.0
 11
2085.448532547907
 21
964.7935589423079
 31
0.0
  0
ARC
  5
3F0
330
3D6
100
AcDbEntity
  8
0
  6
Continuous
 62
     7
370
    15
100
AcDbCircle
 10
2088.598532547907
 20
953.0935589423078
 30
0.0
 40
3.150000000000005
100
AcDbArc
 50
180.0
 51
0.0
  0
LINE
  5
3F1
330
3D6
100
AcDbEntity
  8
0
  6
Continuous
 62
     7
370
    15
100
AcDbLine
 10
2091.748532547907
 20
978.0935589423078
 30
0.0
 11
2091.748532547907
 21
989.7935589423079
 31
0.0
  0
ARC
  5
3F2
330
3D6
100
AcDbEntity
  8
0
  6
Continuous
 62
     7
370
    15
100
AcDbCircle
 10
2088.598532547907
 20
989.7935589423079
 30
0.0
 40
3.150000000000062
100
AcDbArc
 50
0.0
 51
180.0
  0
LINE
  5
3F3
330
3D6
100
AcDbEntity
  8
0
  6
Continuous
 62
     7
370
    15
100
AcDbLine
 10
2085.448532547907
 20
989.7935589423079
 30
0.0
 11
2085.448532547907
 21
978.0935589423078
 31
0.0
  0
ARC
  5
3F4
330
3D6
100
AcDbEntity
  8
0
  6
Continuous
 62
     7
370
    15
100
AcDbCircle
 10
2088.598532547907
 20
978.0935589423078
 30
0.0
 40
3.150000000000062
100
AcDbArc
 50
180.0
 51
0.0
  0
LINE
  5
3F5
330
3D6
100
AcDbEntity
  8
0
  6
Continuous
 62
     7
370
    15
100
AcDbLine
 10
2091.748532547907
 20
1003.093558942308
 30
0.0
 11
2091.748532547907
 21
1014.793558942308
 31
0.0
  0
ARC
  5
3F6
330
3D6
100
AcDbEntity
  8
0
  6
Continuous
 62
     7
370
    15
100
AcDbCircle
 10
2088.598532547907
 20
1014.793558942308
 30
0.0
 40
3.150000000000062
100
AcDbArc
 50
0.0
 51
180.0
  0
LINE
  5
3F7
330
3D6
100
AcDbEntity
  8
0
  6
Continuous
 62
     7
370
    15
100
AcDbLine
 10
2085.448532547907
 20
1014.793558942308
 30
0.0
 11
2085.448532547907
 21
1003.093558942308
 31
0.0
  0
ARC
  5
3F8
330
3D6
100
AcDbEntity
  8
0
  6
Continuous
 62
     7
370
    15
100
AcDbCircle
 10
2088.598532547907
 20
1003.093558942308
 30
0.0
 40
3.150000000000062
100
AcDbArc
 50
180.0
 51
0.0
  0
LINE
  5
3F9
330
3D6
100
AcDbEntity
  8
0
  6
Continuous
 62
     7
370
    15
100
AcDbLine
 10
2091.748532547907
 20
1028.093558942307
 30
0.0
 11
2091.748532547907
 21
1039.793558942307
 31
0.0
  0
ARC
  5
3FA
330
3D6
100
AcDbEntity
  8
0
  6
Continuous
 62
     7
370
    15
100
AcDbCircle
 10
2088.598532547907
 20
1039.793558942307
 30
0.0
 40
3.150000000000062
100
AcDbArc
 50
0.0
 51
180.0
  0
LINE
  5
3FB
330
3D6
100
AcDbEntity
  8
0
  6
Continuous
 62
     7
370
    15
100
AcDbLine
 10
2085.448532547907
 20
1039.793558942307
 30
0.0
 11
2085.448532547907
 21
1028.093558942307
 31
0.0
  0
ARC
  5
3FC
330
3D6
100
AcDbEntity
  8
0
  6
Continuous
 62
     7
370
    15
100
AcDbCircle
 10
2088.598532547907
 20
1028.093558942307
 30
0.0
 40
3.150000000000062
100
AcDbArc
 50
180.0
 51
0.0
  0
LINE
  5
3FD
330
3D6
100
AcDbEntity
  8
0
  6
Continuous
 62
     7
370
    15
100
AcDbLine
 10
2091.748532547907
 20
1053.093558942308
 30
0.0
 11
2091.748532547907
 21
1064.793558942308
 31
0.0
  0
ARC
  5
3FE
330
3D6
100
AcDbEntity
  8
0
  6
Continuous
 62
     7
370
    15
100
AcDbCircle
 10
2088.598532547907
 20
1064.793558942308
 30
0.0
 40
3.150000000000062
100
AcDbArc
 50
0.0
 51
180.0
  0
LINE
  5
3FF
330
3D6
100
AcDbEntity
  8
0
  6
Continuous
 62
     7
370
    15
100
AcDbLine
 10
2085.448532547907
 20
1064.793558942308
 30
0.0
 11
2085.448532547907
 21
1053.093558942308
 31
0.0
  0
ARC
  5
400
330
3D6
100
AcDbEntity
  8
0
  6
Continuous
 62
     7
370
    15
100
AcDbCircle
 10
2088.598532547907
 20
1053.093558942308
 30
0.0
 40
3.150000000000062
100
AcDbArc
 50
180.0
 51
0.0
  0
LINE
  5
401
330
3D6
100
AcDbEntity
  8
0
  6
Continuous
 62
     7
370
    15
100
AcDbLine
 10
2091.748532547907
 20
1078.093558942308
 30
0.0
 11
2091.748532547907
 21
1089.793558942307
 31
0.0
  0
ARC
  5
402
330
3D6
100
AcDbEntity
  8
0
  6
Continuous
 62
     7
370
    15
100
AcDbCircle
 10
2088.598532547907
 20
1089.793558942307
 30
0.0
 40
3.150000000000062
100
AcDbArc
 50
0.0
 51
180.0
  0
LINE
  5
403
330
3D6
100
AcDbEntity
  8
0
  6
Continuous
 62
     7
370
    15
100
AcDbLine
 10
2085.448532547907
 20
1089.793558942307
 30
0.0
 11
2085.448532547907
 21
1078.093558942308
 31
0.0
  0
ARC
  5
404
330
3D6
100
AcDbEntity
  8
0
  6
Continuous
 62
     7
370
    15
100
AcDbCircle
 10
2088.598532547907
 20
1078.093558942308
 30
0.0
 40
3.150000000000062
100
AcDbArc
 50
180.0
 51
0.0
  0
LINE
  5
405
330
3D6
100
AcDbEntity
  8
0
  6
Continuous
 62
     7
370
    15
100
AcDbLine
 10
2091.748532547907
 20
1103.093558942308
 30
0.0
 11
2091.748532547907
 21
1114.793558942308
 31
0.0
  0
ARC
  5
406
330
3D6
100
AcDbEntity
  8
0
  6
Continuous
 62
     7
370
    15
100
AcDbCircle
 10
2088.598532547907
 20
1114.793558942308
 30
0.0
 40
3.150000000000062
100
AcDbArc
 50
0.0
 51
180.0
  0
LINE
  5
407
330
3D6
100
AcDbEntity
  8
0
  6
Continuous
 62
     7
370
    15
100
AcDbLine
 10
2085.448532547907
 20
1114.793558942308
 30
0.0
 11
2085.448532547907
 21
1103.093558942308
 31
0.0
  0
ARC
  5
408
330
3D6
100
AcDbEntity
  8
0
  6
Continuous
 62
     7
370
    15
100
AcDbCircle
 10
2088.598532547907
 20
1103.093558942308
 30
0.0
 40
3.150000000000062
100
AcDbArc
 50
180.0
 51
0.0
  0
LINE
  5
409
330
3D6
100
AcDbEntity
  8
0
  6
Continuous
 62
     7
370
    15
100
AcDbLine
 10
2091.748532547907
 20
1128.093558942308
 30
0.0
 11
2091.748532547907
 21
1139.793558942308
 31
0.0
  0
ARC
  5
40A
330
3D6
100
AcDbEntity
  8
0
  6
Continuous
 62
     7
370
    15
100
AcDbCircle
 10
2088.598532547907
 20
1139.793558942308
 30
0.0
 40
3.150000000000062
100
AcDbArc
 50
0.0
 51
180.0
  0
LINE
  5
40B
330
3D6
100
AcDbEntity
  8
0
  6
Continuous
 62
     7
370
    15
100
AcDbLine
 10
2085.448532547907
 20
1139.793558942308
 30
0.0
 11
2085.448532547907
 21
1128.093558942308
 31
0.0
  0
ARC
  5
40C
330
3D6
100
AcDbEntity
  8
0
  6
Continuous
 62
     7
370
    15
100
AcDbCircle
 10
2088.598532547907
 20
1128.093558942308
 30
0.0
 40
3.150000000000062
100
AcDbArc
 50
180.0
 51
0.0
  0
LINE
  5
40D
330
3D6
100
AcDbEntity
  8
0
  6
Continuous
 62
     7
370
    15
100
AcDbLine
 10
2091.748532547907
 20
1153.093558942308
 30
0.0
 11
2091.748532547907
 21
1164.793558942307
 31
0.0
  0
ARC
  5
40E
330
3D6
100
AcDbEntity
  8
0
  6
Continuous
 62
     7
370
    15
100
AcDbCircle
 10
2088.598532547907
 20
1164.793558942307
 30
0.0
 40
3.150000000000062
100
AcDbArc
 50
0.0
 51
180.0
  0
LINE
  5
40F
330
3D6
100
AcDbEntity
  8
0
  6
Continuous
 62
     7
370
    15
100
AcDbLine
 10
2085.448532547907
 20
1164.793558942307
 30
0.0
 11
2085.448532547907
 21
1153.093558942308
 31
0.0
  0
ARC
  5
410
330
3D6
100
AcDbEntity
  8
0
  6
Continuous
 62
     7
370
    15
100
AcDbCircle
 10
2088.598532547907
 20
1153.093558942308
 30
0.0
 40
3.150000000000062
100
AcDbArc
 50
180.0
 51
0.0
  0
LINE
  5
411
330
3D6
100
AcDbEntity
  8
0
  6
Continuous
 62
     7
370
    15
100
AcDbLine
 10
2091.748532547907
 20
1178.093558942308
 30
0.0
 11
2091.748532547907
 21
1189.793558942308
 31
0.0
  0
ARC
  5
412
330
3D6
100
AcDbEntity
  8
0
  6
Continuous
 62
     7
370
    15
100
AcDbCircle
 10
2088.598532547907
 20
1189.793558942308
 30
0.0
 40
3.150000000000062
100
AcDbArc
 50
0.0
 51
180.0
  0
LINE
  5
413
330
3D6
100
AcDbEntity
  8
0
  6
Continuous
 62
     7
370
    15
100
AcDbLine
 10
2085.448532547907
 20
1189.793558942308
 30
0.0
 11
2085.448532547907
 21
1178.093558942308
 31
0.0
  0
ARC
  5
414
330
3D6
100
AcDbEntity
  8
0
  6
Continuous
 62
     7
370
    15
100
AcDbCircle
 10
2088.598532547907
 20
1178.093558942308
 30
0.0
 40
3.150000000000062
100
AcDbArc
 50
180.0
 51
0.0
  0
LINE
  5
415
330
3D6
100
AcDbEntity
  8
0
  6
Continuous
 62
     7
370
    15
100
AcDbLine
 10
2091.748532547907
 20
1203.093558942308
 30
0.0
 11
2091.748532547907
 21
1214.793558942308
 31
0.0
  0
ARC
  5
416
330
3D6
100
AcDbEntity
  8
0
  6
Continuous
 62
     7
370
    15
100
AcDbCircle
 10
2088.598532547907
 20
1214.793558942308
 30
0.0
 40
3.150000000000062
100
AcDbArc
 50
0.0
 51
180.0
  0
LINE
  5
417
330
3D6
100
AcDbEntity
  8
0
  6
Continuous
 62
     7
370
    15
100
AcDbLine
 10
2085.448532547907
 20
1214.793558942308
 30
0.0
 11
2085.448532547907
 21
1203.093558942308
 31
0.0
  0
ARC
  5
418
330
3D6
100
AcDbEntity
  8
0
  6
Continuous
 62
     7
370
    15
100
AcDbCircle
 10
2088.598532547907
 20
1203.093558942308
 30
0.0
 40
3.150000000000062
100
AcDbArc
 50
180.0
 51
0.0
  0
LINE
  5
419
330
3D6
100
AcDbEntity
  8
0
  6
Continuous
 62
     7
370
    15
100
AcDbLine
 10
2091.748532547907
 20
1228.093558942308
 30
0.0
 11
2091.748532547907
 21
1239.793558942308
 31
0.0
  0
ARC
  5
41A
330
3D6
100
AcDbEntity
  8
0
  6
Continuous
 62
     7
370
    15
100
AcDbCircle
 10
2088.598532547907
 20
1239.793558942308
 30
0.0
 40
3.150000000000062
100
AcDbArc
 50
0.0
 51
180.0
  0
LINE
  5
41B
330
3D6
100
AcDbEntity
  8
0
  6
Continuous
 62
     7
370
    15
100
AcDbLine
 10
2085.448532547907
 20
1239.793558942308
 30
0.0
 11
2085.448532547907
 21
1228.093558942308
 31
0.0
  0
ARC
  5
41C
330
3D6
100
AcDbEntity
  8
0
  6
Continuous
 62
     7
370
    15
100
AcDbCircle
 10
2088.598532547907
 20
1228.093558942308
 30
0.0
 40
3.150000000000062
100
AcDbArc
 50
180.0
 51
0.0
  0
LINE
  5
41D
330
3D6
100
AcDbEntity
  8
0
  6
Continuous
 62
     7
370
    15
100
AcDbLine
 10
2100.398532547906
 20
944.7935589423078
 30
0.0
 11
2076.798532547906
 21
944.7935589423078
 31
0.0
  0
LINE
  5
41E
330
3D6
100
AcDbEntity
  8
0
  6
Continuous
 62
     7
370
    15
100
AcDbLine
 10
2100.398532547906
 20
1244.793558942308
 30
0.0
 11
2076.798532547906
 21
1244.793558942308
 31
0.0
  0
ENDBLK
  5
3D8
330
3D6
100
AcDbEntity
  8
0
100
AcDbBlockEnd
  0
BLOCK
  5
421
330
420
100
AcDbEntity
  8
0
100
AcDbBlockBegin
  2
4
 70
     0
 10
0.0
 20
0.0
 30
0.0
  3
4
  1

  0
LINE
  5
423
330
420
100
AcDbEntity
  8
0
  6
Continuous
 62
     7
370
    15
100
AcDbLine
 10
1998.731240635704
 20
1182.326005928151
 30
0.0
 11
1819.505041394927
 21
1055.410631406535
 31
0.0
  0
LINE
  5
424
330
420
100
AcDbEntity
  8
0
  6
Continuous
 62
     7
370
    15
100
AcDbLine
 10
1819.487902559734
 20
1049.992806554178
 30
0.0
 11
1998.714101800511
 21
1176.908181075793
 31
0.0
  0
LINE
  5
425
330
420
100
AcDbEntity
  8
0
  6
Continuous
 62
     7
370
    15
100
AcDbLine
 10
1823.03704845119
 20
1054.480879641817
 30
0.0
 11
2002.263247691967
 21
1181.396254163433
 31
0.0
  0
LINE
  5
426
330
420
100
AcDbEntity
  8
0
  6
Continuous
 62
     7
370
    15
100
AcDbLine
 10
2002.260015198775
 20
1180.548002928609
 30
0.0
 11
2002.263247691967
 21
1181.396254163433
 31
0.0
  0
LINE
  5
427
330
420
100
AcDbEntity
  8
0
  6
Continuous
 62
     7
370
    15
100
AcDbLine
 10
1823.033815957997
 20
1053.632628406994
 30
0.0
 11
2002.260015198775
 21
1180.548002928609
 31
0.0
  0
LINE
  5
428
330
420
100
AcDbEntity
  8
0
  6
Continuous
 62
     7
370
    15
100
AcDbLine
 10
1823.03704845119
 20
1054.480879641817
 30
0.0
 11
1823.033815957997
 21
1053.632628406994
 31
0.0
  0
LINE
  5
429
330
420
100
AcDbEntity
  8
0
  6
Continuous
 62
     7
370
    15
100
AcDbLine
 10
1794.969795757211
 20
1065.631414055338
 30
0.0
 11
1794.966563264018
 21
1064.783162820514
 31
0.0
  0
LINE
  5
42A
330
420
100
AcDbEntity
  8
0
  6
Continuous
 62
     7
370
    15
100
AcDbLine
 10
1797.455752424392
 20
1064.643795292997
 30
0.0
 11
1794.969795757211
 21
1065.631414055338
 31
0.0
  0
ARC
  5
42B
330
420
100
AcDbEntity
  8
0
  6
Continuous
 62
     7
370
    15
100
AcDbCircle
 10
1796.492251296531
 20
1062.442108921719
 30
0.0
 40
2.403280528955851
100
AcDbArc
 50
2.417637399517921
 51
66.36487044302935
  0
LINE
  5
42C
330
420
100
AcDbEntity
  8
0
  6
Continuous
 62
     7
370
    15
100
AcDbLine
 10
1798.880785923168
 20
1059.235307198949
 30
0.0
 11
1798.893392646621
 21
1062.543487014762
 31
0.0
  0
ARC
  5
42D
330
420
100
AcDbEntity
  8
0
  6
Continuous
 62
     7
370
    15
100
AcDbCircle
 10
1799.947959856542
 20
1059.28036412919
 30
0.0
 40
1.068124679535838
100
AcDbArc
 50
182.4176373995179
 51
246.3648704430294
  0
LINE
  5
42E
330
420
100
AcDbEntity
  8
0
  6
Continuous
 62
     7
370
    15
100
AcDbLine
 10
1818.445084663845
 20
1050.783190791379
 30
0.0
 11
1799.519737133048
 21
1058.301836853067
 31
0.0
  0
ARC
  5
42F
330
420
100
AcDbEntity
  8
0
  6
Continuous
 62
     7
370
    15
100
AcDbCircle
 10
1818.651223464082
 20
1051.171273246819
 30
0.0
 40
0.439432813048753
100
AcDbArc
 50
242.0239804681859
 51
4.653258210507725
  0
LINE
  5
430
330
420
100
AcDbEntity
  8
0
  6
Continuous
 62
     7
370
    15
100
AcDbLine
 10
1819.101814586285
 20
1054.515102237027
 30
0.0
 11
1819.089207862833
 21
1051.206922421214
 31
0.0
  0
ARC
  5
431
330
420
100
AcDbEntity
  8
0
  6
Continuous
 62
     7
370
    15
100
AcDbCircle
 10
1820.087279483474
 20
1054.595312879417
 30
0.0
 40
0.9887238293599372
100
AcDbArc
 50
62.02398046820049
 51
184.6532582105077
  0
LINE
  5
432
330
420
100
AcDbEntity
  8
0
  6
Continuous
 62
     7
370
    15
100
AcDbLine
 10
1823.03704845119
 20
1054.480879641817
 30
0.0
 11
1820.551091784009
 21
1055.468498404158
 31
0.0
  0
LINE
  5
433
330
420
100
AcDbEntity
  8
0
  6
Continuous
 62
     7
370
    15
100
AcDbLine
 10
1820.547859290816
 20
1054.620247169334
 30
0.0
 11
1823.033815957997
 21
1053.632628406994
 31
0.0
  0
ARC
  5
434
330
420
100
AcDbEntity
  8
0
  6
Continuous
 62
     7
370
    15
100
AcDbCircle
 10
1820.341720490578
 20
1054.232164713894
 30
0.0
 40
0.4394328130484901
100
AcDbArc
 50
62.02398046811008
 51
184.6532582105466
  0
LINE
  5
435
330
420
100
AcDbEntity
  8
0
  6
Continuous
 62
     7
370
    15
100
AcDbLine
 10
1819.891129368375
 20
1050.888335723686
 30
0.0
 11
1819.903736091828
 21
1054.196515539499
 31
0.0
  0
ARC
  5
436
330
420
100
AcDbEntity
  8
0
  6
Continuous
 62
     7
370
    15
100
AcDbCircle
 10
1818.905664471187
 20
1050.808125081295
 30
0.0
 40
0.9887238293596338
100
AcDbArc
 50
242.0239804681829
 51
4.653258210527202
  0
LINE
  5
437
330
420
100
AcDbEntity
  8
0
  6
Continuous
 62
     7
370
    15
100
AcDbLine
 10
1799.516504639855
 20
1057.453585618243
 30
0.0
 11
1818.441852170652
 21
1049.934939556555
 31
0.0
  0
ARC
  5
438
330
420
100
AcDbEntity
  8
0
  6
Continuous
 62
     7
370
    15
100
AcDbCircle
 10
1800.480005767716
 20
1059.655271989521
 30
0.0
 40
2.403280528956508
100
AcDbArc
 50
182.4176373995244
 51
246.3648704430267
  0
LINE
  5
439
330
420
100
AcDbEntity
  8
0
  6
Continuous
 62
     7
370
    15
100
AcDbLine
 10
1798.091471141078
 20
1062.862073712291
 30
0.0
 11
1798.078864417626
 21
1059.553893896479
 31
0.0
  0
ARC
  5
43A
330
420
100
AcDbEntity
  8
0
  6
Continuous
 62
     7
370
    15
100
AcDbCircle
 10
1797.024297207706
 20
1062.81701678205
 30
0.0
 40
1.068124679535429
100
AcDbArc
 50
2.417637399504356
 51
66.36487044304388
  0
LINE
  5
43B
330
420
100
AcDbEntity
  8
0
  6
Continuous
 62
     7
370
    15
100
AcDbLine
 10
1794.966563264018
 20
1064.783162820514
 30
0.0
 11
1797.452519931199
 21
1063.795544058173
 31
0.0
  0
LINE
  5
43C
330
420
100
AcDbEntity
  8
0
  6
Continuous
 62
     7
370
    15
100
AcDbLine
 10
1820.551091784009
 20
1055.468498404158
 30
0.0
 11
1999.777291024786
 21
1182.383872925774
 31
0.0
  0
LINE
  5
43D
330
420
100
AcDbEntity
  8
0
  6
Continuous
 62
     7
370
    15
100
AcDbLine
 10
2002.263247691967
 20
1181.396254163433
 30
0.0
 11
1999.777291024786
 21
1182.383872925774
 31
0.0
  0
ARC
  5
43E
330
420
100
AcDbEntity
  8
0
  6
Continuous
 62
     7
370
    15
100
AcDbCircle
 10
1999.305245696447
 20
1181.43338636448
 30
0.0
 40
1.061249968295251
100
AcDbArc
 50
63.58937554182218
 51
122.743319035701
  0
LINE
  5
43F
330
420
100
AcDbEntity
  8
0
  6
Continuous
 62
     7
370
    15
100
AcDbLine
 10
1999.117328609153
 20
1177.803710245301
 30
0.0
 11
1819.891129368375
 21
1050.888335723686
 31
0.0
  0
LINE
  5
440
330
420
100
AcDbEntity
  8
0
  6
Continuous
 62
     7
370
    15
100
AcDbLine
 10
1999.117328609153
 20
1177.803710245301
 30
0.0
 11
1999.119311229825
 21
1178.323977522897
 31
0.0
  0
ARC
  5
441
330
420
100
AcDbEntity
  8
0
  6
Continuous
 62
     7
370
    15
100
AcDbCircle
 10
1998.056573970939
 20
1177.742788199808
 30
0.0
 40
1.062502657934526
100
AcDbArc
 50
308.2320707289055
 51
3.287042664716585
  0
LINE
  5
442
330
420
100
AcDbEntity
  8
0
  6
Continuous
 62
     7
370
    15
100
AcDbLine
 10
1823.456876923623
 20
1061.999990693114
 30
0.0
 11
1816.467055153233
 21
1057.05029108677
 31
0.0
  0
LWPOLYLINE
  5
443
330
420
100
AcDbEntity
  8
0
  6
Continuous
 62
     7
370
    15
100
AcDbPolyline
 90
       13
 70
   128
 43
0.0
 10
1818.404771438707
 20
1064.007086887547
 10
1818.977909712977
 20
1064.317797033802
 10
1819.684135880911
 20
1064.538942652678
 10
1820.475321796257
 20
1064.655453035711
 10
1821.297549446381
 20
1064.659388192837
 10
1822.094785375724
 20
1064.550479949604
 10
1822.812699273193
 20
1064.336150222807
 10
1823.402366493087
 20
1064.031005229132
 10
1823.82360218884
 20
1063.655840095621
 10
1824.047699843911
 20
1063.236221706133
 10
1824.059387573447
 20
1062.80074636046
 10
1823.857868877994
 20
1062.379090983752
 10
1823.456876923623
 20
1061.999990693114
  0
LINE
  5
444
330
420
100
AcDbEntity
  8
0
  6
Continuous
 62
     7
370
    15
100
AcDbLine
 10
1811.414949668317
 20
1059.057387281204
 30
0.0
 11
1818.404771438707
 21
1064.007086887547
 31
0.0
  0
LWPOLYLINE
  5
445
330
420
100
AcDbEntity
  8
0
  6
Continuous
 62
     7
370
    15
100
AcDbPolyline
 90
       13
 70
   128
 43
0.0
 10
1816.467055153233
 20
1057.05029108677
 10
1815.893916878962
 20
1056.739580940516
 10
1815.187690711029
 20
1056.51843532164
 10
1814.396504795682
 20
1056.401924938607
 10
1813.574277145558
 20
1056.397989781481
 10
1812.777041216216
 20
1056.506898024714
 10
1812.059127318746
 20
1056.721227751511
 10
1811.469460098853
 20
1057.026372745186
 10
1811.0482244031
 20
1057.401537878697
 10
1810.824126748029
 20
1057.821156268185
 10
1810.812439018492
 20
1058.256631613858
 10
1811.013957713945
 20
1058.678286990566
 10
1811.414949668317
 20
1059.057387281204
  0
LINE
  5
446
330
420
100
AcDbEntity
  8
0
  6
Continuous
 62
     7
370
    15
100
AcDbLine
 10
1978.745936373825
 20
1185.217211374682
 30
0.0
 11
1799.519737133048
 21
1058.301836853067
 31
0.0
  0
LINE
  5
447
330
420
100
AcDbEntity
  8
0
  6
Continuous
 62
     7
370
    15
100
AcDbLine
 10
1994.164116151874
 20
1179.091889951761
 30
0.0
 11
1978.745936373825
 21
1185.217211374682
 31
0.0
  0
LINE
  5
448
330
420
100
AcDbEntity
  8
0
  6
Continuous
 62
     7
370
    15
100
AcDbLine
 10
1831.402571756631
 20
1067.626572296905
 30
0.0
 11
1838.392393527021
 21
1072.576271903249
 31
0.0
  0
LWPOLYLINE
  5
449
330
420
100
AcDbEntity
  8
0
  6
Continuous
 62
     7
370
    15
100
AcDbPolyline
 90
       13
 70
   128
 43
0.0
 10
1838.392393527021
 20
1072.576271903249
 10
1838.793385481393
 20
1072.955372193887
 10
1838.994904176846
 20
1073.377027570594
 10
1838.983216447309
 20
1073.812502916267
 10
1838.759118792238
 20
1074.232121305755
 10
1838.337883096485
 20
1074.607286439267
 10
1837.748215876591
 20
1074.912431432942
 10
1837.030301979122
 20
1075.126761159739
 10
1836.23306604978
 20
1075.235669402972
 10
1835.410838399655
 20
1075.231734245845
 10
1834.619652484309
 20
1075.115223862813
 10
1833.913426316376
 20
1074.894078243937
 10
1833.340288042105
 20
1074.583368097682
  0
LINE
  5
44A
330
420
100
AcDbEntity
  8
0
  6
Continuous
 62
     7
370
    15
100
AcDbLine
 10
1833.340288042105
 20
1074.583368097682
 30
0.0
 11
1826.350466271715
 21
1069.633668491339
 31
0.0
  0
LWPOLYLINE
  5
44B
330
420
100
AcDbEntity
  8
0
  6
Continuous
 62
     7
370
    15
100
AcDbPolyline
 90
       13
 70
   128
 43
0.0
 10
1826.350466271715
 20
1069.633668491339
 10
1825.949474317343
 20
1069.254568200701
 10
1825.74795562189
 20
1068.832912823993
 10
1825.759643351427
 20
1068.39743747832
 10
1825.983741006498
 20
1067.977819088832
 10
1826.404976702251
 20
1067.602653955321
 10
1826.994643922145
 20
1067.297508961645
 10
1827.712557819614
 20
1067.083179234848
 10
1828.509793748956
 20
1066.974270991615
 10
1829.33202139908
 20
1066.978206148742
 10
1830.123207314427
 20
1067.094716531774
 10
1830.82943348236
 20
1067.315862150651
 10
1831.402571756631
 20
1067.626572296905
  0
LINE
  5
44C
330
420
100
AcDbEntity
  8
0
  6
Continuous
 62
     7
370
    15
100
AcDbLine
 10
1846.338088360029
 20
1078.20285350704
 30
0.0
 11
1853.327910130419
 21
1083.152553113383
 31
0.0
  0
LWPOLYLINE
  5
44D
330
420
100
AcDbEntity
  8
0
  6
Continuous
 62
     7
370
    15
100
AcDbPolyline
 90
       13
 70
   128
 43
0.0
 10
1853.327910130419
 20
1083.152553113383
 10
1853.728902084791
 20
1083.531653404021
 10
1853.930420780244
 20
1083.953308780729
 10
1853.918733050707
 20
1084.388784126402
 10
1853.694635395636
 20
1084.80840251589
 10
1853.273399699883
 20
1085.183567649401
 10
1852.683732479989
 20
1085.488712643077
 10
1851.96581858252
 20
1085.703042369874
 10
1851.168582653178
 20
1085.811950613107
 10
1850.346355003053
 20
1085.80801545598
 10
1849.555169087707
 20
1085.691505072947
 10
1848.848942919774
 20
1085.470359454071
 10
1848.275804645503
 20
1085.159649307817
  0
LINE
  5
44E
330
420
100
AcDbEntity
  8
0
  6
Continuous
 62
     7
370
    15
100
AcDbLine
 10
1848.275804645503
 20
1085.159649307817
 30
0.0
 11
1841.285982875113
 21
1080.209949701473
 31
0.0
  0
LWPOLYLINE
  5
44F
330
420
100
AcDbEntity
  8
0
  6
Continuous
 62
     7
370
    15
100
AcDbPolyline
 90
       13
 70
   128
 43
0.0
 10
1841.285982875113
 20
1080.209949701473
 10
1840.884990920741
 20
1079.830849410835
 10
1840.683472225289
 20
1079.409194034127
 10
1840.695159954824
 20
1078.973718688454
 10
1840.919257609896
 20
1078.554100298967
 10
1841.340493305649
 20
1078.178935165455
 10
1841.930160525542
 20
1077.87379017178
 10
1842.648074423012
 20
1077.659460444983
 10
1843.445310352355
 20
1077.55055220175
 10
1844.267538002479
 20
1077.554487358876
 10
1845.058723917825
 20
1077.670997741909
 10
1845.764950085759
 20
1077.892143360785
 10
1846.338088360029
 20
1078.20285350704
  0
LINE
  5
450
330
420
100
AcDbEntity
  8
0
  6
Continuous
 62
     7
370
    15
100
AcDbLine
 10
1861.273604963427
 20
1088.779134717175
 30
0.0
 11
1868.263426733818
 21
1093.728834323518
 31
0.0
  0
LWPOLYLINE
  5
451
330
420
100
AcDbEntity
  8
0
  6
Continuous
 62
     7
370
    15
100
AcDbPolyline
 90
       13
 70
   128
 43
0.0
 10
1868.263426733818
 20
1093.728834323518
 10
1868.664418688189
 20
1094.107934614156
 10
1868.865937383642
 20
1094.529589990864
 10
1868.854249654106
 20
1094.965065336537
 10
1868.630151999034
 20
1095.384683726025
 10
1868.208916303281
 20
1095.759848859536
 10
1867.619249083388
 20
1096.064993853211
 10
1866.901335185918
 20
1096.279323580008
 10
1866.104099256576
 20
1096.388231823242
 10
1865.281871606451
 20
1096.384296666114
 10
1864.490685691105
 20
1096.267786283082
 10
1863.784459523172
 20
1096.046640664206
 10
1863.211321248901
 20
1095.735930517951
  0
LINE
  5
452
330
420
100
AcDbEntity
  8
0
  6
Continuous
 62
     7
370
    15
100
AcDbLine
 10
1863.211321248901
 20
1095.735930517951
 30
0.0
 11
1856.221499478511
 21
1090.786230911608
 31
0.0
  0
LWPOLYLINE
  5
453
330
420
100
AcDbEntity
  8
0
  6
Continuous
 62
     7
370
    15
100
AcDbPolyline
 90
       13
 70
   128
 43
0.0
 10
1856.221499478511
 20
1090.786230911608
 10
1855.820507524139
 20
1090.40713062097
 10
1855.618988828687
 20
1089.985475244262
 10
1855.630676558223
 20
1089.549999898589
 10
1855.854774213295
 20
1089.130381509101
 10
1856.276009909047
 20
1088.75521637559
 10
1856.865677128941
 20
1088.450071381914
 10
1857.583591026411
 20
1088.235741655117
 10
1858.380826955752
 20
1088.126833411884
 10
1859.203054605877
 20
1088.130768569011
 10
1859.994240521223
 20
1088.247278952044
 10
1860.700466689156
 20
1088.46842457092
 10
1861.273604963427
 20
1088.779134717175
  0
LINE
  5
454
330
420
100
AcDbEntity
  8
0
  6
Continuous
 62
     7
370
    15
100
AcDbLine
 10
1876.209121566825
 20
1099.355415927309
 30
0.0
 11
1883.198943337216
 21
1104.305115533652
 31
0.0
  0
LWPOLYLINE
  5
455
330
420
100
AcDbEntity
  8
0
  6
Continuous
 62
     7
370
    15
100
AcDbPolyline
 90
       13
 70
   128
 43
0.0
 10
1883.198943337216
 20
1104.305115533652
 10
1883.599935291587
 20
1104.684215824291
 10
1883.80145398704
 20
1105.105871200998
 10
1883.789766257504
 20
1105.541346546671
 10
1883.565668602432
 20
1105.960964936159
 10
1883.144432906679
 20
1106.336130069671
 10
1882.554765686785
 20
1106.641275063346
 10
1881.836851789316
 20
1106.855604790143
 10
1881.039615859974
 20
1106.964513033376
 10
1880.21738820985
 20
1106.960577876249
 10
1879.426202294504
 20
1106.844067493217
 10
1878.71997612657
 20
1106.62292187434
 10
1878.146837852299
 20
1106.312211728086
  0
LINE
  5
456
330
420
100
AcDbEntity
  8
0
  6
Continuous
 62
     7
370
    15
100
AcDbLine
 10
1878.146837852299
 20
1106.312211728086
 30
0.0
 11
1871.157016081909
 21
1101.362512121743
 31
0.0
  0
LWPOLYLINE
  5
457
330
420
100
AcDbEntity
  8
0
  6
Continuous
 62
     7
370
    15
100
AcDbPolyline
 90
       13
 70
   128
 43
0.0
 10
1871.157016081909
 20
1101.362512121743
 10
1870.756024127538
 20
1100.983411831104
 10
1870.554505432085
 20
1100.561756454397
 10
1870.566193161621
 20
1100.126281108724
 10
1870.790290816693
 20
1099.706662719236
 10
1871.211526512445
 20
1099.331497585724
 10
1871.801193732339
 20
1099.026352592049
 10
1872.519107629809
 20
1098.812022865252
 10
1873.316343559151
 20
1098.703114622019
 10
1874.138571209275
 20
1098.707049779146
 10
1874.929757124621
 20
1098.823560162178
 10
1875.635983292555
 20
1099.044705781055
 10
1876.209121566825
 20
1099.355415927309
  0
LINE
  5
458
330
420
100
AcDbEntity
  8
0
  6
Continuous
 62
     7
370
    15
100
AcDbLine
 10
1891.144638170223
 20
1109.931697137444
 30
0.0
 11
1898.134459940614
 21
1114.881396743787
 31
0.0
  0
LWPOLYLINE
  5
459
330
420
100
AcDbEntity
  8
0
  6
Continuous
 62
     7
370
    15
100
AcDbPolyline
 90
       13
 70
   128
 43
0.0
 10
1898.134459940614
 20
1114.881396743787
 10
1898.535451894985
 20
1115.260497034425
 10
1898.736970590438
 20
1115.682152411133
 10
1898.725282860902
 20
1116.117627756806
 10
1898.50118520583
 20
1116.537246146294
 10
1898.079949510077
 20
1116.912411279805
 10
1897.490282290184
 20
1117.21755627348
 10
1896.772368392714
 20
1117.431886000278
 10
1895.975132463372
 20
1117.540794243511
 10
1895.152904813248
 20
1117.536859086384
 10
1894.361718897902
 20
1117.420348703352
 10
1893.655492729968
 20
1117.199203084475
 10
1893.082354455697
 20
1116.888492938221
  0
LINE
  5
45A
330
420
100
AcDbEntity
  8
0
  6
Continuous
 62
     7
370
    15
100
AcDbLine
 10
1893.082354455697
 20
1116.888492938221
 30
0.0
 11
1886.092532685307
 21
1111.938793331877
 31
0.0
  0
LWPOLYLINE
  5
45B
330
420
100
AcDbEntity
  8
0
  6
Continuous
 62
     7
370
    15
100
AcDbPolyline
 90
       13
 70
   128
 43
0.0
 10
1886.092532685307
 20
1111.938793331877
 10
1885.691540730936
 20
1111.559693041239
 10
1885.490022035483
 20
1111.138037664531
 10
1885.501709765019
 20
1110.702562318858
 10
1885.725807420091
 20
1110.28294392937
 10
1886.147043115844
 20
1109.907778795859
 10
1886.736710335737
 20
1109.602633802184
 10
1887.454624233207
 20
1109.388304075387
 10
1888.251860162549
 20
1109.279395832154
 10
1889.074087812673
 20
1109.28333098928
 10
1889.865273728019
 20
1109.399841372313
 10
1890.571499895953
 20
1109.620986991189
 10
1891.144638170223
 20
1109.931697137444
  0
LINE
  5
45C
330
420
100
AcDbEntity
  8
0
  6
Continuous
 62
     7
370
    15
100
AcDbLine
 10
1906.080154773621
 20
1120.507978347578
 30
0.0
 11
1913.069976544012
 21
1125.457677953921
 31
0.0
  0
LWPOLYLINE
  5
45D
330
420
100
AcDbEntity
  8
0
  6
Continuous
 62
     7
370
    15
100
AcDbPolyline
 90
       13
 70
   128
 43
0.0
 10
1913.069976544012
 20
1125.457677953921
 10
1913.470968498383
 20
1125.836778244559
 10
1913.672487193836
 20
1126.258433621267
 10
1913.6607994643
 20
1126.69390896694
 10
1913.436701809228
 20
1127.113527356429
 10
1913.015466113476
 20
1127.48869248994
 10
1912.425798893582
 20
1127.793837483615
 10
1911.707884996112
 20
1128.008167210412
 10
1910.91064906677
 20
1128.117075453645
 10
1910.088421416646
 20
1128.113140296518
 10
1909.2972355013
 20
1127.996629913486
 10
1908.591009333366
 20
1127.77548429461
 10
1908.017871059096
 20
1127.464774148355
  0
LINE
  5
45E
330
420
100
AcDbEntity
  8
0
  6
Continuous
 62
     7
370
    15
100
AcDbLine
 10
1908.017871059096
 20
1127.464774148355
 30
0.0
 11
1901.028049288705
 21
1122.515074542012
 31
0.0
  0
LWPOLYLINE
  5
45F
330
420
100
AcDbEntity
  8
0
  6
Continuous
 62
     7
370
    15
100
AcDbPolyline
 90
       13
 70
   128
 43
0.0
 10
1901.028049288705
 20
1122.515074542012
 10
1900.627057334334
 20
1122.135974251374
 10
1900.425538638881
 20
1121.714318874666
 10
1900.437226368417
 20
1121.278843528993
 10
1900.661324023489
 20
1120.859225139505
 10
1901.082559719242
 20
1120.484060005994
 10
1901.672226939135
 20
1120.178915012318
 10
1902.390140836605
 20
1119.964585285522
 10
1903.187376765947
 20
1119.855677042288
 10
1904.009604416071
 20
1119.859612199415
 10
1904.800790331417
 20
1119.976122582448
 10
1905.507016499351
 20
1120.197268201324
 10
1906.080154773621
 20
1120.507978347578
  0
LINE
  5
460
330
420
100
AcDbEntity
  8
0
  6
Continuous
 62
     7
370
    15
100
AcDbLine
 10
1921.01567137702
 20
1131.084259557713
 30
0.0
 11
1928.00549314741
 21
1136.033959164056
 31
0.0
  0
LWPOLYLINE
  5
461
330
420
100
AcDbEntity
  8
0
  6
Continuous
 62
     7
370
    15
100
AcDbPolyline
 90
       13
 70
   128
 43
0.0
 10
1928.00549314741
 20
1136.033959164056
 10
1928.406485101781
 20
1136.413059454694
 10
1928.608003797234
 20
1136.834714831402
 10
1928.596316067698
 20
1137.270190177075
 10
1928.372218412626
 20
1137.689808566563
 10
1927.950982716873
 20
1138.064973700074
 10
1927.36131549698
 20
1138.37011869375
 10
1926.64340159951
 20
1138.584448420546
 10
1925.846165670168
 20
1138.69335666378
 10
1925.023938020044
 20
1138.689421506653
 10
1924.232752104698
 20
1138.57291112362
 10
1923.526525936764
 20
1138.351765504744
 10
1922.953387662493
 20
1138.04105535849
  0
LINE
  5
462
330
420
100
AcDbEntity
  8
0
  6
Continuous
 62
     7
370
    15
100
AcDbLine
 10
1922.953387662493
 20
1138.04105535849
 30
0.0
 11
1915.963565892103
 21
1133.091355752147
 31
0.0
  0
LWPOLYLINE
  5
463
330
420
100
AcDbEntity
  8
0
  6
Continuous
 62
     7
370
    15
100
AcDbPolyline
 90
       13
 70
   128
 43
0.0
 10
1915.963565892103
 20
1133.091355752147
 10
1915.562573937732
 20
1132.712255461508
 10
1915.361055242279
 20
1132.290600084801
 10
1915.372742971815
 20
1131.855124739127
 10
1915.596840626887
 20
1131.43550634964
 10
1916.01807632264
 20
1131.060341216128
 10
1916.607743542533
 20
1130.755196222453
 10
1917.325657440003
 20
1130.540866495656
 10
1918.122893369345
 20
1130.431958252423
 10
1918.945121019469
 20
1130.43589340955
 10
1919.736306934815
 20
1130.552403792582
 10
1920.442533102749
 20
1130.773549411459
 10
1921.01567137702
 20
1131.084259557713
  0
LINE
  5
464
330
420
100
AcDbEntity
  8
0
  6
Continuous
 62
     7
370
    15
100
AcDbLine
 10
1935.951187980418
 20
1141.660540767848
 30
0.0
 11
1942.941009750808
 21
1146.610240374191
 31
0.0
  0
LWPOLYLINE
  5
465
330
420
100
AcDbEntity
  8
0
  6
Continuous
 62
     7
370
    15
100
AcDbPolyline
 90
       13
 70
   128
 43
0.0
 10
1942.941009750808
 20
1146.610240374191
 10
1943.34200170518
 20
1146.989340664829
 10
1943.543520400632
 20
1147.410996041537
 10
1943.531832671096
 20
1147.84647138721
 10
1943.307735016025
 20
1148.266089776698
 10
1942.886499320272
 20
1148.641254910209
 10
1942.296832100378
 20
1148.946399903885
 10
1941.578918202909
 20
1149.160729630681
 10
1940.781682273566
 20
1149.269637873914
 10
1939.959454623442
 20
1149.265702716788
 10
1939.168268708096
 20
1149.149192333755
 10
1938.462042540162
 20
1148.928046714879
 10
1937.888904265892
 20
1148.617336568624
  0
LINE
  5
466
330
420
100
AcDbEntity
  8
0
  6
Continuous
 62
     7
370
    15
100
AcDbLine
 10
1937.888904265892
 20
1148.617336568624
 30
0.0
 11
1930.899082495502
 21
1143.667636962281
 31
0.0
  0
LWPOLYLINE
  5
467
330
420
100
AcDbEntity
  8
0
  6
Continuous
 62
     7
370
    15
100
AcDbPolyline
 90
       13
 70
   128
 43
0.0
 10
1930.899082495502
 20
1143.667636962281
 10
1930.49809054113
 20
1143.288536671643
 10
1930.296571845677
 20
1142.866881294935
 10
1930.308259575213
 20
1142.431405949262
 10
1930.532357230285
 20
1142.011787559774
 10
1930.953592926038
 20
1141.636622426263
 10
1931.543260145932
 20
1141.331477432588
 10
1932.261174043401
 20
1141.117147705791
 10
1933.058409972743
 20
1141.008239462557
 10
1933.880637622868
 20
1141.012174619684
 10
1934.671823538214
 20
1141.128685002717
 10
1935.378049706147
 20
1141.349830621593
 10
1935.951187980418
 20
1141.660540767848
  0
LINE
  5
468
330
420
100
AcDbEntity
  8
0
  6
Continuous
 62
     7
370
    15
100
AcDbLine
 10
1950.886704583816
 20
1152.236821977982
 30
0.0
 11
1957.876526354206
 21
1157.186521584325
 31
0.0
  0
LWPOLYLINE
  5
469
330
420
100
AcDbEntity
  8
0
  6
Continuous
 62
     7
370
    15
100
AcDbPolyline
 90
       13
 70
   128
 43
0.0
 10
1957.876526354206
 20
1157.186521584325
 10
1958.277518308578
 20
1157.565621874964
 10
1958.47903700403
 20
1157.987277251671
 10
1958.467349274494
 20
1158.422752597344
 10
1958.243251619423
 20
1158.842370986832
 10
1957.82201592367
 20
1159.217536120344
 10
1957.232348703776
 20
1159.522681114019
 10
1956.514434806307
 20
1159.737010840816
 10
1955.717198876964
 20
1159.845919084049
 10
1954.89497122684
 20
1159.841983926922
 10
1954.103785311494
 20
1159.72547354389
 10
1953.39755914356
 20
1159.504327925014
 10
1952.82442086929
 20
1159.193617778759
  0
LINE
  5
46A
330
420
100
AcDbEntity
  8
0
  6
Continuous
 62
     7
370
    15
100
AcDbLine
 10
1952.82442086929
 20
1159.193617778759
 30
0.0
 11
1945.834599098899
 21
1154.243918172416
 31
0.0
  0
LWPOLYLINE
  5
46B
330
420
100
AcDbEntity
  8
0
  6
Continuous
 62
     7
370
    15
100
AcDbPolyline
 90
       13
 70
   128
 43
0.0
 10
1945.834599098899
 20
1154.243918172416
 10
1945.433607144528
 20
1153.864817881778
 10
1945.232088449076
 20
1153.44316250507
 10
1945.243776178611
 20
1153.007687159397
 10
1945.467873833683
 20
1152.588068769909
 10
1945.889109529436
 20
1152.212903636398
 10
1946.47877674933
 20
1151.907758642722
 10
1947.196690646799
 20
1151.693428915925
 10
1947.993926576141
 20
1151.584520672692
 10
1948.816154226265
 20
1151.588455829819
 10
1949.607340141612
 20
1151.704966212851
 10
1950.313566309545
 20
1151.926111831728
 10
1950.886704583816
 20
1152.236821977982
  0
LINE
  5
46C
330
420
100
AcDbEntity
  8
0
  6
Continuous
 62
     7
370
    15
100
AcDbLine
 10
1965.822221187214
 20
1162.813103188117
 30
0.0
 11
1972.812042957604
 21
1167.76280279446
 31
0.0
  0
LWPOLYLINE
  5
46D
330
420
100
AcDbEntity
  8
0
  6
Continuous
 62
     7
370
    15
100
AcDbPolyline
 90
       13
 70
   128
 43
0.0
 10
1972.812042957604
 20
1167.76280279446
 10
1973.213034911976
 20
1168.141903085098
 10
1973.414553607428
 20
1168.563558461806
 10
1973.402865877892
 20
1168.999033807479
 10
1973.178768222821
 20
1169.418652196967
 10
1972.757532527068
 20
1169.793817330478
 10
1972.167865307174
 20
1170.098962324154
 10
1971.449951409704
 20
1170.313292050951
 10
1970.652715480363
 20
1170.422200294184
 10
1969.830487830238
 20
1170.418265137057
 10
1969.039301914892
 20
1170.301754754025
 10
1968.333075746959
 20
1170.080609135148
 10
1967.759937472688
 20
1169.769898988894
  0
LINE
  5
46E
330
420
100
AcDbEntity
  8
0
  6
Continuous
 62
     7
370
    15
100
AcDbLine
 10
1967.759937472688
 20
1169.769898988894
 30
0.0
 11
1960.770115702297
 21
1164.820199382551
 31
0.0
  0
LWPOLYLINE
  5
46F
330
420
100
AcDbEntity
  8
0
  6
Continuous
 62
     7
370
    15
100
AcDbPolyline
 90
       13
 70
   128
 43
0.0
 10
1960.770115702297
 20
1164.820199382551
 10
1960.369123747926
 20
1164.441099091912
 10
1960.167605052474
 20
1164.019443715205
 10
1960.179292782009
 20
1163.583968369532
 10
1960.403390437081
 20
1163.164349980044
 10
1960.824626132834
 20
1162.789184846532
 10
1961.414293352728
 20
1162.484039852857
 10
1962.132207250197
 20
1162.26971012606
 10
1962.929443179539
 20
1162.160801882827
 10
1963.751670829664
 20
1162.164737039954
 10
1964.54285674501
 20
1162.281247422986
 10
1965.249082912944
 20
1162.502393041862
 10
1965.822221187214
 20
1162.813103188117
  0
LINE
  5
470
330
420
100
AcDbEntity
  8
0
  6
Continuous
 62
     7
370
    15
100
AcDbLine
 10
1980.757737790612
 20
1173.389384398252
 30
0.0
 11
1987.747559561002
 21
1178.339084004595
 31
0.0
  0
LWPOLYLINE
  5
471
330
420
100
AcDbEntity
  8
0
  6
Continuous
 62
     7
370
    15
100
AcDbPolyline
 90
       13
 70
   128
 43
0.0
 10
1987.747559561002
 20
1178.339084004595
 10
1988.148551515374
 20
1178.718184295233
 10
1988.350070210826
 20
1179.139839671941
 10
1988.33838248129
 20
1179.575315017614
 10
1988.114284826219
 20
1179.994933407102
 10
1987.693049130466
 20
1180.370098540613
 10
1987.103381910572
 20
1180.675243534288
 10
1986.385468013103
 20
1180.889573261085
 10
1985.588232083761
 20
1180.998481504319
 10
1984.766004433637
 20
1180.994546347192
 10
1983.97481851829
 20
1180.878035964159
 10
1983.268592350357
 20
1180.656890345283
 10
1982.695454076086
 20
1180.346180199028
  0
LINE
  5
472
330
420
100
AcDbEntity
  8
0
  6
Continuous
 62
     7
370
    15
100
AcDbLine
 10
1982.695454076086
 20
1180.346180199028
 30
0.0
 11
1975.705632305696
 21
1175.396480592685
 31
0.0
  0
LWPOLYLINE
  5
473
330
420
100
AcDbEntity
  8
0
  6
Continuous
 62
     7
370
    15
100
AcDbPolyline
 90
       13
 70
   128
 43
0.0
 10
1975.705632305696
 20
1175.396480592685
 10
1975.304640351324
 20
1175.017380302047
 10
1975.103121655872
 20
1174.595724925339
 10
1975.114809385408
 20
1174.160249579666
 10
1975.338907040479
 20
1173.740631190178
 10
1975.760142736232
 20
1173.365466056667
 10
1976.349809956126
 20
1173.060321062991
 10
1977.067723853595
 20
1172.845991336195
 10
1977.864959782937
 20
1172.737083092961
 10
1978.687187433062
 20
1172.741018250088
 10
1979.478373348408
 20
1172.857528633121
 10
1980.184599516342
 20
1173.078674251997
 10
1980.757737790612
 20
1173.389384398252
  0
LINE
  5
474
330
420
100
AcDbEntity
  8
0
  6
Continuous
 62
     7
370
    15
100
AcDbLine
 10
1811.411717175124
 20
1058.209136046381
 30
0.0
 11
1811.414949668317
 21
1059.057387281204
 31
0.0
  0
LWPOLYLINE
  5
475
330
420
100
AcDbEntity
  8
0
  6
Continuous
 62
     7
370
    15
100
AcDbPolyline
 90
        3
 70
   128
 43
0.0
 10
1810.892917621479
 20
1057.641322967968
 10
1811.010725220752
 20
1057.830035755742
 10
1811.411717175124
 20
1058.209136046381
  0
LINE
  5
476
330
420
100
AcDbEntity
  8
0
  6
Continuous
 62
     7
370
    15
100
AcDbLine
 10
1798.893392646621
 20
1062.543487014762
 30
0.0
 11
1978.119591887398
 21
1189.458861536377
 31
0.0
  0
LINE
  5
477
330
420
100
AcDbEntity
  8
0
  6
Continuous
 62
     7
370
    15
100
AcDbLine
 10
1797.455752424392
 20
1064.643795292997
 30
0.0
 11
1976.681951665169
 21
1191.559169814613
 31
0.0
  0
ARC
  5
478
330
420
100
AcDbEntity
  8
0
  6
Continuous
 62
     7
370
    15
100
AcDbCircle
 10
1975.718450537309
 20
1189.357483443336
 30
0.0
 40
2.403280528955325
100
AcDbArc
 50
2.417637399510863
 51
66.36487044304129
  0
LINE
  5
479
330
420
100
AcDbEntity
  8
0
  6
Continuous
 62
     7
370
    15
100
AcDbLine
 10
1974.195994997988
 20
1192.546788576953
 30
0.0
 11
1794.969795757211
 21
1065.631414055338
 31
0.0
  0
LINE
  5
47A
330
420
100
AcDbEntity
  8
0
  6
Continuous
 62
     7
370
    15
100
AcDbLine
 10
1976.681951665169
 20
1191.559169814613
 30
0.0
 11
1974.195994997988
 21
1192.546788576953
 31
0.0
  0
LINE
  5
47B
330
420
100
AcDbEntity
  8
0
  6
Continuous
 62
     7
370
    15
100
AcDbLine
 10
1978.106985163946
 20
1186.150681720564
 30
0.0
 11
1978.119591887398
 21
1189.458861536377
 31
0.0
  0
LINE
  5
47C
330
420
100
AcDbEntity
  8
0
  6
Continuous
 62
     7
370
    15
100
AcDbLine
 10
1798.880785923168
 20
1059.235307198949
 30
0.0
 11
1978.106985163946
 21
1186.150681720564
 31
0.0
  0
ARC
  5
47D
330
420
100
AcDbEntity
  8
0
  6
Continuous
 62
     7
370
    15
100
AcDbCircle
 10
1979.174159097319
 20
1186.195738650805
 30
0.0
 40
1.068124679535782
100
AcDbArc
 50
182.4176373995179
 51
246.3648704430413
  0
LINE
  5
47E
330
420
100
AcDbEntity
  8
0
  6
Continuous
 62
     7
370
    15
100
AcDbLine
 10
1818.401538945514
 20
1063.158835652724
 30
0.0
 11
1818.404771438707
 21
1064.007086887547
 31
0.0
  0
LINE
  5
47F
330
420
100
AcDbEntity
  8
0
  6
Continuous
 62
     7
370
    15
100
AcDbLine
 10
1811.411717175124
 20
1058.209136046381
 30
0.0
 11
1818.401538945514
 21
1063.158835652724
 31
0.0
  0
LWPOLYLINE
  5
480
330
420
100
AcDbEntity
  8
0
  6
Continuous
 62
     7
370
    15
100
AcDbPolyline
 90
       10
 70
   128
 43
0.0
 10
1818.401538945514
 20
1063.158835652724
 10
1818.974677219785
 20
1063.469545798978
 10
1819.680903387718
 20
1063.690691417854
 10
1820.472089303064
 20
1063.807201800887
 10
1821.294316953188
 20
1063.811136958014
 10
1822.091552882531
 20
1063.70222871478
 10
1822.80946678
 20
1063.487898987983
 10
1823.399133999894
 20
1063.182753994308
 10
1823.820369695647
 20
1062.807588860797
 10
1823.975676477349
 20
1062.56780377193
  0
LINE
  5
481
330
420
100
AcDbEntity
  8
0
  6
Continuous
 62
     7
370
    15
100
AcDbLine
 10
1826.347233778522
 20
1068.785417256515
 30
0.0
 11
1826.350466271715
 21
1069.633668491339
 31
0.0
  0
LWPOLYLINE
  5
482
330
420
100
AcDbEntity
  8
0
  6
Continuous
 62
     7
370
    15
100
AcDbPolyline
 90
        3
 70
   128
 43
0.0
 10
1826.347233778522
 20
1068.785417256515
 10
1825.94624182415
 20
1068.406316965877
 10
1825.828434224763
 20
1068.217604177874
  0
LINE
  5
483
330
420
100
AcDbEntity
  8
0
  6
Continuous
 62
     7
370
    15
100
AcDbLine
 10
1833.337055548912
 20
1073.735116862858
 30
0.0
 11
1833.340288042105
 21
1074.583368097682
 31
0.0
  0
LINE
  5
484
330
420
100
AcDbEntity
  8
0
  6
Continuous
 62
     7
370
    15
100
AcDbLine
 10
1833.337055548912
 20
1073.735116862858
 30
0.0
 11
1826.347233778522
 21
1068.785417256515
 31
0.0
  0
ARC
  5
485
330
420
100
AcDbEntity
  8
0
  6
Continuous
 62
     7
370
    15
100
AcDbCircle
 10
1835.775013803296
 20
1070.147071250195
 30
0.0
 40
4.337938654322786
100
AcDbArc
 50
43.70015008279195
 51
124.194810752208
  0
LINE
  5
486
330
420
100
AcDbEntity
  8
0
  6
Continuous
 62
     7
370
    15
100
AcDbLine
 10
1841.282750381919
 20
1079.36169846665
 30
0.0
 11
1841.285982875113
 21
1080.209949701473
 31
0.0
  0
LWPOLYLINE
  5
487
330
420
100
AcDbEntity
  8
0
  6
Continuous
 62
     7
370
    15
100
AcDbPolyline
 90
        3
 70
   128
 43
0.0
 10
1841.282750381919
 20
1079.36169846665
 10
1840.881758427548
 20
1078.982598176012
 10
1840.76395082814
 20
1078.793885387967
  0
LINE
  5
488
330
420
100
AcDbEntity
  8
0
  6
Continuous
 62
     7
370
    15
100
AcDbLine
 10
1848.27257215231
 20
1084.311398072993
 30
0.0
 11
1848.275804645503
 21
1085.159649307817
 31
0.0
  0
LINE
  5
489
330
420
100
AcDbEntity
  8
0
  6
Continuous
 62
     7
370
    15
100
AcDbLine
 10
1848.27257215231
 20
1084.311398072993
 30
0.0
 11
1841.282750381919
 21
1079.36169846665
 31
0.0
  0
ARC
  5
48A
330
420
100
AcDbEntity
  8
0
  6
Continuous
 62
     7
370
    15
100
AcDbCircle
 10
1850.710530406714
 20
1080.723352460215
 30
0.0
 40
4.337938654429065
100
AcDbArc
 50
43.7001500857728
 51
124.1948107515649
  0
LINE
  5
48B
330
420
100
AcDbEntity
  8
0
  6
Continuous
 62
     7
370
    15
100
AcDbLine
 10
1856.218266985318
 20
1089.937979676784
 30
0.0
 11
1856.221499478511
 21
1090.786230911608
 31
0.0
  0
LWPOLYLINE
  5
48C
330
420
100
AcDbEntity
  8
0
  6
Continuous
 62
     7
370
    15
100
AcDbPolyline
 90
        3
 70
   128
 43
0.0
 10
1856.218266985318
 20
1089.937979676784
 10
1855.817275030947
 20
1089.558879386146
 10
1855.699467431391
 20
1089.370166597808
  0
LINE
  5
48D
330
420
100
AcDbEntity
  8
0
  6
Continuous
 62
     7
370
    15
100
AcDbLine
 10
1863.208088755708
 20
1094.887679283127
 30
0.0
 11
1863.211321248901
 21
1095.735930517951
 31
0.0
  0
LINE
  5
48E
330
420
100
AcDbEntity
  8
0
  6
Continuous
 62
     7
370
    15
100
AcDbLine
 10
1863.208088755708
 20
1094.887679283127
 30
0.0
 11
1856.218266985318
 21
1089.937979676784
 31
0.0
  0
ARC
  5
48F
330
420
100
AcDbEntity
  8
0
  6
Continuous
 62
     7
370
    15
100
AcDbCircle
 10
1865.646047010103
 20
1091.299633670405
 30
0.0
 40
4.337938654377902
100
AcDbArc
 50
43.70015008433999
 51
124.1948107518793
  0
LINE
  5
490
330
420
100
AcDbEntity
  8
0
  6
Continuous
 62
     7
370
    15
100
AcDbLine
 10
1871.153783588716
 20
1100.514260886919
 30
0.0
 11
1871.157016081909
 21
1101.362512121743
 31
0.0
  0
LWPOLYLINE
  5
491
330
420
100
AcDbEntity
  8
0
  6
Continuous
 62
     7
370
    15
100
AcDbPolyline
 90
        3
 70
   128
 43
0.0
 10
1871.153783588716
 20
1100.514260886919
 10
1870.752791634345
 20
1100.135160596281
 10
1870.634984035083
 20
1099.946447808529
  0
LINE
  5
492
330
420
100
AcDbEntity
  8
0
  6
Continuous
 62
     7
370
    15
100
AcDbLine
 10
1878.143605359107
 20
1105.463960493262
 30
0.0
 11
1878.146837852299
 21
1106.312211728086
 31
0.0
  0
LINE
  5
493
330
420
100
AcDbEntity
  8
0
  6
Continuous
 62
     7
370
    15
100
AcDbLine
 10
1878.143605359107
 20
1105.463960493262
 30
0.0
 11
1871.153783588716
 21
1100.514260886919
 31
0.0
  0
ARC
  5
494
330
420
100
AcDbEntity
  8
0
  6
Continuous
 62
     7
370
    15
100
AcDbCircle
 10
1880.581563613501
 20
1101.875914880539
 30
0.0
 40
4.337938654378569
100
AcDbArc
 50
43.70015008436312
 51
124.1948107518648
  0
LINE
  5
495
330
420
100
AcDbEntity
  8
0
  6
Continuous
 62
     7
370
    15
100
AcDbLine
 10
1886.089300192114
 20
1111.090542097054
 30
0.0
 11
1886.092532685307
 21
1111.938793331877
 31
0.0
  0
LWPOLYLINE
  5
496
330
420
100
AcDbEntity
  8
0
  6
Continuous
 62
     7
370
    15
100
AcDbPolyline
 90
        3
 70
   128
 43
0.0
 10
1886.089300192114
 20
1111.090542097054
 10
1885.688308237743
 20
1110.711441806415
 10
1885.57050063821
 20
1110.522729018122
  0
LINE
  5
497
330
420
100
AcDbEntity
  8
0
  6
Continuous
 62
     7
370
    15
100
AcDbLine
 10
1893.079121962505
 20
1116.040241703397
 30
0.0
 11
1893.082354455697
 21
1116.888492938221
 31
0.0
  0
LINE
  5
498
330
420
100
AcDbEntity
  8
0
  6
Continuous
 62
     7
370
    15
100
AcDbLine
 10
1893.079121962505
 20
1116.040241703397
 30
0.0
 11
1886.089300192114
 21
1111.090542097054
 31
0.0
  0
ARC
  5
499
330
420
100
AcDbEntity
  8
0
  6
Continuous
 62
     7
370
    15
100
AcDbCircle
 10
1895.517080216914
 20
1112.452196090584
 30
0.0
 40
4.337938654461037
100
AcDbArc
 50
43.70015008666204
 51
124.1948107513733
  0
LINE
  5
49A
330
420
100
AcDbEntity
  8
0
  6
Continuous
 62
     7
370
    15
100
AcDbLine
 10
1901.024816795512
 20
1121.666823307188
 30
0.0
 11
1901.028049288705
 21
1122.515074542012
 31
0.0
  0
LWPOLYLINE
  5
49B
330
420
100
AcDbEntity
  8
0
  6
Continuous
 62
     7
370
    15
100
AcDbPolyline
 90
        3
 70
   128
 43
0.0
 10
1901.024816795512
 20
1121.666823307188
 10
1900.623824841141
 20
1121.28772301655
 10
1900.506017241639
 20
1121.099010228321
  0
LINE
  5
49C
330
420
100
AcDbEntity
  8
0
  6
Continuous
 62
     7
370
    15
100
AcDbLine
 10
1908.014638565903
 20
1126.616522913531
 30
0.0
 11
1908.017871059096
 21
1127.464774148355
 31
0.0
  0
LINE
  5
49D
330
420
100
AcDbEntity
  8
0
  6
Continuous
 62
     7
370
    15
100
AcDbLine
 10
1908.014638565903
 20
1126.616522913531
 30
0.0
 11
1901.024816795512
 21
1121.666823307188
 31
0.0
  0
ARC
  5
49E
330
420
100
AcDbEntity
  8
0
  6
Continuous
 62
     7
370
    15
100
AcDbCircle
 10
1910.452596820297
 20
1123.028477300808
 30
0.0
 40
4.337938654378717
100
AcDbArc
 50
43.70015008435841
 51
124.1948107518648
  0
LINE
  5
49F
330
420
100
AcDbEntity
  8
0
  6
Continuous
 62
     7
370
    15
100
AcDbLine
 10
1915.960333398911
 20
1132.243104517323
 30
0.0
 11
1915.963565892103
 21
1133.091355752147
 31
0.0
  0
LWPOLYLINE
  5
4A0
330
420
100
AcDbEntity
  8
0
  6
Continuous
 62
     7
370
    15
100
AcDbPolyline
 90
        3
 70
   128
 43
0.0
 10
1915.960333398911
 20
1132.243104517323
 10
1915.559341444539
 20
1131.864004226684
 10
1915.441533845039
 20
1131.675291438458
  0
LINE
  5
4A1
330
420
100
AcDbEntity
  8
0
  6
Continuous
 62
     7
370
    15
100
AcDbLine
 10
1922.950155169301
 20
1137.192804123666
 30
0.0
 11
1922.953387662493
 21
1138.04105535849
 31
0.0
  0
LINE
  5
4A2
330
420
100
AcDbEntity
  8
0
  6
Continuous
 62
     7
370
    15
100
AcDbLine
 10
1922.950155169301
 20
1137.192804123666
 30
0.0
 11
1915.960333398911
 21
1132.243104517323
 31
0.0
  0
ARC
  5
4A3
330
420
100
AcDbEntity
  8
0
  6
Continuous
 62
     7
370
    15
100
AcDbCircle
 10
1925.388113423671
 20
1133.604758511087
 30
0.0
 40
4.337938654245013
100
AcDbArc
 50
43.70015008060355
 51
124.1948107526706
  0
LINE
  5
4A4
330
420
100
AcDbEntity
  8
0
  6
Continuous
 62
     7
370
    15
100
AcDbLine
 10
1930.895850002309
 20
1142.819385727458
 30
0.0
 11
1930.899082495502
 21
1143.667636962281
 31
0.0
  0
LWPOLYLINE
  5
4A5
330
420
100
AcDbEntity
  8
0
  6
Continuous
 62
     7
370
    15
100
AcDbPolyline
 90
        3
 70
   128
 43
0.0
 10
1930.895850002309
 20
1142.819385727458
 10
1930.494858047937
 20
1142.440285436819
 10
1930.377050448528
 20
1142.251572648773
  0
LINE
  5
4A6
330
420
100
AcDbEntity
  8
0
  6
Continuous
 62
     7
370
    15
100
AcDbLine
 10
1937.885671772699
 20
1147.769085333801
 30
0.0
 11
1937.888904265892
 21
1148.617336568624
 31
0.0
  0
LINE
  5
4A7
330
420
100
AcDbEntity
  8
0
  6
Continuous
 62
     7
370
    15
100
AcDbLine
 10
1937.885671772699
 20
1147.769085333801
 30
0.0
 11
1930.895850002309
 21
1142.819385727458
 31
0.0
  0
ARC
  5
4A8
330
420
100
AcDbEntity
  8
0
  6
Continuous
 62
     7
370
    15
100
AcDbCircle
 10
1940.323630027091
 20
1144.181039721087
 30
0.0
 40
4.337938654369812
100
AcDbArc
 50
43.70015008409583
 51
124.1948107519226
  0
LINE
  5
4A9
330
420
100
AcDbEntity
  8
0
  6
Continuous
 62
     7
370
    15
100
AcDbLine
 10
1945.831366605707
 20
1153.395666937592
 30
0.0
 11
1945.834599098899
 21
1154.243918172416
 31
0.0
  0
LWPOLYLINE
  5
4AA
330
420
100
AcDbEntity
  8
0
  6
Continuous
 62
     7
370
    15
100
AcDbPolyline
 90
        3
 70
   128
 43
0.0
 10
1945.831366605707
 20
1153.395666937592
 10
1945.430374651335
 20
1153.016566646954
 10
1945.312567051893
 20
1152.827853858842
  0
LINE
  5
4AB
330
420
100
AcDbEntity
  8
0
  6
Continuous
 62
     7
370
    15
100
AcDbLine
 10
1952.821188376097
 20
1158.345366543935
 30
0.0
 11
1952.82442086929
 21
1159.193617778759
 31
0.0
  0
LINE
  5
4AC
330
420
100
AcDbEntity
  8
0
  6
Continuous
 62
     7
370
    15
100
AcDbLine
 10
1952.821188376097
 20
1158.345366543935
 30
0.0
 11
1945.831366605707
 21
1153.395666937592
 31
0.0
  0
ARC
  5
4AD
330
420
100
AcDbEntity
  8
0
  6
Continuous
 62
     7
370
    15
100
AcDbCircle
 10
1955.259146630407
 20
1154.757320931709
 30
0.0
 40
4.337938653920584
100
AcDbArc
 50
43.70015007151368
 51
124.1948107546362
  0
LINE
  5
4AE
330
420
100
AcDbEntity
  8
0
  6
Continuous
 62
     7
370
    15
100
AcDbLine
 10
1960.766883209105
 20
1163.971948147727
 30
0.0
 11
1960.770115702297
 21
1164.820199382551
 31
0.0
  0
LWPOLYLINE
  5
4AF
330
420
100
AcDbEntity
  8
0
  6
Continuous
 62
     7
370
    15
100
AcDbPolyline
 90
        3
 70
   128
 43
0.0
 10
1960.766883209105
 20
1163.971948147727
 10
1960.365891254733
 20
1163.592847857088
 10
1960.248083655236
 20
1163.404135068866
  0
LINE
  5
4B0
330
420
100
AcDbEntity
  8
0
  6
Continuous
 62
     7
370
    15
100
AcDbLine
 10
1967.756704979495
 20
1168.92164775407
 30
0.0
 11
1967.759937472688
 21
1169.769898988894
 31
0.0
  0
LINE
  5
4B1
330
420
100
AcDbEntity
  8
0
  6
Continuous
 62
     7
370
    15
100
AcDbLine
 10
1967.756704979495
 20
1168.92164775407
 30
0.0
 11
1960.766883209105
 21
1163.971948147727
 31
0.0
  0
ARC
  5
4B2
330
420
100
AcDbEntity
  8
0
  6
Continuous
 62
     7
370
    15
100
AcDbCircle
 10
1970.194663233873
 20
1165.333602141441
 30
0.0
 40
4.337938654291416
100
AcDbArc
 50
43.70015008190743
 51
124.1948107523996
  0
LINE
  5
4B3
330
420
100
AcDbEntity
  8
0
  6
Continuous
 62
     7
370
    15
100
AcDbLine
 10
1975.702399812503
 20
1174.548229357861
 30
0.0
 11
1975.705632305696
 21
1175.396480592685
 31
0.0
  0
LWPOLYLINE
  5
4B4
330
420
100
AcDbEntity
  8
0
  6
Continuous
 62
     7
370
    15
100
AcDbPolyline
 90
        3
 70
   128
 43
0.0
 10
1975.702399812503
 20
1174.548229357861
 10
1975.301407858131
 20
1174.169129067223
 10
1975.183600258667
 20
1173.980416279067
  0
LINE
  5
4B5
330
420
100
AcDbEntity
  8
0
  6
Continuous
 62
     7
370
    15
100
AcDbLine
 10
1982.692221582893
 20
1179.497928964204
 30
0.0
 11
1982.695454076086
 21
1180.346180199028
 31
0.0
  0
LINE
  5
4B6
330
420
100
AcDbEntity
  8
0
  6
Continuous
 62
     7
370
    15
100
AcDbLine
 10
1982.692221582893
 20
1179.497928964204
 30
0.0
 11
1975.702399812503
 21
1174.548229357861
 31
0.0
  0
ARC
  5
4B7
330
420
100
AcDbEntity
  8
0
  6
Continuous
 62
     7
370
    15
100
AcDbCircle
 10
1985.130179837307
 20
1175.909883351366
 30
0.0
 40
4.337938654484481
100
AcDbArc
 50
43.70015008733454
 51
124.1948107512325
  0
LINE
  5
4B8
330
420
100
AcDbEntity
  8
0
  6
Continuous
 62
     8
370
    15
100
AcDbLine
 10
1820.517885660473
 20
1054.631413020151
 30
0.0
 11
1819.903736091828
 21
1054.196515539499
 31
0.0
  0
LINE
  5
4B9
330
420
100
AcDbEntity
  8
0
  6
Continuous
 62
     8
370
    15
100
AcDbLine
 10
1818.445084663845
 20
1050.783190791379
 30
0.0
 11
1819.089331631835
 21
1051.239401131012
 31
0.0
  0
ENDBLK
  5
422
330
420
100
AcDbEntity
  8
0
100
AcDbBlockEnd
  0
ENDSEC
  0
SECTION
  2
ENTITIES
  0
INSERT
  5
3C4
330
1F
100
AcDbEntity
  8
0
100
AcDbBlockReference
  2
1
 10
0.0
 20
0.0
 30
0.0
  0
INSERT
  5
3D5
330
1F
100
AcDbEntity
  8
0
100
AcDbBlockReference
  2
2
 10
0.0
 20
0.0
 30
0.0
  0
INSERT
  5
41F
330
1F
100
AcDbEntity
  8
0
100
AcDbBlockReference
  2
3
 10
0.0
 20
0.0
 30
0.0
  0
INSERT
  5
4BA
330
1F
100
AcDbEntity
  8
0
100
AcDbBlockReference
  2
4
 10
347.5891447559743
 20
80.40480147024686
 30
0.0
  0
ENDSEC
  0
SECTION
  2
OBJECTS
  0
DICTIONARY
  5
C
330
0
100
AcDbDictionary
281
     1
  3
ACAD_COLOR
350
6B
  3
ACAD_GROUP
350
D
  3
ACAD_LAYOUT
350
1A
  3
ACAD_MATERIAL
350
6A
  3
ACAD_MLEADERSTYLE
350
12D
  3
ACAD_MLINESTYLE
350
17
  3
ACAD_PLOTSETTINGS
350
19
  3
ACAD_PLOTSTYLENAME
350
E
  3
ACAD_SCALELIST
350
10C
  3
ACAD_TABLESTYLE
350
7E
  3
ACAD_VISUALSTYLE
350
EF
  3
ACDB_RECOMPOSE_DATA
350
15D
  3
AcDbVariableDictionary
350
5E
  3
DWGPROPS
350
4C8
  0
DICTIONARY
  5
13C
330
10
100
AcDbDictionary
280
     1
281
     1
  3
ADSK_XREC_LAYER_RECONCILED
360
4BB
  0
DICTIONARY
  5
6B
102
{ACAD_REACTORS
330
C
102
}
330
C
100
AcDbDictionary
281
     1
  0
DICTIONARY
  5
D
102
{ACAD_REACTORS
330
C
102
}
330
C
100
AcDbDictionary
281
     1
  0
DICTIONARY
  5
1A
102
{ACAD_REACTORS
330
C
102
}
330
C
100
AcDbDictionary
281
     1
  3
Layout1
350
D3
  3
Layout2
350
D7
  3
Model
350
22
  0
DICTIONARY
  5
6A
102
{ACAD_REACTORS
330
C
102
}
330
C
100
AcDbDictionary
281
     1
  3
ByBlock
350
ED
  3
ByLayer
350
EC
  3
Global
350
EE
  0
DICTIONARY
  5
12D
102
{ACAD_REACTORS
330
C
102
}
330
C
100
AcDbDictionary
281
     1
  3
Annotative
350
13B
  3
Standard
350
12E
  0
DICTIONARY
  5
17
102
{ACAD_REACTORS
330
C
102
}
330
C
100
AcDbDictionary
281
     1
  3
Standard
350
18
  0
DICTIONARY
  5
19
102
{ACAD_REACTORS
330
C
102
}
330
C
100
AcDbDictionary
281
     1
  0
ACDBDICTIONARYWDFLT
  5
E
102
{ACAD_REACTORS
330
C
102
}
330
C
100
AcDbDictionary
281
     1
  3
Normal
350
F
100
AcDbDictionaryWithDefault
340
F
  0
DICTIONARY
  5
10C
102
{ACAD_REACTORS
330
C
102
}
330
C
100
AcDbDictionary
281
     1
  3
A0
350
10D
  3
A1
350
188
  3
A2
350
189
  3
A3
350
18A
  3
A4
350
18B
  3
A5
350
18C
  3
A6
350
18D
  3
A7
350
18E
  3
A8
350
18F
  3
A9
350
190
  3
B0
350
191
  3
B1
350
192
  3
B2
350
193
  3
B3
350
194
  3
B4
350
195
  3
B5
350
196
  3
B6
350
197
  3
B7
350
198
  3
B8
350
199
  3
B9
350
19A
  3
C0
350
19B
  3
C1
350
19C
  3
C2
350
19D
  3
C3
350
19E
  3
C4
350
19F
  3
C5
350
1A0
  3
C6
350
1A1
  3
C7
350
1A2
  3
C8
350
1A3
  3
C9
350
1A4
  3
D0
350
1A5
  3
D1
350
1A6
  3
D2
350
1A7
  0
DICTIONARY
  5
7E
102
{ACAD_REACTORS
330
C
102
}
330
C
100
AcDbDictionary
281
     1
  3
Standard
350
7F
  0
DICTIONARY
  5
EF
102
{ACAD_REACTORS
330
C
102
}
330
C
100
AcDbDictionary
281
     1
  3
2dWireframe
350
F5
  3
3D Hidden
350
F7
  3
3dWireframe
350
F6
  3
Basic
350
F4
  3
Brighten
350
FB
  3
ColorChange
350
FF
  3
Conceptual
350
F8
  3
Dim
350
FA
  3
Facepattern
350
FE
  3
Flat
350
F0
  3
FlatWithEdges
350
F1
  3
Gouraud
350
F2
  3
GouraudWithEdges
350
F3
  3
Linepattern
350
FD
  3
Realistic
350
F9
  3
Thicken
350
FC
  0
XRECORD
  5
15D
102
{ACAD_REACTORS
330
C
102
}
330
C
100
AcDbXrecord
280
     1
 90
        1
330
7F
  0
DICTIONARY
  5
5E
102
{ACAD_REACTORS
330
C
102
}
330
C
100
AcDbDictionary
281
     1
  3
CANNOSCALE
350
146
  3
CMLEADERSTYLE
350
145
  3
CTABLESTYLE
350
84
  3
DIMASSOC
350
5F
  3
HIDETEXT
350
63
  3
INDEXCTL
350
4C4
  3
LIGHTINGUNITS
350
4C2
  3
MSLTSCALE
350
4C1
  3
PSOLHEIGHT
350
4C6
  3
PSOLWIDTH
350
4C5
  3
SORTENTS
350
4C3
  0
XRECORD
  5
4C8
102
{ACAD_REACTORS
330
C
102
}
330
C
100
AcDbXrecord
280
     1
  1
DWGPROPS COOKIE
  2

  3

  4

  6

  7

  8
orhan kara
  9

300
=
301
=
302
=
303
=
304
=
305
=
306
=
307
=
308
=
309
=
 40
0.0003577199074074
 41
2458570.559100776
 42
2459082.549999479
  1

 90
        0
  0
XRECORD
  5
4BB
102
{ACAD_REACTORS
330
13C
102
}
330
13C
100
AcDbXrecord
280
     1
290
     1
  0
LAYOUT
  5
D3
102
{ACAD_XDICTIONARY
360
4CC
102
}
102
{ACAD_REACTORS
330
1A
102
}
330
1A
100
AcDbPlotSettings
  1

  2
C:\Documents and Settings\basas\Application Data\Autodesk\AutoCAD 2005\R16.1\enu\plotters\Default Windows System Printer.pc3
  4

  6

 40
0.0
 41
0.0
 42
0.0
 43
0.0
 44
0.0
 45
0.0
 46
0.0
 47
0.0
 48
0.0
 49
0.0
140
0.0
141
0.0
142
1.0
143
1.0
 70
   688
 72
     0
 73
     0
 74
     5
  7

 75
    16
147
1.0
148
0.0
149
0.0
100
AcDbLayout
  1
Layout1
 70
     1
 71
     1
 10
0.0
 20
0.0
 11
12.0
 21
9.0
 12
0.0
 22
0.0
 32
0.0
 14
0.0
 24
0.0
 34
0.0
 15
0.0
 25
0.0
 35
0.0
146
0.0
 13
0.0
 23
0.0
 33
0.0
 16
1.0
 26
0.0
 36
0.0
 17
0.0
 27
1.0
 37
0.0
 76
     0
330
D2
  0
LAYOUT
  5
D7
102
{ACAD_XDICTIONARY
360
4CE
102
}
102
{ACAD_REACTORS
330
1A
102
}
330
1A
100
AcDbPlotSettings
  1

  2
C:\Documents and Settings\basas\Application Data\Autodesk\AutoCAD 2005\R16.1\enu\plotters\Default Windows System Printer.pc3
  4

  6

 40
0.0
 41
0.0
 42
0.0
 43
0.0
 44
0.0
 45
0.0
 46
0.0
 47
0.0
 48
0.0
 49
0.0
140
0.0
141
0.0
142
1.0
143
1.0
 70
   688
 72
     0
 73
     0
 74
     5
  7

 75
    16
147
1.0
148
0.0
149
0.0
100
AcDbLayout
  1
Layout2
 70
     1
 71
     2
 10
0.0
 20
0.0
 11
12.0
 21
9.0
 12
0.0
 22
0.0
 32
0.0
 14
0.0
 24
0.0
 34
0.0
 15
0.0
 25
0.0
 35
0.0
146
0.0
 13
0.0
 23
0.0
 33
0.0
 16
1.0
 26
0.0
 36
0.0
 17
0.0
 27
1.0
 37
0.0
 76
     0
330
D6
  0
LAYOUT
  5
22
102
{ACAD_XDICTIONARY
360
4C9
102
}
102
{ACAD_REACTORS
330
1A
102
}
330
1A
100
AcDbPlotSettings
  1

  2
none_device
  4
ISO_A4_(210.00_x_297.00_MM)
  6

 40
7.5
 41
20.0
 42
7.5
 43
20.0
 44
210.0
 45
297.0
 46
11.54999923706054
 47
-13.65000009536743
 48
0.0
 49
0.0
140
0.0
141
0.0
142
1.0
143
8.704084754739808
 70
 11952
 72
     1
 73
     0
 74
     0
  7

 75
     0
147
0.1148885871608098
148
0.0
149
0.0
100
AcDbLayout
  1
Model
 70
     1
 71
     0
 10
0.0
 20
0.0
 11
12.0
 21
9.0
 12
0.0
 22
0.0
 32
0.0
 14
0.0
 24
0.0
 34
0.0
 15
0.0
 25
0.0
 35
0.0
146
0.0
 13
0.0
 23
0.0
 33
0.0
 16
1.0
 26
0.0
 36
0.0
 17
0.0
 27
1.0
 37
0.0
 76
     0
330
1F
331
EA
1001
ACAD_PSEXT
1000
None
1000
None
1000
Not applicable
1000
The layout will not be plotted unless a new plotter configuration name is selected.
1070
     0
  0
MATERIAL
  5
ED
102
{ACAD_XDICTIONARY
360
4D2
102
}
102
{ACAD_REACTORS
330
6A
102
}
330
6A
100
AcDbMaterial
  1
ByBlock
  0
MATERIAL
  5
EC
102
{ACAD_XDICTIONARY
360
4D0
102
}
102
{ACAD_REACTORS
330
6A
102
}
330
6A
100
AcDbMaterial
  1
ByLayer
  0
MATERIAL
  5
EE
102
{ACAD_XDICTIONARY
360
173
102
}
102
{ACAD_REACTORS
330
6A
102
}
330
6A
100
AcDbMaterial
  1
Global
 43
0.0007999999797903
 43
0.0
 43
0.0
 43
0.0
 43
0.0
 43
0.0007999999797903
 43
0.0
 43
0.0
 43
0.0
 43
0.0
 43
1.0
 43
0.0
 43
0.0
 43
0.0
 43
0.0
 43
1.0
 49
0.0007999999797903
 49
0.0
 49
0.0
 49
0.0
 49
0.0
 49
0.0007999999797903
 49
0.0
 49
0.0
 49
0.0
 49
0.0
 49
1.0
 49
0.0
 49
0.0
 49
0.0
 49
0.0
 49
1.0
142
0.0007999999797903
142
0.0
142
0.0
142
0.0
142
0.0
142
0.0007999999797903
142
0.0
142
0.0
142
0.0
142
0.0
142
1.0
142
0.0
142
0.0
142
0.0
142
0.0
142
1.0
144
0.0007999999797903
144
0.0
144
0.0
144
0.0
144
0.0
144
0.0007999999797903
144
0.0
144
0.0
144
0.0
144
0.0
144
1.0
144
0.0
144
0.0
144
0.0
144
0.0
144
1.0
1001
ACAD
1070
    -1
1070
     3
1070
     0
1000

1071
        0
1070
     0
  0
MLEADERSTYLE
  5
13B
102
{ACAD_REACTORS
330
12D
102
}
330
12D
100
AcDbMLeaderStyle
170
     2
171
     1
172
     0
 90
        2
 40
0.0
 41
0.0
173
     1
 91
-1056964608
340
14
 92
       -2
290
     1
 42
2.0
291
     1
 43
8.0
  3
Standard
 44
4.0
300

342
11
174
     1
178
     1
175
     1
176
     0
 93
-1056964608
 45
4.0
292
     0
297
     0
 46
4.0
 94
-1056964608
 47
1.0
 49
1.0
140
1.0
293
     1
141
0.0
294
     1
177
     0
142
1.0
295
     0
296
     1
143
3.75
1001
ACAD_MLEADERVER
1070
     2
  0
MLEADERSTYLE
  5
12E
102
{ACAD_REACTORS
330
12D
102
}
330
12D
100
AcDbMLeaderStyle
170
     2
171
     1
172
     0
 90
        2
 40
0.0
 41
0.0
173
     1
 91
-1056964608
340
14
 92
       -2
290
     1
 42
2.0
291
     1
 43
8.0
  3
Standard
 44
4.0
300

342
11
174
     1
178
     1
175
     1
176
     0
 93
-1056964608
 45
4.0
292
     0
297
     0
 46
4.0
 94
-1056964608
 47
1.0
 49
1.0
140
1.0
293
     1
141
0.0
294
     1
177
     0
142
1.0
295
     0
296
     0
143
3.75
1001
ACAD_MLEADERVER
1070
     2
  0
MLINESTYLE
  5
18
102
{ACAD_REACTORS
330
17
102
}
330
17
100
AcDbMlineStyle
  2
STANDARD
 70
     0
  3

 62
   256
 51
90.0
 52
90.0
 71
     2
 49
0.5
 62
   256
  6
BYLAYER
 49
-0.5
 62
   256
  6
BYLAYER
  0
ACDBPLACEHOLDER
  5
F
102
{ACAD_REACTORS
330
E
102
}
330
E
  0
SCALE
  5
10D
102
{ACAD_REACTORS
330
10C
102
}
330
10C
100
AcDbScale
 70
     0
300
1:1
140
1.0
141
1.0
290
     1
  0
SCALE
  5
188
102
{ACAD_REACTORS
330
10C
102
}
330
10C
100
AcDbScale
 70
     0
300
1:2
140
1.0
141
2.0
290
     0
  0
SCALE
  5
189
102
{ACAD_REACTORS
330
10C
102
}
330
10C
100
AcDbScale
 70
     0
300
1:4
140
1.0
141
4.0
290
     0
  0
SCALE
  5
18A
102
{ACAD_REACTORS
330
10C
102
}
330
10C
100
AcDbScale
 70
     0
300
1:5
140
1.0
141
5.0
290
     0
  0
SCALE
  5
18B
102
{ACAD_REACTORS
330
10C
102
}
330
10C
100
AcDbScale
 70
     0
300
1:8
140
1.0
141
8.0
290
     0
  0
SCALE
  5
18C
102
{ACAD_REACTORS
330
10C
102
}
330
10C
100
AcDbScale
 70
     0
300
1:10
140
1.0
141
10.0
290
     0
  0
SCALE
  5
18D
102
{ACAD_REACTORS
330
10C
102
}
330
10C
100
AcDbScale
 70
     0
300
1:16
140
1.0
141
16.0
290
     0
  0
SCALE
  5
18E
102
{ACAD_REACTORS
330
10C
102
}
330
10C
100
AcDbScale
 70
     0
300
1:20
140
1.0
141
20.0
290
     0
  0
SCALE
  5
18F
102
{ACAD_REACTORS
330
10C
102
}
330
10C
100
AcDbScale
 70
     0
300
1:30
140
1.0
141
30.0
290
     0
  0
SCALE
  5
190
102
{ACAD_REACTORS
330
10C
102
}
330
10C
100
AcDbScale
 70
     0
300
1:40
140
1.0
141
40.0
290
     0
  0
SCALE
  5
191
102
{ACAD_REACTORS
330
10C
102
}
330
10C
100
AcDbScale
 70
     0
300
1:50
140
1.0
141
50.0
290
     0
  0
SCALE
  5
192
102
{ACAD_REACTORS
330
10C
102
}
330
10C
100
AcDbScale
 70
     0
300
1:100
140
1.0
141
100.0
290
     0
  0
SCALE
  5
193
102
{ACAD_REACTORS
330
10C
102
}
330
10C
100
AcDbScale
 70
     0
300
2:1
140
2.0
141
1.0
290
     0
  0
SCALE
  5
194
102
{ACAD_REACTORS
330
10C
102
}
330
10C
100
AcDbScale
 70
     0
300
4:1
140
4.0
141
1.0
290
     0
  0
SCALE
  5
195
102
{ACAD_REACTORS
330
10C
102
}
330
10C
100
AcDbScale
 70
     0
300
8:1
140
8.0
141
1.0
290
     0
  0
SCALE
  5
196
102
{ACAD_REACTORS
330
10C
102
}
330
10C
100
AcDbScale
 70
     0
300
10:1
140
10.0
141
1.0
290
     0
  0
SCALE
  5
197
102
{ACAD_REACTORS
330
10C
102
}
330
10C
100
AcDbScale
 70
     0
300
100:1
140
100.0
141
1.0
290
     0
  0
SCALE
  5
198
102
{ACAD_REACTORS
330
10C
102
}
330
10C
100
AcDbScale
 70
     0
300
1/128" = 1'-0"
140
0.0078125
141
12.0
290
     0
  0
SCALE
  5
199
102
{ACAD_REACTORS
330
10C
102
}
330
10C
100
AcDbScale
 70
     0
300
1/64" = 1'-0"
140
0.015625
141
12.0
290
     0
  0
SCALE
  5
19A
102
{ACAD_REACTORS
330
10C
102
}
330
10C
100
AcDbScale
 70
     0
300
1/32" = 1'-0"
140
0.03125
141
12.0
290
     0
  0
SCALE
  5
19B
102
{ACAD_REACTORS
330
10C
102
}
330
10C
100
AcDbScale
 70
     0
300
1/16" = 1'-0"
140
0.0625
141
12.0
290
     0
  0
SCALE
  5
19C
102
{ACAD_REACTORS
330
10C
102
}
330
10C
100
AcDbScale
 70
     0
300
3/32" = 1'-0"
140
0.09375
141
12.0
290
     0
  0
SCALE
  5
19D
102
{ACAD_REACTORS
330
10C
102
}
330
10C
100
AcDbScale
 70
     0
300
1/8" = 1'-0"
140
0.125
141
12.0
290
     0
  0
SCALE
  5
19E
102
{ACAD_REACTORS
330
10C
102
}
330
10C
100
AcDbScale
 70
     0
300
3/16" = 1'-0"
140
0.1875
141
12.0
290
     0
  0
SCALE
  5
19F
102
{ACAD_REACTORS
330
10C
102
}
330
10C
100
AcDbScale
 70
     0
300
1/4" = 1'-0"
140
0.25
141
12.0
290
     0
  0
SCALE
  5
1A0
102
{ACAD_REACTORS
330
10C
102
}
330
10C
100
AcDbScale
 70
     0
300
3/8" = 1'-0"
140
0.375
141
12.0
290
     0
  0
SCALE
  5
1A1
102
{ACAD_REACTORS
330
10C
102
}
330
10C
100
AcDbScale
 70
     0
300
1/2" = 1'-0"
140
0.5
141
12.0
290
     0
  0
SCALE
  5
1A2
102
{ACAD_REACTORS
330
10C
102
}
330
10C
100
AcDbScale
 70
     0
300
3/4" = 1'-0"
140
0.75
141
12.0
290
     0
  0
SCALE
  5
1A3
102
{ACAD_REACTORS
330
10C
102
}
330
10C
100
AcDbScale
 70
     0
300
1" = 1'-0"
140
1.0
141
12.0
290
     0
  0
SCALE
  5
1A4
102
{ACAD_REACTORS
330
10C
102
}
330
10C
100
AcDbScale
 70
     0
300
1-1/2" = 1'-0"
140
1.5
141
12.0
290
     0
  0
SCALE
  5
1A5
102
{ACAD_REACTORS
330
10C
102
}
330
10C
100
AcDbScale
 70
     0
300
3" = 1'-0"
140
3.0
141
12.0
290
     0
  0
SCALE
  5
1A6
102
{ACAD_REACTORS
330
10C
102
}
330
10C
100
AcDbScale
 70
     0
300
6" = 1'-0"
140
6.0
141
12.0
290
     0
  0
SCALE
  5
1A7
102
{ACAD_REACTORS
330
10C
102
}
330
10C
100
AcDbScale
 70
     0
300
1'-0" = 1'-0"
140
12.0
141
12.0
290
     0
  0
TABLESTYLE
  5
7F
102
{ACAD_XDICTIONARY
360
162
102
}
102
{ACAD_REACTORS
330
7E
102
}
330
7E
100
AcDbTableStyle
  3
Standard
 70
     0
 71
     0
 40
1.5
 41
1.5
280
     0
281
     0
  7
Standard
140
4.5
170
     2
 62
     0
 63
     7
283
     0
274
    -2
284
     1
 64
     0
275
    -2
285
     1
 65
     0
276
    -2
286
     1
 66
     0
277
    -2
287
     1
 67
     0
278
    -2
288
     1
 68
     0
279
    -2
289
     1
 69
     0
  7
Standard
140
6.0
170
     5
 62
     0
 63
     7
283
     0
274
    -2
284
     1
 64
     0
275
    -2
285
     1
 65
     0
276
    -2
286
     1
 66
     0
277
    -2
287
     1
 67
     0
278
    -2
288
     1
 68
     0
279
    -2
289
     1
 69
     0
  7
Standard
140
4.5
170
     5
 62
     0
 63
     7
283
     0
274
    -2
284
     1
 64
     0
275
    -2
285
     1
 65
     0
276
    -2
286
     1
 66
     0
277
    -2
287
     1
 67
     0
278
    -2
288
     1
 68
     0
279
    -2
289
     1
 69
     0
  0
VISUALSTYLE
  5
F5
102
{ACAD_REACTORS
330
EF
102
}
330
EF
100
AcDbVisualStyle
  2
2dWireframe
 70
     4
 71
     0
 72
     2
 73
     1
 90
        0
 40
-0.6
 41
-30.0
 62
     5
 63
     7
 74
     1
 91
        4
 64
     7
 65
   257
 75
     1
175
     1
 42
1.0
 92
        0
 66
   257
 43
1.0
 76
     1
 77
     6
 78
     2
 67
     7
 79
     5
170
     0
171
     0
290
     0
174
     0
 93
        1
 44
0.0
173
     0
291
     0
 45
0.0
1001
ACAD
1000
AcDbSavedByObjectVersion
1070
     0
  0
VISUALSTYLE
  5
F7
102
{ACAD_REACTORS
330
EF
102
}
330
EF
100
AcDbVisualStyle
  2
3D Hidden
 70
     6
 71
     1
 72
     2
 73
     2
 90
        0
 40
-0.6
 41
-30.0
 62
     5
 63
     7
 74
     2
 91
        2
 64
     7
 65
   257
 75
     2
175
     1
 42
40.0
 92
        0
 66
   257
 43
1.0
 76
     1
 77
     6
 78
     2
 67
     7
 79
     3
170
     0
171
     0
290
     0
174
     0
 93
        1
 44
0.0
173
     0
291
     0
 45
0.0
1001
ACAD
1000
AcDbSavedByObjectVersion
1070
     0
  0
VISUALSTYLE
  5
F6
102
{ACAD_REACTORS
330
EF
102
}
330
EF
100
AcDbVisualStyle
  2
3dWireframe
 70
     5
 71
     0
 72
     2
 73
     1
 90
        0
 40
-0.6
 41
-30.0
 62
     5
 63
     7
 74
     1
 91
        4
 64
     7
 65
   257
 75
     1
175
     1
 42
1.0
 92
        0
 66
   257
 43
1.0
 76
     1
 77
     6
 78
     2
 67
     7
 79
     5
170
     0
171
     0
290
     0
174
     0
 93
        1
 44
0.0
173
     0
291
     0
 45
0.0
1001
ACAD
1000
AcDbSavedByObjectVersion
1070
     0
  0
VISUALSTYLE
  5
F4
102
{ACAD_REACTORS
330
EF
102
}
330
EF
100
AcDbVisualStyle
  2
Basic
 70
     7
 71
     1
 72
     0
 73
     1
 90
        0
 40
-0.6
 41
-30.0
 62
     5
 63
     7
 74
     0
 91
        4
 64
     7
 65
   257
 75
     1
175
     1
 42
1.0
 92
        8
 66
     7
 43
1.0
 76
     1
 77
     6
 78
     2
 67
     7
 79
     5
170
     0
171
     0
290
     0
174
     0
 93
        1
 44
0.0
173
     0
291
     1
 45
0.0
1001
ACAD
1000
AcDbSavedByObjectVersion
1070
     0
  0
VISUALSTYLE
  5
FB
102
{ACAD_REACTORS
330
EF
102
}
330
EF
100
AcDbVisualStyle
  2
Brighten
 70
    12
 71
     2
 72
     2
 73
     1
 90
        0
 40
-0.6
 41
-30.0
 62
     5
 63
     7
 74
     1
 91
        4
 64
     7
 65
   257
 75
     1
175
     1
 42
1.0
 92
        8
 66
     7
 43
1.0
 76
     1
 77
     6
 78
     2
 67
     7
 79
     5
170
     0
171
     0
290
     0
174
     0
 93
        1
 44
50.0
173
     0
291
     1
 45
0.0
1001
ACAD
1000
AcDbSavedByObjectVersion
1070
     0
  0
VISUALSTYLE
  5
FF
102
{ACAD_REACTORS
330
EF
102
}
330
EF
100
AcDbVisualStyle
  2
ColorChange
 70
    16
 71
     2
 72
     2
 73
     3
 90
        0
 40
-0.6
 41
-30.0
 62
     5
 63
     8
 74
     1
 91
        4
 64
     7
 65
   257
 75
     1
175
     1
 42
1.0
 92
        8
 66
     8
 43
1.0
 76
     1
 77
     6
 78
     2
 67
     7
 79
     5
170
     0
171
     0
290
     0
174
     0
 93
        1
 44
0.0
173
     0
291
     1
 45
0.0
1001
ACAD
1000
AcDbSavedByObjectVersion
1070
     0
  0
VISUALSTYLE
  5
F8
102
{ACAD_REACTORS
330
EF
102
}
330
EF
100
AcDbVisualStyle
  2
Conceptual
 70
     9
 71
     3
 72
     2
 73
     1
 90
        0
 40
-0.6
 41
-30.0
 62
     5
 63
     7
 74
     2
 91
        2
 64
     7
 65
   257
 75
     1
175
     1
 42
40.0
 92
        8
 66
     7
 43
1.0
 76
     1
 77
     6
 78
     2
 67
     7
 79
     3
170
     0
171
     0
290
     0
174
     0
 93
        1
 44
0.0
173
     0
291
     0
 45
0.0
1001
ACAD
1000
AcDbSavedByObjectVersion
1070
     0
  0
VISUALSTYLE
  5
FA
102
{ACAD_REACTORS
330
EF
102
}
330
EF
100
AcDbVisualStyle
  2
Dim
 70
    11
 71
     2
 72
     2
 73
     1
 90
        0
 40
-0.6
 41
-30.0
 62
     5
 63
     7
 74
     1
 91
        4
 64
     7
 65
   257
 75
     1
175
     1
 42
1.0
 92
        8
 66
     7
 43
1.0
 76
     1
 77
     6
 78
     2
 67
     7
 79
     5
170
     0
171
     0
290
     0
174
     0
 93
        1
 44
-50.0
173
     0
291
     1
 45
0.0
1001
ACAD
1000
AcDbSavedByObjectVersion
1070
     0
  0
VISUALSTYLE
  5
FE
102
{ACAD_REACTORS
330
EF
102
}
330
EF
100
AcDbVisualStyle
  2
Facepattern
 70
    15
 71
     2
 72
     2
 73
     1
 90
        0
 40
-0.6
 41
-30.0
 62
     5
 63
     7
 74
     1
 91
        4
 64
     7
 65
   257
 75
     1
175
     1
 42
1.0
 92
        8
 66
     7
 43
1.0
 76
     1
 77
     6
 78
     2
 67
     7
 79
     5
170
     0
171
     0
290
     0
174
     0
 93
        1
 44
0.0
173
     0
291
     1
 45
0.0
1001
ACAD
1000
AcDbSavedByObjectVersion
1070
     0
  0
VISUALSTYLE
  5
F0
102
{ACAD_REACTORS
330
EF
102
}
330
EF
100
AcDbVisualStyle
  2
Flat
 70
     0
 71
     2
 72
     1
 73
     1
 90
        2
 40
-0.6
 41
30.0
 62
     5
 63
     7
 74
     0
 91
        4
 64
     7
 65
   257
 75
     1
175
     1
 42
1.0
 92
        8
 66
     7
 43
1.0
 76
     1
 77
     6
 78
     2
 67
     7
 79
     5
170
     0
171
     0
290
     0
174
     0
 93
        1
 44
0.0
173
     0
291
     1
 45
0.0
1001
ACAD
1000
AcDbSavedByObjectVersion
1070
     0
  0
VISUALSTYLE
  5
F1
102
{ACAD_REACTORS
330
EF
102
}
330
EF
100
AcDbVisualStyle
  2
FlatWithEdges
 70
     1
 71
     2
 72
     1
 73
     1
 90
        2
 40
-0.6
 41
30.0
 62
     5
 63
     7
 74
     1
 91
        4
 64
     7
 65
   257
 75
     1
175
     1
 42
1.0
 92
        0
 66
   257
 43
1.0
 76
     1
 77
     6
 78
     2
 67
     7
 79
     5
170
     0
171
     0
290
     0
174
     0
 93
        1
 44
0.0
173
     0
291
     1
 45
0.0
1001
ACAD
1000
AcDbSavedByObjectVersion
1070
     0
  0
VISUALSTYLE
  5
F2
102
{ACAD_REACTORS
330
EF
102
}
330
EF
100
AcDbVisualStyle
  2
Gouraud
 70
     2
 71
     2
 72
     2
 73
     1
 90
        2
 40
-0.6
 41
30.0
 62
     5
 63
     7
 74
     0
 91
        4
 64
     7
 65
   257
 75
     1
175
     1
 42
1.0
 92
        0
 66
     7
 43
1.0
 76
     1
 77
     6
 78
     2
 67
     7
 79
     5
170
     0
171
     0
290
     0
174
     0
 93
        1
 44
0.0
173
     0
291
     1
 45
0.0
1001
ACAD
1000
AcDbSavedByObjectVersion
1070
     0
  0
VISUALSTYLE
  5
F3
102
{ACAD_REACTORS
330
EF
102
}
330
EF
100
AcDbVisualStyle
  2
GouraudWithEdges
 70
     3
 71
     2
 72
     2
 73
     1
 90
        2
 40
-0.6
 41
30.0
 62
     5
 63
     7
 74
     1
 91
        4
 64
     7
 65
   257
 75
     1
175
     1
 42
1.0
 92
        0
 66
   257
 43
1.0
 76
     1
 77
     6
 78
     2
 67
     7
 79
     5
170
     0
171
     0
290
     0
174
     0
 93
        1
 44
0.0
173
     0
291
     1
 45
0.0
1001
ACAD
1000
AcDbSavedByObjectVersion
1070
     0
  0
VISUALSTYLE
  5
FD
102
{ACAD_REACTORS
330
EF
102
}
330
EF
100
AcDbVisualStyle
  2
Linepattern
 70
    14
 71
     2
 72
     2
 73
     1
 90
        0
 40
-0.6
 41
-30.0
 62
     5
 63
     7
 74
     1
 91
        4
 64
     7
 65
   257
 75
     7
175
     7
 42
1.0
 92
        8
 66
     7
 43
1.0
 76
     1
 77
     6
 78
     2
 67
     7
 79
     5
170
     0
171
     0
290
     0
174
     0
 93
        1
 44
0.0
173
     0
291
     1
 45
0.0
1001
ACAD
1000
AcDbSavedByObjectVersion
1070
     0
  0
VISUALSTYLE
  5
F9
102
{ACAD_REACTORS
330
EF
102
}
330
EF
100
AcDbVisualStyle
  2
Realistic
 70
     8
 71
     2
 72
     2
 73
     1
 90
        0
 40
-0.6
 41
-30.0
 62
     5
 63
     7
 74
     1
 91
        0
 64
     7
 65
   257
 75
     1
175
     1
 42
1.0
 92
        8
 66
     8
 43
1.0
 76
     1
 77
     6
 78
     2
 67
     7
 79
     5
170
     0
171
     0
290
     0
174
     0
 93
       13
 44
0.0
173
     0
291
     0
 45
0.0
1001
ACAD
1000
AcDbSavedByObjectVersion
1070
     0
  0
VISUALSTYLE
  5
FC
102
{ACAD_REACTORS
330
EF
102
}
330
EF
100
AcDbVisualStyle
  2
Thicken
 70
    13
 71
     2
 72
     2
 73
     1
 90
        0
 40
-0.6
 41
-30.0
 62
     5
 63
     7
 74
     1
 91
        4
 64
     7
 65
   257
 75
     1
175
     1
 42
1.0
 92
       12
 66
     7
 43
1.0
 76
     1
 77
     6
 78
     2
 67
     7
 79
     5
170
     0
171
     0
290
     0
174
     0
 93
        1
 44
0.0
173
     0
291
     1
 45
0.0
1001
ACAD
1000
AcDbSavedByObjectVersion
1070
     0
  0
DICTIONARYVAR
  5
146
102
{ACAD_REACTORS
330
5E
102
}
330
5E
100
DictionaryVariables
280
     0
  1
1:1
  0
DICTIONARYVAR
  5
145
102
{ACAD_REACTORS
330
5E
102
}
330
5E
100
DictionaryVariables
280
     0
  1
STANDARD
  0
DICTIONARYVAR
  5
84
102
{ACAD_REACTORS
330
5E
102
}
330
5E
100
DictionaryVariables
280
     0
  1
STANDARD
  0
DICTIONARYVAR
  5
5F
102
{ACAD_REACTORS
330
5E
102
}
330
5E
100
DictionaryVariables
280
     0
  1
2
  0
DICTIONARYVAR
  5
63
102
{ACAD_REACTORS
330
5E
102
}
330
5E
100
DictionaryVariables
280
     0
  1
1
  0
DICTIONARYVAR
  5
4C4
102
{ACAD_REACTORS
330
5E
102
}
330
5E
100
DictionaryVariables
280
     0
  1
0
  0
DICTIONARYVAR
  5
4C2
102
{ACAD_REACTORS
330
5E
102
}
330
5E
100
DictionaryVariables
280
     0
  1
2
  0
DICTIONARYVAR
  5
4C1
102
{ACAD_REACTORS
330
5E
102
}
330
5E
100
DictionaryVariables
280
     0
  1
1
  0
DICTIONARYVAR
  5
4C6
102
{ACAD_REACTORS
330
5E
102
}
330
5E
100
DictionaryVariables
280
     0
  1
80.000000
  0
DICTIONARYVAR
  5
4C5
102
{ACAD_REACTORS
330
5E
102
}
330
5E
100
DictionaryVariables
280
     0
  1
5.000000
  0
DICTIONARYVAR
  5
4C3
102
{ACAD_REACTORS
330
5E
102
}
330
5E
100
DictionaryVariables
280
     0
  1
127
  0
DICTIONARY
  5
4CC
330
D3
100
AcDbDictionary
280
     1
281
     1
  3
ACAD_XREC_ROUNDTRIP
360
4CD
  0
DICTIONARY
  5
4CE
330
D7
100
AcDbDictionary
280
     1
281
     1
  3
ACAD_XREC_ROUNDTRIP
360
4CF
  0
DICTIONARY
  5
4C9
330
22
100
AcDbDictionary
280
     1
281
     1
  3
ACAD_XREC_ROUNDTRIP
360
4CA
  0
DICTIONARY
  5
4D2
330
ED
100
AcDbDictionary
280
     1
281
     1
  3
ACAD_XREC_ROUNDTRIP
360
4D3
  0
DICTIONARY
  5
4D0
330
EC
100
AcDbDictionary
280
     1
281
     1
  3
ACAD_XREC_ROUNDTRIP
360
4D1
  0
DICTIONARY
  5
173
330
EE
100
AcDbDictionary
280
     1
281
     1
  3
ACAD_XREC_ROUNDTRIP
360
4D4
  3
BUMPTILE
360
175
  3
DIFFUSETILE
360
174
  3
OPACITYTILE
360
176
  3
REFLECTIONTILE
360
177
  0
DICTIONARY
  5
162
330
7F
100
AcDbDictionary
280
     1
281
     1
  3
ACAD_ROUNDTRIP_2008_TABLESTYLE_CELLSTYLEMAP
360
4C7
  3
ACAD_XREC_ROUNDTRIP
360
4CB
  0
XRECORD
  5
4CD
102
{ACAD_REACTORS
330
4CC
102
}
330
4CC
100
AcDbXrecord
280
     1
102
SHADEPLOT
 70
     0
102
SHADEPLOTRESLEVEL
 70
     2
102
SHADEPLOTCUSTOMDPI
 70
   300
  0
XRECORD
  5
4CF
102
{ACAD_REACTORS
330
4CE
102
}
330
4CE
100
AcDbXrecord
280
     1
102
SHADEPLOT
 70
     0
102
SHADEPLOTRESLEVEL
 70
     2
102
SHADEPLOTCUSTOMDPI
 70
   300
  0
XRECORD
  5
4CA
102
{ACAD_REACTORS
330
4C9
102
}
330
4C9
100
AcDbXrecord
280
     1
102
SHADEPLOT
 70
     0
102
SHADEPLOTRESLEVEL
 70
     2
102
SHADEPLOTCUSTOMDPI
 70
   300
  0
XRECORD
  5
4D3
102
{ACAD_REACTORS
330
4D2
102
}
330
4D2
100
AcDbXrecord
280
     1
102
MATERIAL
148
0.0
149
0.0
149
0.0
 93
        0
 94
       63
282
     0
 72
     1
 77
     1
171
     1
175
     1
179
     1
273
     0
  0
XRECORD
  5
4D1
102
{ACAD_REACTORS
330
4D0
102
}
330
4D0
100
AcDbXrecord
280
     1
102
MATERIAL
148
0.0
149
0.0
149
0.0
 93
        0
 94
       63
282
     0
 72
     1
 77
     1
171
     1
175
     1
179
     1
273
     0
  0
XRECORD
  5
4D4
102
{ACAD_REACTORS
330
173
102
}
330
173
100
AcDbXrecord
280
     1
102
MATERIAL
148
0.0
149
0.0
149
0.0
 93
        0
 94
       63
282
     0
 72
     1
 77
     1
171
     1
175
     1
179
     1
273
     0
  0
XRECORD
  5
175
102
{ACAD_REACTORS
330
173
102
}
330
173
100
AcDbXrecord
280
     1
270
     1
271
     1
  0
XRECORD
  5
174
102
{ACAD_REACTORS
330
173
102
}
330
173
100
AcDbXrecord
280
     1
270
     1
271
     1
  0
XRECORD
  5
176
102
{ACAD_REACTORS
330
173
102
}
330
173
100
AcDbXrecord
280
     1
270
     1
271
     1
  0
XRECORD
  5
177
102
{ACAD_REACTORS
330
173
102
}
330
173
100
AcDbXrecord
280
     1
270
     1
271
     1
  0
CELLSTYLEMAP
  5
4C7
102
{ACAD_REACTORS
330
162
102
}
330
162
100
AcDbCellStyleMap
 90
        3
300
CELLSTYLE
  1
TABLEFORMAT_BEGIN
 90
        5
170
     1
 91
        0
 92
    32768
 62
   257
 93
        1
300
CONTENTFORMAT
  1
CONTENTFORMAT_BEGIN
 90
        0
 91
        0
 92
      512
 93
        0
300

 40
0.0
140
1.0
 94
        5
 62
     0
340
11
144
6.0
309
CONTENTFORMAT_END
171
     1
301
MARGIN
  1
CELLMARGIN_BEGIN
 40
1.5
 40
1.5
 40
1.5
 40
1.5
 40
4.5
 40
4.5
309
CELLMARGIN_END
 94
        6
 95
        1
302
GRIDFORMAT
  1
GRIDFORMAT_BEGIN
 90
        0
 91
        1
 62
     0
 92
       -2
340
14
 93
        0
 40
1.125
309
GRIDFORMAT_END
 95
        2
302
GRIDFORMAT
  1
GRIDFORMAT_BEGIN
 90
        0
 91
        1
 62
     0
 92
       -2
340
14
 93
        0
 40
1.125
309
GRIDFORMAT_END
 95
        4
302
GRIDFORMAT
  1
GRIDFORMAT_BEGIN
 90
        0
 91
        1
 62
     0
 92
       -2
340
14
 93
        0
 40
1.125
309
GRIDFORMAT_END
 95
        8
302
GRIDFORMAT
  1
GRIDFORMAT_BEGIN
 90
        0
 91
        1
 62
     0
 92
       -2
340
14
 93
        0
 40
1.125
309
GRIDFORMAT_END
 95
       16
302
GRIDFORMAT
  1
GRIDFORMAT_BEGIN
 90
        0
 91
        1
 62
     0
 92
       -2
340
14
 93
        0
 40
1.125
309
GRIDFORMAT_END
 95
       32
302
GRIDFORMAT
  1
GRIDFORMAT_BEGIN
 90
        0
 91
        1
 62
     0
 92
       -2
340
14
 93
        0
 40
1.125
309
GRIDFORMAT_END
309
TABLEFORMAT_END
  1
CELLSTYLE_BEGIN
 90
        1
 91
        1
300
_TITLE
309
CELLSTYLE_END
300
CELLSTYLE
  1
TABLEFORMAT_BEGIN
 90
        5
170
     1
 91
        0
 92
        0
 62
   257
 93
        1
300
CONTENTFORMAT
  1
CONTENTFORMAT_BEGIN
 90
        0
 91
        0
 92
      512
 93
        0
300

 40
0.0
140
1.0
 94
        5
 62
     0
340
11
144
4.5
309
CONTENTFORMAT_END
171
     1
301
MARGIN
  1
CELLMARGIN_BEGIN
 40
1.5
 40
1.5
 40
1.5
 40
1.5
 40
4.5
 40
4.5
309
CELLMARGIN_END
 94
        6
 95
        1
302
GRIDFORMAT
  1
GRIDFORMAT_BEGIN
 90
        0
 91
        1
 62
     0
 92
       -2
340
14
 93
        0
 40
1.125
309
GRIDFORMAT_END
 95
        2
302
GRIDFORMAT
  1
GRIDFORMAT_BEGIN
 90
        0
 91
        1
 62
     0
 92
       -2
340
14
 93
        0
 40
1.125
309
GRIDFORMAT_END
 95
        4
302
GRIDFORMAT
  1
GRIDFORMAT_BEGIN
 90
        0
 91
        1
 62
     0
 92
       -2
340
14
 93
        0
 40
1.125
309
GRIDFORMAT_END
 95
        8
302
GRIDFORMAT
  1
GRIDFORMAT_BEGIN
 90
        0
 91
        1
 62
     0
 92
       -2
340
14
 93
        0
 40
1.125
309
GRIDFORMAT_END
 95
       16
302
GRIDFORMAT
  1
GRIDFORMAT_BEGIN
 90
        0
 91
        1
 62
     0
 92
       -2
340
14
 93
        0
 40
1.125
309
GRIDFORMAT_END
 95
       32
302
GRIDFORMAT
  1
GRIDFORMAT_BEGIN
 90
        0
 91
        1
 62
     0
 92
       -2
340
14
 93
        0
 40
1.125
309
GRIDFORMAT_END
309
TABLEFORMAT_END
  1
CELLSTYLE_BEGIN
 90
        2
 91
        1
300
_HEADER
309
CELLSTYLE_END
300
CELLSTYLE
  1
TABLEFORMAT_BEGIN
 90
        5
170
     1
 91
        0
 92
        0
 62
   257
 93
        1
300
CONTENTFORMAT
  1
CONTENTFORMAT_BEGIN
 90
        0
 91
        0
 92
      512
 93
        0
300

 40
0.0
140
1.0
 94
        2
 62
     0
340
11
144
4.5
309
CONTENTFORMAT_END
171
     1
301
MARGIN
  1
CELLMARGIN_BEGIN
 40
1.5
 40
1.5
 40
1.5
 40
1.5
 40
4.5
 40
4.5
309
CELLMARGIN_END
 94
        6
 95
        1
302
GRIDFORMAT
  1
GRIDFORMAT_BEGIN
 90
        0
 91
        1
 62
     0
 92
       -2
340
14
 93
        0
 40
1.125
309
GRIDFORMAT_END
 95
        2
302
GRIDFORMAT
  1
GRIDFORMAT_BEGIN
 90
        0
 91
        1
 62
     0
 92
       -2
340
14
 93
        0
 40
1.125
309
GRIDFORMAT_END
 95
        4
302
GRIDFORMAT
  1
GRIDFORMAT_BEGIN
 90
        0
 91
        1
 62
     0
 92
       -2
340
14
 93
        0
 40
1.125
309
GRIDFORMAT_END
 95
        8
302
GRIDFORMAT
  1
GRIDFORMAT_BEGIN
 90
        0
 91
        1
 62
     0
 92
       -2
340
14
 93
        0
 40
1.125
309
GRIDFORMAT_END
 95
       16
302
GRIDFORMAT
  1
GRIDFORMAT_BEGIN
 90
        0
 91
        1
 62
     0
 92
       -2
340
14
 93
        0
 40
1.125
309
GRIDFORMAT_END
 95
       32
302
GRIDFORMAT
  1
GRIDFORMAT_BEGIN
 90
        0
 91
        1
 62
     0
 92
       -2
340
14
 93
        0
 40
1.125
309
GRIDFORMAT_END
309
TABLEFORMAT_END
  1
CELLSTYLE_BEGIN
 90
        3
 91
        2
300
_DATA
309
CELLSTYLE_END
  0
XRECORD
  5
4CB
102
{ACAD_REACTORS
330
162
102
}
330
162
100
AcDbXrecord
280
     1
102
ACAD_ROUNDTRIP_PRE2007_TABLESTYLE
 90
      512
 91
        0
  1

 92
      512
 93
        0
  2

 94
      512
 95
        0
  3

  0
ENDSEC
  0
EOF
