  0
SECTION
  2
HEADER
  9
$ACADVER
  1
AC1015
  9
$ACADMAINTVER
 70
    20
  9
$DWGCODEPAGE
  3
ANSI_1254
  9
$INSBASE
 10
0.0
 20
0.0
 30
0.0
  9
$EXTMIN
 10
2010.911243486957
 20
1264.697711465357
 30
0.0
  9
$EXTMAX
 10
2114.893261143702
 20
1319.526066103023
 30
0.0
  9
$LIMMIN
 10
0.0
 20
0.0
  9
$LIMMAX
 10
420.0
 20
297.0
  9
$ORTHOMODE
 70
     1
  9
$REGENMODE
 70
     1
  9
$FILLMODE
 70
     1
  9
$QTEXTMODE
 70
     0
  9
$MIRRTEXT
 70
     0
  9
$LTSCALE
 40
1.0
  9
$ATTMODE
 70
     1
  9
$TEXTSIZE
 40
2.5
  9
$TRACEWID
 40
1.0
  9
$TEXTSTYLE
  7
Standard
  9
$CLAYER
  8
0
  9
$CELTYPE
  6
ByLayer
  9
$CECOLOR
 62
   256
  9
$CELTSCALE
 40
1.0
  9
$DISPSILH
 70
     0
  9
$DIMSCALE
 40
1.0
  9
$DIMASZ
 40
2.5
  9
$DIMEXO
 40
0.625
  9
$DIMDLI
 40
3.75
  9
$DIMRND
 40
0.0
  9
$DIMDLE
 40
0.0
  9
$DIMEXE
 40
1.25
  9
$DIMTP
 40
0.0
  9
$DIMTM
 40
0.0
  9
$DIMTXT
 40
2.5
  9
$DIMCEN
 40
2.5
  9
$DIMTSZ
 40
0.0
  9
$DIMTOL
 70
     0
  9
$DIMLIM
 70
     0
  9
$DIMTIH
 70
     0
  9
$DIMTOH
 70
     0
  9
$DIMSE1
 70
     0
  9
$DIMSE2
 70
     0
  9
$DIMTAD
 70
     1
  9
$DIMZIN
 70
     8
  9
$DIMBLK
  1

  9
$DIMASO
 70
     1
  9
$DIMSHO
 70
     1
  9
$DIMPOST
  1

  9
$DIMAPOST
  1

  9
$DIMALT
 70
     0
  9
$DIMALTD
 70
     3
  9
$DIMALTF
 40
0.03937007874016
  9
$DIMLFAC
 40
1.0
  9
$DIMTOFL
 70
     1
  9
$DIMTVP
 40
0.0
  9
$DIMTIX
 70
     0
  9
$DIMSOXD
 70
     0
  9
$DIMSAH
 70
     0
  9
$DIMBLK1
  1

  9
$DIMBLK2
  1

  9
$DIMSTYLE
  2
ISO-25
  9
$DIMCLRD
 70
     0
  9
$DIMCLRE
 70
     0
  9
$DIMCLRT
 70
     0
  9
$DIMTFAC
 40
1.0
  9
$DIMGAP
 40
0.625
  9
$DIMJUST
 70
     0
  9
$DIMSD1
 70
     0
  9
$DIMSD2
 70
     0
  9
$DIMTOLJ
 70
     0
  9
$DIMTZIN
 70
     8
  9
$DIMALTZ
 70
     0
  9
$DIMALTTZ
 70
     0
  9
$DIMUPT
 70
     0
  9
$DIMDEC
 70
     2
  9
$DIMTDEC
 70
     2
  9
$DIMALTU
 70
     2
  9
$DIMALTTD
 70
     3
  9
$DIMTXSTY
  7
Standard
  9
$DIMAUNIT
 70
     0
  9
$DIMADEC
 70
     0
  9
$DIMALTRND
 40
0.0
  9
$DIMAZIN
 70
     0
  9
$DIMDSEP
 70
    44
  9
$DIMATFIT
 70
     3
  9
$DIMFRAC
 70
     0
  9
$DIMLDRBLK
  1

  9
$DIMLUNIT
 70
     2
  9
$DIMLWD
 70
    -2
  9
$DIMLWE
 70
    -2
  9
$DIMTMOVE
 70
     0
  9
$LUNITS
 70
     2
  9
$LUPREC
 70
     4
  9
$SKETCHINC
 40
1.0
  9
$FILLETRAD
 40
0.0
  9
$AUNITS
 70
     0
  9
$AUPREC
 70
     0
  9
$MENU
  1
.
  9
$ELEVATION
 40
0.0
  9
$PELEVATION
 40
0.0
  9
$THICKNESS
 40
0.0
  9
$LIMCHECK
 70
     0
  9
$CHAMFERA
 40
0.0
  9
$CHAMFERB
 40
0.0
  9
$CHAMFERC
 40
0.0
  9
$CHAMFERD
 40
0.0
  9
$SKPOLY
 70
     0
  9
$TDCREATE
 40
2458536.673072535
  9
$TDUCREATE
 40
2458536.548072534
  9
$TDUPDATE
 40
2459089.572894398
  9
$TDUUPDATE
 40
2459089.447894398
  9
$TDINDWG
 40
0.0093901157
  9
$TDUSRTIMER
 40
0.0093901157
  9
$USRTIMER
 70
     1
  9
$ANGBASE
 50
0.0
  9
$ANGDIR
 70
     0
  9
$PDMODE
 70
     0
  9
$PDSIZE
 40
0.0
  9
$PLINEWID
 40
0.0
  9
$SPLFRAME
 70
     0
  9
$SPLINETYPE
 70
     6
  9
$SPLINESEGS
 70
     8
  9
$HANDSEED
  5
702
  9
$SURFTAB1
 70
     6
  9
$SURFTAB2
 70
     6
  9
$SURFTYPE
 70
     6
  9
$SURFU
 70
     6
  9
$SURFV
 70
     6
  9
$UCSBASE
  2

  9
$UCSNAME
  2

  9
$UCSORG
 10
0.0
 20
0.0
 30
0.0
  9
$UCSXDIR
 10
1.0
 20
0.0
 30
0.0
  9
$UCSYDIR
 10
0.0
 20
1.0
 30
0.0
  9
$UCSORTHOREF
  2

  9
$UCSORTHOVIEW
 70
     0
  9
$UCSORGTOP
 10
0.0
 20
0.0
 30
0.0
  9
$UCSORGBOTTOM
 10
0.0
 20
0.0
 30
0.0
  9
$UCSORGLEFT
 10
0.0
 20
0.0
 30
0.0
  9
$UCSORGRIGHT
 10
0.0
 20
0.0
 30
0.0
  9
$UCSORGFRONT
 10
0.0
 20
0.0
 30
0.0
  9
$UCSORGBACK
 10
0.0
 20
0.0
 30
0.0
  9
$PUCSBASE
  2

  9
$PUCSNAME
  2

  9
$PUCSORG
 10
0.0
 20
0.0
 30
0.0
  9
$PUCSXDIR
 10
1.0
 20
0.0
 30
0.0
  9
$PUCSYDIR
 10
0.0
 20
1.0
 30
0.0
  9
$PUCSORTHOREF
  2

  9
$PUCSORTHOVIEW
 70
     0
  9
$PUCSORGTOP
 10
0.0
 20
0.0
 30
0.0
  9
$PUCSORGBOTTOM
 10
0.0
 20
0.0
 30
0.0
  9
$PUCSORGLEFT
 10
0.0
 20
0.0
 30
0.0
  9
$PUCSORGRIGHT
 10
0.0
 20
0.0
 30
0.0
  9
$PUCSORGFRONT
 10
0.0
 20
0.0
 30
0.0
  9
$PUCSORGBACK
 10
0.0
 20
0.0
 30
0.0
  9
$USERI1
 70
     0
  9
$USERI2
 70
     0
  9
$USERI3
 70
     0
  9
$USERI4
 70
     0
  9
$USERI5
 70
     0
  9
$USERR1
 40
0.0
  9
$USERR2
 40
0.0
  9
$USERR3
 40
0.0
  9
$USERR4
 40
0.0
  9
$USERR5
 40
0.0
  9
$WORLDVIEW
 70
     1
  9
$SHADEDGE
 70
     3
  9
$SHADEDIF
 70
    70
  9
$TILEMODE
 70
     1
  9
$MAXACTVP
 70
    64
  9
$PINSBASE
 10
0.0
 20
0.0
 30
0.0
  9
$PLIMCHECK
 70
     0
  9
$PEXTMIN
 10
0.0
 20
0.0
 30
0.0
  9
$PEXTMAX
 10
0.0
 20
0.0
 30
0.0
  9
$PLIMMIN
 10
0.0
 20
0.0
  9
$PLIMMAX
 10
12.0
 20
9.0
  9
$UNITMODE
 70
     0
  9
$VISRETAIN
 70
     1
  9
$PLINEGEN
 70
     0
  9
$PSLTSCALE
 70
     1
  9
$TREEDEPTH
 70
  3020
  9
$CMLSTYLE
  2
Standard
  9
$CMLJUST
 70
     0
  9
$CMLSCALE
 40
20.0
  9
$PROXYGRAPHICS
 70
     1
  9
$MEASUREMENT
 70
     1
  9
$CELWEIGHT
370
    -1
  9
$ENDCAPS
280
     0
  9
$JOINSTYLE
280
     0
  9
$LWDISPLAY
290
     0
  9
$INSUNITS
 70
     4
  9
$HYPERLINKBASE
  1

  9
$STYLESHEET
  1

  9
$XEDIT
290
     1
  9
$CEPSNTYPE
380
     0
  9
$PSTYLEMODE
290
     1
  9
$FINGERPRINTGUID
  2
{FE474713-7AFF-4932-822D-A8FCFE5BF0E2}
  9
$VERSIONGUID
  2
{0CD4094C-AC61-489B-A8E5-56F4B22FC8BF}
  9
$EXTNAMES
290
     1
  9
$PSVPSCALE
 40
0.0
  9
$OLESTARTUP
290
     0
  0
ENDSEC
  0
SECTION
  2
CLASSES
  0
CLASS
  1
ACDBDICTIONARYWDFLT
  2
AcDbDictionaryWithDefault
  3
ObjectDBX Classes
 90
        0
280
     0
281
     0
  0
CLASS
  1
ACDBPLACEHOLDER
  2
AcDbPlaceHolder
  3
ObjectDBX Classes
 90
        0
280
     0
281
     0
  0
CLASS
  1
LAYOUT
  2
AcDbLayout
  3
ObjectDBX Classes
 90
        0
280
     0
281
     0
  0
CLASS
  1
DICTIONARYVAR
  2
AcDbDictionaryVar
  3
ObjectDBX Classes
 90
        0
280
     0
281
     0
  0
CLASS
  1
TABLESTYLE
  2
AcDbTableStyle
  3
ObjectDBX Classes
 90
     4095
280
     0
281
     0
  0
CLASS
  1
MATERIAL
  2
AcDbMaterial
  3
ObjectDBX Classes
 90
     1153
280
     0
281
     0
  0
CLASS
  1
VISUALSTYLE
  2
AcDbVisualStyle
  3
ObjectDBX Classes
 90
     4095
280
     0
281
     0
  0
CLASS
  1
SCALE
  2
AcDbScale
  3
ObjectDBX Classes
 90
     1153
280
     0
281
     0
  0
CLASS
  1
MLEADERSTYLE
  2
AcDbMLeaderStyle
  3
ACDB_MLEADERSTYLE_CLASS
 90
     4095
280
     0
281
     0
  0
CLASS
  1
CELLSTYLEMAP
  2
AcDbCellStyleMap
  3
ObjectDBX Classes
 90
     1152
280
     0
281
     0
  0
CLASS
  1
ACAD_EVALUATION_GRAPH
  2
AcDbEvalGraph
  3
ObjectDBX Classes
 90
    33921
280
     0
281
     0
  0
CLASS
  1
ACAECUSTOBJ
  2
AcAeEditorObj
  3
AcAeEditorObj
 90
    33792
280
     0
281
     0
  0
CLASS
  1
ACDB_DYNAMICBLOCKPURGEPREVENTER_VERSION
  2
AcDbDynamicBlockPurgePreventer
  3
ObjectDBX Classes
 90
    33921
280
     0
281
     0
  0
CLASS
  1
DIMASSOC
  2
AcDbDimAssoc
  3
"AcDbDimAssoc|Product Desc:     AcDim ARX App For Dimension|Company:          Autodesk, Inc.|WEB Address:      www.autodesk.com"
 90
    32768
280
     0
281
     0
  0
ENDSEC
  0
SECTION
  2
TABLES
  0
TABLE
  2
VPORT
  5
8
330
0
100
AcDbSymbolTable
 70
     1
  0
VPORT
  5
EA
330
8
100
AcDbSymbolTableRecord
100
AcDbViewportTableRecord
  2
*Active
 70
     0
 10
0.0
 20
0.0
 11
1.0
 21
1.0
 12
2094.25411388561
 22
1296.351721928003
 13
0.0
 23
0.0
 14
10.0
 24
10.0
 15
10.0
 25
10.0
 16
0.0
 26
0.0
 36
1.0
 17
0.0
 27
0.0
 37
0.0
 40
118.7455265052128
 41
1.903110047846889
 42
50.0
 43
0.0
 44
0.0
 50
0.0
 51
0.0
 71
     0
 72
  1000
 73
     1
 74
     3
 75
     0
 76
     0
 77
     0
 78
     0
281
     0
 65
     1
110
0.0
120
0.0
130
0.0
111
1.0
121
0.0
131
0.0
112
0.0
122
1.0
132
0.0
 79
     0
146
0.0
  0
ENDTAB
  0
TABLE
  2
LTYPE
  5
5
330
0
100
AcDbSymbolTable
 70
     1
  0
LTYPE
  5
14
330
5
100
AcDbSymbolTableRecord
100
AcDbLinetypeTableRecord
  2
ByBlock
 70
     0
  3

 72
    65
 73
     0
 40
0.0
  0
LTYPE
  5
15
330
5
100
AcDbSymbolTableRecord
100
AcDbLinetypeTableRecord
  2
ByLayer
 70
     0
  3

 72
    65
 73
     0
 40
0.0
  0
LTYPE
  5
16
330
5
100
AcDbSymbolTableRecord
100
AcDbLinetypeTableRecord
  2
Continuous
 70
     0
  3
Solid line
 72
    65
 73
     0
 40
0.0
  0
ENDTAB
  0
TABLE
  2
LAYER
  5
2
330
0
100
AcDbSymbolTable
 70
     2
  0
LAYER
  5
10
102
{ACAD_XDICTIONARY
360
13C
102
}
330
2
100
AcDbSymbolTableRecord
100
AcDbLayerTableRecord
  2
0
 70
     0
 62
     7
  6
Continuous
370
    -3
390
F
  0
LAYER
  5
5E9
330
2
100
AcDbSymbolTableRecord
100
AcDbLayerTableRecord
  2
Defpoints
 70
     0
 62
     7
  6
Continuous
290
     0
370
    -3
390
F
  0
ENDTAB
  0
TABLE
  2
STYLE
  5
3
330
0
100
AcDbSymbolTable
 70
     2
  0
STYLE
  5
11
330
3
100
AcDbSymbolTableRecord
100
AcDbTextStyleTableRecord
  2
Standard
 70
     0
 40
0.0
 41
1.0
 50
0.0
 71
     0
 42
2.5
  3
txt
  4

  0
STYLE
  5
132
330
3
100
AcDbSymbolTableRecord
100
AcDbTextStyleTableRecord
  2
Annotative
 70
     0
 40
0.0
 41
1.0
 50
0.0
 71
     0
 42
2.5
  3
txt.shx
  4

1001
AcadAnnotative
1000
AnnotativeData
1002
{
1070
     1
1070
     1
1002
}
  0
ENDTAB
  0
TABLE
  2
VIEW
  5
6
330
0
100
AcDbSymbolTable
 70
     0
  0
ENDTAB
  0
TABLE
  2
UCS
  5
7
330
0
100
AcDbSymbolTable
 70
     0
  0
ENDTAB
  0
TABLE
  2
APPID
  5
9
330
0
100
AcDbSymbolTable
 70
    11
  0
APPID
  5
12
330
9
100
AcDbSymbolTableRecord
100
AcDbRegAppTableRecord
  2
ACAD
 70
     0
  0
APPID
  5
9E
330
9
100
AcDbSymbolTableRecord
100
AcDbRegAppTableRecord
  2
ACAD_PSEXT
 70
     0
  0
APPID
  5
133
330
9
100
AcDbSymbolTableRecord
100
AcDbRegAppTableRecord
  2
AcadAnnoPO
 70
     0
  0
APPID
  5
134
330
9
100
AcDbSymbolTableRecord
100
AcDbRegAppTableRecord
  2
AcadAnnotative
 70
     0
  0
APPID
  5
135
330
9
100
AcDbSymbolTableRecord
100
AcDbRegAppTableRecord
  2
ACAD_DSTYLE_DIMJAG
 70
     0
  0
APPID
  5
136
330
9
100
AcDbSymbolTableRecord
100
AcDbRegAppTableRecord
  2
ACAD_DSTYLE_DIMTALN
 70
     0
  0
APPID
  5
165
330
9
100
AcDbSymbolTableRecord
100
AcDbRegAppTableRecord
  2
ACAD_MLEADERVER
 70
     0
  0
APPID
  5
556
330
9
100
AcDbSymbolTableRecord
100
AcDbRegAppTableRecord
  2
ACAUTHENVIRON
 70
     0
  0
APPID
  5
55A
330
9
100
AcDbSymbolTableRecord
100
AcDbRegAppTableRecord
  2
AcDbDynamicBlockTrueName
 70
     0
  0
APPID
  5
55B
330
9
100
AcDbSymbolTableRecord
100
AcDbRegAppTableRecord
  2
AcDbDynamicBlockGUID
 70
     0
  0
APPID
  5
55D
330
9
100
AcDbSymbolTableRecord
100
AcDbRegAppTableRecord
  2
AcDbBlockRepETag
 70
     0
  0
ENDTAB
  0
TABLE
  2
DIMSTYLE
  5
A
330
0
100
AcDbSymbolTable
 70
     2
100
AcDbDimStyleTable
 71
     2
340
27
340
137
  0
DIMSTYLE
105
27
330
A
100
AcDbSymbolTableRecord
100
AcDbDimStyleTableRecord
  2
ISO-25
 70
     0
 41
2.5
 42
0.625
 43
3.75
 44
1.25
 73
     0
 74
     0
 77
     1
 78
     8
140
2.5
141
2.5
143
0.03937007874016
147
0.625
171
     3
172
     1
271
     2
272
     2
274
     3
278
    44
283
     0
284
     8
340
11
  0
DIMSTYLE
105
137
330
A
100
AcDbSymbolTableRecord
100
AcDbDimStyleTableRecord
  2
Annotative
 70
     0
 40
0.0
 41
2.5
 42
0.625
 43
3.75
 44
1.25
 73
     0
 74
     0
 77
     1
 78
     8
140
2.5
141
2.5
143
0.03937007874016
147
0.625
171
     3
172
     1
271
     2
272
     2
274
     3
278
    44
283
     0
284
     8
340
11
1001
AcadAnnotative
1000
AnnotativeData
1002
{
1070
     1
1070
     1
1002
}
1001
ACAD_DSTYLE_DIMJAG
1070
   388
1040
1.5
1001
ACAD_DSTYLE_DIMTALN
1070
   392
1070
     0
  0
ENDTAB
  0
TABLE
  2
BLOCK_RECORD
  5
1
330
0
100
AcDbSymbolTable
 70
     8
  0
BLOCK_RECORD
  5
1F
330
1
100
AcDbSymbolTableRecord
100
AcDbBlockTableRecord
  2
*Model_Space
340
22
  0
BLOCK_RECORD
  5
D2
330
1
100
AcDbSymbolTableRecord
100
AcDbBlockTableRecord
  2
*Paper_Space
340
D3
  0
BLOCK_RECORD
  5
D6
330
1
100
AcDbSymbolTableRecord
100
AcDbBlockTableRecord
  2
*Paper_Space0
340
D7
  0
BLOCK_RECORD
  5
3EF
102
{ACAD_XDICTIONARY
360
5DF
102
}
330
1
100
AcDbSymbolTableRecord
100
AcDbBlockTableRecord
  2
1
340
0
310
2800000020000000200000000100080000000000000400000000000000000000000000000000000000000000000080000080000000808000800000008000800080800000C0C0C000C0DCC000F0CAA6000020400000206000002080000020A0000020C0000020E00000400000004020000040400000406000004080000040A0
310
000040C0000040E00000600000006020000060400000606000006080000060A0000060C0000060E00000800000008020000080400000806000008080000080A0000080C0000080E00000A0000000A0200000A0400000A0600000A0800000A0A00000A0C00000A0E00000C0000000C0200000C0400000C0600000C0800000C0
310
A00000C0C00000C0E00000E0000000E0200000E0400000E0600000E0800000E0A00000E0C00000E0E00040000000400020004000400040006000400080004000A0004000C0004000E00040200000402020004020400040206000402080004020A0004020C0004020E000404000004040200040404000404060004040800040
310
40A0004040C0004040E00040600000406020004060400040606000406080004060A0004060C0004060E00040800000408020004080400040806000408080004080A0004080C0004080E00040A0000040A0200040A0400040A0600040A0800040A0A00040A0C00040A0E00040C0000040C0200040C0400040C0600040C08000
310
40C0A00040C0C00040C0E00040E0000040E0200040E0400040E0600040E0800040E0A00040E0C00040E0E00080000000800020008000400080006000800080008000A0008000C0008000E00080200000802020008020400080206000802080008020A0008020C0008020E00080400000804020008040400080406000804080
310
008040A0008040C0008040E00080600000806020008060400080606000806080008060A0008060C0008060E00080800000808020008080400080806000808080008080A0008080C0008080E00080A0000080A0200080A0400080A0600080A0800080A0A00080A0C00080A0E00080C0000080C0200080C0400080C0600080C0
310
800080C0A00080C0C00080C0E00080E0000080E0200080E0400080E0600080E0800080E0A00080E0C00080E0E000C0000000C0002000C0004000C0006000C0008000C000A000C000C000C000E000C0200000C0202000C0204000C0206000C0208000C020A000C020C000C020E000C0400000C0402000C0404000C0406000C0
310
408000C040A000C040C000C040E000C0600000C0602000C0604000C0606000C0608000C060A000C060C000C060E000C0800000C0802000C0804000C0806000C0808000C080A000C080C000C080E000C0A00000C0A02000C0A04000C0A06000C0A08000C0A0A000C0A0C000C0A0E000C0C00000C0C02000C0C04000C0C06000
310
C0C08000C0C0A000F0FBFF00A4A0A000808080000000FF0000FF000000FFFF00FF000000FF00FF00FFFF0000FFFFFF0000000000000000000000000000000000000000000000000000000000000000000000000000000000000000000000000000000000000000000000000000000000000000000000000000000000000000
310
00000000000000000000000000000000000000000000FFFFFFFFFFFFFFFFFFFFFFFFFFFFFFFFFFFFFFFFFFFF00000000000000000000FF0000000000000000000000000000000000000000FF00000000000000000000FF0000000000000000000000000000000000000000FF000000000000FFFFFFFFFFFFFF000000000000
310
00000000000000000000FFFFFFFFFFFFFF0000FF0000000000FF00000000000000000000000000000000FF0000000000FF0000FF0000000000FF00000000000000000000000000000000FF0000000000FF0000FF0000000000FFFFFFFFFFFFFFFFFFFFFFFFFFFFFFFFFFFF0000000000FF0000FF0000000000FF0000000000
310
0000000000000000000000FF0000000000FF0000FF0000000000FFFFFFFFFFFFFFFFFFFFFFFFFFFFFFFFFFFF0000000000FF0000FF0000000000FFFFFFFFFFFFFFFFFFFFFFFFFFFFFFFFFFFF0000000000FF0000FF0000000000FFFFFFFFFFFFFFFFFFFFFFFFFFFFFFFFFFFF0000000000FF0000FF0000000000FF00000000
310
000000000000000000000000FF0000000000FF0000FF0000000000FFFFFFFFFFFFFFFFFFFFFFFFFFFFFFFFFFFF0000000000FF0000FF0000000000FFFFFFFFFFFFFFFFFFFFFFFFFFFFFFFFFFFF0000000000FF0000FF0000000000FF00000000000000000000000000000000FF0000000000FF0000FF0000000000FF000000
310
00000000000000000000000000FF0000000000FF0000FF0000000000FF00000000000000000000000000000000FF0000000000FF0000FF0000000000FF00000000000000000000000000000000FF0000000000FF0000FF0000000000FF00000000000000000000000000000000FF0000000000FF0000FF0000000000FF0000
310
0000000000000000000000000000FF0000000000FF0000FF0000000000FF00000000000000000000000000000000FF0000000000FF0000FF0000000000FFFFFFFFFFFFFFFFFFFFFFFFFFFFFFFFFFFF0000000000FF0000FF0000000000FF00000000000000000000000000000000FF0000000000FF0000FF0000000000FF00
310
000000000000000000000000000000FF0000000000FF0000FFFFFFFFFFFFFF00000000000000000000000000000000FFFFFFFFFFFFFF0000000000000000FFFFFFFFFFFFFFFFFFFFFFFFFFFFFFFFFFFF0000000000000000000000000000000000000000000000000000000000000000000000000000000000000000000000
310
0000000000000000000000000000000000000000000000000000000000000000000000000000000000000000000000000000000000000000
102
{BLKREFS
331
41A
102
}
1001
AcDbDynamicBlockGUID
1000
{F5A30204-25A2-4289-B85B-BB149E97FA4C}
1001
AcDbBlockRepETag
1070
     1
1071
       40
1001
ACAD
1000
DesignCenter Data
1002
{
1070
     1
1070
     4
1002
}
  0
BLOCK_RECORD
  5
41B
102
{ACAD_XDICTIONARY
360
6E4
102
}
330
1
100
AcDbSymbolTableRecord
100
AcDbBlockTableRecord
  2
2
340
0
310
2800000020000000200000000100080000000000000400000000000000000000000000000000000000000000000080000080000000808000800000008000800080800000C0C0C000C0DCC000F0CAA6000020400000206000002080000020A0000020C0000020E00000400000004020000040400000406000004080000040A0
310
000040C0000040E00000600000006020000060400000606000006080000060A0000060C0000060E00000800000008020000080400000806000008080000080A0000080C0000080E00000A0000000A0200000A0400000A0600000A0800000A0A00000A0C00000A0E00000C0000000C0200000C0400000C0600000C0800000C0
310
A00000C0C00000C0E00000E0000000E0200000E0400000E0600000E0800000E0A00000E0C00000E0E00040000000400020004000400040006000400080004000A0004000C0004000E00040200000402020004020400040206000402080004020A0004020C0004020E000404000004040200040404000404060004040800040
310
40A0004040C0004040E00040600000406020004060400040606000406080004060A0004060C0004060E00040800000408020004080400040806000408080004080A0004080C0004080E00040A0000040A0200040A0400040A0600040A0800040A0A00040A0C00040A0E00040C0000040C0200040C0400040C0600040C08000
310
40C0A00040C0C00040C0E00040E0000040E0200040E0400040E0600040E0800040E0A00040E0C00040E0E00080000000800020008000400080006000800080008000A0008000C0008000E00080200000802020008020400080206000802080008020A0008020C0008020E00080400000804020008040400080406000804080
310
008040A0008040C0008040E00080600000806020008060400080606000806080008060A0008060C0008060E00080800000808020008080400080806000808080008080A0008080C0008080E00080A0000080A0200080A0400080A0600080A0800080A0A00080A0C00080A0E00080C0000080C0200080C0400080C0600080C0
310
800080C0A00080C0C00080C0E00080E0000080E0200080E0400080E0600080E0800080E0A00080E0C00080E0E000C0000000C0002000C0004000C0006000C0008000C000A000C000C000C000E000C0200000C0202000C0204000C0206000C0208000C020A000C020C000C020E000C0400000C0402000C0404000C0406000C0
310
408000C040A000C040C000C040E000C0600000C0602000C0604000C0606000C0608000C060A000C060C000C060E000C0800000C0802000C0804000C0806000C0808000C080A000C080C000C080E000C0A00000C0A02000C0A04000C0A06000C0A08000C0A0A000C0A0C000C0A0E000C0C00000C0C02000C0C04000C0C06000
310
C0C08000C0C0A000F0FBFF00A4A0A000808080000000FF0000FF000000FFFF00FF000000FF00FF00FFFF0000FFFFFF0000000000000000000000000000000000000000000000000000000000000000000000000000000000000000000000000000000000000000000000000000000000000000000000000000000000000000
310
000000000000000000000000000000000000000000000000000000000000000000000000000000000000000000000000000000000000000000FFFFFFFFFFFFFFFFFFFFFFFFFFFFFFFFFFFFFF00000000000000000000000000FF0000000000000000000000000000000000FF00000000000000000000000000FF0000000000
310
000000000000000000000000FF000000000000000000FFFFFFFFFFFF000000000000000000000000000000FFFFFFFFFFFF0000000000FF00000000FF000000000000000000000000000000FF00000000FF0000000000FF00000000FF000000000000000000000000000000FF00000000FF0000000000FF00000000FF000000
310
000000000000000000000000FF00000000FF0000000000FF00000000FF00000000FFFFFFFFFFFFFF00000000FF00000000FF000000FFFFFF00000000FF00000000FFFFFFFFFFFFFF00000000FF00000000FF0000FF0000FF00000000FF000000000000000000000000000000FF00000000FF0000FF0000FF00000000FF0000
310
00000000000000000000000000FF00000000FF0000FFFFFFFF00000000FF000000000000000000000000000000FF00000000FF0000000000FF00000000FF000000000000000000000000000000FF00000000FF0000000000FF00000000FFFFFFFFFFFFFFFFFFFFFFFFFFFFFFFFFF00000000FF0000000000FF00000000FF00
310
0000FFFFFFFFFFFFFFFF00000000FF00000000FF0000000000FF00000000FF000000FF000000000000FF00000000FF00000000FF0000000000FF00000000FF000000FF000000000000FF00000000FF00000000FF0000000000FF00000000FF00FFFFFF000000000000FFFFFFFF00FF00000000FF0000000000FF00000000FF
310
00FF00000000FF000000000000FF00FF00000000FF0000000000FF00000000FFFFFFFFFFFFFF00FFFFFFFFFFFFFFFFFF00000000FF0000000000FF00000000FFFF0000000000FFFF0000000000FFFFFF00000000FF0000000000FF00000000FF00FFFFFFFFFF00FFFFFFFFFFFF0000FF00000000FF0000000000FFFFFFFFFF
310
FFFF0000000000000000000000FFFFFFFFFFFFFFFFFF000000000000000000000000000000000000000000000000000000000000000000000000000000000000000000000000000000000000000000000000000000000000000000000000000000000000000000000000000000000000000000000000000000000000000000
310
0000000000000000000000000000000000000000000000000000000000000000000000000000000000000000000000000000000000000000
102
{BLKREFS
331
448
102
}
1001
AcDbDynamicBlockGUID
1000
{B16ECDEF-9803-45AB-B7A0-8B7F5620FE4F}
1001
AcDbBlockRepETag
1070
     1
1071
       42
1001
ACAD
1000
DesignCenter Data
1002
{
1070
     1
1070
     4
1002
}
  0
BLOCK_RECORD
  5
449
102
{ACAD_XDICTIONARY
360
682
102
}
330
1
100
AcDbSymbolTableRecord
100
AcDbBlockTableRecord
  2
3
340
0
310
2800000020000000200000000100080000000000000400000000000000000000000000000000000000000000000080000080000000808000800000008000800080800000C0C0C000C0DCC000F0CAA6000020400000206000002080000020A0000020C0000020E00000400000004020000040400000406000004080000040A0
310
000040C0000040E00000600000006020000060400000606000006080000060A0000060C0000060E00000800000008020000080400000806000008080000080A0000080C0000080E00000A0000000A0200000A0400000A0600000A0800000A0A00000A0C00000A0E00000C0000000C0200000C0400000C0600000C0800000C0
310
A00000C0C00000C0E00000E0000000E0200000E0400000E0600000E0800000E0A00000E0C00000E0E00040000000400020004000400040006000400080004000A0004000C0004000E00040200000402020004020400040206000402080004020A0004020C0004020E000404000004040200040404000404060004040800040
310
40A0004040C0004040E00040600000406020004060400040606000406080004060A0004060C0004060E00040800000408020004080400040806000408080004080A0004080C0004080E00040A0000040A0200040A0400040A0600040A0800040A0A00040A0C00040A0E00040C0000040C0200040C0400040C0600040C08000
310
40C0A00040C0C00040C0E00040E0000040E0200040E0400040E0600040E0800040E0A00040E0C00040E0E00080000000800020008000400080006000800080008000A0008000C0008000E00080200000802020008020400080206000802080008020A0008020C0008020E00080400000804020008040400080406000804080
310
008040A0008040C0008040E00080600000806020008060400080606000806080008060A0008060C0008060E00080800000808020008080400080806000808080008080A0008080C0008080E00080A0000080A0200080A0400080A0600080A0800080A0A00080A0C00080A0E00080C0000080C0200080C0400080C0600080C0
310
800080C0A00080C0C00080C0E00080E0000080E0200080E0400080E0600080E0800080E0A00080E0C00080E0E000C0000000C0002000C0004000C0006000C0008000C000A000C000C000C000E000C0200000C0202000C0204000C0206000C0208000C020A000C020C000C020E000C0400000C0402000C0404000C0406000C0
310
408000C040A000C040C000C040E000C0600000C0602000C0604000C0606000C0608000C060A000C060C000C060E000C0800000C0802000C0804000C0806000C0808000C080A000C080C000C080E000C0A00000C0A02000C0A04000C0A06000C0A08000C0A0A000C0A0C000C0A0E000C0C00000C0C02000C0C04000C0C06000
310
C0C08000C0C0A000F0FBFF00A4A0A000808080000000FF0000FF000000FFFF00FF000000FF00FF00FFFF0000FFFFFF0000000000000000000000000000000000000000000000000000000000000000000000000000000000FFFFFFFFFFFFFFFFFFFFFFFFFFFFFFFF00000000000000000000000000000000FF000000000000
310
0000000000000000FF00000000000000000000000000000000FFFFFFFFFFFFFFFFFFFFFFFFFFFFFFFF000000000000000000000000000000FFFFFFFFFFFFFFFFFFFFFFFFFFFFFFFFFFFF00000000000000000000000000FFFFFF0000000000000000000000000000FFFFFF0000000000000000000000FF00FFFF0000000000
310
000000000000000000FFFF00FF00000000000000000000FF00FFFF0000000000000000000000000000FFFF00FF000000000000000000FF0000FFFFFFFFFFFFFFFFFFFFFFFFFFFFFFFFFFFF0000FF00000000000000FFFFFFFFFFFF0000000000000000000000000000FFFFFFFFFFFF0000000000000000FF0000FF00000000
310
00000000000000000000FF0000FF00000000000000000000FFFFFFFF0000000000000000000000000000FFFFFFFF00000000000000000000FF0000FF0000000000000000000000000000FF0000FF00000000000000000000FFFFFFFF0000000000000000000000000000FFFFFFFF00000000000000000000FF0000FF000000
310
0000000000000000000000FF0000FF00000000000000000000FF0000FF0000000000000000000000000000FF0000FF00000000000000000000FF0000FFFFFFFFFFFFFFFFFFFFFFFFFFFFFFFF0000FF00000000000000000000FF0000FF0000000000000000000000000000FF0000FF00000000000000000000FF0000FF0000
310
000000000000000000000000FF0000FF00000000000000000000FF0000FF0000000000000000000000000000FF0000FF00000000000000000000FFFFFFFF0000000000000000000000000000FFFFFFFF00000000000000000000FF0000FF0000000000000000000000000000FF0000FF00000000000000000000FF0000FF00
310
00000000000000000000000000FF0000FF00000000000000000000FFFFFFFF0000000000000000000000000000FFFFFFFF00000000000000000000FF0000FFFFFFFFFFFFFFFFFFFFFFFFFFFFFFFFFF00FF0000000000000000FFFFFFFFFFFF0000000000000000000000000000FFFFFFFFFFFF00000000000000FF0000FFFF
310
0000000000000000000000000000FFFF0000FF000000000000000000FF00FFFF0000000000000000000000000000FFFF00FF00000000000000000000FF00FFFF0000000000000000000000000000FFFF00FF0000000000000000000000FFFFFFFFFFFFFFFFFFFFFFFFFFFFFFFFFFFFFFFF00000000000000000000000000FF
310
00000000000000000000000000000000FF000000000000000000000000000000000000000000000000000000000000000000000000000000
102
{BLKREFS
331
49A
102
}
1001
AcDbDynamicBlockGUID
1000
{863ACAAC-F772-453D-A305-4A3FC23C03EB}
1001
AcDbBlockRepETag
1070
     1
1071
       78
1001
ACAD
1000
DesignCenter Data
1002
{
1070
     1
1070
     4
1002
}
  0
BLOCK_RECORD
  5
49B
330
1
100
AcDbSymbolTableRecord
100
AcDbBlockTableRecord
  2
4
340
0
310
2800000020000000200000000100080000000000000400000000000000000000000000000000000000000000000080000080000000808000800000008000800080800000C0C0C000C0DCC000F0CAA6000020400000206000002080000020A0000020C0000020E00000400000004020000040400000406000004080000040A0
310
000040C0000040E00000600000006020000060400000606000006080000060A0000060C0000060E00000800000008020000080400000806000008080000080A0000080C0000080E00000A0000000A0200000A0400000A0600000A0800000A0A00000A0C00000A0E00000C0000000C0200000C0400000C0600000C0800000C0
310
A00000C0C00000C0E00000E0000000E0200000E0400000E0600000E0800000E0A00000E0C00000E0E00040000000400020004000400040006000400080004000A0004000C0004000E00040200000402020004020400040206000402080004020A0004020C0004020E000404000004040200040404000404060004040800040
310
40A0004040C0004040E00040600000406020004060400040606000406080004060A0004060C0004060E00040800000408020004080400040806000408080004080A0004080C0004080E00040A0000040A0200040A0400040A0600040A0800040A0A00040A0C00040A0E00040C0000040C0200040C0400040C0600040C08000
310
40C0A00040C0C00040C0E00040E0000040E0200040E0400040E0600040E0800040E0A00040E0C00040E0E00080000000800020008000400080006000800080008000A0008000C0008000E00080200000802020008020400080206000802080008020A0008020C0008020E00080400000804020008040400080406000804080
310
008040A0008040C0008040E00080600000806020008060400080606000806080008060A0008060C0008060E00080800000808020008080400080806000808080008080A0008080C0008080E00080A0000080A0200080A0400080A0600080A0800080A0A00080A0C00080A0E00080C0000080C0200080C0400080C0600080C0
310
800080C0A00080C0C00080C0E00080E0000080E0200080E0400080E0600080E0800080E0A00080E0C00080E0E000C0000000C0002000C0004000C0006000C0008000C000A000C000C000C000E000C0200000C0202000C0204000C0206000C0208000C020A000C020C000C020E000C0400000C0402000C0404000C0406000C0
310
408000C040A000C040C000C040E000C0600000C0602000C0604000C0606000C0608000C060A000C060C000C060E000C0800000C0802000C0804000C0806000C0808000C080A000C080C000C080E000C0A00000C0A02000C0A04000C0A06000C0A08000C0A0A000C0A0C000C0A0E000C0C00000C0C02000C0C04000C0C06000
310
C0C08000C0C0A000F0FBFF00A4A0A000808080000000FF0000FF000000FFFF00FF000000FF00FF00FFFF0000FFFFFF0000000000000000000000000000000000000000000000000000000000000000000000000000000000000000000000000000FF00000000000000000000000000000000000000000000000000000000FF
310
FFFFFFFF0000000000000000000000000000000000000000000000000000FFFF0000FFFFFFFF000000000000000000000000000000000000000000FFFFFF00FF0000000000FFFF0000000000000000000000000000000000FFFFFF00000000FF0000000000FF00FFFF000000000000000000000000FFFFFF00000000000000
310
FF0000000000FFFF0000FF00000000000000000000FFFFFF0000000000000000FF0000000000FFFFFF0000FF0000000000000000FF00FF00FF0000000000FFFFFF0000000000FFFF00FFFF00FF00000000000000FF00FF00FF0000FFFFFFFFFFFF0000000000FFFFFFFF00FFFFFFFF0000000000FF00FF00FF00FFFFFFFF00
310
FFFF00000000FFFF00FFFFFF00FF00FFFF00000000FF00FFFF0000000000FFFF00FF00000000FFFF000000FFFFFFFFFFFF00000000FF00FFFF000000FFFFFFFF00FF00000000FFFF00000000FFFFFFFFFF00000000FF00FFFF00FFFFFFFFFFFFFFFF00000000FFFF0000000000FFFFFFFF00000000FFFF00FFFF00FFFFFF00
310
FFFFFF00000000FFFF00000000000000FFFF00000000FFFF00FF00FF00FF000000FFFFFFFF0000FFFFFFFF0000000000FFFF00000000FFFF00FFFFFF00FF000000FFFFFF00FFFFFF000000FF00000000FFFF00000000FFFFFF00FFFFFFFF00FFFF0000FFFFFFFF0000000000FFFF0000FFFF00000000FFFFFFFFFFFF00FFFF
310
00FFFFFF000000FF00000000000000FFFFFFFF00000000FFFF00FFFFFFFFFFFFFF00FF0000000000FF00000000000000FFFF0000000000FFFFFF00FFFFFFFF00000000FF0000000000FFFF0000000000FFFF0000000000FF0000FFFFFFFF000000000000FFFF0000000000FF000000FFFFFF0000000000FF00FFFFFFFF0000
310
00000000000000FF0000000000FF00FF00FFFF0000000000FFFF00FFFF00FFFF0000000000000000FF00FFFFFFFFFFFFFF00FF00000000000000000000FF0000FF00000000000000FFFFFF00000000FFFF00FF0000000000000000000000FF0000FF00000000FFFFFF0000000000000000FF00000000000000000000000000
310
FFFF00FFFF00FFFFFF00000000000000000000000000000000000000000000000000FF0000FFFF00FF00000000000000000000000000000000000000000000000000FFFFFFFFFFFF0000000000000000000000000000000000000000000000000000FFFFFFFFFFFF0000000000000000000000000000000000000000000000
310
0000000000000000000000000000000000000000000000000000000000000000000000000000000000000000000000000000000000000000
102
{BLKREFS
331
51D
102
}
1001
ACAD
1000
DesignCenter Data
1002
{
1070
     1
1070
     4
1002
}
  0
ENDTAB
  0
ENDSEC
  0
SECTION
  2
BLOCKS
  0
BLOCK
  5
20
330
1F
100
AcDbEntity
  8
0
100
AcDbBlockBegin
  2
*Model_Space
 70
     0
 10
0.0
 20
0.0
 30
0.0
  3
*Model_Space
  1

  0
ENDBLK
  5
21
330
1F
100
AcDbEntity
  8
0
100
AcDbBlockEnd
  0
BLOCK
  5
D4
330
D2
100
AcDbEntity
 67
     1
  8
0
100
AcDbBlockBegin
  2
*Paper_Space
 70
     0
 10
0.0
 20
0.0
 30
0.0
  3
*Paper_Space
  1

  0
ENDBLK
  5
D5
330
D2
100
AcDbEntity
 67
     1
  8
0
100
AcDbBlockEnd
  0
BLOCK
  5
D8
330
D6
100
AcDbEntity
 67
     1
  8
0
100
AcDbBlockBegin
  2
*Paper_Space0
 70
     0
 10
0.0
 20
0.0
 30
0.0
  3
*Paper_Space0
  1

  0
ENDBLK
  5
D9
330
D6
100
AcDbEntity
 67
     1
  8
0
100
AcDbBlockEnd
  0
BLOCK
  5
3F0
330
3EF
100
AcDbEntity
  8
0
100
AcDbBlockBegin
  2
1
 70
     0
 10
0.0
 20
0.0
 30
0.0
  3
1
  1

  0
LINE
  5
5B7
330
3EF
100
AcDbEntity
  8
0
  6
Continuous
 62
     7
370
    15
100
AcDbLine
 10
2064.846261968588
 20
1308.544427620631
 30
0.0
 11
2050.646261968588
 21
1308.544427620631
 31
0.0
1001
AcDbBlockRepETag
1070
     1
1071
        0
1005
5B7
  0
LINE
  5
5B8
330
3EF
100
AcDbEntity
  8
0
  6
Continuous
 62
     7
370
    15
100
AcDbLine
 10
2064.846261968587
 20
1319.137145823815
 30
0.0
 11
2050.646261968587
 21
1319.137145823815
 31
0.0
1001
AcDbBlockRepETag
1070
     1
1071
        1
1005
5B8
  0
LINE
  5
5B9
330
3EF
100
AcDbEntity
  8
0
  6
Continuous
 62
     7
370
    15
100
AcDbLine
 10
2050.646261968588
 20
1303.336202596552
 30
0.0
 11
2064.846261968588
 21
1303.336202596552
 31
0.0
1001
AcDbBlockRepETag
1070
     1
1071
        2
1005
5B9
  0
LINE
  5
5BA
330
3EF
100
AcDbEntity
  8
0
  6
Continuous
 62
     7
370
    15
100
AcDbLine
 10
2050.646261968589
 20
1306.236202596553
 30
0.0
 11
2064.846261968588
 21
1306.236202596553
 31
0.0
1001
AcDbBlockRepETag
1070
     1
1071
        3
1005
5BA
  0
LINE
  5
5BB
330
3EF
100
AcDbEntity
  8
0
  6
Continuous
 62
     7
370
    15
100
AcDbLine
 10
2050.646261968589
 20
1308.060982065662
 30
0.0
 11
2050.646261968589
 21
1306.236202596553
 31
0.0
1001
AcDbBlockRepETag
1070
     1
1071
        4
1005
5BB
  0
LINE
  5
5BC
330
3EF
100
AcDbEntity
  8
0
  6
Continuous
 62
     7
370
    15
100
AcDbLine
 10
2050.646261968589
 20
1308.060982065662
 30
0.0
 11
2064.846261968588
 21
1308.060982065662
 31
0.0
1001
AcDbBlockRepETag
1070
     1
1071
        5
1005
5BC
  0
LINE
  5
5BD
330
3EF
100
AcDbEntity
  8
0
  6
Continuous
 62
     7
370
    15
100
AcDbLine
 10
2064.846261968588
 20
1308.060982065662
 30
0.0
 11
2064.846261968588
 21
1306.236202596553
 31
0.0
1001
AcDbBlockRepETag
1070
     1
1071
        6
1005
5BD
  0
LINE
  5
5BE
330
3EF
100
AcDbEntity
  8
0
  6
Continuous
 62
     7
370
    15
100
AcDbLine
 10
2050.646261968589
 20
1308.060982065662
 30
0.0
 11
2050.646261968588
 21
1308.544427620631
 31
0.0
1001
AcDbBlockRepETag
1070
     1
1071
        7
1005
5BE
  0
LINE
  5
5BF
330
3EF
100
AcDbEntity
  8
0
  6
Continuous
 62
     7
370
    15
100
AcDbLine
 10
2064.846261968588
 20
1308.060982065662
 30
0.0
 11
2064.846261968588
 21
1308.544427620631
 31
0.0
1001
AcDbBlockRepETag
1070
     1
1071
        8
1005
5BF
  0
LINE
  5
5C0
330
3EF
100
AcDbEntity
  8
0
  6
Continuous
 62
     7
370
    15
100
AcDbLine
 10
2050.646261968588
 20
1305.236202596552
 30
0.0
 11
2064.846261968588
 21
1305.236202596552
 31
0.0
1001
AcDbBlockRepETag
1070
     1
1071
        9
1005
5C0
  0
LINE
  5
5C1
330
3EF
100
AcDbEntity
  8
0
  6
Continuous
 62
     7
370
    15
100
AcDbLine
 10
2064.846261968588
 20
1305.236202596552
 30
0.0
 11
2064.846261968588
 21
1306.236202596553
 31
0.0
1001
AcDbBlockRepETag
1070
     1
1071
       10
1005
5C1
  0
LINE
  5
5C2
330
3EF
100
AcDbEntity
  8
0
  6
Continuous
 62
     7
370
    15
100
AcDbLine
 10
2050.646261968588
 20
1305.236202596552
 30
0.0
 11
2050.646261968589
 21
1306.236202596553
 31
0.0
1001
AcDbBlockRepETag
1070
     1
1071
       11
1005
5C2
  0
LINE
  5
5C3
330
3EF
100
AcDbEntity
  8
0
  6
Continuous
 62
     7
370
    15
100
AcDbLine
 10
2050.646261968588
 20
1315.774763379887
 30
0.0
 11
2064.846261968588
 21
1315.774763379887
 31
0.0
1001
AcDbBlockRepETag
1070
     1
1071
       12
1005
5C3
  0
LINE
  5
5C4
330
3EF
100
AcDbEntity
  8
0
  6
Continuous
 62
     7
370
    15
100
AcDbLine
 10
2064.846261968588
 20
1315.774763379887
 30
0.0
 11
2064.846261968587
 21
1319.137145823815
 31
0.0
1001
AcDbBlockRepETag
1070
     1
1071
       13
1005
5C4
  0
LINE
  5
5C5
330
3EF
100
AcDbEntity
  8
0
  6
Continuous
 62
     7
370
    15
100
AcDbLine
 10
2050.646261968588
 20
1315.774763379887
 30
0.0
 11
2050.646261968587
 21
1319.137145823815
 31
0.0
1001
AcDbBlockRepETag
1070
     1
1071
       14
1005
5C5
  0
LINE
  5
5C6
330
3EF
100
AcDbEntity
  8
0
  6
Continuous
 62
     7
370
    15
100
AcDbLine
 10
2064.846261968588
 20
1315.774763379887
 30
0.0
 11
2064.846261968588
 21
1308.544427620631
 31
0.0
1001
AcDbBlockRepETag
1070
     1
1071
       15
1005
5C6
  0
LINE
  5
5C7
330
3EF
100
AcDbEntity
  8
0
  6
Continuous
 62
     7
370
    15
100
AcDbLine
 10
2050.646261968588
 20
1315.774763379887
 30
0.0
 11
2050.646261968588
 21
1308.544427620631
 31
0.0
1001
AcDbBlockRepETag
1070
     1
1071
       16
1005
5C7
  0
LINE
  5
5C8
330
3EF
100
AcDbEntity
  8
0
  6
Continuous
 62
     7
370
    15
100
AcDbLine
 10
2050.646261968588
 20
1304.286202596551
 30
0.0
 11
2064.846261968588
 21
1304.286202596551
 31
0.0
1001
AcDbBlockRepETag
1070
     1
1071
       17
1005
5C8
  0
LINE
  5
5C9
330
3EF
100
AcDbEntity
  8
0
  6
Continuous
 62
     7
370
    15
100
AcDbLine
 10
2064.846261968588
 20
1305.236202596552
 30
0.0
 11
2064.846261968588
 21
1304.286202596551
 31
0.0
1001
AcDbBlockRepETag
1070
     1
1071
       18
1005
5C9
  0
LINE
  5
5CA
330
3EF
100
AcDbEntity
  8
0
  6
Continuous
 62
     7
370
    15
100
AcDbLine
 10
2050.646261968588
 20
1305.236202596552
 30
0.0
 11
2050.646261968588
 21
1304.286202596551
 31
0.0
1001
AcDbBlockRepETag
1070
     1
1071
       19
1005
5CA
  0
LINE
  5
5CB
330
3EF
100
AcDbEntity
  8
0
  6
Continuous
 62
     7
370
    15
100
AcDbLine
 10
2064.846261968588
 20
1303.336202596552
 30
0.0
 11
2064.846261968588
 21
1304.286202596551
 31
0.0
1001
AcDbBlockRepETag
1070
     1
1071
       20
1005
5CB
  0
LINE
  5
5CC
330
3EF
100
AcDbEntity
  8
0
  6
Continuous
 62
     7
370
    15
100
AcDbLine
 10
2050.646261968588
 20
1303.336202596552
 30
0.0
 11
2050.646261968588
 21
1304.286202596551
 31
0.0
1001
AcDbBlockRepETag
1070
     1
1071
       21
1005
5CC
  0
LINE
  5
5CD
330
3EF
100
AcDbEntity
  8
0
  6
Continuous
 62
     7
370
    15
100
AcDbLine
 10
2065.296261968589
 20
1300.436329468983
 30
0.0
 11
2065.296261968589
 21
1318.636329468982
 31
0.0
1001
AcDbBlockRepETag
1070
     1
1071
       22
1005
5CD
  0
LINE
  5
5CE
330
3EF
100
AcDbEntity
  8
0
  6
Continuous
 62
     7
370
    15
100
AcDbLine
 10
2065.296261968588
 20
1318.636329468982
 30
0.0
 11
2069.895036066741
 21
1318.636329468982
 31
0.0
1001
AcDbBlockRepETag
1070
     1
1071
       23
1005
5CE
  0
LINE
  5
5CF
330
3EF
100
AcDbEntity
  8
0
  6
Continuous
 62
     7
370
    15
100
AcDbLine
 10
2069.895036066741
 20
1300.436329468983
 30
0.0
 11
2069.895036066741
 21
1318.636329468982
 31
0.0
1001
AcDbBlockRepETag
1070
     1
1071
       24
1005
5CF
  0
LINE
  5
5D0
330
3EF
100
AcDbEntity
  8
0
  6
Continuous
 62
     7
370
    15
100
AcDbLine
 10
2069.895036066741
 20
1300.436329468983
 30
0.0
 11
2065.296261968588
 21
1300.436329468983
 31
0.0
1001
AcDbBlockRepETag
1070
     1
1071
       25
1005
5D0
  0
LINE
  5
5D1
330
3EF
100
AcDbEntity
  8
0
  6
Continuous
 62
     7
370
    15
100
AcDbLine
 10
2045.599666949273
 20
1318.636329468982
 30
0.0
 11
2045.599666949273
 21
1300.436329468983
 31
0.0
1001
AcDbBlockRepETag
1070
     1
1071
       26
1005
5D1
  0
LINE
  5
5D2
330
3EF
100
AcDbEntity
  8
0
  6
Continuous
 62
     7
370
    15
100
AcDbLine
 10
2045.599666949273
 20
1318.636329468982
 30
0.0
 11
2050.198579864299
 21
1318.636329468982
 31
0.0
1001
AcDbBlockRepETag
1070
     1
1071
       27
1005
5D2
  0
LINE
  5
5D3
330
3EF
100
AcDbEntity
  8
0
  6
Continuous
 62
     7
370
    15
100
AcDbLine
 10
2050.198579864299
 20
1300.436329468983
 30
0.0
 11
2050.198579864299
 21
1318.636329468982
 31
0.0
1001
AcDbBlockRepETag
1070
     1
1071
       28
1005
5D3
  0
LINE
  5
5D4
330
3EF
100
AcDbEntity
  8
0
  6
Continuous
 62
     7
370
    15
100
AcDbLine
 10
2050.198579864299
 20
1300.436329468983
 30
0.0
 11
2045.599666949273
 21
1300.436329468983
 31
0.0
1001
AcDbBlockRepETag
1070
     1
1071
       29
1005
5D4
  0
LINE
  5
5D5
330
3EF
100
AcDbEntity
  8
0
  6
Continuous
 62
     7
370
    15
100
AcDbLine
 10
2050.646261968583
 20
1315.636329468983
 30
0.0
 11
2050.198579864299
 21
1315.636329468983
 31
0.0
1001
AcDbBlockRepETag
1070
     1
1071
       30
1005
5D5
  0
LINE
  5
5D6
330
3EF
100
AcDbEntity
  8
0
  6
Continuous
 62
     7
370
    15
100
AcDbLine
 10
2064.846261968583
 20
1315.636329468983
 30
0.0
 11
2065.296261968589
 21
1315.636329468983
 31
0.0
1001
AcDbBlockRepETag
1070
     1
1071
       31
1005
5D6
  0
LINE
  5
5D7
330
3EF
100
AcDbEntity
  8
0
  6
Continuous
 62
     7
370
    15
100
AcDbLine
 10
2050.198579864299
 20
1309.536329468983
 30
0.0
 11
2050.646261968583
 21
1309.536329468983
 31
0.0
1001
AcDbBlockRepETag
1070
     1
1071
       32
1005
5D7
  0
LINE
  5
5D8
330
3EF
100
AcDbEntity
  8
0
  6
Continuous
 62
     7
370
    15
100
AcDbLine
 10
2064.846261968583
 20
1309.536329468983
 30
0.0
 11
2065.296261968589
 21
1309.536329468983
 31
0.0
1001
AcDbBlockRepETag
1070
     1
1071
       33
1005
5D8
  0
LINE
  5
5D9
330
3EF
100
AcDbEntity
  8
0
  6
Continuous
 62
     7
370
    15
100
AcDbLine
 10
2048.998579864299
 20
1300.436329468983
 30
0.0
 11
2048.998579864299
 21
1297.936329468983
 31
0.0
1001
AcDbBlockRepETag
1070
     1
1071
       34
1005
5D9
  0
LINE
  5
5DA
330
3EF
100
AcDbEntity
  8
0
  6
Continuous
 62
     7
370
    15
100
AcDbLine
 10
2066.498579864299
 20
1300.436329468983
 30
0.0
 11
2066.498579864299
 21
1297.936329468983
 31
0.0
1001
AcDbBlockRepETag
1070
     1
1071
       35
1005
5DA
  0
LINE
  5
5DB
330
3EF
100
AcDbEntity
  8
0
  6
Continuous
 62
     7
370
    15
100
AcDbLine
 10
2066.498579864299
 20
1297.936329468983
 30
0.0
 11
2048.998579864299
 21
1297.936329468983
 31
0.0
1001
AcDbBlockRepETag
1070
     1
1071
       36
1005
5DB
  0
LINE
  5
5DC
330
3EF
100
AcDbEntity
  8
0
  6
Continuous
 62
     7
370
    15
100
AcDbLine
 10
2069.895036066741
 20
1300.436329468983
 30
0.0
 11
2069.897492779326
 21
1300.436329468983
 31
0.0
1001
AcDbBlockRepETag
1070
     1
1071
       37
1005
5DC
  0
LINE
  5
5DD
330
3EF
100
AcDbEntity
  8
0
  6
Continuous
 62
     7
370
    15
100
AcDbLine
 10
2069.897492779326
 20
1300.436329468983
 30
0.0
 11
2069.897492779326
 21
1318.636329468982
 31
0.0
1001
AcDbBlockRepETag
1070
     1
1071
       38
1005
5DD
  0
LINE
  5
5DE
330
3EF
100
AcDbEntity
  8
0
  6
Continuous
 62
     7
370
    15
100
AcDbLine
 10
2069.897492779326
 20
1318.636329468982
 30
0.0
 11
2069.895036066741
 21
1318.636329468982
 31
0.0
1001
AcDbBlockRepETag
1070
     1
1071
       39
1005
5DE
  0
ENDBLK
  5
3F1
330
3EF
100
AcDbEntity
  8
0
100
AcDbBlockEnd
  0
BLOCK
  5
41C
330
41B
100
AcDbEntity
  8
0
100
AcDbBlockBegin
  2
2
 70
     0
 10
0.0
 20
0.0
 30
0.0
  3
2
  1

  0
LINE
  5
6BA
330
41B
100
AcDbEntity
  8
0
  6
Continuous
 62
     7
370
    15
100
AcDbLine
 10
2025.35448139858
 20
1300.436329468983
 30
0.0
 11
2025.35448139858
 21
1318.636329468982
 31
0.0
1001
AcDbBlockRepETag
1070
     1
1071
        0
1005
6BA
  0
LINE
  5
6BB
330
41B
100
AcDbEntity
  8
0
  6
Continuous
 62
     7
370
    15
100
AcDbLine
 10
2025.35448139858
 20
1318.636329468982
 30
0.0
 11
2029.953444130164
 21
1318.636329468982
 31
0.0
1001
AcDbBlockRepETag
1070
     1
1071
        1
1005
6BB
  0
LINE
  5
6BC
330
41B
100
AcDbEntity
  8
0
  6
Continuous
 62
     7
370
    15
100
AcDbLine
 10
2029.953444130164
 20
1300.436329468983
 30
0.0
 11
2029.953444130164
 21
1318.636329468982
 31
0.0
1001
AcDbBlockRepETag
1070
     1
1071
        2
1005
6BC
  0
LINE
  5
6BD
330
41B
100
AcDbEntity
  8
0
  6
Continuous
 62
     7
370
    15
100
AcDbLine
 10
2029.953444130164
 20
1300.436329468983
 30
0.0
 11
2025.35448139858
 21
1300.436329468983
 31
0.0
1001
AcDbBlockRepETag
1070
     1
1071
        3
1005
6BD
  0
LINE
  5
6BE
330
41B
100
AcDbEntity
  8
0
  6
Continuous
 62
     7
370
    15
100
AcDbLine
 10
2005.650919373404
 20
1300.436329468983
 30
0.0
 11
2005.650919373404
 21
1318.636329468982
 31
0.0
1001
AcDbBlockRepETag
1070
     1
1071
        4
1005
6BE
  0
LINE
  5
6BF
330
41B
100
AcDbEntity
  8
0
  6
Continuous
 62
     7
370
    15
100
AcDbLine
 10
2010.25448139858
 20
1300.436329468983
 30
0.0
 11
2005.650919373404
 21
1300.436329468983
 31
0.0
1001
AcDbBlockRepETag
1070
     1
1071
        5
1005
6BF
  0
LINE
  5
6C0
330
41B
100
AcDbEntity
  8
0
  6
Continuous
 62
     7
370
    15
100
AcDbLine
 10
2010.25448139858
 20
1300.436329468983
 30
0.0
 11
2010.25448139858
 21
1318.636329468982
 31
0.0
1001
AcDbBlockRepETag
1070
     1
1071
        6
1005
6C0
  0
LINE
  5
6C1
330
41B
100
AcDbEntity
  8
0
  6
Continuous
 62
     7
370
    15
100
AcDbLine
 10
2005.650919373404
 20
1318.636329468982
 30
0.0
 11
2010.25448139858
 21
1318.636329468982
 31
0.0
1001
AcDbBlockRepETag
1070
     1
1071
        7
1005
6C1
  0
LINE
  5
6C2
330
41B
100
AcDbEntity
  8
0
  6
Continuous
 62
     7
370
    15
100
AcDbLine
 10
2014.55448139858
 20
1310.536329468983
 30
0.0
 11
2021.05448139858
 21
1310.536329468983
 31
0.0
1001
AcDbBlockRepETag
1070
     1
1071
        8
1005
6C2
  0
LINE
  5
6C3
330
41B
100
AcDbEntity
  8
0
  6
Continuous
 62
     7
370
    15
100
AcDbLine
 10
2021.05448139858
 20
1310.536329468983
 30
0.0
 11
2021.05448139858
 21
1313.536329468983
 31
0.0
1001
AcDbBlockRepETag
1070
     1
1071
        9
1005
6C3
  0
LINE
  5
6C4
330
41B
100
AcDbEntity
  8
0
  6
Continuous
 62
     7
370
    15
100
AcDbLine
 10
2021.05448139858
 20
1313.536329468983
 30
0.0
 11
2023.25448139858
 21
1313.536329468983
 31
0.0
1001
AcDbBlockRepETag
1070
     1
1071
       10
1005
6C4
  0
LINE
  5
6C5
330
41B
100
AcDbEntity
  8
0
  6
Continuous
 62
     7
370
    15
100
AcDbLine
 10
2023.25448139858
 20
1315.636329468982
 30
0.0
 11
2023.25448139858
 21
1313.536329468983
 31
0.0
1001
AcDbBlockRepETag
1070
     1
1071
       11
1005
6C5
  0
LINE
  5
6C6
330
41B
100
AcDbEntity
  8
0
  6
Continuous
 62
     7
370
    15
100
AcDbLine
 10
2010.25448139858
 20
1315.636329468983
 30
0.0
 11
2012.354481398579
 21
1315.636329468983
 31
0.0
1001
AcDbBlockRepETag
1070
     1
1071
       12
1005
6C6
  0
LINE
  5
6C7
330
41B
100
AcDbEntity
  8
0
  6
Continuous
 62
     7
370
    15
100
AcDbLine
 10
2012.354481398579
 20
1315.636329468983
 30
0.0
 11
2012.354481398579
 21
1313.536329468983
 31
0.0
1001
AcDbBlockRepETag
1070
     1
1071
       13
1005
6C7
  0
LINE
  5
6C8
330
41B
100
AcDbEntity
  8
0
  6
Continuous
 62
     7
370
    15
100
AcDbLine
 10
2012.354481398579
 20
1313.536329468983
 30
0.0
 11
2014.55448139858
 21
1313.536329468983
 31
0.0
1001
AcDbBlockRepETag
1070
     1
1071
       14
1005
6C8
  0
LINE
  5
6C9
330
41B
100
AcDbEntity
  8
0
  6
Continuous
 62
     7
370
    15
100
AcDbLine
 10
2014.55448139858
 20
1313.536329468983
 30
0.0
 11
2014.55448139858
 21
1310.536329468983
 31
0.0
1001
AcDbBlockRepETag
1070
     1
1071
       15
1005
6C9
  0
LINE
  5
6CA
330
41B
100
AcDbEntity
  8
0
  6
Continuous
 62
     7
370
    15
100
AcDbLine
 10
2010.25448139858
 20
1309.536329468982
 30
0.0
 11
2025.35448139858
 21
1309.536329468982
 31
0.0
1001
AcDbBlockRepETag
1070
     1
1071
       16
1005
6CA
  0
LINE
  5
6CB
330
41B
100
AcDbEntity
  8
0
  6
Continuous
 62
     7
370
    15
100
AcDbLine
 10
2025.35448139858
 20
1315.636329468982
 30
0.0
 11
2023.25448139858
 21
1315.636329468982
 31
0.0
1001
AcDbBlockRepETag
1070
     1
1071
       17
1005
6CB
  0
LINE
  5
6CC
330
41B
100
AcDbEntity
  8
0
  6
Continuous
 62
     7
370
    15
100
AcDbLine
 10
2020.804481398579
 20
1304.536329468983
 30
0.0
 11
2014.804481398579
 21
1304.536329468983
 31
0.0
1001
AcDbBlockRepETag
1070
     1
1071
       18
1005
6CC
  0
ARC
  5
6CD
330
41B
100
AcDbEntity
  8
0
  6
Continuous
 62
     7
370
    15
100
AcDbCircle
 10
2014.804481398579
 20
1305.036329468983
 30
0.0
 40
0.5000000000000285
100
AcDbArc
 50
90.0
 51
270.0
1001
AcDbBlockRepETag
1070
     1
1071
       19
1005
6CD
  0
LINE
  5
6CE
330
41B
100
AcDbEntity
  8
0
  6
Continuous
 62
     7
370
    15
100
AcDbLine
 10
2014.804481398579
 20
1305.536329468983
 30
0.0
 11
2020.804481398579
 21
1305.536329468983
 31
0.0
1001
AcDbBlockRepETag
1070
     1
1071
       20
1005
6CE
  0
ARC
  5
6CF
330
41B
100
AcDbEntity
  8
0
  6
Continuous
 62
     7
370
    15
100
AcDbCircle
 10
2020.804481398579
 20
1305.036329468983
 30
0.0
 40
0.5
100
AcDbArc
 50
270.0
 51
90.0
1001
AcDbBlockRepETag
1070
     1
1071
       21
1005
6CF
  0
LINE
  5
6D0
330
41B
100
AcDbEntity
  8
0
  6
Continuous
 62
     7
370
    15
100
AcDbLine
 10
2026.55318259045
 20
1300.436329468983
 30
0.0
 11
2026.55318259045
 21
1297.936329468983
 31
0.0
1001
AcDbBlockRepETag
1070
     1
1071
       22
1005
6D0
  0
LINE
  5
6D1
330
41B
100
AcDbEntity
  8
0
  6
Continuous
 62
     7
370
    15
100
AcDbLine
 10
2009.055780206711
 20
1300.436329468983
 30
0.0
 11
2009.055780206711
 21
1297.936329468983
 31
0.0
1001
AcDbBlockRepETag
1070
     1
1071
       23
1005
6D1
  0
LINE
  5
6D2
330
41B
100
AcDbEntity
  8
0
  6
Continuous
 62
     7
370
    15
100
AcDbLine
 10
2026.55318259045
 20
1297.936329468983
 30
0.0
 11
2009.055780206711
 21
1297.936329468983
 31
0.0
1001
AcDbBlockRepETag
1070
     1
1071
       24
1005
6D2
  0
LINE
  5
6D3
330
41B
100
AcDbEntity
  8
0
  6
Continuous
 62
     7
370
    15
100
AcDbLine
 10
2025.303781685312
 20
1317.12234976944
 30
0.0
 11
2025.35448139858
 21
1317.141190201953
 31
0.0
1001
AcDbBlockRepETag
1070
     1
1071
       25
1005
6D3
  0
SPLINE
  5
6D4
330
41B
100
AcDbEntity
  8
0
  6
Continuous
 62
     7
370
    15
100
AcDbSpline
210
0.0
220
0.0
230
1.0
 70
     8
 71
     3
 72
     9
 73
     5
 74
     0
 42
0.0000000001
 43
0.0000000001
 40
0.0
 40
0.0
 40
0.0
 40
0.0
 40
0.4974436865615206
 40
1.0
 40
1.0
 40
1.0
 40
1.0
 10
2025.303781685312
 20
1317.12234976944
 30
0.0
 10
2024.007387494921
 20
1316.57060242592
 30
0.0
 10
2021.401275033523
 20
1315.46143698986
 30
0.0
 10
2018.576929029245
 20
1315.245610692273
 30
0.0
 10
2016.637536113459
 20
1315.137145823815
 30
0.0
1001
AcDbBlockRepETag
1070
     1
1071
       26
1005
6D4
  0
SPLINE
  5
6D5
330
41B
100
AcDbEntity
  8
0
  6
Continuous
 62
     7
370
    15
100
AcDbSpline
210
0.0
220
0.0
230
1.0
 70
     8
 71
     3
 72
    13
 73
     9
 74
     0
 42
0.0000000001
 43
0.0000000001
 40
0.0926256371449739
 40
0.0926256371449739
 40
0.0926256371449739
 40
0.0926256371449739
 40
0.1573289159133333
 40
0.3208180871214233
 40
0.4837607849140048
 40
0.6549475402502222
 40
0.8271264451125205
 40
1.0
 40
1.0
 40
1.0
 40
1.0
 10
2010.254481398587
 20
1316.396053826224
 30
0.0
 10
2010.399207658771
 20
1316.339516777816
 30
0.0
 10
2010.910951936725
 20
1316.143586789862
 30
0.0
 10
2011.801773558762
 20
1315.843300482571
 30
0.0
 10
2012.962323853889
 20
1315.552253302691
 30
0.0
 10
2014.164124471498
 20
1315.360516744258
 30
0.0
 10
2015.397375681004
 20
1315.231836301424
 30
0.0
 10
2016.223594862141
 20
1315.168751649774
 30
0.0
 10
2016.637536113459
 20
1315.137145823815
 30
0.0
1001
AcDbBlockRepETag
1070
     1
1071
       27
1005
6D5
  0
ARC
  5
6D6
330
41B
100
AcDbEntity
  8
0
  6
Continuous
 62
     7
370
    15
100
AcDbCircle
 10
2006.007848062267
 20
1304.286202596552
 30
0.0
 40
0.9499999999999957
100
AcDbArc
 50
180.0000000000521
 51
247.9315254242581
1001
AcDbBlockRepETag
1070
     1
1071
       28
1005
6D6
  0
LINE
  5
6D7
330
41B
100
AcDbEntity
  8
0
  6
Continuous
 62
     7
370
    15
100
AcDbLine
 10
2005.02813050538
 20
1305.236202596552
 30
0.0
 11
2005.057848062267
 21
1304.286202596551
 31
0.0
1001
AcDbBlockRepETag
1070
     1
1071
       29
1005
6D7
  0
LINE
  5
6D8
330
41B
100
AcDbEntity
  8
0
  6
Continuous
 62
     7
370
    15
100
AcDbLine
 10
2005.02813050538
 20
1305.236202596552
 30
0.0
 11
2003.674745200811
 21
1305.236202596552
 31
0.0
1001
AcDbBlockRepETag
1070
     1
1071
       30
1005
6D8
  0
ARC
  5
6D9
330
41B
100
AcDbEntity
  8
0
  6
Continuous
 62
     7
370
    15
100
AcDbCircle
 10
2003.674745200811
 20
1306.236202596552
 30
0.0
 40
1.000000000000028
100
AcDbArc
 50
179.9999999999348
 51
270.0
1001
AcDbBlockRepETag
1070
     1
1071
       31
1005
6D9
  0
LINE
  5
6DA
330
41B
100
AcDbEntity
  8
0
  6
Continuous
 62
     7
370
    15
100
AcDbLine
 10
2002.649961342701
 20
1308.060982065662
 30
0.0
 11
2002.67474520081
 21
1306.236202596553
 31
0.0
1001
AcDbBlockRepETag
1070
     1
1071
       32
1005
6DA
  0
ARC
  5
6DB
330
41B
100
AcDbEntity
  8
0
  6
Continuous
 62
     7
370
    15
100
AcDbCircle
 10
2003.195918872691
 20
1307.994428532103
 30
0.0
 40
0.549999088528819
100
AcDbArc
 50
0.147517272994517
 51
173.0497986733065
1001
AcDbBlockRepETag
1070
     1
1071
       33
1005
6DB
  0
LINE
  5
6DC
330
41B
100
AcDbEntity
  8
0
  6
Continuous
 62
     7
370
    15
100
AcDbLine
 10
2003.745916138281
 20
1307.995844592356
 30
0.0
 11
2003.746309961653
 21
1307.842883744006
 31
0.0
1001
AcDbBlockRepETag
1070
     1
1071
       34
1005
6DC
  0
ARC
  5
6DD
330
41B
100
AcDbEntity
  8
0
  6
Continuous
 62
     7
370
    15
100
AcDbCircle
 10
2004.34630697866
 20
1307.84442853701
 30
0.0
 40
0.5999990056678031
100
AcDbArc
 50
180.1475172730075
 51
2.59197249168293
1001
AcDbBlockRepETag
1070
     1
1071
       35
1005
6DD
  0
LINE
  5
6DE
330
41B
100
AcDbEntity
  8
0
  6
Continuous
 62
     7
370
    15
100
AcDbLine
 10
2004.698467053184
 20
1315.774763379887
 30
0.0
 11
2004.945692134725
 21
1307.871562307321
 31
0.0
1001
AcDbBlockRepETag
1070
     1
1071
       36
1005
6DE
  0
ARC
  5
6DF
330
41B
100
AcDbEntity
  8
0
  6
Continuous
 62
     7
370
    15
100
AcDbCircle
 10
2007.946523423738
 20
1315.887145823814
 30
0.0
 40
3.249999999999985
100
AcDbArc
 50
134.9378788821454
 51
181.9816380419293
1001
AcDbBlockRepETag
1070
     1
1071
       37
1005
6DF
  0
ARC
  5
6E0
330
41B
100
AcDbEntity
  8
0
  6
Continuous
 62
     7
370
    15
100
AcDbCircle
 10
2007.946523423738
 20
1315.887145823814
 30
0.0
 40
3.249999999999984
100
AcDbArc
 50
66.45112624790029
 51
122.2312222088015
1001
AcDbBlockRepETag
1070
     1
1071
       38
1005
6E0
  0
SPLINE
  5
6E1
330
41B
100
AcDbEntity
  8
0
  6
Continuous
 62
     7
370
    15
100
AcDbSpline
210
0.0
220
0.0
230
1.0
 70
     8
 71
     3
 72
    18
 73
    14
 74
     0
 42
0.0000000001
 43
0.0000000001
 40
0.0
 40
0.0
 40
0.0
 40
0.0
 40
1.072232776561035
 40
1.072232776561035
 40
3.216698329683107
 40
3.216698329683107
 40
4.15437292759695
 40
4.15437292759695
 40
5.662681964847656
 40
5.662681964847656
 40
7.170991002098363
 40
7.170991002098363
 40
8.323304406583416
 40
8.323304406583416
 40
8.323304406583416
 40
8.323304406583416
 10
2009.244999769274
 20
1318.866484539047
 30
0.0
 10
2009.537385779194
 20
1318.741790127929
 30
0.0
 10
2009.862606691793
 20
1318.603129908578
 30
0.0
 10
2010.822596152611
 20
1318.20538246944
 30
0.0
 10
2011.441733334062
 20
1317.965004002231
 30
0.0
 10
2012.307280339002
 20
1317.688495228702
 30
0.0
 10
2012.567349799329
 20
1317.613452432597
 30
0.0
 10
2013.238541295633
 20
1317.44514276768
 30
0.0
 10
2013.666512825082
 20
1317.363996949209
 30
0.0
 10
2014.562870787948
 20
1317.230866289511
 30
0.0
 10
2015.02876624722
 20
1317.17946927494
 30
0.0
 10
2015.87729634095
 20
1317.10165167276
 30
0.0
 10
2016.253599888227
 20
1317.072175130773
 30
0.0
 10
2016.637536113459
 20
1317.042712192708
 30
0.0
1001
AcDbBlockRepETag
1070
     1
1071
       39
1005
6E1
  0
SPLINE
  5
6E2
330
41B
100
AcDbEntity
  8
0
  6
Continuous
 62
     7
370
    15
100
AcDbSpline
210
0.0
220
0.0
230
1.0
 70
     8
 71
     3
 72
    18
 73
    14
 74
     0
 42
0.0000000001
 43
0.0000000001
 40
0.0
 40
0.0
 40
0.0
 40
0.0
 40
1.072232776561035
 40
1.072232776561035
 40
3.216698329683107
 40
3.216698329683107
 40
4.15437292759695
 40
4.15437292759695
 40
5.662681964847656
 40
5.662681964847656
 40
7.170991002098363
 40
7.170991002098363
 40
8.323304406583389
 40
8.323304406583389
 40
8.323304406583389
 40
8.323304406583389
 10
2024.550072457643
 20
1318.866484539046
 30
0.0
 10
2024.257686447724
 20
1318.741790127929
 30
0.0
 10
2023.932465535125
 20
1318.603129908578
 30
0.0
 10
2022.972476074308
 20
1318.20538246944
 30
0.0
 10
2022.353338892856
 20
1317.96500400223
 30
0.0
 10
2021.487791887916
 20
1317.688495228701
 30
0.0
 10
2021.227722427589
 20
1317.613452432597
 30
0.0
 10
2020.556530931286
 20
1317.445142767679
 30
0.0
 10
2020.128559401836
 20
1317.363996949209
 30
0.0
 10
2019.232201438971
 20
1317.230866289511
 30
0.0
 10
2018.766305979699
 20
1317.179469274939
 30
0.0
 10
2017.917775885968
 20
1317.10165167276
 30
0.0
 10
2017.541472338692
 20
1317.072175130772
 30
0.0
 10
2016.637536113459
 20
1317.042712192708
 30
0.0
1001
AcDbBlockRepETag
1070
     1
1071
       40
1005
6E2
  0
ARC
  5
6E3
330
41B
100
AcDbEntity
  8
0
  6
Continuous
 62
     7
370
    15
100
AcDbCircle
 10
2025.84854880318
 20
1315.887145823814
 30
0.0
 40
3.250000000000028
100
AcDbArc
 50
57.76877779119849
 51
113.5488737521288
1001
AcDbBlockRepETag
1070
     1
1071
       41
1005
6E3
  0
ENDBLK
  5
41D
330
41B
100
AcDbEntity
  8
0
100
AcDbBlockEnd
  0
BLOCK
  5
44A
330
449
100
AcDbEntity
  8
0
100
AcDbBlockBegin
  2
3
 70
     0
 10
0.0
 20
0.0
 30
0.0
  3
3
  1

  0
LINE
  5
634
330
449
100
AcDbEntity
  8
0
  6
Continuous
 62
     7
370
    15
100
AcDbLine
 10
2064.846261968583
 20
1284.446697476941
 30
0.0
 11
2050.646261968583
 21
1284.446697476937
 31
0.0
1001
AcDbBlockRepETag
1070
     1
1071
        0
1005
634
  0
LINE
  5
635
330
449
100
AcDbEntity
  8
0
  6
Continuous
 62
     7
370
    15
100
AcDbLine
 10
2050.646261968588
 20
1260.044672097495
 30
0.0
 11
2064.846261968588
 21
1260.044672097498
 31
0.0
1001
AcDbBlockRepETag
1070
     1
1071
        1
1005
635
  0
LINE
  5
636
330
449
100
AcDbEntity
  8
0
  6
Continuous
 62
     7
370
    15
100
AcDbLine
 10
2050.646261968587
 20
1264.593148443031
 30
0.0
 11
2064.846261968587
 21
1264.593148443034
 31
0.0
1001
AcDbBlockRepETag
1070
     1
1071
        2
1005
636
  0
SPLINE
  5
637
330
449
100
AcDbEntity
  8
0
  6
Continuous
 62
     7
370
    15
100
AcDbSpline
210
0.0
220
0.0
230
1.0
 70
    24
 71
     3
 72
    14
 73
    10
 74
     0
 42
0.0000000001
 43
0.0000000001
 40
0.0
 40
0.0
 40
0.0
 40
0.0
 40
0.25
 40
0.25
 40
0.5
 40
0.5
 40
0.75
 40
0.75
 40
1.0
 40
1.0
 40
1.0
 40
1.0
 10
2050.646261968587
 20
1265.113148443031
 30
0.0
 10
2050.646261968587
 20
1265.701666181326
 30
0.0
 10
2050.646261968587
 20
1266.290211977384
 30
0.0
 10
2050.646261968586
 20
1267.485107704787
 30
0.0
 10
2050.646261968586
 20
1268.09002017886
 30
0.0
 10
2050.646261968586
 20
1269.331250882144
 30
0.0
 10
2050.646261968586
 20
1269.964451474043
 30
0.0
 10
2050.646261968585
 20
1271.23199226828
 30
0.0
 10
2050.646261968585
 20
1271.868771274654
 30
0.0
 10
2050.646261968585
 20
1272.505684787216
 30
0.0
1001
AcDbBlockRepETag
1070
     1
1071
        3
1005
637
  0
LINE
  5
638
330
449
100
AcDbEntity
  8
0
  6
Continuous
 62
     7
370
    15
100
AcDbLine
 10
2050.646261968585
 20
1272.505684787216
 30
0.0
 11
2064.846261968585
 21
1272.505684787219
 31
0.0
1001
AcDbBlockRepETag
1070
     1
1071
        4
1005
638
  0
SPLINE
  5
639
330
449
100
AcDbEntity
  8
0
  6
Continuous
 62
     7
370
    15
100
AcDbSpline
210
0.0
220
0.0
230
1.0
 70
    24
 71
     3
 72
    18
 73
    14
 74
     0
 42
0.0000000001
 43
0.0000000001
 40
0.0
 40
0.0
 40
0.0
 40
0.0
 40
1.072232776561035
 40
1.072232776561035
 40
3.216698329683107
 40
3.216698329683107
 40
4.15437292759695
 40
4.15437292759695
 40
5.662681964847656
 40
5.662681964847656
 40
7.170991002098363
 40
7.170991002098363
 40
8.323304406583416
 40
8.323304406583416
 40
8.323304406583416
 40
8.323304406583416
 10
2064.846261968587
 20
1265.113148443034
 30
0.0
 10
2064.846261968587
 20
1265.405534452955
 30
0.0
 10
2064.846261968587
 20
1265.730755365553
 30
0.0
 10
2064.846261968587
 20
1266.690744826371
 30
0.0
 10
2064.846261968587
 20
1267.309882007822
 30
0.0
 10
2064.846261968586
 20
1268.175429012763
 30
0.0
 10
2064.846261968586
 20
1268.435498473089
 30
0.0
 10
2064.846261968586
 20
1269.106689969392
 30
0.0
 10
2064.846261968586
 20
1269.534661498842
 30
0.0
 10
2064.846261968586
 20
1270.431019461708
 30
0.0
 10
2064.846261968586
 20
1270.89691492098
 30
0.0
 10
2064.846261968585
 20
1271.74544501471
 30
0.0
 10
2064.846261968585
 20
1272.121748561987
 30
0.0
 10
2064.846261968585
 20
1272.505684787219
 30
0.0
1001
AcDbBlockRepETag
1070
     1
1071
        5
1005
639
  0
LINE
  5
63A
330
449
100
AcDbEntity
  8
0
  6
Continuous
 62
     7
370
    15
100
AcDbLine
 10
2050.646261968584
 20
1279.8982211314
 30
0.0
 11
2064.846261968583
 21
1279.898221131403
 31
0.0
1001
AcDbBlockRepETag
1070
     1
1071
        6
1005
63A
  0
LINE
  5
63B
330
449
100
AcDbEntity
  8
0
  6
Continuous
 62
     7
370
    15
100
AcDbLine
 10
2064.846261968583
 20
1279.898221131403
 30
0.0
 11
2064.846261968583
 21
1284.446697476941
 31
0.0
1001
AcDbBlockRepETag
1070
     1
1071
        7
1005
63B
  0
LINE
  5
63C
330
449
100
AcDbEntity
  8
0
  6
Continuous
 62
     7
370
    15
100
AcDbLine
 10
2050.646261968584
 20
1279.8982211314
 30
0.0
 11
2050.646261968583
 21
1284.446697476937
 31
0.0
1001
AcDbBlockRepETag
1070
     1
1071
        8
1005
63C
  0
LINE
  5
63D
330
449
100
AcDbEntity
  8
0
  6
Continuous
 62
     7
370
    15
100
AcDbLine
 10
2064.846261968588
 20
1260.044672097498
 30
0.0
 11
2064.846261968587
 21
1265.113148443034
 31
0.0
1001
AcDbBlockRepETag
1070
     1
1071
        9
1005
63D
  0
LINE
  5
63E
330
449
100
AcDbEntity
  8
0
  6
Continuous
 62
     7
370
    15
100
AcDbLine
 10
2050.646261968588
 20
1260.564672097495
 30
0.0
 11
2050.646261968587
 21
1265.113148443031
 31
0.0
1001
AcDbBlockRepETag
1070
     1
1071
       10
1005
63E
  0
SPLINE
  5
63F
330
449
100
AcDbEntity
  8
0
  6
Continuous
 62
     7
370
    15
100
AcDbSpline
210
0.0
220
0.0
230
1.0
 70
    24
 71
     3
 72
    18
 73
    14
 74
     0
 42
0.0000000001
 43
0.0000000001
 40
0.0
 40
0.0
 40
0.0
 40
0.0
 40
1.072232776561035
 40
1.072232776561035
 40
3.216698329683107
 40
3.216698329683107
 40
4.15437292759695
 40
4.15437292759695
 40
5.662681964847656
 40
5.662681964847656
 40
7.170991002098363
 40
7.170991002098363
 40
8.323304406583389
 40
8.323304406583389
 40
8.323304406583389
 40
8.323304406583389
 10
2064.846261968583
 20
1279.898221131403
 30
0.0
 10
2064.846261968583
 20
1279.605835121484
 30
0.0
 10
2064.846261968584
 20
1279.280614208885
 30
0.0
 10
2064.846261968584
 20
1278.320624748067
 30
0.0
 10
2064.846261968584
 20
1277.701487566616
 30
0.0
 10
2064.846261968584
 20
1276.835940561676
 30
0.0
 10
2064.846261968584
 20
1276.575871101349
 30
0.0
 10
2064.846261968584
 20
1275.904679605046
 30
0.0
 10
2064.846261968584
 20
1275.476708075596
 30
0.0
 10
2064.846261968585
 20
1274.580350112731
 30
0.0
 10
2064.846261968585
 20
1274.114454653459
 30
0.0
 10
2064.846261968585
 20
1273.265924559729
 30
0.0
 10
2064.846261968585
 20
1272.889621012452
 30
0.0
 10
2064.846261968585
 20
1272.505684787219
 30
0.0
1001
AcDbBlockRepETag
1070
     1
1071
       11
1005
63F
  0
SPLINE
  5
640
330
449
100
AcDbEntity
  8
0
  6
Continuous
 62
     7
370
    15
100
AcDbSpline
210
0.0
220
0.0
230
1.0
 70
    24
 71
     3
 72
    14
 73
    10
 74
     0
 42
0.0000000001
 43
0.0000000001
 40
0.0
 40
0.0
 40
0.0
 40
0.0
 40
0.25
 40
0.25
 40
0.5
 40
0.5
 40
0.75
 40
0.75
 40
1.0
 40
1.0
 40
1.0
 40
1.0
 10
2050.646261968584
 20
1279.8982211314
 30
0.0
 10
2050.646261968584
 20
1279.310089250972
 30
0.0
 10
2050.646261968584
 20
1278.721650455656
 30
0.0
 10
2050.646261968584
 20
1277.527936980353
 30
0.0
 10
2050.646261968584
 20
1276.923712443836
 30
0.0
 10
2050.646261968585
 20
1275.681214609164
 30
0.0
 10
2050.646261968585
 20
1275.050486539507
 30
0.0
 10
2050.646261968585
 20
1273.780757704362
 30
0.0
 10
2050.646261968585
 20
1273.143123776337
 30
0.0
 10
2050.646261968585
 20
1272.505684787216
 30
0.0
1001
AcDbBlockRepETag
1070
     1
1071
       12
1005
640
  0
ARC
  5
641
330
449
100
AcDbEntity
  8
0
  6
Continuous
 62
     7
370
    15
100
AcDbCircle
 10
2050.1985798643
 20
1280.702630072339
 30
0.0
 40
4.599999999999982
100
AcDbArc
 50
90.00000000000566
 51
179.9999999999745
1001
AcDbBlockRepETag
1070
     1
1071
       13
1005
641
  0
LINE
  5
642
330
449
100
AcDbEntity
  8
0
  6
Continuous
 62
     7
370
    15
100
AcDbLine
 10
2050.198579864299
 20
1280.80263007234
 30
0.0
 11
2050.198579864299
 21
1285.302630072338
 31
0.0
1001
AcDbBlockRepETag
1070
     1
1071
       14
1005
642
  0
LINE
  5
643
330
449
100
AcDbEntity
  8
0
  6
Continuous
 62
     7
370
    15
100
AcDbLine
 10
2045.5985798643
 20
1280.70263007234
 30
0.0
 11
2050.148579864299
 21
1280.70263007234
 31
0.0
1001
AcDbBlockRepETag
1070
     1
1071
       15
1005
643
  0
ARC
  5
644
330
449
100
AcDbEntity
  8
0
  6
Continuous
 62
     7
370
    15
100
AcDbCircle
 10
2050.1985798643
 20
1265.60263007234
 30
0.0
 40
4.600000000000033
100
AcDbArc
 50
180.0
 51
269.9999999999944
1001
AcDbBlockRepETag
1070
     1
1071
       16
1005
644
  0
LINE
  5
645
330
449
100
AcDbEntity
  8
0
  6
Continuous
 62
     7
370
    15
100
AcDbLine
 10
2050.198579864299
 20
1265.50263007234
 30
0.0
 11
2050.198579864299
 21
1261.00263007234
 31
0.0
1001
AcDbBlockRepETag
1070
     1
1071
       17
1005
645
  0
LINE
  5
646
330
449
100
AcDbEntity
  8
0
  6
Continuous
 62
     7
370
    15
100
AcDbLine
 10
2045.5985798643
 20
1265.60263007234
 30
0.0
 11
2050.148579864299
 21
1265.60263007234
 31
0.0
1001
AcDbBlockRepETag
1070
     1
1071
       18
1005
646
  0
LINE
  5
647
330
449
100
AcDbEntity
  8
0
  6
Continuous
 62
     7
370
    15
100
AcDbLine
 10
2065.296261968589
 20
1260.997975794342
 30
0.0
 11
2065.296261968588
 21
1265.553928880471
 31
0.0
1001
AcDbBlockRepETag
1070
     1
1071
       19
1005
647
  0
ARC
  5
648
330
449
100
AcDbEntity
  8
0
  6
Continuous
 62
     7
370
    15
100
AcDbCircle
 10
2065.296024303931
 20
1265.597975788202
 30
0.0
 40
4.599999999999992
100
AcDbArc
 50
270.0029602569182
 51
0.0579719311388565
1001
AcDbBlockRepETag
1070
     1
1071
       20
1005
648
  0
LINE
  5
649
330
449
100
AcDbEntity
  8
0
  6
Continuous
 62
     7
370
    15
100
AcDbLine
 10
2069.896021949325
 20
1265.60263007234
 30
0.0
 11
2065.396261968588
 21
1265.60263007234
 31
0.0
1001
AcDbBlockRepETag
1070
     1
1071
       21
1005
649
  0
LINE
  5
64A
330
449
100
AcDbEntity
  8
0
  6
Continuous
 62
     7
370
    15
100
AcDbLine
 10
2065.296261968589
 20
1280.75133126421
 30
0.0
 11
2065.296261968589
 21
1285.302629488358
 31
0.0
1001
AcDbBlockRepETag
1070
     1
1071
       22
1005
64A
  0
LINE
  5
64B
330
449
100
AcDbEntity
  8
0
  6
Continuous
 62
     7
370
    15
100
AcDbLine
 10
2069.898579864299
 20
1280.70263007234
 30
0.0
 11
2065.396261968588
 21
1280.70263007234
 31
0.0
1001
AcDbBlockRepETag
1070
     1
1071
       23
1005
64B
  0
ARC
  5
64C
330
449
100
AcDbEntity
  8
0
  6
Continuous
 62
     7
370
    15
100
AcDbCircle
 10
2065.298579864299
 20
1280.70263007234
 30
0.0
 40
4.600000000000004
100
AcDbArc
 50
0.0
 51
90.02887079287534
1001
AcDbBlockRepETag
1070
     1
1071
       24
1005
64C
  0
LINE
  5
64D
330
449
100
AcDbEntity
  8
0
  6
Continuous
 62
     7
370
    15
100
AcDbLine
 10
2065.396261968588
 20
1266.00263007234
 30
0.0
 11
2065.396261968588
 21
1265.553928880471
 31
0.0
1001
AcDbBlockRepETag
1070
     1
1071
       25
1005
64D
  0
LINE
  5
64E
330
449
100
AcDbEntity
  8
0
  6
Continuous
 62
     7
370
    15
100
AcDbLine
 10
2065.396261968588
 20
1266.00263007234
 30
0.0
 11
2065.348579864299
 21
1266.00263007234
 31
0.0
1001
AcDbBlockRepETag
1070
     1
1071
       26
1005
64E
  0
LINE
  5
64F
330
449
100
AcDbEntity
  8
0
  6
Continuous
 62
     7
370
    15
100
AcDbLine
 10
2065.348579864299
 20
1266.00263007234
 30
0.0
 11
2065.348579864299
 21
1267.702630072339
 31
0.0
1001
AcDbBlockRepETag
1070
     1
1071
       27
1005
64F
  0
LINE
  5
650
330
449
100
AcDbEntity
  8
0
  6
Continuous
 62
     7
370
    15
100
AcDbLine
 10
2067.848579864299
 20
1267.702630072339
 30
0.0
 11
2065.348579864299
 21
1267.702630072339
 31
0.0
1001
AcDbBlockRepETag
1070
     1
1071
       28
1005
650
  0
LINE
  5
651
330
449
100
AcDbEntity
  8
0
  6
Continuous
 62
     7
370
    15
100
AcDbLine
 10
2067.848579864299
 20
1265.60263007234
 30
0.0
 11
2067.848579864299
 21
1267.702630072339
 31
0.0
1001
AcDbBlockRepETag
1070
     1
1071
       29
1005
651
  0
LINE
  5
652
330
449
100
AcDbEntity
  8
0
  6
Continuous
 62
     7
370
    15
100
AcDbLine
 10
2065.396261968588
 20
1265.553928880471
 30
0.0
 11
2064.846261968587
 21
1265.553928880471
 31
0.0
1001
AcDbBlockRepETag
1070
     1
1071
       30
1005
652
  0
LINE
  5
653
330
449
100
AcDbEntity
  8
0
  6
Continuous
 62
     7
370
    15
100
AcDbLine
 10
2064.846261968588
 20
1263.053928880471
 30
0.0
 11
2065.296261968589
 21
1263.053928880471
 31
0.0
1001
AcDbBlockRepETag
1070
     1
1071
       31
1005
653
  0
LINE
  5
654
330
449
100
AcDbEntity
  8
0
  6
Continuous
 62
     7
370
    15
100
AcDbLine
 10
2067.848579864299
 20
1280.70263007234
 30
0.0
 11
2067.848579864299
 21
1278.60263007234
 31
0.0
1001
AcDbBlockRepETag
1070
     1
1071
       32
1005
654
  0
LINE
  5
655
330
449
100
AcDbEntity
  8
0
  6
Continuous
 62
     7
370
    15
100
AcDbLine
 10
2067.848579864299
 20
1278.60263007234
 30
0.0
 11
2065.348579864299
 21
1278.60263007234
 31
0.0
1001
AcDbBlockRepETag
1070
     1
1071
       33
1005
655
  0
LINE
  5
656
330
449
100
AcDbEntity
  8
0
  6
Continuous
 62
     7
370
    15
100
AcDbLine
 10
2065.348579864299
 20
1280.30263007234
 30
0.0
 11
2065.348579864299
 21
1278.60263007234
 31
0.0
1001
AcDbBlockRepETag
1070
     1
1071
       34
1005
656
  0
LINE
  5
657
330
449
100
AcDbEntity
  8
0
  6
Continuous
 62
     7
370
    15
100
AcDbLine
 10
2065.396261968588
 20
1280.30263007234
 30
0.0
 11
2065.348579864299
 21
1280.30263007234
 31
0.0
1001
AcDbBlockRepETag
1070
     1
1071
       35
1005
657
  0
LINE
  5
658
330
449
100
AcDbEntity
  8
0
  6
Continuous
 62
     7
370
    15
100
AcDbLine
 10
2065.396261968588
 20
1280.30263007234
 30
0.0
 11
2065.396261968588
 21
1280.75133126421
 31
0.0
1001
AcDbBlockRepETag
1070
     1
1071
       36
1005
658
  0
LINE
  5
659
330
449
100
AcDbEntity
  8
0
  6
Continuous
 62
     7
370
    15
100
AcDbLine
 10
2065.396261968588
 20
1280.75133126421
 30
0.0
 11
2064.846261968583
 21
1280.75133126421
 31
0.0
1001
AcDbBlockRepETag
1070
     1
1071
       37
1005
659
  0
LINE
  5
65A
330
449
100
AcDbEntity
  8
0
  6
Continuous
 62
     7
370
    15
100
AcDbLine
 10
2065.296261968589
 20
1283.251331264209
 30
0.0
 11
2064.846261968583
 21
1283.251331264209
 31
0.0
1001
AcDbBlockRepETag
1070
     1
1071
       38
1005
65A
  0
LINE
  5
65B
330
449
100
AcDbEntity
  8
0
  6
Continuous
 62
     7
370
    15
100
AcDbLine
 10
2047.648579864299
 20
1267.702630072339
 30
0.0
 11
2047.6485798643
 21
1265.60263007234
 31
0.0
1001
AcDbBlockRepETag
1070
     1
1071
       39
1005
65B
  0
LINE
  5
65C
330
449
100
AcDbEntity
  8
0
  6
Continuous
 62
     7
370
    15
100
AcDbLine
 10
2047.648579864299
 20
1267.702630072339
 30
0.0
 11
2050.148579864299
 21
1267.702630072339
 31
0.0
1001
AcDbBlockRepETag
1070
     1
1071
       40
1005
65C
  0
LINE
  5
65D
330
449
100
AcDbEntity
  8
0
  6
Continuous
 62
     7
370
    15
100
AcDbLine
 10
2050.148579864299
 20
1267.702630072339
 30
0.0
 11
2050.148579864299
 21
1265.50263007234
 31
0.0
1001
AcDbBlockRepETag
1070
     1
1071
       41
1005
65D
  0
LINE
  5
65E
330
449
100
AcDbEntity
  8
0
  6
Continuous
 62
     7
370
    15
100
AcDbLine
 10
2050.1985798643
 20
1265.50263007234
 30
0.0
 11
2050.148579864299
 21
1265.50263007234
 31
0.0
1001
AcDbBlockRepETag
1070
     1
1071
       42
1005
65E
  0
LINE
  5
65F
330
449
100
AcDbEntity
  8
0
  6
Continuous
 62
     7
370
    15
100
AcDbLine
 10
2050.1985798643
 20
1265.553928880471
 30
0.0
 11
2050.1985798643
 21
1265.50263007234
 31
0.0
1001
AcDbBlockRepETag
1070
     1
1071
       43
1005
65F
  0
LINE
  5
660
330
449
100
AcDbEntity
  8
0
  6
Continuous
 62
     7
370
    15
100
AcDbLine
 10
2050.1985798643
 20
1265.553928880471
 30
0.0
 11
2050.646261968587
 21
1265.553928880471
 31
0.0
1001
AcDbBlockRepETag
1070
     1
1071
       44
1005
660
  0
LINE
  5
661
330
449
100
AcDbEntity
  8
0
  6
Continuous
 62
     7
370
    15
100
AcDbLine
 10
2050.646261968587
 20
1263.053928880471
 30
0.0
 11
2050.198579864299
 21
1263.053928880471
 31
0.0
1001
AcDbBlockRepETag
1070
     1
1071
       45
1005
661
  0
LINE
  5
662
330
449
100
AcDbEntity
  8
0
  6
Continuous
 62
     7
370
    15
100
AcDbLine
 10
2050.1985798643
 20
1280.80263007234
 30
0.0
 11
2050.1985798643
 21
1280.75133126421
 31
0.0
1001
AcDbBlockRepETag
1070
     1
1071
       46
1005
662
  0
LINE
  5
663
330
449
100
AcDbEntity
  8
0
  6
Continuous
 62
     7
370
    15
100
AcDbLine
 10
2050.1985798643
 20
1280.80263007234
 30
0.0
 11
2050.148579864299
 21
1280.80263007234
 31
0.0
1001
AcDbBlockRepETag
1070
     1
1071
       47
1005
663
  0
LINE
  5
664
330
449
100
AcDbEntity
  8
0
  6
Continuous
 62
     7
370
    15
100
AcDbLine
 10
2050.148579864299
 20
1278.60263007234
 30
0.0
 11
2050.148579864299
 21
1280.80263007234
 31
0.0
1001
AcDbBlockRepETag
1070
     1
1071
       48
1005
664
  0
LINE
  5
665
330
449
100
AcDbEntity
  8
0
  6
Continuous
 62
     7
370
    15
100
AcDbLine
 10
2047.648579864299
 20
1278.60263007234
 30
0.0
 11
2050.148579864299
 21
1278.60263007234
 31
0.0
1001
AcDbBlockRepETag
1070
     1
1071
       49
1005
665
  0
LINE
  5
666
330
449
100
AcDbEntity
  8
0
  6
Continuous
 62
     7
370
    15
100
AcDbLine
 10
2047.648579864299
 20
1278.60263007234
 30
0.0
 11
2047.648579864299
 21
1280.70263007234
 31
0.0
1001
AcDbBlockRepETag
1070
     1
1071
       50
1005
666
  0
LINE
  5
667
330
449
100
AcDbEntity
  8
0
  6
Continuous
 62
     7
370
    15
100
AcDbLine
 10
2050.1985798643
 20
1283.251331264209
 30
0.0
 11
2050.646261968583
 21
1283.251331264209
 31
0.0
1001
AcDbBlockRepETag
1070
     1
1071
       51
1005
667
  0
LINE
  5
668
330
449
100
AcDbEntity
  8
0
  6
Continuous
 62
     7
370
    15
100
AcDbLine
 10
2050.1985798643
 20
1280.75133126421
 30
0.0
 11
2050.646261968583
 21
1280.75133126421
 31
0.0
1001
AcDbBlockRepETag
1070
     1
1071
       52
1005
668
  0
LINE
  5
669
330
449
100
AcDbEntity
  8
0
  6
Continuous
 62
     7
370
    15
100
AcDbLine
 10
2047.648579864299
 20
1276.40263007234
 30
0.0
 11
2050.148579864299
 21
1276.40263007234
 31
0.0
1001
AcDbBlockRepETag
1070
     1
1071
       53
1005
669
  0
LINE
  5
66A
330
449
100
AcDbEntity
  8
0
  6
Continuous
 62
     7
370
    15
100
AcDbLine
 10
2047.648579864299
 20
1278.60263007234
 30
0.0
 11
2047.648579864299
 21
1276.40263007234
 31
0.0
1001
AcDbBlockRepETag
1070
     1
1071
       54
1005
66A
  0
LINE
  5
66B
330
449
100
AcDbEntity
  8
0
  6
Continuous
 62
     7
370
    15
100
AcDbLine
 10
2050.148579864299
 20
1278.60263007234
 30
0.0
 11
2050.148579864299
 21
1276.40263007234
 31
0.0
1001
AcDbBlockRepETag
1070
     1
1071
       55
1005
66B
  0
LINE
  5
66C
330
449
100
AcDbEntity
  8
0
  6
Continuous
 62
     7
370
    15
100
AcDbLine
 10
2065.348579864299
 20
1269.90263007234
 30
0.0
 11
2067.848579864299
 21
1269.90263007234
 31
0.0
1001
AcDbBlockRepETag
1070
     1
1071
       56
1005
66C
  0
LINE
  5
66D
330
449
100
AcDbEntity
  8
0
  6
Continuous
 62
     7
370
    15
100
AcDbLine
 10
2065.348579864299
 20
1267.702630072339
 30
0.0
 11
2065.348579864299
 21
1269.90263007234
 31
0.0
1001
AcDbBlockRepETag
1070
     1
1071
       57
1005
66D
  0
LINE
  5
66E
330
449
100
AcDbEntity
  8
0
  6
Continuous
 62
     7
370
    15
100
AcDbLine
 10
2067.848579864299
 20
1267.702630072339
 30
0.0
 11
2067.848579864299
 21
1269.90263007234
 31
0.0
1001
AcDbBlockRepETag
1070
     1
1071
       58
1005
66E
  0
LINE
  5
66F
330
449
100
AcDbEntity
  8
0
  6
Continuous
 62
     7
370
    15
100
AcDbLine
 10
2065.348579864299
 20
1276.40263007234
 30
0.0
 11
2067.848579864299
 21
1276.40263007234
 31
0.0
1001
AcDbBlockRepETag
1070
     1
1071
       59
1005
66F
  0
LINE
  5
670
330
449
100
AcDbEntity
  8
0
  6
Continuous
 62
     7
370
    15
100
AcDbLine
 10
2065.348579864299
 20
1276.40263007234
 30
0.0
 11
2065.348579864299
 21
1278.60263007234
 31
0.0
1001
AcDbBlockRepETag
1070
     1
1071
       60
1005
670
  0
LINE
  5
671
330
449
100
AcDbEntity
  8
0
  6
Continuous
 62
     7
370
    15
100
AcDbLine
 10
2067.848579864299
 20
1276.40263007234
 30
0.0
 11
2067.848579864299
 21
1278.60263007234
 31
0.0
1001
AcDbBlockRepETag
1070
     1
1071
       61
1005
671
  0
LINE
  5
672
330
449
100
AcDbEntity
  8
0
  6
Continuous
 62
     7
370
    15
100
AcDbLine
 10
2047.648579864299
 20
1269.90263007234
 30
0.0
 11
2050.148579864299
 21
1269.90263007234
 31
0.0
1001
AcDbBlockRepETag
1070
     1
1071
       62
1005
672
  0
LINE
  5
673
330
449
100
AcDbEntity
  8
0
  6
Continuous
 62
     7
370
    15
100
AcDbLine
 10
2047.648579864299
 20
1269.90263007234
 30
0.0
 11
2047.648579864299
 21
1267.702630072339
 31
0.0
1001
AcDbBlockRepETag
1070
     1
1071
       63
1005
673
  0
LINE
  5
674
330
449
100
AcDbEntity
  8
0
  6
Continuous
 62
     7
370
    15
100
AcDbLine
 10
2050.148579864299
 20
1269.90263007234
 30
0.0
 11
2050.148579864299
 21
1267.702630072339
 31
0.0
1001
AcDbBlockRepETag
1070
     1
1071
       64
1005
674
  0
LINE
  5
675
330
449
100
AcDbEntity
  8
0
  6
Continuous
 62
     7
370
    15
100
AcDbLine
 10
2065.348579864299
 20
1269.90263007234
 30
0.0
 11
2065.348579864299
 21
1276.40263007234
 31
0.0
1001
AcDbBlockRepETag
1070
     1
1071
       65
1005
675
  0
LINE
  5
676
330
449
100
AcDbEntity
  8
0
  6
Continuous
 62
     7
370
    15
100
AcDbLine
 10
2067.848579864299
 20
1269.90263007234
 30
0.0
 11
2067.848579864299
 21
1276.40263007234
 31
0.0
1001
AcDbBlockRepETag
1070
     1
1071
       66
1005
676
  0
LINE
  5
677
330
449
100
AcDbEntity
  8
0
  6
Continuous
 62
     7
370
    15
100
AcDbLine
 10
2047.648579864299
 20
1269.90263007234
 30
0.0
 11
2047.648579864299
 21
1276.40263007234
 31
0.0
1001
AcDbBlockRepETag
1070
     1
1071
       67
1005
677
  0
LINE
  5
678
330
449
100
AcDbEntity
  8
0
  6
Continuous
 62
     7
370
    15
100
AcDbLine
 10
2050.148579864299
 20
1276.40263007234
 30
0.0
 11
2050.148579864299
 21
1269.90263007234
 31
0.0
1001
AcDbBlockRepETag
1070
     1
1071
       68
1005
678
  0
LINE
  5
679
330
449
100
AcDbEntity
  8
0
  6
Continuous
 62
     7
370
    15
100
AcDbLine
 10
2050.646261968589
 20
1257.998110016458
 30
0.0
 11
2064.846261968588
 21
1257.998110016461
 31
0.0
1001
AcDbBlockRepETag
1070
     1
1071
       69
1005
679
  0
LINE
  5
67A
330
449
100
AcDbEntity
  8
0
  6
Continuous
 62
     7
370
    15
100
AcDbLine
 10
2050.646261968588
 20
1259.094064812038
 30
0.0
 11
2064.846261968588
 21
1259.094064812041
 31
0.0
1001
AcDbBlockRepETag
1070
     1
1071
       70
1005
67A
  0
LINE
  5
67B
330
449
100
AcDbEntity
  8
0
  6
Continuous
 62
     7
370
    15
100
AcDbLine
 10
2064.846261968588
 20
1257.998110016461
 30
0.0
 11
2064.846261968588
 21
1260.044672097498
 31
0.0
1001
AcDbBlockRepETag
1070
     1
1071
       71
1005
67B
  0
LINE
  5
67C
330
449
100
AcDbEntity
  8
0
  6
Continuous
 62
     7
370
    15
100
AcDbLine
 10
2050.646261968589
 20
1257.998110016458
 30
0.0
 11
2050.646261968588
 21
1259.614064812038
 31
0.0
1001
AcDbBlockRepETag
1070
     1
1071
       72
1005
67C
  0
LINE
  5
67D
330
449
100
AcDbEntity
  8
0
  6
Continuous
 62
     7
370
    15
100
AcDbLine
 10
2050.646261968588
 20
1259.09445863541
 30
0.0
 11
2064.846261968588
 21
1259.094458635413
 31
0.0
1001
AcDbBlockRepETag
1070
     1
1071
       73
1005
67D
  0
LINE
  5
67E
330
449
100
AcDbEntity
  8
0
  6
Continuous
 62
     7
370
    15
100
AcDbLine
 10
2064.846261968588
 20
1259.614064812041
 30
0.0
 11
2064.846261968588
 21
1259.614458635413
 31
0.0
1001
AcDbBlockRepETag
1070
     1
1071
       74
1005
67E
  0
LINE
  5
67F
330
449
100
AcDbEntity
  8
0
  6
Continuous
 62
     7
370
    15
100
AcDbLine
 10
2050.646261968588
 20
1259.614064812038
 30
0.0
 11
2050.646261968588
 21
1259.61445863541
 31
0.0
1001
AcDbBlockRepETag
1070
     1
1071
       75
1005
67F
  0
LINE
  5
680
330
449
100
AcDbEntity
  8
0
  6
Continuous
 62
     7
370
    15
100
AcDbLine
 10
2064.846261968588
 20
1260.564672097498
 30
0.0
 11
2064.846261968588
 21
1259.094064812041
 31
0.0
1001
AcDbBlockRepETag
1070
     1
1071
       76
1005
680
  0
LINE
  5
681
330
449
100
AcDbEntity
  8
0
  6
Continuous
 62
     7
370
    15
100
AcDbLine
 10
2050.646261968588
 20
1260.564672097495
 30
0.0
 11
2050.646261968588
 21
1259.61445863541
 31
0.0
1001
AcDbBlockRepETag
1070
     1
1071
       77
1005
681
  0
ENDBLK
  5
44B
330
449
100
AcDbEntity
  8
0
100
AcDbBlockEnd
  0
BLOCK
  5
49C
330
49B
100
AcDbEntity
  8
0
100
AcDbBlockBegin
  2
4
 70
     0
 10
0.0
 20
0.0
 30
0.0
  3
4
  1

  0
LINE
  5
49E
330
49B
100
AcDbEntity
  8
0
  6
Continuous
 62
     7
370
    15
100
AcDbLine
 10
2119.425034367113
 20
1292.692383312187
 30
0.0
 11
2110.563619923029
 21
1286.325440189708
 31
0.0
  0
LINE
  5
49F
330
49B
100
AcDbEntity
  8
0
  6
Continuous
 62
     7
370
    15
100
AcDbLine
 10
2111.157537585095
 20
1283.752486697355
 30
0.0
 11
2120.018952029178
 21
1290.119429819834
 31
0.0
  0
LINE
  5
4A0
330
49B
100
AcDbEntity
  8
0
  6
Continuous
 62
     7
370
    15
100
AcDbLine
 10
2088.736432155146
 20
1301.286220797603
 30
0.0
 11
2089.391068078836
 21
1286.096545340136
 31
0.0
  0
LINE
  5
4A1
330
49B
100
AcDbEntity
  8
0
  6
Continuous
 62
     7
370
    15
100
AcDbLine
 10
2109.377371762271
 20
1282.912240488367
 30
0.0
 11
2110.549843716018
 21
1283.754663815852
 31
0.0
  0
LINE
  5
4A2
330
49B
100
AcDbEntity
  8
0
  6
Continuous
 62
     7
370
    15
100
AcDbLine
 10
2119.79410591413
 20
1288.428387390943
 30
0.0
 11
2119.730168681809
 21
1289.91193843581
 31
0.0
  0
LINE
  5
4A3
330
49B
100
AcDbEntity
  8
0
  6
Continuous
 62
     7
370
    15
100
AcDbLine
 10
2119.60848061475
 20
1292.735496048183
 30
0.0
 11
2119.139469990439
 21
1303.618062848409
 31
0.0
  0
LINE
  5
4A4
330
49B
100
AcDbEntity
  8
0
  6
Continuous
 62
     7
370
    15
100
AcDbLine
 10
2100.289803611497
 20
1308.554962499375
 30
0.0
 11
2091.43400772437
 21
1302.19205632075
 31
0.0
  0
LINE
  5
4A5
330
49B
100
AcDbEntity
  8
0
  6
Continuous
 62
     7
370
    15
100
AcDbLine
 10
2101.505561407913
 20
1285.746302019767
 30
0.0
 11
2101.59916789852
 21
1285.813558461201
 31
0.0
  0
LINE
  5
4A6
330
49B
100
AcDbEntity
  8
0
  6
Continuous
 62
     7
370
    15
100
AcDbLine
 10
2096.332295819819
 20
1288.545722184414
 30
0.0
 11
2096.238689329212
 21
1288.47846574298
 31
0.0
  0
ARC
  5
4A7
330
49B
100
AcDbEntity
  8
0
  6
Continuous
 62
     7
370
    15
100
AcDbCircle
 10
2104.883957785845
 20
1301.438575341326
 30
0.0
 40
7.340299262120255
100
AcDbArc
 50
249.6120361450011
 51
300.8315271193907
  0
LINE
  5
4A8
330
49B
100
AcDbEntity
  8
0
  6
Continuous
 62
     7
370
    15
100
AcDbLine
 10
2102.326779969969
 20
1294.558107706385
 30
0.0
 11
2105.134296300103
 21
1296.575313526311
 31
0.0
  0
LINE
  5
4A9
330
49B
100
AcDbEntity
  8
0
  6
Continuous
 62
     7
370
    15
100
AcDbLine
 10
2105.134296300103
 20
1296.575313526311
 30
0.0
 11
2108.645974431434
 21
1295.135621746718
 31
0.0
  0
LINE
  5
4AA
330
49B
100
AcDbEntity
  8
0
  6
Continuous
 62
     7
370
    15
100
AcDbLine
 10
2102.326779969969
 20
1294.558107706385
 30
0.0
 11
2102.98141589366
 21
1279.368432248918
 31
0.0
  0
LINE
  5
4AB
330
49B
100
AcDbEntity
  8
0
  6
Continuous
 62
     7
370
    15
100
AcDbLine
 10
2109.300610355126
 20
1279.945946289251
 30
0.0
 11
2108.645974431434
 21
1295.135621746718
 31
0.0
  0
ARC
  5
4AC
330
49B
100
AcDbEntity
  8
0
  6
Continuous
 62
     7
370
    15
100
AcDbCircle
 10
2105.535090674146
 20
1286.287230314443
 30
0.0
 40
7.375026885103477
100
AcDbArc
 50
249.7412869645485
 51
300.7022762998476
  0
ARC
  5
4AD
330
49B
100
AcDbEntity
  8
0
  6
Continuous
 62
     7
370
    15
100
AcDbCircle
 10
2092.462669797079
 20
1300.093485297593
 30
0.0
 40
2.335981470445697
100
AcDbArc
 50
40.7941786295167
 51
116.2801533534489
  0
SPLINE
  5
4AE
330
49B
100
AcDbEntity
  8
0
  6
Continuous
 62
     7
370
    15
100
AcDbSpline
210
0.0
220
0.0
230
1.0
 70
     8
 71
     3
 72
    14
 73
    10
 74
     0
 42
0.0000000001
 43
0.0000000001
 40
0.0
 40
0.0
 40
0.0
 40
0.0
 40
0.25
 40
0.25
 40
0.5
 40
0.5
 40
0.75
 40
0.75
 40
1.0
 40
1.0
 40
1.0
 40
1.0
 10
2094.231151294399
 20
1301.619684047397
 30
0.0
 10
2094.699246194196
 20
1301.222141478849
 30
0.0
 10
2095.167582121753
 20
1300.824466775869
 30
0.0
 10
2096.115820997646
 20
1300.060261439482
 30
0.0
 10
2096.594907180271
 20
1299.693998740425
 30
0.0
 10
2097.575886966077
 20
1299.038047424004
 30
0.0
 10
2098.071771315356
 20
1298.753551683015
 30
0.0
 10
2099.068247892345
 20
1298.222506223825
 30
0.0
 10
2099.567759896552
 20
1297.976703038494
 30
0.0
 10
2100.067079697215
 20
1297.731891333575
 30
0.0
  0
SPLINE
  5
4AF
330
49B
100
AcDbEntity
  8
0
  6
Continuous
 62
     7
370
    15
100
AcDbSpline
210
0.0
220
0.0
230
1.0
 70
     8
 71
     3
 72
    14
 73
    10
 74
     0
 42
0.0000000001
 43
0.0000000001
 40
0.0
 40
0.0
 40
0.0
 40
0.0
 40
0.25
 40
0.25
 40
0.5
 40
0.5
 40
0.75
 40
0.75
 40
1.0
 40
1.0
 40
1.0
 40
1.0
 10
2105.771809540191
 20
1296.88833049329
 30
0.0
 10
2105.321462989037
 20
1296.867188832677
 30
0.0
 10
2104.871092071853
 20
1296.846113351943
 30
0.0
 10
2103.954888701211
 20
1296.845957027434
 30
0.0
 10
2103.490172181796
 20
1296.86655748627
 30
0.0
 10
2102.532429968805
 20
1297.005866016532
 30
0.0
 10
2102.041751859692
 20
1297.1255701118
 30
0.0
 10
2101.057719481242
 20
1297.406798460876
 30
0.0
 10
2100.562471824006
 20
1297.56886535286
 30
0.0
 10
2100.067079697215
 20
1297.731891333575
 30
0.0
  0
ARC
  5
4B0
330
49B
100
AcDbEntity
  8
0
  6
Continuous
 62
     7
370
    15
100
AcDbCircle
 10
2105.19096862087
 20
1292.639432935556
 30
0.0
 40
4.24627234415654
100
AcDbArc
 50
2.883688990655392
 51
35.51586615652678
  0
ARC
  5
4B1
330
49B
100
AcDbEntity
  8
0
  6
Continuous
 62
     7
370
    15
100
AcDbCircle
 10
2105.527965609443
 20
1293.291187434616
 30
0.0
 40
3.605398458857525
100
AcDbArc
 50
30.97106920153596
 51
86.12195392863801
  0
LINE
  5
4B2
330
49B
100
AcDbEntity
  8
0
  6
Continuous
 62
     7
370
    15
100
AcDbLine
 10
2109.431863993389
 20
1292.853057044925
 30
0.0
 11
2109.5231599105
 21
1286.336178976762
 31
0.0
  0
LWPOLYLINE
  5
4B3
330
49B
100
AcDbEntity
  8
0
  6
Continuous
 62
     7
370
    15
100
AcDbPolyline
 90
       15
 70
   128
 43
0.0
 10
2109.5231599105
 20
1286.336178976762
 10
2109.535320196695
 20
1286.219812928012
 10
2109.571003442014
 20
1286.098394406453
 10
2109.628371621969
 20
1285.97817761385
 10
2109.704469732927
 20
1285.865354851565
 10
2109.795378002734
 20
1285.765737558495
 10
2109.896413796039
 20
1285.684456967026
 10
2110.00237281428
 20
1285.625699796055
 10
2110.107797166272
 20
1285.592492595384
 10
2110.207256501191
 20
1285.586545849793
 10
2110.29562772299
 20
1285.608165872899
 10
2110.368358878275
 20
1285.656239029116
 10
2110.42170362494
 20
1285.728289096408
 10
2110.452914204204
 20
1285.820604815142
 10
2110.460382976167
 20
1285.928431053038
  0
LINE
  5
4B4
330
49B
100
AcDbEntity
  8
0
  6
Continuous
 62
     7
370
    15
100
AcDbLine
 10
2110.455188529728
 20
1286.055965775766
 30
0.0
 11
2110.460382976167
 21
1285.928431053038
 31
0.0
  0
LWPOLYLINE
  5
4B5
330
49B
100
AcDbEntity
  8
0
  6
Continuous
 62
     7
370
    15
100
AcDbPolyline
 90
       14
 70
   128
 43
0.0
 10
2111.308305698704
 20
1285.759614158856
 10
2111.280470982074
 20
1285.87253463118
 10
2111.231397406611
 20
1285.985790126012
 10
2111.163717458695
 20
1286.093305203672
 10
2111.08106173869
 20
1286.189312361492
 10
2110.987864202244
 20
1286.268661423785
 10
2110.88912430666
 20
1286.327095816139
 10
2110.790138821691
 20
1286.36148090366
 10
2110.696217691403
 20
1286.369972144278
 10
2110.612399189325
 20
1286.352114036737
 10
2110.543179646994
 20
1286.308864555352
 10
2110.49227225426
 20
1286.242543760757
 10
2110.462407870179
 20
1286.156709343355
 10
2110.455188529728
 20
1286.055965775766
  0
LINE
  5
4B6
330
49B
100
AcDbEntity
  8
0
  6
Continuous
 62
     7
370
    15
100
AcDbLine
 10
2111.308305698704
 20
1285.759614158856
 30
0.0
 11
2111.354595878821
 21
1284.244588732891
 31
0.0
  0
ARC
  5
4B7
330
49B
100
AcDbEntity
  8
0
  6
Continuous
 62
     7
370
    15
100
AcDbCircle
 10
2110.856186234125
 20
1284.169776190929
 30
0.0
 40
0.5039931451524512
100
AcDbArc
 50
240.7602833084674
 51
8.536510039890012
  0
LINE
  5
4B8
330
49B
100
AcDbEntity
  8
0
  6
Continuous
 62
     7
370
    15
100
AcDbLine
 10
2109.553602965093
 20
1284.163095217012
 30
0.0
 11
2110.610003403841
 21
1283.729999992807
 31
0.0
  0
LINE
  5
4B9
330
49B
100
AcDbEntity
  8
0
  6
Continuous
 62
     7
370
    15
100
AcDbLine
 10
2109.553602965093
 20
1284.163095217012
 30
0.0
 11
2109.564577141311
 21
1283.379737422124
 31
0.0
  0
ARC
  5
4BA
330
49B
100
AcDbEntity
  8
0
  6
Continuous
 62
     7
370
    15
100
AcDbCircle
 10
2109.097148045379
 20
1283.304390063614
 30
0.0
 40
0.4734629702082413
100
AcDbArc
 50
279.5856814631977
 51
9.157038843440924
  0
SPLINE
  5
4BB
330
49B
100
AcDbEntity
  8
0
  6
Continuous
 62
     7
370
    15
100
AcDbSpline
210
0.0
220
0.0
230
1.0
 70
     8
 71
     3
 72
    11
 73
     7
 74
     0
 42
0.0000000001
 43
0.0000000001
 40
0.0
 40
0.0
 40
0.0
 40
0.0
 40
0.2325402297835523
 40
0.4898033495857265
 40
0.7448846978263039
 40
1.0
 40
1.0
 40
1.0
 40
1.0
 10
2103.319345280653
 20
1295.27126776885
 30
0.0
 10
2103.07691034413
 20
1295.314408205815
 30
0.0
 10
2102.566265609342
 20
1295.405275624962
 30
0.0
 10
2101.774476205922
 20
1295.619934027369
 30
0.0
 10
2100.955124920266
 20
1295.871254472522
 30
0.0
 10
2100.408801110754
 20
1296.051421031281
 30
0.0
 10
2100.135621026888
 20
1296.141510305764
 30
0.0
  0
SPLINE
  5
4BC
330
49B
100
AcDbEntity
  8
0
  6
Continuous
 62
     7
370
    15
100
AcDbSpline
210
0.0
220
0.0
230
1.0
 70
     8
 71
     3
 72
    10
 73
     6
 74
     0
 42
0.0000000001
 43
0.0000000001
 40
0.0
 40
0.0
 40
0.0
 40
0.0
 40
0.4999999999999997
 40
0.4999999999999997
 40
1.0
 40
1.0
 40
1.0
 40
1.0
 10
2093.705569698204
 20
1300.405227032201
 30
0.0
 10
2094.734855033192
 20
1299.531982982251
 30
0.0
 10
2095.763726045439
 20
1298.656747272382
 30
0.0
 10
2097.929015730397
 20
1297.221042672122
 30
0.0
 10
2099.034205208646
 20
1296.681153135714
 30
0.0
 10
2100.135621026888
 20
1296.141510305764
 30
0.0
  0
ARC
  5
4BD
330
49B
100
AcDbEntity
  8
0
  6
Continuous
 62
     7
370
    15
100
AcDbCircle
 10
2092.696753927018
 20
1299.276339382216
 30
0.0
 40
1.513967168230553
100
AcDbArc
 50
48.21484759084698
 51
69.23661426617198
  0
LINE
  5
4BE
330
49B
100
AcDbEntity
  8
0
  6
Continuous
 62
     7
370
    15
100
AcDbLine
 10
2109.431863993389
 20
1292.853057044925
 30
0.0
 11
2118.293278437472
 21
1299.220000167403
 31
0.0
  0
LINE
  5
4BF
330
49B
100
AcDbEntity
  8
0
  6
Continuous
 62
     7
370
    15
100
AcDbLine
 10
2105.771809540191
 20
1296.88833049329
 30
0.0
 11
2114.633223984274
 21
1303.255273615769
 31
0.0
  0
ARC
  5
4C0
330
49B
100
AcDbEntity
  8
0
  6
Continuous
 62
     7
370
    15
100
AcDbCircle
 10
2114.129772966196
 20
1299.121136597329
 30
0.0
 40
4.164679077051856
100
AcDbArc
 50
1.360248256771676
 51
83.05676632088674
  0
LINE
  5
4C1
330
49B
100
AcDbEntity
  8
0
  6
Continuous
 62
     7
370
    15
100
AcDbLine
 10
2101.996062047347
 20
1293.677018379278
 30
0.0
 11
2102.371384129766
 21
1293.523146612973
 31
0.0
  0
LINE
  5
4C2
330
49B
100
AcDbEntity
  8
0
  6
Continuous
 62
     7
370
    15
100
AcDbLine
 10
2101.996062047347
 20
1293.677018379278
 30
0.0
 11
2102.35367884014
 21
1293.933966724683
 31
0.0
  0
LINE
  5
4C3
330
49B
100
AcDbEntity
  8
0
  6
Continuous
 62
     7
370
    15
100
AcDbLine
 10
2109.5231599105
 20
1286.336178976762
 30
0.0
 11
2118.384574354584
 21
1292.70312209924
 31
0.0
  0
LINE
  5
4C4
330
49B
100
AcDbEntity
  8
0
  6
Continuous
 62
     7
370
    15
100
AcDbLine
 10
2118.293278437472
 20
1299.220000167403
 30
0.0
 11
2118.384574354584
 21
1292.70312209924
 31
0.0
  0
LINE
  5
4C5
330
49B
100
AcDbEntity
  8
0
  6
Continuous
 62
     7
370
    15
100
AcDbLine
 10
2100.067079697215
 20
1297.731891333575
 30
0.0
 11
2108.928494141298
 21
1304.098834456054
 31
0.0
  0
SPLINE
  5
4C6
330
49B
100
AcDbEntity
  8
0
  6
Continuous
 62
     7
370
    15
100
AcDbSpline
210
0.0
220
0.0
230
1.0
 70
     8
 71
     3
 72
    18
 73
    14
 74
     0
 42
0.0000000001
 43
0.0000000001
 40
0.0
 40
0.0
 40
0.0
 40
0.0
 40
1.072232776561035
 40
1.072232776561035
 40
3.216698329683107
 40
3.216698329683107
 40
4.15437292759695
 40
4.15437292759695
 40
5.662681964847656
 40
5.662681964847656
 40
7.170991002098363
 40
7.170991002098363
 40
8.323304406583416
 40
8.323304406583416
 40
8.323304406583416
 40
8.323304406583416
 10
2114.633223984274
 20
1303.255273615769
 30
0.0
 10
2114.409483861241
 20
1303.244770065259
 30
0.0
 10
2114.160616414171
 20
1303.233118143594
 30
0.0
 10
2113.425592198488
 20
1303.208364191727
 30
0.0
 10
2112.950963737433
 20
1303.20587426552
 30
0.0
 10
2112.285296830664
 20
1303.252083389094
 30
0.0
 10
2112.08499584219
 20
1303.272677374298
 30
0.0
 10
2111.567143544762
 20
1303.346993733587
 30
0.0
 10
2111.236004188073
 20
1303.416224293021
 30
0.0
 10
2110.541130265982
 20
1303.591956217554
 30
0.0
 10
2110.179318915506
 20
1303.698151047664
 30
0.0
 10
2109.519788030074
 20
1303.904741775022
 30
0.0
 10
2109.227120217553
 20
1304.000561176533
 30
0.0
 10
2108.928494141298
 20
1304.098834456054
 30
0.0
  0
LINE
  5
4C7
330
49B
100
AcDbEntity
  8
0
  6
Continuous
 62
     7
370
    15
100
AcDbLine
 10
2100.354361701712
 20
1292.628382906357
 30
0.0
 11
2102.071596961619
 21
1291.924363518801
 31
0.0
  0
LINE
  5
4C8
330
49B
100
AcDbEntity
  8
0
  6
Continuous
 62
     7
370
    15
100
AcDbLine
 10
2102.071596961619
 20
1291.924363518801
 30
0.0
 11
2101.996062047347
 21
1293.677018379278
 31
0.0
  0
LINE
  5
4C9
330
49B
100
AcDbEntity
  8
0
  6
Continuous
 62
     7
370
    15
100
AcDbLine
 10
2102.590795071223
 20
1288.432101542064
 30
0.0
 11
2091.990117577546
 21
1292.778088752453
 31
0.0
  0
LINE
  5
4CA
330
49B
100
AcDbEntity
  8
0
  6
Continuous
 62
     7
370
    15
100
AcDbLine
 10
2091.770706636089
 20
1297.869133823362
 30
0.0
 11
2091.990117577546
 21
1292.778088752453
 31
0.0
  0
LINE
  5
4CB
330
49B
100
AcDbEntity
  8
0
  6
Continuous
 62
     7
370
    15
100
AcDbLine
 10
2093.487941895995
 20
1297.165114435806
 30
0.0
 11
2091.770706636089
 21
1297.869133823362
 31
0.0
  0
LINE
  5
4CC
330
49B
100
AcDbEntity
  8
0
  6
Continuous
 62
     7
370
    15
100
AcDbLine
 10
2093.563476810267
 20
1295.412459575329
 30
0.0
 11
2093.487941895995
 21
1297.165114435806
 31
0.0
  0
LINE
  5
4CD
330
49B
100
AcDbEntity
  8
0
  6
Continuous
 62
     7
370
    15
100
AcDbLine
 10
2093.563476810267
 20
1295.412459575329
 30
0.0
 11
2095.280712070173
 21
1294.708440187773
 31
0.0
  0
LINE
  5
4CE
330
49B
100
AcDbEntity
  8
0
  6
Continuous
 62
     7
370
    15
100
AcDbLine
 10
2095.388619090561
 20
1292.204647529949
 30
0.0
 11
2095.280712070173
 21
1294.708440187773
 31
0.0
  0
LINE
  5
4CF
330
49B
100
AcDbEntity
  8
0
  6
Continuous
 62
     7
370
    15
100
AcDbLine
 10
2100.462268722101
 20
1290.124590248533
 30
0.0
 11
2095.388619090561
 21
1292.204647529949
 31
0.0
  0
LINE
  5
4D0
330
49B
100
AcDbEntity
  8
0
  6
Continuous
 62
     7
370
    15
100
AcDbLine
 10
2100.354361701712
 20
1292.628382906357
 30
0.0
 11
2100.462268722101
 21
1290.124590248533
 31
0.0
  0
LINE
  5
4D1
330
49B
100
AcDbEntity
  8
0
  6
Continuous
 62
     7
370
    15
100
AcDbLine
 10
2111.308305698704
 20
1285.759614158856
 30
0.0
 11
2120.169720142788
 21
1292.126557281334
 31
0.0
  0
LWPOLYLINE
  5
4D2
330
49B
100
AcDbEntity
  8
0
  6
Continuous
 62
     7
370
    15
100
AcDbPolyline
 90
       11
 70
   128
 43
0.0
 10
2120.169720142788
 20
1292.126557281334
 10
2120.141885426158
 20
1292.239477753659
 10
2120.092811850694
 20
1292.35273324849
 10
2120.025131902778
 20
1292.46024832615
 10
2119.942476182773
 20
1292.556255483971
 10
2119.849278646328
 20
1292.635604546264
 10
2119.750538750744
 20
1292.694038938617
 10
2119.651553265775
 20
1292.728424026139
 10
2119.557632135487
 20
1292.736915266757
 10
2119.473813633408
 20
1292.719057159216
 10
2119.425034367113
 20
1292.692383312187
  0
LINE
  5
4D3
330
49B
100
AcDbEntity
  8
0
  6
Continuous
 62
     7
370
    15
100
AcDbLine
 10
2111.354595878821
 20
1284.244588732891
 30
0.0
 11
2120.216010322904
 21
1290.611531855369
 31
0.0
  0
LINE
  5
4D4
330
49B
100
AcDbEntity
  8
0
  6
Continuous
 62
     7
370
    15
100
AcDbLine
 10
2120.169720142788
 20
1292.126557281334
 30
0.0
 11
2120.216010322904
 21
1290.611531855369
 31
0.0
  0
LINE
  5
4D5
330
49B
100
AcDbEntity
  8
0
  6
Continuous
 62
     7
370
    15
100
AcDbLine
 10
2100.354361701712
 20
1292.628382906357
 30
0.0
 11
2101.914469878488
 21
1293.749323596934
 31
0.0
  0
LINE
  5
4D6
330
49B
100
AcDbEntity
  8
0
  6
Continuous
 62
     7
370
    15
100
AcDbLine
 10
2101.914469878488
 20
1293.749323596934
 30
0.0
 11
2102.030493188814
 21
1293.701757219871
 31
0.0
  0
ARC
  5
4D7
330
49B
100
AcDbEntity
  8
0
  6
Continuous
 62
     7
370
    15
100
AcDbCircle
 10
2119.216591534195
 20
1292.750171837224
 30
0.0
 40
0.8333464255711749
100
AcDbArc
 50
183.2365719107823
 51
227.3668241065607
  0
ARC
  5
4D8
330
49B
100
AcDbEntity
  8
0
  6
Continuous
 62
     7
370
    15
100
AcDbCircle
 10
2119.666477394412
 20
1290.546081666809
 30
0.0
 40
0.5534168109849292
100
AcDbArc
 50
309.5615124932026
 51
6.792017792287371
  0
LWPOLYLINE
  5
4D9
330
49B
100
AcDbEntity
  8
0
  6
Continuous
 62
     7
370
    15
100
AcDbPolyline
 90
       11
 70
   128
 43
0.0
 10
2101.59916789852
 20
1285.813558461201
 10
2101.638827419783
 20
1285.850880116732
 10
2101.678712529229
 20
1285.92203098104
 10
2101.6970192517
 20
1286.010476282069
 10
2101.692683667029
 20
1286.11107590041
 10
2101.665957743637
 20
1286.217983351909
 10
2101.618394695047
 20
1286.324985564077
 10
2101.552758712759
 20
1286.425863957282
 10
2101.472864321486
 20
1286.514755845988
 10
2101.383354692845
 20
1286.586495156732
 10
2101.289431801097
 20
1286.636912661535
  0
LINE
  5
4DA
330
49B
100
AcDbEntity
  8
0
  6
Continuous
 62
     7
370
    15
100
AcDbLine
 10
2101.289431801097
 20
1286.636912661535
 30
0.0
 11
2096.606062910446
 21
1288.556965536689
 31
0.0
  0
ARC
  5
4DB
330
49B
100
AcDbEntity
  8
0
  6
Continuous
 62
     7
370
    15
100
AcDbCircle
 10
2096.478922007842
 20
1288.314117908292
 30
0.0
 40
0.2741163616649478
100
AcDbArc
 50
62.36605943166436
 51
122.337462937803
  0
LINE
  5
4DC
330
49B
100
AcDbEntity
  8
0
  6
Continuous
 62
     7
370
    15
100
AcDbLine
 10
2106.028912502762
 20
1278.94388912907
 30
0.0
 11
2106.050010973357
 21
1278.45433621974
 31
0.0
  0
LINE
  5
4DD
330
49B
100
AcDbEntity
  8
0
  6
Continuous
 62
     7
370
    15
100
AcDbLine
 10
2092.392212641487
 20
1284.053659178842
 30
0.0
 11
2102.966326182535
 21
1279.718562460919
 31
0.0
  0
LINE
  5
4DE
330
49B
100
AcDbEntity
  8
0
  6
Continuous
 62
     7
370
    15
100
AcDbLine
 10
2104.819912918298
 20
1278.958642705622
 30
0.0
 11
2106.050010973357
 21
1278.45433621974
 31
0.0
  0
LINE
  5
4DF
330
49B
100
AcDbEntity
  8
0
  6
Continuous
 62
     7
370
    15
100
AcDbLine
 10
2092.34274637504
 20
1285.201436907246
 30
0.0
 11
2092.392212641487
 21
1284.053659178842
 31
0.0
  0
LINE
  5
4E0
330
49B
100
AcDbEntity
  8
0
  6
Continuous
 62
     7
370
    15
100
AcDbLine
 10
2092.874285360529
 20
1292.415604196256
 30
0.0
 11
2093.15989395485
 21
1285.788558996631
 31
0.0
  0
LINE
  5
4E1
330
49B
100
AcDbEntity
  8
0
  6
Continuous
 62
     7
370
    15
100
AcDbLine
 10
2116.914902717679
 20
1287.59718158406
 30
0.0
 11
2116.970768210787
 21
1286.300921053779
 31
0.0
  0
LINE
  5
4E2
330
49B
100
AcDbEntity
  8
0
  6
Continuous
 62
     7
370
    15
100
AcDbLine
 10
2116.970768210787
 20
1286.300921053779
 30
0.0
 11
2109.265330662097
 21
1280.764549528006
 31
0.0
  0
LINE
  5
4E3
330
49B
100
AcDbEntity
  8
0
  6
Continuous
 62
     7
370
    15
100
AcDbLine
 10
2106.860638954962
 20
1279.036773965422
 30
0.0
 11
2106.050010973357
 21
1278.45433621974
 31
0.0
  0
LINE
  5
4E4
330
49B
100
AcDbEntity
  8
0
  6
Continuous
 62
     7
370
    15
100
AcDbLine
 10
2094.231151294399
 20
1301.619684047397
 30
0.0
 11
2103.092565738482
 21
1307.986627169876
 31
0.0
  0
SPLINE
  5
4E5
330
49B
100
AcDbEntity
  8
0
  6
Continuous
 62
     7
370
    15
100
AcDbSpline
210
0.0
220
0.0
230
1.0
 70
     8
 71
     3
 72
    18
 73
    14
 74
     0
 42
0.0000000001
 43
0.0000000001
 40
0.0
 40
0.0
 40
0.0
 40
0.0
 40
1.072232776561035
 40
1.072232776561035
 40
3.216698329683107
 40
3.216698329683107
 40
4.15437292759695
 40
4.15437292759695
 40
5.662681964847656
 40
5.662681964847656
 40
7.170991002098363
 40
7.170991002098363
 40
8.323304406583389
 40
8.323304406583389
 40
8.323304406583389
 40
8.323304406583389
 10
2103.092565738482
 20
1307.986627169876
 30
0.0
 10
2103.325276129757
 20
1307.7889914197
 30
0.0
 10
2103.584118517571
 20
1307.569192381936
 30
0.0
 10
2104.347755893938
 20
1306.930028255282
 30
0.0
 10
2104.839676704434
 20
1306.531279620623
 30
0.0
 10
2105.525235103111
 20
1306.023523405725
 30
0.0
 10
2105.730934521271
 20
1305.877668352582
 30
0.0
 10
2106.260894681662
 20
1305.522410324452
 30
0.0
 10
2106.597871507343
 20
1305.317731562019
 30
0.0
 10
2107.302322584642
 20
1304.919778591963
 30
0.0
 10
2107.66783133425
 20
1304.727792116708
 30
0.0
 10
2108.332960263405
 20
1304.391308628692
 30
0.0
 10
2108.627748559804
 20
1304.246287127577
 30
0.0
 10
2108.928494141298
 20
1304.098834456054
 30
0.0
  0
LINE
  5
4E6
330
49B
100
AcDbEntity
  8
0
  6
Continuous
 62
     7
370
    15
100
AcDbLine
 10
2095.943065555594
 20
1296.197435694565
 30
0.0
 11
2097.661277374384
 21
1297.431974152464
 31
0.0
  0
LINE
  5
4E7
330
49B
100
AcDbEntity
  8
0
  6
Continuous
 62
     7
370
    15
100
AcDbLine
 10
2109.564577141311
 20
1283.379737422124
 30
0.0
 11
2110.25476437157
 21
1283.875638259022
 31
0.0
  0
LINE
  5
4E8
330
49B
100
AcDbEntity
  8
0
  6
Continuous
 62
     7
370
    15
100
AcDbLine
 10
2095.388619090561
 20
1292.204647529949
 30
0.0
 11
2096.948727267337
 21
1293.325588220526
 31
0.0
  0
LINE
  5
4E9
330
49B
100
AcDbEntity
  8
0
  6
Continuous
 62
     7
370
    15
100
AcDbLine
 10
2096.948727267337
 20
1293.325588220526
 30
0.0
 11
2100.385029152611
 21
1291.916798635771
 31
0.0
  0
LWPOLYLINE
  5
4EA
330
49B
100
AcDbEntity
  8
0
  6
Continuous
 62
     7
370
    15
100
AcDbPolyline
 90
       20
 70
   128
 43
0.0
 10
2089.68002749761
 20
1302.911140137545
 10
2089.467638380936
 20
1302.738384144199
 10
2089.280207413889
 20
1302.557528845134
 10
2089.118945075591
 20
1302.369742252056
 10
2088.984892841187
 20
1302.176237140814
 10
2088.878916455719
 20
1301.97826321897
 10
2088.801700342921
 20
1301.777099054855
 10
2088.75374318502
 20
1301.574043820237
 10
2088.735354702119
 20
1301.370408899916
 10
2088.74665365194
 20
1301.167509422464
 10
2088.787567062854
 20
1300.96665576676
 10
2088.857830705154
 20
1300.769145099226
 10
2088.956990797518
 20
1300.576252996372
 10
2089.08440693765
 20
1300.389225206791
 10
2089.239256238172
 20
1300.209269605774
 10
2089.420538641046
 20
1300.037548394539
 10
2089.627083376217
 20
1299.875170594416
 10
2089.857556522757
 20
1299.7231848845
 10
2090.110469623682
 20
1299.582572828998
 10
2090.384189298806
 20
1299.454242538026
  0
LINE
  5
4EB
330
49B
100
AcDbEntity
  8
0
  6
Continuous
 62
     7
370
    15
100
AcDbLine
 10
2091.038825222498
 20
1284.264567080559
 30
0.0
 11
2090.384189298806
 21
1299.454242538026
 31
0.0
  0
ARC
  5
4EC
330
49B
100
AcDbEntity
  8
0
  6
Continuous
 62
     7
370
    15
100
AcDbCircle
 10
2091.640827742604
 20
1286.46305273724
 30
0.0
 40
2.279417955717846
100
AcDbArc
 50
189.2527481073781
 51
254.6863037880603
  0
LINE
  5
4ED
330
49B
100
AcDbEntity
  8
0
  6
Continuous
 62
     7
370
    15
100
AcDbLine
 10
2090.384189298806
 20
1299.454242538026
 30
0.0
 11
2093.191705628941
 21
1301.471448357952
 31
0.0
  0
LINE
  5
4EE
330
49B
100
AcDbEntity
  8
0
  6
Continuous
 62
     7
370
    15
100
AcDbLine
 10
2093.191705628941
 20
1301.471448357952
 30
0.0
 11
2093.299612649329
 21
1298.967655700128
 31
0.0
  0
LINE
  5
4EF
330
49B
100
AcDbEntity
  8
0
  6
Continuous
 62
     7
370
    15
100
AcDbLine
 10
2093.299612649329
 20
1298.967655700128
 30
0.0
 11
2091.770706636089
 21
1297.869133823362
 31
0.0
  0
LINE
  5
4F0
330
49B
100
AcDbEntity
  8
0
  6
Continuous
 62
     7
370
    15
100
AcDbLine
 10
2093.15989395485
 20
1285.788558996631
 30
0.0
 11
2091.038825222498
 21
1284.264567080559
 31
0.0
  0
LINE
  5
4F1
330
49B
100
AcDbEntity
  8
0
  6
Continuous
 62
     7
370
    15
100
AcDbLine
 10
2093.191705628941
 20
1301.471448357952
 30
0.0
 11
2089.68002749761
 21
1302.911140137545
 31
0.0
  0
LINE
  5
4F2
330
49B
100
AcDbEntity
  8
0
  6
Continuous
 62
     7
370
    15
100
AcDbLine
 10
2093.563476810267
 20
1295.412459575329
 30
0.0
 11
2095.123584987043
 21
1296.533400265906
 31
0.0
  0
LINE
  5
4F3
330
49B
100
AcDbEntity
  8
0
  6
Continuous
 62
     7
370
    15
100
AcDbLine
 10
2095.280712070173
 20
1294.708440187773
 30
0.0
 11
2096.840820246948
 21
1295.82938087835
 31
0.0
  0
LINE
  5
4F4
330
49B
100
AcDbEntity
  8
0
  6
Continuous
 62
     7
370
    15
100
AcDbLine
 10
2095.123584987043
 20
1296.533400265906
 30
0.0
 11
2096.840820246948
 21
1295.82938087835
 31
0.0
  0
LINE
  5
4F5
330
49B
100
AcDbEntity
  8
0
  6
Continuous
 62
     7
370
    15
100
AcDbLine
 10
2096.840820246948
 20
1295.82938087835
 30
0.0
 11
2096.948727267337
 21
1293.325588220526
 31
0.0
  0
LINE
  5
4F6
330
49B
100
AcDbEntity
  8
0
  6
Continuous
 62
     7
370
    15
100
AcDbLine
 10
2093.402058850088
 20
1298.996077257077
 30
0.0
 11
2094.274996195471
 21
1299.623284399076
 31
0.0
  0
LINE
  5
4F7
330
49B
100
AcDbEntity
  8
0
  6
Continuous
 62
     7
370
    15
100
AcDbLine
 10
2093.3620169764
 20
1299.012493327751
 30
0.0
 11
2093.402058850088
 21
1298.996077257077
 31
0.0
  0
LINE
  5
4F8
330
49B
100
AcDbEntity
  8
0
  6
Continuous
 62
     7
370
    15
100
AcDbLine
 10
2093.3620169764
 20
1299.012493327751
 30
0.0
 11
2093.330814812865
 21
1298.990074513939
 31
0.0
  0
LINE
  5
4F9
330
49B
100
AcDbEntity
  8
0
  6
Continuous
 62
     7
370
    15
100
AcDbLine
 10
2093.487941895995
 20
1297.165114435806
 30
0.0
 11
2095.048050072771
 21
1298.286055126383
 31
0.0
  0
LINE
  5
4FA
330
49B
100
AcDbEntity
  8
0
  6
Continuous
 62
     7
370
    15
100
AcDbLine
 10
2093.253304714288
 20
1300.042149902044
 30
0.0
 11
2094.274996195471
 21
1299.623284399076
 31
0.0
  0
LINE
  5
4FB
330
49B
100
AcDbEntity
  8
0
  6
Continuous
 62
     7
370
    15
100
AcDbLine
 10
2095.048050072771
 20
1298.286055126383
 30
0.0
 11
2093.330814812865
 21
1298.990074513939
 31
0.0
  0
LINE
  5
4FC
330
49B
100
AcDbEntity
  8
0
  6
Continuous
 62
     7
370
    15
100
AcDbLine
 10
2095.123584987043
 20
1296.533400265906
 30
0.0
 11
2095.048050072771
 21
1298.286055126383
 31
0.0
  0
LINE
  5
4FD
330
49B
100
AcDbEntity
  8
0
  6
Continuous
 62
     7
370
    15
100
AcDbLine
 10
2114.688334262163
 20
1303.257567166916
 30
0.0
 11
2114.680711874749
 21
1303.434431263195
 31
0.0
  0
LINE
  5
4FE
330
49B
100
AcDbEntity
  8
0
  6
Continuous
 62
     7
370
    15
100
AcDbLine
 10
2118.196018922388
 20
1301.993251727383
 30
0.0
 11
2115.972627511893
 21
1302.904781263063
 31
0.0
  0
LINE
  5
4FF
330
49B
100
AcDbEntity
  8
0
  6
Continuous
 62
     7
370
    15
100
AcDbLine
 10
2115.303473185284
 20
1303.179116195613
 30
0.0
 11
2114.680711874749
 21
1303.434431263195
 31
0.0
  0
LINE
  5
500
330
49B
100
AcDbEntity
  8
0
  6
Continuous
 62
     7
370
    15
100
AcDbLine
 10
2118.850654846079
 20
1286.803576269916
 30
0.0
 11
2118.747132717381
 21
1289.205625226743
 31
0.0
  0
LINE
  5
501
330
49B
100
AcDbEntity
  8
0
  6
Continuous
 62
     7
370
    15
100
AcDbLine
 10
2118.619369928217
 20
1292.17013608339
 30
0.0
 11
2118.196018922388
 21
1301.993251727383
 31
0.0
  0
LINE
  5
502
330
49B
100
AcDbEntity
  8
0
  6
Continuous
 62
     7
370
    15
100
AcDbLine
 10
2118.850654846079
 20
1286.803576269916
 30
0.0
 11
2116.656161463566
 21
1287.703258406211
 31
0.0
  0
LWPOLYLINE
  5
503
330
49B
100
AcDbEntity
  8
0
  6
Continuous
 62
     7
370
    15
100
AcDbPolyline
 90
       20
 70
   128
 43
0.0
 10
2118.196018922388
 20
1301.993251727383
 10
2118.408518238232
 20
1302.166124589287
 10
2118.596026379426
 20
1302.347105484538
 10
2118.757330845897
 20
1302.535024120756
 10
2118.891388580651
 20
1302.728665343444
 10
2118.99733271459
 20
1302.926776993653
 10
2119.074478172017
 20
1303.128078004925
 10
2119.122326100603
 20
1303.331266687155
 10
2119.140567097158
 20
1303.535029143834
 10
2119.129083208352
 20
1303.738047768203
 10
2119.087948693446
 20
1303.939009763411
 10
2119.017429544105
 20
1304.136615631566
 10
2118.917981764389
 20
1304.329587576788
 10
2118.790248422057
 20
1304.516677767936
 10
2118.635055490246
 20
1304.69667640756
 10
2118.453406506404
 20
1304.868419554923
 10
2118.24647608303
 20
1305.03079665249
 10
2118.01560231218
 20
1305.182757707221
 10
2117.762278112842
 20
1305.323320080235
 10
2117.488141577148
 20
1305.451574840928
  0
ARC
  5
504
330
49B
100
AcDbEntity
  8
0
  6
Continuous
 62
     7
370
    15
100
AcDbCircle
 10
2117.791630368344
 20
1288.50481605542
 30
0.0
 40
2.003933544861848
100
AcDbArc
 50
301.9023296163796
 51
357.8142477598232
  0
LINE
  5
505
330
49B
100
AcDbEntity
  8
0
  6
Continuous
 62
     7
370
    15
100
AcDbLine
 10
2117.488141577148
 20
1305.451574840928
 30
0.0
 11
2114.680711874749
 21
1303.434431263195
 31
0.0
  0
ARC
  5
506
330
49B
100
AcDbEntity
  8
0
  6
Continuous
 62
     7
370
    15
100
AcDbCircle
 10
2101.324084241163
 20
1306.460428420072
 30
0.0
 40
2.335981470445698
100
AcDbArc
 50
40.7941786295167
 51
116.2801533534489
  0
LWPOLYLINE
  5
507
330
49B
100
AcDbEntity
  8
0
  6
Continuous
 62
     7
370
    15
100
AcDbPolyline
 90
       14
 70
   128
 43
0.0
 10
2101.231794317287
 20
1285.735058667493
 10
2101.324672015068
 20
1285.708893050748
 10
2101.411106804684
 20
1285.708499972601
 10
2101.486075410341
 20
1285.733902277323
 10
2101.545220929176
 20
1285.783623675298
 10
2101.585106038622
 20
1285.854774539605
 10
2101.603412761093
 20
1285.943219840634
 10
2101.599077176422
 20
1286.043819458975
 10
2101.572351253031
 20
1286.150726910474
 10
2101.524788204441
 20
1286.257729122643
 10
2101.459152222153
 20
1286.358607515848
 10
2101.379257830879
 20
1286.447499404553
 10
2101.289748202238
 20
1286.519238715297
 10
2101.195825310491
 20
1286.569656220101
  0
LINE
  5
508
330
49B
100
AcDbEntity
  8
0
  6
Continuous
 62
     7
370
    15
100
AcDbLine
 10
2101.195825310491
 20
1286.569656220101
 30
0.0
 11
2101.289431801097
 21
1286.636912661535
 31
0.0
  0
LINE
  5
509
330
49B
100
AcDbEntity
  8
0
  6
Continuous
 62
     7
370
    15
100
AcDbLine
 10
2101.195825310491
 20
1286.569656220101
 30
0.0
 11
2096.512456419839
 21
1288.489709095254
 31
0.0
  0
LINE
  5
50A
330
49B
100
AcDbEntity
  8
0
  6
Continuous
 62
     7
370
    15
100
AcDbLine
 10
2096.548425426635
 20
1287.655111542646
 30
0.0
 11
2101.231794317287
 21
1285.735058667493
 31
0.0
  0
LWPOLYLINE
  5
50B
330
49B
100
AcDbEntity
  8
0
  6
Continuous
 62
     7
370
    15
100
AcDbPolyline
 90
       14
 70
   128
 43
0.0
 10
2096.512456419839
 20
1288.489709095254
 10
2096.419578722058
 20
1288.515874711998
 10
2096.333143932442
 20
1288.516267790145
 10
2096.258175326786
 20
1288.490865485423
 10
2096.19902980795
 20
1288.441144087448
 10
2096.159144698503
 20
1288.369993223141
 10
2096.140837976033
 20
1288.281547922112
 10
2096.145173560704
 20
1288.180948303772
 10
2096.171899484096
 20
1288.074040852272
 10
2096.219462532685
 20
1287.967038640104
 10
2096.285098514973
 20
1287.866160246899
 10
2096.364992906246
 20
1287.777268358193
 10
2096.454502534887
 20
1287.705529047449
 10
2096.548425426635
 20
1287.655111542646
  0
LINE
  5
50C
330
49B
100
AcDbEntity
  8
0
  6
Continuous
 62
     7
370
    15
100
AcDbLine
 10
2096.512456419839
 20
1288.489709095254
 30
0.0
 11
2096.606062910446
 21
1288.556965536689
 31
0.0
  0
LINE
  5
50D
330
49B
100
AcDbEntity
  8
0
  6
Continuous
 62
     7
370
    15
100
AcDbLine
 10
2093.225544210437
 20
1300.686283578161
 30
0.0
 11
2093.233469669951
 21
1300.691978035887
 31
0.0
  0
LINE
  5
50E
330
49B
100
AcDbEntity
  8
0
  6
Continuous
 62
     7
370
    15
100
AcDbLine
 10
2093.3620169764
 20
1299.012493327751
 30
0.0
 11
2093.36356176779
 21
1298.976649160006
 31
0.0
  0
LINE
  5
50F
330
49B
100
AcDbEntity
  8
0
  6
Continuous
 62
     7
370
    15
100
AcDbLine
 10
2094.274996195471
 20
1299.623284399076
 30
0.0
 11
2094.319759339123
 21
1298.584634364905
 31
0.0
  0
LINE
  5
510
330
49B
100
AcDbEntity
  8
0
  6
Continuous
 62
     7
370
    15
100
AcDbLine
 10
2095.653234525379
 20
1298.806624419004
 30
0.0
 11
2094.972068636132
 21
1298.317205432772
 31
0.0
  0
LINE
  5
511
330
49B
100
AcDbEntity
  8
0
  6
Continuous
 62
     7
370
    15
100
AcDbLine
 10
2093.402058850088
 20
1298.996077257077
 30
0.0
 11
2093.403603641478
 21
1298.960233089332
 31
0.0
  0
LINE
  5
512
330
49B
100
AcDbEntity
  8
0
  6
Continuous
 62
     7
370
    15
100
AcDbLine
 10
2094.28714885009
 20
1299.341303418635
 30
0.0
 11
2094.656235042769
 21
1299.606492549661
 31
0.0
  0
LINE
  5
513
330
49B
100
AcDbEntity
  8
0
  6
Continuous
 62
     7
370
    15
100
AcDbLine
 10
2106.093615964343
 20
1306.222315215668
 30
0.0
 11
2105.673914100258
 21
1305.920758628525
 31
0.0
  0
LINE
  5
514
330
49B
100
AcDbEntity
  8
0
  6
Continuous
 62
     7
370
    15
100
AcDbLine
 10
2104.376380704437
 20
1306.926334603225
 30
0.0
 11
2106.093615964343
 21
1306.222315215668
 31
0.0
  0
LINE
  5
515
330
49B
100
AcDbEntity
  8
0
  6
Continuous
 62
     7
370
    15
100
AcDbLine
 10
2105.547084000942
 20
1310.34881120421
 30
0.0
 11
2102.738121203587
 21
1308.330566094836
 31
0.0
  0
LINE
  5
516
330
49B
100
AcDbEntity
  8
0
  6
Continuous
 62
     7
370
    15
100
AcDbLine
 10
2102.738121203587
 20
1308.330566094836
 30
0.0
 11
2102.404888025436
 21
1308.467182564037
 31
0.0
  0
LINE
  5
517
330
49B
100
AcDbEntity
  8
0
  6
Continuous
 62
     7
370
    15
100
AcDbLine
 10
2101.735733698867
 20
1308.74151749657
 30
0.0
 11
2099.226404187369
 21
1309.770273816167
 31
0.0
  0
ARC
  5
518
330
49B
100
AcDbEntity
  8
0
  6
Continuous
 62
     7
370
    15
100
AcDbCircle
 10
2102.989949164614
 20
1303.469361493221
 30
0.0
 40
7.339330139542071
100
AcDbArc
 50
69.60958225426804
 51
120.8499393860399
  0
LINE
  5
519
330
49B
100
AcDbEntity
  8
0
  6
Continuous
 62
     7
370
    15
100
AcDbLine
 10
2102.738121203587
 20
1308.330566094836
 30
0.0
 11
2102.741223243571
 21
1308.25858871182
 31
0.0
  0
LINE
  5
51A
330
49B
100
AcDbEntity
  8
0
  6
Continuous
 62
     7
370
    15
100
AcDbLine
 10
2105.718293881922
 20
1306.376186981973
 30
0.0
 11
2105.547084000942
 21
1310.34881120421
 31
0.0
  0
LINE
  5
51B
330
49B
100
AcDbEntity
  8
0
  6
Continuous
 62
     7
370
    15
100
AcDbLine
 10
2099.309147563888
 20
1307.850359265067
 30
0.0
 11
2099.226404187369
 21
1309.770273816167
 31
0.0
  0
LINE
  5
51C
330
49B
100
AcDbEntity
  8
0
  6
Continuous
 62
     7
370
    15
100
AcDbLine
 10
2106.093615964343
 20
1306.222315215668
 30
0.0
 11
2106.119414481593
 21
1305.623705988558
 31
0.0
  0
ENDBLK
  5
49D
330
49B
100
AcDbEntity
  8
0
100
AcDbBlockEnd
  0
ENDSEC
  0
SECTION
  2
ENTITIES
  0
INSERT
  5
41A
330
1F
100
AcDbEntity
  8
0
100
AcDbBlockReference
  2
1
 10
0.0
 20
0.0
 30
0.0
  0
INSERT
  5
448
330
1F
100
AcDbEntity
  8
0
100
AcDbBlockReference
  2
2
 10
8.261282144255801
 20
0.0
 30
0.0
  0
INSERT
  5
49A
330
1F
100
AcDbEntity
  8
0
100
AcDbBlockReference
  2
3
 10
0.0
 20
6.699601448898874
 30
0.0
  0
INSERT
  5
51D
330
1F
100
AcDbEntity
  8
0
100
AcDbBlockReference
  2
4
 10
-5.326633061693883
 20
8.71737447026021
 30
0.0
  0
ENDSEC
  0
SECTION
  2
OBJECTS
  0
DICTIONARY
  5
C
330
0
100
AcDbDictionary
281
     1
  3
ACAD_COLOR
350
6B
  3
ACAD_GROUP
350
D
  3
ACAD_LAYOUT
350
1A
  3
ACAD_MATERIAL
350
6A
  3
ACAD_MLEADERSTYLE
350
12D
  3
ACAD_MLINESTYLE
350
17
  3
ACAD_PLOTSETTINGS
350
19
  3
ACAD_PLOTSTYLENAME
350
E
  3
ACAD_SCALELIST
350
10C
  3
ACAD_TABLESTYLE
350
7E
  3
ACAD_VISUALSTYLE
350
EF
  3
ACDB_RECOMPOSE_DATA
350
15D
  3
AcDbVariableDictionary
350
5E
  3
DWGPROPS
350
6F5
  0
DICTIONARY
  5
13C
330
10
100
AcDbDictionary
280
     1
281
     1
  3
ADSK_XREC_LAYER_RECONCILED
360
51E
  0
DICTIONARY
  5
5DF
330
3EF
100
AcDbDictionary
280
     1
281
     1
  0
DICTIONARY
  5
6E4
330
41B
100
AcDbDictionary
280
     1
281
     1
  0
DICTIONARY
  5
682
330
449
100
AcDbDictionary
280
     1
281
     1
  0
DICTIONARY
  5
6B
102
{ACAD_REACTORS
330
C
102
}
330
C
100
AcDbDictionary
281
     1
  0
DICTIONARY
  5
D
102
{ACAD_REACTORS
330
C
102
}
330
C
100
AcDbDictionary
281
     1
  0
DICTIONARY
  5
1A
102
{ACAD_REACTORS
330
C
102
}
330
C
100
AcDbDictionary
281
     1
  3
Layout1
350
D3
  3
Layout2
350
D7
  3
Model
350
22
  0
DICTIONARY
  5
6A
102
{ACAD_REACTORS
330
C
102
}
330
C
100
AcDbDictionary
281
     1
  3
ByBlock
350
ED
  3
ByLayer
350
EC
  3
Global
350
EE
  0
DICTIONARY
  5
12D
102
{ACAD_REACTORS
330
C
102
}
330
C
100
AcDbDictionary
281
     1
  3
Annotative
350
13B
  3
Standard
350
12E
  0
DICTIONARY
  5
17
102
{ACAD_REACTORS
330
C
102
}
330
C
100
AcDbDictionary
281
     1
  3
Standard
350
18
  0
DICTIONARY
  5
19
102
{ACAD_REACTORS
330
C
102
}
330
C
100
AcDbDictionary
281
     1
  0
ACDBDICTIONARYWDFLT
  5
E
102
{ACAD_REACTORS
330
C
102
}
330
C
100
AcDbDictionary
281
     1
  3
Normal
350
F
100
AcDbDictionaryWithDefault
340
F
  0
DICTIONARY
  5
10C
102
{ACAD_REACTORS
330
C
102
}
330
C
100
AcDbDictionary
281
     1
  3
A0
350
10D
  3
A1
350
188
  3
A2
350
189
  3
A3
350
18A
  3
A4
350
18B
  3
A5
350
18C
  3
A6
350
18D
  3
A7
350
18E
  3
A8
350
18F
  3
A9
350
190
  3
B0
350
191
  3
B1
350
192
  3
B2
350
193
  3
B3
350
194
  3
B4
350
195
  3
B5
350
196
  3
B6
350
197
  3
B7
350
198
  3
B8
350
199
  3
B9
350
19A
  3
C0
350
19B
  3
C1
350
19C
  3
C2
350
19D
  3
C3
350
19E
  3
C4
350
19F
  3
C5
350
1A0
  3
C6
350
1A1
  3
C7
350
1A2
  3
C8
350
1A3
  3
C9
350
1A4
  3
D0
350
1A5
  3
D1
350
1A6
  3
D2
350
1A7
  0
DICTIONARY
  5
7E
102
{ACAD_REACTORS
330
C
102
}
330
C
100
AcDbDictionary
281
     1
  3
Standard
350
7F
  0
DICTIONARY
  5
EF
102
{ACAD_REACTORS
330
C
102
}
330
C
100
AcDbDictionary
281
     1
  3
2dWireframe
350
F5
  3
3D Hidden
350
F7
  3
3dWireframe
350
F6
  3
Basic
350
F4
  3
Brighten
350
FB
  3
ColorChange
350
FF
  3
Conceptual
350
F8
  3
Dim
350
FA
  3
Facepattern
350
FE
  3
Flat
350
F0
  3
FlatWithEdges
350
F1
  3
Gouraud
350
F2
  3
GouraudWithEdges
350
F3
  3
Linepattern
350
FD
  3
Realistic
350
F9
  3
Thicken
350
FC
  0
XRECORD
  5
15D
102
{ACAD_REACTORS
330
C
102
}
330
C
100
AcDbXrecord
280
     1
 90
        1
330
7F
  0
DICTIONARY
  5
5E
102
{ACAD_REACTORS
330
C
102
}
330
C
100
AcDbDictionary
281
     1
  3
CANNOSCALE
350
146
  3
CMLEADERSTYLE
350
145
  3
CTABLESTYLE
350
84
  3
DIMASSOC
350
5F
  3
HIDETEXT
350
63
  3
INDEXCTL
350
6F1
  3
LIGHTINGUNITS
350
6EF
  3
MSLTSCALE
350
6EE
  3
PSOLHEIGHT
350
6F3
  3
PSOLWIDTH
350
6F2
  3
SORTENTS
350
6F0
  0
XRECORD
  5
6F5
102
{ACAD_REACTORS
330
C
102
}
330
C
100
AcDbXrecord
280
     1
  1
DWGPROPS COOKIE
  2

  3

  4

  6

  7

  8
orhan kara
  9

300
=
301
=
302
=
303
=
304
=
305
=
306
=
307
=
308
=
309
=
 40
0.0093900694444444
 41
2458536.673072535
 42
2459089.572894398
  1

 90
        0
  0
XRECORD
  5
51E
102
{ACAD_REACTORS
330
13C
102
}
330
13C
100
AcDbXrecord
280
     1
290
     1
  0
LAYOUT
  5
D3
102
{ACAD_XDICTIONARY
360
6F9
102
}
102
{ACAD_REACTORS
330
1A
102
}
330
1A
100
AcDbPlotSettings
  1

  2
C:\Documents and Settings\basas\Application Data\Autodesk\AutoCAD 2005\R16.1\enu\plotters\Default Windows System Printer.pc3
  4

  6

 40
0.0
 41
0.0
 42
0.0
 43
0.0
 44
0.0
 45
0.0
 46
0.0
 47
0.0
 48
0.0
 49
0.0
140
0.0
141
0.0
142
1.0
143
1.0
 70
   688
 72
     0
 73
     0
 74
     5
  7

 75
    16
147
1.0
148
0.0
149
0.0
100
AcDbLayout
  1
Layout1
 70
     1
 71
     1
 10
0.0
 20
0.0
 11
12.0
 21
9.0
 12
0.0
 22
0.0
 32
0.0
 14
0.0
 24
0.0
 34
0.0
 15
0.0
 25
0.0
 35
0.0
146
0.0
 13
0.0
 23
0.0
 33
0.0
 16
1.0
 26
0.0
 36
0.0
 17
0.0
 27
1.0
 37
0.0
 76
     0
330
D2
  0
LAYOUT
  5
D7
102
{ACAD_XDICTIONARY
360
6FB
102
}
102
{ACAD_REACTORS
330
1A
102
}
330
1A
100
AcDbPlotSettings
  1

  2
C:\Documents and Settings\basas\Application Data\Autodesk\AutoCAD 2005\R16.1\enu\plotters\Default Windows System Printer.pc3
  4

  6

 40
0.0
 41
0.0
 42
0.0
 43
0.0
 44
0.0
 45
0.0
 46
0.0
 47
0.0
 48
0.0
 49
0.0
140
0.0
141
0.0
142
1.0
143
1.0
 70
   688
 72
     0
 73
     0
 74
     5
  7

 75
    16
147
1.0
148
0.0
149
0.0
100
AcDbLayout
  1
Layout2
 70
     1
 71
     2
 10
0.0
 20
0.0
 11
12.0
 21
9.0
 12
0.0
 22
0.0
 32
0.0
 14
0.0
 24
0.0
 34
0.0
 15
0.0
 25
0.0
 35
0.0
146
0.0
 13
0.0
 23
0.0
 33
0.0
 16
1.0
 26
0.0
 36
0.0
 17
0.0
 27
1.0
 37
0.0
 76
     0
330
D6
  0
LAYOUT
  5
22
102
{ACAD_XDICTIONARY
360
6F6
102
}
102
{ACAD_REACTORS
330
1A
102
}
330
1A
100
AcDbPlotSettings
  1

  2
none_device
  4
ISO_A4_(210.00_x_297.00_MM)
  6

 40
7.5
 41
20.0
 42
7.5
 43
20.0
 44
210.0
 45
297.0
 46
11.54999923706054
 47
-13.65000009536743
 48
0.0
 49
0.0
140
0.0
141
0.0
142
1.0
143
8.704084754739808
 70
 11952
 72
     1
 73
     0
 74
     0
  7

 75
     0
147
0.1148885871608098
148
0.0
149
0.0
100
AcDbLayout
  1
Model
 70
     1
 71
     0
 10
0.0
 20
0.0
 11
12.0
 21
9.0
 12
0.0
 22
0.0
 32
0.0
 14
0.0
 24
0.0
 34
0.0
 15
0.0
 25
0.0
 35
0.0
146
0.0
 13
0.0
 23
0.0
 33
0.0
 16
1.0
 26
0.0
 36
0.0
 17
0.0
 27
1.0
 37
0.0
 76
     0
330
1F
331
EA
1001
ACAD_PSEXT
1000
None
1000
None
1000
Not applicable
1000
The layout will not be plotted unless a new plotter configuration name is selected.
1070
     0
  0
MATERIAL
  5
ED
102
{ACAD_XDICTIONARY
360
6FF
102
}
102
{ACAD_REACTORS
330
6A
102
}
330
6A
100
AcDbMaterial
  1
ByBlock
  0
MATERIAL
  5
EC
102
{ACAD_XDICTIONARY
360
6FD
102
}
102
{ACAD_REACTORS
330
6A
102
}
330
6A
100
AcDbMaterial
  1
ByLayer
  0
MATERIAL
  5
EE
102
{ACAD_XDICTIONARY
360
173
102
}
102
{ACAD_REACTORS
330
6A
102
}
330
6A
100
AcDbMaterial
  1
Global
 43
0.0007999999797903
 43
0.0
 43
0.0
 43
0.0
 43
0.0
 43
0.0007999999797903
 43
0.0
 43
0.0
 43
0.0
 43
0.0
 43
1.0
 43
0.0
 43
0.0
 43
0.0
 43
0.0
 43
1.0
 49
0.0007999999797903
 49
0.0
 49
0.0
 49
0.0
 49
0.0
 49
0.0007999999797903
 49
0.0
 49
0.0
 49
0.0
 49
0.0
 49
1.0
 49
0.0
 49
0.0
 49
0.0
 49
0.0
 49
1.0
142
0.0007999999797903
142
0.0
142
0.0
142
0.0
142
0.0
142
0.0007999999797903
142
0.0
142
0.0
142
0.0
142
0.0
142
1.0
142
0.0
142
0.0
142
0.0
142
0.0
142
1.0
144
0.0007999999797903
144
0.0
144
0.0
144
0.0
144
0.0
144
0.0007999999797903
144
0.0
144
0.0
144
0.0
144
0.0
144
1.0
144
0.0
144
0.0
144
0.0
144
0.0
144
1.0
1001
ACAD
1070
    -1
1070
     3
1070
     0
1000

1071
        0
1070
     0
  0
MLEADERSTYLE
  5
13B
102
{ACAD_REACTORS
330
12D
102
}
330
12D
100
AcDbMLeaderStyle
170
     2
171
     1
172
     0
 90
        2
 40
0.0
 41
0.0
173
     1
 91
-1056964608
340
14
 92
       -2
290
     1
 42
2.0
291
     1
 43
8.0
  3
Standard
 44
4.0
300

342
11
174
     1
178
     1
175
     1
176
     0
 93
-1056964608
 45
4.0
292
     0
297
     0
 46
4.0
 94
-1056964608
 47
1.0
 49
1.0
140
1.0
293
     1
141
0.0
294
     1
177
     0
142
1.0
295
     0
296
     1
143
3.75
1001
ACAD_MLEADERVER
1070
     2
  0
MLEADERSTYLE
  5
12E
102
{ACAD_REACTORS
330
12D
102
}
330
12D
100
AcDbMLeaderStyle
170
     2
171
     1
172
     0
 90
        2
 40
0.0
 41
0.0
173
     1
 91
-1056964608
340
14
 92
       -2
290
     1
 42
2.0
291
     1
 43
8.0
  3
Standard
 44
4.0
300

342
11
174
     1
178
     1
175
     1
176
     0
 93
-1056964608
 45
4.0
292
     0
297
     0
 46
4.0
 94
-1056964608
 47
1.0
 49
1.0
140
1.0
293
     1
141
0.0
294
     1
177
     0
142
1.0
295
     0
296
     0
143
3.75
1001
ACAD_MLEADERVER
1070
     2
  0
MLINESTYLE
  5
18
102
{ACAD_REACTORS
330
17
102
}
330
17
100
AcDbMlineStyle
  2
STANDARD
 70
     0
  3

 62
   256
 51
90.0
 52
90.0
 71
     2
 49
0.5
 62
   256
  6
BYLAYER
 49
-0.5
 62
   256
  6
BYLAYER
  0
ACDBPLACEHOLDER
  5
F
102
{ACAD_REACTORS
330
E
102
}
330
E
  0
SCALE
  5
10D
102
{ACAD_REACTORS
330
10C
102
}
330
10C
100
AcDbScale
 70
     0
300
1:1
140
1.0
141
1.0
290
     1
  0
SCALE
  5
188
102
{ACAD_REACTORS
330
10C
102
}
330
10C
100
AcDbScale
 70
     0
300
1:2
140
1.0
141
2.0
290
     0
  0
SCALE
  5
189
102
{ACAD_REACTORS
330
10C
102
}
330
10C
100
AcDbScale
 70
     0
300
1:4
140
1.0
141
4.0
290
     0
  0
SCALE
  5
18A
102
{ACAD_REACTORS
330
10C
102
}
330
10C
100
AcDbScale
 70
     0
300
1:5
140
1.0
141
5.0
290
     0
  0
SCALE
  5
18B
102
{ACAD_REACTORS
330
10C
102
}
330
10C
100
AcDbScale
 70
     0
300
1:8
140
1.0
141
8.0
290
     0
  0
SCALE
  5
18C
102
{ACAD_REACTORS
330
10C
102
}
330
10C
100
AcDbScale
 70
     0
300
1:10
140
1.0
141
10.0
290
     0
  0
SCALE
  5
18D
102
{ACAD_REACTORS
330
10C
102
}
330
10C
100
AcDbScale
 70
     0
300
1:16
140
1.0
141
16.0
290
     0
  0
SCALE
  5
18E
102
{ACAD_REACTORS
330
10C
102
}
330
10C
100
AcDbScale
 70
     0
300
1:20
140
1.0
141
20.0
290
     0
  0
SCALE
  5
18F
102
{ACAD_REACTORS
330
10C
102
}
330
10C
100
AcDbScale
 70
     0
300
1:30
140
1.0
141
30.0
290
     0
  0
SCALE
  5
190
102
{ACAD_REACTORS
330
10C
102
}
330
10C
100
AcDbScale
 70
     0
300
1:40
140
1.0
141
40.0
290
     0
  0
SCALE
  5
191
102
{ACAD_REACTORS
330
10C
102
}
330
10C
100
AcDbScale
 70
     0
300
1:50
140
1.0
141
50.0
290
     0
  0
SCALE
  5
192
102
{ACAD_REACTORS
330
10C
102
}
330
10C
100
AcDbScale
 70
     0
300
1:100
140
1.0
141
100.0
290
     0
  0
SCALE
  5
193
102
{ACAD_REACTORS
330
10C
102
}
330
10C
100
AcDbScale
 70
     0
300
2:1
140
2.0
141
1.0
290
     0
  0
SCALE
  5
194
102
{ACAD_REACTORS
330
10C
102
}
330
10C
100
AcDbScale
 70
     0
300
4:1
140
4.0
141
1.0
290
     0
  0
SCALE
  5
195
102
{ACAD_REACTORS
330
10C
102
}
330
10C
100
AcDbScale
 70
     0
300
8:1
140
8.0
141
1.0
290
     0
  0
SCALE
  5
196
102
{ACAD_REACTORS
330
10C
102
}
330
10C
100
AcDbScale
 70
     0
300
10:1
140
10.0
141
1.0
290
     0
  0
SCALE
  5
197
102
{ACAD_REACTORS
330
10C
102
}
330
10C
100
AcDbScale
 70
     0
300
100:1
140
100.0
141
1.0
290
     0
  0
SCALE
  5
198
102
{ACAD_REACTORS
330
10C
102
}
330
10C
100
AcDbScale
 70
     0
300
1/128" = 1'-0"
140
0.0078125
141
12.0
290
     0
  0
SCALE
  5
199
102
{ACAD_REACTORS
330
10C
102
}
330
10C
100
AcDbScale
 70
     0
300
1/64" = 1'-0"
140
0.015625
141
12.0
290
     0
  0
SCALE
  5
19A
102
{ACAD_REACTORS
330
10C
102
}
330
10C
100
AcDbScale
 70
     0
300
1/32" = 1'-0"
140
0.03125
141
12.0
290
     0
  0
SCALE
  5
19B
102
{ACAD_REACTORS
330
10C
102
}
330
10C
100
AcDbScale
 70
     0
300
1/16" = 1'-0"
140
0.0625
141
12.0
290
     0
  0
SCALE
  5
19C
102
{ACAD_REACTORS
330
10C
102
}
330
10C
100
AcDbScale
 70
     0
300
3/32" = 1'-0"
140
0.09375
141
12.0
290
     0
  0
SCALE
  5
19D
102
{ACAD_REACTORS
330
10C
102
}
330
10C
100
AcDbScale
 70
     0
300
1/8" = 1'-0"
140
0.125
141
12.0
290
     0
  0
SCALE
  5
19E
102
{ACAD_REACTORS
330
10C
102
}
330
10C
100
AcDbScale
 70
     0
300
3/16" = 1'-0"
140
0.1875
141
12.0
290
     0
  0
SCALE
  5
19F
102
{ACAD_REACTORS
330
10C
102
}
330
10C
100
AcDbScale
 70
     0
300
1/4" = 1'-0"
140
0.25
141
12.0
290
     0
  0
SCALE
  5
1A0
102
{ACAD_REACTORS
330
10C
102
}
330
10C
100
AcDbScale
 70
     0
300
3/8" = 1'-0"
140
0.375
141
12.0
290
     0
  0
SCALE
  5
1A1
102
{ACAD_REACTORS
330
10C
102
}
330
10C
100
AcDbScale
 70
     0
300
1/2" = 1'-0"
140
0.5
141
12.0
290
     0
  0
SCALE
  5
1A2
102
{ACAD_REACTORS
330
10C
102
}
330
10C
100
AcDbScale
 70
     0
300
3/4" = 1'-0"
140
0.75
141
12.0
290
     0
  0
SCALE
  5
1A3
102
{ACAD_REACTORS
330
10C
102
}
330
10C
100
AcDbScale
 70
     0
300
1" = 1'-0"
140
1.0
141
12.0
290
     0
  0
SCALE
  5
1A4
102
{ACAD_REACTORS
330
10C
102
}
330
10C
100
AcDbScale
 70
     0
300
1-1/2" = 1'-0"
140
1.5
141
12.0
290
     0
  0
SCALE
  5
1A5
102
{ACAD_REACTORS
330
10C
102
}
330
10C
100
AcDbScale
 70
     0
300
3" = 1'-0"
140
3.0
141
12.0
290
     0
  0
SCALE
  5
1A6
102
{ACAD_REACTORS
330
10C
102
}
330
10C
100
AcDbScale
 70
     0
300
6" = 1'-0"
140
6.0
141
12.0
290
     0
  0
SCALE
  5
1A7
102
{ACAD_REACTORS
330
10C
102
}
330
10C
100
AcDbScale
 70
     0
300
1'-0" = 1'-0"
140
12.0
141
12.0
290
     0
  0
TABLESTYLE
  5
7F
102
{ACAD_XDICTIONARY
360
162
102
}
102
{ACAD_REACTORS
330
7E
102
}
330
7E
100
AcDbTableStyle
  3
Standard
 70
     0
 71
     0
 40
1.5
 41
1.5
280
     0
281
     0
  7
Standard
140
4.5
170
     2
 62
     0
 63
     7
283
     0
274
    -2
284
     1
 64
     0
275
    -2
285
     1
 65
     0
276
    -2
286
     1
 66
     0
277
    -2
287
     1
 67
     0
278
    -2
288
     1
 68
     0
279
    -2
289
     1
 69
     0
  7
Standard
140
6.0
170
     5
 62
     0
 63
     7
283
     0
274
    -2
284
     1
 64
     0
275
    -2
285
     1
 65
     0
276
    -2
286
     1
 66
     0
277
    -2
287
     1
 67
     0
278
    -2
288
     1
 68
     0
279
    -2
289
     1
 69
     0
  7
Standard
140
4.5
170
     5
 62
     0
 63
     7
283
     0
274
    -2
284
     1
 64
     0
275
    -2
285
     1
 65
     0
276
    -2
286
     1
 66
     0
277
    -2
287
     1
 67
     0
278
    -2
288
     1
 68
     0
279
    -2
289
     1
 69
     0
  0
VISUALSTYLE
  5
F5
102
{ACAD_REACTORS
330
EF
102
}
330
EF
100
AcDbVisualStyle
  2
2dWireframe
 70
     4
 71
     0
 72
     2
 73
     1
 90
        0
 40
-0.6
 41
-30.0
 62
     5
 63
     7
 74
     1
 91
        4
 64
     7
 65
   257
 75
     1
175
     1
 42
1.0
 92
        0
 66
   257
 43
1.0
 76
     1
 77
     6
 78
     2
 67
     7
 79
     5
170
     0
171
     0
290
     0
174
     0
 93
        1
 44
0.0
173
     0
291
     0
 45
0.0
1001
ACAD
1000
AcDbSavedByObjectVersion
1070
     0
  0
VISUALSTYLE
  5
F7
102
{ACAD_REACTORS
330
EF
102
}
330
EF
100
AcDbVisualStyle
  2
3D Hidden
 70
     6
 71
     1
 72
     2
 73
     2
 90
        0
 40
-0.6
 41
-30.0
 62
     5
 63
     7
 74
     2
 91
        2
 64
     7
 65
   257
 75
     2
175
     1
 42
40.0
 92
        0
 66
   257
 43
1.0
 76
     1
 77
     6
 78
     2
 67
     7
 79
     3
170
     0
171
     0
290
     0
174
     0
 93
        1
 44
0.0
173
     0
291
     0
 45
0.0
1001
ACAD
1000
AcDbSavedByObjectVersion
1070
     0
  0
VISUALSTYLE
  5
F6
102
{ACAD_REACTORS
330
EF
102
}
330
EF
100
AcDbVisualStyle
  2
3dWireframe
 70
     5
 71
     0
 72
     2
 73
     1
 90
        0
 40
-0.6
 41
-30.0
 62
     5
 63
     7
 74
     1
 91
        4
 64
     7
 65
   257
 75
     1
175
     1
 42
1.0
 92
        0
 66
   257
 43
1.0
 76
     1
 77
     6
 78
     2
 67
     7
 79
     5
170
     0
171
     0
290
     0
174
     0
 93
        1
 44
0.0
173
     0
291
     0
 45
0.0
1001
ACAD
1000
AcDbSavedByObjectVersion
1070
     0
  0
VISUALSTYLE
  5
F4
102
{ACAD_REACTORS
330
EF
102
}
330
EF
100
AcDbVisualStyle
  2
Basic
 70
     7
 71
     1
 72
     0
 73
     1
 90
        0
 40
-0.6
 41
-30.0
 62
     5
 63
     7
 74
     0
 91
        4
 64
     7
 65
   257
 75
     1
175
     1
 42
1.0
 92
        8
 66
     7
 43
1.0
 76
     1
 77
     6
 78
     2
 67
     7
 79
     5
170
     0
171
     0
290
     0
174
     0
 93
        1
 44
0.0
173
     0
291
     1
 45
0.0
1001
ACAD
1000
AcDbSavedByObjectVersion
1070
     0
  0
VISUALSTYLE
  5
FB
102
{ACAD_REACTORS
330
EF
102
}
330
EF
100
AcDbVisualStyle
  2
Brighten
 70
    12
 71
     2
 72
     2
 73
     1
 90
        0
 40
-0.6
 41
-30.0
 62
     5
 63
     7
 74
     1
 91
        4
 64
     7
 65
   257
 75
     1
175
     1
 42
1.0
 92
        8
 66
     7
 43
1.0
 76
     1
 77
     6
 78
     2
 67
     7
 79
     5
170
     0
171
     0
290
     0
174
     0
 93
        1
 44
50.0
173
     0
291
     1
 45
0.0
1001
ACAD
1000
AcDbSavedByObjectVersion
1070
     0
  0
VISUALSTYLE
  5
FF
102
{ACAD_REACTORS
330
EF
102
}
330
EF
100
AcDbVisualStyle
  2
ColorChange
 70
    16
 71
     2
 72
     2
 73
     3
 90
        0
 40
-0.6
 41
-30.0
 62
     5
 63
     8
 74
     1
 91
        4
 64
     7
 65
   257
 75
     1
175
     1
 42
1.0
 92
        8
 66
     8
 43
1.0
 76
     1
 77
     6
 78
     2
 67
     7
 79
     5
170
     0
171
     0
290
     0
174
     0
 93
        1
 44
0.0
173
     0
291
     1
 45
0.0
1001
ACAD
1000
AcDbSavedByObjectVersion
1070
     0
  0
VISUALSTYLE
  5
F8
102
{ACAD_REACTORS
330
EF
102
}
330
EF
100
AcDbVisualStyle
  2
Conceptual
 70
     9
 71
     3
 72
     2
 73
     1
 90
        0
 40
-0.6
 41
-30.0
 62
     5
 63
     7
 74
     2
 91
        2
 64
     7
 65
   257
 75
     1
175
     1
 42
40.0
 92
        8
 66
     7
 43
1.0
 76
     1
 77
     6
 78
     2
 67
     7
 79
     3
170
     0
171
     0
290
     0
174
     0
 93
        1
 44
0.0
173
     0
291
     0
 45
0.0
1001
ACAD
1000
AcDbSavedByObjectVersion
1070
     0
  0
VISUALSTYLE
  5
FA
102
{ACAD_REACTORS
330
EF
102
}
330
EF
100
AcDbVisualStyle
  2
Dim
 70
    11
 71
     2
 72
     2
 73
     1
 90
        0
 40
-0.6
 41
-30.0
 62
     5
 63
     7
 74
     1
 91
        4
 64
     7
 65
   257
 75
     1
175
     1
 42
1.0
 92
        8
 66
     7
 43
1.0
 76
     1
 77
     6
 78
     2
 67
     7
 79
     5
170
     0
171
     0
290
     0
174
     0
 93
        1
 44
-50.0
173
     0
291
     1
 45
0.0
1001
ACAD
1000
AcDbSavedByObjectVersion
1070
     0
  0
VISUALSTYLE
  5
FE
102
{ACAD_REACTORS
330
EF
102
}
330
EF
100
AcDbVisualStyle
  2
Facepattern
 70
    15
 71
     2
 72
     2
 73
     1
 90
        0
 40
-0.6
 41
-30.0
 62
     5
 63
     7
 74
     1
 91
        4
 64
     7
 65
   257
 75
     1
175
     1
 42
1.0
 92
        8
 66
     7
 43
1.0
 76
     1
 77
     6
 78
     2
 67
     7
 79
     5
170
     0
171
     0
290
     0
174
     0
 93
        1
 44
0.0
173
     0
291
     1
 45
0.0
1001
ACAD
1000
AcDbSavedByObjectVersion
1070
     0
  0
VISUALSTYLE
  5
F0
102
{ACAD_REACTORS
330
EF
102
}
330
EF
100
AcDbVisualStyle
  2
Flat
 70
     0
 71
     2
 72
     1
 73
     1
 90
        2
 40
-0.6
 41
30.0
 62
     5
 63
     7
 74
     0
 91
        4
 64
     7
 65
   257
 75
     1
175
     1
 42
1.0
 92
        8
 66
     7
 43
1.0
 76
     1
 77
     6
 78
     2
 67
     7
 79
     5
170
     0
171
     0
290
     0
174
     0
 93
        1
 44
0.0
173
     0
291
     1
 45
0.0
1001
ACAD
1000
AcDbSavedByObjectVersion
1070
     0
  0
VISUALSTYLE
  5
F1
102
{ACAD_REACTORS
330
EF
102
}
330
EF
100
AcDbVisualStyle
  2
FlatWithEdges
 70
     1
 71
     2
 72
     1
 73
     1
 90
        2
 40
-0.6
 41
30.0
 62
     5
 63
     7
 74
     1
 91
        4
 64
     7
 65
   257
 75
     1
175
     1
 42
1.0
 92
        0
 66
   257
 43
1.0
 76
     1
 77
     6
 78
     2
 67
     7
 79
     5
170
     0
171
     0
290
     0
174
     0
 93
        1
 44
0.0
173
     0
291
     1
 45
0.0
1001
ACAD
1000
AcDbSavedByObjectVersion
1070
     0
  0
VISUALSTYLE
  5
F2
102
{ACAD_REACTORS
330
EF
102
}
330
EF
100
AcDbVisualStyle
  2
Gouraud
 70
     2
 71
     2
 72
     2
 73
     1
 90
        2
 40
-0.6
 41
30.0
 62
     5
 63
     7
 74
     0
 91
        4
 64
     7
 65
   257
 75
     1
175
     1
 42
1.0
 92
        0
 66
     7
 43
1.0
 76
     1
 77
     6
 78
     2
 67
     7
 79
     5
170
     0
171
     0
290
     0
174
     0
 93
        1
 44
0.0
173
     0
291
     1
 45
0.0
1001
ACAD
1000
AcDbSavedByObjectVersion
1070
     0
  0
VISUALSTYLE
  5
F3
102
{ACAD_REACTORS
330
EF
102
}
330
EF
100
AcDbVisualStyle
  2
GouraudWithEdges
 70
     3
 71
     2
 72
     2
 73
     1
 90
        2
 40
-0.6
 41
30.0
 62
     5
 63
     7
 74
     1
 91
        4
 64
     7
 65
   257
 75
     1
175
     1
 42
1.0
 92
        0
 66
   257
 43
1.0
 76
     1
 77
     6
 78
     2
 67
     7
 79
     5
170
     0
171
     0
290
     0
174
     0
 93
        1
 44
0.0
173
     0
291
     1
 45
0.0
1001
ACAD
1000
AcDbSavedByObjectVersion
1070
     0
  0
VISUALSTYLE
  5
FD
102
{ACAD_REACTORS
330
EF
102
}
330
EF
100
AcDbVisualStyle
  2
Linepattern
 70
    14
 71
     2
 72
     2
 73
     1
 90
        0
 40
-0.6
 41
-30.0
 62
     5
 63
     7
 74
     1
 91
        4
 64
     7
 65
   257
 75
     7
175
     7
 42
1.0
 92
        8
 66
     7
 43
1.0
 76
     1
 77
     6
 78
     2
 67
     7
 79
     5
170
     0
171
     0
290
     0
174
     0
 93
        1
 44
0.0
173
     0
291
     1
 45
0.0
1001
ACAD
1000
AcDbSavedByObjectVersion
1070
     0
  0
VISUALSTYLE
  5
F9
102
{ACAD_REACTORS
330
EF
102
}
330
EF
100
AcDbVisualStyle
  2
Realistic
 70
     8
 71
     2
 72
     2
 73
     1
 90
        0
 40
-0.6
 41
-30.0
 62
     5
 63
     7
 74
     1
 91
        0
 64
     7
 65
   257
 75
     1
175
     1
 42
1.0
 92
        8
 66
     8
 43
1.0
 76
     1
 77
     6
 78
     2
 67
     7
 79
     5
170
     0
171
     0
290
     0
174
     0
 93
       13
 44
0.0
173
     0
291
     0
 45
0.0
1001
ACAD
1000
AcDbSavedByObjectVersion
1070
     0
  0
VISUALSTYLE
  5
FC
102
{ACAD_REACTORS
330
EF
102
}
330
EF
100
AcDbVisualStyle
  2
Thicken
 70
    13
 71
     2
 72
     2
 73
     1
 90
        0
 40
-0.6
 41
-30.0
 62
     5
 63
     7
 74
     1
 91
        4
 64
     7
 65
   257
 75
     1
175
     1
 42
1.0
 92
       12
 66
     7
 43
1.0
 76
     1
 77
     6
 78
     2
 67
     7
 79
     5
170
     0
171
     0
290
     0
174
     0
 93
        1
 44
0.0
173
     0
291
     1
 45
0.0
1001
ACAD
1000
AcDbSavedByObjectVersion
1070
     0
  0
DICTIONARYVAR
  5
146
102
{ACAD_REACTORS
330
5E
102
}
330
5E
100
DictionaryVariables
280
     0
  1
1:1
  0
DICTIONARYVAR
  5
145
102
{ACAD_REACTORS
330
5E
102
}
330
5E
100
DictionaryVariables
280
     0
  1
STANDARD
  0
DICTIONARYVAR
  5
84
102
{ACAD_REACTORS
330
5E
102
}
330
5E
100
DictionaryVariables
280
     0
  1
STANDARD
  0
DICTIONARYVAR
  5
5F
102
{ACAD_REACTORS
330
5E
102
}
330
5E
100
DictionaryVariables
280
     0
  1
2
  0
DICTIONARYVAR
  5
63
102
{ACAD_REACTORS
330
5E
102
}
330
5E
100
DictionaryVariables
280
     0
  1
1
  0
DICTIONARYVAR
  5
6F1
102
{ACAD_REACTORS
330
5E
102
}
330
5E
100
DictionaryVariables
280
     0
  1
0
  0
DICTIONARYVAR
  5
6EF
102
{ACAD_REACTORS
330
5E
102
}
330
5E
100
DictionaryVariables
280
     0
  1
2
  0
DICTIONARYVAR
  5
6EE
102
{ACAD_REACTORS
330
5E
102
}
330
5E
100
DictionaryVariables
280
     0
  1
1
  0
DICTIONARYVAR
  5
6F3
102
{ACAD_REACTORS
330
5E
102
}
330
5E
100
DictionaryVariables
280
     0
  1
80.000000
  0
DICTIONARYVAR
  5
6F2
102
{ACAD_REACTORS
330
5E
102
}
330
5E
100
DictionaryVariables
280
     0
  1
5.000000
  0
DICTIONARYVAR
  5
6F0
102
{ACAD_REACTORS
330
5E
102
}
330
5E
100
DictionaryVariables
280
     0
  1
127
  0
DICTIONARY
  5
6F9
330
D3
100
AcDbDictionary
280
     1
281
     1
  3
ACAD_XREC_ROUNDTRIP
360
6FA
  0
DICTIONARY
  5
6FB
330
D7
100
AcDbDictionary
280
     1
281
     1
  3
ACAD_XREC_ROUNDTRIP
360
6FC
  0
DICTIONARY
  5
6F6
330
22
100
AcDbDictionary
280
     1
281
     1
  3
ACAD_XREC_ROUNDTRIP
360
6F7
  0
DICTIONARY
  5
6FF
330
ED
100
AcDbDictionary
280
     1
281
     1
  3
ACAD_XREC_ROUNDTRIP
360
700
  0
DICTIONARY
  5
6FD
330
EC
100
AcDbDictionary
280
     1
281
     1
  3
ACAD_XREC_ROUNDTRIP
360
6FE
  0
DICTIONARY
  5
173
330
EE
100
AcDbDictionary
280
     1
281
     1
  3
ACAD_XREC_ROUNDTRIP
360
701
  3
BUMPTILE
360
175
  3
DIFFUSETILE
360
174
  3
OPACITYTILE
360
176
  3
REFLECTIONTILE
360
177
  0
DICTIONARY
  5
162
330
7F
100
AcDbDictionary
280
     1
281
     1
  3
ACAD_ROUNDTRIP_2008_TABLESTYLE_CELLSTYLEMAP
360
6F4
  3
ACAD_XREC_ROUNDTRIP
360
6F8
  0
XRECORD
  5
6FA
102
{ACAD_REACTORS
330
6F9
102
}
330
6F9
100
AcDbXrecord
280
     1
102
SHADEPLOT
 70
     0
102
SHADEPLOTRESLEVEL
 70
     2
102
SHADEPLOTCUSTOMDPI
 70
   300
  0
XRECORD
  5
6FC
102
{ACAD_REACTORS
330
6FB
102
}
330
6FB
100
AcDbXrecord
280
     1
102
SHADEPLOT
 70
     0
102
SHADEPLOTRESLEVEL
 70
     2
102
SHADEPLOTCUSTOMDPI
 70
   300
  0
XRECORD
  5
6F7
102
{ACAD_REACTORS
330
6F6
102
}
330
6F6
100
AcDbXrecord
280
     1
102
SHADEPLOT
 70
     0
102
SHADEPLOTRESLEVEL
 70
     2
102
SHADEPLOTCUSTOMDPI
 70
   300
  0
XRECORD
  5
700
102
{ACAD_REACTORS
330
6FF
102
}
330
6FF
100
AcDbXrecord
280
     1
102
MATERIAL
148
0.0
149
0.0
149
0.0
 93
        0
 94
       63
282
     0
 72
     1
 77
     1
171
     1
175
     1
179
     1
273
     0
  0
XRECORD
  5
6FE
102
{ACAD_REACTORS
330
6FD
102
}
330
6FD
100
AcDbXrecord
280
     1
102
MATERIAL
148
0.0
149
0.0
149
0.0
 93
        0
 94
       63
282
     0
 72
     1
 77
     1
171
     1
175
     1
179
     1
273
     0
  0
XRECORD
  5
701
102
{ACAD_REACTORS
330
173
102
}
330
173
100
AcDbXrecord
280
     1
102
MATERIAL
148
0.0
149
0.0
149
0.0
 93
        0
 94
       63
282
     0
 72
     1
 77
     1
171
     1
175
     1
179
     1
273
     0
  0
XRECORD
  5
175
102
{ACAD_REACTORS
330
173
102
}
330
173
100
AcDbXrecord
280
     1
270
     1
271
     1
  0
XRECORD
  5
174
102
{ACAD_REACTORS
330
173
102
}
330
173
100
AcDbXrecord
280
     1
270
     1
271
     1
  0
XRECORD
  5
176
102
{ACAD_REACTORS
330
173
102
}
330
173
100
AcDbXrecord
280
     1
270
     1
271
     1
  0
XRECORD
  5
177
102
{ACAD_REACTORS
330
173
102
}
330
173
100
AcDbXrecord
280
     1
270
     1
271
     1
  0
CELLSTYLEMAP
  5
6F4
102
{ACAD_REACTORS
330
162
102
}
330
162
100
AcDbCellStyleMap
 90
        3
300
CELLSTYLE
  1
TABLEFORMAT_BEGIN
 90
        5
170
     1
 91
        0
 92
    32768
 62
   257
 93
        1
300
CONTENTFORMAT
  1
CONTENTFORMAT_BEGIN
 90
        0
 91
        0
 92
      512
 93
        0
300

 40
0.0
140
1.0
 94
        5
 62
     0
340
11
144
6.0
309
CONTENTFORMAT_END
171
     1
301
MARGIN
  1
CELLMARGIN_BEGIN
 40
1.5
 40
1.5
 40
1.5
 40
1.5
 40
4.5
 40
4.5
309
CELLMARGIN_END
 94
        6
 95
        1
302
GRIDFORMAT
  1
GRIDFORMAT_BEGIN
 90
        0
 91
        1
 62
     0
 92
       -2
340
14
 93
        0
 40
1.125
309
GRIDFORMAT_END
 95
        2
302
GRIDFORMAT
  1
GRIDFORMAT_BEGIN
 90
        0
 91
        1
 62
     0
 92
       -2
340
14
 93
        0
 40
1.125
309
GRIDFORMAT_END
 95
        4
302
GRIDFORMAT
  1
GRIDFORMAT_BEGIN
 90
        0
 91
        1
 62
     0
 92
       -2
340
14
 93
        0
 40
1.125
309
GRIDFORMAT_END
 95
        8
302
GRIDFORMAT
  1
GRIDFORMAT_BEGIN
 90
        0
 91
        1
 62
     0
 92
       -2
340
14
 93
        0
 40
1.125
309
GRIDFORMAT_END
 95
       16
302
GRIDFORMAT
  1
GRIDFORMAT_BEGIN
 90
        0
 91
        1
 62
     0
 92
       -2
340
14
 93
        0
 40
1.125
309
GRIDFORMAT_END
 95
       32
302
GRIDFORMAT
  1
GRIDFORMAT_BEGIN
 90
        0
 91
        1
 62
     0
 92
       -2
340
14
 93
        0
 40
1.125
309
GRIDFORMAT_END
309
TABLEFORMAT_END
  1
CELLSTYLE_BEGIN
 90
        1
 91
        1
300
_TITLE
309
CELLSTYLE_END
300
CELLSTYLE
  1
TABLEFORMAT_BEGIN
 90
        5
170
     1
 91
        0
 92
        0
 62
   257
 93
        1
300
CONTENTFORMAT
  1
CONTENTFORMAT_BEGIN
 90
        0
 91
        0
 92
      512
 93
        0
300

 40
0.0
140
1.0
 94
        5
 62
     0
340
11
144
4.5
309
CONTENTFORMAT_END
171
     1
301
MARGIN
  1
CELLMARGIN_BEGIN
 40
1.5
 40
1.5
 40
1.5
 40
1.5
 40
4.5
 40
4.5
309
CELLMARGIN_END
 94
        6
 95
        1
302
GRIDFORMAT
  1
GRIDFORMAT_BEGIN
 90
        0
 91
        1
 62
     0
 92
       -2
340
14
 93
        0
 40
1.125
309
GRIDFORMAT_END
 95
        2
302
GRIDFORMAT
  1
GRIDFORMAT_BEGIN
 90
        0
 91
        1
 62
     0
 92
       -2
340
14
 93
        0
 40
1.125
309
GRIDFORMAT_END
 95
        4
302
GRIDFORMAT
  1
GRIDFORMAT_BEGIN
 90
        0
 91
        1
 62
     0
 92
       -2
340
14
 93
        0
 40
1.125
309
GRIDFORMAT_END
 95
        8
302
GRIDFORMAT
  1
GRIDFORMAT_BEGIN
 90
        0
 91
        1
 62
     0
 92
       -2
340
14
 93
        0
 40
1.125
309
GRIDFORMAT_END
 95
       16
302
GRIDFORMAT
  1
GRIDFORMAT_BEGIN
 90
        0
 91
        1
 62
     0
 92
       -2
340
14
 93
        0
 40
1.125
309
GRIDFORMAT_END
 95
       32
302
GRIDFORMAT
  1
GRIDFORMAT_BEGIN
 90
        0
 91
        1
 62
     0
 92
       -2
340
14
 93
        0
 40
1.125
309
GRIDFORMAT_END
309
TABLEFORMAT_END
  1
CELLSTYLE_BEGIN
 90
        2
 91
        1
300
_HEADER
309
CELLSTYLE_END
300
CELLSTYLE
  1
TABLEFORMAT_BEGIN
 90
        5
170
     1
 91
        0
 92
        0
 62
   257
 93
        1
300
CONTENTFORMAT
  1
CONTENTFORMAT_BEGIN
 90
        0
 91
        0
 92
      512
 93
        0
300

 40
0.0
140
1.0
 94
        2
 62
     0
340
11
144
4.5
309
CONTENTFORMAT_END
171
     1
301
MARGIN
  1
CELLMARGIN_BEGIN
 40
1.5
 40
1.5
 40
1.5
 40
1.5
 40
4.5
 40
4.5
309
CELLMARGIN_END
 94
        6
 95
        1
302
GRIDFORMAT
  1
GRIDFORMAT_BEGIN
 90
        0
 91
        1
 62
     0
 92
       -2
340
14
 93
        0
 40
1.125
309
GRIDFORMAT_END
 95
        2
302
GRIDFORMAT
  1
GRIDFORMAT_BEGIN
 90
        0
 91
        1
 62
     0
 92
       -2
340
14
 93
        0
 40
1.125
309
GRIDFORMAT_END
 95
        4
302
GRIDFORMAT
  1
GRIDFORMAT_BEGIN
 90
        0
 91
        1
 62
     0
 92
       -2
340
14
 93
        0
 40
1.125
309
GRIDFORMAT_END
 95
        8
302
GRIDFORMAT
  1
GRIDFORMAT_BEGIN
 90
        0
 91
        1
 62
     0
 92
       -2
340
14
 93
        0
 40
1.125
309
GRIDFORMAT_END
 95
       16
302
GRIDFORMAT
  1
GRIDFORMAT_BEGIN
 90
        0
 91
        1
 62
     0
 92
       -2
340
14
 93
        0
 40
1.125
309
GRIDFORMAT_END
 95
       32
302
GRIDFORMAT
  1
GRIDFORMAT_BEGIN
 90
        0
 91
        1
 62
     0
 92
       -2
340
14
 93
        0
 40
1.125
309
GRIDFORMAT_END
309
TABLEFORMAT_END
  1
CELLSTYLE_BEGIN
 90
        3
 91
        2
300
_DATA
309
CELLSTYLE_END
  0
XRECORD
  5
6F8
102
{ACAD_REACTORS
330
162
102
}
330
162
100
AcDbXrecord
280
     1
102
ACAD_ROUNDTRIP_PRE2007_TABLESTYLE
 90
      512
 91
        0
  1

 92
      512
 93
        0
  2

 94
      512
 95
        0
  3

  0
ENDSEC
  0
EOF
