  0
SECTION
  2
HEADER
  9
$ACADVER
  1
AC1015
  9
$ACADMAINTVER
 70
    20
  9
$DWGCODEPAGE
  3
ANSI_1254
  9
$INSBASE
 10
0.0
 20
0.0
 30
0.0
  9
$EXTMIN
 10
2111.448488616868
 20
834.8428923731992
 30
0.0
  9
$EXTMAX
 10
2241.465938488866
 20
899.1597903283821
 30
0.0
  9
$LIMMIN
 10
0.0
 20
0.0
  9
$LIMMAX
 10
420.0
 20
297.0
  9
$ORTHOMODE
 70
     0
  9
$REGENMODE
 70
     1
  9
$FILLMODE
 70
     1
  9
$QTEXTMODE
 70
     0
  9
$MIRRTEXT
 70
     0
  9
$LTSCALE
 40
1.0
  9
$ATTMODE
 70
     1
  9
$TEXTSIZE
 40
2.5
  9
$TRACEWID
 40
1.0
  9
$TEXTSTYLE
  7
Standard
  9
$CLAYER
  8
0
  9
$CELTYPE
  6
ByLayer
  9
$CECOLOR
 62
   256
  9
$CELTSCALE
 40
1.0
  9
$DISPSILH
 70
     0
  9
$DIMSCALE
 40
1.0
  9
$DIMASZ
 40
2.5
  9
$DIMEXO
 40
0.625
  9
$DIMDLI
 40
3.75
  9
$DIMRND
 40
0.0
  9
$DIMDLE
 40
0.0
  9
$DIMEXE
 40
1.25
  9
$DIMTP
 40
0.0
  9
$DIMTM
 40
0.0
  9
$DIMTXT
 40
2.5
  9
$DIMCEN
 40
2.5
  9
$DIMTSZ
 40
0.0
  9
$DIMTOL
 70
     0
  9
$DIMLIM
 70
     0
  9
$DIMTIH
 70
     0
  9
$DIMTOH
 70
     0
  9
$DIMSE1
 70
     0
  9
$DIMSE2
 70
     0
  9
$DIMTAD
 70
     1
  9
$DIMZIN
 70
     8
  9
$DIMBLK
  1

  9
$DIMASO
 70
     1
  9
$DIMSHO
 70
     1
  9
$DIMPOST
  1

  9
$DIMAPOST
  1

  9
$DIMALT
 70
     0
  9
$DIMALTD
 70
     3
  9
$DIMALTF
 40
0.03937007874016
  9
$DIMLFAC
 40
1.0
  9
$DIMTOFL
 70
     1
  9
$DIMTVP
 40
0.0
  9
$DIMTIX
 70
     0
  9
$DIMSOXD
 70
     0
  9
$DIMSAH
 70
     0
  9
$DIMBLK1
  1

  9
$DIMBLK2
  1

  9
$DIMSTYLE
  2
ISO-25
  9
$DIMCLRD
 70
     0
  9
$DIMCLRE
 70
     0
  9
$DIMCLRT
 70
     0
  9
$DIMTFAC
 40
1.0
  9
$DIMGAP
 40
0.625
  9
$DIMJUST
 70
     0
  9
$DIMSD1
 70
     0
  9
$DIMSD2
 70
     0
  9
$DIMTOLJ
 70
     0
  9
$DIMTZIN
 70
     8
  9
$DIMALTZ
 70
     0
  9
$DIMALTTZ
 70
     0
  9
$DIMUPT
 70
     0
  9
$DIMDEC
 70
     2
  9
$DIMTDEC
 70
     2
  9
$DIMALTU
 70
     2
  9
$DIMALTTD
 70
     3
  9
$DIMTXSTY
  7
Standard
  9
$DIMAUNIT
 70
     0
  9
$DIMADEC
 70
     0
  9
$DIMALTRND
 40
0.0
  9
$DIMAZIN
 70
     0
  9
$DIMDSEP
 70
    44
  9
$DIMATFIT
 70
     3
  9
$DIMFRAC
 70
     0
  9
$DIMLDRBLK
  1

  9
$DIMLUNIT
 70
     2
  9
$DIMLWD
 70
    -2
  9
$DIMLWE
 70
    -2
  9
$DIMTMOVE
 70
     0
  9
$LUNITS
 70
     2
  9
$LUPREC
 70
     4
  9
$SKETCHINC
 40
1.0
  9
$FILLETRAD
 40
0.0
  9
$AUNITS
 70
     0
  9
$AUPREC
 70
     0
  9
$MENU
  1
.
  9
$ELEVATION
 40
0.0
  9
$PELEVATION
 40
0.0
  9
$THICKNESS
 40
0.0
  9
$LIMCHECK
 70
     0
  9
$CHAMFERA
 40
0.0
  9
$CHAMFERB
 40
0.0
  9
$CHAMFERC
 40
0.0
  9
$CHAMFERD
 40
0.0
  9
$SKPOLY
 70
     0
  9
$TDCREATE
 40
2459082.382677257
  9
$TDUCREATE
 40
2459082.257677257
  9
$TDUPDATE
 40
2459083.631139364
  9
$TDUUPDATE
 40
2459083.506139364
  9
$TDINDWG
 40
0.0005092593
  9
$TDUSRTIMER
 40
0.0005092593
  9
$USRTIMER
 70
     1
  9
$ANGBASE
 50
0.0
  9
$ANGDIR
 70
     0
  9
$PDMODE
 70
     0
  9
$PDSIZE
 40
0.0
  9
$PLINEWID
 40
0.0
  9
$SPLFRAME
 70
     0
  9
$SPLINETYPE
 70
     6
  9
$SPLINESEGS
 70
     8
  9
$HANDSEED
  5
4E7
  9
$SURFTAB1
 70
     6
  9
$SURFTAB2
 70
     6
  9
$SURFTYPE
 70
     6
  9
$SURFU
 70
     6
  9
$SURFV
 70
     6
  9
$UCSBASE
  2

  9
$UCSNAME
  2

  9
$UCSORG
 10
0.0
 20
0.0
 30
0.0
  9
$UCSXDIR
 10
1.0
 20
0.0
 30
0.0
  9
$UCSYDIR
 10
0.0
 20
1.0
 30
0.0
  9
$UCSORTHOREF
  2

  9
$UCSORTHOVIEW
 70
     0
  9
$UCSORGTOP
 10
0.0
 20
0.0
 30
0.0
  9
$UCSORGBOTTOM
 10
0.0
 20
0.0
 30
0.0
  9
$UCSORGLEFT
 10
0.0
 20
0.0
 30
0.0
  9
$UCSORGRIGHT
 10
0.0
 20
0.0
 30
0.0
  9
$UCSORGFRONT
 10
0.0
 20
0.0
 30
0.0
  9
$UCSORGBACK
 10
0.0
 20
0.0
 30
0.0
  9
$PUCSBASE
  2

  9
$PUCSNAME
  2

  9
$PUCSORG
 10
0.0
 20
0.0
 30
0.0
  9
$PUCSXDIR
 10
1.0
 20
0.0
 30
0.0
  9
$PUCSYDIR
 10
0.0
 20
1.0
 30
0.0
  9
$PUCSORTHOREF
  2

  9
$PUCSORTHOVIEW
 70
     0
  9
$PUCSORGTOP
 10
0.0
 20
0.0
 30
0.0
  9
$PUCSORGBOTTOM
 10
0.0
 20
0.0
 30
0.0
  9
$PUCSORGLEFT
 10
0.0
 20
0.0
 30
0.0
  9
$PUCSORGRIGHT
 10
0.0
 20
0.0
 30
0.0
  9
$PUCSORGFRONT
 10
0.0
 20
0.0
 30
0.0
  9
$PUCSORGBACK
 10
0.0
 20
0.0
 30
0.0
  9
$USERI1
 70
     0
  9
$USERI2
 70
     0
  9
$USERI3
 70
     0
  9
$USERI4
 70
     0
  9
$USERI5
 70
     0
  9
$USERR1
 40
0.0
  9
$USERR2
 40
0.0
  9
$USERR3
 40
0.0
  9
$USERR4
 40
0.0
  9
$USERR5
 40
0.0
  9
$WORLDVIEW
 70
     1
  9
$SHADEDGE
 70
     3
  9
$SHADEDIF
 70
    70
  9
$TILEMODE
 70
     1
  9
$MAXACTVP
 70
    64
  9
$PINSBASE
 10
0.0
 20
0.0
 30
0.0
  9
$PLIMCHECK
 70
     0
  9
$PEXTMIN
 10
0.0
 20
0.0
 30
0.0
  9
$PEXTMAX
 10
0.0
 20
0.0
 30
0.0
  9
$PLIMMIN
 10
0.0
 20
0.0
  9
$PLIMMAX
 10
12.0
 20
9.0
  9
$UNITMODE
 70
     0
  9
$VISRETAIN
 70
     1
  9
$PLINEGEN
 70
     0
  9
$PSLTSCALE
 70
     1
  9
$TREEDEPTH
 70
  3020
  9
$CMLSTYLE
  2
Standard
  9
$CMLJUST
 70
     0
  9
$CMLSCALE
 40
20.0
  9
$PROXYGRAPHICS
 70
     1
  9
$MEASUREMENT
 70
     1
  9
$CELWEIGHT
370
    -1
  9
$ENDCAPS
280
     0
  9
$JOINSTYLE
280
     0
  9
$LWDISPLAY
290
     0
  9
$INSUNITS
 70
     4
  9
$HYPERLINKBASE
  1

  9
$STYLESHEET
  1

  9
$XEDIT
290
     1
  9
$CEPSNTYPE
380
     0
  9
$PSTYLEMODE
290
     1
  9
$FINGERPRINTGUID
  2
{C01B9921-6554-4B6B-A856-64535EDEC201}
  9
$VERSIONGUID
  2
{B359E97C-275D-40D3-A441-04FE2611F839}
  9
$EXTNAMES
290
     1
  9
$PSVPSCALE
 40
0.0
  9
$OLESTARTUP
290
     0
  0
ENDSEC
  0
SECTION
  2
CLASSES
  0
CLASS
  1
ACDBDICTIONARYWDFLT
  2
AcDbDictionaryWithDefault
  3
ObjectDBX Classes
 90
        0
280
     0
281
     0
  0
CLASS
  1
ACDBPLACEHOLDER
  2
AcDbPlaceHolder
  3
ObjectDBX Classes
 90
        0
280
     0
281
     0
  0
CLASS
  1
LAYOUT
  2
AcDbLayout
  3
ObjectDBX Classes
 90
        0
280
     0
281
     0
  0
CLASS
  1
DICTIONARYVAR
  2
AcDbDictionaryVar
  3
ObjectDBX Classes
 90
        0
280
     0
281
     0
  0
CLASS
  1
TABLESTYLE
  2
AcDbTableStyle
  3
ObjectDBX Classes
 90
     4095
280
     0
281
     0
  0
CLASS
  1
MATERIAL
  2
AcDbMaterial
  3
ObjectDBX Classes
 90
     1153
280
     0
281
     0
  0
CLASS
  1
VISUALSTYLE
  2
AcDbVisualStyle
  3
ObjectDBX Classes
 90
     4095
280
     0
281
     0
  0
CLASS
  1
SCALE
  2
AcDbScale
  3
ObjectDBX Classes
 90
     1153
280
     0
281
     0
  0
CLASS
  1
MLEADERSTYLE
  2
AcDbMLeaderStyle
  3
ACDB_MLEADERSTYLE_CLASS
 90
     4095
280
     0
281
     0
  0
CLASS
  1
CELLSTYLEMAP
  2
AcDbCellStyleMap
  3
ObjectDBX Classes
 90
     1152
280
     0
281
     0
  0
ENDSEC
  0
SECTION
  2
TABLES
  0
TABLE
  2
VPORT
  5
8
330
0
100
AcDbSymbolTable
 70
     1
  0
VPORT
  5
EA
330
8
100
AcDbSymbolTableRecord
100
AcDbViewportTableRecord
  2
*Active
 70
     0
 10
0.0
 20
0.0
 11
1.0
 21
1.0
 12
2176.464937611004
 22
870.6896589096082
 13
0.0
 23
0.0
 14
10.0
 24
10.0
 15
10.0
 25
10.0
 16
0.0
 26
0.0
 36
1.0
 17
0.0
 27
0.0
 37
0.0
 40
72.21732422142179
 41
1.903110047846889
 42
50.0
 43
0.0
 44
0.0
 50
0.0
 51
0.0
 71
     0
 72
  1000
 73
     1
 74
     3
 75
     0
 76
     0
 77
     0
 78
     0
281
     0
 65
     1
110
0.0
120
0.0
130
0.0
111
1.0
121
0.0
131
0.0
112
0.0
122
1.0
132
0.0
 79
     0
146
0.0
  0
ENDTAB
  0
TABLE
  2
LTYPE
  5
5
330
0
100
AcDbSymbolTable
 70
     1
  0
LTYPE
  5
14
330
5
100
AcDbSymbolTableRecord
100
AcDbLinetypeTableRecord
  2
ByBlock
 70
     0
  3

 72
    65
 73
     0
 40
0.0
  0
LTYPE
  5
15
330
5
100
AcDbSymbolTableRecord
100
AcDbLinetypeTableRecord
  2
ByLayer
 70
     0
  3

 72
    65
 73
     0
 40
0.0
  0
LTYPE
  5
16
330
5
100
AcDbSymbolTableRecord
100
AcDbLinetypeTableRecord
  2
Continuous
 70
     0
  3
Solid line
 72
    65
 73
     0
 40
0.0
  0
ENDTAB
  0
TABLE
  2
LAYER
  5
2
330
0
100
AcDbSymbolTable
 70
     1
  0
LAYER
  5
10
102
{ACAD_XDICTIONARY
360
13C
102
}
330
2
100
AcDbSymbolTableRecord
100
AcDbLayerTableRecord
  2
0
 70
     0
 62
     7
  6
Continuous
370
    -3
390
F
  0
ENDTAB
  0
TABLE
  2
STYLE
  5
3
330
0
100
AcDbSymbolTable
 70
     2
  0
STYLE
  5
11
330
3
100
AcDbSymbolTableRecord
100
AcDbTextStyleTableRecord
  2
Standard
 70
     0
 40
0.0
 41
1.0
 50
0.0
 71
     0
 42
2.5
  3
txt
  4

  0
STYLE
  5
132
330
3
100
AcDbSymbolTableRecord
100
AcDbTextStyleTableRecord
  2
Annotative
 70
     0
 40
0.0
 41
1.0
 50
0.0
 71
     0
 42
2.5
  3
txt.shx
  4

1001
AcadAnnotative
1000
AnnotativeData
1002
{
1070
     1
1070
     1
1002
}
  0
ENDTAB
  0
TABLE
  2
VIEW
  5
6
330
0
100
AcDbSymbolTable
 70
     0
  0
ENDTAB
  0
TABLE
  2
UCS
  5
7
330
0
100
AcDbSymbolTable
 70
     0
  0
ENDTAB
  0
TABLE
  2
APPID
  5
9
330
0
100
AcDbSymbolTable
 70
     7
  0
APPID
  5
12
330
9
100
AcDbSymbolTableRecord
100
AcDbRegAppTableRecord
  2
ACAD
 70
     0
  0
APPID
  5
9E
330
9
100
AcDbSymbolTableRecord
100
AcDbRegAppTableRecord
  2
ACAD_PSEXT
 70
     0
  0
APPID
  5
133
330
9
100
AcDbSymbolTableRecord
100
AcDbRegAppTableRecord
  2
AcadAnnoPO
 70
     0
  0
APPID
  5
134
330
9
100
AcDbSymbolTableRecord
100
AcDbRegAppTableRecord
  2
AcadAnnotative
 70
     0
  0
APPID
  5
135
330
9
100
AcDbSymbolTableRecord
100
AcDbRegAppTableRecord
  2
ACAD_DSTYLE_DIMJAG
 70
     0
  0
APPID
  5
136
330
9
100
AcDbSymbolTableRecord
100
AcDbRegAppTableRecord
  2
ACAD_DSTYLE_DIMTALN
 70
     0
  0
APPID
  5
165
330
9
100
AcDbSymbolTableRecord
100
AcDbRegAppTableRecord
  2
ACAD_MLEADERVER
 70
     0
  0
ENDTAB
  0
TABLE
  2
DIMSTYLE
  5
A
330
0
100
AcDbSymbolTable
 70
     2
100
AcDbDimStyleTable
 71
     2
340
27
340
137
  0
DIMSTYLE
105
27
330
A
100
AcDbSymbolTableRecord
100
AcDbDimStyleTableRecord
  2
ISO-25
 70
     0
 41
2.5
 42
0.625
 43
3.75
 44
1.25
 73
     0
 74
     0
 77
     1
 78
     8
140
2.5
141
2.5
143
0.03937007874016
147
0.625
171
     3
172
     1
271
     2
272
     2
274
     3
278
    44
283
     0
284
     8
340
11
  0
DIMSTYLE
105
137
330
A
100
AcDbSymbolTableRecord
100
AcDbDimStyleTableRecord
  2
Annotative
 70
     0
 40
0.0
 41
2.5
 42
0.625
 43
3.75
 44
1.25
 73
     0
 74
     0
 77
     1
 78
     8
140
2.5
141
2.5
143
0.03937007874016
147
0.625
171
     3
172
     1
271
     2
272
     2
274
     3
278
    44
283
     0
284
     8
340
11
1001
AcadAnnotative
1000
AnnotativeData
1002
{
1070
     1
1070
     1
1002
}
1001
ACAD_DSTYLE_DIMJAG
1070
   388
1040
1.5
1001
ACAD_DSTYLE_DIMTALN
1070
   392
1070
     0
  0
ENDTAB
  0
TABLE
  2
BLOCK_RECORD
  5
1
330
0
100
AcDbSymbolTable
 70
     5
  0
BLOCK_RECORD
  5
1F
330
1
100
AcDbSymbolTableRecord
100
AcDbBlockTableRecord
  2
*Model_Space
340
22
  0
BLOCK_RECORD
  5
D2
330
1
100
AcDbSymbolTableRecord
100
AcDbBlockTableRecord
  2
*Paper_Space
340
D3
  0
BLOCK_RECORD
  5
D6
330
1
100
AcDbSymbolTableRecord
100
AcDbBlockTableRecord
  2
*Paper_Space0
340
D7
  0
BLOCK_RECORD
  5
39D
330
1
100
AcDbSymbolTableRecord
100
AcDbBlockTableRecord
  2
1
340
0
310
2800000020000000200000000100080000000000000400000000000000000000000000000000000000000000000080000080000000808000800000008000800080800000C0C0C000C0DCC000F0CAA6000020400000206000002080000020A0000020C0000020E00000400000004020000040400000406000004080000040A0
310
000040C0000040E00000600000006020000060400000606000006080000060A0000060C0000060E00000800000008020000080400000806000008080000080A0000080C0000080E00000A0000000A0200000A0400000A0600000A0800000A0A00000A0C00000A0E00000C0000000C0200000C0400000C0600000C0800000C0
310
A00000C0C00000C0E00000E0000000E0200000E0400000E0600000E0800000E0A00000E0C00000E0E00040000000400020004000400040006000400080004000A0004000C0004000E00040200000402020004020400040206000402080004020A0004020C0004020E000404000004040200040404000404060004040800040
310
40A0004040C0004040E00040600000406020004060400040606000406080004060A0004060C0004060E00040800000408020004080400040806000408080004080A0004080C0004080E00040A0000040A0200040A0400040A0600040A0800040A0A00040A0C00040A0E00040C0000040C0200040C0400040C0600040C08000
310
40C0A00040C0C00040C0E00040E0000040E0200040E0400040E0600040E0800040E0A00040E0C00040E0E00080000000800020008000400080006000800080008000A0008000C0008000E00080200000802020008020400080206000802080008020A0008020C0008020E00080400000804020008040400080406000804080
310
008040A0008040C0008040E00080600000806020008060400080606000806080008060A0008060C0008060E00080800000808020008080400080806000808080008080A0008080C0008080E00080A0000080A0200080A0400080A0600080A0800080A0A00080A0C00080A0E00080C0000080C0200080C0400080C0600080C0
310
800080C0A00080C0C00080C0E00080E0000080E0200080E0400080E0600080E0800080E0A00080E0C00080E0E000C0000000C0002000C0004000C0006000C0008000C000A000C000C000C000E000C0200000C0202000C0204000C0206000C0208000C020A000C020C000C020E000C0400000C0402000C0404000C0406000C0
310
408000C040A000C040C000C040E000C0600000C0602000C0604000C0606000C0608000C060A000C060C000C060E000C0800000C0802000C0804000C0806000C0808000C080A000C080C000C080E000C0A00000C0A02000C0A04000C0A06000C0A08000C0A0A000C0A0C000C0A0E000C0C00000C0C02000C0C04000C0C06000
310
C0C08000C0C0A000F0FBFF00A4A0A000808080000000FF0000FF000000FFFF00FF000000FF00FF00FFFF0000FFFFFF0000000000000000000000000000000000000000000000000000000000000000000000000000000000000000000000000000000000000000000000000000000000000000000000000000000000000000
310
0000000000000000000000000000000000000000000000000000000000000000000000000000000000000000000000000000000000000000000000000000000000000000000000000000000000000000000000FFFFFFFFFFFFFFFFFFFFFFFFFFFFFFFFFFFFFFFFFFFFFFFFFFFFFFFF000000FF00FFFFFFFFFF00FFFFFFFFFF
310
FFFFFFFFFFFFFFFFFF00FFFFFFFFFF00FF0000FFFFFF000000FF00FF0000000000FFFF0000000000FF00FF000000FFFFFF0000FFFFFF000000FF00FF0000000000FFFF0000000000FF00FF000000FFFFFF0000FFFFFF000000FF00FF0000000000FFFF0000000000FF00FF000000FFFFFF0000FFFFFF000000FF00FF000000
310
0000FFFF0000000000FF00FF000000FFFFFF0000FFFFFF000000FF00FF0000000000FFFF0000000000FF00FF000000FFFFFF0000FFFFFF00000000FFFF0000000000FFFF0000000000FFFF00000000FFFFFF0000FFFFFF00000000FFFF0000000000FFFF0000000000FFFF00000000FFFFFF0000FFFFFF00000000FFFF0000
310
000000FFFF0000000000FFFF00000000FFFFFF0000FFFFFF000000FF00FF0000000000FF00FF00000000FF00FF000000FFFFFF0000FFFFFF000000FF00FF0000000000FF00FF00000000FF00FF000000FFFFFF0000FFFFFF000000FF00FF0000000000FF00FF00000000FF00FF000000FFFFFF0000FFFFFF000000FF00FF00
310
00000000FF00FF00000000FF00FF000000FFFFFF0000FFFFFF000000FFFFFF0000000000FFFFFF00000000FFFFFF000000FFFFFF0000FFFFFF000000000000000000000000000000000000000000000000FFFFFF0000FFFFFF000000000000000000000000000000000000000000000000FFFFFF0000FFFFFF000000000000
310
000000000000000000000000000000000000FFFFFF0000FFFFFF000000000000000000000000000000000000000000000000FFFFFF0000FFFFFF000000000000000000000000000000000000000000000000FFFFFF0000FFFFFF000000000000000000000000000000000000000000000000FFFFFF0000FFFFFFFFFFFFFFFF
310
FFFFFFFFFFFFFFFFFFFFFFFFFFFFFFFFFFFFFFFFFFFF000000000000000000000000000000000000000000000000000000000000000000000000000000000000000000000000000000000000000000000000000000000000000000000000000000000000000000000000000000000000000000000000000000000000000000
310
0000000000000000000000000000000000000000000000000000000000000000000000000000000000000000000000000000000000000000
102
{BLKREFS
331
3DF
102
}
1001
ACAD
1000
DesignCenter Data
1002
{
1070
     1
1070
     4
1002
}
  0
BLOCK_RECORD
  5
3E0
330
1
100
AcDbSymbolTableRecord
100
AcDbBlockTableRecord
  2
2
340
0
310
2800000020000000200000000100080000000000000400000000000000000000000000000000000000000000000080000080000000808000800000008000800080800000C0C0C000C0DCC000F0CAA6000020400000206000002080000020A0000020C0000020E00000400000004020000040400000406000004080000040A0
310
000040C0000040E00000600000006020000060400000606000006080000060A0000060C0000060E00000800000008020000080400000806000008080000080A0000080C0000080E00000A0000000A0200000A0400000A0600000A0800000A0A00000A0C00000A0E00000C0000000C0200000C0400000C0600000C0800000C0
310
A00000C0C00000C0E00000E0000000E0200000E0400000E0600000E0800000E0A00000E0C00000E0E00040000000400020004000400040006000400080004000A0004000C0004000E00040200000402020004020400040206000402080004020A0004020C0004020E000404000004040200040404000404060004040800040
310
40A0004040C0004040E00040600000406020004060400040606000406080004060A0004060C0004060E00040800000408020004080400040806000408080004080A0004080C0004080E00040A0000040A0200040A0400040A0600040A0800040A0A00040A0C00040A0E00040C0000040C0200040C0400040C0600040C08000
310
40C0A00040C0C00040C0E00040E0000040E0200040E0400040E0600040E0800040E0A00040E0C00040E0E00080000000800020008000400080006000800080008000A0008000C0008000E00080200000802020008020400080206000802080008020A0008020C0008020E00080400000804020008040400080406000804080
310
008040A0008040C0008040E00080600000806020008060400080606000806080008060A0008060C0008060E00080800000808020008080400080806000808080008080A0008080C0008080E00080A0000080A0200080A0400080A0600080A0800080A0A00080A0C00080A0E00080C0000080C0200080C0400080C0600080C0
310
800080C0A00080C0C00080C0E00080E0000080E0200080E0400080E0600080E0800080E0A00080E0C00080E0E000C0000000C0002000C0004000C0006000C0008000C000A000C000C000C000E000C0200000C0202000C0204000C0206000C0208000C020A000C020C000C020E000C0400000C0402000C0404000C0406000C0
310
408000C040A000C040C000C040E000C0600000C0602000C0604000C0606000C0608000C060A000C060C000C060E000C0800000C0802000C0804000C0806000C0808000C080A000C080C000C080E000C0A00000C0A02000C0A04000C0A06000C0A08000C0A0A000C0A0C000C0A0E000C0C00000C0C02000C0C04000C0C06000
310
C0C08000C0C0A000F0FBFF00A4A0A000808080000000FF0000FF000000FFFF00FF000000FF00FF00FFFF0000FFFFFF000000000000000000000000000000000000000000000000000000000000000000000000000000FFFFFFFFFFFFFFFFFFFFFFFFFFFFFFFFFFFFFF00000000000000000000000000FFFFFFFFFFFFFFFFFF
310
FFFFFFFFFFFFFFFFFFFFFF000000000000000000000000FF0000000000000000000000000000000000FFFF000000000000000000000000FF0000000000000000000000000000000000FFFF000000000000000000000000FF0000000000000000000000000000000000FFFF000000000000000000000000FF00000000000000
310
00000000000000000000FFFF000000000000000000000000FF0000000000000000000000000000000000FFFF000000000000000000000000FF0000000000000000000000000000000000FFFF000000000000000000000000FF0000000000000000000000000000000000FFFF000000000000000000000000FF000000000000
310
0000000000000000000000FFFF000000000000000000000000FF0000000000000000000000000000000000FFFF000000000000000000000000FF0000000000000000000000000000000000FFFF000000000000000000000000FF0000000000000000000000000000000000FFFF000000000000000000000000FF0000000000
310
000000000000000000000000FFFF000000000000000000000000FF0000000000000000000000000000000000FFFF000000000000000000000000FF0000000000000000000000000000000000FFFF000000000000000000000000FF0000000000000000000000000000000000FFFF000000000000000000000000FF00000000
310
00000000000000000000000000FFFF000000000000000000000000FF0000000000000000000000000000000000FFFF000000000000000000000000FF0000000000000000000000000000000000FFFF000000000000000000000000FF0000000000000000000000000000000000FFFF000000000000000000000000FF000000
310
0000000000000000000000000000FFFF000000000000000000000000FF0000000000000000000000000000000000FFFF000000000000000000000000FF0000000000000000000000000000000000FFFF000000000000000000000000FF0000000000000000000000000000000000FFFF000000000000000000000000FF0000
310
000000000000000000000000000000FFFF000000000000000000000000FF0000000000000000000000000000000000FFFF000000000000000000000000FF0000000000000000000000000000000000FFFF000000000000000000000000FF0000000000000000000000000000000000FFFF000000000000000000000000FFFF
310
FFFFFFFFFFFFFFFFFFFFFFFFFFFFFFFFFFFF0000000000000000000000000000000000000000000000000000000000000000000000000000
102
{BLKREFS
331
3EE
102
}
1001
ACAD
1000
DesignCenter Data
1002
{
1070
     1
1070
     4
1002
}
  0
BLOCK_RECORD
  5
419
330
1
100
AcDbSymbolTableRecord
100
AcDbBlockTableRecord
  2
3
340
0
310
2800000020000000200000000100080000000000000400000000000000000000000000000000000000000000000080000080000000808000800000008000800080800000C0C0C000C0DCC000F0CAA6000020400000206000002080000020A0000020C0000020E00000400000004020000040400000406000004080000040A0
310
000040C0000040E00000600000006020000060400000606000006080000060A0000060C0000060E00000800000008020000080400000806000008080000080A0000080C0000080E00000A0000000A0200000A0400000A0600000A0800000A0A00000A0C00000A0E00000C0000000C0200000C0400000C0600000C0800000C0
310
A00000C0C00000C0E00000E0000000E0200000E0400000E0600000E0800000E0A00000E0C00000E0E00040000000400020004000400040006000400080004000A0004000C0004000E00040200000402020004020400040206000402080004020A0004020C0004020E000404000004040200040404000404060004040800040
310
40A0004040C0004040E00040600000406020004060400040606000406080004060A0004060C0004060E00040800000408020004080400040806000408080004080A0004080C0004080E00040A0000040A0200040A0400040A0600040A0800040A0A00040A0C00040A0E00040C0000040C0200040C0400040C0600040C08000
310
40C0A00040C0C00040C0E00040E0000040E0200040E0400040E0600040E0800040E0A00040E0C00040E0E00080000000800020008000400080006000800080008000A0008000C0008000E00080200000802020008020400080206000802080008020A0008020C0008020E00080400000804020008040400080406000804080
310
008040A0008040C0008040E00080600000806020008060400080606000806080008060A0008060C0008060E00080800000808020008080400080806000808080008080A0008080C0008080E00080A0000080A0200080A0400080A0600080A0800080A0A00080A0C00080A0E00080C0000080C0200080C0400080C0600080C0
310
800080C0A00080C0C00080C0E00080E0000080E0200080E0400080E0600080E0800080E0A00080E0C00080E0E000C0000000C0002000C0004000C0006000C0008000C000A000C000C000C000E000C0200000C0202000C0204000C0206000C0208000C020A000C020C000C020E000C0400000C0402000C0404000C0406000C0
310
408000C040A000C040C000C040E000C0600000C0602000C0604000C0606000C0608000C060A000C060C000C060E000C0800000C0802000C0804000C0806000C0808000C080A000C080C000C080E000C0A00000C0A02000C0A04000C0A06000C0A08000C0A0A000C0A0C000C0A0E000C0C00000C0C02000C0C04000C0C06000
310
C0C08000C0C0A000F0FBFF00A4A0A000808080000000FF0000FF000000FFFF00FF000000FF00FF00FFFF0000FFFFFF0000000000000000000000000000000000000000000000000000000000000000000000000000000000000000000000000000000000000000000000000000000000000000000000000000000000000000
310
00000000000000000000000000000000000000000000000000000000000000000000000000000000000000000000000000000000000000000000000000000000000000000000000000000000000000000000000000000000000000000000000000000000000000000000000000000000000000000000000000000000000000
310
000000000000000000000000000000000000000000000000000000000000000000000000000000000000000000000000000000FFFFFFFFFFFFFFFFFFFFFFFFFFFFFFFFFFFFFFFFFFFFFFFFFFFFFFFFFFFF0000FFFFFF000000FFFFFF0000000000FFFFFF00000000FFFFFF000000FFFFFF0000FFFFFF000000FFFFFF000000
310
0000FFFFFF00000000FFFFFF000000FFFFFF0000FFFFFF000000FFFFFF0000000000FFFFFF00000000FFFFFF000000FFFFFF0000FFFFFF000000FFFFFF0000000000FFFFFF00000000FFFFFF000000FFFFFF0000FFFFFF000000FFFFFF0000000000FFFFFF00000000FFFFFF000000FFFFFF0000FFFFFF000000FFFFFF0000
310
000000FFFFFF00000000FFFFFF000000FFFFFF0000FFFFFF000000FFFFFF0000000000FFFFFF00000000FFFFFF000000FFFFFF0000FFFFFF000000FFFFFF0000000000FFFFFF00000000FFFFFF000000FFFFFF0000FFFFFF000000FFFFFF0000000000FFFFFF00000000FFFFFF000000FFFFFF0000FFFFFF000000FFFFFF00
310
00000000FFFFFF00000000FFFFFF000000FFFFFF0000FFFFFF000000FFFFFF0000000000FFFFFF00000000FFFFFF000000FFFFFF0000FFFFFF000000FFFFFF0000000000FFFFFF00000000FFFFFF000000FFFFFF0000FFFFFF000000FFFFFF0000000000FFFFFF00000000FFFFFF000000FFFFFF0000FF00FFFFFFFFFFFFFF
310
FFFFFFFFFFFFFFFFFFFFFFFFFFFFFFFFFFFFFF00FF000000FFFFFFFFFFFFFFFFFFFFFFFFFFFFFFFFFFFFFFFFFFFFFFFFFFFFFFFF000000000000000000000000000000000000000000000000000000000000000000000000000000000000000000000000000000000000000000000000000000000000000000000000000000
310
00000000000000000000000000000000000000000000000000000000000000000000000000000000000000000000000000000000000000000000000000000000000000000000000000000000000000000000000000000000000000000000000000000000000000000000000000000000000000000000000000000000000000
310
0000000000000000000000000000000000000000000000000000000000000000000000000000000000000000000000000000000000000000
102
{BLKREFS
331
445
102
}
1001
ACAD
1000
DesignCenter Data
1002
{
1070
     1
1070
     4
1002
}
  0
BLOCK_RECORD
  5
446
330
1
100
AcDbSymbolTableRecord
100
AcDbBlockTableRecord
  2
4
340
0
310
2800000020000000200000000100080000000000000400000000000000000000000000000000000000000000000080000080000000808000800000008000800080800000C0C0C000C0DCC000F0CAA6000020400000206000002080000020A0000020C0000020E00000400000004020000040400000406000004080000040A0
310
000040C0000040E00000600000006020000060400000606000006080000060A0000060C0000060E00000800000008020000080400000806000008080000080A0000080C0000080E00000A0000000A0200000A0400000A0600000A0800000A0A00000A0C00000A0E00000C0000000C0200000C0400000C0600000C0800000C0
310
A00000C0C00000C0E00000E0000000E0200000E0400000E0600000E0800000E0A00000E0C00000E0E00040000000400020004000400040006000400080004000A0004000C0004000E00040200000402020004020400040206000402080004020A0004020C0004020E000404000004040200040404000404060004040800040
310
40A0004040C0004040E00040600000406020004060400040606000406080004060A0004060C0004060E00040800000408020004080400040806000408080004080A0004080C0004080E00040A0000040A0200040A0400040A0600040A0800040A0A00040A0C00040A0E00040C0000040C0200040C0400040C0600040C08000
310
40C0A00040C0C00040C0E00040E0000040E0200040E0400040E0600040E0800040E0A00040E0C00040E0E00080000000800020008000400080006000800080008000A0008000C0008000E00080200000802020008020400080206000802080008020A0008020C0008020E00080400000804020008040400080406000804080
310
008040A0008040C0008040E00080600000806020008060400080606000806080008060A0008060C0008060E00080800000808020008080400080806000808080008080A0008080C0008080E00080A0000080A0200080A0400080A0600080A0800080A0A00080A0C00080A0E00080C0000080C0200080C0400080C0600080C0
310
800080C0A00080C0C00080C0E00080E0000080E0200080E0400080E0600080E0800080E0A00080E0C00080E0E000C0000000C0002000C0004000C0006000C0008000C000A000C000C000C000E000C0200000C0202000C0204000C0206000C0208000C020A000C020C000C020E000C0400000C0402000C0404000C0406000C0
310
408000C040A000C040C000C040E000C0600000C0602000C0604000C0606000C0608000C060A000C060C000C060E000C0800000C0802000C0804000C0806000C0808000C080A000C080C000C080E000C0A00000C0A02000C0A04000C0A06000C0A08000C0A0A000C0A0C000C0A0E000C0C00000C0C02000C0C04000C0C06000
310
C0C08000C0C0A000F0FBFF00A4A0A000808080000000FF0000FF000000FFFF00FF000000FF00FF00FFFF0000FFFFFF00000000000000000000000000000000000000000000000000000000000000000000000000000000000000000000000000000000FFFF0000000000000000000000000000000000000000000000000000
310
0000FFFF00FFFFFF000000000000000000000000000000000000000000000000FFFF00FFFFFFFFFFFF00000000000000000000000000000000000000000000FF00FFFF00FFFF0000FFFFFF000000000000000000000000000000000000FFFFFFFFFFFFFFFFFF00000000FFFFFF000000000000000000000000000000FFFFFF
310
00FFFF0000FFFF000000000000FFFF000000000000000000000000FFFFFFFFFFFFFFFF0000FFFF00000000000000FF00000000000000000000FFFFFFFFFFFF0000FFFFA4A4FFFF00000000000000FF000000000000000000FF00FF0000FFFF0000FFFF0000FFFF00000000000000FF00000000000000FFFFFFFFFFFFFFFFFF
310
0000FFFFFFA4FFFF00000000000000FF000000000000FFFFFF00FFFF0000FFFFA4A4FFFFA4FFFFFF00000000000000FF000000000000FFFFA4A4FFFF0000FFFFFFFFFFFF0000FFFF00000000000000FF000000000000FFFFA4A4FFFF0000FFFFFFFFFFFFA4A4FFFF00000000000000FF000000000000FFFF0000FFA4A4A4FF
310
FF0000FFFFFFA4FFFF00000000000000FF000000000000FFFF0000FFFFFFA4FFFF000000FFFFFFFFFF00000000000000FF000000000000FFFF0000FFFFFFFFFFFFFFFF000000FFFF00FFFF0000000000FF000000000000FFFF0000FFFF0000FFFFFFFFFFFF000000FFFF00FF00000000FF000000000000FFFF0000FF00FFFF
310
0000FFFFFFFFFFFF00FF00FFFFFFFF0000FF000000000000FFFF000000FFFF00FF000000FFFFFFFFFFFF000000FFFFFFFFFF000000000000FFFF0000000000FFFFFFFF0000FF00FFFF000000000000FF00FF000000000000FFFF000000000000FFFFFFFFFFFF00000000000000FFFFFFFF00000000000000FFFF0000000000
310
00A4A4FFFFFFFF000000000000FF00FF000000000000000000FFFF000000000000A4A40000FF0000000000FFFFFFFF00000000000000000000FFFF000000000000A4A4000000000000FFFFFFFF000000000000000000000000FFFF000000000000A4A40000000000FF00FF000000000000000000000000000000FFFFFF0000
310
0000A4A4000000FFFFFFFF000000000000000000000000000000000000FFFFFF0000A4A40000FF00FF000000000000000000000000000000000000000000FFFFFFFFA4A4FFFFFFFF000000000000000000000000000000000000000000000000FFFFFFFFFFFF00000000000000000000000000000000000000000000000000
310
000000FFFF000000000000000000000000000000000000000000000000000000000000000000000000000000000000000000000000000000
102
{BLKREFS
331
4CC
102
}
1001
ACAD
1000
DesignCenter Data
1002
{
1070
     1
1070
     4
1002
}
  0
ENDTAB
  0
ENDSEC
  0
SECTION
  2
BLOCKS
  0
BLOCK
  5
20
330
1F
100
AcDbEntity
  8
0
100
AcDbBlockBegin
  2
*Model_Space
 70
     0
 10
0.0
 20
0.0
 30
0.0
  3
*Model_Space
  1

  0
ENDBLK
  5
21
330
1F
100
AcDbEntity
  8
0
100
AcDbBlockEnd
  0
BLOCK
  5
D4
330
D2
100
AcDbEntity
 67
     1
  8
0
100
AcDbBlockBegin
  2
*Paper_Space
 70
     0
 10
0.0
 20
0.0
 30
0.0
  3
*Paper_Space
  1

  0
ENDBLK
  5
D5
330
D2
100
AcDbEntity
 67
     1
  8
0
100
AcDbBlockEnd
  0
BLOCK
  5
D8
330
D6
100
AcDbEntity
 67
     1
  8
0
100
AcDbBlockBegin
  2
*Paper_Space0
 70
     0
 10
0.0
 20
0.0
 30
0.0
  3
*Paper_Space0
  1

  0
ENDBLK
  5
D9
330
D6
100
AcDbEntity
 67
     1
  8
0
100
AcDbBlockEnd
  0
BLOCK
  5
39E
330
39D
100
AcDbEntity
  8
0
100
AcDbBlockBegin
  2
1
 70
     0
 10
0.0
 20
0.0
 30
0.0
  3
1
  1

  0
ARC
  5
3A0
330
39D
100
AcDbEntity
  8
0
  6
Continuous
 62
     7
370
    15
100
AcDbCircle
 10
2160.852347684225
 20
878.8467493680178
 30
0.0
 40
0.5
100
AcDbArc
 50
180.0
 51
270.0
  0
LINE
  5
3A1
330
39D
100
AcDbEntity
  8
0
  6
Continuous
 62
     7
370
    15
100
AcDbLine
 10
2160.352347684225
 20
897.7467493680178
 30
0.0
 11
2160.352347684225
 21
878.8467493680178
 31
0.0
  0
LINE
  5
3A2
330
39D
100
AcDbEntity
  8
0
  6
Continuous
 62
     7
370
    15
100
AcDbLine
 10
2161.352347684225
 20
897.7467493680178
 30
0.0
 11
2160.352347684225
 21
897.7467493680178
 31
0.0
  0
LINE
  5
3A3
330
39D
100
AcDbEntity
  8
0
  6
Continuous
 62
     7
370
    15
100
AcDbLine
 10
2161.352347684225
 20
897.7467493680178
 30
0.0
 11
2161.352347684225
 21
879.8467493680178
 31
0.0
  0
ARC
  5
3A4
330
39D
100
AcDbEntity
  8
0
  6
Continuous
 62
     7
370
    15
100
AcDbCircle
 10
2161.852347684225
 20
879.8467493680178
 30
0.0
 40
0.5
100
AcDbArc
 50
180.0
 51
270.0
  0
LINE
  5
3A5
330
39D
100
AcDbEntity
  8
0
  6
Continuous
 62
     7
370
    15
100
AcDbLine
 10
2165.952347684225
 20
879.3467493680177
 30
0.0
 11
2165.952347684225
 21
883.2401808905061
 31
0.0
  0
ARC
  5
3A6
330
39D
100
AcDbEntity
  8
0
  6
Continuous
 62
     7
370
    15
100
AcDbCircle
 10
2166.202347684225
 20
883.2401808905061
 30
0.0
 40
0.25
100
AcDbArc
 50
154.5003257451543
 51
180.0
  0
LINE
  5
3A7
330
39D
100
AcDbEntity
  8
0
  6
Continuous
 62
     7
370
    15
100
AcDbLine
 10
2165.976700751242
 20
883.3478073818335
 30
0.0
 11
2166.90992238866
 21
885.3043758593452
 31
0.0
  0
ARC
  5
3A8
330
39D
100
AcDbEntity
  8
0
  6
Continuous
 62
     7
370
    15
100
AcDbCircle
 10
2167.135569321644
 20
885.1967493680175
 30
0.0
 40
0.25
100
AcDbArc
 50
90.0
 51
154.5003257451543
  0
LINE
  5
3A9
330
39D
100
AcDbEntity
  8
0
  6
Continuous
 62
     7
370
    15
100
AcDbLine
 10
2167.135569321644
 20
885.4467493680177
 30
0.0
 11
2167.602347684224
 21
885.4467493680177
 31
0.0
  0
ARC
  5
3AA
330
39D
100
AcDbEntity
  8
0
  6
Continuous
 62
     7
370
    15
100
AcDbCircle
 10
2167.602347684224
 20
885.1967493680177
 30
0.0
 40
0.2499999999999716
100
AcDbArc
 50
0.0
 51
90.0
  0
LINE
  5
3AB
330
39D
100
AcDbEntity
  8
0
  6
Continuous
 62
     7
370
    15
100
AcDbLine
 10
2167.852347684225
 20
885.1967493680177
 30
0.0
 11
2167.852347684225
 21
879.3467493680177
 31
0.0
  0
LINE
  5
3AC
330
39D
100
AcDbEntity
  8
0
  6
Continuous
 62
     7
370
    15
100
AcDbLine
 10
2172.652347684225
 20
879.3467493680177
 30
0.0
 11
2172.652347684225
 21
884.6967493680176
 31
0.0
  0
ARC
  5
3AD
330
39D
100
AcDbEntity
  8
0
  6
Continuous
 62
     7
370
    15
100
AcDbCircle
 10
2173.402347684225
 20
884.6967493680176
 30
0.0
 40
0.7500000000000285
100
AcDbArc
 50
90.0
 51
180.0
  0
LINE
  5
3AE
330
39D
100
AcDbEntity
  8
0
  6
Continuous
 62
     7
370
    15
100
AcDbLine
 10
2173.402347684225
 20
885.4467493680177
 30
0.0
 11
2173.802347684225
 21
885.4467493680177
 31
0.0
  0
ARC
  5
3AF
330
39D
100
AcDbEntity
  8
0
  6
Continuous
 62
     7
370
    15
100
AcDbCircle
 10
2173.702377544934
 20
884.7034419139651
 30
0.0
 40
0.749999999999965
100
AcDbArc
 50
359.4887203652541
 51
82.34004607481237
  0
LINE
  5
3B0
330
39D
100
AcDbEntity
  8
0
  6
Continuous
 62
     7
370
    15
100
AcDbLine
 10
2174.452347684225
 20
884.6967493680176
 30
0.0
 11
2174.452347684225
 21
879.3467493680177
 31
0.0
  0
LINE
  5
3B1
330
39D
100
AcDbEntity
  8
0
  6
Continuous
 62
     7
370
    15
100
AcDbLine
 10
2179.252347684225
 20
879.3467493680177
 30
0.0
 11
2179.252347684225
 21
885.1967493680177
 31
0.0
  0
ARC
  5
3B2
330
39D
100
AcDbEntity
  8
0
  6
Continuous
 62
     7
370
    15
100
AcDbCircle
 10
2179.502347684225
 20
885.1967493680177
 30
0.0
 40
0.2499999999999858
100
AcDbArc
 50
89.99999999997395
 51
180.0
  0
LINE
  5
3B3
330
39D
100
AcDbEntity
  8
0
  6
Continuous
 62
     7
370
    15
100
AcDbLine
 10
2179.502347684225
 20
885.4467493680177
 30
0.0
 11
2179.969126046806
 21
885.4467493680177
 31
0.0
  0
ARC
  5
3B4
330
39D
100
AcDbEntity
  8
0
  6
Continuous
 62
     7
370
    15
100
AcDbCircle
 10
2179.969126046806
 20
885.1967493680175
 30
0.0
 40
0.2500000000000069
100
AcDbArc
 50
25.49967425484568
 51
90.0
  0
LINE
  5
3B5
330
39D
100
AcDbEntity
  8
0
  6
Continuous
 62
     7
370
    15
100
AcDbLine
 10
2180.194772979789
 20
885.3043758593452
 30
0.0
 11
2181.127994617208
 21
883.3478073818335
 31
0.0
  0
ARC
  5
3B6
330
39D
100
AcDbEntity
  8
0
  6
Continuous
 62
     7
370
    15
100
AcDbCircle
 10
2180.902347684225
 20
883.2401808905061
 30
0.0
 40
0.2500000000000069
100
AcDbArc
 50
0.0
 51
25.49967425484568
  0
LINE
  5
3B7
330
39D
100
AcDbEntity
  8
0
  6
Continuous
 62
     7
370
    15
100
AcDbLine
 10
2181.152347684225
 20
883.2401808905061
 30
0.0
 11
2181.152347684225
 21
879.3467493680177
 31
0.0
  0
ARC
  5
3B8
330
39D
100
AcDbEntity
  8
0
  6
Continuous
 62
     7
370
    15
100
AcDbCircle
 10
2185.252347684225
 20
879.8467493680178
 30
0.0
 40
0.5
100
AcDbArc
 50
270.0
 51
0.0
  0
LINE
  5
3B9
330
39D
100
AcDbEntity
  8
0
  6
Continuous
 62
     7
370
    15
100
AcDbLine
 10
2185.752347684225
 20
879.8467493680178
 30
0.0
 11
2185.752347684225
 21
897.7467493680178
 31
0.0
  0
LINE
  5
3BA
330
39D
100
AcDbEntity
  8
0
  6
Continuous
 62
     7
370
    15
100
AcDbLine
 10
2186.752347684225
 20
897.7467493680178
 30
0.0
 11
2185.752347684225
 21
897.7467493680178
 31
0.0
  0
LINE
  5
3BB
330
39D
100
AcDbEntity
  8
0
  6
Continuous
 62
     7
370
    15
100
AcDbLine
 10
2186.752347684225
 20
878.8467493680178
 30
0.0
 11
2186.752347684225
 21
897.7467493680178
 31
0.0
  0
ARC
  5
3BC
330
39D
100
AcDbEntity
  8
0
  6
Continuous
 62
     7
370
    15
100
AcDbCircle
 10
2186.252347684225
 20
878.8467493680178
 30
0.0
 40
0.5
100
AcDbArc
 50
270.0
 51
0.0
  0
LINE
  5
3BD
330
39D
100
AcDbEntity
  8
0
  6
Continuous
 62
     7
370
    15
100
AcDbLine
 10
2160.852347684225
 20
878.3467493680177
 30
0.0
 11
2186.252347684225
 21
878.3467493680177
 31
0.0
  0
LINE
  5
3BE
330
39D
100
AcDbEntity
  8
0
  6
Continuous
 62
     7
370
    15
100
AcDbLine
 10
2174.452347684225
 20
879.3467493680177
 30
0.0
 11
2179.252347684225
 21
879.3467493680177
 31
0.0
  0
LINE
  5
3BF
330
39D
100
AcDbEntity
  8
0
  6
Continuous
 62
     7
370
    15
100
AcDbLine
 10
2181.152347684225
 20
879.3467493680177
 30
0.0
 11
2185.252347684225
 21
879.3467493680177
 31
0.0
  0
LINE
  5
3C0
330
39D
100
AcDbEntity
  8
0
  6
Continuous
 62
     7
370
    15
100
AcDbLine
 10
2161.852347684225
 20
879.3467493680177
 30
0.0
 11
2165.952347684225
 21
879.3467493680177
 31
0.0
  0
LINE
  5
3C1
330
39D
100
AcDbEntity
  8
0
  6
Continuous
 62
     7
370
    15
100
AcDbLine
 10
2167.852347684225
 20
879.3467493680177
 30
0.0
 11
2172.652347684225
 21
879.3467493680177
 31
0.0
  0
ARC
  5
3C2
330
39D
100
AcDbEntity
  8
0
  6
Continuous
 62
     7
370
    15
100
AcDbCircle
 10
2173.402347684225
 20
890.8967493680178
 30
0.0
 40
0.7500000000000285
100
AcDbArc
 50
90.0
 51
180.0
  0
LINE
  5
3C3
330
39D
100
AcDbEntity
  8
0
  6
Continuous
 62
     7
370
    15
100
AcDbLine
 10
2172.652347684225
 20
887.5967493680176
 30
0.0
 11
2172.652347684225
 21
890.8967493680178
 31
0.0
  0
ARC
  5
3C4
330
39D
100
AcDbEntity
  8
0
  6
Continuous
 62
     7
370
    15
100
AcDbCircle
 10
2173.402347684225
 20
887.5967493680176
 30
0.0
 40
0.7499999999999858
100
AcDbArc
 50
180.0
 51
270.0
  0
LINE
  5
3C5
330
39D
100
AcDbEntity
  8
0
  6
Continuous
 62
     7
370
    15
100
AcDbLine
 10
2173.802347684225
 20
886.8467493680178
 30
0.0
 11
2173.402347684225
 21
886.8467493680178
 31
0.0
  0
ARC
  5
3C6
330
39D
100
AcDbEntity
  8
0
  6
Continuous
 62
     7
370
    15
100
AcDbCircle
 10
2173.802347684225
 20
887.5967493680176
 30
0.0
 40
0.75
100
AcDbArc
 50
270.0
 51
0.0
  0
LINE
  5
3C7
330
39D
100
AcDbEntity
  8
0
  6
Continuous
 62
     7
370
    15
100
AcDbLine
 10
2174.552347684225
 20
890.8967493680178
 30
0.0
 11
2174.552347684225
 21
887.5967493680176
 31
0.0
  0
ARC
  5
3C8
330
39D
100
AcDbEntity
  8
0
  6
Continuous
 62
     7
370
    15
100
AcDbCircle
 10
2173.802347684225
 20
890.8967493680178
 30
0.0
 40
0.7500000000000142
100
AcDbArc
 50
0.0
 51
90.0
  0
LINE
  5
3C9
330
39D
100
AcDbEntity
  8
0
  6
Continuous
 62
     7
370
    15
100
AcDbLine
 10
2173.402347684225
 20
891.6467493680178
 30
0.0
 11
2173.802347684225
 21
891.6467493680176
 31
0.0
  0
ARC
  5
3CA
330
39D
100
AcDbEntity
  8
0
  6
Continuous
 62
     7
370
    15
100
AcDbCircle
 10
2166.702347684225
 20
887.5967493680176
 30
0.0
 40
0.75
100
AcDbArc
 50
180.0
 51
270.0
  0
LINE
  5
3CB
330
39D
100
AcDbEntity
  8
0
  6
Continuous
 62
     7
370
    15
100
AcDbLine
 10
2165.952347684225
 20
887.5967493680176
 30
0.0
 11
2165.952347684225
 21
890.8967493680178
 31
0.0
  0
ARC
  5
3CC
330
39D
100
AcDbEntity
  8
0
  6
Continuous
 62
     7
370
    15
100
AcDbCircle
 10
2166.702347684225
 20
890.8967493680178
 30
0.0
 40
0.75
100
AcDbArc
 50
90.0
 51
180.0
  0
LINE
  5
3CD
330
39D
100
AcDbEntity
  8
0
  6
Continuous
 62
     7
370
    15
100
AcDbLine
 10
2166.702347684225
 20
891.6467493680176
 30
0.0
 11
2167.102347684225
 21
891.6467493680178
 31
0.0
  0
ARC
  5
3CE
330
39D
100
AcDbEntity
  8
0
  6
Continuous
 62
     7
370
    15
100
AcDbCircle
 10
2167.102347684225
 20
890.8967493680178
 30
0.0
 40
0.7500000000000285
100
AcDbArc
 50
0.0
 51
90.0
  0
LINE
  5
3CF
330
39D
100
AcDbEntity
  8
0
  6
Continuous
 62
     7
370
    15
100
AcDbLine
 10
2167.852347684225
 20
890.8967493680178
 30
0.0
 11
2167.852347684225
 21
887.5967493680176
 31
0.0
  0
ARC
  5
3D0
330
39D
100
AcDbEntity
  8
0
  6
Continuous
 62
     7
370
    15
100
AcDbCircle
 10
2167.102347684225
 20
887.5967493680176
 30
0.0
 40
0.75
100
AcDbArc
 50
270.0
 51
0.0
  0
LINE
  5
3D1
330
39D
100
AcDbEntity
  8
0
  6
Continuous
 62
     7
370
    15
100
AcDbLine
 10
2167.102347684225
 20
886.8467493680178
 30
0.0
 11
2166.702347684225
 21
886.8467493680178
 31
0.0
  0
ARC
  5
3D2
330
39D
100
AcDbEntity
  8
0
  6
Continuous
 62
     7
370
    15
100
AcDbCircle
 10
2180.402347684225
 20
887.5967493680176
 30
0.0
 40
0.75
100
AcDbArc
 50
270.0
 51
0.0
  0
LINE
  5
3D3
330
39D
100
AcDbEntity
  8
0
  6
Continuous
 62
     7
370
    15
100
AcDbLine
 10
2181.152347684225
 20
890.8967493680178
 30
0.0
 11
2181.152347684225
 21
887.5967493680176
 31
0.0
  0
ARC
  5
3D4
330
39D
100
AcDbEntity
  8
0
  6
Continuous
 62
     7
370
    15
100
AcDbCircle
 10
2180.402347684225
 20
890.8967493680178
 30
0.0
 40
0.7500000000000285
100
AcDbArc
 50
0.0
 51
90.0
  0
LINE
  5
3D5
330
39D
100
AcDbEntity
  8
0
  6
Continuous
 62
     7
370
    15
100
AcDbLine
 10
2180.002347684225
 20
891.6467493680176
 30
0.0
 11
2180.402347684225
 21
891.6467493680178
 31
0.0
  0
ARC
  5
3D6
330
39D
100
AcDbEntity
  8
0
  6
Continuous
 62
     7
370
    15
100
AcDbCircle
 10
2180.002347684225
 20
890.8967493680178
 30
0.0
 40
0.75
100
AcDbArc
 50
90.0
 51
180.0
  0
ARC
  5
3D7
330
39D
100
AcDbEntity
  8
0
  6
Continuous
 62
     7
370
    15
100
AcDbCircle
 10
2180.002347684225
 20
887.5967493680176
 30
0.0
 40
0.75
100
AcDbArc
 50
180.0
 51
270.0
  0
LINE
  5
3D8
330
39D
100
AcDbEntity
  8
0
  6
Continuous
 62
     7
370
    15
100
AcDbLine
 10
2180.402347684225
 20
886.8467493680178
 30
0.0
 11
2180.002347684225
 21
886.8467493680178
 31
0.0
  0
LINE
  5
3D9
330
39D
100
AcDbEntity
  8
0
  6
Continuous
 62
     7
370
    15
100
AcDbLine
 10
2179.252347684225
 20
887.5967493680176
 30
0.0
 11
2179.252347684225
 21
890.8967493680178
 31
0.0
  0
LINE
  5
3DA
330
39D
100
AcDbEntity
  8
0
  6
Continuous
 62
     7
370
    15
100
AcDbLine
 10
2161.852347684225
 20
897.7467493680178
 30
0.0
 11
2161.852347684225
 21
879.3467493680177
 31
0.0
  0
LINE
  5
3DB
330
39D
100
AcDbEntity
  8
0
  6
Continuous
 62
     7
370
    15
100
AcDbLine
 10
2161.352347684225
 20
897.7467493680178
 30
0.0
 11
2161.852347684225
 21
897.7467493680178
 31
0.0
  0
LINE
  5
3DC
330
39D
100
AcDbEntity
  8
0
  6
Continuous
 62
     7
370
    15
100
AcDbLine
 10
2185.252347684225
 20
879.3467493680177
 30
0.0
 11
2185.252347684225
 21
897.7467493680178
 31
0.0
  0
LINE
  5
3DD
330
39D
100
AcDbEntity
  8
0
  6
Continuous
 62
     7
370
    15
100
AcDbLine
 10
2185.252347684225
 20
897.7467493680178
 30
0.0
 11
2185.752347684225
 21
897.7467493680178
 31
0.0
  0
LINE
  5
3DE
330
39D
100
AcDbEntity
  8
0
  6
Continuous
 62
     7
370
    15
100
AcDbLine
 10
2161.852347684225
 20
897.7467493680178
 30
0.0
 11
2185.252347684225
 21
897.7467493680178
 31
0.0
  0
ENDBLK
  5
39F
330
39D
100
AcDbEntity
  8
0
100
AcDbBlockEnd
  0
BLOCK
  5
3E1
330
3E0
100
AcDbEntity
  8
0
100
AcDbBlockBegin
  2
2
 70
     0
 10
0.0
 20
0.0
 30
0.0
  3
2
  1

  0
LINE
  5
3E3
330
3E0
100
AcDbEntity
  8
0
  6
Continuous
 62
     7
370
    15
100
AcDbLine
 10
2124.748488616868
 20
878.8467493680178
 30
0.0
 11
2124.248488616867
 21
878.8467493680178
 31
0.0
  0
LINE
  5
3E4
330
3E0
100
AcDbEntity
  8
0
  6
Continuous
 62
     7
370
    15
100
AcDbLine
 10
2124.248488616867
 20
878.8467493680178
 30
0.0
 11
2124.248488616867
 21
897.7467493680178
 31
0.0
  0
LINE
  5
3E5
330
3E0
100
AcDbEntity
  8
0
  6
Continuous
 62
     7
370
    15
100
AcDbLine
 10
2124.748488616868
 20
897.7467493680178
 30
0.0
 11
2124.748488616868
 21
878.8467493680178
 31
0.0
  0
LINE
  5
3E6
330
3E0
100
AcDbEntity
  8
0
  6
Continuous
 62
     7
370
    15
100
AcDbLine
 10
2124.248488616867
 20
897.7467493680178
 30
0.0
 11
2124.748488616868
 21
897.7467493680178
 31
0.0
  0
ARC
  5
3E7
330
3E0
100
AcDbEntity
  8
0
  6
Continuous
 62
     7
370
    15
100
AcDbCircle
 10
2124.248488616867
 20
878.8467493680178
 30
0.0
 40
0.5
100
AcDbArc
 50
270.0
 51
0.0
  0
LINE
  5
3E8
330
3E0
100
AcDbEntity
  8
0
  6
Continuous
 62
     7
370
    15
100
AcDbLine
 10
2124.248488616867
 20
878.8467493680178
 30
0.0
 11
2124.248488616867
 21
878.3467493680177
 31
0.0
  0
LINE
  5
3E9
330
3E0
100
AcDbEntity
  8
0
  6
Continuous
 62
     7
370
    15
100
AcDbLine
 10
2111.448488616868
 20
878.8467493680178
 30
0.0
 11
2111.448488616868
 21
897.7467493680178
 31
0.0
  0
LINE
  5
3EA
330
3E0
100
AcDbEntity
  8
0
  6
Continuous
 62
     7
370
    15
100
AcDbLine
 10
2111.448488616868
 20
878.8467493680178
 30
0.0
 11
2124.248488616867
 21
878.8467493680178
 31
0.0
  0
LINE
  5
3EB
330
3E0
100
AcDbEntity
  8
0
  6
Continuous
 62
     7
370
    15
100
AcDbLine
 10
2111.448488616868
 20
897.7467493680178
 30
0.0
 11
2124.248488616867
 21
897.7467493680178
 31
0.0
  0
LINE
  5
3EC
330
3E0
100
AcDbEntity
  8
0
  6
Continuous
 62
     7
370
    15
100
AcDbLine
 10
2124.248488616867
 20
878.3467493680177
 30
0.0
 11
2111.448488616868
 21
878.3467493680177
 31
0.0
  0
LINE
  5
3ED
330
3E0
100
AcDbEntity
  8
0
  6
Continuous
 62
     7
370
    15
100
AcDbLine
 10
2111.448488616868
 20
878.3467493680177
 30
0.0
 11
2111.448488616868
 21
878.8467493680178
 31
0.0
  0
ENDBLK
  5
3E2
330
3E0
100
AcDbEntity
  8
0
100
AcDbBlockEnd
  0
BLOCK
  5
41A
330
419
100
AcDbEntity
  8
0
100
AcDbBlockBegin
  2
3
 70
     0
 10
0.0
 20
0.0
 30
0.0
  3
3
  1

  0
LINE
  5
41C
330
419
100
AcDbEntity
  8
0
  6
Continuous
 62
     7
370
    15
100
AcDbLine
 10
2186.752347684225
 20
834.8428923731992
 30
0.0
 11
2185.752347684225
 21
834.8428923731992
 31
0.0
  0
LINE
  5
41D
330
419
100
AcDbEntity
  8
0
  6
Continuous
 62
     7
370
    15
100
AcDbLine
 10
2185.752347684225
 20
846.6428923731992
 30
0.0
 11
2185.752347684225
 21
834.8428923731992
 31
0.0
  0
ARC
  5
41E
330
419
100
AcDbEntity
  8
0
  6
Continuous
 62
     7
370
    15
100
AcDbCircle
 10
2185.252347684225
 20
846.6428923731992
 30
0.0
 40
0.5
100
AcDbArc
 50
0.0
 51
90.0
  0
LINE
  5
41F
330
419
100
AcDbEntity
  8
0
  6
Continuous
 62
     7
370
    15
100
AcDbLine
 10
2161.852347684225
 20
847.1428923731991
 30
0.0
 11
2185.252347684225
 21
847.1428923731991
 31
0.0
  0
ARC
  5
420
330
419
100
AcDbEntity
  8
0
  6
Continuous
 62
     7
370
    15
100
AcDbCircle
 10
2161.852347684225
 20
846.6428923731992
 30
0.0
 40
0.5
100
AcDbArc
 50
90.0
 51
180.0
  0
LINE
  5
421
330
419
100
AcDbEntity
  8
0
  6
Continuous
 62
     7
370
    15
100
AcDbLine
 10
2161.352347684225
 20
834.8428923731992
 30
0.0
 11
2161.352347684225
 21
846.6428923731992
 31
0.0
  0
LINE
  5
422
330
419
100
AcDbEntity
  8
0
  6
Continuous
 62
     7
370
    15
100
AcDbLine
 10
2161.352347684225
 20
834.8428923731992
 30
0.0
 11
2160.352347684225
 21
834.8428923731992
 31
0.0
  0
LINE
  5
423
330
419
100
AcDbEntity
  8
0
  6
Continuous
 62
     7
370
    15
100
AcDbLine
 10
2160.352347684225
 20
834.8428923731992
 30
0.0
 11
2160.352347684225
 21
847.6428923731992
 31
0.0
  0
LINE
  5
424
330
419
100
AcDbEntity
  8
0
  6
Continuous
 62
     7
370
    15
100
AcDbLine
 10
2186.252347684225
 20
848.1428923731991
 30
0.0
 11
2160.852347684225
 21
848.1428923731991
 31
0.0
  0
ARC
  5
425
330
419
100
AcDbEntity
  8
0
  6
Continuous
 62
     7
370
    15
100
AcDbCircle
 10
2186.252347684225
 20
847.6428923731992
 30
0.0
 40
0.5
100
AcDbArc
 50
0.0
 51
90.0
  0
LINE
  5
426
330
419
100
AcDbEntity
  8
0
  6
Continuous
 62
     7
370
    15
100
AcDbLine
 10
2186.752347684225
 20
834.8428923731992
 30
0.0
 11
2186.752347684225
 21
847.6428923731992
 31
0.0
  0
ARC
  5
427
330
419
100
AcDbEntity
  8
0
  6
Continuous
 62
     7
370
    15
100
AcDbCircle
 10
2160.852347684225
 20
847.6428923731992
 30
0.0
 40
0.5
100
AcDbArc
 50
90.0
 51
180.0
  0
LINE
  5
428
330
419
100
AcDbEntity
  8
0
  6
Continuous
 62
     7
370
    15
100
AcDbLine
 10
2173.802347684225
 20
834.8428923731992
 30
0.0
 11
2173.802347684225
 21
847.1428923731991
 31
0.0
  0
LINE
  5
429
330
419
100
AcDbEntity
  8
0
  6
Continuous
 62
     7
370
    15
100
AcDbLine
 10
2173.402347684225
 20
834.8428923731992
 30
0.0
 11
2173.802347684225
 21
834.8428923731992
 31
0.0
  0
LINE
  5
42A
330
419
100
AcDbEntity
  8
0
  6
Continuous
 62
     7
370
    15
100
AcDbLine
 10
2173.402347684225
 20
834.8428923731992
 30
0.0
 11
2173.402347684225
 21
847.1428923731991
 31
0.0
  0
LINE
  5
42B
330
419
100
AcDbEntity
  8
0
  6
Continuous
 62
     7
370
    15
100
AcDbLine
 10
2167.852347684225
 20
834.8428923731992
 30
0.0
 11
2167.852347684225
 21
847.1428923731991
 31
0.0
  0
LINE
  5
42C
330
419
100
AcDbEntity
  8
0
  6
Continuous
 62
     7
370
    15
100
AcDbLine
 10
2167.102347684225
 20
834.8428923731992
 30
0.0
 11
2167.852347684225
 21
834.8428923731992
 31
0.0
  0
LINE
  5
42D
330
419
100
AcDbEntity
  8
0
  6
Continuous
 62
     7
370
    15
100
AcDbLine
 10
2167.102347684225
 20
834.8428923731992
 30
0.0
 11
2167.102347684225
 21
847.1428923731991
 31
0.0
  0
LINE
  5
42E
330
419
100
AcDbEntity
  8
0
  6
Continuous
 62
     7
370
    15
100
AcDbLine
 10
2180.402347684225
 20
834.8428923731992
 30
0.0
 11
2180.402347684225
 21
847.1428923731991
 31
0.0
  0
LINE
  5
42F
330
419
100
AcDbEntity
  8
0
  6
Continuous
 62
     7
370
    15
100
AcDbLine
 10
2180.002347684225
 20
834.8428923731992
 30
0.0
 11
2180.402347684225
 21
834.8428923731992
 31
0.0
  0
LINE
  5
430
330
419
100
AcDbEntity
  8
0
  6
Continuous
 62
     7
370
    15
100
AcDbLine
 10
2180.002347684225
 20
834.8428923731992
 30
0.0
 11
2180.002347684225
 21
847.1428923731991
 31
0.0
  0
LINE
  5
431
330
419
100
AcDbEntity
  8
0
  6
Continuous
 62
     7
370
    15
100
AcDbLine
 10
2172.652347684225
 20
834.8428923731992
 30
0.0
 11
2173.402347684225
 21
834.8428923731992
 31
0.0
  0
LINE
  5
432
330
419
100
AcDbEntity
  8
0
  6
Continuous
 62
     7
370
    15
100
AcDbLine
 10
2172.652347684225
 20
834.8428923731992
 30
0.0
 11
2172.652347684225
 21
847.1428923731991
 31
0.0
  0
LINE
  5
433
330
419
100
AcDbEntity
  8
0
  6
Continuous
 62
     7
370
    15
100
AcDbLine
 10
2166.702347684225
 20
834.8428923731992
 30
0.0
 11
2167.102347684225
 21
834.8428923731992
 31
0.0
  0
LINE
  5
434
330
419
100
AcDbEntity
  8
0
  6
Continuous
 62
     7
370
    15
100
AcDbLine
 10
2166.702347684225
 20
834.8428923731992
 30
0.0
 11
2166.702347684225
 21
847.1428923731991
 31
0.0
  0
LINE
  5
435
330
419
100
AcDbEntity
  8
0
  6
Continuous
 62
     7
370
    15
100
AcDbLine
 10
2179.252347684225
 20
834.8428923731992
 30
0.0
 11
2180.002347684225
 21
834.8428923731992
 31
0.0
  0
LINE
  5
436
330
419
100
AcDbEntity
  8
0
  6
Continuous
 62
     7
370
    15
100
AcDbLine
 10
2179.252347684225
 20
834.8428923731992
 30
0.0
 11
2179.252347684225
 21
847.1428923731991
 31
0.0
  0
LINE
  5
437
330
419
100
AcDbEntity
  8
0
  6
Continuous
 62
     7
370
    15
100
AcDbLine
 10
2181.152347684225
 20
834.8428923731992
 30
0.0
 11
2181.152347684225
 21
847.1428923731991
 31
0.0
  0
LINE
  5
438
330
419
100
AcDbEntity
  8
0
  6
Continuous
 62
     7
370
    15
100
AcDbLine
 10
2180.402347684225
 20
834.8428923731992
 30
0.0
 11
2181.152347684225
 21
834.8428923731992
 31
0.0
  0
LINE
  5
439
330
419
100
AcDbEntity
  8
0
  6
Continuous
 62
     7
370
    15
100
AcDbLine
 10
2165.952347684225
 20
834.8428923731992
 30
0.0
 11
2166.702347684225
 21
834.8428923731992
 31
0.0
  0
LINE
  5
43A
330
419
100
AcDbEntity
  8
0
  6
Continuous
 62
     7
370
    15
100
AcDbLine
 10
2165.952347684225
 20
834.8428923731992
 30
0.0
 11
2165.952347684225
 21
847.1428923731991
 31
0.0
  0
LINE
  5
43B
330
419
100
AcDbEntity
  8
0
  6
Continuous
 62
     7
370
    15
100
AcDbLine
 10
2174.552347684225
 20
834.8428923731992
 30
0.0
 11
2174.552347684225
 21
847.1428923731991
 31
0.0
  0
LINE
  5
43C
330
419
100
AcDbEntity
  8
0
  6
Continuous
 62
     7
370
    15
100
AcDbLine
 10
2173.802347684225
 20
834.8428923731992
 30
0.0
 11
2174.552347684225
 21
834.8428923731992
 31
0.0
  0
LINE
  5
43D
330
419
100
AcDbEntity
  8
0
  6
Continuous
 62
     7
370
    15
100
AcDbLine
 10
2185.252347684225
 20
834.8428923731992
 30
0.0
 11
2185.252347684225
 21
847.1428923731991
 31
0.0
  0
LINE
  5
43E
330
419
100
AcDbEntity
  8
0
  6
Continuous
 62
     7
370
    15
100
AcDbLine
 10
2185.752347684225
 20
834.8428923731992
 30
0.0
 11
2185.252347684225
 21
834.8428923731992
 31
0.0
  0
LINE
  5
43F
330
419
100
AcDbEntity
  8
0
  6
Continuous
 62
     7
370
    15
100
AcDbLine
 10
2161.852347684225
 20
847.1428923731991
 30
0.0
 11
2161.852347684225
 21
834.8428923731992
 31
0.0
  0
LINE
  5
440
330
419
100
AcDbEntity
  8
0
  6
Continuous
 62
     7
370
    15
100
AcDbLine
 10
2161.852347684225
 20
834.8428923731992
 30
0.0
 11
2161.352347684225
 21
834.8428923731992
 31
0.0
  0
LINE
  5
441
330
419
100
AcDbEntity
  8
0
  6
Continuous
 62
     7
370
    15
100
AcDbLine
 10
2161.852347684225
 20
834.8428923731992
 30
0.0
 11
2165.952347684225
 21
834.8428923731992
 31
0.0
  0
LINE
  5
442
330
419
100
AcDbEntity
  8
0
  6
Continuous
 62
     7
370
    15
100
AcDbLine
 10
2167.852347684225
 20
834.8428923731992
 30
0.0
 11
2172.652347684225
 21
834.8428923731992
 31
0.0
  0
LINE
  5
443
330
419
100
AcDbEntity
  8
0
  6
Continuous
 62
     7
370
    15
100
AcDbLine
 10
2174.552347684225
 20
834.8428923731992
 30
0.0
 11
2179.252347684225
 21
834.8428923731992
 31
0.0
  0
LINE
  5
444
330
419
100
AcDbEntity
  8
0
  6
Continuous
 62
     7
370
    15
100
AcDbLine
 10
2181.152347684225
 20
834.8428923731992
 30
0.0
 11
2185.252347684225
 21
834.8428923731992
 31
0.0
  0
ENDBLK
  5
41B
330
419
100
AcDbEntity
  8
0
100
AcDbBlockEnd
  0
BLOCK
  5
447
330
446
100
AcDbEntity
  8
0
100
AcDbBlockBegin
  2
4
 70
     0
 10
0.0
 20
0.0
 30
0.0
  3
4
  1

  0
LINE
  5
449
330
446
100
AcDbEntity
  8
0
  6
Continuous
 62
     7
370
    15
100
AcDbLine
 10
2241.465938488866
 20
873.0685285241593
 30
0.0
 11
2241.465938488866
 21
888.5011498687999
 31
0.0
  0
LINE
  5
44A
330
446
100
AcDbEntity
  8
0
  6
Continuous
 62
     7
370
    15
100
AcDbLine
 10
2231.561418299085
 20
883.4472840084771
 30
0.0
 11
2227.120584782523
 21
880.8836453879488
 31
0.0
  0
LINE
  5
44B
330
446
100
AcDbEntity
  8
0
  6
Continuous
 62
     7
370
    15
100
AcDbLine
 10
2228.153366544475
 20
876.7267057927902
 30
0.0
 11
2231.561418299085
 21
878.6941321928777
 31
0.0
  0
LINE
  5
44C
330
446
100
AcDbEntity
  8
0
  6
Continuous
 62
     7
370
    15
100
AcDbLine
 10
2232.164951372837
 20
867.4104921773036
 30
0.0
 11
2241.215918172025
 21
872.6355040929689
 31
0.0
  0
LINE
  5
44D
330
446
100
AcDbEntity
  8
0
  6
Continuous
 62
     7
370
    15
100
AcDbLine
 10
2231.151093435287
 20
888.5987020446734
 30
0.0
 11
2222.453680026692
 21
883.5777921569638
 31
0.0
  0
LINE
  5
44E
330
446
100
AcDbEntity
  8
0
  6
Continuous
 62
     7
370
    15
100
AcDbLine
 10
2231.561418299085
 20
878.6238708060906
 30
0.0
 11
2227.017011075089
 21
876.0004403569652
 31
0.0
  0
LINE
  5
44F
330
446
100
AcDbEntity
  8
0
  6
Continuous
 62
     7
370
    15
100
AcDbLine
 10
2223.486461788644
 20
879.4208525618051
 30
0.0
 11
2232.183875197239
 21
884.4417624495147
 31
0.0
  0
LINE
  5
450
330
446
100
AcDbEntity
  8
0
  6
Continuous
 62
     7
370
    15
100
AcDbLine
 10
2231.151093435287
 20
883.5361490109816
 30
0.0
 11
2222.453680026692
 21
878.515239123272
 31
0.0
  0
LINE
  5
451
330
446
100
AcDbEntity
  8
0
  6
Continuous
 62
     7
370
    15
100
AcDbLine
 10
2226.413478001337
 20
891.3336692192794
 30
0.0
 11
2217.716064592742
 21
886.3127593315699
 31
0.0
  0
LINE
  5
452
330
446
100
AcDbEntity
  8
0
  6
Continuous
 62
     7
370
    15
100
AcDbLine
 10
2218.748846354694
 20
882.1558197364113
 30
0.0
 11
2227.446259763289
 21
887.1767296241209
 31
0.0
  0
ARC
  5
453
330
446
100
AcDbEntity
  8
0
  6
Continuous
 62
     7
370
    15
100
AcDbCircle
 10
2240.965938488866
 20
873.0685285241593
 30
0.0
 40
0.5000000000000035
100
AcDbArc
 50
299.9973117336411
 51
0.0
  0
LINE
  5
454
330
446
100
AcDbEntity
  8
0
  6
Continuous
 62
     7
370
    15
100
AcDbLine
 10
2222.316609318768
 20
883.3832943535007
 30
0.0
 11
2218.272378233477
 21
881.0486094431277
 31
0.0
  0
LINE
  5
455
330
446
100
AcDbEntity
  8
0
  6
Continuous
 62
     7
370
    15
100
AcDbLine
 10
2232.268525080272
 20
867.6394145805383
 30
0.0
 11
2232.268525080272
 21
883.072035925179
 31
0.0
  0
LINE
  5
456
330
446
100
AcDbEntity
  8
0
  6
Continuous
 62
     7
370
    15
100
AcDbLine
 10
2232.268525080272
 20
883.072035925179
 30
0.0
 11
2241.31949187946
 21
888.2970478408443
 31
0.0
  0
LINE
  5
457
330
446
100
AcDbEntity
  8
0
  6
Continuous
 62
     7
370
    15
100
AcDbLine
 10
2241.31949187946
 20
872.8644264962035
 30
0.0
 11
2241.31949187946
 21
888.2970478408443
 31
0.0
  0
LINE
  5
458
330
446
100
AcDbEntity
  8
0
  6
Continuous
 62
     7
370
    15
100
AcDbLine
 10
2232.268525080272
 20
867.6394145805383
 30
0.0
 11
2241.31949187946
 21
872.8644264962035
 31
0.0
  0
LINE
  5
459
330
446
100
AcDbEntity
  8
0
  6
Continuous
 62
     7
370
    15
100
AcDbLine
 10
2232.268525080272
 20
883.072035925179
 30
0.0
 11
2231.561418299085
 21
883.4802399810904
 31
0.0
  0
LINE
  5
45A
330
446
100
AcDbEntity
  8
0
  6
Continuous
 62
     7
370
    15
100
AcDbLine
 10
2239.905278317086
 20
888.2970478408443
 30
0.0
 11
2231.561418299085
 21
883.4802399810904
 31
0.0
  0
ARC
  5
45B
330
446
100
AcDbEntity
  8
0
  6
Continuous
 62
     7
370
    15
100
AcDbCircle
 10
2239.827814803688
 20
888.5011498687999
 30
0.0
 40
0.2183076584171558
100
AcDbArc
 50
290.7834207994586
 51
69.21657920054143
  0
LINE
  5
45C
330
446
100
AcDbEntity
  8
0
  6
Continuous
 62
     7
370
    15
100
AcDbLine
 10
2223.358979637321
 20
898.2572268050814
 30
0.0
 11
2239.905278317086
 21
888.7052518967557
 31
0.0
  0
ARC
  5
45D
330
446
100
AcDbEntity
  8
0
  6
Continuous
 62
     7
370
    15
100
AcDbCircle
 10
2223.005426246727
 20
897.5748712626035
 30
0.0
 40
0.7685109539558857
100
AcDbArc
 50
62.60967223659757
 51
117.3903277634054
  0
LINE
  5
45E
330
446
100
AcDbEntity
  8
0
  6
Continuous
 62
     7
370
    15
100
AcDbLine
 10
2214.308012838133
 20
893.4404189453275
 30
0.0
 11
2222.651872856134
 21
898.2572268050814
 31
0.0
  0
LINE
  5
45F
330
446
100
AcDbEntity
  8
0
  6
Continuous
 62
     7
370
    15
100
AcDbLine
 10
2214.308012838133
 20
893.4404189453275
 30
0.0
 11
2213.600906056946
 21
893.8486230012388
 31
0.0
  0
LINE
  5
460
330
446
100
AcDbEntity
  8
0
  6
Continuous
 62
     7
370
    15
100
AcDbLine
 10
2213.600906056946
 20
893.8486230012388
 30
0.0
 11
2222.651872856134
 21
899.073634916904
 31
0.0
  0
ARC
  5
461
330
446
100
AcDbEntity
  8
0
  6
Continuous
 62
     7
370
    15
100
AcDbCircle
 10
2223.005426246727
 20
898.3912793744263
 30
0.0
 40
0.7685109539558605
100
AcDbArc
 50
62.60967223659757
 51
117.3903277634054
  0
LINE
  5
462
330
446
100
AcDbEntity
  8
0
  6
Continuous
 62
     7
370
    15
100
AcDbLine
 10
2241.31949187946
 20
888.7052518967557
 30
0.0
 11
2223.358979637321
 21
899.073634916904
 31
0.0
  0
ARC
  5
463
330
446
100
AcDbEntity
  8
0
  6
Continuous
 62
     7
370
    15
100
AcDbCircle
 10
2241.242028366061
 20
888.5011498687999
 30
0.0
 40
0.2183076584171659
100
AcDbArc
 50
290.7834207994586
 51
69.21657920053911
  0
ARC
  5
464
330
446
100
AcDbEntity
  8
0
  6
Continuous
 62
     7
370
    15
100
AcDbCircle
 10
2214.368514107631
 20
878.4509320827284
 30
0.0
 40
0.7684024037860748
100
AcDbArc
 50
182.6054784856563
 51
237.3945216599699
  0
LINE
  5
465
330
446
100
AcDbEntity
  8
0
  6
Continuous
 62
     7
370
    15
100
AcDbLine
 10
2213.600906056946
 20
893.8486230012388
 30
0.0
 11
2213.600906056946
 21
878.4160016565982
 31
0.0
  0
LINE
  5
466
330
446
100
AcDbEntity
  8
0
  6
Continuous
 62
     7
370
    15
100
AcDbLine
 10
2214.308012838133
 20
893.4404189453275
 30
0.0
 11
2214.308012838133
 21
878.8243384125724
 31
0.0
  0
ARC
  5
467
330
446
100
AcDbEntity
  8
0
  6
Continuous
 62
     7
370
    15
100
AcDbCircle
 10
2215.075620888817
 20
878.8592688387028
 30
0.0
 40
0.768402403786137
100
AcDbArc
 50
182.6054784856563
 51
237.3945216599699
  0
LINE
  5
468
330
446
100
AcDbEntity
  8
0
  6
Continuous
 62
     7
370
    15
100
AcDbLine
 10
2214.661566228727
 20
878.2119659786738
 30
0.0
 11
2217.560704031591
 21
876.5383293494373
 31
0.0
  0
LINE
  5
469
330
446
100
AcDbEntity
  8
0
  6
Continuous
 62
     7
370
    15
100
AcDbLine
 10
2217.560704031591
 20
876.5383293494373
 30
0.0
 11
2217.560704031591
 21
879.7174750858316
 31
0.0
  0
ARC
  5
46A
330
446
100
AcDbEntity
  8
0
  6
Continuous
 62
     7
370
    15
100
AcDbCircle
 10
2217.724489136934
 20
879.7221607908934
 30
0.0
 40
0.1638521179726341
100
AcDbArc
 50
153.443626886434
 51
181.6387199224264
  0
LINE
  5
46B
330
446
100
AcDbEntity
  8
0
  6
Continuous
 62
     7
370
    15
100
AcDbLine
 10
2217.577924250422
 20
879.7954154877103
 30
0.0
 11
2218.23781159859
 21
881.0120886433891
 31
0.0
  0
ARC
  5
46C
330
446
100
AcDbEntity
  8
0
  6
Continuous
 62
     7
370
    15
100
AcDbCircle
 10
2218.328202367069
 20
880.954026637724
 30
0.0
 40
0.1074322462206423
100
AcDbArc
 50
49.9236598862055
 51
147.2855651265598
  0
LINE
  5
46D
330
446
100
AcDbEntity
  8
0
  6
Continuous
 62
     7
370
    15
100
AcDbLine
 10
2218.397368075057
 20
881.0362324305041
 30
0.0
 11
2218.727430220549
 21
880.8456916096867
 31
0.0
  0
ARC
  5
46E
330
446
100
AcDbEntity
  8
0
  6
Continuous
 62
     7
370
    15
100
AcDbCircle
 10
2218.520402890504
 20
880.5220401796724
 30
0.0
 40
0.3842012018930876
100
AcDbArc
 50
2.60547848564986
 51
57.39452165996985
  0
LINE
  5
46F
330
446
100
AcDbEntity
  8
0
  6
Continuous
 62
     7
370
    15
100
AcDbLine
 10
2218.904206915846
 20
880.5395053927373
 30
0.0
 11
2218.904206915846
 21
875.7627416432057
 31
0.0
  0
LINE
  5
470
330
446
100
AcDbEntity
  8
0
  6
Continuous
 62
     7
370
    15
100
AcDbLine
 10
2218.904206915846
 20
875.7627416432057
 30
0.0
 11
2222.298319465541
 21
873.8033621748312
 31
0.0
  0
LINE
  5
471
330
446
100
AcDbEntity
  8
0
  6
Continuous
 62
     7
370
    15
100
AcDbLine
 10
2222.298319465541
 20
873.8033621748312
 30
0.0
 11
2222.298319465541
 21
878.17185551842
 31
0.0
  0
ARC
  5
472
330
446
100
AcDbEntity
  8
0
  6
Continuous
 62
     7
370
    15
100
AcDbCircle
 10
2222.621625241111
 20
878.2243009160954
 30
0.0
 40
0.3275318980713966
100
AcDbArc
 50
50.79671476429672
 51
189.2140369904499
  0
LINE
  5
473
330
446
100
AcDbEntity
  8
0
  6
Continuous
 62
     7
370
    15
100
AcDbLine
 10
2222.828649551431
 20
878.4781080854008
 30
0.0
 11
2223.111492263905
 21
878.3148264630362
 31
0.0
  0
ARC
  5
474
330
446
100
AcDbEntity
  8
0
  6
Continuous
 62
     7
370
    15
100
AcDbCircle
 10
2222.40432505688
 20
877.3853181604291
 30
0.0
 40
1.167934562939727
100
AcDbArc
 50
2.540534446989613
 51
52.73622834881528
  0
LINE
  5
475
330
446
100
AcDbEntity
  8
0
  6
Continuous
 62
     7
370
    15
100
AcDbLine
 10
2223.571111671677
 20
877.4370882177795
 30
0.0
 11
2223.571111671677
 21
873.0685948741907
 31
0.0
  0
LINE
  5
476
330
446
100
AcDbEntity
  8
0
  6
Continuous
 62
     7
370
    15
100
AcDbLine
 10
2223.571111671677
 20
873.0685948741907
 30
0.0
 11
2226.965224221372
 21
871.1092154058164
 31
0.0
  0
LINE
  5
477
330
446
100
AcDbEntity
  8
0
  6
Continuous
 62
     7
370
    15
100
AcDbLine
 10
2226.965224221372
 20
871.1092154058164
 30
0.0
 11
2226.965224221372
 21
875.8859791553479
 31
0.0
  0
ARC
  5
478
330
446
100
AcDbEntity
  8
0
  6
Continuous
 62
     7
370
    15
100
AcDbCircle
 10
2227.072992813229
 20
875.9034609545732
 30
0.0
 40
0.1091772993571094
100
AcDbArc
 50
50.79671476426006
 51
189.2140369904756
  0
LINE
  5
479
330
446
100
AcDbEntity
  8
0
  6
Continuous
 62
     7
370
    15
100
AcDbLine
 10
2227.142000916669
 20
875.9880633443415
 30
0.0
 11
2227.472063062162
 21
875.7975225235242
 31
0.0
  0
ARC
  5
47A
330
446
100
AcDbEntity
  8
0
  6
Continuous
 62
     7
370
    15
100
AcDbCircle
 10
2227.262132421955
 20
875.4714933979023
 30
0.0
 40
0.3877703759333673
100
AcDbArc
 50
17.66438310171856
 51
57.22245447097026
  0
LINE
  5
47B
330
446
100
AcDbEntity
  8
0
  6
Continuous
 62
     7
370
    15
100
AcDbLine
 10
2227.631619538628
 20
875.5891587499142
 30
0.0
 11
2228.291506886796
 21
873.6105958793181
 31
0.0
  0
ARC
  5
47C
330
446
100
AcDbEntity
  8
0
  6
Continuous
 62
     7
370
    15
100
AcDbCircle
 10
2227.995653527342
 20
873.5080882907938
 30
0.0
 40
0.3131086329137345
100
AcDbArc
 50
0.8573671741906466
 51
19.11023272907828
  0
LINE
  5
47D
330
446
100
AcDbEntity
  8
0
  6
Continuous
 62
     7
370
    15
100
AcDbLine
 10
2228.308727105627
 20
873.5127734359789
 30
0.0
 11
2228.308727105627
 21
870.3336276995846
 31
0.0
  0
LINE
  5
47E
330
446
100
AcDbEntity
  8
0
  6
Continuous
 62
     7
370
    15
100
AcDbLine
 10
2228.308727105627
 20
870.3336276995846
 30
0.0
 11
2231.207864908492
 21
868.6599910703483
 31
0.0
  0
ARC
  5
47F
330
446
100
AcDbEntity
  8
0
  6
Continuous
 62
     7
370
    15
100
AcDbCircle
 10
2231.345881115371
 20
868.8291958498851
 30
0.0
 40
0.218354598714209
100
AcDbArc
 50
230.7967147642683
 51
9.214036990475655
  0
LINE
  5
480
330
446
100
AcDbEntity
  8
0
  6
Continuous
 62
     7
370
    15
100
AcDbLine
 10
2231.561418299085
 20
868.8641594483353
 30
0.0
 11
2231.561418299085
 21
883.4802399810904
 31
0.0
  0
ARC
  5
481
330
446
100
AcDbEntity
  8
0
  6
Continuous
 62
     7
370
    15
100
AcDbCircle
 10
2232.052987896558
 20
867.6044509820879
 30
0.0
 40
0.2183545987142301
100
AcDbArc
 50
230.7967147642926
 51
9.214036990475655
  0
LINE
  5
482
330
446
100
AcDbEntity
  8
0
  6
Continuous
 62
     7
370
    15
100
AcDbLine
 10
2213.95445944754
 20
877.8036292226996
 30
0.0
 11
2231.914971689678
 21
867.435246202551
 31
0.0
  0
ARC
  5
483
330
446
100
AcDbEntity
  8
0
  6
Continuous
 62
     7
370
    15
100
AcDbCircle
 10
2227.985421330057
 20
877.0176439999666
 30
0.0
 40
0.3275318980713225
100
AcDbArc
 50
230.7967147642683
 51
9.214036990462794
  0
LINE
  5
484
330
446
100
AcDbEntity
  8
0
  6
Continuous
 62
     7
370
    15
100
AcDbLine
 10
2227.778397019737
 20
876.7638368306613
 30
0.0
 11
2227.495554307262
 21
876.9271184530259
 31
0.0
  0
ARC
  5
485
330
446
100
AcDbEntity
  8
0
  6
Continuous
 62
     7
370
    15
100
AcDbCircle
 10
2228.116636297398
 20
877.8980727430692
 30
0.0
 40
1.152603605678984
100
AcDbArc
 50
182.6054784856498
 51
237.3945216599734
  0
LINE
  5
486
330
446
100
AcDbEntity
  8
0
  6
Continuous
 62
     7
370
    15
100
AcDbLine
 10
2226.965224221372
 20
877.8456771038738
 30
0.0
 11
2226.965224221372
 21
880.5402617830967
 31
0.0
  0
ARC
  5
487
330
446
100
AcDbEntity
  8
0
  6
Continuous
 62
     7
370
    15
100
AcDbCircle
 10
2227.288529996942
 20
880.5927071807722
 30
0.0
 40
0.3275318980713524
100
AcDbArc
 50
50.79671476429261
 51
189.2140369904692
  0
LINE
  5
488
330
446
100
AcDbEntity
  8
0
  6
Continuous
 62
     7
370
    15
100
AcDbLine
 10
2227.495554307262
 20
880.8465143500775
 30
0.0
 11
2227.778397019737
 21
880.6832327277131
 31
0.0
  0
ARC
  5
489
330
446
100
AcDbEntity
  8
0
  6
Continuous
 62
     7
370
    15
100
AcDbCircle
 10
2227.157315029602
 20
879.7122784376696
 30
0.0
 40
1.152603605679099
100
AcDbArc
 50
2.60547848564986
 51
57.39452165996985
  0
LINE
  5
48A
330
446
100
AcDbEntity
  8
0
  6
Continuous
 62
     7
370
    15
100
AcDbLine
 10
2228.308727105627
 20
879.7646740768652
 30
0.0
 11
2228.308727105627
 21
877.0700893976421
 31
0.0
  0
ARC
  5
48B
330
446
100
AcDbEntity
  8
0
  6
Continuous
 62
     7
370
    15
100
AcDbCircle
 10
2227.234118897619
 20
887.4795481759838
 30
0.0
 40
0.3697334475527215
100
AcDbArc
 50
305.0133328796391
 51
6.298847513742871
  0
LINE
  5
48C
330
446
100
AcDbEntity
  8
0
  6
Continuous
 62
     7
370
    15
100
AcDbLine
 10
2227.60162032444
 20
887.5201132289729
 30
0.0
 11
2227.60162032444
 21
890.214697908196
 31
0.0
  0
ARC
  5
48D
330
446
100
AcDbEntity
  8
0
  6
Continuous
 62
     7
370
    15
100
AcDbCircle
 10
2226.450208248415
 20
890.1623022690005
 30
0.0
 40
1.152603605678943
100
AcDbArc
 50
2.60547848564986
 51
57.39452165997335
  0
LINE
  5
48E
330
446
100
AcDbEntity
  8
0
  6
Continuous
 62
     7
370
    15
100
AcDbLine
 10
2227.07129023855
 20
891.1332565590438
 30
0.0
 11
2226.788447526075
 21
891.2965381814084
 31
0.0
  0
ARC
  5
48F
330
446
100
AcDbEntity
  8
0
  6
Continuous
 62
     7
370
    15
100
AcDbCircle
 10
2226.568757484938
 20
890.9898771845695
 30
0.0
 40
0.3772329269263508
100
AcDbArc
 50
54.3824225247954
 51
114.3071190461007
  0
ARC
  5
490
330
446
100
AcDbEntity
  8
0
  6
Continuous
 62
     7
370
    15
100
AcDbCircle
 10
2231.306372918888
 20
888.2549100099634
 30
0.0
 40
0.3772329269262649
100
AcDbArc
 50
54.3824225247916
 51
114.3071190461007
  0
ARC
  5
491
330
446
100
AcDbEntity
  8
0
  6
Continuous
 62
     7
370
    15
100
AcDbCircle
 10
2231.971734331452
 20
884.744581001431
 30
0.0
 40
0.3697334476640768
100
AcDbArc
 50
305.0133328898527
 51
6.298847503506854
  0
LINE
  5
492
330
446
100
AcDbEntity
  8
0
  6
Continuous
 62
     7
370
    15
100
AcDbLine
 10
2232.33923575839
 20
884.7851460543667
 30
0.0
 11
2232.33923575839
 21
887.4797307335898
 31
0.0
  0
ARC
  5
493
330
446
100
AcDbEntity
  8
0
  6
Continuous
 62
     7
370
    15
100
AcDbCircle
 10
2231.187823682364
 20
887.4273350943942
 30
0.0
 40
1.152603605679319
100
AcDbArc
 50
2.605478485656367
 51
57.39452165996985
  0
LINE
  5
494
330
446
100
AcDbEntity
  8
0
  6
Continuous
 62
     7
370
    15
100
AcDbLine
 10
2231.808905672501
 20
888.3982893844377
 30
0.0
 11
2231.526062960025
 21
888.5615710068021
 31
0.0
  0
LINE
  5
495
330
446
100
AcDbEntity
  8
0
  6
Continuous
 62
     7
370
    15
100
AcDbLine
 10
2231.561418299085
 20
883.4786077703148
 30
0.0
 11
2231.526062960025
 21
883.4990179731104
 31
0.0
  0
ARC
  5
496
330
446
100
AcDbEntity
  8
0
  6
Continuous
 62
     7
370
    15
100
AcDbCircle
 10
2231.306372918888
 20
883.1923569762714
 30
0.0
 40
0.3772329269263739
100
AcDbArc
 50
54.3824225247954
 51
114.307119046098
  0
LINE
  5
497
330
446
100
AcDbEntity
  8
0
  6
Continuous
 62
     7
370
    15
100
AcDbLine
 10
2227.60162032444
 20
881.4870817997118
 30
0.0
 11
2227.60162032444
 21
881.7964830178041
 31
0.0
  0
ARC
  5
498
330
446
100
AcDbEntity
  8
0
  6
Continuous
 62
     7
370
    15
100
AcDbCircle
 10
2222.621625241111
 20
883.2868539497871
 30
0.0
 40
0.3275318980714367
100
AcDbArc
 50
50.79671476429672
 51
189.2140369904499
  0
LINE
  5
499
330
446
100
AcDbEntity
  8
0
  6
Continuous
 62
     7
370
    15
100
AcDbLine
 10
2222.828649551431
 20
883.5406611190926
 30
0.0
 11
2223.111492263906
 21
883.377379496728
 31
0.0
  0
ARC
  5
49A
330
446
100
AcDbEntity
  8
0
  6
Continuous
 62
     7
370
    15
100
AcDbCircle
 10
2222.49041027377
 20
882.4064252066847
 30
0.0
 40
1.152603605679098
100
AcDbArc
 50
2.60547848564986
 51
57.39452165996985
  0
LINE
  5
49B
330
446
100
AcDbEntity
  8
0
  6
Continuous
 62
     7
370
    15
100
AcDbLine
 10
2223.641822349796
 20
882.4588208458802
 30
0.0
 11
2223.641822349796
 21
879.7642361666571
 31
0.0
  0
ARC
  5
49C
330
446
100
AcDbEntity
  8
0
  6
Continuous
 62
     7
370
    15
100
AcDbCircle
 10
2223.318516574225
 20
879.7117907689816
 30
0.0
 40
0.3275318980713759
100
AcDbArc
 50
230.7967147642926
 51
9.214036990462794
  0
LINE
  5
49D
330
446
100
AcDbEntity
  8
0
  6
Continuous
 62
     7
370
    15
100
AcDbLine
 10
2223.111492263905
 20
879.4579835996763
 30
0.0
 11
2222.828649551431
 21
879.6212652220408
 31
0.0
  0
ARC
  5
49E
330
446
100
AcDbEntity
  8
0
  6
Continuous
 62
     7
370
    15
100
AcDbCircle
 10
2223.449731541567
 20
880.5922195120841
 30
0.0
 40
1.152603605679015
100
AcDbArc
 50
182.6054784856563
 51
237.3945216599734
  0
LINE
  5
49F
330
446
100
AcDbEntity
  8
0
  6
Continuous
 62
     7
370
    15
100
AcDbLine
 10
2222.298319465541
 20
880.5398238728887
 30
0.0
 11
2222.298319465541
 21
883.2344085521118
 31
0.0
  0
LINE
  5
4A0
330
446
100
AcDbEntity
  8
0
  6
Continuous
 62
     7
370
    15
100
AcDbLine
 10
2223.641822349796
 20
882.4588208458802
 30
0.0
 11
2232.33923575839
 21
887.4797307335898
 31
0.0
  0
LINE
  5
4A1
330
446
100
AcDbEntity
  8
0
  6
Continuous
 62
     7
370
    15
100
AcDbLine
 10
2223.111492263906
 20
883.377379496728
 30
0.0
 11
2231.808905672501
 21
888.3982893844377
 31
0.0
  0
LINE
  5
4A2
330
446
100
AcDbEntity
  8
0
  6
Continuous
 62
     7
370
    15
100
AcDbLine
 10
2223.641822349796
 20
879.7642361666571
 30
0.0
 11
2232.33923575839
 21
884.7851460543667
 31
0.0
  0
LINE
  5
4A3
330
446
100
AcDbEntity
  8
0
  6
Continuous
 62
     7
370
    15
100
AcDbLine
 10
2222.828649551431
 20
883.5406611190926
 30
0.0
 11
2231.526062960025
 21
888.5615710068021
 31
0.0
  0
LINE
  5
4A4
330
446
100
AcDbEntity
  8
0
  6
Continuous
 62
     7
370
    15
100
AcDbLine
 10
2228.308727105627
 20
870.3336276995846
 30
0.0
 11
2231.561418299085
 21
872.2113663567769
 31
0.0
  0
LINE
  5
4A5
330
446
100
AcDbEntity
  8
0
  6
Continuous
 62
     7
370
    15
100
AcDbLine
 10
2223.111492263905
 20
878.3148264630362
 30
0.0
 11
2226.965224221372
 21
880.5395385677531
 31
0.0
  0
ARC
  5
4A6
330
446
100
AcDbEntity
  8
0
  6
Continuous
 62
     7
370
    15
100
AcDbCircle
 10
2218.712116107617
 20
883.3271866866903
 30
0.0
 40
1.152603605679123
100
AcDbArc
 50
182.6054784856563
 51
237.3945216599699
  0
LINE
  5
4A7
330
446
100
AcDbEntity
  8
0
  6
Continuous
 62
     7
370
    15
100
AcDbLine
 10
2217.560704031591
 20
883.2747910474948
 30
0.0
 11
2217.560704031591
 21
885.9693757267178
 31
0.0
  0
ARC
  5
4A8
330
446
100
AcDbEntity
  8
0
  6
Continuous
 62
     7
370
    15
100
AcDbCircle
 10
2217.884009807161
 20
886.0218211243934
 30
0.0
 40
0.3275318980713994
100
AcDbArc
 50
50.79671476429672
 51
189.2140369904564
  0
LINE
  5
4A9
330
446
100
AcDbEntity
  8
0
  6
Continuous
 62
     7
370
    15
100
AcDbLine
 10
2218.091034117481
 20
886.2756282936986
 30
0.0
 11
2218.373876829955
 21
886.112346671334
 31
0.0
  0
ARC
  5
4AA
330
446
100
AcDbEntity
  8
0
  6
Continuous
 62
     7
370
    15
100
AcDbCircle
 10
2217.75279483982
 20
885.1413923812909
 30
0.0
 40
1.152603605678968
100
AcDbArc
 50
2.60547848564986
 51
57.39452165997335
  0
LINE
  5
4AB
330
446
100
AcDbEntity
  8
0
  6
Continuous
 62
     7
370
    15
100
AcDbLine
 10
2218.904206915846
 20
885.1937880204861
 30
0.0
 11
2218.904206915846
 21
882.4992033412632
 31
0.0
  0
ARC
  5
4AC
330
446
100
AcDbEntity
  8
0
  6
Continuous
 62
     7
370
    15
100
AcDbCircle
 10
2218.580901140276
 20
882.4467579435877
 30
0.0
 40
0.3275318980713886
100
AcDbArc
 50
230.7967147642926
 51
9.214036990462794
  0
LINE
  5
4AD
330
446
100
AcDbEntity
  8
0
  6
Continuous
 62
     7
370
    15
100
AcDbLine
 10
2218.373876829955
 20
882.1929507742824
 30
0.0
 11
2218.091034117481
 21
882.356232396647
 31
0.0
  0
LINE
  5
4AE
330
446
100
AcDbEntity
  8
0
  6
Continuous
 62
     7
370
    15
100
AcDbLine
 10
2218.904206915846
 20
885.1937880204861
 30
0.0
 11
2227.60162032444
 21
890.214697908196
 31
0.0
  0
LINE
  5
4AF
330
446
100
AcDbEntity
  8
0
  6
Continuous
 62
     7
370
    15
100
AcDbLine
 10
2218.373876829955
 20
886.112346671334
 30
0.0
 11
2227.07129023855
 21
891.1332565590438
 31
0.0
  0
LINE
  5
4B0
330
446
100
AcDbEntity
  8
0
  6
Continuous
 62
     7
370
    15
100
AcDbLine
 10
2222.828649551431
 20
878.4781080854008
 30
0.0
 11
2231.526062960025
 21
883.4990179731104
 31
0.0
  0
LINE
  5
4B1
330
446
100
AcDbEntity
  8
0
  6
Continuous
 62
     7
370
    15
100
AcDbLine
 10
2223.571111671677
 20
873.0685948741907
 30
0.0
 11
2226.965224221372
 21
875.0279743425652
 31
0.0
  0
LINE
  5
4B2
330
446
100
AcDbEntity
  8
0
  6
Continuous
 62
     7
370
    15
100
AcDbLine
 10
2218.904206915846
 20
882.4992033412632
 30
0.0
 11
2227.60162032444
 21
887.5201132289729
 31
0.0
  0
LINE
  5
4B3
330
446
100
AcDbEntity
  8
0
  6
Continuous
 62
     7
370
    15
100
AcDbLine
 10
2218.091034117481
 20
886.2756282936986
 30
0.0
 11
2226.788447526075
 21
891.2965381814084
 31
0.0
  0
LINE
  5
4B4
330
446
100
AcDbEntity
  8
0
  6
Continuous
 62
     7
370
    15
100
AcDbLine
 10
2218.904206915846
 20
875.7627416432057
 30
0.0
 11
2222.298319465541
 21
877.7221211115803
 31
0.0
  0
LINE
  5
4B5
330
446
100
AcDbEntity
  8
0
  6
Continuous
 62
     8
370
    15
100
AcDbLine
 10
2228.308727105627
 20
879.7646740768652
 30
0.0
 11
2231.561418299085
 21
881.6424127340573
 31
0.0
  0
LINE
  5
4B6
330
446
100
AcDbEntity
  8
0
  6
Continuous
 62
     8
370
    15
100
AcDbLine
 10
2227.778397019737
 20
880.6832327277131
 30
0.0
 11
2231.561418299085
 21
882.8671244268386
 31
0.0
  0
LINE
  5
4B7
330
446
100
AcDbEntity
  8
0
  6
Continuous
 62
     8
370
    15
100
AcDbLine
 10
2228.308727105627
 20
877.0700893976421
 30
0.0
 11
2231.561418299085
 21
878.9478280548344
 31
0.0
  0
LINE
  5
4B8
330
446
100
AcDbEntity
  8
0
  6
Continuous
 62
     8
370
    15
100
AcDbLine
 10
2227.495554307262
 20
880.8465143500775
 30
0.0
 11
2231.561418299085
 21
883.1936876715678
 31
0.0
  0
ARC
  5
4B9
330
446
100
AcDbEntity
  8
0
  6
Continuous
 62
     8
370
    15
100
AcDbCircle
 10
2241.215709957621
 20
873.0934817126088
 30
0.0
 40
0.2514696392469133
100
AcDbArc
 50
294.3746582935897
 51
354.3052007488026
  0
LINE
  5
4BA
330
446
100
AcDbEntity
  8
0
  6
Continuous
 62
     8
370
    15
100
AcDbLine
 10
2239.905278317086
 20
888.2970478408443
 30
0.0
 11
2239.905278317086
 21
888.7052518967557
 31
0.0
  0
LINE
  5
4BB
330
446
100
AcDbEntity
  8
0
  6
Continuous
 62
     8
370
    15
100
AcDbLine
 10
2223.358979637321
 20
898.2572268050814
 30
0.0
 11
2223.358979637321
 21
889.5703448471477
 31
0.0
  0
LINE
  5
4BC
330
446
100
AcDbEntity
  8
0
  6
Continuous
 62
     8
370
    15
100
AcDbLine
 10
2223.358979637321
 20
884.8171930315482
 30
0.0
 11
2223.358979637321
 21
884.1004104979354
 31
0.0
  0
LINE
  5
4BD
330
446
100
AcDbEntity
  8
0
  6
Continuous
 62
     8
370
    15
100
AcDbLine
 10
2228.291506886796
 20
873.6105958793181
 30
0.0
 11
2231.561418299085
 21
875.4982755572408
 31
0.0
  0
LINE
  5
4BE
330
446
100
AcDbEntity
  8
0
  6
Continuous
 62
     8
370
    15
100
AcDbLine
 10
2227.631619538628
 20
875.5891587499142
 30
0.0
 11
2231.561418299085
 21
877.8577832852953
 31
0.0
  0
LINE
  5
4BF
330
446
100
AcDbEntity
  8
0
  6
Continuous
 62
     8
370
    15
100
AcDbLine
 10
2227.472063062162
 20
875.7975225235242
 30
0.0
 11
2231.561418299085
 21
878.1582570521527
 31
0.0
  0
ARC
  5
4C0
330
446
100
AcDbEntity
  8
0
  6
Continuous
 62
     8
370
    15
100
AcDbCircle
 10
2241.081649101526
 20
872.8341444818957
 30
0.0
 40
0.2397627731856911
100
AcDbArc
 50
304.0563508283658
 51
7.255829565024076
  0
LINE
  5
4C1
330
446
100
AcDbEntity
  8
0
  6
Continuous
 62
     8
370
    15
100
AcDbLine
 10
2231.207864908492
 20
868.6599910703483
 30
0.0
 11
2231.561418294415
 21
868.8640930956081
 31
0.0
  0
LINE
  5
4C2
330
446
100
AcDbEntity
  8
0
  6
Continuous
 62
     8
370
    15
100
AcDbLine
 10
2227.142000916669
 20
875.9880633443415
 30
0.0
 11
2231.561418299085
 21
878.5393386937874
 31
0.0
  0
LINE
  5
4C3
330
446
100
AcDbEntity
  8
0
  6
Continuous
 62
     8
370
    15
100
AcDbLine
 10
2228.308727105627
 20
873.5127734359789
 30
0.0
 11
2231.561418299085
 21
875.390512093171
 31
0.0
  0
LINE
  5
4C4
330
446
100
AcDbEntity
  8
0
  6
Continuous
 62
     8
370
    15
100
AcDbLine
 10
2223.571111671677
 20
877.4370882177795
 30
0.0
 11
2226.965224221372
 21
879.396467686154
 31
0.0
  0
LINE
  5
4C5
330
446
100
AcDbEntity
  8
0
  6
Continuous
 62
     8
370
    15
100
AcDbLine
 10
2222.651872856134
 20
883.6922064420241
 30
0.0
 11
2222.651872856134
 21
884.408988975637
 31
0.0
  0
LINE
  5
4C6
330
446
100
AcDbEntity
  8
0
  6
Continuous
 62
     8
370
    15
100
AcDbLine
 10
2222.651872856134
 20
889.1621407912364
 30
0.0
 11
2222.651872856134
 21
898.2572268050814
 31
0.0
  0
LINE
  5
4C7
330
446
100
AcDbEntity
  8
0
  6
Continuous
 62
     8
370
    15
100
AcDbLine
 10
2214.308012838133
 20
878.8243384125724
 30
0.0
 11
2222.348916642639
 21
883.4662533729755
 31
0.0
  0
LINE
  5
4C8
330
446
100
AcDbEntity
  8
0
  6
Continuous
 62
     8
370
    15
100
AcDbLine
 10
2218.904206915846
 20
880.5395053927373
 30
0.0
 11
2222.298319465541
 21
882.4988848611118
 31
0.0
  0
LINE
  5
4C9
330
446
100
AcDbEntity
  8
0
  6
Continuous
 62
     8
370
    15
100
AcDbLine
 10
2218.727430220549
 20
880.8456916096867
 30
0.0
 11
2222.298319465541
 21
882.907122092039
 31
0.0
  0
LINE
  5
4CA
330
446
100
AcDbEntity
  8
0
  6
Continuous
 62
     8
370
    15
100
AcDbLine
 10
2218.397368075057
 20
881.0362324305041
 30
0.0
 11
2222.300573059236
 21
883.2895047056217
 31
0.0
  0
LINE
  5
4CB
330
446
100
AcDbEntity
  8
0
  6
Continuous
 62
     8
370
    15
100
AcDbLine
 10
2217.656984985276
 20
879.9411844193805
 30
0.0
 11
2214.661566228727
 21
878.2119659786738
 31
0.0
  0
ENDBLK
  5
448
330
446
100
AcDbEntity
  8
0
100
AcDbBlockEnd
  0
ENDSEC
  0
SECTION
  2
ENTITIES
  0
INSERT
  5
3DF
330
1F
100
AcDbEntity
  8
0
100
AcDbBlockReference
  2
1
 10
0.0
 20
0.0
 30
0.0
  0
INSERT
  5
3EE
330
1F
100
AcDbEntity
  8
0
100
AcDbBlockReference
  2
2
 10
0.0
 20
0.0
 30
0.0
  0
INSERT
  5
445
330
1F
100
AcDbEntity
  8
0
100
AcDbBlockReference
  2
3
 10
0.0
 20
0.0
 30
0.0
  0
INSERT
  5
4CC
330
1F
100
AcDbEntity
  8
0
100
AcDbBlockReference
  2
4
 10
0.0
 20
0.0
 30
0.0
  0
ENDSEC
  0
SECTION
  2
OBJECTS
  0
DICTIONARY
  5
C
330
0
100
AcDbDictionary
281
     1
  3
ACAD_COLOR
350
6B
  3
ACAD_GROUP
350
D
  3
ACAD_LAYOUT
350
1A
  3
ACAD_MATERIAL
350
6A
  3
ACAD_MLEADERSTYLE
350
12D
  3
ACAD_MLINESTYLE
350
17
  3
ACAD_PLOTSETTINGS
350
19
  3
ACAD_PLOTSTYLENAME
350
E
  3
ACAD_SCALELIST
350
10C
  3
ACAD_TABLESTYLE
350
7E
  3
ACAD_VISUALSTYLE
350
EF
  3
ACDB_RECOMPOSE_DATA
350
15D
  3
AcDbVariableDictionary
350
5E
  3
DWGPROPS
350
4DA
  0
DICTIONARY
  5
13C
330
10
100
AcDbDictionary
280
     1
281
     1
  3
ADSK_XREC_LAYER_RECONCILED
360
4CD
  0
DICTIONARY
  5
6B
102
{ACAD_REACTORS
330
C
102
}
330
C
100
AcDbDictionary
281
     1
  0
DICTIONARY
  5
D
102
{ACAD_REACTORS
330
C
102
}
330
C
100
AcDbDictionary
281
     1
  0
DICTIONARY
  5
1A
102
{ACAD_REACTORS
330
C
102
}
330
C
100
AcDbDictionary
281
     1
  3
Layout1
350
D3
  3
Layout2
350
D7
  3
Model
350
22
  0
DICTIONARY
  5
6A
102
{ACAD_REACTORS
330
C
102
}
330
C
100
AcDbDictionary
281
     1
  3
ByBlock
350
ED
  3
ByLayer
350
EC
  3
Global
350
EE
  0
DICTIONARY
  5
12D
102
{ACAD_REACTORS
330
C
102
}
330
C
100
AcDbDictionary
281
     1
  3
Annotative
350
13B
  3
Standard
350
12E
  0
DICTIONARY
  5
17
102
{ACAD_REACTORS
330
C
102
}
330
C
100
AcDbDictionary
281
     1
  3
Standard
350
18
  0
DICTIONARY
  5
19
102
{ACAD_REACTORS
330
C
102
}
330
C
100
AcDbDictionary
281
     1
  0
ACDBDICTIONARYWDFLT
  5
E
102
{ACAD_REACTORS
330
C
102
}
330
C
100
AcDbDictionary
281
     1
  3
Normal
350
F
100
AcDbDictionaryWithDefault
340
F
  0
DICTIONARY
  5
10C
102
{ACAD_REACTORS
330
C
102
}
330
C
100
AcDbDictionary
281
     1
  3
A0
350
10D
  3
A1
350
188
  3
A2
350
189
  3
A3
350
18A
  3
A4
350
18B
  3
A5
350
18C
  3
A6
350
18D
  3
A7
350
18E
  3
A8
350
18F
  3
A9
350
190
  3
B0
350
191
  3
B1
350
192
  3
B2
350
193
  3
B3
350
194
  3
B4
350
195
  3
B5
350
196
  3
B6
350
197
  3
B7
350
198
  3
B8
350
199
  3
B9
350
19A
  3
C0
350
19B
  3
C1
350
19C
  3
C2
350
19D
  3
C3
350
19E
  3
C4
350
19F
  3
C5
350
1A0
  3
C6
350
1A1
  3
C7
350
1A2
  3
C8
350
1A3
  3
C9
350
1A4
  3
D0
350
1A5
  3
D1
350
1A6
  3
D2
350
1A7
  0
DICTIONARY
  5
7E
102
{ACAD_REACTORS
330
C
102
}
330
C
100
AcDbDictionary
281
     1
  3
Standard
350
7F
  0
DICTIONARY
  5
EF
102
{ACAD_REACTORS
330
C
102
}
330
C
100
AcDbDictionary
281
     1
  3
2dWireframe
350
F5
  3
3D Hidden
350
F7
  3
3dWireframe
350
F6
  3
Basic
350
F4
  3
Brighten
350
FB
  3
ColorChange
350
FF
  3
Conceptual
350
F8
  3
Dim
350
FA
  3
Facepattern
350
FE
  3
Flat
350
F0
  3
FlatWithEdges
350
F1
  3
Gouraud
350
F2
  3
GouraudWithEdges
350
F3
  3
Linepattern
350
FD
  3
Realistic
350
F9
  3
Thicken
350
FC
  0
XRECORD
  5
15D
102
{ACAD_REACTORS
330
C
102
}
330
C
100
AcDbXrecord
280
     1
 90
        1
330
7F
  0
DICTIONARY
  5
5E
102
{ACAD_REACTORS
330
C
102
}
330
C
100
AcDbDictionary
281
     1
  3
CANNOSCALE
350
146
  3
CMLEADERSTYLE
350
145
  3
CTABLESTYLE
350
84
  3
DIMASSOC
350
5F
  3
HIDETEXT
350
63
  3
INDEXCTL
350
4D6
  3
LIGHTINGUNITS
350
4D4
  3
MSLTSCALE
350
4D3
  3
PSOLHEIGHT
350
4D8
  3
PSOLWIDTH
350
4D7
  3
SORTENTS
350
4D5
  0
XRECORD
  5
4DA
102
{ACAD_REACTORS
330
C
102
}
330
C
100
AcDbXrecord
280
     1
  1
DWGPROPS COOKIE
  2

  3

  4

  6

  7

  8
orhan kara
  9

300
=
301
=
302
=
303
=
304
=
305
=
306
=
307
=
308
=
309
=
 40
0.0005092476851852
 41
2459082.382677257
 42
2459083.631139364
  1

 90
        0
  0
XRECORD
  5
4CD
102
{ACAD_REACTORS
330
13C
102
}
330
13C
100
AcDbXrecord
280
     1
290
     1
  0
LAYOUT
  5
D3
102
{ACAD_XDICTIONARY
360
4DE
102
}
102
{ACAD_REACTORS
330
1A
102
}
330
1A
100
AcDbPlotSettings
  1

  2
C:\Documents and Settings\basas\Application Data\Autodesk\AutoCAD 2005\R16.1\enu\plotters\Default Windows System Printer.pc3
  4

  6

 40
0.0
 41
0.0
 42
0.0
 43
0.0
 44
0.0
 45
0.0
 46
0.0
 47
0.0
 48
0.0
 49
0.0
140
0.0
141
0.0
142
1.0
143
1.0
 70
   688
 72
     0
 73
     0
 74
     5
  7

 75
    16
147
1.0
148
0.0
149
0.0
100
AcDbLayout
  1
Layout1
 70
     1
 71
     1
 10
0.0
 20
0.0
 11
12.0
 21
9.0
 12
0.0
 22
0.0
 32
0.0
 14
0.0
 24
0.0
 34
0.0
 15
0.0
 25
0.0
 35
0.0
146
0.0
 13
0.0
 23
0.0
 33
0.0
 16
1.0
 26
0.0
 36
0.0
 17
0.0
 27
1.0
 37
0.0
 76
     0
330
D2
  0
LAYOUT
  5
D7
102
{ACAD_XDICTIONARY
360
4E0
102
}
102
{ACAD_REACTORS
330
1A
102
}
330
1A
100
AcDbPlotSettings
  1

  2
C:\Documents and Settings\basas\Application Data\Autodesk\AutoCAD 2005\R16.1\enu\plotters\Default Windows System Printer.pc3
  4

  6

 40
0.0
 41
0.0
 42
0.0
 43
0.0
 44
0.0
 45
0.0
 46
0.0
 47
0.0
 48
0.0
 49
0.0
140
0.0
141
0.0
142
1.0
143
1.0
 70
   688
 72
     0
 73
     0
 74
     5
  7

 75
    16
147
1.0
148
0.0
149
0.0
100
AcDbLayout
  1
Layout2
 70
     1
 71
     2
 10
0.0
 20
0.0
 11
12.0
 21
9.0
 12
0.0
 22
0.0
 32
0.0
 14
0.0
 24
0.0
 34
0.0
 15
0.0
 25
0.0
 35
0.0
146
0.0
 13
0.0
 23
0.0
 33
0.0
 16
1.0
 26
0.0
 36
0.0
 17
0.0
 27
1.0
 37
0.0
 76
     0
330
D6
  0
LAYOUT
  5
22
102
{ACAD_XDICTIONARY
360
4DB
102
}
102
{ACAD_REACTORS
330
1A
102
}
330
1A
100
AcDbPlotSettings
  1

  2
none_device
  4
ISO_A4_(210.00_x_297.00_MM)
  6

 40
7.5
 41
20.0
 42
7.5
 43
20.0
 44
210.0
 45
297.0
 46
11.54999923706054
 47
-13.65000009536743
 48
0.0
 49
0.0
140
0.0
141
0.0
142
1.0
143
8.704084754739808
 70
 11952
 72
     1
 73
     0
 74
     0
  7

 75
     0
147
0.1148885871608098
148
0.0
149
0.0
100
AcDbLayout
  1
Model
 70
     1
 71
     0
 10
0.0
 20
0.0
 11
12.0
 21
9.0
 12
0.0
 22
0.0
 32
0.0
 14
0.0
 24
0.0
 34
0.0
 15
0.0
 25
0.0
 35
0.0
146
0.0
 13
0.0
 23
0.0
 33
0.0
 16
1.0
 26
0.0
 36
0.0
 17
0.0
 27
1.0
 37
0.0
 76
     0
330
1F
331
EA
1001
ACAD_PSEXT
1000
None
1000
None
1000
Not applicable
1000
The layout will not be plotted unless a new plotter configuration name is selected.
1070
     0
  0
MATERIAL
  5
ED
102
{ACAD_XDICTIONARY
360
4E4
102
}
102
{ACAD_REACTORS
330
6A
102
}
330
6A
100
AcDbMaterial
  1
ByBlock
  0
MATERIAL
  5
EC
102
{ACAD_XDICTIONARY
360
4E2
102
}
102
{ACAD_REACTORS
330
6A
102
}
330
6A
100
AcDbMaterial
  1
ByLayer
  0
MATERIAL
  5
EE
102
{ACAD_XDICTIONARY
360
173
102
}
102
{ACAD_REACTORS
330
6A
102
}
330
6A
100
AcDbMaterial
  1
Global
 43
0.0007999999797903
 43
0.0
 43
0.0
 43
0.0
 43
0.0
 43
0.0007999999797903
 43
0.0
 43
0.0
 43
0.0
 43
0.0
 43
1.0
 43
0.0
 43
0.0
 43
0.0
 43
0.0
 43
1.0
 49
0.0007999999797903
 49
0.0
 49
0.0
 49
0.0
 49
0.0
 49
0.0007999999797903
 49
0.0
 49
0.0
 49
0.0
 49
0.0
 49
1.0
 49
0.0
 49
0.0
 49
0.0
 49
0.0
 49
1.0
142
0.0007999999797903
142
0.0
142
0.0
142
0.0
142
0.0
142
0.0007999999797903
142
0.0
142
0.0
142
0.0
142
0.0
142
1.0
142
0.0
142
0.0
142
0.0
142
0.0
142
1.0
144
0.0007999999797903
144
0.0
144
0.0
144
0.0
144
0.0
144
0.0007999999797903
144
0.0
144
0.0
144
0.0
144
0.0
144
1.0
144
0.0
144
0.0
144
0.0
144
0.0
144
1.0
1001
ACAD
1070
    -1
1070
     3
1070
     0
1000

1071
        0
1070
     0
  0
MLEADERSTYLE
  5
13B
102
{ACAD_REACTORS
330
12D
102
}
330
12D
100
AcDbMLeaderStyle
170
     2
171
     1
172
     0
 90
        2
 40
0.0
 41
0.0
173
     1
 91
-1056964608
340
14
 92
       -2
290
     1
 42
2.0
291
     1
 43
8.0
  3
Standard
 44
4.0
300

342
11
174
     1
178
     1
175
     1
176
     0
 93
-1056964608
 45
4.0
292
     0
297
     0
 46
4.0
 94
-1056964608
 47
1.0
 49
1.0
140
1.0
293
     1
141
0.0
294
     1
177
     0
142
1.0
295
     0
296
     1
143
3.75
1001
ACAD_MLEADERVER
1070
     2
  0
MLEADERSTYLE
  5
12E
102
{ACAD_REACTORS
330
12D
102
}
330
12D
100
AcDbMLeaderStyle
170
     2
171
     1
172
     0
 90
        2
 40
0.0
 41
0.0
173
     1
 91
-1056964608
340
14
 92
       -2
290
     1
 42
2.0
291
     1
 43
8.0
  3
Standard
 44
4.0
300

342
11
174
     1
178
     1
175
     1
176
     0
 93
-1056964608
 45
4.0
292
     0
297
     0
 46
4.0
 94
-1056964608
 47
1.0
 49
1.0
140
1.0
293
     1
141
0.0
294
     1
177
     0
142
1.0
295
     0
296
     0
143
3.75
1001
ACAD_MLEADERVER
1070
     2
  0
MLINESTYLE
  5
18
102
{ACAD_REACTORS
330
17
102
}
330
17
100
AcDbMlineStyle
  2
STANDARD
 70
     0
  3

 62
   256
 51
90.0
 52
90.0
 71
     2
 49
0.5
 62
   256
  6
BYLAYER
 49
-0.5
 62
   256
  6
BYLAYER
  0
ACDBPLACEHOLDER
  5
F
102
{ACAD_REACTORS
330
E
102
}
330
E
  0
SCALE
  5
10D
102
{ACAD_REACTORS
330
10C
102
}
330
10C
100
AcDbScale
 70
     0
300
1:1
140
1.0
141
1.0
290
     1
  0
SCALE
  5
188
102
{ACAD_REACTORS
330
10C
102
}
330
10C
100
AcDbScale
 70
     0
300
1:2
140
1.0
141
2.0
290
     0
  0
SCALE
  5
189
102
{ACAD_REACTORS
330
10C
102
}
330
10C
100
AcDbScale
 70
     0
300
1:4
140
1.0
141
4.0
290
     0
  0
SCALE
  5
18A
102
{ACAD_REACTORS
330
10C
102
}
330
10C
100
AcDbScale
 70
     0
300
1:5
140
1.0
141
5.0
290
     0
  0
SCALE
  5
18B
102
{ACAD_REACTORS
330
10C
102
}
330
10C
100
AcDbScale
 70
     0
300
1:8
140
1.0
141
8.0
290
     0
  0
SCALE
  5
18C
102
{ACAD_REACTORS
330
10C
102
}
330
10C
100
AcDbScale
 70
     0
300
1:10
140
1.0
141
10.0
290
     0
  0
SCALE
  5
18D
102
{ACAD_REACTORS
330
10C
102
}
330
10C
100
AcDbScale
 70
     0
300
1:16
140
1.0
141
16.0
290
     0
  0
SCALE
  5
18E
102
{ACAD_REACTORS
330
10C
102
}
330
10C
100
AcDbScale
 70
     0
300
1:20
140
1.0
141
20.0
290
     0
  0
SCALE
  5
18F
102
{ACAD_REACTORS
330
10C
102
}
330
10C
100
AcDbScale
 70
     0
300
1:30
140
1.0
141
30.0
290
     0
  0
SCALE
  5
190
102
{ACAD_REACTORS
330
10C
102
}
330
10C
100
AcDbScale
 70
     0
300
1:40
140
1.0
141
40.0
290
     0
  0
SCALE
  5
191
102
{ACAD_REACTORS
330
10C
102
}
330
10C
100
AcDbScale
 70
     0
300
1:50
140
1.0
141
50.0
290
     0
  0
SCALE
  5
192
102
{ACAD_REACTORS
330
10C
102
}
330
10C
100
AcDbScale
 70
     0
300
1:100
140
1.0
141
100.0
290
     0
  0
SCALE
  5
193
102
{ACAD_REACTORS
330
10C
102
}
330
10C
100
AcDbScale
 70
     0
300
2:1
140
2.0
141
1.0
290
     0
  0
SCALE
  5
194
102
{ACAD_REACTORS
330
10C
102
}
330
10C
100
AcDbScale
 70
     0
300
4:1
140
4.0
141
1.0
290
     0
  0
SCALE
  5
195
102
{ACAD_REACTORS
330
10C
102
}
330
10C
100
AcDbScale
 70
     0
300
8:1
140
8.0
141
1.0
290
     0
  0
SCALE
  5
196
102
{ACAD_REACTORS
330
10C
102
}
330
10C
100
AcDbScale
 70
     0
300
10:1
140
10.0
141
1.0
290
     0
  0
SCALE
  5
197
102
{ACAD_REACTORS
330
10C
102
}
330
10C
100
AcDbScale
 70
     0
300
100:1
140
100.0
141
1.0
290
     0
  0
SCALE
  5
198
102
{ACAD_REACTORS
330
10C
102
}
330
10C
100
AcDbScale
 70
     0
300
1/128" = 1'-0"
140
0.0078125
141
12.0
290
     0
  0
SCALE
  5
199
102
{ACAD_REACTORS
330
10C
102
}
330
10C
100
AcDbScale
 70
     0
300
1/64" = 1'-0"
140
0.015625
141
12.0
290
     0
  0
SCALE
  5
19A
102
{ACAD_REACTORS
330
10C
102
}
330
10C
100
AcDbScale
 70
     0
300
1/32" = 1'-0"
140
0.03125
141
12.0
290
     0
  0
SCALE
  5
19B
102
{ACAD_REACTORS
330
10C
102
}
330
10C
100
AcDbScale
 70
     0
300
1/16" = 1'-0"
140
0.0625
141
12.0
290
     0
  0
SCALE
  5
19C
102
{ACAD_REACTORS
330
10C
102
}
330
10C
100
AcDbScale
 70
     0
300
3/32" = 1'-0"
140
0.09375
141
12.0
290
     0
  0
SCALE
  5
19D
102
{ACAD_REACTORS
330
10C
102
}
330
10C
100
AcDbScale
 70
     0
300
1/8" = 1'-0"
140
0.125
141
12.0
290
     0
  0
SCALE
  5
19E
102
{ACAD_REACTORS
330
10C
102
}
330
10C
100
AcDbScale
 70
     0
300
3/16" = 1'-0"
140
0.1875
141
12.0
290
     0
  0
SCALE
  5
19F
102
{ACAD_REACTORS
330
10C
102
}
330
10C
100
AcDbScale
 70
     0
300
1/4" = 1'-0"
140
0.25
141
12.0
290
     0
  0
SCALE
  5
1A0
102
{ACAD_REACTORS
330
10C
102
}
330
10C
100
AcDbScale
 70
     0
300
3/8" = 1'-0"
140
0.375
141
12.0
290
     0
  0
SCALE
  5
1A1
102
{ACAD_REACTORS
330
10C
102
}
330
10C
100
AcDbScale
 70
     0
300
1/2" = 1'-0"
140
0.5
141
12.0
290
     0
  0
SCALE
  5
1A2
102
{ACAD_REACTORS
330
10C
102
}
330
10C
100
AcDbScale
 70
     0
300
3/4" = 1'-0"
140
0.75
141
12.0
290
     0
  0
SCALE
  5
1A3
102
{ACAD_REACTORS
330
10C
102
}
330
10C
100
AcDbScale
 70
     0
300
1" = 1'-0"
140
1.0
141
12.0
290
     0
  0
SCALE
  5
1A4
102
{ACAD_REACTORS
330
10C
102
}
330
10C
100
AcDbScale
 70
     0
300
1-1/2" = 1'-0"
140
1.5
141
12.0
290
     0
  0
SCALE
  5
1A5
102
{ACAD_REACTORS
330
10C
102
}
330
10C
100
AcDbScale
 70
     0
300
3" = 1'-0"
140
3.0
141
12.0
290
     0
  0
SCALE
  5
1A6
102
{ACAD_REACTORS
330
10C
102
}
330
10C
100
AcDbScale
 70
     0
300
6" = 1'-0"
140
6.0
141
12.0
290
     0
  0
SCALE
  5
1A7
102
{ACAD_REACTORS
330
10C
102
}
330
10C
100
AcDbScale
 70
     0
300
1'-0" = 1'-0"
140
12.0
141
12.0
290
     0
  0
TABLESTYLE
  5
7F
102
{ACAD_XDICTIONARY
360
162
102
}
102
{ACAD_REACTORS
330
7E
102
}
330
7E
100
AcDbTableStyle
  3
Standard
 70
     0
 71
     0
 40
1.5
 41
1.5
280
     0
281
     0
  7
Standard
140
4.5
170
     2
 62
     0
 63
     7
283
     0
274
    -2
284
     1
 64
     0
275
    -2
285
     1
 65
     0
276
    -2
286
     1
 66
     0
277
    -2
287
     1
 67
     0
278
    -2
288
     1
 68
     0
279
    -2
289
     1
 69
     0
  7
Standard
140
6.0
170
     5
 62
     0
 63
     7
283
     0
274
    -2
284
     1
 64
     0
275
    -2
285
     1
 65
     0
276
    -2
286
     1
 66
     0
277
    -2
287
     1
 67
     0
278
    -2
288
     1
 68
     0
279
    -2
289
     1
 69
     0
  7
Standard
140
4.5
170
     5
 62
     0
 63
     7
283
     0
274
    -2
284
     1
 64
     0
275
    -2
285
     1
 65
     0
276
    -2
286
     1
 66
     0
277
    -2
287
     1
 67
     0
278
    -2
288
     1
 68
     0
279
    -2
289
     1
 69
     0
  0
VISUALSTYLE
  5
F5
102
{ACAD_REACTORS
330
EF
102
}
330
EF
100
AcDbVisualStyle
  2
2dWireframe
 70
     4
 71
     0
 72
     2
 73
     1
 90
        0
 40
-0.6
 41
-30.0
 62
     5
 63
     7
 74
     1
 91
        4
 64
     7
 65
   257
 75
     1
175
     1
 42
1.0
 92
        0
 66
   257
 43
1.0
 76
     1
 77
     6
 78
     2
 67
     7
 79
     5
170
     0
171
     0
290
     0
174
     0
 93
        1
 44
0.0
173
     0
291
     0
 45
0.0
1001
ACAD
1000
AcDbSavedByObjectVersion
1070
     0
  0
VISUALSTYLE
  5
F7
102
{ACAD_REACTORS
330
EF
102
}
330
EF
100
AcDbVisualStyle
  2
3D Hidden
 70
     6
 71
     1
 72
     2
 73
     2
 90
        0
 40
-0.6
 41
-30.0
 62
     5
 63
     7
 74
     2
 91
        2
 64
     7
 65
   257
 75
     2
175
     1
 42
40.0
 92
        0
 66
   257
 43
1.0
 76
     1
 77
     6
 78
     2
 67
     7
 79
     3
170
     0
171
     0
290
     0
174
     0
 93
        1
 44
0.0
173
     0
291
     0
 45
0.0
1001
ACAD
1000
AcDbSavedByObjectVersion
1070
     0
  0
VISUALSTYLE
  5
F6
102
{ACAD_REACTORS
330
EF
102
}
330
EF
100
AcDbVisualStyle
  2
3dWireframe
 70
     5
 71
     0
 72
     2
 73
     1
 90
        0
 40
-0.6
 41
-30.0
 62
     5
 63
     7
 74
     1
 91
        4
 64
     7
 65
   257
 75
     1
175
     1
 42
1.0
 92
        0
 66
   257
 43
1.0
 76
     1
 77
     6
 78
     2
 67
     7
 79
     5
170
     0
171
     0
290
     0
174
     0
 93
        1
 44
0.0
173
     0
291
     0
 45
0.0
1001
ACAD
1000
AcDbSavedByObjectVersion
1070
     0
  0
VISUALSTYLE
  5
F4
102
{ACAD_REACTORS
330
EF
102
}
330
EF
100
AcDbVisualStyle
  2
Basic
 70
     7
 71
     1
 72
     0
 73
     1
 90
        0
 40
-0.6
 41
-30.0
 62
     5
 63
     7
 74
     0
 91
        4
 64
     7
 65
   257
 75
     1
175
     1
 42
1.0
 92
        8
 66
     7
 43
1.0
 76
     1
 77
     6
 78
     2
 67
     7
 79
     5
170
     0
171
     0
290
     0
174
     0
 93
        1
 44
0.0
173
     0
291
     1
 45
0.0
1001
ACAD
1000
AcDbSavedByObjectVersion
1070
     0
  0
VISUALSTYLE
  5
FB
102
{ACAD_REACTORS
330
EF
102
}
330
EF
100
AcDbVisualStyle
  2
Brighten
 70
    12
 71
     2
 72
     2
 73
     1
 90
        0
 40
-0.6
 41
-30.0
 62
     5
 63
     7
 74
     1
 91
        4
 64
     7
 65
   257
 75
     1
175
     1
 42
1.0
 92
        8
 66
     7
 43
1.0
 76
     1
 77
     6
 78
     2
 67
     7
 79
     5
170
     0
171
     0
290
     0
174
     0
 93
        1
 44
50.0
173
     0
291
     1
 45
0.0
1001
ACAD
1000
AcDbSavedByObjectVersion
1070
     0
  0
VISUALSTYLE
  5
FF
102
{ACAD_REACTORS
330
EF
102
}
330
EF
100
AcDbVisualStyle
  2
ColorChange
 70
    16
 71
     2
 72
     2
 73
     3
 90
        0
 40
-0.6
 41
-30.0
 62
     5
 63
     8
 74
     1
 91
        4
 64
     7
 65
   257
 75
     1
175
     1
 42
1.0
 92
        8
 66
     8
 43
1.0
 76
     1
 77
     6
 78
     2
 67
     7
 79
     5
170
     0
171
     0
290
     0
174
     0
 93
        1
 44
0.0
173
     0
291
     1
 45
0.0
1001
ACAD
1000
AcDbSavedByObjectVersion
1070
     0
  0
VISUALSTYLE
  5
F8
102
{ACAD_REACTORS
330
EF
102
}
330
EF
100
AcDbVisualStyle
  2
Conceptual
 70
     9
 71
     3
 72
     2
 73
     1
 90
        0
 40
-0.6
 41
-30.0
 62
     5
 63
     7
 74
     2
 91
        2
 64
     7
 65
   257
 75
     1
175
     1
 42
40.0
 92
        8
 66
     7
 43
1.0
 76
     1
 77
     6
 78
     2
 67
     7
 79
     3
170
     0
171
     0
290
     0
174
     0
 93
        1
 44
0.0
173
     0
291
     0
 45
0.0
1001
ACAD
1000
AcDbSavedByObjectVersion
1070
     0
  0
VISUALSTYLE
  5
FA
102
{ACAD_REACTORS
330
EF
102
}
330
EF
100
AcDbVisualStyle
  2
Dim
 70
    11
 71
     2
 72
     2
 73
     1
 90
        0
 40
-0.6
 41
-30.0
 62
     5
 63
     7
 74
     1
 91
        4
 64
     7
 65
   257
 75
     1
175
     1
 42
1.0
 92
        8
 66
     7
 43
1.0
 76
     1
 77
     6
 78
     2
 67
     7
 79
     5
170
     0
171
     0
290
     0
174
     0
 93
        1
 44
-50.0
173
     0
291
     1
 45
0.0
1001
ACAD
1000
AcDbSavedByObjectVersion
1070
     0
  0
VISUALSTYLE
  5
FE
102
{ACAD_REACTORS
330
EF
102
}
330
EF
100
AcDbVisualStyle
  2
Facepattern
 70
    15
 71
     2
 72
     2
 73
     1
 90
        0
 40
-0.6
 41
-30.0
 62
     5
 63
     7
 74
     1
 91
        4
 64
     7
 65
   257
 75
     1
175
     1
 42
1.0
 92
        8
 66
     7
 43
1.0
 76
     1
 77
     6
 78
     2
 67
     7
 79
     5
170
     0
171
     0
290
     0
174
     0
 93
        1
 44
0.0
173
     0
291
     1
 45
0.0
1001
ACAD
1000
AcDbSavedByObjectVersion
1070
     0
  0
VISUALSTYLE
  5
F0
102
{ACAD_REACTORS
330
EF
102
}
330
EF
100
AcDbVisualStyle
  2
Flat
 70
     0
 71
     2
 72
     1
 73
     1
 90
        2
 40
-0.6
 41
30.0
 62
     5
 63
     7
 74
     0
 91
        4
 64
     7
 65
   257
 75
     1
175
     1
 42
1.0
 92
        8
 66
     7
 43
1.0
 76
     1
 77
     6
 78
     2
 67
     7
 79
     5
170
     0
171
     0
290
     0
174
     0
 93
        1
 44
0.0
173
     0
291
     1
 45
0.0
1001
ACAD
1000
AcDbSavedByObjectVersion
1070
     0
  0
VISUALSTYLE
  5
F1
102
{ACAD_REACTORS
330
EF
102
}
330
EF
100
AcDbVisualStyle
  2
FlatWithEdges
 70
     1
 71
     2
 72
     1
 73
     1
 90
        2
 40
-0.6
 41
30.0
 62
     5
 63
     7
 74
     1
 91
        4
 64
     7
 65
   257
 75
     1
175
     1
 42
1.0
 92
        0
 66
   257
 43
1.0
 76
     1
 77
     6
 78
     2
 67
     7
 79
     5
170
     0
171
     0
290
     0
174
     0
 93
        1
 44
0.0
173
     0
291
     1
 45
0.0
1001
ACAD
1000
AcDbSavedByObjectVersion
1070
     0
  0
VISUALSTYLE
  5
F2
102
{ACAD_REACTORS
330
EF
102
}
330
EF
100
AcDbVisualStyle
  2
Gouraud
 70
     2
 71
     2
 72
     2
 73
     1
 90
        2
 40
-0.6
 41
30.0
 62
     5
 63
     7
 74
     0
 91
        4
 64
     7
 65
   257
 75
     1
175
     1
 42
1.0
 92
        0
 66
     7
 43
1.0
 76
     1
 77
     6
 78
     2
 67
     7
 79
     5
170
     0
171
     0
290
     0
174
     0
 93
        1
 44
0.0
173
     0
291
     1
 45
0.0
1001
ACAD
1000
AcDbSavedByObjectVersion
1070
     0
  0
VISUALSTYLE
  5
F3
102
{ACAD_REACTORS
330
EF
102
}
330
EF
100
AcDbVisualStyle
  2
GouraudWithEdges
 70
     3
 71
     2
 72
     2
 73
     1
 90
        2
 40
-0.6
 41
30.0
 62
     5
 63
     7
 74
     1
 91
        4
 64
     7
 65
   257
 75
     1
175
     1
 42
1.0
 92
        0
 66
   257
 43
1.0
 76
     1
 77
     6
 78
     2
 67
     7
 79
     5
170
     0
171
     0
290
     0
174
     0
 93
        1
 44
0.0
173
     0
291
     1
 45
0.0
1001
ACAD
1000
AcDbSavedByObjectVersion
1070
     0
  0
VISUALSTYLE
  5
FD
102
{ACAD_REACTORS
330
EF
102
}
330
EF
100
AcDbVisualStyle
  2
Linepattern
 70
    14
 71
     2
 72
     2
 73
     1
 90
        0
 40
-0.6
 41
-30.0
 62
     5
 63
     7
 74
     1
 91
        4
 64
     7
 65
   257
 75
     7
175
     7
 42
1.0
 92
        8
 66
     7
 43
1.0
 76
     1
 77
     6
 78
     2
 67
     7
 79
     5
170
     0
171
     0
290
     0
174
     0
 93
        1
 44
0.0
173
     0
291
     1
 45
0.0
1001
ACAD
1000
AcDbSavedByObjectVersion
1070
     0
  0
VISUALSTYLE
  5
F9
102
{ACAD_REACTORS
330
EF
102
}
330
EF
100
AcDbVisualStyle
  2
Realistic
 70
     8
 71
     2
 72
     2
 73
     1
 90
        0
 40
-0.6
 41
-30.0
 62
     5
 63
     7
 74
     1
 91
        0
 64
     7
 65
   257
 75
     1
175
     1
 42
1.0
 92
        8
 66
     8
 43
1.0
 76
     1
 77
     6
 78
     2
 67
     7
 79
     5
170
     0
171
     0
290
     0
174
     0
 93
       13
 44
0.0
173
     0
291
     0
 45
0.0
1001
ACAD
1000
AcDbSavedByObjectVersion
1070
     0
  0
VISUALSTYLE
  5
FC
102
{ACAD_REACTORS
330
EF
102
}
330
EF
100
AcDbVisualStyle
  2
Thicken
 70
    13
 71
     2
 72
     2
 73
     1
 90
        0
 40
-0.6
 41
-30.0
 62
     5
 63
     7
 74
     1
 91
        4
 64
     7
 65
   257
 75
     1
175
     1
 42
1.0
 92
       12
 66
     7
 43
1.0
 76
     1
 77
     6
 78
     2
 67
     7
 79
     5
170
     0
171
     0
290
     0
174
     0
 93
        1
 44
0.0
173
     0
291
     1
 45
0.0
1001
ACAD
1000
AcDbSavedByObjectVersion
1070
     0
  0
DICTIONARYVAR
  5
146
102
{ACAD_REACTORS
330
5E
102
}
330
5E
100
DictionaryVariables
280
     0
  1
1:1
  0
DICTIONARYVAR
  5
145
102
{ACAD_REACTORS
330
5E
102
}
330
5E
100
DictionaryVariables
280
     0
  1
STANDARD
  0
DICTIONARYVAR
  5
84
102
{ACAD_REACTORS
330
5E
102
}
330
5E
100
DictionaryVariables
280
     0
  1
STANDARD
  0
DICTIONARYVAR
  5
5F
102
{ACAD_REACTORS
330
5E
102
}
330
5E
100
DictionaryVariables
280
     0
  1
2
  0
DICTIONARYVAR
  5
63
102
{ACAD_REACTORS
330
5E
102
}
330
5E
100
DictionaryVariables
280
     0
  1
1
  0
DICTIONARYVAR
  5
4D6
102
{ACAD_REACTORS
330
5E
102
}
330
5E
100
DictionaryVariables
280
     0
  1
0
  0
DICTIONARYVAR
  5
4D4
102
{ACAD_REACTORS
330
5E
102
}
330
5E
100
DictionaryVariables
280
     0
  1
2
  0
DICTIONARYVAR
  5
4D3
102
{ACAD_REACTORS
330
5E
102
}
330
5E
100
DictionaryVariables
280
     0
  1
1
  0
DICTIONARYVAR
  5
4D8
102
{ACAD_REACTORS
330
5E
102
}
330
5E
100
DictionaryVariables
280
     0
  1
80.000000
  0
DICTIONARYVAR
  5
4D7
102
{ACAD_REACTORS
330
5E
102
}
330
5E
100
DictionaryVariables
280
     0
  1
5.000000
  0
DICTIONARYVAR
  5
4D5
102
{ACAD_REACTORS
330
5E
102
}
330
5E
100
DictionaryVariables
280
     0
  1
127
  0
DICTIONARY
  5
4DE
330
D3
100
AcDbDictionary
280
     1
281
     1
  3
ACAD_XREC_ROUNDTRIP
360
4DF
  0
DICTIONARY
  5
4E0
330
D7
100
AcDbDictionary
280
     1
281
     1
  3
ACAD_XREC_ROUNDTRIP
360
4E1
  0
DICTIONARY
  5
4DB
330
22
100
AcDbDictionary
280
     1
281
     1
  3
ACAD_XREC_ROUNDTRIP
360
4DC
  0
DICTIONARY
  5
4E4
330
ED
100
AcDbDictionary
280
     1
281
     1
  3
ACAD_XREC_ROUNDTRIP
360
4E5
  0
DICTIONARY
  5
4E2
330
EC
100
AcDbDictionary
280
     1
281
     1
  3
ACAD_XREC_ROUNDTRIP
360
4E3
  0
DICTIONARY
  5
173
330
EE
100
AcDbDictionary
280
     1
281
     1
  3
ACAD_XREC_ROUNDTRIP
360
4E6
  3
BUMPTILE
360
175
  3
DIFFUSETILE
360
174
  3
OPACITYTILE
360
176
  3
REFLECTIONTILE
360
177
  0
DICTIONARY
  5
162
330
7F
100
AcDbDictionary
280
     1
281
     1
  3
ACAD_ROUNDTRIP_2008_TABLESTYLE_CELLSTYLEMAP
360
4D9
  3
ACAD_XREC_ROUNDTRIP
360
4DD
  0
XRECORD
  5
4DF
102
{ACAD_REACTORS
330
4DE
102
}
330
4DE
100
AcDbXrecord
280
     1
102
SHADEPLOT
 70
     0
102
SHADEPLOTRESLEVEL
 70
     2
102
SHADEPLOTCUSTOMDPI
 70
   300
  0
XRECORD
  5
4E1
102
{ACAD_REACTORS
330
4E0
102
}
330
4E0
100
AcDbXrecord
280
     1
102
SHADEPLOT
 70
     0
102
SHADEPLOTRESLEVEL
 70
     2
102
SHADEPLOTCUSTOMDPI
 70
   300
  0
XRECORD
  5
4DC
102
{ACAD_REACTORS
330
4DB
102
}
330
4DB
100
AcDbXrecord
280
     1
102
SHADEPLOT
 70
     0
102
SHADEPLOTRESLEVEL
 70
     2
102
SHADEPLOTCUSTOMDPI
 70
   300
  0
XRECORD
  5
4E5
102
{ACAD_REACTORS
330
4E4
102
}
330
4E4
100
AcDbXrecord
280
     1
102
MATERIAL
148
0.0
149
0.0
149
0.0
 93
        0
 94
       63
282
     0
 72
     1
 77
     1
171
     1
175
     1
179
     1
273
     0
  0
XRECORD
  5
4E3
102
{ACAD_REACTORS
330
4E2
102
}
330
4E2
100
AcDbXrecord
280
     1
102
MATERIAL
148
0.0
149
0.0
149
0.0
 93
        0
 94
       63
282
     0
 72
     1
 77
     1
171
     1
175
     1
179
     1
273
     0
  0
XRECORD
  5
4E6
102
{ACAD_REACTORS
330
173
102
}
330
173
100
AcDbXrecord
280
     1
102
MATERIAL
148
0.0
149
0.0
149
0.0
 93
        0
 94
       63
282
     0
 72
     1
 77
     1
171
     1
175
     1
179
     1
273
     0
  0
XRECORD
  5
175
102
{ACAD_REACTORS
330
173
102
}
330
173
100
AcDbXrecord
280
     1
270
     1
271
     1
  0
XRECORD
  5
174
102
{ACAD_REACTORS
330
173
102
}
330
173
100
AcDbXrecord
280
     1
270
     1
271
     1
  0
XRECORD
  5
176
102
{ACAD_REACTORS
330
173
102
}
330
173
100
AcDbXrecord
280
     1
270
     1
271
     1
  0
XRECORD
  5
177
102
{ACAD_REACTORS
330
173
102
}
330
173
100
AcDbXrecord
280
     1
270
     1
271
     1
  0
CELLSTYLEMAP
  5
4D9
102
{ACAD_REACTORS
330
162
102
}
330
162
100
AcDbCellStyleMap
 90
        3
300
CELLSTYLE
  1
TABLEFORMAT_BEGIN
 90
        5
170
     1
 91
        0
 92
    32768
 62
   257
 93
        1
300
CONTENTFORMAT
  1
CONTENTFORMAT_BEGIN
 90
        0
 91
        0
 92
      512
 93
        0
300

 40
0.0
140
1.0
 94
        5
 62
     0
340
11
144
6.0
309
CONTENTFORMAT_END
171
     1
301
MARGIN
  1
CELLMARGIN_BEGIN
 40
1.5
 40
1.5
 40
1.5
 40
1.5
 40
4.5
 40
4.5
309
CELLMARGIN_END
 94
        6
 95
        1
302
GRIDFORMAT
  1
GRIDFORMAT_BEGIN
 90
        0
 91
        1
 62
     0
 92
       -2
340
14
 93
        0
 40
1.125
309
GRIDFORMAT_END
 95
        2
302
GRIDFORMAT
  1
GRIDFORMAT_BEGIN
 90
        0
 91
        1
 62
     0
 92
       -2
340
14
 93
        0
 40
1.125
309
GRIDFORMAT_END
 95
        4
302
GRIDFORMAT
  1
GRIDFORMAT_BEGIN
 90
        0
 91
        1
 62
     0
 92
       -2
340
14
 93
        0
 40
1.125
309
GRIDFORMAT_END
 95
        8
302
GRIDFORMAT
  1
GRIDFORMAT_BEGIN
 90
        0
 91
        1
 62
     0
 92
       -2
340
14
 93
        0
 40
1.125
309
GRIDFORMAT_END
 95
       16
302
GRIDFORMAT
  1
GRIDFORMAT_BEGIN
 90
        0
 91
        1
 62
     0
 92
       -2
340
14
 93
        0
 40
1.125
309
GRIDFORMAT_END
 95
       32
302
GRIDFORMAT
  1
GRIDFORMAT_BEGIN
 90
        0
 91
        1
 62
     0
 92
       -2
340
14
 93
        0
 40
1.125
309
GRIDFORMAT_END
309
TABLEFORMAT_END
  1
CELLSTYLE_BEGIN
 90
        1
 91
        1
300
_TITLE
309
CELLSTYLE_END
300
CELLSTYLE
  1
TABLEFORMAT_BEGIN
 90
        5
170
     1
 91
        0
 92
        0
 62
   257
 93
        1
300
CONTENTFORMAT
  1
CONTENTFORMAT_BEGIN
 90
        0
 91
        0
 92
      512
 93
        0
300

 40
0.0
140
1.0
 94
        5
 62
     0
340
11
144
4.5
309
CONTENTFORMAT_END
171
     1
301
MARGIN
  1
CELLMARGIN_BEGIN
 40
1.5
 40
1.5
 40
1.5
 40
1.5
 40
4.5
 40
4.5
309
CELLMARGIN_END
 94
        6
 95
        1
302
GRIDFORMAT
  1
GRIDFORMAT_BEGIN
 90
        0
 91
        1
 62
     0
 92
       -2
340
14
 93
        0
 40
1.125
309
GRIDFORMAT_END
 95
        2
302
GRIDFORMAT
  1
GRIDFORMAT_BEGIN
 90
        0
 91
        1
 62
     0
 92
       -2
340
14
 93
        0
 40
1.125
309
GRIDFORMAT_END
 95
        4
302
GRIDFORMAT
  1
GRIDFORMAT_BEGIN
 90
        0
 91
        1
 62
     0
 92
       -2
340
14
 93
        0
 40
1.125
309
GRIDFORMAT_END
 95
        8
302
GRIDFORMAT
  1
GRIDFORMAT_BEGIN
 90
        0
 91
        1
 62
     0
 92
       -2
340
14
 93
        0
 40
1.125
309
GRIDFORMAT_END
 95
       16
302
GRIDFORMAT
  1
GRIDFORMAT_BEGIN
 90
        0
 91
        1
 62
     0
 92
       -2
340
14
 93
        0
 40
1.125
309
GRIDFORMAT_END
 95
       32
302
GRIDFORMAT
  1
GRIDFORMAT_BEGIN
 90
        0
 91
        1
 62
     0
 92
       -2
340
14
 93
        0
 40
1.125
309
GRIDFORMAT_END
309
TABLEFORMAT_END
  1
CELLSTYLE_BEGIN
 90
        2
 91
        1
300
_HEADER
309
CELLSTYLE_END
300
CELLSTYLE
  1
TABLEFORMAT_BEGIN
 90
        5
170
     1
 91
        0
 92
        0
 62
   257
 93
        1
300
CONTENTFORMAT
  1
CONTENTFORMAT_BEGIN
 90
        0
 91
        0
 92
      512
 93
        0
300

 40
0.0
140
1.0
 94
        2
 62
     0
340
11
144
4.5
309
CONTENTFORMAT_END
171
     1
301
MARGIN
  1
CELLMARGIN_BEGIN
 40
1.5
 40
1.5
 40
1.5
 40
1.5
 40
4.5
 40
4.5
309
CELLMARGIN_END
 94
        6
 95
        1
302
GRIDFORMAT
  1
GRIDFORMAT_BEGIN
 90
        0
 91
        1
 62
     0
 92
       -2
340
14
 93
        0
 40
1.125
309
GRIDFORMAT_END
 95
        2
302
GRIDFORMAT
  1
GRIDFORMAT_BEGIN
 90
        0
 91
        1
 62
     0
 92
       -2
340
14
 93
        0
 40
1.125
309
GRIDFORMAT_END
 95
        4
302
GRIDFORMAT
  1
GRIDFORMAT_BEGIN
 90
        0
 91
        1
 62
     0
 92
       -2
340
14
 93
        0
 40
1.125
309
GRIDFORMAT_END
 95
        8
302
GRIDFORMAT
  1
GRIDFORMAT_BEGIN
 90
        0
 91
        1
 62
     0
 92
       -2
340
14
 93
        0
 40
1.125
309
GRIDFORMAT_END
 95
       16
302
GRIDFORMAT
  1
GRIDFORMAT_BEGIN
 90
        0
 91
        1
 62
     0
 92
       -2
340
14
 93
        0
 40
1.125
309
GRIDFORMAT_END
 95
       32
302
GRIDFORMAT
  1
GRIDFORMAT_BEGIN
 90
        0
 91
        1
 62
     0
 92
       -2
340
14
 93
        0
 40
1.125
309
GRIDFORMAT_END
309
TABLEFORMAT_END
  1
CELLSTYLE_BEGIN
 90
        3
 91
        2
300
_DATA
309
CELLSTYLE_END
  0
XRECORD
  5
4DD
102
{ACAD_REACTORS
330
162
102
}
330
162
100
AcDbXrecord
280
     1
102
ACAD_ROUNDTRIP_PRE2007_TABLESTYLE
 90
      512
 91
        0
  1

 92
      512
 93
        0
  2

 94
      512
 95
        0
  3

  0
ENDSEC
  0
EOF
