  0
SECTION
  2
HEADER
  9
$ACADVER
  1
AC1015
  9
$ACADMAINTVER
 70
    20
  9
$DWGCODEPAGE
  3
ANSI_1254
  9
$INSBASE
 10
0.0
 20
0.0
 30
0.0
  9
$EXTMIN
 10
2240.286148300353
 20
1212.294924722417
 30
0.0
  9
$EXTMAX
 10
2310.243662928318
 20
1242.545403563106
 30
0.0
  9
$LIMMIN
 10
0.0
 20
0.0
  9
$LIMMAX
 10
420.0
 20
297.0
  9
$ORTHOMODE
 70
     1
  9
$REGENMODE
 70
     1
  9
$FILLMODE
 70
     1
  9
$QTEXTMODE
 70
     0
  9
$MIRRTEXT
 70
     0
  9
$LTSCALE
 40
1.0
  9
$ATTMODE
 70
     1
  9
$TEXTSIZE
 40
2.5
  9
$TRACEWID
 40
1.0
  9
$TEXTSTYLE
  7
Standard
  9
$CLAYER
  8
0
  9
$CELTYPE
  6
ByLayer
  9
$CECOLOR
 62
   256
  9
$CELTSCALE
 40
1.0
  9
$DISPSILH
 70
     0
  9
$DIMSCALE
 40
1.0
  9
$DIMASZ
 40
2.5
  9
$DIMEXO
 40
0.625
  9
$DIMDLI
 40
3.75
  9
$DIMRND
 40
0.0
  9
$DIMDLE
 40
0.0
  9
$DIMEXE
 40
1.25
  9
$DIMTP
 40
0.0
  9
$DIMTM
 40
0.0
  9
$DIMTXT
 40
2.5
  9
$DIMCEN
 40
2.5
  9
$DIMTSZ
 40
0.0
  9
$DIMTOL
 70
     0
  9
$DIMLIM
 70
     0
  9
$DIMTIH
 70
     0
  9
$DIMTOH
 70
     0
  9
$DIMSE1
 70
     0
  9
$DIMSE2
 70
     0
  9
$DIMTAD
 70
     1
  9
$DIMZIN
 70
     8
  9
$DIMBLK
  1

  9
$DIMASO
 70
     1
  9
$DIMSHO
 70
     1
  9
$DIMPOST
  1

  9
$DIMAPOST
  1

  9
$DIMALT
 70
     0
  9
$DIMALTD
 70
     3
  9
$DIMALTF
 40
0.03937007874016
  9
$DIMLFAC
 40
1.0
  9
$DIMTOFL
 70
     1
  9
$DIMTVP
 40
0.0
  9
$DIMTIX
 70
     0
  9
$DIMSOXD
 70
     0
  9
$DIMSAH
 70
     0
  9
$DIMBLK1
  1

  9
$DIMBLK2
  1

  9
$DIMSTYLE
  2
ISO-25
  9
$DIMCLRD
 70
     0
  9
$DIMCLRE
 70
     0
  9
$DIMCLRT
 70
     0
  9
$DIMTFAC
 40
1.0
  9
$DIMGAP
 40
0.625
  9
$DIMJUST
 70
     0
  9
$DIMSD1
 70
     0
  9
$DIMSD2
 70
     0
  9
$DIMTOLJ
 70
     0
  9
$DIMTZIN
 70
     8
  9
$DIMALTZ
 70
     0
  9
$DIMALTTZ
 70
     0
  9
$DIMUPT
 70
     0
  9
$DIMDEC
 70
     2
  9
$DIMTDEC
 70
     2
  9
$DIMALTU
 70
     2
  9
$DIMALTTD
 70
     3
  9
$DIMTXSTY
  7
Standard
  9
$DIMAUNIT
 70
     0
  9
$DIMADEC
 70
     0
  9
$DIMALTRND
 40
0.0
  9
$DIMAZIN
 70
     0
  9
$DIMDSEP
 70
    44
  9
$DIMATFIT
 70
     3
  9
$DIMFRAC
 70
     0
  9
$DIMLDRBLK
  1

  9
$DIMLUNIT
 70
     2
  9
$DIMLWD
 70
    -2
  9
$DIMLWE
 70
    -2
  9
$DIMTMOVE
 70
     0
  9
$LUNITS
 70
     2
  9
$LUPREC
 70
     4
  9
$SKETCHINC
 40
1.0
  9
$FILLETRAD
 40
0.0
  9
$AUNITS
 70
     0
  9
$AUPREC
 70
     0
  9
$MENU
  1
.
  9
$ELEVATION
 40
0.0
  9
$PELEVATION
 40
0.0
  9
$THICKNESS
 40
0.0
  9
$LIMCHECK
 70
     0
  9
$CHAMFERA
 40
0.0
  9
$CHAMFERB
 40
0.0
  9
$CHAMFERC
 40
0.0
  9
$CHAMFERD
 40
0.0
  9
$SKPOLY
 70
     0
  9
$TDCREATE
 40
2459076.452049318
  9
$TDUCREATE
 40
2459076.327049317
  9
$TDUPDATE
 40
2459083.598458391
  9
$TDUUPDATE
 40
2459083.473458391
  9
$TDINDWG
 40
0.0005389468
  9
$TDUSRTIMER
 40
0.0005389468
  9
$USRTIMER
 70
     1
  9
$ANGBASE
 50
0.0
  9
$ANGDIR
 70
     0
  9
$PDMODE
 70
     0
  9
$PDSIZE
 40
0.0
  9
$PLINEWID
 40
0.0
  9
$SPLFRAME
 70
     0
  9
$SPLINETYPE
 70
     6
  9
$SPLINESEGS
 70
     8
  9
$HANDSEED
  5
4F5
  9
$SURFTAB1
 70
     6
  9
$SURFTAB2
 70
     6
  9
$SURFTYPE
 70
     6
  9
$SURFU
 70
     6
  9
$SURFV
 70
     6
  9
$UCSBASE
  2

  9
$UCSNAME
  2

  9
$UCSORG
 10
0.0
 20
0.0
 30
0.0
  9
$UCSXDIR
 10
1.0
 20
0.0
 30
0.0
  9
$UCSYDIR
 10
0.0
 20
1.0
 30
0.0
  9
$UCSORTHOREF
  2

  9
$UCSORTHOVIEW
 70
     0
  9
$UCSORGTOP
 10
0.0
 20
0.0
 30
0.0
  9
$UCSORGBOTTOM
 10
0.0
 20
0.0
 30
0.0
  9
$UCSORGLEFT
 10
0.0
 20
0.0
 30
0.0
  9
$UCSORGRIGHT
 10
0.0
 20
0.0
 30
0.0
  9
$UCSORGFRONT
 10
0.0
 20
0.0
 30
0.0
  9
$UCSORGBACK
 10
0.0
 20
0.0
 30
0.0
  9
$PUCSBASE
  2

  9
$PUCSNAME
  2

  9
$PUCSORG
 10
0.0
 20
0.0
 30
0.0
  9
$PUCSXDIR
 10
1.0
 20
0.0
 30
0.0
  9
$PUCSYDIR
 10
0.0
 20
1.0
 30
0.0
  9
$PUCSORTHOREF
  2

  9
$PUCSORTHOVIEW
 70
     0
  9
$PUCSORGTOP
 10
0.0
 20
0.0
 30
0.0
  9
$PUCSORGBOTTOM
 10
0.0
 20
0.0
 30
0.0
  9
$PUCSORGLEFT
 10
0.0
 20
0.0
 30
0.0
  9
$PUCSORGRIGHT
 10
0.0
 20
0.0
 30
0.0
  9
$PUCSORGFRONT
 10
0.0
 20
0.0
 30
0.0
  9
$PUCSORGBACK
 10
0.0
 20
0.0
 30
0.0
  9
$USERI1
 70
     0
  9
$USERI2
 70
     0
  9
$USERI3
 70
     0
  9
$USERI4
 70
     0
  9
$USERI5
 70
     0
  9
$USERR1
 40
0.0
  9
$USERR2
 40
0.0
  9
$USERR3
 40
0.0
  9
$USERR4
 40
0.0
  9
$USERR5
 40
0.0
  9
$WORLDVIEW
 70
     1
  9
$SHADEDGE
 70
     3
  9
$SHADEDIF
 70
    70
  9
$TILEMODE
 70
     1
  9
$MAXACTVP
 70
    64
  9
$PINSBASE
 10
0.0
 20
0.0
 30
0.0
  9
$PLIMCHECK
 70
     0
  9
$PEXTMIN
 10
0.0
 20
0.0
 30
0.0
  9
$PEXTMAX
 10
0.0
 20
0.0
 30
0.0
  9
$PLIMMIN
 10
0.0
 20
0.0
  9
$PLIMMAX
 10
12.0
 20
9.0
  9
$UNITMODE
 70
     0
  9
$VISRETAIN
 70
     1
  9
$PLINEGEN
 70
     0
  9
$PSLTSCALE
 70
     1
  9
$TREEDEPTH
 70
  3020
  9
$CMLSTYLE
  2
Standard
  9
$CMLJUST
 70
     0
  9
$CMLSCALE
 40
20.0
  9
$PROXYGRAPHICS
 70
     1
  9
$MEASUREMENT
 70
     1
  9
$CELWEIGHT
370
    -1
  9
$ENDCAPS
280
     0
  9
$JOINSTYLE
280
     0
  9
$LWDISPLAY
290
     0
  9
$INSUNITS
 70
     4
  9
$HYPERLINKBASE
  1

  9
$STYLESHEET
  1

  9
$XEDIT
290
     1
  9
$CEPSNTYPE
380
     0
  9
$PSTYLEMODE
290
     1
  9
$FINGERPRINTGUID
  2
{2D662EF5-EF4B-4569-9CDB-DA5027028063}
  9
$VERSIONGUID
  2
{6ABA432D-97E4-4CB2-B2FE-074ED0645DAD}
  9
$EXTNAMES
290
     1
  9
$PSVPSCALE
 40
0.0
  9
$OLESTARTUP
290
     0
  0
ENDSEC
  0
SECTION
  2
CLASSES
  0
CLASS
  1
ACDBDICTIONARYWDFLT
  2
AcDbDictionaryWithDefault
  3
ObjectDBX Classes
 90
        0
280
     0
281
     0
  0
CLASS
  1
ACDBPLACEHOLDER
  2
AcDbPlaceHolder
  3
ObjectDBX Classes
 90
        0
280
     0
281
     0
  0
CLASS
  1
LAYOUT
  2
AcDbLayout
  3
ObjectDBX Classes
 90
        0
280
     0
281
     0
  0
CLASS
  1
DICTIONARYVAR
  2
AcDbDictionaryVar
  3
ObjectDBX Classes
 90
        0
280
     0
281
     0
  0
CLASS
  1
TABLESTYLE
  2
AcDbTableStyle
  3
ObjectDBX Classes
 90
     4095
280
     0
281
     0
  0
CLASS
  1
MATERIAL
  2
AcDbMaterial
  3
ObjectDBX Classes
 90
     1153
280
     0
281
     0
  0
CLASS
  1
VISUALSTYLE
  2
AcDbVisualStyle
  3
ObjectDBX Classes
 90
     4095
280
     0
281
     0
  0
CLASS
  1
SCALE
  2
AcDbScale
  3
ObjectDBX Classes
 90
     1153
280
     0
281
     0
  0
CLASS
  1
MLEADERSTYLE
  2
AcDbMLeaderStyle
  3
ACDB_MLEADERSTYLE_CLASS
 90
     4095
280
     0
281
     0
  0
CLASS
  1
CELLSTYLEMAP
  2
AcDbCellStyleMap
  3
ObjectDBX Classes
 90
     1152
280
     0
281
     0
  0
ENDSEC
  0
SECTION
  2
TABLES
  0
TABLE
  2
VPORT
  5
8
330
0
100
AcDbSymbolTable
 70
     1
  0
VPORT
  5
EA
330
8
100
AcDbSymbolTableRecord
100
AcDbViewportTableRecord
  2
*Active
 70
     0
 10
0.0
 20
0.0
 11
1.0
 21
1.0
 12
2286.843552490175
 22
1227.574803423638
 13
0.0
 23
0.0
 14
10.0
 24
10.0
 15
10.0
 25
10.0
 16
0.0
 26
0.0
 36
1.0
 17
0.0
 27
0.0
 37
0.0
 40
97.68092516462708
 41
1.903110047846889
 42
50.0
 43
0.0
 44
0.0
 50
0.0
 51
0.0
 71
     0
 72
  1000
 73
     1
 74
     3
 75
     0
 76
     0
 77
     0
 78
     0
281
     0
 65
     1
110
0.0
120
0.0
130
0.0
111
1.0
121
0.0
131
0.0
112
0.0
122
1.0
132
0.0
 79
     0
146
0.0
  0
ENDTAB
  0
TABLE
  2
LTYPE
  5
5
330
0
100
AcDbSymbolTable
 70
     1
  0
LTYPE
  5
14
330
5
100
AcDbSymbolTableRecord
100
AcDbLinetypeTableRecord
  2
ByBlock
 70
     0
  3

 72
    65
 73
     0
 40
0.0
  0
LTYPE
  5
15
330
5
100
AcDbSymbolTableRecord
100
AcDbLinetypeTableRecord
  2
ByLayer
 70
     0
  3

 72
    65
 73
     0
 40
0.0
  0
LTYPE
  5
16
330
5
100
AcDbSymbolTableRecord
100
AcDbLinetypeTableRecord
  2
Continuous
 70
     0
  3
Solid line
 72
    65
 73
     0
 40
0.0
  0
ENDTAB
  0
TABLE
  2
LAYER
  5
2
330
0
100
AcDbSymbolTable
 70
     1
  0
LAYER
  5
10
102
{ACAD_XDICTIONARY
360
13C
102
}
330
2
100
AcDbSymbolTableRecord
100
AcDbLayerTableRecord
  2
0
 70
     0
 62
     7
  6
Continuous
370
    -3
390
F
  0
ENDTAB
  0
TABLE
  2
STYLE
  5
3
330
0
100
AcDbSymbolTable
 70
     2
  0
STYLE
  5
11
330
3
100
AcDbSymbolTableRecord
100
AcDbTextStyleTableRecord
  2
Standard
 70
     0
 40
0.0
 41
1.0
 50
0.0
 71
     0
 42
2.5
  3
txt
  4

  0
STYLE
  5
132
330
3
100
AcDbSymbolTableRecord
100
AcDbTextStyleTableRecord
  2
Annotative
 70
     0
 40
0.0
 41
1.0
 50
0.0
 71
     0
 42
2.5
  3
txt.shx
  4

1001
AcadAnnotative
1000
AnnotativeData
1002
{
1070
     1
1070
     1
1002
}
  0
ENDTAB
  0
TABLE
  2
VIEW
  5
6
330
0
100
AcDbSymbolTable
 70
     0
  0
ENDTAB
  0
TABLE
  2
UCS
  5
7
330
0
100
AcDbSymbolTable
 70
     0
  0
ENDTAB
  0
TABLE
  2
APPID
  5
9
330
0
100
AcDbSymbolTable
 70
     7
  0
APPID
  5
12
330
9
100
AcDbSymbolTableRecord
100
AcDbRegAppTableRecord
  2
ACAD
 70
     0
  0
APPID
  5
9E
330
9
100
AcDbSymbolTableRecord
100
AcDbRegAppTableRecord
  2
ACAD_PSEXT
 70
     0
  0
APPID
  5
133
330
9
100
AcDbSymbolTableRecord
100
AcDbRegAppTableRecord
  2
AcadAnnoPO
 70
     0
  0
APPID
  5
134
330
9
100
AcDbSymbolTableRecord
100
AcDbRegAppTableRecord
  2
AcadAnnotative
 70
     0
  0
APPID
  5
135
330
9
100
AcDbSymbolTableRecord
100
AcDbRegAppTableRecord
  2
ACAD_DSTYLE_DIMJAG
 70
     0
  0
APPID
  5
136
330
9
100
AcDbSymbolTableRecord
100
AcDbRegAppTableRecord
  2
ACAD_DSTYLE_DIMTALN
 70
     0
  0
APPID
  5
165
330
9
100
AcDbSymbolTableRecord
100
AcDbRegAppTableRecord
  2
ACAD_MLEADERVER
 70
     0
  0
ENDTAB
  0
TABLE
  2
DIMSTYLE
  5
A
330
0
100
AcDbSymbolTable
 70
     2
100
AcDbDimStyleTable
 71
     2
340
27
340
137
  0
DIMSTYLE
105
27
330
A
100
AcDbSymbolTableRecord
100
AcDbDimStyleTableRecord
  2
ISO-25
 70
     0
 41
2.5
 42
0.625
 43
3.75
 44
1.25
 73
     0
 74
     0
 77
     1
 78
     8
140
2.5
141
2.5
143
0.03937007874016
147
0.625
171
     3
172
     1
271
     2
272
     2
274
     3
278
    44
283
     0
284
     8
340
11
  0
DIMSTYLE
105
137
330
A
100
AcDbSymbolTableRecord
100
AcDbDimStyleTableRecord
  2
Annotative
 70
     0
 40
0.0
 41
2.5
 42
0.625
 43
3.75
 44
1.25
 73
     0
 74
     0
 77
     1
 78
     8
140
2.5
141
2.5
143
0.03937007874016
147
0.625
171
     3
172
     1
271
     2
272
     2
274
     3
278
    44
283
     0
284
     8
340
11
1001
AcadAnnotative
1000
AnnotativeData
1002
{
1070
     1
1070
     1
1002
}
1001
ACAD_DSTYLE_DIMJAG
1070
   388
1040
1.5
1001
ACAD_DSTYLE_DIMTALN
1070
   392
1070
     0
  0
ENDTAB
  0
TABLE
  2
BLOCK_RECORD
  5
1
330
0
100
AcDbSymbolTable
 70
     5
  0
BLOCK_RECORD
  5
1F
330
1
100
AcDbSymbolTableRecord
100
AcDbBlockTableRecord
  2
*Model_Space
340
22
  0
BLOCK_RECORD
  5
D2
330
1
100
AcDbSymbolTableRecord
100
AcDbBlockTableRecord
  2
*Paper_Space
340
D3
  0
BLOCK_RECORD
  5
D6
330
1
100
AcDbSymbolTableRecord
100
AcDbBlockTableRecord
  2
*Paper_Space0
340
D7
  0
BLOCK_RECORD
  5
3C1
330
1
100
AcDbSymbolTableRecord
100
AcDbBlockTableRecord
  2
1
340
0
310
2800000020000000200000000100080000000000000400000000000000000000000000000000000000000000000080000080000000808000800000008000800080800000C0C0C000C0DCC000F0CAA6000020400000206000002080000020A0000020C0000020E00000400000004020000040400000406000004080000040A0
310
000040C0000040E00000600000006020000060400000606000006080000060A0000060C0000060E00000800000008020000080400000806000008080000080A0000080C0000080E00000A0000000A0200000A0400000A0600000A0800000A0A00000A0C00000A0E00000C0000000C0200000C0400000C0600000C0800000C0
310
A00000C0C00000C0E00000E0000000E0200000E0400000E0600000E0800000E0A00000E0C00000E0E00040000000400020004000400040006000400080004000A0004000C0004000E00040200000402020004020400040206000402080004020A0004020C0004020E000404000004040200040404000404060004040800040
310
40A0004040C0004040E00040600000406020004060400040606000406080004060A0004060C0004060E00040800000408020004080400040806000408080004080A0004080C0004080E00040A0000040A0200040A0400040A0600040A0800040A0A00040A0C00040A0E00040C0000040C0200040C0400040C0600040C08000
310
40C0A00040C0C00040C0E00040E0000040E0200040E0400040E0600040E0800040E0A00040E0C00040E0E00080000000800020008000400080006000800080008000A0008000C0008000E00080200000802020008020400080206000802080008020A0008020C0008020E00080400000804020008040400080406000804080
310
008040A0008040C0008040E00080600000806020008060400080606000806080008060A0008060C0008060E00080800000808020008080400080806000808080008080A0008080C0008080E00080A0000080A0200080A0400080A0600080A0800080A0A00080A0C00080A0E00080C0000080C0200080C0400080C0600080C0
310
800080C0A00080C0C00080C0E00080E0000080E0200080E0400080E0600080E0800080E0A00080E0C00080E0E000C0000000C0002000C0004000C0006000C0008000C000A000C000C000C000E000C0200000C0202000C0204000C0206000C0208000C020A000C020C000C020E000C0400000C0402000C0404000C0406000C0
310
408000C040A000C040C000C040E000C0600000C0602000C0604000C0606000C0608000C060A000C060C000C060E000C0800000C0802000C0804000C0806000C0808000C080A000C080C000C080E000C0A00000C0A02000C0A04000C0A06000C0A08000C0A0A000C0A0C000C0A0E000C0C00000C0C02000C0C04000C0C06000
310
C0C08000C0C0A000F0FBFF00A4A0A000808080000000FF0000FF000000FFFF00FF000000FF00FF00FFFF0000FFFFFF0000000000000000000000000000000000000000000000000000000000000000000000000000000000000000000000000000000000000000000000000000000000000000000000000000000000000000
310
00000000000000000000000000000000000000000000000000000000000000000000000000000000000000000000000000000000000000000000000000000000000000000000000000000000000000000000000000000000000000000000000000000000000000000000000000000000000000000000000000000000000000
310
00000000000000000000000000000000000000000000000000000000000000000000000000000000000000000000000000000000000000000000000000000000000000000000000000000000000000000000000000FFFFFFFFFFFFFFFFFFFFFFFFFFFFFFFFFFFFFFFFFFFFFFFFFF000000000000FFFFFFFFFFFFFFFFFFFFFF
310
FFFFFFFFFFFFFFFFFFFFFFFFFFFFFFFF00000000FFFF0000000000000000000000000000000000000000000000000000FF000000FFFF0000FFFFFF00FF0000FFFF00FFFF0000FF000000000000000000FF000000FFFF00FFFFFFFFFFFF00FFFFFFFF00FFFF00FF000000000000000000FF000000FFFF00FFFF0000FFFFFFFF
310
FFFF000000FFFF000000000000000000FFFF000000FFFF00FFFF00FFFFFFFFFFFFFFFF0000FFFF00000000000000FFFF0000000000FFFF0000FFFFFFFFFF00FFFFFFFFFF00FF0000000000FFFFFF00000000000000FFFF000000000000000000000000000000000000FFFF00000000000000000000FFFF0000000000000000
310
0000000000000000FFFF00000000000000000000000000FFFF000000000000000000000000FFFFFF0000000000000000000000000000000000FFFFFFFF000000000000FFFF0000000000000000000000000000000000000000000000FFFFFFFFFFFFFF00000000000000000000000000000000000000000000000000000000
310
00000000000000000000000000000000000000000000000000000000000000000000000000000000000000000000000000000000000000000000000000000000000000000000000000000000000000000000000000000000000000000000000000000000000000000000000000000000000000000000000000000000000000
310
00000000000000000000000000000000000000000000000000000000000000000000000000000000000000000000000000000000000000000000000000000000000000000000000000000000000000000000000000000000000000000000000000000000000000000000000000000000000000000000000000000000000000
310
0000000000000000000000000000000000000000000000000000000000000000000000000000000000000000000000000000000000000000
102
{BLKREFS
331
40A
102
}
1001
ACAD
1000
DesignCenter Data
1002
{
1070
     1
1070
     4
1002
}
  0
BLOCK_RECORD
  5
40B
330
1
100
AcDbSymbolTableRecord
100
AcDbBlockTableRecord
  2
2
340
0
310
2800000020000000200000000100080000000000000400000000000000000000000000000000000000000000000080000080000000808000800000008000800080800000C0C0C000C0DCC000F0CAA6000020400000206000002080000020A0000020C0000020E00000400000004020000040400000406000004080000040A0
310
000040C0000040E00000600000006020000060400000606000006080000060A0000060C0000060E00000800000008020000080400000806000008080000080A0000080C0000080E00000A0000000A0200000A0400000A0600000A0800000A0A00000A0C00000A0E00000C0000000C0200000C0400000C0600000C0800000C0
310
A00000C0C00000C0E00000E0000000E0200000E0400000E0600000E0800000E0A00000E0C00000E0E00040000000400020004000400040006000400080004000A0004000C0004000E00040200000402020004020400040206000402080004020A0004020C0004020E000404000004040200040404000404060004040800040
310
40A0004040C0004040E00040600000406020004060400040606000406080004060A0004060C0004060E00040800000408020004080400040806000408080004080A0004080C0004080E00040A0000040A0200040A0400040A0600040A0800040A0A00040A0C00040A0E00040C0000040C0200040C0400040C0600040C08000
310
40C0A00040C0C00040C0E00040E0000040E0200040E0400040E0600040E0800040E0A00040E0C00040E0E00080000000800020008000400080006000800080008000A0008000C0008000E00080200000802020008020400080206000802080008020A0008020C0008020E00080400000804020008040400080406000804080
310
008040A0008040C0008040E00080600000806020008060400080606000806080008060A0008060C0008060E00080800000808020008080400080806000808080008080A0008080C0008080E00080A0000080A0200080A0400080A0600080A0800080A0A00080A0C00080A0E00080C0000080C0200080C0400080C0600080C0
310
800080C0A00080C0C00080C0E00080E0000080E0200080E0400080E0600080E0800080E0A00080E0C00080E0E000C0000000C0002000C0004000C0006000C0008000C000A000C000C000C000E000C0200000C0202000C0204000C0206000C0208000C020A000C020C000C020E000C0400000C0402000C0404000C0406000C0
310
408000C040A000C040C000C040E000C0600000C0602000C0604000C0606000C0608000C060A000C060C000C060E000C0800000C0802000C0804000C0806000C0808000C080A000C080C000C080E000C0A00000C0A02000C0A04000C0A06000C0A08000C0A0A000C0A0C000C0A0E000C0C00000C0C02000C0C04000C0C06000
310
C0C08000C0C0A000F0FBFF00A4A0A000808080000000FF0000FF000000FFFF00FF000000FF00FF00FFFF0000FFFFFF0000000000000000000000000000000000000000000000000000000000000000000000000000000000000000000000000000000000000000000000000000000000000000000000000000000000000000
310
000000000000000000000000000000000000000000000000000000000000000000000000000000000000000000000000000000000000000000000000000000000000000000000000000000000000000000000000000000000000000000000000000000000000000000000000000000000000FFFFFFFFFFFFFFFFFFFFFFFFFF
310
FFFFFFFFFFFFFFFFFFFFFFFFFFFFFFFFFF0000FFFF0000000000FF000000FF00000000000000000000000000000000FFFF0000FFFF0000000000FF000000FF00000000000000000000000000000000FFFF0000FFFF0000000000FF000000FF00000000000000000000000000000000FFFF0000FFFF0000000000FF000000FF
310
00000000000000000000000000000000FFFF0000FFFF0000000000FF000000FF00000000000000000000000000000000FFFF0000FFFF0000000000FF000000FF00000000000000000000000000000000FFFF0000FFFF0000000000FF000000FF00000000000000000000000000000000FFFF0000FFFF0000000000FF000000
310
FF00000000000000000000000000000000FFFF0000FFFF0000000000FF000000FF00000000000000000000000000000000FFFF0000FFFF0000000000FF000000FF00000000000000000000000000000000FFFF0000FFFF0000000000FF000000FF00000000000000000000000000000000FFFF0000FFFF0000000000FF0000
310
00FF0000000000000000FFFFFFFFFFFFFFFFFFFF0000FFFF0000000000FF000000FF0000000000000000FF000000000000FF00000000FFFF0000000000FF000000FF0000000000000000FF000000000000FF00000000FFFF0000000000FF000000FF0000000000000000FF000000000000FF00000000FFFF0000000000FF00
310
0000FF0000000000000000FF000000000000FF00000000FFFF0000000000FF000000FF0000000000000000FF000000000000FF00000000FFFF0000000000FF000000FF0000000000000000FF000000000000FF00000000FFFFFFFFFFFFFFFFFFFFFFFFFFFFFFFFFFFFFFFFFFFFFFFFFFFFFFFF000000000000000000000000
310
00000000000000000000000000000000000000000000000000000000000000000000000000000000000000000000000000000000000000000000000000000000000000000000000000000000000000000000000000000000000000000000000000000000000000000000000000000000000000000000000000000000000000
310
0000000000000000000000000000000000000000000000000000000000000000000000000000000000000000000000000000000000000000
102
{BLKREFS
331
42F
102
}
1001
ACAD
1000
DesignCenter Data
1002
{
1070
     1
1070
     4
1002
}
  0
BLOCK_RECORD
  5
430
330
1
100
AcDbSymbolTableRecord
100
AcDbBlockTableRecord
  2
3
340
0
310
2800000020000000200000000100080000000000000400000000000000000000000000000000000000000000000080000080000000808000800000008000800080800000C0C0C000C0DCC000F0CAA6000020400000206000002080000020A0000020C0000020E00000400000004020000040400000406000004080000040A0
310
000040C0000040E00000600000006020000060400000606000006080000060A0000060C0000060E00000800000008020000080400000806000008080000080A0000080C0000080E00000A0000000A0200000A0400000A0600000A0800000A0A00000A0C00000A0E00000C0000000C0200000C0400000C0600000C0800000C0
310
A00000C0C00000C0E00000E0000000E0200000E0400000E0600000E0800000E0A00000E0C00000E0E00040000000400020004000400040006000400080004000A0004000C0004000E00040200000402020004020400040206000402080004020A0004020C0004020E000404000004040200040404000404060004040800040
310
40A0004040C0004040E00040600000406020004060400040606000406080004060A0004060C0004060E00040800000408020004080400040806000408080004080A0004080C0004080E00040A0000040A0200040A0400040A0600040A0800040A0A00040A0C00040A0E00040C0000040C0200040C0400040C0600040C08000
310
40C0A00040C0C00040C0E00040E0000040E0200040E0400040E0600040E0800040E0A00040E0C00040E0E00080000000800020008000400080006000800080008000A0008000C0008000E00080200000802020008020400080206000802080008020A0008020C0008020E00080400000804020008040400080406000804080
310
008040A0008040C0008040E00080600000806020008060400080606000806080008060A0008060C0008060E00080800000808020008080400080806000808080008080A0008080C0008080E00080A0000080A0200080A0400080A0600080A0800080A0A00080A0C00080A0E00080C0000080C0200080C0400080C0600080C0
310
800080C0A00080C0C00080C0E00080E0000080E0200080E0400080E0600080E0800080E0A00080E0C00080E0E000C0000000C0002000C0004000C0006000C0008000C000A000C000C000C000E000C0200000C0202000C0204000C0206000C0208000C020A000C020C000C020E000C0400000C0402000C0404000C0406000C0
310
408000C040A000C040C000C040E000C0600000C0602000C0604000C0606000C0608000C060A000C060C000C060E000C0800000C0802000C0804000C0806000C0808000C080A000C080C000C080E000C0A00000C0A02000C0A04000C0A06000C0A08000C0A0A000C0A0C000C0A0E000C0C00000C0C02000C0C04000C0C06000
310
C0C08000C0C0A000F0FBFF00A4A0A000808080000000FF0000FF000000FFFF00FF000000FF00FF00FFFF0000FFFFFF0000000000000000000000000000000000000000000000000000000000000000000000000000000000000000000000000000000000000000000000000000000000000000000000000000000000000000
310
000000000000000000000000000000000000000000000000000000000000000000000000000000000000000000000000000000000000000000000000000000000000000000000000000000000000000000000000000000000000000000000000000000000000000000000000000000000000FFFFFFFFFFFFFFFFFFFFFFFFFF
310
FFFFFFFFFFFFFFFFFFFFFFFFFFFFFFFF000000FF000000000000000000000000000000000000000000000000000000FFFF0000FFFFFFFFFFFFFFFFFFFFFFFFFFFFFFFFFFFFFFFFFFFFFFFFFFFFFFFFFFFF0000FF000000000000000000000000000000000000000000000000000000FFFF0000FF0000000000000000000000
310
00000000000000000000000000000000FFFF0000FF000000000000000000000000000000000000000000000000000000FFFF0000FF000000000000000000000000000000000000000000000000000000FFFF0000FF000000000000000000000000000000000000000000000000000000FFFF0000FF00000000000000000000
310
0000000000000000000000000000000000FFFF0000FF000000000000000000000000000000000000000000000000000000FFFF0000FF000000000000000000000000000000000000000000000000000000FFFF0000FF000000000000000000000000000000000000000000000000000000FFFF0000FF000000000000000000
310
000000000000000000000000000000000000FFFF0000FFFFFFFFFFFFFFFFFFFFFFFFFFFFFFFFFFFFFFFFFFFFFFFFFFFFFFFFFFFF0000FF000000000000000000000000000000000000000000000000000000FFFF0000FFFFFFFFFFFFFFFFFFFFFFFFFFFFFFFFFFFFFFFFFFFFFFFFFFFFFFFFFFFF0000FF0000000000000000
310
00000000000000000000000000000000000000FFFF0000FF000000000000000000000000000000000000000000000000000000FFFF0000FFFFFFFFFFFFFFFFFFFFFFFFFFFFFFFFFFFFFFFFFFFFFFFFFFFFFFFFFFFF0000FFFFFFFFFFFFFFFFFFFFFFFFFFFFFFFFFFFFFFFFFFFFFFFFFFFFFFFFFF0000000000000000000000
310
00000000000000000000000000000000000000000000000000000000000000000000000000000000000000000000000000000000000000000000000000000000000000000000000000000000000000000000000000000000000000000000000000000000000000000000000000000000000000000000000000000000000000
310
0000000000000000000000000000000000000000000000000000000000000000000000000000000000000000000000000000000000000000
102
{BLKREFS
331
44E
102
}
1001
ACAD
1000
DesignCenter Data
1002
{
1070
     1
1070
     4
1002
}
  0
BLOCK_RECORD
  5
44F
330
1
100
AcDbSymbolTableRecord
100
AcDbBlockTableRecord
  2
4
340
0
310
2800000020000000200000000100080000000000000400000000000000000000000000000000000000000000000080000080000000808000800000008000800080800000C0C0C000C0DCC000F0CAA6000020400000206000002080000020A0000020C0000020E00000400000004020000040400000406000004080000040A0
310
000040C0000040E00000600000006020000060400000606000006080000060A0000060C0000060E00000800000008020000080400000806000008080000080A0000080C0000080E00000A0000000A0200000A0400000A0600000A0800000A0A00000A0C00000A0E00000C0000000C0200000C0400000C0600000C0800000C0
310
A00000C0C00000C0E00000E0000000E0200000E0400000E0600000E0800000E0A00000E0C00000E0E00040000000400020004000400040006000400080004000A0004000C0004000E00040200000402020004020400040206000402080004020A0004020C0004020E000404000004040200040404000404060004040800040
310
40A0004040C0004040E00040600000406020004060400040606000406080004060A0004060C0004060E00040800000408020004080400040806000408080004080A0004080C0004080E00040A0000040A0200040A0400040A0600040A0800040A0A00040A0C00040A0E00040C0000040C0200040C0400040C0600040C08000
310
40C0A00040C0C00040C0E00040E0000040E0200040E0400040E0600040E0800040E0A00040E0C00040E0E00080000000800020008000400080006000800080008000A0008000C0008000E00080200000802020008020400080206000802080008020A0008020C0008020E00080400000804020008040400080406000804080
310
008040A0008040C0008040E00080600000806020008060400080606000806080008060A0008060C0008060E00080800000808020008080400080806000808080008080A0008080C0008080E00080A0000080A0200080A0400080A0600080A0800080A0A00080A0C00080A0E00080C0000080C0200080C0400080C0600080C0
310
800080C0A00080C0C00080C0E00080E0000080E0200080E0400080E0600080E0800080E0A00080E0C00080E0E000C0000000C0002000C0004000C0006000C0008000C000A000C000C000C000E000C0200000C0202000C0204000C0206000C0208000C020A000C020C000C020E000C0400000C0402000C0404000C0406000C0
310
408000C040A000C040C000C040E000C0600000C0602000C0604000C0606000C0608000C060A000C060C000C060E000C0800000C0802000C0804000C0806000C0808000C080A000C080C000C080E000C0A00000C0A02000C0A04000C0A06000C0A08000C0A0A000C0A0C000C0A0E000C0C00000C0C02000C0C04000C0C06000
310
C0C08000C0C0A000F0FBFF00A4A0A000808080000000FF0000FF000000FFFF00FF000000FF00FF00FFFF0000FFFFFF0000000000000000000000000000000000000000000000000000000000000000000000000000000000000000000000000000000000000000000000000000000000000000000000000000000000000000
310
000000000000000000000000000000000000000000000000000000000000000000000000000000000000000000000000000000000000000000000000000000000000FFFF00000000000000000000000000000000000000000000000000000000FFFF00FFFFFF000000000000000000000000000000000000000000000000FF
310
FF000000FFFFFFFFFF000000000000000000000000000000000000000000FF0000000000FFFF0000FFFFFF0000000000000000000000000000000000FFFF0000000000FFFF00FFFF00FFFFFF0000000000000000000000000000FFFF0000FF000000FFFF00000000FFFFFFFFFFFF0000000000000000000000FF0000FF00FF
310
0000FFFF00000000000000FFFFFFFFFFFF00000000000000FFFF00FF00FFFFFF00FFFF00000000000000000000FFA4A4FFFF00000000FFFF0000FFFFFF00FF00FFFF00000000000000000000FF000000FF00000000FF0000FFFFFFFFFFFF0000FF00000000000000000000FF0000FFFF00000000FFFFFFFFFFFFFFFF000000
310
FF00000000000000000000FF00FFFF000000000000FFFFFF00FFFFFF000000FF00000000000000000000FFFFFF0000000000000000FFFFFFFFFF00000000FF00000000000000000000FFFF00000000000000000000FFFFFFFF00000000FF000000000000000000000000FFFFFF0000000000000000FFFF0000000000FF0000
310
00000000000000000000000000FFFF00000000000000FFFF0000FFFFFF00FFFF000000000000000000000000000000FF000000000000FFFFFFFFFFFF00000000FFFF000000000000000000000000FF000000000000000000FFFF0000FFFF00000000FFFF000000000000000000FF000000000000000000000000FFFF0000FF
310
FF00000000FF00000000000000FF0000000000000000000000000000FFFFFF0000FFFF000000FFFF00000000FF0000000000000000000000000000000000FFFF000000FFFF000000FFFF00FF0000000000000000000000000000000000000000FFFF000000FFFF0000FFFF0000000000000000000000000000000000000000
310
0000FFFFFF0000FFFFFF0000000000000000000000000000000000000000000000000000FFFFFF00000000000000000000000000000000000000000000000000000000000000000000000000000000000000000000000000000000000000000000000000000000000000000000000000000000000000000000000000000000
310
0000000000000000000000000000000000000000000000000000000000000000000000000000000000000000000000000000000000000000
102
{BLKREFS
331
4D8
102
}
1001
ACAD
1000
DesignCenter Data
1002
{
1070
     1
1070
     4
1002
}
  0
ENDTAB
  0
ENDSEC
  0
SECTION
  2
BLOCKS
  0
BLOCK
  5
20
330
1F
100
AcDbEntity
  8
0
100
AcDbBlockBegin
  2
*Model_Space
 70
     0
 10
0.0
 20
0.0
 30
0.0
  3
*Model_Space
  1

  0
ENDBLK
  5
21
330
1F
100
AcDbEntity
  8
0
100
AcDbBlockEnd
  0
BLOCK
  5
D4
330
D2
100
AcDbEntity
 67
     1
  8
0
100
AcDbBlockBegin
  2
*Paper_Space
 70
     0
 10
0.0
 20
0.0
 30
0.0
  3
*Paper_Space
  1

  0
ENDBLK
  5
D5
330
D2
100
AcDbEntity
 67
     1
  8
0
100
AcDbBlockEnd
  0
BLOCK
  5
D8
330
D6
100
AcDbEntity
 67
     1
  8
0
100
AcDbBlockBegin
  2
*Paper_Space0
 70
     0
 10
0.0
 20
0.0
 30
0.0
  3
*Paper_Space0
  1

  0
ENDBLK
  5
D9
330
D6
100
AcDbEntity
 67
     1
  8
0
100
AcDbBlockEnd
  0
BLOCK
  5
3C2
330
3C1
100
AcDbEntity
  8
0
100
AcDbBlockBegin
  2
1
 70
     0
 10
0.0
 20
0.0
 30
0.0
  3
1
  1

  0
LINE
  5
3C4
330
3C1
100
AcDbEntity
  8
0
  6
Continuous
 62
     7
370
    15
100
AcDbLine
 10
2267.70292663869
 20
1242.323585150727
 30
0.0
 11
2276.561680203187
 21
1238.43329440764
 31
0.0
  0
SPLINE
  5
3C5
330
3C1
100
AcDbEntity
  8
0
  6
Continuous
 62
     7
370
    15
100
AcDbSpline
210
0.0
220
0.0
230
1.0
 70
     8
 71
     3
 72
    10
 73
     6
 74
     0
 42
0.0000000001
 43
0.0000000001
 40
0.0
 40
0.0
 40
0.0
 40
0.0
 40
0.5
 40
0.5
 40
1.0
 40
1.0
 40
1.0
 40
1.0
 10
2276.561680203187
 20
1238.43329440764
 30
0.0
 10
2276.561680203187
 20
1238.43329440764
 30
0.0
 10
2276.550654584486
 20
1238.40853816524
 30
0.0
 10
2276.513087434981
 20
1238.324282346252
 30
0.0
 10
2276.486420903989
 20
1238.264529696655
 30
0.0
 10
2276.45980741864
 20
1238.204987343264
 30
0.0
  0
LINE
  5
3C6
330
3C1
100
AcDbEntity
  8
0
  6
Continuous
 62
     7
370
    15
100
AcDbLine
 10
2276.459807418874
 20
1238.204987343162
 30
0.0
 11
2267.601155764132
 21
1242.095233332934
 31
0.0
  0
SPLINE
  5
3C7
330
3C1
100
AcDbEntity
  8
0
  6
Continuous
 62
     7
370
    15
100
AcDbSpline
210
0.0
220
0.0
230
1.0
 70
     8
 71
     3
 72
    10
 73
     6
 74
     0
 42
0.0000000001
 43
0.0000000001
 40
0.0
 40
0.0
 40
0.0
 40
0.0
 40
0.5
 40
0.5
 40
1.0
 40
1.0
 40
1.0
 40
1.0
 10
2267.70292663869
 20
1242.323585150727
 30
0.0
 10
2267.70292663869
 20
1242.323585150727
 30
0.0
 10
2267.691897430777
 20
1242.298826750939
 30
0.0
 10
2267.654345203379
 20
1242.214553984195
 30
0.0
 10
2267.62772177761
 20
1242.154821010691
 30
0.0
 10
2267.601155764133
 20
1242.095233332934
 30
0.0
  0
ARC
  5
3C8
330
3C1
100
AcDbEntity
  8
0
  6
Continuous
 62
     7
370
    15
100
AcDbCircle
 10
2266.673417700492
 20
1240.045403563106
 30
0.0
 40
2.500000000000234
100
AcDbArc
 50
65.68181695985306
 51
110.1742620453659
  0
ARC
  5
3C9
330
3C1
100
AcDbEntity
  8
0
  6
Continuous
 62
     7
370
    15
100
AcDbCircle
 10
2266.673417700492
 20
1240.045403563106
 30
0.0
 40
2.250000000000252
100
AcDbArc
 50
65.64883796676259
 51
110.1742620453414
  0
LINE
  5
3CA
330
3C1
100
AcDbEntity
  8
0
  6
Continuous
 62
     7
370
    15
100
AcDbLine
 10
2265.811226245998
 20
1242.392023663548
 30
0.0
 11
2265.897445391447
 21
1242.157361653504
 31
0.0
  0
ARC
  5
3CB
330
3C1
100
AcDbEntity
  8
0
  6
Continuous
 62
     7
370
    15
100
AcDbCircle
 10
2276.273417700492
 20
1237.795403563106
 30
0.0
 40
0.4500000000032927
100
AcDbArc
 50
326.7502530145534
 51
65.53109262247125
  0
ARC
  5
3CC
330
3C1
100
AcDbEntity
  8
0
  6
Continuous
 62
     7
370
    15
100
AcDbCircle
 10
2276.273417700492
 20
1237.795403563106
 30
0.0
 40
0.7000000000000299
100
AcDbArc
 50
326.7502530145426
 51
65.68181695987679
  0
LINE
  5
3CD
330
3C1
100
AcDbEntity
  8
0
  6
Continuous
 62
     7
370
    15
100
AcDbLine
 10
2276.649747560173
 20
1237.548673271669
 30
0.0
 11
2276.85881970444
 21
1237.411600887537
 31
0.0
  0
SPLINE
  5
3CE
330
3C1
100
AcDbEntity
  8
0
  6
Continuous
 62
     7
370
    15
100
AcDbSpline
210
0.0
220
0.0
230
1.0
 70
     8
 71
     3
 72
    23
 73
    19
 74
     0
 42
0.0000000001
 43
0.0000000001
 40
0.0
 40
0.0
 40
0.0
 40
0.0
 40
0.0652265038922754
 40
0.1285689957067416
 40
0.1903203781044805
 40
0.2513779886240805
 40
0.312387528333709
 40
0.373788704276739
 40
0.4364311597804656
 40
0.5005667553098631
 40
0.564686795384748
 40
0.6271355178835081
 40
0.688455408894985
 40
0.7492457464637541
 40
0.8101551773646868
 40
0.871670925652921
 40
0.934773496107725
 40
1.0
 40
1.0
 40
1.0
 40
1.0
 10
2265.672668758559
 20
1238.579579529058
 30
0.0
 10
2265.671783082831
 20
1238.543603845426
 30
0.0
 10
2265.670037313365
 20
1238.472691605179
 30
0.0
 10
2265.655083726202
 20
1238.368609637081
 30
0.0
 10
2265.631631726217
 20
1238.26855781052
 30
0.0
 10
2265.598148145541
 20
1238.172703151792
 30
0.0
 10
2265.555162157848
 20
1238.080944543926
 30
0.0
 10
2265.502216345773
 20
1237.993523427422
 30
0.0
 10
2265.439849939635
 20
1237.91041114263
 30
0.0
 10
2265.368874596187
 20
1237.832518191074
 30
0.0
 10
2265.291502572178
 20
1237.761091064963
 30
0.0
 10
2265.208513848288
 20
1237.69885170743
 30
0.0
 10
2265.121774808333
 20
1237.645295064802
 30
0.0
 10
2265.030169260813
 20
1237.602561536821
 30
0.0
 10
2264.934912096912
 20
1237.56840615371
 30
0.0
 10
2264.835150769433
 20
1237.545118936549
 30
0.0
 10
2264.731352738553
 20
1237.530097768976
 30
0.0
 10
2264.660569307809
 20
1237.528372902712
 30
0.0
 10
2264.624591835482
 20
1237.527496195724
 30
0.0
  0
SPLINE
  5
3CF
330
3C1
100
AcDbEntity
  8
0
  6
Continuous
 62
     7
370
    15
100
AcDbSpline
210
0.0
220
0.0
230
1.0
 70
     8
 71
     3
 72
    23
 73
    19
 74
     0
 42
0.0000000001
 43
0.0000000001
 40
0.0
 40
0.0
 40
0.0
 40
0.0
 40
0.066570035215191
 40
0.1307490414821766
 40
0.193412800029507
 40
0.254989398889721
 40
0.3161135558759125
 40
0.3772617579089835
 40
0.4394007841555516
 40
0.502970589371981
 40
0.56652497636073
 40
0.628231102513316
 40
0.6890906105998712
 40
0.749344668995814
 40
0.8101695933722151
 40
0.871609824317049
 40
0.9348691840727729
 40
1.0
 40
1.0
 40
1.0
 40
1.0
 10
2264.608566194457
 20
1239.630060298289
 30
0.0
 10
2264.645599397833
 20
1239.629122310077
 30
0.0
 10
2264.718335664665
 20
1239.62728002384
 30
0.0
 10
2264.825235606221
 20
1239.613177678952
 30
0.0
 10
2264.927289946383
 20
1239.588780313256
 30
0.0
 10
2265.025330025699
 20
1239.55628718041
 30
0.0
 10
2265.118183155167
 20
1239.512941817335
 30
0.0
 10
2265.206548236591
 20
1239.460550303998
 30
0.0
 10
2265.290215021634
 20
1239.398563756136
 30
0.0
 10
2265.368055811078
 20
1239.327461340793
 30
0.0
 10
2265.439288354098
 20
1239.250099367135
 30
0.0
 10
2265.502046003394
 20
1239.167540561379
 30
0.0
 10
2265.554641599813
 20
1239.080284102918
 30
0.0
 10
2265.597833478193
 20
1238.988592199694
 30
0.0
 10
2265.631718398018
 20
1238.892672217994
 30
0.0
 10
2265.655100708698
 20
1238.792012787856
 30
0.0
 10
2265.670036794499
 20
1238.687266107815
 30
0.0
 10
2265.671782953018
 20
1238.615822185116
 30
0.0
 10
2265.672668758559
 20
1238.579579529058
 30
0.0
  0
SPLINE
  5
3D0
330
3C1
100
AcDbEntity
  8
0
  6
Continuous
 62
     7
370
    15
100
AcDbSpline
210
0.0
220
0.0
230
1.0
 70
     8
 71
     3
 72
    31
 73
    27
 74
     0
 42
0.0000000001
 43
0.0000000001
 40
0.0
 40
0.0
 40
0.0
 40
0.0
 40
0.0432089861713267
 40
0.0858728716306133
 40
0.1281200066967
 40
0.1701519644541965
 40
0.2119176209878605
 40
0.253753002619123
 40
0.296006408855951
 40
0.3384433571447815
 40
0.381015368162021
 40
0.4228204794407526
 40
0.464089055794314
 40
0.505125848683684
 40
0.545974970685239
 40
0.5869852111338561
 40
0.628338591634658
 40
0.670083801591208
 40
0.7119916023637251
 40
0.75303915486301
 40
0.7940493953116352
 40
0.8348855427015829
 40
0.8754983129295109
 40
0.9165472998303869
 40
0.958003778644964
 40
1.0
 40
1.0
 40
1.0
 40
1.0
 10
2263.570104655995
 20
1238.569964144443
 30
0.0
 10
2263.570410161998
 20
1238.593754241092
 30
0.0
 10
2263.571017319909
 20
1238.641034311668
 30
0.0
 10
2263.578326858463
 20
1238.711243797468
 30
0.0
 10
2263.588933544866
 20
1238.780324173336
 30
0.0
 10
2263.604134637752
 20
1238.848079000744
 30
0.0
 10
2263.624015590316
 20
1238.914342420574
 30
0.0
 10
2263.647473891682
 20
1238.979571427909
 30
0.0
 10
2263.676125231885
 20
1239.043104984335
 30
0.0
 10
2263.708514173622
 20
1239.105244065313
 30
0.0
 10
2263.744663778207
 20
1239.165020011505
 30
0.0
 10
2263.784592777894
 20
1239.221522630448
 30
0.0
 10
2263.826898702733
 20
1239.275226057181
 30
0.0
 10
2263.873277784806
 20
1239.324738630803
 30
0.0
 10
2263.922201467774
 20
1239.371500720169
 30
0.0
 10
2263.974463398137
 20
1239.414793701323
 30
0.0
 10
2264.029744680631
 20
1239.455007959013
 30
0.0
 10
2264.088283183355
 20
1239.491248153916
 30
0.0
 10
2264.148636483286
 20
1239.524024802268
 30
0.0
 10
2264.210851784874
 20
1239.552151574258
 30
0.0
 10
2264.274084111448
 20
1239.576292180835
 30
0.0
 10
2264.338629624548
 20
1239.595858366662
 30
0.0
 10
2264.404316922881
 20
1239.611305244372
 30
0.0
 10
2264.471289371208
 20
1239.621823732206
 30
0.0
 10
2264.539493614796
 20
1239.629151913856
 30
0.0
 10
2264.58544293991
 20
1239.629756200707
 30
0.0
 10
2264.608566194457
 20
1239.630060298289
 30
0.0
  0
SPLINE
  5
3D1
330
3C1
100
AcDbEntity
  8
0
  6
Continuous
 62
     7
370
    15
100
AcDbSpline
210
0.0
220
0.0
230
1.0
 70
     8
 71
     3
 72
    23
 73
    19
 74
     0
 42
0.0000000001
 43
0.0000000001
 40
0.0
 40
0.0
 40
0.0
 40
0.0
 40
0.0658188768433126
 40
0.1297465269068426
 40
0.1920719544880075
 40
0.253459424298198
 40
0.314569587796413
 40
0.376279881188029
 40
0.4390256536685621
 40
0.5032670288290931
 40
0.567492822879296
 40
0.629704795605246
 40
0.690999649215746
 40
0.7514516509174481
 40
0.812004364264696
 40
0.873149681068042
 40
0.9356354837317839
 40
1.0
 40
1.0
 40
1.0
 40
1.0
 10
2264.624591835482
 20
1237.527496195724
 30
0.0
 10
2264.588349367494
 20
1237.528381559642
 30
0.0
 10
2264.516905815529
 20
1237.530126847601
 30
0.0
 10
2264.412027509598
 20
1237.545087650345
 30
0.0
 10
2264.311297370257
 20
1237.568482681088
 30
0.0
 10
2264.215003455278
 20
1237.601916644642
 30
0.0
 10
2264.123092066936
 20
1237.64512649077
 30
0.0
 10
2264.035383448253
 20
1237.697814707379
 30
0.0
 10
2263.95222964983
 20
1237.760333073768
 30
0.0
 10
2263.87432008041
 20
1237.8312854021
 30
0.0
 10
2263.803034824306
 20
1237.908526288966
 30
0.0
 10
2263.740886609624
 20
1237.991288720439
 30
0.0
 10
2263.68818654487
 20
1238.077948981378
 30
0.0
 10
2263.645121783444
 20
1238.168747566586
 30
0.0
 10
2263.611027806676
 20
1238.263245533844
 30
0.0
 10
2263.587767910596
 20
1238.362073235266
 30
0.0
 10
2263.572718795129
 20
1238.464667238589
 30
0.0
 10
2263.570984597139
 20
1238.534520323346
 30
0.0
 10
2263.570104655995
 20
1238.569964144443
 30
0.0
  0
LINE
  5
3D2
330
3C1
100
AcDbEntity
  8
0
  6
Continuous
 62
     7
370
    15
100
AcDbLine
 10
2268.420665553431
 20
1238.681342349571
 30
0.0
 11
2269.480361066252
 21
1237.578778247007
 31
0.0
  0
LINE
  5
3D3
330
3C1
100
AcDbEntity
  8
0
  6
Continuous
 62
     7
370
    15
100
AcDbLine
 10
2269.403437989329
 20
1239.578778247007
 30
0.0
 11
2268.420665553431
 21
1238.681342349571
 31
0.0
  0
LINE
  5
3D4
330
3C1
100
AcDbEntity
  8
0
  6
Continuous
 62
     7
370
    15
100
AcDbLine
 10
2269.147428373944
 20
1239.578778247007
 30
0.0
 11
2269.403437989329
 21
1239.578778247007
 31
0.0
  0
LINE
  5
3D5
330
3C1
100
AcDbEntity
  8
0
  6
Continuous
 62
     7
370
    15
100
AcDbLine
 10
2268.313694399585
 20
1238.817159657263
 30
0.0
 11
2269.147428373944
 21
1239.578778247007
 31
0.0
  0
LINE
  5
3D6
330
3C1
100
AcDbEntity
  8
0
  6
Continuous
 62
     7
370
    15
100
AcDbLine
 10
2268.313694399585
 20
1239.578778247007
 30
0.0
 11
2268.313694399585
 21
1238.817159657263
 31
0.0
  0
LINE
  5
3D7
330
3C1
100
AcDbEntity
  8
0
  6
Continuous
 62
     7
370
    15
100
AcDbLine
 10
2268.134207220098
 20
1239.578778247007
 30
0.0
 11
2268.313694399585
 21
1239.578778247007
 31
0.0
  0
LINE
  5
3D8
330
3C1
100
AcDbEntity
  8
0
  6
Continuous
 62
     7
370
    15
100
AcDbLine
 10
2268.134207220098
 20
1237.578778247007
 30
0.0
 11
2268.134207220098
 21
1239.578778247007
 31
0.0
  0
LINE
  5
3D9
330
3C1
100
AcDbEntity
  8
0
  6
Continuous
 62
     7
370
    15
100
AcDbLine
 10
2269.817300168816
 20
1237.578778247007
 30
0.0
 11
2269.621386707277
 21
1237.578778247007
 31
0.0
  0
LINE
  5
3DA
330
3C1
100
AcDbEntity
  8
0
  6
Continuous
 62
     7
370
    15
100
AcDbLine
 10
2270.121386707277
 20
1238.219803888032
 30
0.0
 11
2269.817300168816
 21
1237.578778247007
 31
0.0
  0
LINE
  5
3DB
330
3C1
100
AcDbEntity
  8
0
  6
Continuous
 62
     7
370
    15
100
AcDbLine
 10
2271.323710425226
 20
1237.578778247007
 30
0.0
 11
2271.028037348303
 21
1238.219803888032
 31
0.0
  0
LINE
  5
3DC
330
3C1
100
AcDbEntity
  8
0
  6
Continuous
 62
     7
370
    15
100
AcDbLine
 10
2271.518822604713
 20
1237.578778247007
 30
0.0
 11
2271.323710425226
 21
1237.578778247007
 31
0.0
  0
LINE
  5
3DD
330
3C1
100
AcDbEntity
  8
0
  6
Continuous
 62
     7
370
    15
100
AcDbLine
 10
2270.595745681637
 20
1239.578778247007
 30
0.0
 11
2271.518822604713
 21
1237.578778247007
 31
0.0
  0
LINE
  5
3DE
330
3C1
100
AcDbEntity
  8
0
  6
Continuous
 62
     7
370
    15
100
AcDbLine
 10
2270.570104655995
 20
1239.578778247007
 30
0.0
 11
2270.595745681637
 21
1239.578778247007
 31
0.0
  0
LINE
  5
3DF
330
3C1
100
AcDbEntity
  8
0
  6
Continuous
 62
     7
370
    15
100
AcDbLine
 10
2269.621386707277
 20
1237.578778247007
 30
0.0
 11
2270.570104655995
 21
1239.578778247007
 31
0.0
  0
LINE
  5
3E0
330
3C1
100
AcDbEntity
  8
0
  6
Continuous
 62
     7
370
    15
100
AcDbLine
 10
2267.580521322662
 20
1237.578778247007
 30
0.0
 11
2266.262412348303
 21
1239.14929106752
 31
0.0
  0
LINE
  5
3E1
330
3C1
100
AcDbEntity
  8
0
  6
Continuous
 62
     7
370
    15
100
AcDbLine
 10
2267.621386707277
 20
1237.578778247007
 30
0.0
 11
2267.580521322662
 21
1237.578778247007
 31
0.0
  0
LINE
  5
3E2
330
3C1
100
AcDbEntity
  8
0
  6
Continuous
 62
     7
370
    15
100
AcDbLine
 10
2267.621386707277
 20
1239.578778247007
 30
0.0
 11
2267.621386707277
 21
1237.578778247007
 31
0.0
  0
LINE
  5
3E3
330
3C1
100
AcDbEntity
  8
0
  6
Continuous
 62
     7
370
    15
100
AcDbLine
 10
2267.44189952779
 20
1239.578778247007
 30
0.0
 11
2267.621386707277
 21
1239.578778247007
 31
0.0
  0
LINE
  5
3E4
330
3C1
100
AcDbEntity
  8
0
  6
Continuous
 62
     7
370
    15
100
AcDbLine
 10
2267.44189952779
 20
1238.004659657264
 30
0.0
 11
2267.44189952779
 21
1239.578778247007
 31
0.0
  0
LINE
  5
3E5
330
3C1
100
AcDbEntity
  8
0
  6
Continuous
 62
     7
370
    15
100
AcDbLine
 10
2266.120585425226
 20
1239.578778247007
 30
0.0
 11
2267.44189952779
 21
1238.004659657264
 31
0.0
  0
LINE
  5
3E6
330
3C1
100
AcDbEntity
  8
0
  6
Continuous
 62
     7
370
    15
100
AcDbLine
 10
2266.082925168816
 20
1239.578778247007
 30
0.0
 11
2266.120585425226
 21
1239.578778247007
 31
0.0
  0
LINE
  5
3E7
330
3C1
100
AcDbEntity
  8
0
  6
Continuous
 62
     7
370
    15
100
AcDbLine
 10
2266.262412348303
 20
1237.578778247007
 30
0.0
 11
2266.082925168816
 21
1237.578778247007
 31
0.0
  0
LINE
  5
3E8
330
3C1
100
AcDbEntity
  8
0
  6
Continuous
 62
     7
370
    15
100
AcDbLine
 10
2266.262412348303
 20
1239.14929106752
 30
0.0
 11
2266.262412348303
 21
1237.578778247007
 31
0.0
  0
ARC
  5
3E9
330
3C1
100
AcDbEntity
  8
0
  6
Continuous
 62
     7
370
    15
100
AcDbCircle
 10
2275.519451923251
 20
1236.645403563106
 30
0.0
 40
0.4499999999999887
100
AcDbArc
 50
270.0
 51
326.7502530145534
  0
LINE
  5
3EA
330
3C1
100
AcDbEntity
  8
0
  6
Continuous
 62
     7
370
    15
100
AcDbLine
 10
2262.873417700492
 20
1236.195403563106
 30
0.0
 11
2275.519451923251
 21
1236.195403563106
 31
0.0
  0
ARC
  5
3EB
330
3C1
100
AcDbEntity
  8
0
  6
Continuous
 62
     7
370
    15
100
AcDbCircle
 10
2262.873417700492
 20
1236.645403563106
 30
0.0
 40
0.4499999999999887
100
AcDbArc
 50
180.0
 51
270.0
  0
LINE
  5
3EC
330
3C1
100
AcDbEntity
  8
0
  6
Continuous
 62
     7
370
    15
100
AcDbLine
 10
2262.423417700492
 20
1240.566865248656
 30
0.0
 11
2262.423417700492
 21
1236.645403563106
 31
0.0
  0
ARC
  5
3ED
330
3C1
100
AcDbEntity
  8
0
  6
Continuous
 62
     7
370
    15
100
AcDbCircle
 10
2262.873417700492
 20
1240.566865248656
 30
0.0
 40
0.4500000000001032
100
AcDbArc
 50
110.1742620453414
 51
180.0
  0
LINE
  5
3EE
330
3C1
100
AcDbEntity
  8
0
  6
Continuous
 62
     7
370
    15
100
AcDbLine
 10
2265.897445391447
 20
1242.157361653504
 30
0.0
 11
2262.718223238683
 21
1240.989256866736
 31
0.0
  0
LINE
  5
3EF
330
3C1
100
AcDbEntity
  8
0
  6
Continuous
 62
     7
370
    15
100
AcDbLine
 10
2275.895781782931
 20
1236.398673271669
 30
0.0
 11
2276.649747560173
 21
1237.548673271669
 31
0.0
  0
LINE
  5
3F0
330
3C1
100
AcDbEntity
  8
0
  6
Continuous
 62
     7
370
    15
100
AcDbLine
 10
2268.313694399585
 20
1237.578778247007
 30
0.0
 11
2268.134207220098
 21
1237.578778247007
 31
0.0
  0
LINE
  5
3F1
330
3C1
100
AcDbEntity
  8
0
  6
Continuous
 62
     7
370
    15
100
AcDbLine
 10
2266.082925168816
 20
1237.578778247007
 30
0.0
 11
2266.082925168816
 21
1239.578778247007
 31
0.0
  0
LINE
  5
3F2
330
3C1
100
AcDbEntity
  8
0
  6
Continuous
 62
     7
370
    15
100
AcDbLine
 10
2269.241178373944
 20
1237.578778247007
 30
0.0
 11
2268.313694399585
 21
1238.543922477776
 31
0.0
  0
LINE
  5
3F3
330
3C1
100
AcDbEntity
  8
0
  6
Continuous
 62
     7
370
    15
100
AcDbLine
 10
2271.028037348303
 20
1238.219803888032
 30
0.0
 11
2270.121386707277
 21
1238.219803888032
 31
0.0
  0
LINE
  5
3F4
330
3C1
100
AcDbEntity
  8
0
  6
Continuous
 62
     7
370
    15
100
AcDbLine
 10
2268.313694399585
 20
1238.543922477776
 30
0.0
 11
2268.313694399585
 21
1237.578778247007
 31
0.0
  0
LINE
  5
3F5
330
3C1
100
AcDbEntity
  8
0
  6
Continuous
 62
     7
370
    15
100
AcDbLine
 10
2269.480361066252
 20
1237.578778247007
 30
0.0
 11
2269.241178373944
 21
1237.578778247007
 31
0.0
  0
LINE
  5
3F6
330
3C1
100
AcDbEntity
  8
0
  6
Continuous
 62
     7
370
    15
100
AcDbLine
 10
2262.423417700492
 20
1236.645403563106
 30
0.0
 11
2262.173417700493
 21
1236.645403563106
 31
0.0
  0
LINE
  5
3F7
330
3C1
100
AcDbEntity
  8
0
  6
Continuous
 62
     7
370
    15
100
AcDbLine
 10
2262.173417700493
 20
1236.645403563106
 30
0.0
 11
2262.173417700493
 21
1240.566865248656
 31
0.0
  0
LINE
  5
3F8
330
3C1
100
AcDbEntity
  8
0
  6
Continuous
 62
     7
370
    15
100
AcDbLine
 10
2262.173417700493
 20
1240.566865248656
 30
0.0
 11
2262.423417700492
 21
1240.566865248656
 31
0.0
  0
LINE
  5
3F9
330
3C1
100
AcDbEntity
  8
0
  6
Continuous
 62
     7
370
    15
100
AcDbLine
 10
2276.85881970444
 20
1237.411600887537
 30
0.0
 11
2276.104853927198
 21
1236.261600887537
 31
0.0
  0
LINE
  5
3FA
330
3C1
100
AcDbEntity
  8
0
  6
Continuous
 62
     7
370
    15
100
AcDbLine
 10
2275.895781782931
 20
1236.398673271669
 30
0.0
 11
2276.104853927198
 21
1236.261600887537
 31
0.0
  0
ARC
  5
3FB
330
3C1
100
AcDbEntity
  8
0
  6
Continuous
 62
     7
370
    15
100
AcDbCircle
 10
2262.873417700492
 20
1240.566865248656
 30
0.0
 40
0.7000000000001161
100
AcDbArc
 50
110.1742620453659
 51
180.0
  0
LINE
  5
3FC
330
3C1
100
AcDbEntity
  8
0
  6
Continuous
 62
     7
370
    15
100
AcDbLine
 10
2262.632004093234
 20
1241.22391887678
 30
0.0
 11
2262.718223238683
 21
1240.989256866736
 31
0.0
  0
ARC
  5
3FD
330
3C1
100
AcDbEntity
  8
0
  6
Continuous
 62
     7
370
    15
100
AcDbCircle
 10
2275.519451923251
 20
1236.645403563106
 30
0.0
 40
0.7000000000000143
100
AcDbArc
 50
270.0
 51
326.7502530145534
  0
LINE
  5
3FE
330
3C1
100
AcDbEntity
  8
0
  6
Continuous
 62
     7
370
    15
100
AcDbLine
 10
2275.519451923251
 20
1236.195403563106
 30
0.0
 11
2275.519451923251
 21
1235.945403563106
 31
0.0
  0
LINE
  5
3FF
330
3C1
100
AcDbEntity
  8
0
  6
Continuous
 62
     7
370
    15
100
AcDbLine
 10
2270.580921963688
 20
1239.188954529058
 30
0.0
 11
2270.218742476509
 21
1238.424932093161
 31
0.0
  0
LINE
  5
400
330
3C1
100
AcDbEntity
  8
0
  6
Continuous
 62
     7
370
    15
100
AcDbLine
 10
2270.218742476509
 20
1238.424932093161
 30
0.0
 11
2270.933486066252
 21
1238.424932093161
 31
0.0
  0
LINE
  5
401
330
3C1
100
AcDbEntity
  8
0
  6
Continuous
 62
     7
370
    15
100
AcDbLine
 10
2270.933486066252
 20
1238.424932093161
 30
0.0
 11
2270.580921963688
 21
1239.188954529058
 31
0.0
  0
SPLINE
  5
402
330
3C1
100
AcDbEntity
  8
0
  6
Continuous
 62
     7
370
    15
100
AcDbSpline
210
0.0
220
0.0
230
1.0
 70
     8
 71
     3
 72
    31
 73
    27
 74
     0
 42
0.0000000001
 43
0.0000000001
 40
0.0
 40
0.0
 40
0.0
 40
0.0
 40
0.0420233285259403
 40
0.0836449111687154
 40
0.124983795417396
 40
0.166247461172907
 40
0.207701556097003
 40
0.249631070799651
 40
0.291741770332139
 40
0.3347428753531945
 40
0.377460168550867
 40
0.419556318841936
 40
0.4610441763330411
 40
0.502096283944406
 40
0.5428907140756
 40
0.583800818626512
 40
0.624863583310194
 40
0.666224689069158
 40
0.70739918647794
 40
0.748556677536686
 40
0.7896545909521761
 40
0.830739726489838
 40
0.8720701422586
 40
0.9139933952421339
 40
0.956498130067581
 40
1.0
 40
1.0
 40
1.0
 40
1.0
 10
2264.617380297021
 20
1239.424932093161
 30
0.0
 10
2264.598400506423
 20
1239.424700727302
 30
0.0
 10
2264.560622373319
 20
1239.424240207457
 30
0.0
 10
2264.504459781177
 20
1239.418174084273
 30
0.0
 10
2264.449035818989
 20
1239.409528433432
 30
0.0
 10
2264.394339040604
 20
1239.397196135852
 30
0.0
 10
2264.340598303816
 20
1239.380393819982
 30
0.0
 10
2264.28731268029
 20
1239.361056158159
 30
0.0
 10
2264.234968078079
 20
1239.337501249248
 30
0.0
 10
2264.183737302161
 20
1239.310888275322
 30
0.0
 10
2264.134071544935
 20
1239.281431749149
 30
0.0
 10
2264.087207144103
 20
1239.2488764537
 30
0.0
 10
2264.043022776125
 20
1239.213985851273
 30
0.0
 10
2264.001626623751
 20
1239.176678515629
 30
0.0
 10
2263.963140239651
 20
1239.136764457462
 30
0.0
 10
2263.926806124536
 20
1239.094848779681
 30
0.0
 10
2263.894080649309
 20
1239.04973341337
 30
0.0
 10
2263.864088891122
 20
1239.002641752303
 30
0.0
 10
2263.837250125249
 20
1238.953635134472
 30
0.0
 10
2263.813384208265
 20
1238.90322949889
 30
0.0
 10
2263.79386191752
 20
1238.851013677874
 30
0.0
 10
2263.777940559643
 20
1238.797554159259
 30
0.0
 10
2263.76474066773
 20
1238.742935610879
 30
0.0
 10
2263.75637842539
 20
1238.686743697257
 30
0.0
 10
2263.750245648563
 20
1238.629260776097
 30
0.0
 10
2263.749811451162
 20
1238.590414002359
 30
0.0
 10
2263.749591835482
 20
1238.570765426494
 30
0.0
  0
SPLINE
  5
403
330
3C1
100
AcDbEntity
  8
0
  6
Continuous
 62
     7
370
    15
100
AcDbSpline
210
0.0
220
0.0
230
1.0
 70
     8
 71
     3
 72
    31
 73
    27
 74
     0
 42
0.0000000001
 43
0.0000000001
 40
0.0
 40
0.0
 40
0.0
 40
0.0
 40
0.0436332182657604
 40
0.0865377766972013
 40
0.1291773360898848
 40
0.17143632366383
 40
0.213415894570893
 40
0.255265954553841
 40
0.2973694811566105
 40
0.3399407478985545
 40
0.38234745875181
 40
0.4239529468152715
 40
0.464871163261009
 40
0.505572294118271
 40
0.5460025771083111
 40
0.5865679748069191
 40
0.6270647991481651
 40
0.6682706840331701
 40
0.7095492248503321
 40
0.7504281535131791
 40
0.791096194448593
 40
0.832027144779426
 40
0.87313595533597
 40
0.9146107643654438
 40
0.9569559864804229
 40
1.0
 40
1.0
 40
1.0
 40
1.0
 10
2264.617380297021
 20
1237.732624400853
 30
0.0
 10
2264.637157155085
 20
1237.732896117634
 30
0.0
 10
2264.676380604442
 20
1237.733435013618
 30
0.0
 10
2264.73472090293
 20
1237.738862828953
 30
0.0
 10
2264.792010166775
 20
1237.747566754335
 30
0.0
 10
2264.848168040993
 20
1237.76009855754
 30
0.0
 10
2264.903130790357
 20
1237.775782675499
 30
0.0
 10
2264.957127820708
 20
1237.794415662904
 30
0.0
 10
2265.009583986605
 20
1237.817662065008
 30
0.0
 10
2265.061161036777
 20
1237.843346608768
 30
0.0
 10
2265.110530317743
 20
1237.872626698787
 30
0.0
 10
2265.157659193338
 20
1237.904077070021
 30
0.0
 10
2265.201359753255
 20
1237.938916281855
 30
0.0
 10
2265.242724936924
 20
1237.975669317595
 30
0.0
 10
2265.281369330634
 20
1238.015077230656
 30
0.0
 10
2265.317031607334
 20
1238.057088785997
 30
0.0
 10
2265.349591682848
 20
1238.101969161559
 30
0.0
 10
2265.37957205234
 20
1238.14898939341
 30
0.0
 10
2265.406316773914
 20
1238.198130109231
 30
0.0
 10
2265.429619116229
 20
1238.24871849663
 30
0.0
 10
2265.449388325276
 20
1238.300629987696
 30
0.0
 10
2265.465347470892
 20
1238.353939457114
 30
0.0
 10
2265.477853448996
 20
1238.408545656412
 30
0.0
 10
2265.486470546087
 20
1238.464521701075
 30
0.0
 10
2265.492498225314
 20
1238.52175561107
 30
0.0
 10
2265.492952555135
 20
1238.560466385905
 30
0.0
 10
2265.493181579072
 20
1238.579980170084
 30
0.0
  0
SPLINE
  5
404
330
3C1
100
AcDbEntity
  8
0
  6
Continuous
 62
     7
370
    15
100
AcDbSpline
210
0.0
220
0.0
230
1.0
 70
     8
 71
     3
 72
    31
 73
    27
 74
     0
 42
0.0000000001
 43
0.0000000001
 40
0.0
 40
0.0
 40
0.0
 40
0.0
 40
0.0429150821010498
 40
0.0851299705846959
 40
0.1264733185549942
 40
0.167453037885382
 40
0.2079763328949845
 40
0.248249378063759
 40
0.2887499869834445
 40
0.329669856910869
 40
0.37053728671198
 40
0.411128563917128
 40
0.4518189126736451
 40
0.492405876934268
 40
0.533485861742029
 40
0.5752630624415511
 40
0.6174406128021851
 40
0.6606716882923731
 40
0.703940204243499
 40
0.7468675221598719
 40
0.7890793003947271
 40
0.83110404245742
 40
0.8732379898547851
 40
0.91516576965933
 40
0.957380658142997
 40
1.0
 40
1.0
 40
1.0
 40
1.0
 10
2265.493181579072
 20
1238.579980170084
 30
0.0
 10
2265.492952371657
 20
1238.599360458237
 30
0.0
 10
2265.492497696525
 20
1238.637804829765
 30
0.0
 10
2265.486473425311
 20
1238.694639583114
 30
0.0
 10
2265.4778443451
 20
1238.750212846813
 30
0.0
 10
2265.465408511934
 20
1238.804306448525
 30
0.0
 10
2265.449379852657
 20
1238.856934177135
 30
0.0
 10
2265.429615663864
 20
1238.908046604393
 30
0.0
 10
2265.40630977845
 20
1238.95783414444
 30
0.0
 10
2265.37956222166
 20
1239.006173742726
 30
0.0
 10
2265.349496036816
 20
1239.05255930729
 30
0.0
 10
2265.316642183496
 20
1239.096903543019
 30
0.0
 10
2265.28043341313
 20
1239.138373680911
 30
0.0
 10
2265.241904256059
 20
1239.177993506078
 30
0.0
 10
2265.200092321585
 20
1239.214918014426
 30
0.0
 10
2265.155187010682
 20
1239.249159454801
 30
0.0
 10
2265.107733480533
 20
1239.281544182966
 30
0.0
 10
2265.057489346
 20
1239.310758789733
 30
0.0
 10
2265.005635658153
 20
1239.337738351283
 30
0.0
 10
2264.952427682169
 20
1239.360853210223
 30
0.0
 10
2264.898468196673
 20
1239.380494421301
 30
0.0
 10
2264.843894418198
 20
1239.397246972759
 30
0.0
 10
2264.788247002007
 20
1239.409480132841
 30
0.0
 10
2264.731901956952
 20
1239.418181875618
 30
0.0
 10
2264.674937237765
 20
1239.424238096129
 30
0.0
 10
2264.636626826495
 20
1239.424700026721
 30
0.0
 10
2264.617380297021
 20
1239.424932093161
 30
0.0
  0
SPLINE
  5
405
330
3C1
100
AcDbEntity
  8
0
  6
Continuous
 62
     7
370
    15
100
AcDbSpline
210
0.0
220
0.0
230
1.0
 70
     8
 71
     3
 72
    23
 73
    19
 74
     0
 42
0.0000000001
 43
0.0000000001
 40
0.0
 40
0.0
 40
0.0
 40
0.0
 40
0.0645039992970416
 40
0.126899321590046
 40
0.187746540100007
 40
0.248149732929817
 40
0.308586064762737
 40
0.36958300508699
 40
0.431826965381046
 40
0.496179722524161
 40
0.560667854611876
 40
0.623504455117654
 40
0.6852604113304161
 40
0.746536821751172
 40
0.8083273517366919
 40
0.8704861878877549
 40
0.9343168833592429
 40
1.0
 40
1.0
 40
1.0
 40
1.0
 10
2263.749591835482
 20
1238.570765426494
 30
0.0
 10
2263.75032032803
 20
1238.541872728892
 30
0.0
 10
2263.751753498237
 20
1238.485031854458
 30
0.0
 10
2263.76430068116
 20
1238.401735772238
 30
0.0
 10
2263.783627523704
 20
1238.321685322899
 30
0.0
 10
2263.812117447383
 20
1238.245318517588
 30
0.0
 10
2263.847746370044
 20
1238.171978927398
 30
0.0
 10
2263.891761735915
 20
1238.102317153291
 30
0.0
 10
2263.943909784812
 20
1238.036314367941
 30
0.0
 10
2264.003146085727
 20
1237.974431357101
 30
0.0
 10
2264.06790191807
 20
1237.917948040393
 30
0.0
 10
2264.136663478029
 20
1237.868368949738
 30
0.0
 10
2264.208694110878
 20
1237.826420235554
 30
0.0
 10
2264.284181655286
 20
1237.792245908477
 30
0.0
 10
2264.36272310616
 20
1237.765166058306
 30
0.0
 10
2264.444824563895
 20
1237.746606840519
 30
0.0
 10
2264.529939112229
 20
1237.734392294595
 30
0.0
 10
2264.587956629464
 20
1237.733219291211
 30
0.0
 10
2264.617380297021
 20
1237.732624400853
 30
0.0
  0
LINE
  5
406
330
3C1
100
AcDbEntity
  8
0
  6
Continuous
 62
     7
370
    15
100
AcDbLine
 10
2262.873417700492
 20
1236.195403563106
 30
0.0
 11
2262.873417700492
 21
1235.945403563106
 31
0.0
  0
ARC
  5
407
330
3C1
100
AcDbEntity
  8
0
  6
Continuous
 62
     7
370
    15
100
AcDbCircle
 10
2262.873417700492
 20
1236.645403563106
 30
0.0
 40
0.6999999999999887
100
AcDbArc
 50
180.0
 51
270.0
  0
LINE
  5
408
330
3C1
100
AcDbEntity
  8
0
  6
Continuous
 62
     7
370
    15
100
AcDbLine
 10
2275.519451923251
 20
1235.945403563106
 30
0.0
 11
2262.873417700492
 21
1235.945403563106
 31
0.0
  0
LINE
  5
409
330
3C1
100
AcDbEntity
  8
0
  6
Continuous
 62
     7
370
    15
100
AcDbLine
 10
2262.632004093234
 20
1241.22391887678
 30
0.0
 11
2265.811226245998
 21
1242.392023663548
 31
0.0
  0
ENDBLK
  5
3C3
330
3C1
100
AcDbEntity
  8
0
100
AcDbBlockEnd
  0
BLOCK
  5
40C
330
40B
100
AcDbEntity
  8
0
100
AcDbBlockBegin
  2
2
 70
     0
 10
0.0
 20
0.0
 30
0.0
  3
2
  1

  0
ARC
  5
40E
330
40B
100
AcDbEntity
  8
0
  6
Continuous
 62
     7
370
    15
100
AcDbCircle
 10
2276.723417700492
 20
1203.825988272263
 30
0.0
 40
0.25
100
AcDbArc
 50
270.0
 51
0.0
  0
LINE
  5
40F
330
40B
100
AcDbEntity
  8
0
  6
Continuous
 62
     7
370
    15
100
AcDbLine
 10
2276.973417700492
 20
1203.825988272263
 30
0.0
 11
2276.973417700492
 21
1209.975988272263
 31
0.0
  0
LINE
  5
410
330
40B
100
AcDbEntity
  8
0
  6
Continuous
 62
     7
370
    15
100
AcDbLine
 10
2276.152707158289
 20
1209.975988272263
 30
0.0
 11
2276.152707158289
 21
1213.575988272263
 31
0.0
  0
LINE
  5
411
330
40B
100
AcDbEntity
  8
0
  6
Continuous
 62
     7
370
    15
100
AcDbLine
 10
2267.70292663869
 20
1213.575988272263
 30
0.0
 11
2267.70292663869
 21
1203.825988272263
 31
0.0
  0
LINE
  5
412
330
40B
100
AcDbEntity
  8
0
  6
Continuous
 62
     7
370
    15
100
AcDbLine
 10
2265.811226245998
 20
1203.825988272263
 30
0.0
 11
2267.70292663869
 21
1203.825988272263
 31
0.0
  0
LINE
  5
413
330
40B
100
AcDbEntity
  8
0
  6
Continuous
 62
     7
370
    15
100
AcDbLine
 10
2265.811226245998
 20
1213.575988272263
 30
0.0
 11
2265.811226245998
 21
1203.825988272263
 31
0.0
  0
LINE
  5
414
330
40B
100
AcDbEntity
  8
0
  6
Continuous
 62
     7
370
    15
100
AcDbLine
 10
2265.811226245998
 20
1213.575988272263
 30
0.0
 11
2267.70292663869
 21
1213.575988272263
 31
0.0
  0
SPLINE
  5
415
330
40B
100
AcDbEntity
  8
0
  6
Continuous
 62
     7
370
    15
100
AcDbSpline
210
0.0
220
0.0
230
1.0
 70
     8
 71
     3
 72
    10
 73
     6
 74
     0
 42
0.0000000001
 43
0.0000000001
 40
0.0
 40
0.0
 40
0.0
 40
0.0
 40
0.5
 40
0.5
 40
1.0
 40
1.0
 40
1.0
 40
1.0
 10
2267.70292663869
 20
1203.825988272263
 30
0.0
 10
2267.70292663869
 20
1203.759926029318
 30
0.0
 10
2267.691897430777
 20
1203.695326142292
 30
0.0
 10
2267.654345203379
 20
1203.603077037162
 30
0.0
 10
2267.62772177761
 20
1203.575988272263
 30
0.0
 10
2267.601155764133
 20
1203.575988272263
 30
0.0
  0
LINE
  5
416
330
40B
100
AcDbEntity
  8
0
  6
Continuous
 62
     7
370
    15
100
AcDbLine
 10
2267.601155764132
 20
1203.575988272263
 30
0.0
 11
2265.897445391447
 21
1203.575988272263
 31
0.0
  0
LWPOLYLINE
  5
417
330
40B
100
AcDbEntity
  8
0
  6
Continuous
 62
     7
370
    15
100
AcDbPolyline
 90
        9
 70
   128
 43
0.0
 10
2265.811226245998
 20
1203.825988272263
 10
2265.812882922701
 20
1203.777215691759
 10
2265.817789287655
 20
1203.730317414171
 10
2265.825756792008
 20
1203.687095714008
 10
2265.836479249032
 20
1203.649211576966
 10
2265.849544600719
 20
1203.618120869187
 10
2265.864450752931
 20
1203.595018389135
 10
2265.880624870598
 20
1203.580791952162
 10
2265.897445391447
 20
1203.575988272263
  0
LINE
  5
418
330
40B
100
AcDbEntity
  8
0
  6
Continuous
 62
     7
370
    15
100
AcDbLine
 10
2262.632004093234
 20
1203.825988272263
 30
0.0
 11
2265.811226245998
 21
1203.825988272263
 31
0.0
  0
LINE
  5
419
330
40B
100
AcDbEntity
  8
0
  6
Continuous
 62
     7
370
    15
100
AcDbLine
 10
2265.897445391447
 20
1203.575988272263
 30
0.0
 11
2262.718223238683
 21
1203.575988272263
 31
0.0
  0
LWPOLYLINE
  5
41A
330
40B
100
AcDbEntity
  8
0
  6
Continuous
 62
     7
370
    15
100
AcDbPolyline
 90
        9
 70
   128
 43
0.0
 10
2262.632004093234
 20
1203.825988272263
 10
2262.633660769937
 20
1203.777215691759
 10
2262.638567134892
 20
1203.730317414171
 10
2262.646534639243
 20
1203.687095714008
 10
2262.657257096268
 20
1203.649211576966
 10
2262.670322447955
 20
1203.618120869187
 10
2262.685228600167
 20
1203.595018389135
 10
2262.701402717834
 20
1203.580791952162
 10
2262.718223238683
 20
1203.575988272263
  0
LINE
  5
41B
330
40B
100
AcDbEntity
  8
0
  6
Continuous
 62
     7
370
    15
100
AcDbLine
 10
2262.632004093234
 20
1213.575988272263
 30
0.0
 11
2262.632004093234
 21
1203.825988272263
 31
0.0
  0
LINE
  5
41C
330
40B
100
AcDbEntity
  8
0
  6
Continuous
 62
     7
370
    15
100
AcDbLine
 10
2262.632004093234
 20
1213.575988272263
 30
0.0
 11
2265.811226245998
 21
1213.575988272263
 31
0.0
  0
LINE
  5
41D
330
40B
100
AcDbEntity
  8
0
  6
Continuous
 62
     7
370
    15
100
AcDbLine
 10
2267.70292663869
 20
1203.825988272263
 30
0.0
 11
2276.561680203187
 21
1203.825988272263
 31
0.0
  0
SPLINE
  5
41E
330
40B
100
AcDbEntity
  8
0
  6
Continuous
 62
     7
370
    15
100
AcDbSpline
210
0.0
220
0.0
230
1.0
 70
     8
 71
     3
 72
    10
 73
     6
 74
     0
 42
0.0000000001
 43
0.0000000001
 40
0.0
 40
0.0
 40
0.0
 40
0.0
 40
0.5
 40
0.5
 40
1.0
 40
1.0
 40
1.0
 40
1.0
 10
2276.561680203187
 20
1203.825988272263
 30
0.0
 10
2276.561680203187
 20
1203.759929924588
 30
0.0
 10
2276.550654584486
 20
1203.695333827567
 30
0.0
 10
2276.513087434981
 20
1203.60308570522
 30
0.0
 10
2276.486420903989
 20
1203.575988272263
 30
0.0
 10
2276.45980741864
 20
1203.575988272263
 30
0.0
  0
LINE
  5
41F
330
40B
100
AcDbEntity
  8
0
  6
Continuous
 62
     7
370
    15
100
AcDbLine
 10
2276.459807418874
 20
1203.575988272263
 30
0.0
 11
2267.601155764132
 21
1203.575988272263
 31
0.0
  0
LINE
  5
420
330
40B
100
AcDbEntity
  8
0
  6
Continuous
 62
     7
370
    15
100
AcDbLine
 10
2272.711290988268
 20
1213.575988272263
 30
0.0
 11
2272.711290988268
 21
1209.975988272263
 31
0.0
  0
LINE
  5
421
330
40B
100
AcDbEntity
  8
0
  6
Continuous
 62
     7
370
    15
100
AcDbLine
 10
2276.561680203187
 20
1209.975988272263
 30
0.0
 11
2272.711290988268
 21
1209.975988272263
 31
0.0
  0
LINE
  5
422
330
40B
100
AcDbEntity
  8
0
  6
Continuous
 62
     7
370
    15
100
AcDbLine
 10
2276.561680203187
 20
1209.975988272263
 30
0.0
 11
2276.561680203187
 21
1203.825988272263
 31
0.0
  0
LINE
  5
423
330
40B
100
AcDbEntity
  8
0
  6
Continuous
 62
     7
370
    15
100
AcDbLine
 10
2267.70292663869
 20
1213.575988272263
 30
0.0
 11
2272.711290988268
 21
1213.575988272263
 31
0.0
  0
LINE
  5
424
330
40B
100
AcDbEntity
  8
0
  6
Continuous
 62
     7
370
    15
100
AcDbLine
 10
2262.173417700493
 20
1203.825988272263
 30
0.0
 11
2262.632004093234
 21
1203.825988272263
 31
0.0
  0
LINE
  5
425
330
40B
100
AcDbEntity
  8
0
  6
Continuous
 62
     7
370
    15
100
AcDbLine
 10
2262.173417700493
 20
1213.575988272263
 30
0.0
 11
2262.173417700493
 21
1203.825988272263
 31
0.0
  0
LINE
  5
426
330
40B
100
AcDbEntity
  8
0
  6
Continuous
 62
     7
370
    15
100
AcDbLine
 10
2262.173417700493
 20
1213.575988272263
 30
0.0
 11
2262.632004093234
 21
1213.575988272263
 31
0.0
  0
ARC
  5
427
330
40B
100
AcDbEntity
  8
0
  6
Continuous
 62
     7
370
    15
100
AcDbCircle
 10
2262.423417700492
 20
1203.825988272263
 30
0.0
 40
0.25
100
AcDbArc
 50
180.0
 51
270.0
  0
LINE
  5
428
330
40B
100
AcDbEntity
  8
0
  6
Continuous
 62
     7
370
    15
100
AcDbLine
 10
2262.718223238683
 20
1203.575988272263
 30
0.0
 11
2262.423417700492
 21
1203.575988272263
 31
0.0
  0
LINE
  5
429
330
40B
100
AcDbEntity
  8
0
  6
Continuous
 62
     7
370
    15
100
AcDbLine
 10
2276.723417700492
 20
1203.575988272263
 30
0.0
 11
2276.459807418874
 21
1203.575988272263
 31
0.0
  0
LINE
  5
42A
330
40B
100
AcDbEntity
  8
0
  6
Continuous
 62
     7
370
    15
100
AcDbLine
 10
2276.973417700492
 20
1209.975988272263
 30
0.0
 11
2276.561680203187
 21
1209.975988272263
 31
0.0
  0
LINE
  5
42B
330
40B
100
AcDbEntity
  8
0
  6
Continuous
 62
     7
370
    15
100
AcDbLine
 10
2275.911880260657
 20
1213.575988272263
 30
0.0
 11
2275.911880260657
 21
1209.975988272263
 31
0.0
  0
LINE
  5
42C
330
40B
100
AcDbEntity
  8
0
  6
Continuous
 62
     7
370
    15
100
AcDbLine
 10
2275.911880260657
 20
1213.575988272263
 30
0.0
 11
2276.152707158289
 21
1213.575988272263
 31
0.0
  0
LINE
  5
42D
330
40B
100
AcDbEntity
  8
0
  6
Continuous
 62
     7
370
    15
100
AcDbLine
 10
2272.711290988268
 20
1213.575988272263
 30
0.0
 11
2275.911880260657
 21
1213.575988272263
 31
0.0
  0
LINE
  5
42E
330
40B
100
AcDbEntity
  8
0
  6
Continuous
 62
     8
370
    15
100
AcDbLine
 10
2276.561680203187
 20
1203.825988272263
 30
0.0
 11
2276.973417700492
 21
1203.825988272263
 31
0.0
  0
ENDBLK
  5
40D
330
40B
100
AcDbEntity
  8
0
100
AcDbBlockEnd
  0
BLOCK
  5
431
330
430
100
AcDbEntity
  8
0
100
AcDbBlockBegin
  2
3
 70
     0
 10
0.0
 20
0.0
 30
0.0
  3
3
  1

  0
LINE
  5
433
330
430
100
AcDbEntity
  8
0
  6
Continuous
 62
     7
370
    15
100
AcDbLine
 10
2304.992832991337
 20
1242.545403563106
 30
0.0
 11
2295.242832991337
 21
1242.545403563106
 31
0.0
  0
ARC
  5
434
330
430
100
AcDbEntity
  8
0
  6
Continuous
 62
     7
370
    15
100
AcDbCircle
 10
2304.992832991337
 20
1242.295403563106
 30
0.0
 40
0.25
100
AcDbArc
 50
0.0
 51
90.0
  0
LINE
  5
435
330
430
100
AcDbEntity
  8
0
  6
Continuous
 62
     7
370
    15
100
AcDbLine
 10
2295.242832991337
 20
1236.645403563106
 30
0.0
 11
2304.992832991337
 21
1236.645403563106
 31
0.0
  0
LINE
  5
436
330
430
100
AcDbEntity
  8
0
  6
Continuous
 62
     7
370
    15
100
AcDbLine
 10
2304.992832991337
 20
1235.945403563106
 30
0.0
 11
2304.992832991337
 21
1236.645403563106
 31
0.0
  0
LINE
  5
437
330
430
100
AcDbEntity
  8
0
  6
Continuous
 62
     7
370
    15
100
AcDbLine
 10
2295.242832991337
 20
1235.945403563106
 30
0.0
 11
2304.992832991337
 21
1235.945403563106
 31
0.0
  0
LINE
  5
438
330
430
100
AcDbEntity
  8
0
  6
Continuous
 62
     7
370
    15
100
AcDbLine
 10
2295.242832991337
 20
1235.945403563106
 30
0.0
 11
2295.242832991337
 21
1236.645403563106
 31
0.0
  0
LINE
  5
439
330
430
100
AcDbEntity
  8
0
  6
Continuous
 62
     7
370
    15
100
AcDbLine
 10
2295.242832991337
 20
1240.566865248656
 30
0.0
 11
2304.992832991337
 21
1240.566865248656
 31
0.0
  0
LINE
  5
43A
330
430
100
AcDbEntity
  8
0
  6
Continuous
 62
     7
370
    15
100
AcDbLine
 10
2304.992832991337
 20
1236.645403563106
 30
0.0
 11
2304.992832991337
 21
1240.566865248656
 31
0.0
  0
LINE
  5
43B
330
430
100
AcDbEntity
  8
0
  6
Continuous
 62
     7
370
    15
100
AcDbLine
 10
2295.242832991337
 20
1236.645403563106
 30
0.0
 11
2295.242832991337
 21
1240.566865248656
 31
0.0
  0
LINE
  5
43C
330
430
100
AcDbEntity
  8
0
  6
Continuous
 62
     7
370
    15
100
AcDbLine
 10
2295.242832991337
 20
1241.22391887678
 30
0.0
 11
2304.992832991337
 21
1241.22391887678
 31
0.0
  0
LINE
  5
43D
330
430
100
AcDbEntity
  8
0
  6
Continuous
 62
     7
370
    15
100
AcDbLine
 10
2304.992832991337
 20
1240.566865248656
 30
0.0
 11
2304.992832991337
 21
1241.22391887678
 31
0.0
  0
LINE
  5
43E
330
430
100
AcDbEntity
  8
0
  6
Continuous
 62
     7
370
    15
100
AcDbLine
 10
2295.242832991337
 20
1240.566865248656
 30
0.0
 11
2295.242832991337
 21
1241.22391887678
 31
0.0
  0
LINE
  5
43F
330
430
100
AcDbEntity
  8
0
  6
Continuous
 62
     7
370
    15
100
AcDbLine
 10
2305.242832991337
 20
1236.645403563106
 30
0.0
 11
2305.242832991337
 21
1236.195403563106
 31
0.0
  0
ARC
  5
440
330
430
100
AcDbEntity
  8
0
  6
Continuous
 62
     7
370
    15
100
AcDbCircle
 10
2304.992832991337
 20
1236.195403563106
 30
0.0
 40
0.25
100
AcDbArc
 50
270.0
 51
0.0
  0
LINE
  5
441
330
430
100
AcDbEntity
  8
0
  6
Continuous
 62
     7
370
    15
100
AcDbLine
 10
2305.242832991337
 20
1236.645403563106
 30
0.0
 11
2304.992832991337
 21
1236.645403563106
 31
0.0
  0
LINE
  5
442
330
430
100
AcDbEntity
  8
0
  6
Continuous
 62
     7
370
    15
100
AcDbLine
 10
2305.242832991337
 20
1240.566865248656
 30
0.0
 11
2305.242832991337
 21
1236.645403563106
 31
0.0
  0
LINE
  5
443
330
430
100
AcDbEntity
  8
0
  6
Continuous
 62
     7
370
    15
100
AcDbLine
 10
2304.992832991337
 20
1240.566865248656
 30
0.0
 11
2305.242832991337
 21
1240.566865248656
 31
0.0
  0
ARC
  5
444
330
430
100
AcDbEntity
  8
0
  6
Continuous
 62
     7
370
    15
100
AcDbCircle
 10
2305.000266732379
 20
1240.981337241142
 30
0.0
 40
0.2426955097531878
100
AcDbArc
 50
1.870004482818031
 51
91.75523896446403
  0
LINE
  5
445
330
430
100
AcDbEntity
  8
0
  6
Continuous
 62
     7
370
    15
100
AcDbLine
 10
2305.242832991337
 20
1240.989256866736
 30
0.0
 11
2305.242832991337
 21
1240.566865248656
 31
0.0
  0
LINE
  5
446
330
430
100
AcDbEntity
  8
0
  6
Continuous
 62
     7
370
    15
100
AcDbLine
 10
2295.242832991337
 20
1242.392023663548
 30
0.0
 11
2304.992832991337
 21
1242.392023663548
 31
0.0
  0
LINE
  5
447
330
430
100
AcDbEntity
  8
0
  6
Continuous
 62
     7
370
    15
100
AcDbLine
 10
2304.992832991337
 20
1241.22391887678
 30
0.0
 11
2304.992832991337
 21
1242.392023663548
 31
0.0
  0
LINE
  5
448
330
430
100
AcDbEntity
  8
0
  6
Continuous
 62
     7
370
    15
100
AcDbLine
 10
2295.242832991337
 20
1241.22391887678
 30
0.0
 11
2295.242832991337
 21
1242.392023663548
 31
0.0
  0
ARC
  5
449
330
430
100
AcDbEntity
  8
0
  6
Continuous
 62
     7
370
    15
100
AcDbCircle
 10
2305.000266732379
 20
1242.14944202791
 30
0.0
 40
0.2426955097534486
100
AcDbArc
 50
1.870004482883133
 51
91.75523896441193
  0
LINE
  5
44A
330
430
100
AcDbEntity
  8
0
  6
Continuous
 62
     7
370
    15
100
AcDbLine
 10
2305.242832991337
 20
1242.157361653504
 30
0.0
 11
2305.242832991337
 21
1240.989256866736
 31
0.0
  0
LINE
  5
44B
330
430
100
AcDbEntity
  8
0
  6
Continuous
 62
     7
370
    15
100
AcDbLine
 10
2295.242832991337
 20
1242.392023663548
 30
0.0
 11
2295.242832991337
 21
1242.545403563106
 31
0.0
  0
LINE
  5
44C
330
430
100
AcDbEntity
  8
0
  6
Continuous
 62
     7
370
    15
100
AcDbLine
 10
2305.242832991337
 20
1242.295403563106
 30
0.0
 11
2305.242832991337
 21
1242.157361653504
 31
0.0
  0
LINE
  5
44D
330
430
100
AcDbEntity
  8
0
  6
Continuous
 62
     8
370
    15
100
AcDbLine
 10
2304.992832991337
 20
1242.392023663548
 30
0.0
 11
2304.992832991337
 21
1242.545403563106
 31
0.0
  0
ENDBLK
  5
432
330
430
100
AcDbEntity
  8
0
100
AcDbBlockEnd
  0
BLOCK
  5
450
330
44F
100
AcDbEntity
  8
0
100
AcDbBlockBegin
  2
4
 70
     0
 10
0.0
 20
0.0
 30
0.0
  3
4
  1

  0
SPLINE
  5
452
330
44F
100
AcDbEntity
  8
0
  6
Continuous
 62
     7
370
    15
100
AcDbSpline
210
0.0
220
0.0
230
1.0
 70
     8
 71
     3
 72
    15
 73
    11
 74
     0
 42
0.0000000001
 43
0.0000000001
 40
0.0
 40
0.0
 40
0.0
 40
0.0
 40
0.0973354219763043
 40
0.2495251399479619
 40
0.3959819263991821
 40
0.53675793013853
 40
0.672946993504297
 40
0.8059939440926076
 40
0.9496149404658346
 40
1.0
 40
1.0
 40
1.0
 40
1.0
 10
2302.777391254789
 20
1208.21471360964
 30
0.0
 10
2302.791927242713
 20
1208.206745522909
 30
0.0
 10
2302.829191111787
 20
1208.186318858943
 30
0.0
 10
2302.890894845718
 20
1208.161740157805
 30
0.0
 10
2302.961522609666
 20
1208.143658026226
 30
0.0
 10
2303.031069181343
 20
1208.136382045926
 30
0.0
 10
2303.098812822569
 20
1208.139345819368
 30
0.0
 10
2303.16544769146
 20
1208.153601773085
 30
0.0
 10
2303.217018423129
 20
1208.171650223187
 30
0.0
 10
2303.244104579291
 20
1208.18885976738
 30
0.0
 10
2303.251139089551
 20
1208.193329235638
 30
0.0
  0
LINE
  5
453
330
44F
100
AcDbEntity
  8
0
  6
Continuous
 62
     7
370
    15
100
AcDbLine
 10
2303.252352652792
 20
1208.192434986918
 30
0.0
 11
2310.14664376936
 21
1212.172424532053
 31
0.0
  0
LINE
  5
454
330
44F
100
AcDbEntity
  8
0
  6
Continuous
 62
     7
370
    15
100
AcDbLine
 10
2293.83529470076
 20
1213.376876070564
 30
0.0
 11
2302.777391254789
 21
1208.21471360964
 31
0.0
  0
LINE
  5
455
330
44F
100
AcDbEntity
  8
0
  6
Continuous
 62
     7
370
    15
100
AcDbLine
 10
2295.468441440323
 20
1213.983818920608
 30
0.0
 11
2295.574507457502
 21
1214.045049528994
 31
0.0
  0
LINE
  5
456
330
44F
100
AcDbEntity
  8
0
  6
Continuous
 62
     7
370
    15
100
AcDbLine
 10
2294.680756392327
 20
1215.521944907544
 30
0.0
 11
2294.57469037515
 21
1215.460714299157
 31
0.0
  0
SPLINE
  5
457
330
44F
100
AcDbEntity
  8
0
  6
Continuous
 62
     7
370
    15
100
AcDbSpline
210
0.0
220
0.0
230
1.0
 70
     8
 71
     3
 72
    15
 73
    11
 74
     0
 42
0.0000000001
 43
0.0000000001
 40
0.0
 40
0.0
 40
0.0
 40
0.0
 40
0.0806250443477808
 40
0.2173924098736212
 40
0.353045451719404
 40
0.4897139359723935
 40
0.6294727519378053
 40
0.774160075006536
 40
0.9249306326129641
 40
1.0
 40
1.0
 40
1.0
 40
1.0
 10
2293.611421050062
 20
1217.768048120561
 30
0.0
 10
2293.599739756976
 20
1217.761534749594
 30
0.0
 10
2293.568243036882
 20
1217.743972496794
 30
0.0
 10
2293.524323117834
 20
1217.704652249041
 30
0.0
 10
2293.480481514588
 20
1217.653050883201
 30
0.0
 10
2293.445395419249
 20
1217.594494366592
 30
0.0
 10
2293.418687383695
 20
1217.530083146416
 30
0.0
 10
2293.400724240359
 20
1217.459888033034
 30
0.0
 10
2293.392979172965
 20
1217.397944302864
 30
0.0
 10
2293.392309192752
 20
1217.359376839949
 30
0.0
 10
2293.392086490805
 20
1217.346556985166
 30
0.0
  0
LINE
  5
458
330
44F
100
AcDbEntity
  8
0
  6
Continuous
 62
     7
370
    15
100
AcDbLine
 10
2300.504604102485
 20
1221.749088908808
 30
0.0
 11
2293.610312985917
 21
1217.769099363672
 31
0.0
  0
LINE
  5
459
330
44F
100
AcDbEntity
  8
0
  6
Continuous
 62
     7
370
    15
100
AcDbLine
 10
2293.392086490805
 20
1217.346556985166
 30
0.0
 11
2293.392086490805
 21
1214.144523476668
 31
0.0
  0
SPLINE
  5
45A
330
44F
100
AcDbEntity
  8
0
  6
Continuous
 62
     7
370
    15
100
AcDbSpline
210
0.0
220
0.0
230
1.0
 70
     8
 71
     3
 72
    18
 73
    14
 74
     0
 42
0.0000000001
 43
0.0000000001
 40
0.0
 40
0.0
 40
0.0
 40
0.0
 40
0.056195019707129
 40
0.1518848320580397
 40
0.2476577254441457
 40
0.3432249599356924
 40
0.4384216698011008
 40
0.5334624003058412
 40
0.628739087207415
 40
0.7245889007170156
 40
0.8214771427274305
 40
0.919830416593032
 40
1.0
 40
1.0
 40
1.0
 40
1.0
 10
2293.392086490805
 20
1214.144523476668
 30
0.0
 10
2293.392442315294
 20
1214.128117641769
 30
0.0
 10
2293.39340404363
 20
1214.083775678882
 30
0.0
 10
2293.403214320497
 20
1214.010236940169
 30
0.0
 10
2293.423391165942
 20
1213.924683517714
 30
0.0
 10
2293.452474702089
 20
1213.839878088167
 30
0.0
 10
2293.489588312132
 20
1213.757152272784
 30
0.0
 10
2293.534110744277
 20
1213.677660689051
 30
0.0
 10
2293.585438744051
 20
1213.60249219513
 30
0.0
 10
2293.643050808872
 20
1213.532617979971
 30
0.0
 10
2293.706618510388
 20
1213.469320151594
 30
0.0
 10
2293.770913899182
 20
1213.416680528316
 30
0.0
 10
2293.81534289224
 20
1213.389211594506
 30
0.0
 10
2293.83529470076
 20
1213.376876070564
 30
0.0
  0
SPLINE
  5
45B
330
44F
100
AcDbEntity
  8
0
  6
Continuous
 62
     7
370
    15
100
AcDbSpline
210
0.0
220
0.0
230
1.0
 70
     8
 71
     3
 72
    23
 73
    19
 74
     0
 42
0.0000000001
 43
0.0000000001
 40
0.0
 40
0.0
 40
0.0
 40
0.0
 40
0.0652265038922754
 40
0.1285689957067416
 40
0.1903203781044805
 40
0.2513779886240805
 40
0.312387528333709
 40
0.373788704276739
 40
0.4364311597804656
 40
0.5005667553098631
 40
0.564686795384748
 40
0.6271355178835081
 40
0.688455408894985
 40
0.7492457464637541
 40
0.8101551773646868
 40
0.871670925652921
 40
0.934773496107725
 40
1.0
 40
1.0
 40
1.0
 40
1.0
 10
2295.762877252446
 20
1214.295448615681
 30
0.0
 10
2295.762250985132
 20
1214.266434538184
 30
0.0
 10
2295.761016539705
 20
1214.209244430137
 30
0.0
 10
2295.750442756818
 20
1214.130361370335
 30
0.0
 10
2295.733859688596
 20
1214.058238172157
 30
0.0
 10
2295.710183221642
 20
1213.993637064734
 30
0.0
 10
2295.679787538248
 20
1213.936259471094
 30
0.0
 10
2295.642349195495
 20
1213.88648925688
 30
0.0
 10
2295.598249486796
 20
1213.844082904316
 30
0.0
 10
2295.548062340147
 20
1213.809452553477
 30
0.0
 10
2295.493352057297
 20
1213.782712963947
 30
0.0
 10
2295.434670167872
 20
1213.765768322102
 30
0.0
 10
2295.373336404526
 20
1213.757444365564
 30
0.0
 10
2295.30856150068
 20
1213.759944451974
 30
0.0
 10
2295.241204514129
 20
1213.770939548377
 30
0.0
 10
2295.170662602969
 20
1213.79264756367
 30
0.0
 10
2295.097266311459
 20
1213.822752944506
 30
0.0
 10
2295.047214867585
 20
1213.850238604327
 30
0.0
 10
2295.021774952933
 20
1213.864208887417
 30
0.0
  0
SPLINE
  5
45C
330
44F
100
AcDbEntity
  8
0
  6
Continuous
 62
     7
370
    15
100
AcDbSpline
210
0.0
220
0.0
230
1.0
 70
     8
 71
     3
 72
    23
 73
    19
 74
     0
 42
0.0000000001
 43
0.0000000001
 40
0.0
 40
0.0
 40
0.0
 40
0.0
 40
0.066570035215191
 40
0.1307490414821766
 40
0.193412800029507
 40
0.254989398889721
 40
0.3161135558759125
 40
0.3772617579089835
 40
0.4394007841555516
 40
0.502970589371981
 40
0.56652497636073
 40
0.628231102513316
 40
0.6890906105998712
 40
0.749344668995814
 40
0.8101695933722151
 40
0.871609824317049
 40
0.9348691840727729
 40
1.0
 40
1.0
 40
1.0
 40
1.0
 10
2295.010443113491
 20
1215.587580018431
 30
0.0
 10
2295.036629542726
 20
1215.571697008954
 30
0.0
 10
2295.088061850242
 20
1215.540501467922
 30
0.0
 10
2295.163651523825
 20
1215.485349338057
 30
0.0
 10
2295.235814839803
 20
1215.423768897686
 30
0.0
 10
2295.305139644716
 20
1215.357216570593
 30
0.0
 10
2295.370796722217
 20
1215.283920288583
 30
0.0
 10
2295.433280270511
 20
1215.205069495109
 30
0.0
 10
2295.492441621576
 20
1215.120301827993
 30
0.0
 10
2295.547483371645
 20
1215.030468878074
 30
0.0
 10
2295.597852385855
 20
1214.938222256321
 30
0.0
 10
2295.642228745244
 20
1214.845191695059
 30
0.0
 10
2295.679419448132
 20
1214.752473499844
 30
0.0
 10
2295.709960718227
 20
1214.659972218805
 30
0.0
 10
2295.733920974814
 20
1214.567817677364
 30
0.0
 10
2295.750454765256
 20
1214.4760803905
 30
0.0
 10
2295.761016172811
 20
1214.384453480533
 30
0.0
 10
2295.762250893341
 20
1214.325403812898
 30
0.0
 10
2295.762877252446
 20
1214.295448615681
 30
0.0
  0
SPLINE
  5
45D
330
44F
100
AcDbEntity
  8
0
  6
Continuous
 62
     7
370
    15
100
AcDbSpline
210
0.0
220
0.0
230
1.0
 70
     8
 71
     3
 72
    31
 73
    27
 74
     0
 42
0.0000000001
 43
0.0000000001
 40
0.0
 40
0.0
 40
0.0
 40
0.0
 40
0.0432089861713267
 40
0.0858728716306133
 40
0.1281200066967
 40
0.1701519644541965
 40
0.2119176209878605
 40
0.253753002619123
 40
0.296006408855951
 40
0.3384433571447815
 40
0.381015368162021
 40
0.4228204794407526
 40
0.464089055794314
 40
0.505125848683684
 40
0.545974970685239
 40
0.5869852111338561
 40
0.628338591634658
 40
0.670083801591208
 40
0.7119916023637251
 40
0.75303915486301
 40
0.7940493953116352
 40
0.8348855427015829
 40
0.8754983129295109
 40
0.9165472998303869
 40
0.958003778644964
 40
1.0
 40
1.0
 40
1.0
 40
1.0
 10
2294.276139917643
 20
1215.145872456201
 30
0.0
 10
2294.276355943009
 20
1215.165173332245
 30
0.0
 10
2294.276785268485
 20
1215.203531595136
 30
0.0
 10
2294.281953892764
 20
1215.25787672239
 30
0.0
 10
2294.289453952646
 20
1215.309953976176
 30
0.0
 10
2294.300202748507
 20
1215.359073410187
 30
0.0
 10
2294.314260704881
 20
1215.405064711341
 30
0.0
 10
2294.330848228852
 20
1215.448751084187
 30
0.0
 10
2294.3511077858
 20
1215.488933232654
 30
0.0
 10
2294.374010226138
 20
1215.526451030902
 30
0.0
 10
2294.399571856677
 20
1215.560504115326
 30
0.0
 10
2294.427805923122
 20
1215.590341630051
 30
0.0
 10
2294.457720729459
 20
1215.616923219609
 30
0.0
 10
2294.490515692898
 20
1215.638420127261
 30
0.0
 10
2294.525109960886
 20
1215.656632435859
 30
0.0
 10
2294.562064726243
 20
1215.670649389896
 30
0.0
 10
2294.601154495968
 20
1215.680919928789
 30
0.0
 10
2294.642547468204
 20
1215.686615872719
 30
0.0
 10
2294.685223695852
 20
1215.688742881956
 30
0.0
 10
2294.729216557499
 20
1215.686313000745
 30
0.0
 10
2294.77392856441
 20
1215.680213099066
 30
0.0
 10
2294.819569134418
 20
1215.669841948088
 30
0.0
 10
2294.866017068506
 20
1215.655641132554
 30
0.0
 10
2294.913373740872
 20
1215.636891482108
 30
0.0
 10
2294.961601424018
 20
1215.615033992639
 30
0.0
 10
2294.994092503397
 20
1215.596770716637
 30
0.0
 10
2295.010443113491
 20
1215.587580018431
 30
0.0
  0
SPLINE
  5
45E
330
44F
100
AcDbEntity
  8
0
  6
Continuous
 62
     7
370
    15
100
AcDbSpline
210
0.0
220
0.0
230
1.0
 70
     8
 71
     3
 72
    23
 73
    19
 74
     0
 42
0.0000000001
 43
0.0000000001
 40
0.0
 40
0.0
 40
0.0
 40
0.0
 40
0.0658188768433126
 40
0.1297465269068426
 40
0.1920719544880075
 40
0.253459424298198
 40
0.314569587796413
 40
0.376279881188029
 40
0.4390256536685621
 40
0.5032670288290931
 40
0.567492822879296
 40
0.629704795605246
 40
0.690999649215746
 40
0.7514516509174481
 40
0.812004364264696
 40
0.873149681068042
 40
0.9356354837317839
 40
1.0
 40
1.0
 40
1.0
 40
1.0
 10
2295.021774952933
 20
1213.864208887417
 30
0.0
 10
2294.996147658051
 20
1213.879726145618
 30
0.0
 10
2294.945629437985
 20
1213.910314792145
 30
0.0
 10
2294.871469276661
 20
1213.965342648023
 30
0.0
 10
2294.800242312064
 20
1214.025564096852
 30
0.0
 10
2294.732152231795
 20
1214.09217185925
 30
0.0
 10
2294.66716106583
 20
1214.164973063595
 30
0.0
 10
2294.60514170679
 20
1214.243798156646
 30
0.0
 10
2294.546343092044
 20
1214.328790672076
 30
0.0
 10
2294.491252707188
 20
1214.418529146089
 30
0.0
 10
2294.440846419198
 20
1214.51069841323
 30
0.0
 10
2294.396900995158
 20
1214.603646469519
 30
0.0
 10
2294.359636422002
 20
1214.695920489524
 30
0.0
 10
2294.329185037167
 20
1214.787640450288
 30
0.0
 10
2294.305076954996
 20
1214.878719196794
 30
0.0
 10
2294.28862972475
 20
1214.96891083227
 30
0.0
 10
2294.277988393151
 20
1215.058826133009
 30
0.0
 10
2294.276762129993
 20
1215.116571934203
 30
0.0
 10
2294.276139917643
 20
1215.145872456201
 30
0.0
  0
LINE
  5
45F
330
44F
100
AcDbEntity
  8
0
  6
Continuous
 62
     7
370
    15
100
AcDbLine
 10
2297.630364392502
 20
1213.188255799645
 30
0.0
 11
2297.630364392502
 21
1212.400176145866
 31
0.0
  0
LINE
  5
460
330
44F
100
AcDbEntity
  8
0
  6
Continuous
 62
     7
370
    15
100
AcDbLine
 10
2298.286194600213
 20
1212.02157342574
 30
0.0
 11
2297.630364392502
 21
1213.188255799645
 31
0.0
  0
LINE
  5
461
330
44F
100
AcDbEntity
  8
0
  6
Continuous
 62
     7
370
    15
100
AcDbLine
 10
2298.455322303887
 20
1211.923938080636
 30
0.0
 11
2298.286194600213
 21
1212.02157342574
 31
0.0
  0
LINE
  5
462
330
44F
100
AcDbEntity
  8
0
  6
Continuous
 62
     7
370
    15
100
AcDbLine
 10
2297.706004420778
 20
1213.256798674464
 30
0.0
 11
2298.455322303887
 21
1211.923938080636
 31
0.0
  0
LINE
  5
463
330
44F
100
AcDbEntity
  8
0
  6
Continuous
 62
     7
370
    15
100
AcDbLine
 10
2298.400929474565
 20
1213.588420016401
 30
0.0
 11
2297.706004420778
 21
1213.256798674464
 31
0.0
  0
LINE
  5
464
330
44F
100
AcDbEntity
  8
0
  6
Continuous
 62
     7
370
    15
100
AcDbLine
 10
2298.219903339477
 20
1213.692924179754
 30
0.0
 11
2298.400929474565
 21
1213.588420016401
 31
0.0
  0
LINE
  5
465
330
44F
100
AcDbEntity
  8
0
  6
Continuous
 62
     7
370
    15
100
AcDbLine
 10
2297.630364392502
 20
1213.411365108021
 30
0.0
 11
2298.219903339477
 21
1213.692924179754
 31
0.0
  0
LINE
  5
466
330
44F
100
AcDbEntity
  8
0
  6
Continuous
 62
     7
370
    15
100
AcDbLine
 10
2297.630364392502
 20
1214.033257769638
 30
0.0
 11
2297.630364392502
 21
1213.411365108021
 31
0.0
  0
LINE
  5
467
330
44F
100
AcDbEntity
  8
0
  6
Continuous
 62
     7
370
    15
100
AcDbLine
 10
2297.50344779075
 20
1214.106525164289
 30
0.0
 11
2297.630364392502
 21
1214.033257769638
 31
0.0
  0
LINE
  5
468
330
44F
100
AcDbEntity
  8
0
  6
Continuous
 62
     7
370
    15
100
AcDbLine
 10
2297.50344779075
 20
1212.473443540517
 30
0.0
 11
2297.50344779075
 21
1214.106525164289
 31
0.0
  0
LINE
  5
469
330
44F
100
AcDbEntity
  8
0
  6
Continuous
 62
     7
370
    15
100
AcDbLine
 10
2297.630364392502
 20
1212.400176145866
 30
0.0
 11
2297.50344779075
 21
1212.473443540517
 31
0.0
  0
LINE
  5
46A
330
44F
100
AcDbEntity
  8
0
  6
Continuous
 62
     7
370
    15
100
AcDbLine
 10
2298.693574228157
 20
1211.786398172375
 30
0.0
 11
2298.555042490977
 21
1211.866370841982
 31
0.0
  0
LINE
  5
46B
330
44F
100
AcDbEntity
  8
0
  6
Continuous
 62
     7
370
    15
100
AcDbLine
 10
2298.90859588157
 20
1212.185692411389
 30
0.0
 11
2298.693574228157
 21
1211.786398172375
 31
0.0
  0
LINE
  5
46C
330
44F
100
AcDbEntity
  8
0
  6
Continuous
 62
     7
370
    15
100
AcDbLine
 10
2299.549694698006
 20
1211.815593942428
 30
0.0
 11
2298.90859588157
 21
1212.185692411389
 31
0.0
  0
LINE
  5
46D
330
44F
100
AcDbEntity
  8
0
  6
Continuous
 62
     7
370
    15
100
AcDbLine
 10
2299.758767135713
 20
1211.171475395841
 30
0.0
 11
2299.549694698006
 21
1211.815593942428
 31
0.0
  0
LINE
  5
46E
330
44F
100
AcDbEntity
  8
0
  6
Continuous
 62
     7
370
    15
100
AcDbLine
 10
2299.896732280921
 20
1211.091829812817
 30
0.0
 11
2299.758767135713
 21
1211.171475395841
 31
0.0
  0
LINE
  5
46F
330
44F
100
AcDbEntity
  8
0
  6
Continuous
 62
     7
370
    15
100
AcDbLine
 10
2299.244018329056
 20
1213.101715180507
 30
0.0
 11
2299.896732280921
 21
1211.091829812817
 31
0.0
  0
LINE
  5
470
330
44F
100
AcDbEntity
  8
0
  6
Continuous
 62
     7
370
    15
100
AcDbLine
 10
2299.225887385949
 20
1213.112181951171
 30
0.0
 11
2299.244018329056
 21
1213.101715180507
 31
0.0
  0
LINE
  5
471
330
44F
100
AcDbEntity
  8
0
  6
Continuous
 62
     7
370
    15
100
AcDbLine
 10
2298.555042490977
 20
1211.866370841982
 30
0.0
 11
2299.225887385949
 21
1213.112181951171
 31
0.0
  0
LINE
  5
472
330
44F
100
AcDbEntity
  8
0
  6
Continuous
 62
     7
370
    15
100
AcDbLine
 10
2297.111932738026
 20
1212.699460369552
 30
0.0
 11
2296.179888943914
 21
1214.519905612556
 31
0.0
  0
LINE
  5
473
330
44F
100
AcDbEntity
  8
0
  6
Continuous
 62
     7
370
    15
100
AcDbLine
 10
2297.140828928604
 20
1212.682778953805
 30
0.0
 11
2297.111932738026
 21
1212.699460369552
 31
0.0
  0
LINE
  5
474
330
44F
100
AcDbEntity
  8
0
  6
Continuous
 62
     7
370
    15
100
AcDbLine
 10
2297.140828928604
 20
1214.315860577577
 30
0.0
 11
2297.140828928604
 21
1212.682778953805
 31
0.0
  0
LINE
  5
475
330
44F
100
AcDbEntity
  8
0
  6
Continuous
 62
     7
370
    15
100
AcDbLine
 10
2297.013912326852
 20
1214.389127972227
 30
0.0
 11
2297.140828928604
 21
1214.315860577577
 31
0.0
  0
LINE
  5
476
330
44F
100
AcDbEntity
  8
0
  6
Continuous
 62
     7
370
    15
100
AcDbLine
 10
2297.013912326852
 20
1213.103795900953
 30
0.0
 11
2297.013912326852
 21
1214.389127972227
 31
0.0
  0
LINE
  5
477
330
44F
100
AcDbEntity
  8
0
  6
Continuous
 62
     7
370
    15
100
AcDbLine
 10
2296.079602164852
 20
1214.928493748027
 30
0.0
 11
2297.013912326852
 21
1213.103795900953
 31
0.0
  0
LINE
  5
478
330
44F
100
AcDbEntity
  8
0
  6
Continuous
 62
     7
370
    15
100
AcDbLine
 10
2296.052972342163
 20
1214.94386681744
 30
0.0
 11
2296.079602164852
 21
1214.928493748027
 31
0.0
  0
LINE
  5
479
330
44F
100
AcDbEntity
  8
0
  6
Continuous
 62
     7
370
    15
100
AcDbLine
 10
2296.052972342163
 20
1213.310785193668
 30
0.0
 11
2296.052972342163
 21
1214.94386681744
 31
0.0
  0
LINE
  5
47A
330
44F
100
AcDbEntity
  8
0
  6
Continuous
 62
     7
370
    15
100
AcDbLine
 10
2296.179888943914
 20
1213.237517799018
 30
0.0
 11
2296.052972342163
 21
1213.310785193668
 31
0.0
  0
LINE
  5
47B
330
44F
100
AcDbEntity
  8
0
  6
Continuous
 62
     7
370
    15
100
AcDbLine
 10
2296.179888943914
 20
1214.519905612556
 30
0.0
 11
2296.179888943914
 21
1213.237517799018
 31
0.0
  0
ARC
  5
47C
330
44F
100
AcDbEntity
  8
0
  6
Continuous
 62
     7
370
    15
100
AcDbCircle
 10
2302.851597687022
 20
1208.487356934727
 30
0.0
 40
0.202227328245997
100
AcDbArc
 50
231.4624068682789
 51
313.8557065653565
  0
LINE
  5
47D
330
44F
100
AcDbEntity
  8
0
  6
Continuous
 62
     7
370
    15
100
AcDbLine
 10
2293.783507847042
 20
1213.491337272182
 30
0.0
 11
2302.725604401072
 21
1208.329174811258
 31
0.0
  0
ARC
  5
47E
330
44F
100
AcDbEntity
  8
0
  6
Continuous
 62
     7
370
    15
100
AcDbCircle
 10
2294.153235135903
 20
1214.072222883436
 30
0.0
 40
0.6885683419173594
100
AcDbArc
 50
182.4763037049891
 51
237.5236964406384
  0
LINE
  5
47F
330
44F
100
AcDbEntity
  8
0
  6
Continuous
 62
     7
370
    15
100
AcDbLine
 10
2293.465309795509
 20
1217.244505971188
 30
0.0
 11
2293.465309795509
 21
1214.04247246269
 31
0.0
  0
LWPOLYLINE
  5
480
330
44F
100
AcDbEntity
  8
0
  6
Continuous
 62
     7
370
    15
100
AcDbPolyline
 90
        9
 70
   128
 43
0.0
 10
2293.673768790695
 20
1217.469065149553
 10
2293.62971628023
 20
1217.471272075361
 10
2293.589225805932
 20
1217.463972199072
 10
2293.553235186027
 20
1217.447334596431
 10
2293.522578015568
 20
1217.42174461849
 10
2293.497964359173
 20
1217.387794966324
 10
2293.479964304892
 20
1217.346271963212
 10
2293.468994760138
 20
1217.298137342244
 10
2293.465309795509
 20
1217.244505971188
  0
LINE
  5
481
330
44F
100
AcDbEntity
  8
0
  6
Continuous
 62
     7
370
    15
100
AcDbLine
 10
2295.921818333813
 20
1217.125099003107
 30
0.0
 11
2293.673768790695
 21
1217.469065149553
 31
0.0
  0
ARC
  5
482
330
44F
100
AcDbEntity
  8
0
  6
Continuous
 62
     7
370
    15
100
AcDbCircle
 10
2295.431244938103
 20
1214.987505600561
 30
0.0
 40
2.193163881516555
100
AcDbArc
 50
39.37747295265588
 51
77.07455625343577
  0
LINE
  5
483
330
44F
100
AcDbEntity
  8
0
  6
Continuous
 62
     7
370
    15
100
AcDbLine
 10
2303.390536148754
 20
1209.586225055265
 30
0.0
 11
2297.126523491516
 21
1216.378907209561
 31
0.0
  0
ARC
  5
484
330
44F
100
AcDbEntity
  8
0
  6
Continuous
 62
     7
370
    15
100
AcDbCircle
 10
2303.040300228532
 20
1209.188120204153
 30
0.0
 40
0.530238316507302
100
AcDbArc
 50
336.0391034385732
 51
48.66003855221674
  0
LINE
  5
485
330
44F
100
AcDbEntity
  8
0
  6
Continuous
 62
     7
370
    15
100
AcDbLine
 10
2302.991709796816
 20
1208.341533449037
 30
0.0
 11
2303.524844110685
 21
1208.972783494417
 31
0.0
  0
LINE
  5
486
330
44F
100
AcDbEntity
  8
0
  6
Continuous
 62
     7
370
    15
100
AcDbLine
 10
2297.37526306234
 20
1216.625873518466
 30
0.0
 11
2303.639347780657
 21
1209.833113221287
 31
0.0
  0
SPLINE
  5
487
330
44F
100
AcDbEntity
  8
0
  6
Continuous
 62
     7
370
    15
100
AcDbSpline
210
0.0
220
0.0
230
1.0
 70
     8
 71
     3
 72
    10
 73
     6
 74
     0
 42
0.0000000001
 43
0.0000000001
 40
0.0
 40
0.0
 40
0.0
 40
0.0
 40
0.5
 40
0.5
 40
1.0
 40
1.0
 40
1.0
 40
1.0
 10
2303.639347780657
 20
1209.833113221287
 30
0.0
 10
2303.592637475062
 20
1209.806147935839
 30
0.0
 10
2303.539164847069
 20
1209.764065767044
 30
0.0
 10
2303.447371588041
 20
1209.672946457306
 30
0.0
 10
2303.409354724549
 20
1209.623980084362
 30
0.0
 10
2303.390536148588
 20
1209.586225055444
 30
0.0
  0
SPLINE
  5
488
330
44F
100
AcDbEntity
  8
0
  6
Continuous
 62
     7
370
    15
100
AcDbSpline
210
0.0
220
0.0
230
1.0
 70
     8
 71
     3
 72
    10
 73
     6
 74
     0
 42
0.0000000001
 43
0.0000000001
 40
0.0
 40
0.0
 40
0.0
 40
0.0
 40
0.5
 40
0.5
 40
1.0
 40
1.0
 40
1.0
 40
1.0
 10
2297.37526306234
 20
1216.625873518466
 30
0.0
 10
2297.328550002373
 20
1216.598906642953
 30
0.0
 10
2297.275072156487
 20
1216.556822630598
 30
0.0
 10
2297.183288754049
 20
1216.465682989885
 30
0.0
 10
2297.145308499795
 20
1216.416718625883
 30
0.0
 10
2297.126523491516
 20
1216.37890720956
 30
0.0
  0
LINE
  5
489
330
44F
100
AcDbEntity
  8
0
  6
Continuous
 62
     7
370
    15
100
AcDbLine
 10
2304.269554178909
 20
1220.605863063601
 30
0.0
 11
2307.811002573149
 21
1216.765523871419
 31
0.0
  0
LINE
  5
48A
330
44F
100
AcDbEntity
  8
0
  6
Continuous
 62
     7
370
    15
100
AcDbLine
 10
2307.811002573149
 20
1216.765523871419
 30
0.0
 11
2305.265418160877
 21
1215.295989270139
 31
0.0
  0
LINE
  5
48B
330
44F
100
AcDbEntity
  8
0
  6
Continuous
 62
     7
370
    15
100
AcDbLine
 10
2307.988054484953
 20
1212.343568165142
 30
0.0
 11
2305.265418160877
 21
1215.295989270139
 31
0.0
  0
LINE
  5
48C
330
44F
100
AcDbEntity
  8
0
  6
Continuous
 62
     7
370
    15
100
AcDbLine
 10
2307.988054484953
 20
1212.343568165142
 30
0.0
 11
2303.639347780657
 21
1209.833113221287
 31
0.0
  0
LINE
  5
48D
330
44F
100
AcDbEntity
  8
0
  6
Continuous
 62
     7
370
    15
100
AcDbLine
 10
2304.269554178909
 20
1220.605863063601
 30
0.0
 11
2297.37526306234
 21
1216.625873518466
 31
0.0
  0
ARC
  5
48E
330
44F
100
AcDbEntity
  8
0
  6
Continuous
 62
     7
370
    15
100
AcDbCircle
 10
2303.089891508445
 20
1209.211422980067
 30
0.0
 40
0.8296993136683452
100
AcDbArc
 50
336.2726986037745
 51
48.52941783588555
  0
ARC
  5
48F
330
44F
100
AcDbEntity
  8
0
  6
Continuous
 62
     7
370
    15
100
AcDbCircle
 10
2303.743637627698
 20
1209.11774680465
 30
0.0
 40
0.2624594528693873
100
AcDbArc
 50
213.5267672532607
 51
293.7773908414722
  0
ARC
  5
490
330
44F
100
AcDbEntity
  8
0
  6
Continuous
 62
     7
370
    15
100
AcDbCircle
 10
2307.438598212742
 20
1211.721877923921
 30
0.0
 40
0.8296993136677244
100
AcDbArc
 50
336.2726986037282
 51
48.52941783591369
  0
LINE
  5
491
330
44F
100
AcDbEntity
  8
0
  6
Continuous
 62
     7
370
    15
100
AcDbLine
 10
2308.198163841248
 20
1211.388020159156
 30
0.0
 11
2303.84945713695
 21
1208.877565215301
 31
0.0
  0
LINE
  5
492
330
44F
100
AcDbEntity
  8
0
  6
Continuous
 62
     7
370
    15
100
AcDbLine
 10
2303.84945713695
 20
1208.877565215301
 30
0.0
 11
2303.31632282308
 21
1208.246315169921
 31
0.0
  0
ARC
  5
493
330
44F
100
AcDbEntity
  8
0
  6
Continuous
 62
     7
370
    15
100
AcDbCircle
 10
2303.210503313828
 20
1208.486496759269
 30
0.0
 40
0.2624594528693729
100
AcDbArc
 50
213.5267672532607
 51
293.7773908414722
  0
LINE
  5
494
330
44F
100
AcDbEntity
  8
0
  6
Continuous
 62
     7
370
    15
100
AcDbLine
 10
2307.67659045796
 20
1210.770458667982
 30
0.0
 11
2308.198163841248
 21
1211.388020159156
 31
0.0
  0
LINE
  5
495
330
44F
100
AcDbEntity
  8
0
  6
Continuous
 62
     7
370
    15
100
AcDbLine
 10
2307.665029527377
 20
1210.756770113776
 30
0.0
 11
2307.67659045796
 21
1210.770458667982
 31
0.0
  0
LINE
  5
496
330
44F
100
AcDbEntity
  8
0
  6
Continuous
 62
     7
370
    15
100
AcDbLine
 10
2307.665029527377
 20
1210.756770113776
 30
0.0
 11
2303.31632282308
 21
1208.246315169921
 31
0.0
  0
LINE
  5
497
330
44F
100
AcDbEntity
  8
0
  6
Continuous
 62
     7
370
    15
100
AcDbLine
 10
2310.210613939649
 20
1212.226304715056
 30
0.0
 11
2307.665029527377
 21
1210.756770113776
 31
0.0
  0
LWPOLYLINE
  5
498
330
44F
100
AcDbEntity
  8
0
  6
Continuous
 62
     7
370
    15
100
AcDbPolyline
 90
        3
 70
   128
 43
0.0
 10
2310.210613939649
 20
1212.226304715056
 10
2310.173930447933
 20
1212.190849943118
 10
2310.14664376936
 20
1212.172424532053
  0
LINE
  5
499
330
44F
100
AcDbEntity
  8
0
  6
Continuous
 62
     7
370
    15
100
AcDbLine
 10
2299.638583500512
 20
1211.886740745773
 30
0.0
 11
2299.014661898748
 21
1212.246923019776
 31
0.0
  0
LINE
  5
49A
330
44F
100
AcDbEntity
  8
0
  6
Continuous
 62
     7
370
    15
100
AcDbLine
 10
2298.743881118106
 20
1211.879817839747
 30
0.0
 11
2298.661108508155
 21
1211.927601450369
 31
0.0
  0
LINE
  5
49B
330
44F
100
AcDbEntity
  8
0
  6
Continuous
 62
     7
370
    15
100
AcDbLine
 10
2298.661108508155
 20
1211.927601450369
 30
0.0
 11
2299.262575531937
 21
1213.044572460591
 31
0.0
  0
ARC
  5
49C
330
44F
100
AcDbEntity
  8
0
  6
Continuous
 62
     7
370
    15
100
AcDbCircle
 10
2295.492940576368
 20
1215.079692172632
 30
0.0
 40
2.435942260276085
100
AcDbArc
 50
39.40044029199628
 51
77.07915278229837
  0
ARC
  5
49D
330
44F
100
AcDbEntity
  8
0
  6
Continuous
 62
     7
370
    15
100
AcDbCircle
 10
2296.210538112427
 20
1217.208243772208
 30
0.0
 40
0.3004532629070141
100
AcDbArc
 50
125.1342756187821
 51
196.06520444022
  0
LINE
  5
49E
330
44F
100
AcDbEntity
  8
0
  6
Continuous
 62
     7
370
    15
100
AcDbLine
 10
2298.661108508155
 20
1211.927601450369
 30
0.0
 11
2298.555042490977
 21
1211.866370841982
 31
0.0
  0
LINE
  5
49F
330
44F
100
AcDbEntity
  8
0
  6
Continuous
 62
     7
370
    15
100
AcDbLine
 10
2299.327759493985
 20
1212.84385315445
 30
0.0
 11
2299.233536377572
 21
1212.789459307151
 31
0.0
  0
LINE
  5
4A0
330
44F
100
AcDbEntity
  8
0
  6
Continuous
 62
     7
370
    15
100
AcDbLine
 10
2299.577089783871
 20
1212.076096773675
 30
0.0
 11
2299.482836845298
 21
1212.021685710409
 31
0.0
  0
LINE
  5
4A1
330
44F
100
AcDbEntity
  8
0
  6
Continuous
 62
     7
370
    15
100
AcDbLine
 10
2299.482836845298
 20
1212.021685710409
 30
0.0
 11
2299.233536377572
 21
1212.789459307151
 31
0.0
  0
LINE
  5
4A2
330
44F
100
AcDbEntity
  8
0
  6
Continuous
 62
     7
370
    15
100
AcDbLine
 10
2299.233536377572
 20
1212.789459307151
 30
0.0
 11
2298.977436806181
 21
1212.313446942679
 31
0.0
  0
LINE
  5
4A3
330
44F
100
AcDbEntity
  8
0
  6
Continuous
 62
     7
370
    15
100
AcDbLine
 10
2298.977436806181
 20
1212.313446942679
 30
0.0
 11
2299.482836845298
 21
1212.021685710409
 31
0.0
  0
ARC
  5
4A4
330
44F
100
AcDbEntity
  8
0
  6
Continuous
 62
     7
370
    15
100
AcDbCircle
 10
2302.387231692937
 20
1219.059681717768
 30
0.0
 40
2.435942260276127
100
AcDbArc
 50
39.40044029199628
 51
77.07915278229837
  0
LINE
  5
4A5
330
44F
100
AcDbEntity
  8
0
  6
Continuous
 62
     7
370
    15
100
AcDbLine
 10
2302.931920003263
 20
1221.433945675291
 30
0.0
 11
2296.037628886693
 21
1217.453956130155
 31
0.0
  0
LINE
  5
4A6
330
44F
100
AcDbEntity
  8
0
  6
Continuous
 62
     7
370
    15
100
AcDbLine
 10
2299.644007280901
 20
1211.870039437628
 30
0.0
 11
2299.549694698006
 21
1211.815593942428
 31
0.0
  0
LINE
  5
4A7
330
44F
100
AcDbEntity
  8
0
  6
Continuous
 62
     7
370
    15
100
AcDbLine
 10
2299.85316918509
 20
1211.225972538942
 30
0.0
 11
2299.758767135713
 21
1211.171475395841
 31
0.0
  0
LINE
  5
4A8
330
44F
100
AcDbEntity
  8
0
  6
Continuous
 62
     7
370
    15
100
AcDbLine
 10
2299.014661898748
 20
1212.246923019776
 30
0.0
 11
2298.90859588157
 21
1212.185692411389
 31
0.0
  0
LINE
  5
4A9
330
44F
100
AcDbEntity
  8
0
  6
Continuous
 62
     7
370
    15
100
AcDbLine
 10
2297.812070437956
 20
1213.318029282851
 30
0.0
 11
2297.706004420778
 21
1213.256798674464
 31
0.0
  0
LINE
  5
4AA
330
44F
100
AcDbEntity
  8
0
  6
Continuous
 62
     7
370
    15
100
AcDbLine
 10
2298.390862609146
 20
1213.594231494106
 30
0.0
 11
2297.812070437956
 21
1213.318029282851
 31
0.0
  0
LINE
  5
4AB
330
44F
100
AcDbEntity
  8
0
  6
Continuous
 62
     7
370
    15
100
AcDbLine
 10
2297.630364392502
 20
1212.52263736264
 30
0.0
 11
2297.609513807929
 21
1212.534674148904
 31
0.0
  0
LINE
  5
4AC
330
44F
100
AcDbEntity
  8
0
  6
Continuous
 62
     7
370
    15
100
AcDbLine
 10
2297.609513807929
 20
1212.534674148904
 30
0.0
 11
2297.609513807929
 21
1214.045294555902
 31
0.0
  0
LINE
  5
4AD
330
44F
100
AcDbEntity
  8
0
  6
Continuous
 62
     7
370
    15
100
AcDbLine
 10
2293.789579343576
 20
1217.797922276601
 30
0.0
 11
2296.037628886693
 21
1217.453956130155
 31
0.0
  0
ARC
  5
4AE
330
44F
100
AcDbEntity
  8
0
  6
Continuous
 62
     7
370
    15
100
AcDbCircle
 10
2293.962488569309
 20
1217.552209918654
 30
0.0
 40
0.3004532629068649
100
AcDbArc
 50
125.1342756187458
 51
196.0652044402648
  0
LINE
  5
4AF
330
44F
100
AcDbEntity
  8
0
  6
Continuous
 62
     7
370
    15
100
AcDbLine
 10
2300.683870460145
 20
1221.777911821737
 30
0.0
 11
2293.789579343576
 21
1217.797922276601
 31
0.0
  0
LINE
  5
4B0
330
44F
100
AcDbEntity
  8
0
  6
Continuous
 62
     7
370
    15
100
AcDbLine
 10
2300.683870460145
 20
1221.777911821737
 30
0.0
 11
2302.931920003263
 21
1221.433945675291
 31
0.0
  0
LINE
  5
4B1
330
44F
100
AcDbEntity
  8
0
  6
Continuous
 62
     7
370
    15
100
AcDbLine
 10
2297.716563103714
 20
1213.238017256425
 30
0.0
 11
2297.630364392502
 21
1213.188255799645
 31
0.0
  0
LINE
  5
4B2
330
44F
100
AcDbEntity
  8
0
  6
Continuous
 62
     7
370
    15
100
AcDbLine
 10
2298.37244186982
 20
1212.071362914685
 30
0.0
 11
2298.286194600213
 21
1212.02157342574
 31
0.0
  0
LINE
  5
4B3
330
44F
100
AcDbEntity
  8
0
  6
Continuous
 62
     7
370
    15
100
AcDbLine
 10
2297.609513807929
 20
1212.534674148904
 30
0.0
 11
2297.50344779075
 21
1212.473443540517
 31
0.0
  0
LINE
  5
4B4
330
44F
100
AcDbEntity
  8
0
  6
Continuous
 62
     7
370
    15
100
AcDbLine
 10
2296.159038359341
 20
1213.372015802055
 30
0.0
 11
2296.159038359341
 21
1214.773355701841
 31
0.0
  0
LINE
  5
4B5
330
44F
100
AcDbEntity
  8
0
  6
Continuous
 62
     7
370
    15
100
AcDbLine
 10
2297.119978344031
 20
1213.16502650934
 30
0.0
 11
2297.119978344031
 21
1214.32789736384
 31
0.0
  0
LINE
  5
4B6
330
44F
100
AcDbEntity
  8
0
  6
Continuous
 62
     7
370
    15
100
AcDbLine
 10
2297.140828928604
 20
1212.911417204137
 30
0.0
 11
2297.035849700099
 21
1213.116460076964
 31
0.0
  0
LINE
  5
4B7
330
44F
100
AcDbEntity
  8
0
  6
Continuous
 62
     7
370
    15
100
AcDbLine
 10
2296.179888943914
 20
1213.359979015791
 30
0.0
 11
2296.159038359341
 21
1213.372015802055
 31
0.0
  0
LINE
  5
4B8
330
44F
100
AcDbEntity
  8
0
  6
Continuous
 62
     7
370
    15
100
AcDbLine
 10
2297.119978344031
 20
1213.16502650934
 30
0.0
 11
2297.013912326852
 21
1213.103795900953
 31
0.0
  0
LINE
  5
4B9
330
44F
100
AcDbEntity
  8
0
  6
Continuous
 62
     7
370
    15
100
AcDbLine
 10
2296.263962390701
 20
1214.568440180299
 30
0.0
 11
2296.179888943914
 21
1214.519905612556
 31
0.0
  0
LINE
  5
4BA
330
44F
100
AcDbEntity
  8
0
  6
Continuous
 62
     7
370
    15
100
AcDbLine
 10
2297.140828928604
 20
1212.716141785298
 30
0.0
 11
2297.111932738026
 21
1212.699460369552
 31
0.0
  0
LINE
  5
4BB
330
44F
100
AcDbEntity
  8
0
  6
Continuous
 62
     7
370
    15
100
AcDbLine
 10
2307.611992509472
 20
1216.357100586806
 30
0.0
 11
2305.442068436121
 21
1215.104430083102
 31
0.0
  0
LINE
  5
4BC
330
44F
100
AcDbEntity
  8
0
  6
Continuous
 62
     7
370
    15
100
AcDbLine
 10
2307.811002573149
 20
1216.765523871419
 30
0.0
 11
2307.611992509472
 21
1216.357100586806
 31
0.0
  0
LWPOLYLINE
  5
4BD
330
44F
100
AcDbEntity
  8
0
  6
Continuous
 62
     7
370
    15
100
AcDbPolyline
 90
       10
 70
   128
 43
0.0
 10
2310.074160951448
 20
1212.618467896736
 10
2310.115555938738
 20
1212.588821481908
 10
2310.154487663169
 20
1212.549115670956
 10
2310.188606249534
 20
1212.501747062082
 10
2310.215852338238
 20
1212.449574771373
 10
2310.234581385935
 20
1212.395747859765
 10
2310.243662928318
 20
1212.343515259252
 10
2310.242548813678
 20
1212.296029671
 10
2310.231306288724
 20
1212.256157271842
 10
2310.210613939649
 20
1212.226304715056
  0
LINE
  5
4BE
330
44F
100
AcDbEntity
  8
0
  6
Continuous
 62
     7
370
    15
100
AcDbLine
 10
2305.604974990373
 20
1215.19847403509
 30
0.0
 11
2310.074160951448
 21
1212.618467896736
 31
0.0
  0
LINE
  5
4BF
330
44F
100
AcDbEntity
  8
0
  6
Continuous
 62
     7
370
    15
100
AcDbLine
 10
2296.159038359341
 20
1213.372015802055
 30
0.0
 11
2296.052972342163
 21
1213.310785193668
 31
0.0
  0
SPLINE
  5
4C0
330
44F
100
AcDbEntity
  8
0
  6
Continuous
 62
     7
370
    15
100
AcDbSpline
210
0.0
220
0.0
230
1.0
 70
     8
 71
     3
 72
    11
 73
     7
 74
     0
 42
0.0000000001
 43
0.0000000001
 40
0.0
 40
0.0
 40
0.0
 40
0.0
 40
0.2371098873294951
 40
0.4913847377482809
 40
0.7456693269296295
 40
1.0
 40
1.0
 40
1.0
 40
1.0
 10
2295.595208746522
 20
1213.845270960353
 30
0.0
 10
2295.563401110368
 20
1213.835505392066
 30
0.0
 10
2295.497483205693
 20
1213.815267302182
 30
0.0
 10
2295.381789457817
 20
1213.822548080381
 30
0.0
 10
2295.256590367557
 20
1213.857303347143
 30
0.0
 10
2295.170760028191
 20
1213.902726074384
 30
0.0
 10
2295.12784097011
 20
1213.925439495804
 30
0.0
  0
SPLINE
  5
4C1
330
44F
100
AcDbEntity
  8
0
  6
Continuous
 62
     7
370
    15
100
AcDbSpline
210
0.0
220
0.0
230
1.0
 70
     8
 71
     3
 72
    11
 73
     7
 74
     0
 42
0.0000000001
 43
0.0000000001
 40
0.0
 40
0.0
 40
0.0
 40
0.0
 40
0.3311299261978928
 40
0.6622258625543161
 40
0.9932600440818111
 40
1.0
 40
1.0
 40
1.0
 40
1.0
 10
2295.12784097011
 20
1213.925439495804
 30
0.0
 10
2295.084153632497
 20
1213.952660046791
 30
0.0
 10
2294.996783441691
 20
1214.007098354629
 30
0.0
 10
2294.870390787931
 20
1214.119540062198
 30
0.0
 10
2294.786882598781
 20
1214.204908875603
 30
0.0
 10
2294.750682735189
 20
1214.255564866392
 30
0.0
 10
2294.749960401956
 20
1214.256575657649
 30
0.0
  0
SPLINE
  5
4C2
330
44F
100
AcDbEntity
  8
0
  6
Continuous
 62
     7
370
    15
100
AcDbSpline
210
0.0
220
0.0
230
1.0
 70
     8
 71
     3
 72
     9
 73
     5
 74
     0
 42
0.0000000001
 43
0.0000000001
 40
0.0
 40
0.0
 40
0.0
 40
0.0
 40
0.3678258904046657
 40
1.0
 40
1.0
 40
1.0
 40
1.0
 10
2294.410892486133
 20
1214.959293849569
 30
0.0
 10
2294.403932787661
 20
1214.991002474761
 30
0.0
 10
2294.38501161149
 20
1215.077208003026
 30
0.0
 10
2294.383292630254
 20
1215.156792074847
 30
0.0
 10
2294.382205934821
 20
1215.207103064588
 30
0.0
  0
SPLINE
  5
4C3
330
44F
100
AcDbEntity
  8
0
  6
Continuous
 62
     7
370
    15
100
AcDbSpline
210
0.0
220
0.0
230
1.0
 70
     8
 71
     3
 72
    11
 73
     7
 74
     0
 42
0.0000000001
 43
0.0000000001
 40
0.0
 40
0.0
 40
0.0
 40
0.0
 40
0.2529491650982927
 40
0.5058694781316557
 40
0.7587949585781793
 40
1.0
 40
1.0
 40
1.0
 40
1.0
 10
2294.382205934821
 20
1215.207103064588
 30
0.0
 10
2294.384191889773
 20
1215.256317331673
 30
0.0
 10
2294.388163573156
 20
1215.354740252331
 30
0.0
 10
2294.422106106799
 20
1215.481786702947
 30
0.0
 10
2294.474150011152
 20
1215.588611229808
 30
0.0
 10
2294.524411654002
 20
1215.63914576453
 30
0.0
 10
2294.54894638948
 20
1215.66381370954
 30
0.0
  0
LINE
  5
4C4
330
44F
100
AcDbEntity
  8
0
  6
Continuous
 62
     7
370
    15
100
AcDbLine
 10
2295.742026667872
 20
1214.430273758467
 30
0.0
 11
2295.729922457359
 21
1214.570803479898
 31
0.0
  0
SPLINE
  5
4C5
330
44F
100
AcDbEntity
  8
0
  6
Continuous
 62
     7
370
    15
100
AcDbSpline
210
0.0
220
0.0
230
1.0
 70
     8
 71
     3
 72
    10
 73
     6
 74
     0
 42
0.0000000001
 43
0.0000000001
 40
0.0
 40
0.0
 40
0.0
 40
0.0
 40
0.2963463080213686
 40
0.648141027885259
 40
1.0
 40
1.0
 40
1.0
 40
1.0
 10
2295.410737847436
 20
1215.230520894891
 30
0.0
 10
2295.384013540167
 20
1215.260579680113
 30
0.0
 10
2295.325564625791
 20
1215.326321453922
 30
0.0
 10
2295.227979316146
 20
1215.411083443446
 30
0.0
 10
2295.157823002335
 20
1215.455504544582
 30
0.0
 10
2295.122741642362
 20
1215.477717123246
 30
0.0
  0
SPLINE
  5
4C6
330
44F
100
AcDbEntity
  8
0
  6
Continuous
 62
     7
370
    15
100
AcDbSpline
210
0.0
220
0.0
230
1.0
 70
     8
 71
     3
 72
    11
 73
     7
 74
     0
 42
0.0000000001
 43
0.0000000001
 40
0.0
 40
0.0
 40
0.0
 40
0.0
 40
0.273340018614118
 40
0.5466959142970623
 40
0.8200887610076527
 40
1.0
 40
1.0
 40
1.0
 40
1.0
 10
2295.122741642362
 20
1215.477717123246
 30
0.0
 10
2295.077965661816
 20
1215.500572554368
 30
0.0
 10
2294.988411099892
 20
1215.546284744179
 30
0.0
 10
2294.861566653079
 20
1215.566012924404
 30
0.0
 10
2294.756358766677
 20
1215.560176463259
 30
0.0
 10
2294.703856917144
 20
1215.529855374234
 30
0.0
 10
2294.683019529843
 20
1215.517821278655
 30
0.0
  0
SPLINE
  5
4C7
330
44F
100
AcDbEntity
  8
0
  6
Continuous
 62
     7
370
    15
100
AcDbSpline
210
0.0
220
0.0
230
1.0
 70
     8
 71
     3
 72
    12
 73
     8
 74
     0
 42
0.0000000001
 43
0.0000000001
 40
0.0
 40
0.0
 40
0.0
 40
0.0
 40
0.0834596966822174
 40
0.3125874370700013
 40
0.5417189330730205
 40
0.770832431337737
 40
1.0
 40
1.0
 40
1.0
 40
1.0
 10
2295.572393714492
 20
1214.048948250076
 30
0.0
 10
2295.582111984308
 20
1214.053047960351
 30
0.0
 10
2295.618510499705
 20
1214.068402891875
 30
0.0
 10
2295.664066423966
 20
1214.124380642002
 30
0.0
 10
2295.710255016681
 20
1214.207388393693
 30
0.0
 10
2295.737207814454
 20
1214.31100394928
 30
0.0
 10
2295.740420257059
 20
1214.390514028399
 30
0.0
 10
2295.742026667872
 20
1214.430273758467
 30
0.0
  0
LINE
  5
4C8
330
44F
100
AcDbEntity
  8
0
  6
Continuous
 62
     7
370
    15
100
AcDbLine
 10
2295.122741642362
 20
1215.477717123246
 30
0.0
 11
2295.016675625183
 21
1215.41648651486
 31
0.0
  0
LINE
  5
4C9
330
44F
100
AcDbEntity
  8
0
  6
Continuous
 62
     7
370
    15
100
AcDbLine
 10
2295.742026667872
 20
1214.430273758467
 30
0.0
 11
2295.635960650694
 21
1214.36904315008
 31
0.0
  0
SPLINE
  5
4CA
330
44F
100
AcDbEntity
  8
0
  6
Continuous
 62
     7
370
    15
100
AcDbSpline
210
0.0
220
0.0
230
1.0
 70
     8
 71
     3
 72
    31
 73
    27
 74
     0
 42
0.0000000001
 43
0.0000000001
 40
0.0
 40
0.0
 40
0.0
 40
0.0
 40
0.0429150821010498
 40
0.0851299705846959
 40
0.1264733185549942
 40
0.167453037885382
 40
0.2079763328949845
 40
0.248249378063759
 40
0.2887499869834445
 40
0.329669856910869
 40
0.37053728671198
 40
0.411128563917128
 40
0.4518189126736451
 40
0.492405876934268
 40
0.533485861742029
 40
0.5752630624415511
 40
0.6174406128021851
 40
0.6606716882923731
 40
0.703940204243499
 40
0.7468675221598719
 40
0.7890793003947271
 40
0.83110404245742
 40
0.8732379898547851
 40
0.91516576965933
 40
0.957380658142997
 40
1.0
 40
1.0
 40
1.0
 40
1.0
 10
2295.635960650694
 20
1214.36904315008
 30
0.0
 10
2295.635798576576
 20
1214.3849615097
 30
0.0
 10
2295.635477072707
 20
1214.416538508273
 30
0.0
 10
2295.63121726968
 20
1214.465405535859
 30
0.0
 10
2295.625115588547
 20
1214.51430579926
 30
0.0
 10
2295.616322126587
 20
1214.563551790257
 30
0.0
 10
2295.604988152918
 20
1214.613067442231
 30
0.0
 10
2295.591012760997
 20
1214.662870647109
 30
0.0
 10
2295.57453301138
 20
1214.713037762434
 30
0.0
 10
2295.555619632593
 20
1214.763427478432
 30
0.0
 10
2295.534359629407
 20
1214.81357632358
 30
0.0
 10
2295.511128446936
 20
1214.863196278002
 30
0.0
 10
2295.485524979871
 20
1214.911838904988
 30
0.0
 10
2295.458280751633
 20
1214.959917867384
 30
0.0
 10
2295.428715249232
 20
1215.007136036647
 30
0.0
 10
2295.396962399381
 20
1215.053426100213
 30
0.0
 10
2295.363407686422
 20
1215.099240275917
 30
0.0
 10
2295.327879718179
 20
1215.143605054146
 30
0.0
 10
2295.291213623873
 20
1215.186801852932
 30
0.0
 10
2295.253589903241
 20
1215.227395790221
 30
0.0
 10
2295.215434785138
 20
1215.265460121495
 30
0.0
 10
2295.176845296302
 20
1215.301416501184
 30
0.0
 10
2295.137496630959
 20
1215.33412087664
 30
0.0
 10
2295.097654667513
 20
1215.364226480674
 30
0.0
 10
2295.057374528288
 20
1215.392424861302
 30
0.0
 10
2295.030284976689
 20
1215.408440511747
 30
0.0
 10
2295.016675625183
 20
1215.41648651486
 30
0.0
  0
SPLINE
  5
4CB
330
44F
100
AcDbEntity
  8
0
  6
Continuous
 62
     7
370
    15
100
AcDbSpline
210
0.0
220
0.0
230
1.0
 70
     8
 71
     3
 72
    23
 73
    19
 74
     0
 42
0.0000000001
 43
0.0000000001
 40
0.0
 40
0.0
 40
0.0
 40
0.0
 40
0.0645039992970416
 40
0.126899321590046
 40
0.187746540100007
 40
0.248149732929817
 40
0.308586064762737
 40
0.36958300508699
 40
0.431826965381046
 40
0.496179722524161
 40
0.560667854611876
 40
0.623504455117654
 40
0.6852604113304161
 40
0.746536821751172
 40
0.8083273517366919
 40
0.8704861878877549
 40
0.9343168833592429
 40
1.0
 40
1.0
 40
1.0
 40
1.0
 10
2294.403056519394
 20
1215.073259341047
 30
0.0
 10
2294.403571641415
 20
1215.049369900677
 30
0.0
 10
2294.404585045787
 20
1215.002371981027
 30
0.0
 10
2294.413457243916
 20
1214.929235519465
 30
0.0
 10
2294.427123385338
 20
1214.855981765055
 30
0.0
 10
2294.447268803567
 20
1214.781995449447
 30
0.0
 10
2294.472462256387
 20
1214.707566810192
 30
0.0
 10
2294.503585820071
 20
1214.632717877734
 30
0.0
 10
2294.540460059071
 20
1214.55753686473
 30
0.0
 10
2294.582346449141
 20
1214.482826362526
 30
0.0
 10
2294.628135737312
 20
1214.410271835837
 30
0.0
 10
2294.676757502644
 20
1214.341719737235
 30
0.0
 10
2294.727690851585
 20
1214.278063703618
 30
0.0
 10
2294.78106860613
 20
1214.219344649044
 30
0.0
 10
2294.836605798648
 20
1214.165171907396
 30
0.0
 10
2294.894660296158
 20
1214.116503400592
 30
0.0
 10
2294.954845370462
 20
1214.071785621499
 30
0.0
 10
2294.995869950327
 20
1214.047144830515
 30
0.0
 10
2295.016675625183
 20
1214.034648217822
 30
0.0
  0
SPLINE
  5
4CC
330
44F
100
AcDbEntity
  8
0
  6
Continuous
 62
     7
370
    15
100
AcDbSpline
210
0.0
220
0.0
230
1.0
 70
     8
 71
     3
 72
    31
 73
    27
 74
     0
 42
0.0000000001
 43
0.0000000001
 40
0.0
 40
0.0
 40
0.0
 40
0.0
 40
0.0420233285259403
 40
0.0836449111687154
 40
0.124983795417396
 40
0.166247461172907
 40
0.207701556097003
 40
0.249631070799651
 40
0.291741770332139
 40
0.3347428753531945
 40
0.377460168550867
 40
0.419556318841936
 40
0.4610441763330411
 40
0.502096283944406
 40
0.5428907140756
 40
0.583800818626512
 40
0.624863583310194
 40
0.666224689069158
 40
0.70739918647794
 40
0.748556677536686
 40
0.7896545909521761
 40
0.830739726489838
 40
0.8720701422586
 40
0.9139933952421339
 40
0.956498130067581
 40
1.0
 40
1.0
 40
1.0
 40
1.0
 10
2295.016675625183
 20
1215.41648651486
 30
0.0
 10
2295.003254886546
 20
1215.424045222696
 30
0.0
 10
2294.976541712447
 20
1215.439090376606
 30
0.0
 10
2294.936828762695
 20
1215.457062937359
 30
0.0
 10
2294.897638103192
 20
1215.472627696762
 30
0.0
 10
2294.858961640287
 20
1215.484885319266
 30
0.0
 10
2294.820961200878
 20
1215.493102729347
 30
0.0
 10
2294.783282575143
 20
1215.499064146909
 30
0.0
 10
2294.746269351961
 20
1215.501197881389
 30
0.0
 10
2294.710043722904
 20
1215.500379912571
 30
0.0
 10
2294.674924729177
 20
1215.496601220313
 30
0.0
 10
2294.641786593552
 20
1215.489148731434
 30
0.0
 10
2294.610543527332
 20
1215.478695368818
 30
0.0
 10
2294.581272027274
 20
1215.465130483979
 30
0.0
 10
2294.554058044094
 20
1215.448249324605
 30
0.0
 10
2294.528365944907
 20
1215.428855196197
 30
0.0
 10
2294.505225539457
 20
1215.40537533008
 30
0.0
 10
2294.484018163863
 20
1215.379165824255
 30
0.0
 10
2294.465040290516
 20
1215.350105613828
 30
0.0
 10
2294.448164538777
 20
1215.318689519338
 30
0.0
 10
2294.434360194606
 20
1215.284022248715
 30
0.0
 10
2294.423102094486
 20
1215.246869532843
 30
0.0
 10
2294.413768361404
 20
1215.207659508422
 30
0.0
 10
2294.407855363139
 20
1215.165190018891
 30
0.0
 10
2294.403518835057
 20
1215.120756292153
 30
0.0
 10
2294.40321181113
 20
1215.089213557125
 30
0.0
 10
2294.403056519394
 20
1215.073259341047
 30
0.0
  0
SPLINE
  5
4CD
330
44F
100
AcDbEntity
  8
0
  6
Continuous
 62
     7
370
    15
100
AcDbSpline
210
0.0
220
0.0
230
1.0
 70
     8
 71
     3
 72
    31
 73
    27
 74
     0
 42
0.0000000001
 43
0.0000000001
 40
0.0
 40
0.0
 40
0.0
 40
0.0
 40
0.0436332182657604
 40
0.0865377766972013
 40
0.1291773360898848
 40
0.17143632366383
 40
0.213415894570893
 40
0.255265954553841
 40
0.2973694811566105
 40
0.3399407478985545
 40
0.38234745875181
 40
0.4239529468152715
 40
0.464871163261009
 40
0.505572294118271
 40
0.5460025771083111
 40
0.5865679748069191
 40
0.6270647991481651
 40
0.6682706840331701
 40
0.7095492248503321
 40
0.7504281535131791
 40
0.791096194448593
 40
0.832027144779426
 40
0.87313595533597
 40
0.9146107643654438
 40
0.9569559864804229
 40
1.0
 40
1.0
 40
1.0
 40
1.0
 10
2295.016675625183
 20
1214.034648217822
 30
0.0
 10
2295.030659975632
 20
1214.026797091988
 30
0.0
 10
2295.058395142653
 20
1214.011225951438
 30
0.0
 10
2295.09964796333
 20
1213.991843237713
 30
0.0
 10
2295.140157590285
 20
1213.975564638149
 30
0.0
 10
2295.179867203961
 20
1213.962873494885
 30
0.0
 10
2295.218731736749
 20
1213.953244200083
 30
0.0
 10
2295.256913403074
 20
1213.94641698795
 30
0.0
 10
2295.294005513695
 20
1213.943985804321
 30
0.0
 10
2295.330475995625
 20
1213.943904321463
 30
0.0
 10
2295.365385348979
 20
1213.947659969212
 30
0.0
 10
2295.398710496502
 20
1213.954102282705
 30
0.0
 10
2295.429611458761
 20
1213.964711175218
 30
0.0
 10
2295.458861060638
 20
1213.977836093112
 30
0.0
 10
2295.486186773485
 20
1213.994239464187
 30
0.0
 10
2295.511403811172
 20
1214.013986127702
 30
0.0
 10
2295.534427261364
 20
1214.037341631115
 30
0.0
 10
2295.555626583934
 20
1214.063497460983
 30
0.0
 10
2295.57453795792
 20
1214.092705557154
 30
0.0
 10
2295.591015202188
 20
1214.124500929428
 30
0.0
 10
2295.604994143964
 20
1214.158818909175
 30
0.0
 10
2295.616278964052
 20
1214.195833678644
 30
0.0
 10
2295.625122025975
 20
1214.235316877968
 30
0.0
 10
2295.631215233761
 20
1214.277506068941
 30
0.0
 10
2295.635477446618
 20
1214.321779369167
 30
0.0
 10
2295.635798706315
 20
1214.353202837404
 30
0.0
 10
2295.635960650694
 20
1214.36904315008
 30
0.0
  0
LINE
  5
4CE
330
44F
100
AcDbEntity
  8
0
  6
Continuous
 62
     7
370
    15
100
AcDbLine
 10
2295.12784097011
 20
1213.925439495804
 30
0.0
 11
2295.021774952933
 21
1213.864208887417
 31
0.0
  0
LINE
  5
4CF
330
44F
100
AcDbEntity
  8
0
  6
Continuous
 62
     7
370
    15
100
AcDbLine
 10
2294.382205934821
 20
1215.207103064588
 30
0.0
 11
2294.276139917643
 21
1215.145872456201
 31
0.0
  0
ARC
  5
4D0
330
44F
100
AcDbEntity
  8
0
  6
Continuous
 62
     7
370
    15
100
AcDbCircle
 10
2300.634632749108
 20
1221.512257598972
 30
0.0
 40
0.270178678398144
100
AcDbArc
 50
79.4996640596355
 51
118.7683211127398
  0
LWPOLYLINE
  5
4D1
330
44F
100
AcDbEntity
  8
0
  6
Continuous
 62
     8
370
    15
100
AcDbPolyline
 90
        3
 70
   128
 43
0.0
 10
2303.31632282308
 20
1208.246315169921
 10
2303.279639331364
 20
1208.210860397982
 10
2303.252044441214
 20
1208.192257373227
  0
ARC
  5
4D2
330
44F
100
AcDbEntity
  8
0
  6
Continuous
 62
     8
370
    15
100
AcDbCircle
 10
2302.844514651502
 20
1208.314031166332
 30
0.0
 40
0.1198706704700183
100
AcDbArc
 50
172.7422473090542
 51
235.962802108529
  0
ARC
  5
4D3
330
44F
100
AcDbEntity
  8
0
  6
Continuous
 62
     8
370
    15
100
AcDbCircle
 10
2293.902429235985
 20
1213.476196265016
 30
0.0
 40
0.1198813865696871
100
AcDbArc
 50
172.7441704281666
 51
235.9436491784523
  0
LINE
  5
4D4
330
44F
100
AcDbEntity
  8
0
  6
Continuous
 62
     8
370
    15
100
AcDbLine
 10
2310.074160951448
 20
1212.618467896736
 30
0.0
 11
2308.274604961738
 21
1211.579606336666
 31
0.0
  0
ARC
  5
4D5
330
44F
100
AcDbEntity
  8
0
  6
Continuous
 62
     8
370
    15
100
AcDbCircle
 10
2293.740341532529
 20
1217.532225129136
 30
0.0
 40
0.2702209026115187
100
AcDbArc
 50
79.50130187083001
 51
118.7180424438207
  0
ARC
  5
4D6
330
44F
100
AcDbEntity
  8
0
  6
Continuous
 62
     8
370
    15
100
AcDbCircle
 10
2293.517341333117
 20
1217.359199695607
 30
0.0
 40
0.1259441595588586
100
AcDbArc
 50
186.0047099658714
 51
245.5982778551702
  0
ARC
  5
4D7
330
44F
100
AcDbEntity
  8
0
  6
Continuous
 62
     8
370
    15
100
AcDbCircle
 10
2293.517200756428
 20
1214.157000070892
 30
0.0
 40
0.1257348196233082
100
AcDbArc
 50
185.6947992511715
 51
245.6253417064922
  0
ENDBLK
  5
451
330
44F
100
AcDbEntity
  8
0
100
AcDbBlockEnd
  0
ENDSEC
  0
SECTION
  2
ENTITIES
  0
INSERT
  5
40A
330
1F
100
AcDbEntity
  8
0
100
AcDbBlockReference
  2
1
 10
0.0
 20
0.0
 30
0.0
  0
INSERT
  5
42F
330
1F
100
AcDbEntity
  8
0
100
AcDbBlockReference
  2
2
 10
0.0
 20
8.718936450154842
 30
0.0
  0
INSERT
  5
44E
330
1F
100
AcDbEntity
  8
0
100
AcDbBlockReference
  2
3
 10
4545.52898129169
 20
0.0
 30
0.0
 41
-1.0
  0
INSERT
  5
4D8
330
1F
100
AcDbEntity
  8
0
100
AcDbBlockReference
  2
4
 10
0.0
 20
17.82511661473586
 30
0.0
  0
ENDSEC
  0
SECTION
  2
OBJECTS
  0
DICTIONARY
  5
C
330
0
100
AcDbDictionary
281
     1
  3
ACAD_COLOR
350
6B
  3
ACAD_GROUP
350
D
  3
ACAD_LAYOUT
350
1A
  3
ACAD_MATERIAL
350
6A
  3
ACAD_MLEADERSTYLE
350
12D
  3
ACAD_MLINESTYLE
350
17
  3
ACAD_PLOTSETTINGS
350
19
  3
ACAD_PLOTSTYLENAME
350
E
  3
ACAD_SCALELIST
350
10C
  3
ACAD_TABLESTYLE
350
7E
  3
ACAD_VISUALSTYLE
350
EF
  3
ACDB_RECOMPOSE_DATA
350
15D
  3
AcDbVariableDictionary
350
5E
  3
DWGPROPS
350
4E8
  0
DICTIONARY
  5
13C
330
10
100
AcDbDictionary
280
     1
281
     1
  3
ADSK_XREC_LAYER_RECONCILED
360
4D9
  0
DICTIONARY
  5
6B
102
{ACAD_REACTORS
330
C
102
}
330
C
100
AcDbDictionary
281
     1
  0
DICTIONARY
  5
D
102
{ACAD_REACTORS
330
C
102
}
330
C
100
AcDbDictionary
281
     1
  0
DICTIONARY
  5
1A
102
{ACAD_REACTORS
330
C
102
}
330
C
100
AcDbDictionary
281
     1
  3
Layout1
350
D3
  3
Layout2
350
D7
  3
Model
350
22
  0
DICTIONARY
  5
6A
102
{ACAD_REACTORS
330
C
102
}
330
C
100
AcDbDictionary
281
     1
  3
ByBlock
350
ED
  3
ByLayer
350
EC
  3
Global
350
EE
  0
DICTIONARY
  5
12D
102
{ACAD_REACTORS
330
C
102
}
330
C
100
AcDbDictionary
281
     1
  3
Annotative
350
13B
  3
Standard
350
12E
  0
DICTIONARY
  5
17
102
{ACAD_REACTORS
330
C
102
}
330
C
100
AcDbDictionary
281
     1
  3
Standard
350
18
  0
DICTIONARY
  5
19
102
{ACAD_REACTORS
330
C
102
}
330
C
100
AcDbDictionary
281
     1
  0
ACDBDICTIONARYWDFLT
  5
E
102
{ACAD_REACTORS
330
C
102
}
330
C
100
AcDbDictionary
281
     1
  3
Normal
350
F
100
AcDbDictionaryWithDefault
340
F
  0
DICTIONARY
  5
10C
102
{ACAD_REACTORS
330
C
102
}
330
C
100
AcDbDictionary
281
     1
  3
A0
350
10D
  3
A1
350
188
  3
A2
350
189
  3
A3
350
18A
  3
A4
350
18B
  3
A5
350
18C
  3
A6
350
18D
  3
A7
350
18E
  3
A8
350
18F
  3
A9
350
190
  3
B0
350
191
  3
B1
350
192
  3
B2
350
193
  3
B3
350
194
  3
B4
350
195
  3
B5
350
196
  3
B6
350
197
  3
B7
350
198
  3
B8
350
199
  3
B9
350
19A
  3
C0
350
19B
  3
C1
350
19C
  3
C2
350
19D
  3
C3
350
19E
  3
C4
350
19F
  3
C5
350
1A0
  3
C6
350
1A1
  3
C7
350
1A2
  3
C8
350
1A3
  3
C9
350
1A4
  3
D0
350
1A5
  3
D1
350
1A6
  3
D2
350
1A7
  0
DICTIONARY
  5
7E
102
{ACAD_REACTORS
330
C
102
}
330
C
100
AcDbDictionary
281
     1
  3
Standard
350
7F
  0
DICTIONARY
  5
EF
102
{ACAD_REACTORS
330
C
102
}
330
C
100
AcDbDictionary
281
     1
  3
2dWireframe
350
F5
  3
3D Hidden
350
F7
  3
3dWireframe
350
F6
  3
Basic
350
F4
  3
Brighten
350
FB
  3
ColorChange
350
FF
  3
Conceptual
350
F8
  3
Dim
350
FA
  3
Facepattern
350
FE
  3
Flat
350
F0
  3
FlatWithEdges
350
F1
  3
Gouraud
350
F2
  3
GouraudWithEdges
350
F3
  3
Linepattern
350
FD
  3
Realistic
350
F9
  3
Thicken
350
FC
  0
XRECORD
  5
15D
102
{ACAD_REACTORS
330
C
102
}
330
C
100
AcDbXrecord
280
     1
 90
        1
330
7F
  0
DICTIONARY
  5
5E
102
{ACAD_REACTORS
330
C
102
}
330
C
100
AcDbDictionary
281
     1
  3
CANNOSCALE
350
146
  3
CMLEADERSTYLE
350
145
  3
CTABLESTYLE
350
84
  3
DIMASSOC
350
5F
  3
HIDETEXT
350
63
  3
INDEXCTL
350
4E4
  3
LIGHTINGUNITS
350
4E2
  3
MSLTSCALE
350
4E1
  3
PSOLHEIGHT
350
4E6
  3
PSOLWIDTH
350
4E5
  3
SORTENTS
350
4E3
  0
XRECORD
  5
4E8
102
{ACAD_REACTORS
330
C
102
}
330
C
100
AcDbXrecord
280
     1
  1
DWGPROPS COOKIE
  2

  3

  4

  6

  7

  8
orhan kara
  9

300
=
301
=
302
=
303
=
304
=
305
=
306
=
307
=
308
=
309
=
 40
0.0005389351851852
 41
2459076.452049318
 42
2459083.598458391
  1

 90
        0
  0
XRECORD
  5
4D9
102
{ACAD_REACTORS
330
13C
102
}
330
13C
100
AcDbXrecord
280
     1
290
     1
  0
LAYOUT
  5
D3
102
{ACAD_XDICTIONARY
360
4EC
102
}
102
{ACAD_REACTORS
330
1A
102
}
330
1A
100
AcDbPlotSettings
  1

  2
C:\Documents and Settings\basas\Application Data\Autodesk\AutoCAD 2005\R16.1\enu\plotters\Default Windows System Printer.pc3
  4

  6

 40
0.0
 41
0.0
 42
0.0
 43
0.0
 44
0.0
 45
0.0
 46
0.0
 47
0.0
 48
0.0
 49
0.0
140
0.0
141
0.0
142
1.0
143
1.0
 70
   688
 72
     0
 73
     0
 74
     5
  7

 75
    16
147
1.0
148
0.0
149
0.0
100
AcDbLayout
  1
Layout1
 70
     1
 71
     1
 10
0.0
 20
0.0
 11
12.0
 21
9.0
 12
0.0
 22
0.0
 32
0.0
 14
0.0
 24
0.0
 34
0.0
 15
0.0
 25
0.0
 35
0.0
146
0.0
 13
0.0
 23
0.0
 33
0.0
 16
1.0
 26
0.0
 36
0.0
 17
0.0
 27
1.0
 37
0.0
 76
     0
330
D2
  0
LAYOUT
  5
D7
102
{ACAD_XDICTIONARY
360
4EE
102
}
102
{ACAD_REACTORS
330
1A
102
}
330
1A
100
AcDbPlotSettings
  1

  2
C:\Documents and Settings\basas\Application Data\Autodesk\AutoCAD 2005\R16.1\enu\plotters\Default Windows System Printer.pc3
  4

  6

 40
0.0
 41
0.0
 42
0.0
 43
0.0
 44
0.0
 45
0.0
 46
0.0
 47
0.0
 48
0.0
 49
0.0
140
0.0
141
0.0
142
1.0
143
1.0
 70
   688
 72
     0
 73
     0
 74
     5
  7

 75
    16
147
1.0
148
0.0
149
0.0
100
AcDbLayout
  1
Layout2
 70
     1
 71
     2
 10
0.0
 20
0.0
 11
12.0
 21
9.0
 12
0.0
 22
0.0
 32
0.0
 14
0.0
 24
0.0
 34
0.0
 15
0.0
 25
0.0
 35
0.0
146
0.0
 13
0.0
 23
0.0
 33
0.0
 16
1.0
 26
0.0
 36
0.0
 17
0.0
 27
1.0
 37
0.0
 76
     0
330
D6
  0
LAYOUT
  5
22
102
{ACAD_XDICTIONARY
360
4E9
102
}
102
{ACAD_REACTORS
330
1A
102
}
330
1A
100
AcDbPlotSettings
  1

  2
none_device
  4
ISO_A4_(210.00_x_297.00_MM)
  6

 40
7.5
 41
20.0
 42
7.5
 43
20.0
 44
210.0
 45
297.0
 46
11.54999923706054
 47
-13.65000009536743
 48
0.0
 49
0.0
140
0.0
141
0.0
142
1.0
143
8.704084754739808
 70
 11952
 72
     1
 73
     0
 74
     0
  7

 75
     0
147
0.1148885871608098
148
0.0
149
0.0
100
AcDbLayout
  1
Model
 70
     1
 71
     0
 10
0.0
 20
0.0
 11
12.0
 21
9.0
 12
0.0
 22
0.0
 32
0.0
 14
0.0
 24
0.0
 34
0.0
 15
0.0
 25
0.0
 35
0.0
146
0.0
 13
0.0
 23
0.0
 33
0.0
 16
1.0
 26
0.0
 36
0.0
 17
0.0
 27
1.0
 37
0.0
 76
     0
330
1F
331
EA
1001
ACAD_PSEXT
1000
None
1000
None
1000
Not applicable
1000
The layout will not be plotted unless a new plotter configuration name is selected.
1070
     0
  0
MATERIAL
  5
ED
102
{ACAD_XDICTIONARY
360
4F2
102
}
102
{ACAD_REACTORS
330
6A
102
}
330
6A
100
AcDbMaterial
  1
ByBlock
  0
MATERIAL
  5
EC
102
{ACAD_XDICTIONARY
360
4F0
102
}
102
{ACAD_REACTORS
330
6A
102
}
330
6A
100
AcDbMaterial
  1
ByLayer
  0
MATERIAL
  5
EE
102
{ACAD_XDICTIONARY
360
173
102
}
102
{ACAD_REACTORS
330
6A
102
}
330
6A
100
AcDbMaterial
  1
Global
 43
0.0007999999797903
 43
0.0
 43
0.0
 43
0.0
 43
0.0
 43
0.0007999999797903
 43
0.0
 43
0.0
 43
0.0
 43
0.0
 43
1.0
 43
0.0
 43
0.0
 43
0.0
 43
0.0
 43
1.0
 49
0.0007999999797903
 49
0.0
 49
0.0
 49
0.0
 49
0.0
 49
0.0007999999797903
 49
0.0
 49
0.0
 49
0.0
 49
0.0
 49
1.0
 49
0.0
 49
0.0
 49
0.0
 49
0.0
 49
1.0
142
0.0007999999797903
142
0.0
142
0.0
142
0.0
142
0.0
142
0.0007999999797903
142
0.0
142
0.0
142
0.0
142
0.0
142
1.0
142
0.0
142
0.0
142
0.0
142
0.0
142
1.0
144
0.0007999999797903
144
0.0
144
0.0
144
0.0
144
0.0
144
0.0007999999797903
144
0.0
144
0.0
144
0.0
144
0.0
144
1.0
144
0.0
144
0.0
144
0.0
144
0.0
144
1.0
1001
ACAD
1070
    -1
1070
     3
1070
     0
1000

1071
        0
1070
     0
  0
MLEADERSTYLE
  5
13B
102
{ACAD_REACTORS
330
12D
102
}
330
12D
100
AcDbMLeaderStyle
170
     2
171
     1
172
     0
 90
        2
 40
0.0
 41
0.0
173
     1
 91
-1056964608
340
14
 92
       -2
290
     1
 42
2.0
291
     1
 43
8.0
  3
Standard
 44
4.0
300

342
11
174
     1
178
     1
175
     1
176
     0
 93
-1056964608
 45
4.0
292
     0
297
     0
 46
4.0
 94
-1056964608
 47
1.0
 49
1.0
140
1.0
293
     1
141
0.0
294
     1
177
     0
142
1.0
295
     0
296
     1
143
3.75
1001
ACAD_MLEADERVER
1070
     2
  0
MLEADERSTYLE
  5
12E
102
{ACAD_REACTORS
330
12D
102
}
330
12D
100
AcDbMLeaderStyle
170
     2
171
     1
172
     0
 90
        2
 40
0.0
 41
0.0
173
     1
 91
-1056964608
340
14
 92
       -2
290
     1
 42
2.0
291
     1
 43
8.0
  3
Standard
 44
4.0
300

342
11
174
     1
178
     1
175
     1
176
     0
 93
-1056964608
 45
4.0
292
     0
297
     0
 46
4.0
 94
-1056964608
 47
1.0
 49
1.0
140
1.0
293
     1
141
0.0
294
     1
177
     0
142
1.0
295
     0
296
     0
143
3.75
1001
ACAD_MLEADERVER
1070
     2
  0
MLINESTYLE
  5
18
102
{ACAD_REACTORS
330
17
102
}
330
17
100
AcDbMlineStyle
  2
STANDARD
 70
     0
  3

 62
   256
 51
90.0
 52
90.0
 71
     2
 49
0.5
 62
   256
  6
BYLAYER
 49
-0.5
 62
   256
  6
BYLAYER
  0
ACDBPLACEHOLDER
  5
F
102
{ACAD_REACTORS
330
E
102
}
330
E
  0
SCALE
  5
10D
102
{ACAD_REACTORS
330
10C
102
}
330
10C
100
AcDbScale
 70
     0
300
1:1
140
1.0
141
1.0
290
     1
  0
SCALE
  5
188
102
{ACAD_REACTORS
330
10C
102
}
330
10C
100
AcDbScale
 70
     0
300
1:2
140
1.0
141
2.0
290
     0
  0
SCALE
  5
189
102
{ACAD_REACTORS
330
10C
102
}
330
10C
100
AcDbScale
 70
     0
300
1:4
140
1.0
141
4.0
290
     0
  0
SCALE
  5
18A
102
{ACAD_REACTORS
330
10C
102
}
330
10C
100
AcDbScale
 70
     0
300
1:5
140
1.0
141
5.0
290
     0
  0
SCALE
  5
18B
102
{ACAD_REACTORS
330
10C
102
}
330
10C
100
AcDbScale
 70
     0
300
1:8
140
1.0
141
8.0
290
     0
  0
SCALE
  5
18C
102
{ACAD_REACTORS
330
10C
102
}
330
10C
100
AcDbScale
 70
     0
300
1:10
140
1.0
141
10.0
290
     0
  0
SCALE
  5
18D
102
{ACAD_REACTORS
330
10C
102
}
330
10C
100
AcDbScale
 70
     0
300
1:16
140
1.0
141
16.0
290
     0
  0
SCALE
  5
18E
102
{ACAD_REACTORS
330
10C
102
}
330
10C
100
AcDbScale
 70
     0
300
1:20
140
1.0
141
20.0
290
     0
  0
SCALE
  5
18F
102
{ACAD_REACTORS
330
10C
102
}
330
10C
100
AcDbScale
 70
     0
300
1:30
140
1.0
141
30.0
290
     0
  0
SCALE
  5
190
102
{ACAD_REACTORS
330
10C
102
}
330
10C
100
AcDbScale
 70
     0
300
1:40
140
1.0
141
40.0
290
     0
  0
SCALE
  5
191
102
{ACAD_REACTORS
330
10C
102
}
330
10C
100
AcDbScale
 70
     0
300
1:50
140
1.0
141
50.0
290
     0
  0
SCALE
  5
192
102
{ACAD_REACTORS
330
10C
102
}
330
10C
100
AcDbScale
 70
     0
300
1:100
140
1.0
141
100.0
290
     0
  0
SCALE
  5
193
102
{ACAD_REACTORS
330
10C
102
}
330
10C
100
AcDbScale
 70
     0
300
2:1
140
2.0
141
1.0
290
     0
  0
SCALE
  5
194
102
{ACAD_REACTORS
330
10C
102
}
330
10C
100
AcDbScale
 70
     0
300
4:1
140
4.0
141
1.0
290
     0
  0
SCALE
  5
195
102
{ACAD_REACTORS
330
10C
102
}
330
10C
100
AcDbScale
 70
     0
300
8:1
140
8.0
141
1.0
290
     0
  0
SCALE
  5
196
102
{ACAD_REACTORS
330
10C
102
}
330
10C
100
AcDbScale
 70
     0
300
10:1
140
10.0
141
1.0
290
     0
  0
SCALE
  5
197
102
{ACAD_REACTORS
330
10C
102
}
330
10C
100
AcDbScale
 70
     0
300
100:1
140
100.0
141
1.0
290
     0
  0
SCALE
  5
198
102
{ACAD_REACTORS
330
10C
102
}
330
10C
100
AcDbScale
 70
     0
300
1/128" = 1'-0"
140
0.0078125
141
12.0
290
     0
  0
SCALE
  5
199
102
{ACAD_REACTORS
330
10C
102
}
330
10C
100
AcDbScale
 70
     0
300
1/64" = 1'-0"
140
0.015625
141
12.0
290
     0
  0
SCALE
  5
19A
102
{ACAD_REACTORS
330
10C
102
}
330
10C
100
AcDbScale
 70
     0
300
1/32" = 1'-0"
140
0.03125
141
12.0
290
     0
  0
SCALE
  5
19B
102
{ACAD_REACTORS
330
10C
102
}
330
10C
100
AcDbScale
 70
     0
300
1/16" = 1'-0"
140
0.0625
141
12.0
290
     0
  0
SCALE
  5
19C
102
{ACAD_REACTORS
330
10C
102
}
330
10C
100
AcDbScale
 70
     0
300
3/32" = 1'-0"
140
0.09375
141
12.0
290
     0
  0
SCALE
  5
19D
102
{ACAD_REACTORS
330
10C
102
}
330
10C
100
AcDbScale
 70
     0
300
1/8" = 1'-0"
140
0.125
141
12.0
290
     0
  0
SCALE
  5
19E
102
{ACAD_REACTORS
330
10C
102
}
330
10C
100
AcDbScale
 70
     0
300
3/16" = 1'-0"
140
0.1875
141
12.0
290
     0
  0
SCALE
  5
19F
102
{ACAD_REACTORS
330
10C
102
}
330
10C
100
AcDbScale
 70
     0
300
1/4" = 1'-0"
140
0.25
141
12.0
290
     0
  0
SCALE
  5
1A0
102
{ACAD_REACTORS
330
10C
102
}
330
10C
100
AcDbScale
 70
     0
300
3/8" = 1'-0"
140
0.375
141
12.0
290
     0
  0
SCALE
  5
1A1
102
{ACAD_REACTORS
330
10C
102
}
330
10C
100
AcDbScale
 70
     0
300
1/2" = 1'-0"
140
0.5
141
12.0
290
     0
  0
SCALE
  5
1A2
102
{ACAD_REACTORS
330
10C
102
}
330
10C
100
AcDbScale
 70
     0
300
3/4" = 1'-0"
140
0.75
141
12.0
290
     0
  0
SCALE
  5
1A3
102
{ACAD_REACTORS
330
10C
102
}
330
10C
100
AcDbScale
 70
     0
300
1" = 1'-0"
140
1.0
141
12.0
290
     0
  0
SCALE
  5
1A4
102
{ACAD_REACTORS
330
10C
102
}
330
10C
100
AcDbScale
 70
     0
300
1-1/2" = 1'-0"
140
1.5
141
12.0
290
     0
  0
SCALE
  5
1A5
102
{ACAD_REACTORS
330
10C
102
}
330
10C
100
AcDbScale
 70
     0
300
3" = 1'-0"
140
3.0
141
12.0
290
     0
  0
SCALE
  5
1A6
102
{ACAD_REACTORS
330
10C
102
}
330
10C
100
AcDbScale
 70
     0
300
6" = 1'-0"
140
6.0
141
12.0
290
     0
  0
SCALE
  5
1A7
102
{ACAD_REACTORS
330
10C
102
}
330
10C
100
AcDbScale
 70
     0
300
1'-0" = 1'-0"
140
12.0
141
12.0
290
     0
  0
TABLESTYLE
  5
7F
102
{ACAD_XDICTIONARY
360
162
102
}
102
{ACAD_REACTORS
330
7E
102
}
330
7E
100
AcDbTableStyle
  3
Standard
 70
     0
 71
     0
 40
1.5
 41
1.5
280
     0
281
     0
  7
Standard
140
4.5
170
     2
 62
     0
 63
     7
283
     0
274
    -2
284
     1
 64
     0
275
    -2
285
     1
 65
     0
276
    -2
286
     1
 66
     0
277
    -2
287
     1
 67
     0
278
    -2
288
     1
 68
     0
279
    -2
289
     1
 69
     0
  7
Standard
140
6.0
170
     5
 62
     0
 63
     7
283
     0
274
    -2
284
     1
 64
     0
275
    -2
285
     1
 65
     0
276
    -2
286
     1
 66
     0
277
    -2
287
     1
 67
     0
278
    -2
288
     1
 68
     0
279
    -2
289
     1
 69
     0
  7
Standard
140
4.5
170
     5
 62
     0
 63
     7
283
     0
274
    -2
284
     1
 64
     0
275
    -2
285
     1
 65
     0
276
    -2
286
     1
 66
     0
277
    -2
287
     1
 67
     0
278
    -2
288
     1
 68
     0
279
    -2
289
     1
 69
     0
  0
VISUALSTYLE
  5
F5
102
{ACAD_REACTORS
330
EF
102
}
330
EF
100
AcDbVisualStyle
  2
2dWireframe
 70
     4
 71
     0
 72
     2
 73
     1
 90
        0
 40
-0.6
 41
-30.0
 62
     5
 63
     7
 74
     1
 91
        4
 64
     7
 65
   257
 75
     1
175
     1
 42
1.0
 92
        0
 66
   257
 43
1.0
 76
     1
 77
     6
 78
     2
 67
     7
 79
     5
170
     0
171
     0
290
     0
174
     0
 93
        1
 44
0.0
173
     0
291
     0
 45
0.0
1001
ACAD
1000
AcDbSavedByObjectVersion
1070
     0
  0
VISUALSTYLE
  5
F7
102
{ACAD_REACTORS
330
EF
102
}
330
EF
100
AcDbVisualStyle
  2
3D Hidden
 70
     6
 71
     1
 72
     2
 73
     2
 90
        0
 40
-0.6
 41
-30.0
 62
     5
 63
     7
 74
     2
 91
        2
 64
     7
 65
   257
 75
     2
175
     1
 42
40.0
 92
        0
 66
   257
 43
1.0
 76
     1
 77
     6
 78
     2
 67
     7
 79
     3
170
     0
171
     0
290
     0
174
     0
 93
        1
 44
0.0
173
     0
291
     0
 45
0.0
1001
ACAD
1000
AcDbSavedByObjectVersion
1070
     0
  0
VISUALSTYLE
  5
F6
102
{ACAD_REACTORS
330
EF
102
}
330
EF
100
AcDbVisualStyle
  2
3dWireframe
 70
     5
 71
     0
 72
     2
 73
     1
 90
        0
 40
-0.6
 41
-30.0
 62
     5
 63
     7
 74
     1
 91
        4
 64
     7
 65
   257
 75
     1
175
     1
 42
1.0
 92
        0
 66
   257
 43
1.0
 76
     1
 77
     6
 78
     2
 67
     7
 79
     5
170
     0
171
     0
290
     0
174
     0
 93
        1
 44
0.0
173
     0
291
     0
 45
0.0
1001
ACAD
1000
AcDbSavedByObjectVersion
1070
     0
  0
VISUALSTYLE
  5
F4
102
{ACAD_REACTORS
330
EF
102
}
330
EF
100
AcDbVisualStyle
  2
Basic
 70
     7
 71
     1
 72
     0
 73
     1
 90
        0
 40
-0.6
 41
-30.0
 62
     5
 63
     7
 74
     0
 91
        4
 64
     7
 65
   257
 75
     1
175
     1
 42
1.0
 92
        8
 66
     7
 43
1.0
 76
     1
 77
     6
 78
     2
 67
     7
 79
     5
170
     0
171
     0
290
     0
174
     0
 93
        1
 44
0.0
173
     0
291
     1
 45
0.0
1001
ACAD
1000
AcDbSavedByObjectVersion
1070
     0
  0
VISUALSTYLE
  5
FB
102
{ACAD_REACTORS
330
EF
102
}
330
EF
100
AcDbVisualStyle
  2
Brighten
 70
    12
 71
     2
 72
     2
 73
     1
 90
        0
 40
-0.6
 41
-30.0
 62
     5
 63
     7
 74
     1
 91
        4
 64
     7
 65
   257
 75
     1
175
     1
 42
1.0
 92
        8
 66
     7
 43
1.0
 76
     1
 77
     6
 78
     2
 67
     7
 79
     5
170
     0
171
     0
290
     0
174
     0
 93
        1
 44
50.0
173
     0
291
     1
 45
0.0
1001
ACAD
1000
AcDbSavedByObjectVersion
1070
     0
  0
VISUALSTYLE
  5
FF
102
{ACAD_REACTORS
330
EF
102
}
330
EF
100
AcDbVisualStyle
  2
ColorChange
 70
    16
 71
     2
 72
     2
 73
     3
 90
        0
 40
-0.6
 41
-30.0
 62
     5
 63
     8
 74
     1
 91
        4
 64
     7
 65
   257
 75
     1
175
     1
 42
1.0
 92
        8
 66
     8
 43
1.0
 76
     1
 77
     6
 78
     2
 67
     7
 79
     5
170
     0
171
     0
290
     0
174
     0
 93
        1
 44
0.0
173
     0
291
     1
 45
0.0
1001
ACAD
1000
AcDbSavedByObjectVersion
1070
     0
  0
VISUALSTYLE
  5
F8
102
{ACAD_REACTORS
330
EF
102
}
330
EF
100
AcDbVisualStyle
  2
Conceptual
 70
     9
 71
     3
 72
     2
 73
     1
 90
        0
 40
-0.6
 41
-30.0
 62
     5
 63
     7
 74
     2
 91
        2
 64
     7
 65
   257
 75
     1
175
     1
 42
40.0
 92
        8
 66
     7
 43
1.0
 76
     1
 77
     6
 78
     2
 67
     7
 79
     3
170
     0
171
     0
290
     0
174
     0
 93
        1
 44
0.0
173
     0
291
     0
 45
0.0
1001
ACAD
1000
AcDbSavedByObjectVersion
1070
     0
  0
VISUALSTYLE
  5
FA
102
{ACAD_REACTORS
330
EF
102
}
330
EF
100
AcDbVisualStyle
  2
Dim
 70
    11
 71
     2
 72
     2
 73
     1
 90
        0
 40
-0.6
 41
-30.0
 62
     5
 63
     7
 74
     1
 91
        4
 64
     7
 65
   257
 75
     1
175
     1
 42
1.0
 92
        8
 66
     7
 43
1.0
 76
     1
 77
     6
 78
     2
 67
     7
 79
     5
170
     0
171
     0
290
     0
174
     0
 93
        1
 44
-50.0
173
     0
291
     1
 45
0.0
1001
ACAD
1000
AcDbSavedByObjectVersion
1070
     0
  0
VISUALSTYLE
  5
FE
102
{ACAD_REACTORS
330
EF
102
}
330
EF
100
AcDbVisualStyle
  2
Facepattern
 70
    15
 71
     2
 72
     2
 73
     1
 90
        0
 40
-0.6
 41
-30.0
 62
     5
 63
     7
 74
     1
 91
        4
 64
     7
 65
   257
 75
     1
175
     1
 42
1.0
 92
        8
 66
     7
 43
1.0
 76
     1
 77
     6
 78
     2
 67
     7
 79
     5
170
     0
171
     0
290
     0
174
     0
 93
        1
 44
0.0
173
     0
291
     1
 45
0.0
1001
ACAD
1000
AcDbSavedByObjectVersion
1070
     0
  0
VISUALSTYLE
  5
F0
102
{ACAD_REACTORS
330
EF
102
}
330
EF
100
AcDbVisualStyle
  2
Flat
 70
     0
 71
     2
 72
     1
 73
     1
 90
        2
 40
-0.6
 41
30.0
 62
     5
 63
     7
 74
     0
 91
        4
 64
     7
 65
   257
 75
     1
175
     1
 42
1.0
 92
        8
 66
     7
 43
1.0
 76
     1
 77
     6
 78
     2
 67
     7
 79
     5
170
     0
171
     0
290
     0
174
     0
 93
        1
 44
0.0
173
     0
291
     1
 45
0.0
1001
ACAD
1000
AcDbSavedByObjectVersion
1070
     0
  0
VISUALSTYLE
  5
F1
102
{ACAD_REACTORS
330
EF
102
}
330
EF
100
AcDbVisualStyle
  2
FlatWithEdges
 70
     1
 71
     2
 72
     1
 73
     1
 90
        2
 40
-0.6
 41
30.0
 62
     5
 63
     7
 74
     1
 91
        4
 64
     7
 65
   257
 75
     1
175
     1
 42
1.0
 92
        0
 66
   257
 43
1.0
 76
     1
 77
     6
 78
     2
 67
     7
 79
     5
170
     0
171
     0
290
     0
174
     0
 93
        1
 44
0.0
173
     0
291
     1
 45
0.0
1001
ACAD
1000
AcDbSavedByObjectVersion
1070
     0
  0
VISUALSTYLE
  5
F2
102
{ACAD_REACTORS
330
EF
102
}
330
EF
100
AcDbVisualStyle
  2
Gouraud
 70
     2
 71
     2
 72
     2
 73
     1
 90
        2
 40
-0.6
 41
30.0
 62
     5
 63
     7
 74
     0
 91
        4
 64
     7
 65
   257
 75
     1
175
     1
 42
1.0
 92
        0
 66
     7
 43
1.0
 76
     1
 77
     6
 78
     2
 67
     7
 79
     5
170
     0
171
     0
290
     0
174
     0
 93
        1
 44
0.0
173
     0
291
     1
 45
0.0
1001
ACAD
1000
AcDbSavedByObjectVersion
1070
     0
  0
VISUALSTYLE
  5
F3
102
{ACAD_REACTORS
330
EF
102
}
330
EF
100
AcDbVisualStyle
  2
GouraudWithEdges
 70
     3
 71
     2
 72
     2
 73
     1
 90
        2
 40
-0.6
 41
30.0
 62
     5
 63
     7
 74
     1
 91
        4
 64
     7
 65
   257
 75
     1
175
     1
 42
1.0
 92
        0
 66
   257
 43
1.0
 76
     1
 77
     6
 78
     2
 67
     7
 79
     5
170
     0
171
     0
290
     0
174
     0
 93
        1
 44
0.0
173
     0
291
     1
 45
0.0
1001
ACAD
1000
AcDbSavedByObjectVersion
1070
     0
  0
VISUALSTYLE
  5
FD
102
{ACAD_REACTORS
330
EF
102
}
330
EF
100
AcDbVisualStyle
  2
Linepattern
 70
    14
 71
     2
 72
     2
 73
     1
 90
        0
 40
-0.6
 41
-30.0
 62
     5
 63
     7
 74
     1
 91
        4
 64
     7
 65
   257
 75
     7
175
     7
 42
1.0
 92
        8
 66
     7
 43
1.0
 76
     1
 77
     6
 78
     2
 67
     7
 79
     5
170
     0
171
     0
290
     0
174
     0
 93
        1
 44
0.0
173
     0
291
     1
 45
0.0
1001
ACAD
1000
AcDbSavedByObjectVersion
1070
     0
  0
VISUALSTYLE
  5
F9
102
{ACAD_REACTORS
330
EF
102
}
330
EF
100
AcDbVisualStyle
  2
Realistic
 70
     8
 71
     2
 72
     2
 73
     1
 90
        0
 40
-0.6
 41
-30.0
 62
     5
 63
     7
 74
     1
 91
        0
 64
     7
 65
   257
 75
     1
175
     1
 42
1.0
 92
        8
 66
     8
 43
1.0
 76
     1
 77
     6
 78
     2
 67
     7
 79
     5
170
     0
171
     0
290
     0
174
     0
 93
       13
 44
0.0
173
     0
291
     0
 45
0.0
1001
ACAD
1000
AcDbSavedByObjectVersion
1070
     0
  0
VISUALSTYLE
  5
FC
102
{ACAD_REACTORS
330
EF
102
}
330
EF
100
AcDbVisualStyle
  2
Thicken
 70
    13
 71
     2
 72
     2
 73
     1
 90
        0
 40
-0.6
 41
-30.0
 62
     5
 63
     7
 74
     1
 91
        4
 64
     7
 65
   257
 75
     1
175
     1
 42
1.0
 92
       12
 66
     7
 43
1.0
 76
     1
 77
     6
 78
     2
 67
     7
 79
     5
170
     0
171
     0
290
     0
174
     0
 93
        1
 44
0.0
173
     0
291
     1
 45
0.0
1001
ACAD
1000
AcDbSavedByObjectVersion
1070
     0
  0
DICTIONARYVAR
  5
146
102
{ACAD_REACTORS
330
5E
102
}
330
5E
100
DictionaryVariables
280
     0
  1
1:1
  0
DICTIONARYVAR
  5
145
102
{ACAD_REACTORS
330
5E
102
}
330
5E
100
DictionaryVariables
280
     0
  1
STANDARD
  0
DICTIONARYVAR
  5
84
102
{ACAD_REACTORS
330
5E
102
}
330
5E
100
DictionaryVariables
280
     0
  1
STANDARD
  0
DICTIONARYVAR
  5
5F
102
{ACAD_REACTORS
330
5E
102
}
330
5E
100
DictionaryVariables
280
     0
  1
2
  0
DICTIONARYVAR
  5
63
102
{ACAD_REACTORS
330
5E
102
}
330
5E
100
DictionaryVariables
280
     0
  1
1
  0
DICTIONARYVAR
  5
4E4
102
{ACAD_REACTORS
330
5E
102
}
330
5E
100
DictionaryVariables
280
     0
  1
0
  0
DICTIONARYVAR
  5
4E2
102
{ACAD_REACTORS
330
5E
102
}
330
5E
100
DictionaryVariables
280
     0
  1
2
  0
DICTIONARYVAR
  5
4E1
102
{ACAD_REACTORS
330
5E
102
}
330
5E
100
DictionaryVariables
280
     0
  1
1
  0
DICTIONARYVAR
  5
4E6
102
{ACAD_REACTORS
330
5E
102
}
330
5E
100
DictionaryVariables
280
     0
  1
80.000000
  0
DICTIONARYVAR
  5
4E5
102
{ACAD_REACTORS
330
5E
102
}
330
5E
100
DictionaryVariables
280
     0
  1
5.000000
  0
DICTIONARYVAR
  5
4E3
102
{ACAD_REACTORS
330
5E
102
}
330
5E
100
DictionaryVariables
280
     0
  1
127
  0
DICTIONARY
  5
4EC
330
D3
100
AcDbDictionary
280
     1
281
     1
  3
ACAD_XREC_ROUNDTRIP
360
4ED
  0
DICTIONARY
  5
4EE
330
D7
100
AcDbDictionary
280
     1
281
     1
  3
ACAD_XREC_ROUNDTRIP
360
4EF
  0
DICTIONARY
  5
4E9
330
22
100
AcDbDictionary
280
     1
281
     1
  3
ACAD_XREC_ROUNDTRIP
360
4EA
  0
DICTIONARY
  5
4F2
330
ED
100
AcDbDictionary
280
     1
281
     1
  3
ACAD_XREC_ROUNDTRIP
360
4F3
  0
DICTIONARY
  5
4F0
330
EC
100
AcDbDictionary
280
     1
281
     1
  3
ACAD_XREC_ROUNDTRIP
360
4F1
  0
DICTIONARY
  5
173
330
EE
100
AcDbDictionary
280
     1
281
     1
  3
ACAD_XREC_ROUNDTRIP
360
4F4
  3
BUMPTILE
360
175
  3
DIFFUSETILE
360
174
  3
OPACITYTILE
360
176
  3
REFLECTIONTILE
360
177
  0
DICTIONARY
  5
162
330
7F
100
AcDbDictionary
280
     1
281
     1
  3
ACAD_ROUNDTRIP_2008_TABLESTYLE_CELLSTYLEMAP
360
4E7
  3
ACAD_XREC_ROUNDTRIP
360
4EB
  0
XRECORD
  5
4ED
102
{ACAD_REACTORS
330
4EC
102
}
330
4EC
100
AcDbXrecord
280
     1
102
SHADEPLOT
 70
     0
102
SHADEPLOTRESLEVEL
 70
     2
102
SHADEPLOTCUSTOMDPI
 70
   300
  0
XRECORD
  5
4EF
102
{ACAD_REACTORS
330
4EE
102
}
330
4EE
100
AcDbXrecord
280
     1
102
SHADEPLOT
 70
     0
102
SHADEPLOTRESLEVEL
 70
     2
102
SHADEPLOTCUSTOMDPI
 70
   300
  0
XRECORD
  5
4EA
102
{ACAD_REACTORS
330
4E9
102
}
330
4E9
100
AcDbXrecord
280
     1
102
SHADEPLOT
 70
     0
102
SHADEPLOTRESLEVEL
 70
     2
102
SHADEPLOTCUSTOMDPI
 70
   300
  0
XRECORD
  5
4F3
102
{ACAD_REACTORS
330
4F2
102
}
330
4F2
100
AcDbXrecord
280
     1
102
MATERIAL
148
0.0
149
0.0
149
0.0
 93
        0
 94
       63
282
     0
 72
     1
 77
     1
171
     1
175
     1
179
     1
273
     0
  0
XRECORD
  5
4F1
102
{ACAD_REACTORS
330
4F0
102
}
330
4F0
100
AcDbXrecord
280
     1
102
MATERIAL
148
0.0
149
0.0
149
0.0
 93
        0
 94
       63
282
     0
 72
     1
 77
     1
171
     1
175
     1
179
     1
273
     0
  0
XRECORD
  5
4F4
102
{ACAD_REACTORS
330
173
102
}
330
173
100
AcDbXrecord
280
     1
102
MATERIAL
148
0.0
149
0.0
149
0.0
 93
        0
 94
       63
282
     0
 72
     1
 77
     1
171
     1
175
     1
179
     1
273
     0
  0
XRECORD
  5
175
102
{ACAD_REACTORS
330
173
102
}
330
173
100
AcDbXrecord
280
     1
270
     1
271
     1
  0
XRECORD
  5
174
102
{ACAD_REACTORS
330
173
102
}
330
173
100
AcDbXrecord
280
     1
270
     1
271
     1
  0
XRECORD
  5
176
102
{ACAD_REACTORS
330
173
102
}
330
173
100
AcDbXrecord
280
     1
270
     1
271
     1
  0
XRECORD
  5
177
102
{ACAD_REACTORS
330
173
102
}
330
173
100
AcDbXrecord
280
     1
270
     1
271
     1
  0
CELLSTYLEMAP
  5
4E7
102
{ACAD_REACTORS
330
162
102
}
330
162
100
AcDbCellStyleMap
 90
        3
300
CELLSTYLE
  1
TABLEFORMAT_BEGIN
 90
        5
170
     1
 91
        0
 92
    32768
 62
   257
 93
        1
300
CONTENTFORMAT
  1
CONTENTFORMAT_BEGIN
 90
        0
 91
        0
 92
      512
 93
        0
300

 40
0.0
140
1.0
 94
        5
 62
     0
340
11
144
6.0
309
CONTENTFORMAT_END
171
     1
301
MARGIN
  1
CELLMARGIN_BEGIN
 40
1.5
 40
1.5
 40
1.5
 40
1.5
 40
4.5
 40
4.5
309
CELLMARGIN_END
 94
        6
 95
        1
302
GRIDFORMAT
  1
GRIDFORMAT_BEGIN
 90
        0
 91
        1
 62
     0
 92
       -2
340
14
 93
        0
 40
1.125
309
GRIDFORMAT_END
 95
        2
302
GRIDFORMAT
  1
GRIDFORMAT_BEGIN
 90
        0
 91
        1
 62
     0
 92
       -2
340
14
 93
        0
 40
1.125
309
GRIDFORMAT_END
 95
        4
302
GRIDFORMAT
  1
GRIDFORMAT_BEGIN
 90
        0
 91
        1
 62
     0
 92
       -2
340
14
 93
        0
 40
1.125
309
GRIDFORMAT_END
 95
        8
302
GRIDFORMAT
  1
GRIDFORMAT_BEGIN
 90
        0
 91
        1
 62
     0
 92
       -2
340
14
 93
        0
 40
1.125
309
GRIDFORMAT_END
 95
       16
302
GRIDFORMAT
  1
GRIDFORMAT_BEGIN
 90
        0
 91
        1
 62
     0
 92
       -2
340
14
 93
        0
 40
1.125
309
GRIDFORMAT_END
 95
       32
302
GRIDFORMAT
  1
GRIDFORMAT_BEGIN
 90
        0
 91
        1
 62
     0
 92
       -2
340
14
 93
        0
 40
1.125
309
GRIDFORMAT_END
309
TABLEFORMAT_END
  1
CELLSTYLE_BEGIN
 90
        1
 91
        1
300
_TITLE
309
CELLSTYLE_END
300
CELLSTYLE
  1
TABLEFORMAT_BEGIN
 90
        5
170
     1
 91
        0
 92
        0
 62
   257
 93
        1
300
CONTENTFORMAT
  1
CONTENTFORMAT_BEGIN
 90
        0
 91
        0
 92
      512
 93
        0
300

 40
0.0
140
1.0
 94
        5
 62
     0
340
11
144
4.5
309
CONTENTFORMAT_END
171
     1
301
MARGIN
  1
CELLMARGIN_BEGIN
 40
1.5
 40
1.5
 40
1.5
 40
1.5
 40
4.5
 40
4.5
309
CELLMARGIN_END
 94
        6
 95
        1
302
GRIDFORMAT
  1
GRIDFORMAT_BEGIN
 90
        0
 91
        1
 62
     0
 92
       -2
340
14
 93
        0
 40
1.125
309
GRIDFORMAT_END
 95
        2
302
GRIDFORMAT
  1
GRIDFORMAT_BEGIN
 90
        0
 91
        1
 62
     0
 92
       -2
340
14
 93
        0
 40
1.125
309
GRIDFORMAT_END
 95
        4
302
GRIDFORMAT
  1
GRIDFORMAT_BEGIN
 90
        0
 91
        1
 62
     0
 92
       -2
340
14
 93
        0
 40
1.125
309
GRIDFORMAT_END
 95
        8
302
GRIDFORMAT
  1
GRIDFORMAT_BEGIN
 90
        0
 91
        1
 62
     0
 92
       -2
340
14
 93
        0
 40
1.125
309
GRIDFORMAT_END
 95
       16
302
GRIDFORMAT
  1
GRIDFORMAT_BEGIN
 90
        0
 91
        1
 62
     0
 92
       -2
340
14
 93
        0
 40
1.125
309
GRIDFORMAT_END
 95
       32
302
GRIDFORMAT
  1
GRIDFORMAT_BEGIN
 90
        0
 91
        1
 62
     0
 92
       -2
340
14
 93
        0
 40
1.125
309
GRIDFORMAT_END
309
TABLEFORMAT_END
  1
CELLSTYLE_BEGIN
 90
        2
 91
        1
300
_HEADER
309
CELLSTYLE_END
300
CELLSTYLE
  1
TABLEFORMAT_BEGIN
 90
        5
170
     1
 91
        0
 92
        0
 62
   257
 93
        1
300
CONTENTFORMAT
  1
CONTENTFORMAT_BEGIN
 90
        0
 91
        0
 92
      512
 93
        0
300

 40
0.0
140
1.0
 94
        2
 62
     0
340
11
144
4.5
309
CONTENTFORMAT_END
171
     1
301
MARGIN
  1
CELLMARGIN_BEGIN
 40
1.5
 40
1.5
 40
1.5
 40
1.5
 40
4.5
 40
4.5
309
CELLMARGIN_END
 94
        6
 95
        1
302
GRIDFORMAT
  1
GRIDFORMAT_BEGIN
 90
        0
 91
        1
 62
     0
 92
       -2
340
14
 93
        0
 40
1.125
309
GRIDFORMAT_END
 95
        2
302
GRIDFORMAT
  1
GRIDFORMAT_BEGIN
 90
        0
 91
        1
 62
     0
 92
       -2
340
14
 93
        0
 40
1.125
309
GRIDFORMAT_END
 95
        4
302
GRIDFORMAT
  1
GRIDFORMAT_BEGIN
 90
        0
 91
        1
 62
     0
 92
       -2
340
14
 93
        0
 40
1.125
309
GRIDFORMAT_END
 95
        8
302
GRIDFORMAT
  1
GRIDFORMAT_BEGIN
 90
        0
 91
        1
 62
     0
 92
       -2
340
14
 93
        0
 40
1.125
309
GRIDFORMAT_END
 95
       16
302
GRIDFORMAT
  1
GRIDFORMAT_BEGIN
 90
        0
 91
        1
 62
     0
 92
       -2
340
14
 93
        0
 40
1.125
309
GRIDFORMAT_END
 95
       32
302
GRIDFORMAT
  1
GRIDFORMAT_BEGIN
 90
        0
 91
        1
 62
     0
 92
       -2
340
14
 93
        0
 40
1.125
309
GRIDFORMAT_END
309
TABLEFORMAT_END
  1
CELLSTYLE_BEGIN
 90
        3
 91
        2
300
_DATA
309
CELLSTYLE_END
  0
XRECORD
  5
4EB
102
{ACAD_REACTORS
330
162
102
}
330
162
100
AcDbXrecord
280
     1
102
ACAD_ROUNDTRIP_PRE2007_TABLESTYLE
 90
      512
 91
        0
  1

 92
      512
 93
        0
  2

 94
      512
 95
        0
  3

  0
ENDSEC
  0
EOF
