  0
SECTION
  2
HEADER
  9
$ACADVER
  1
AC1015
  9
$ACADMAINTVER
 70
    20
  9
$DWGCODEPAGE
  3
ANSI_1254
  9
$INSBASE
 10
0.0
 20
0.0
 30
0.0
  9
$EXTMIN
 10
2366.292689523827
 20
762.5509689616617
 30
0.0
  9
$EXTMAX
 10
2692.55868645012
 20
948.1051456670762
 30
0.0
  9
$LIMMIN
 10
0.0
 20
0.0
  9
$LIMMAX
 10
420.0
 20
297.0
  9
$ORTHOMODE
 70
     1
  9
$REGENMODE
 70
     1
  9
$FILLMODE
 70
     1
  9
$QTEXTMODE
 70
     0
  9
$MIRRTEXT
 70
     0
  9
$LTSCALE
 40
1.0
  9
$ATTMODE
 70
     1
  9
$TEXTSIZE
 40
2.5
  9
$TRACEWID
 40
1.0
  9
$TEXTSTYLE
  7
Standard
  9
$CLAYER
  8
0
  9
$CELTYPE
  6
ByLayer
  9
$CECOLOR
 62
   256
  9
$CELTSCALE
 40
1.0
  9
$DISPSILH
 70
     0
  9
$DIMSCALE
 40
1.0
  9
$DIMASZ
 40
2.5
  9
$DIMEXO
 40
0.625
  9
$DIMDLI
 40
3.75
  9
$DIMRND
 40
0.0
  9
$DIMDLE
 40
0.0
  9
$DIMEXE
 40
1.25
  9
$DIMTP
 40
0.0
  9
$DIMTM
 40
0.0
  9
$DIMTXT
 40
2.5
  9
$DIMCEN
 40
2.5
  9
$DIMTSZ
 40
0.0
  9
$DIMTOL
 70
     0
  9
$DIMLIM
 70
     0
  9
$DIMTIH
 70
     0
  9
$DIMTOH
 70
     0
  9
$DIMSE1
 70
     0
  9
$DIMSE2
 70
     0
  9
$DIMTAD
 70
     1
  9
$DIMZIN
 70
     8
  9
$DIMBLK
  1

  9
$DIMASO
 70
     1
  9
$DIMSHO
 70
     1
  9
$DIMPOST
  1

  9
$DIMAPOST
  1

  9
$DIMALT
 70
     0
  9
$DIMALTD
 70
     3
  9
$DIMALTF
 40
0.03937007874016
  9
$DIMLFAC
 40
1.0
  9
$DIMTOFL
 70
     1
  9
$DIMTVP
 40
0.0
  9
$DIMTIX
 70
     0
  9
$DIMSOXD
 70
     0
  9
$DIMSAH
 70
     0
  9
$DIMBLK1
  1

  9
$DIMBLK2
  1

  9
$DIMSTYLE
  2
ISO-25
  9
$DIMCLRD
 70
     0
  9
$DIMCLRE
 70
     0
  9
$DIMCLRT
 70
     0
  9
$DIMTFAC
 40
1.0
  9
$DIMGAP
 40
0.625
  9
$DIMJUST
 70
     0
  9
$DIMSD1
 70
     0
  9
$DIMSD2
 70
     0
  9
$DIMTOLJ
 70
     0
  9
$DIMTZIN
 70
     8
  9
$DIMALTZ
 70
     0
  9
$DIMALTTZ
 70
     0
  9
$DIMUPT
 70
     0
  9
$DIMDEC
 70
     2
  9
$DIMTDEC
 70
     2
  9
$DIMALTU
 70
     2
  9
$DIMALTTD
 70
     3
  9
$DIMTXSTY
  7
Standard
  9
$DIMAUNIT
 70
     0
  9
$DIMADEC
 70
     0
  9
$DIMALTRND
 40
0.0
  9
$DIMAZIN
 70
     0
  9
$DIMDSEP
 70
    44
  9
$DIMATFIT
 70
     3
  9
$DIMFRAC
 70
     0
  9
$DIMLDRBLK
  1

  9
$DIMLUNIT
 70
     2
  9
$DIMLWD
 70
    -2
  9
$DIMLWE
 70
    -2
  9
$DIMTMOVE
 70
     0
  9
$LUNITS
 70
     2
  9
$LUPREC
 70
     4
  9
$SKETCHINC
 40
1.0
  9
$FILLETRAD
 40
0.0
  9
$AUNITS
 70
     0
  9
$AUPREC
 70
     0
  9
$MENU
  1
.
  9
$ELEVATION
 40
0.0
  9
$PELEVATION
 40
0.0
  9
$THICKNESS
 40
0.0
  9
$LIMCHECK
 70
     0
  9
$CHAMFERA
 40
0.0
  9
$CHAMFERB
 40
0.0
  9
$CHAMFERC
 40
0.0
  9
$CHAMFERD
 40
0.0
  9
$SKPOLY
 70
     0
  9
$TDCREATE
 40
2458569.479046215
  9
$TDUCREATE
 40
2458569.354046215
  9
$TDUPDATE
 40
2458956.428343866
  9
$TDUUPDATE
 40
2458956.303343866
  9
$TDINDWG
 40
0.0060588426
  9
$TDUSRTIMER
 40
0.0060588426
  9
$USRTIMER
 70
     1
  9
$ANGBASE
 50
0.0
  9
$ANGDIR
 70
     0
  9
$PDMODE
 70
     0
  9
$PDSIZE
 40
0.0
  9
$PLINEWID
 40
0.0
  9
$SPLFRAME
 70
     0
  9
$SPLINETYPE
 70
     6
  9
$SPLINESEGS
 70
     8
  9
$HANDSEED
  5
20E8
  9
$SURFTAB1
 70
     6
  9
$SURFTAB2
 70
     6
  9
$SURFTYPE
 70
     6
  9
$SURFU
 70
     6
  9
$SURFV
 70
     6
  9
$UCSBASE
  2

  9
$UCSNAME
  2

  9
$UCSORG
 10
0.0
 20
0.0
 30
0.0
  9
$UCSXDIR
 10
1.0
 20
0.0
 30
0.0
  9
$UCSYDIR
 10
0.0
 20
1.0
 30
0.0
  9
$UCSORTHOREF
  2

  9
$UCSORTHOVIEW
 70
     0
  9
$UCSORGTOP
 10
0.0
 20
0.0
 30
0.0
  9
$UCSORGBOTTOM
 10
0.0
 20
0.0
 30
0.0
  9
$UCSORGLEFT
 10
0.0
 20
0.0
 30
0.0
  9
$UCSORGRIGHT
 10
0.0
 20
0.0
 30
0.0
  9
$UCSORGFRONT
 10
0.0
 20
0.0
 30
0.0
  9
$UCSORGBACK
 10
0.0
 20
0.0
 30
0.0
  9
$PUCSBASE
  2

  9
$PUCSNAME
  2

  9
$PUCSORG
 10
0.0
 20
0.0
 30
0.0
  9
$PUCSXDIR
 10
1.0
 20
0.0
 30
0.0
  9
$PUCSYDIR
 10
0.0
 20
1.0
 30
0.0
  9
$PUCSORTHOREF
  2

  9
$PUCSORTHOVIEW
 70
     0
  9
$PUCSORGTOP
 10
0.0
 20
0.0
 30
0.0
  9
$PUCSORGBOTTOM
 10
0.0
 20
0.0
 30
0.0
  9
$PUCSORGLEFT
 10
0.0
 20
0.0
 30
0.0
  9
$PUCSORGRIGHT
 10
0.0
 20
0.0
 30
0.0
  9
$PUCSORGFRONT
 10
0.0
 20
0.0
 30
0.0
  9
$PUCSORGBACK
 10
0.0
 20
0.0
 30
0.0
  9
$USERI1
 70
     0
  9
$USERI2
 70
     0
  9
$USERI3
 70
     0
  9
$USERI4
 70
     0
  9
$USERI5
 70
     0
  9
$USERR1
 40
0.0
  9
$USERR2
 40
0.0
  9
$USERR3
 40
0.0
  9
$USERR4
 40
0.0
  9
$USERR5
 40
0.0
  9
$WORLDVIEW
 70
     1
  9
$SHADEDGE
 70
     3
  9
$SHADEDIF
 70
    70
  9
$TILEMODE
 70
     1
  9
$MAXACTVP
 70
    64
  9
$PINSBASE
 10
0.0
 20
0.0
 30
0.0
  9
$PLIMCHECK
 70
     0
  9
$PEXTMIN
 10
0.0
 20
0.0
 30
0.0
  9
$PEXTMAX
 10
0.0
 20
0.0
 30
0.0
  9
$PLIMMIN
 10
0.0
 20
0.0
  9
$PLIMMAX
 10
12.0
 20
9.0
  9
$UNITMODE
 70
     0
  9
$VISRETAIN
 70
     1
  9
$PLINEGEN
 70
     0
  9
$PSLTSCALE
 70
     1
  9
$TREEDEPTH
 70
  3020
  9
$CMLSTYLE
  2
Standard
  9
$CMLJUST
 70
     0
  9
$CMLSCALE
 40
20.0
  9
$PROXYGRAPHICS
 70
     1
  9
$MEASUREMENT
 70
     1
  9
$CELWEIGHT
370
    -1
  9
$ENDCAPS
280
     0
  9
$JOINSTYLE
280
     0
  9
$LWDISPLAY
290
     0
  9
$INSUNITS
 70
     4
  9
$HYPERLINKBASE
  1

  9
$STYLESHEET
  1

  9
$XEDIT
290
     1
  9
$CEPSNTYPE
380
     0
  9
$PSTYLEMODE
290
     1
  9
$FINGERPRINTGUID
  2
{60D6FB11-EA54-419F-9751-D43DFAC84E43}
  9
$VERSIONGUID
  2
{AAE4FFA8-5649-47FD-BEB0-DC3A61A0D252}
  9
$EXTNAMES
290
     1
  9
$PSVPSCALE
 40
0.0
  9
$OLESTARTUP
290
     0
  0
ENDSEC
  0
SECTION
  2
CLASSES
  0
CLASS
  1
ACDBDICTIONARYWDFLT
  2
AcDbDictionaryWithDefault
  3
ObjectDBX Classes
 90
        0
280
     0
281
     0
  0
CLASS
  1
ACDBPLACEHOLDER
  2
AcDbPlaceHolder
  3
ObjectDBX Classes
 90
        0
280
     0
281
     0
  0
CLASS
  1
LAYOUT
  2
AcDbLayout
  3
ObjectDBX Classes
 90
        0
280
     0
281
     0
  0
CLASS
  1
DICTIONARYVAR
  2
AcDbDictionaryVar
  3
ObjectDBX Classes
 90
        0
280
     0
281
     0
  0
CLASS
  1
TABLESTYLE
  2
AcDbTableStyle
  3
ObjectDBX Classes
 90
     4095
280
     0
281
     0
  0
CLASS
  1
MATERIAL
  2
AcDbMaterial
  3
ObjectDBX Classes
 90
     1153
280
     0
281
     0
  0
CLASS
  1
VISUALSTYLE
  2
AcDbVisualStyle
  3
ObjectDBX Classes
 90
     4095
280
     0
281
     0
  0
CLASS
  1
SCALE
  2
AcDbScale
  3
ObjectDBX Classes
 90
     1153
280
     0
281
     0
  0
CLASS
  1
MLEADERSTYLE
  2
AcDbMLeaderStyle
  3
ACDB_MLEADERSTYLE_CLASS
 90
     4095
280
     0
281
     0
  0
CLASS
  1
CELLSTYLEMAP
  2
AcDbCellStyleMap
  3
ObjectDBX Classes
 90
     1152
280
     0
281
     0
  0
CLASS
  1
ACAD_EVALUATION_GRAPH
  2
AcDbEvalGraph
  3
ObjectDBX Classes
 90
    33921
280
     0
281
     0
  0
CLASS
  1
ACAECUSTOBJ
  2
AcAeEditorObj
  3
AcAeEditorObj
 90
    33792
280
     0
281
     0
  0
CLASS
  1
ACDB_DYNAMICBLOCKPURGEPREVENTER_VERSION
  2
AcDbDynamicBlockPurgePreventer
  3
ObjectDBX Classes
 90
    33921
280
     0
281
     0
  0
CLASS
  1
SORTENTSTABLE
  2
AcDbSortentsTable
  3
ObjectDBX Classes
 90
        0
280
     0
281
     0
  0
CLASS
  1
DIMASSOC
  2
AcDbDimAssoc
  3
"AcDbDimAssoc|Product Desc:     AcDim ARX App For Dimension|Company:          Autodesk, Inc.|WEB Address:      www.autodesk.com"
 90
    32768
280
     0
281
     0
  0
ENDSEC
  0
SECTION
  2
TABLES
  0
TABLE
  2
VPORT
  5
8
330
0
100
AcDbSymbolTable
 70
     1
  0
VPORT
  5
EA
330
8
100
AcDbSymbolTableRecord
100
AcDbViewportTableRecord
  2
*Active
 70
     0
 10
0.0
 20
0.0
 11
1.0
 21
1.0
 12
2597.72611107445
 22
852.8399858801986
 13
0.0
 23
0.0
 14
10.0
 24
10.0
 15
10.0
 25
10.0
 16
0.0
 26
0.0
 36
1.0
 17
0.0
 27
0.0
 37
0.0
 40
413.0598226937705
 41
1.903110047846889
 42
50.0
 43
0.0
 44
0.0
 50
0.0
 51
0.0
 71
     0
 72
  1000
 73
     1
 74
     3
 75
     0
 76
     0
 77
     0
 78
     0
281
     0
 65
     1
110
0.0
120
0.0
130
0.0
111
1.0
121
0.0
131
0.0
112
0.0
122
1.0
132
0.0
 79
     0
146
0.0
  0
ENDTAB
  0
TABLE
  2
LTYPE
  5
5
330
0
100
AcDbSymbolTable
 70
     1
  0
LTYPE
  5
14
330
5
100
AcDbSymbolTableRecord
100
AcDbLinetypeTableRecord
  2
ByBlock
 70
     0
  3

 72
    65
 73
     0
 40
0.0
  0
LTYPE
  5
15
330
5
100
AcDbSymbolTableRecord
100
AcDbLinetypeTableRecord
  2
ByLayer
 70
     0
  3

 72
    65
 73
     0
 40
0.0
  0
LTYPE
  5
16
330
5
100
AcDbSymbolTableRecord
100
AcDbLinetypeTableRecord
  2
Continuous
 70
     0
  3
Solid line
 72
    65
 73
     0
 40
0.0
  0
ENDTAB
  0
TABLE
  2
LAYER
  5
2
330
0
100
AcDbSymbolTable
 70
     2
  0
LAYER
  5
10
102
{ACAD_XDICTIONARY
360
13C
102
}
330
2
100
AcDbSymbolTableRecord
100
AcDbLayerTableRecord
  2
0
 70
     0
 62
     7
  6
Continuous
370
    -3
390
F
  0
LAYER
  5
20A4
330
2
100
AcDbSymbolTableRecord
100
AcDbLayerTableRecord
  2
Defpoints
 70
     0
 62
     7
  6
Continuous
290
     0
370
    -3
390
F
  0
ENDTAB
  0
TABLE
  2
STYLE
  5
3
330
0
100
AcDbSymbolTable
 70
     2
  0
STYLE
  5
11
330
3
100
AcDbSymbolTableRecord
100
AcDbTextStyleTableRecord
  2
Standard
 70
     0
 40
0.0
 41
1.0
 50
0.0
 71
     0
 42
2.5
  3
txt
  4

  0
STYLE
  5
132
330
3
100
AcDbSymbolTableRecord
100
AcDbTextStyleTableRecord
  2
Annotative
 70
     0
 40
0.0
 41
1.0
 50
0.0
 71
     0
 42
2.5
  3
txt.shx
  4

1001
AcadAnnotative
1000
AnnotativeData
1002
{
1070
     1
1070
     1
1002
}
  0
ENDTAB
  0
TABLE
  2
VIEW
  5
6
330
0
100
AcDbSymbolTable
 70
     0
  0
ENDTAB
  0
TABLE
  2
UCS
  5
7
330
0
100
AcDbSymbolTable
 70
     0
  0
ENDTAB
  0
TABLE
  2
APPID
  5
9
330
0
100
AcDbSymbolTable
 70
    11
  0
APPID
  5
12
330
9
100
AcDbSymbolTableRecord
100
AcDbRegAppTableRecord
  2
ACAD
 70
     0
  0
APPID
  5
9E
330
9
100
AcDbSymbolTableRecord
100
AcDbRegAppTableRecord
  2
ACAD_PSEXT
 70
     0
  0
APPID
  5
133
330
9
100
AcDbSymbolTableRecord
100
AcDbRegAppTableRecord
  2
AcadAnnoPO
 70
     0
  0
APPID
  5
134
330
9
100
AcDbSymbolTableRecord
100
AcDbRegAppTableRecord
  2
AcadAnnotative
 70
     0
  0
APPID
  5
135
330
9
100
AcDbSymbolTableRecord
100
AcDbRegAppTableRecord
  2
ACAD_DSTYLE_DIMJAG
 70
     0
  0
APPID
  5
136
330
9
100
AcDbSymbolTableRecord
100
AcDbRegAppTableRecord
  2
ACAD_DSTYLE_DIMTALN
 70
     0
  0
APPID
  5
165
330
9
100
AcDbSymbolTableRecord
100
AcDbRegAppTableRecord
  2
ACAD_MLEADERVER
 70
     0
  0
APPID
  5
1F0A
330
9
100
AcDbSymbolTableRecord
100
AcDbRegAppTableRecord
  2
ACAUTHENVIRON
 70
     0
  0
APPID
  5
1F15
330
9
100
AcDbSymbolTableRecord
100
AcDbRegAppTableRecord
  2
AcDbDynamicBlockTrueName
 70
     0
  0
APPID
  5
1F16
330
9
100
AcDbSymbolTableRecord
100
AcDbRegAppTableRecord
  2
AcDbDynamicBlockGUID
 70
     0
  0
APPID
  5
1F18
330
9
100
AcDbSymbolTableRecord
100
AcDbRegAppTableRecord
  2
AcDbBlockRepETag
 70
     0
  0
ENDTAB
  0
TABLE
  2
DIMSTYLE
  5
A
330
0
100
AcDbSymbolTable
 70
     2
100
AcDbDimStyleTable
 71
     2
340
27
340
137
  0
DIMSTYLE
105
27
330
A
100
AcDbSymbolTableRecord
100
AcDbDimStyleTableRecord
  2
ISO-25
 70
     0
 41
2.5
 42
0.625
 43
3.75
 44
1.25
 73
     0
 74
     0
 77
     1
 78
     8
140
2.5
141
2.5
143
0.03937007874016
147
0.625
171
     3
172
     1
271
     2
272
     2
274
     3
278
    44
283
     0
284
     8
340
11
  0
DIMSTYLE
105
137
330
A
100
AcDbSymbolTableRecord
100
AcDbDimStyleTableRecord
  2
Annotative
 70
     0
 40
0.0
 41
2.5
 42
0.625
 43
3.75
 44
1.25
 73
     0
 74
     0
 77
     1
 78
     8
140
2.5
141
2.5
143
0.03937007874016
147
0.625
171
     3
172
     1
271
     2
272
     2
274
     3
278
    44
283
     0
284
     8
340
11
1001
AcadAnnotative
1000
AnnotativeData
1002
{
1070
     1
1070
     1
1002
}
1001
ACAD_DSTYLE_DIMJAG
1070
   388
1040
1.5
1001
ACAD_DSTYLE_DIMTALN
1070
   392
1070
     0
  0
ENDTAB
  0
TABLE
  2
BLOCK_RECORD
  5
1
330
0
100
AcDbSymbolTable
 70
     6
  0
BLOCK_RECORD
  5
1F
330
1
100
AcDbSymbolTableRecord
100
AcDbBlockTableRecord
  2
*Model_Space
340
22
  0
BLOCK_RECORD
  5
D2
330
1
100
AcDbSymbolTableRecord
100
AcDbBlockTableRecord
  2
*Paper_Space
340
D3
  0
BLOCK_RECORD
  5
D6
330
1
100
AcDbSymbolTableRecord
100
AcDbBlockTableRecord
  2
*Paper_Space0
340
D7
  0
BLOCK_RECORD
  5
81F
102
{ACAD_XDICTIONARY
360
1F8C
102
}
330
1
100
AcDbSymbolTableRecord
100
AcDbBlockTableRecord
  2
1
340
0
310
2800000020000000200000000100080000000000000400000000000000000000000000000000000000000000000080000080000000808000800000008000800080800000C0C0C000C0DCC000F0CAA6000020400000206000002080000020A0000020C0000020E00000400000004020000040400000406000004080000040A0
310
000040C0000040E00000600000006020000060400000606000006080000060A0000060C0000060E00000800000008020000080400000806000008080000080A0000080C0000080E00000A0000000A0200000A0400000A0600000A0800000A0A00000A0C00000A0E00000C0000000C0200000C0400000C0600000C0800000C0
310
A00000C0C00000C0E00000E0000000E0200000E0400000E0600000E0800000E0A00000E0C00000E0E00040000000400020004000400040006000400080004000A0004000C0004000E00040200000402020004020400040206000402080004020A0004020C0004020E000404000004040200040404000404060004040800040
310
40A0004040C0004040E00040600000406020004060400040606000406080004060A0004060C0004060E00040800000408020004080400040806000408080004080A0004080C0004080E00040A0000040A0200040A0400040A0600040A0800040A0A00040A0C00040A0E00040C0000040C0200040C0400040C0600040C08000
310
40C0A00040C0C00040C0E00040E0000040E0200040E0400040E0600040E0800040E0A00040E0C00040E0E00080000000800020008000400080006000800080008000A0008000C0008000E00080200000802020008020400080206000802080008020A0008020C0008020E00080400000804020008040400080406000804080
310
008040A0008040C0008040E00080600000806020008060400080606000806080008060A0008060C0008060E00080800000808020008080400080806000808080008080A0008080C0008080E00080A0000080A0200080A0400080A0600080A0800080A0A00080A0C00080A0E00080C0000080C0200080C0400080C0600080C0
310
800080C0A00080C0C00080C0E00080E0000080E0200080E0400080E0600080E0800080E0A00080E0C00080E0E000C0000000C0002000C0004000C0006000C0008000C000A000C000C000C000E000C0200000C0202000C0204000C0206000C0208000C020A000C020C000C020E000C0400000C0402000C0404000C0406000C0
310
408000C040A000C040C000C040E000C0600000C0602000C0604000C0606000C0608000C060A000C060C000C060E000C0800000C0802000C0804000C0806000C0808000C080A000C080C000C080E000C0A00000C0A02000C0A04000C0A06000C0A08000C0A0A000C0A0C000C0A0E000C0C00000C0C02000C0C04000C0C06000
310
C0C08000C0C0A000F0FBFF00A4A0A000808080000000FF0000FF000000FFFF00FF000000FF00FF00FFFF0000FFFFFF0000000000000000000000000000000000000000000000000000000000000000000000000000000000000000000000000000000000000000000000000000000000000000000000000000000000000000
310
0000000000000000000000000000000000000000000000FFFFFFFFFFFFFFFF0000000000000000FFFFFFFFFFFFFFFF00000000000000FF00000000000000FFFF000000000000FF0000000000000000FF000000000000FF00000000000000FFFFFFFFFFFFFFFFFF0000000000000000FF000000000000FF0000000000000000
310
00000000000000000000000000000000FF000000000000FF000000000000000000000000000000000000000000000000FF000000000000FF000000000000000000000000000000000000000000000000FF000000000000FF000000000000000000000000000000000000000000000000FF000000000000FF00000000000000
310
0000000000000000000000000000000000FF000000000000FF000000000000000000000000000000000000000000000000FF00000000FFFFFF000000000000000000000000000000000000000000000000FF00000000FF00FF000000000000000000000000000000000000000000000000FF00000000FF0000FF00000000FF
310
000000FFFFFFFFFF000000FFFF00000000FF0000000000FF000000FFFFFFFFFFFFFFFFFFFFFFFFFFFFFFFFFFFFFFFFFFFF000000000000FF00000000000000000000FF00FFFFFF0000FFFFFF000000000000000000FFFFFFFFFFFFFFFFFFFFFFFFFFFF00FFFF00000000000000000000000000000000000000000000000000
310
00000000FF00FF0000000000000000000000000000000000000000000000000000000000FF00FF0000000000000000000000000000000000000000000000000000000000FFFF0000000000000000000000000000000000000000000000000000000000FF00FF00000000000000000000000000000000000000000000000000
310
00000000FFFF0000000000000000000000000000000000000000000000000000000000FF00FFFF00000000000000000000000000000000000000000000000000000000FF000000FFFF0000000000000000000000000000000000000000000000000000FF00000000FF00000000000000000000000000000000000000000000
310
000000FFFF00000000FF000000000000000000000000000000000000000000000000FFFF00FFFF00FF000000000000000000000000000000000000000000000000000000000000FFFF000000000000000000000000000000000000000000000000000000000000000000000000000000000000000000000000000000000000
310
0000000000000000000000000000000000000000000000000000000000000000000000000000000000000000000000000000000000000000
102
{BLKREFS
331
1BC6
102
}
1001
AcDbDynamicBlockGUID
1000
{B69B5E5D-6157-44CF-8569-7E0AE699871A}
1001
AcDbBlockRepETag
1070
     1
1071
      107
1001
ACAD
1000
DesignCenter Data
1002
{
1070
     1
1070
     4
1002
}
  0
BLOCK_RECORD
  5
895
330
1
100
AcDbSymbolTableRecord
100
AcDbBlockTableRecord
  2
2
340
0
310
2800000020000000200000000100080000000000000400000000000000000000000000000000000000000000000080000080000000808000800000008000800080800000C0C0C000C0DCC000F0CAA6000020400000206000002080000020A0000020C0000020E00000400000004020000040400000406000004080000040A0
310
000040C0000040E00000600000006020000060400000606000006080000060A0000060C0000060E00000800000008020000080400000806000008080000080A0000080C0000080E00000A0000000A0200000A0400000A0600000A0800000A0A00000A0C00000A0E00000C0000000C0200000C0400000C0600000C0800000C0
310
A00000C0C00000C0E00000E0000000E0200000E0400000E0600000E0800000E0A00000E0C00000E0E00040000000400020004000400040006000400080004000A0004000C0004000E00040200000402020004020400040206000402080004020A0004020C0004020E000404000004040200040404000404060004040800040
310
40A0004040C0004040E00040600000406020004060400040606000406080004060A0004060C0004060E00040800000408020004080400040806000408080004080A0004080C0004080E00040A0000040A0200040A0400040A0600040A0800040A0A00040A0C00040A0E00040C0000040C0200040C0400040C0600040C08000
310
40C0A00040C0C00040C0E00040E0000040E0200040E0400040E0600040E0800040E0A00040E0C00040E0E00080000000800020008000400080006000800080008000A0008000C0008000E00080200000802020008020400080206000802080008020A0008020C0008020E00080400000804020008040400080406000804080
310
008040A0008040C0008040E00080600000806020008060400080606000806080008060A0008060C0008060E00080800000808020008080400080806000808080008080A0008080C0008080E00080A0000080A0200080A0400080A0600080A0800080A0A00080A0C00080A0E00080C0000080C0200080C0400080C0600080C0
310
800080C0A00080C0C00080C0E00080E0000080E0200080E0400080E0600080E0800080E0A00080E0C00080E0E000C0000000C0002000C0004000C0006000C0008000C000A000C000C000C000E000C0200000C0202000C0204000C0206000C0208000C020A000C020C000C020E000C0400000C0402000C0404000C0406000C0
310
408000C040A000C040C000C040E000C0600000C0602000C0604000C0606000C0608000C060A000C060C000C060E000C0800000C0802000C0804000C0806000C0808000C080A000C080C000C080E000C0A00000C0A02000C0A04000C0A06000C0A08000C0A0A000C0A0C000C0A0E000C0C00000C0C02000C0C04000C0C06000
310
C0C08000C0C0A000F0FBFF00A4A0A000808080000000FF0000FF000000FFFF00FF000000FF00FF00FFFF0000FFFFFF000000000000000000000000000000000000000000000000000000000000000000000000000000000000000000FFFFFFFFFFFFFFFF000000000000000000000000000000000000000000000000FF0000
310
00000000FF000000000000000000000000000000000000000000000000FFFFFFFFFFFFFFFF000000000000000000000000000000000000000000000000FFFFFFFFFFFFFFFF000000000000000000000000000000000000000000000000FFFFFFFFFFFFFFFF000000000000000000000000000000000000000000000000FFFF
310
FF0000FFFFFF000000000000000000000000000000000000000000000000FFFFFFFFFFFFFFFF000000000000000000000000000000000000000000000000FFFFFF0000FFFFFF000000000000000000000000000000000000000000000000FFFFFFFFFFFFFFFF000000000000000000000000000000000000000000000000FF
310
FFFFFFFFFFFFFF000000000000000000000000000000000000000000000000FFFFFFFFFFFFFFFF000000000000000000000000000000000000000000000000FFFFFFFFFFFFFFFF000000000000000000000000000000000000000000000000FFFFFFFFFFFFFFFF000000000000000000000000000000000000000000000000
310
FFFF00FFFF00FFFF000000000000000000000000000000000000000000000000FFFFFFFFFFFFFFFF000000000000000000000000000000000000000000000000FFFFFFFFFFFFFFFF000000000000000000000000000000000000000000000000FF000000000000FF0000000000000000000000000000000000000000000000
310
00FF000000000000FF000000000000000000000000000000000000000000000000FF000000000000FF000000000000000000000000000000000000000000000000FF000000000000FF000000000000000000000000000000000000000000000000FF000000000000FF00000000000000000000000000000000000000000000
310
0000FF000000000000FF000000000000000000000000000000000000000000000000FF000000000000FF000000000000000000000000000000000000000000000000FF000000000000FF000000000000000000000000000000000000000000000000FFFFFFFFFFFFFFFF000000000000000000000000000000000000000000
310
000000FF000000000000FF000000000000000000000000000000000000000000000000FFFFFFFFFFFFFFFF000000000000000000000000000000000000000000000000FFFFFFFFFFFFFFFF000000000000000000000000000000000000000000000000FFFFFFFFFFFFFFFF0000000000000000000000000000000000000000
310
00000000FFFF00000000FFFF0000000000000000000000000000000000000000000000000000000000000000000000000000000000000000
102
{BLKREFS
331
1C62
102
}
1001
ACAD
1000
DesignCenter Data
1002
{
1070
     1
1070
     4
1002
}
  0
BLOCK_RECORD
  5
92B
102
{ACAD_XDICTIONARY
360
209B
102
}
330
1
100
AcDbSymbolTableRecord
100
AcDbBlockTableRecord
  2
3
340
0
310
2800000020000000200000000100080000000000000400000000000000000000000000000000000000000000000080000080000000808000800000008000800080800000C0C0C000C0DCC000F0CAA6000020400000206000002080000020A0000020C0000020E00000400000004020000040400000406000004080000040A0
310
000040C0000040E00000600000006020000060400000606000006080000060A0000060C0000060E00000800000008020000080400000806000008080000080A0000080C0000080E00000A0000000A0200000A0400000A0600000A0800000A0A00000A0C00000A0E00000C0000000C0200000C0400000C0600000C0800000C0
310
A00000C0C00000C0E00000E0000000E0200000E0400000E0600000E0800000E0A00000E0C00000E0E00040000000400020004000400040006000400080004000A0004000C0004000E00040200000402020004020400040206000402080004020A0004020C0004020E000404000004040200040404000404060004040800040
310
40A0004040C0004040E00040600000406020004060400040606000406080004060A0004060C0004060E00040800000408020004080400040806000408080004080A0004080C0004080E00040A0000040A0200040A0400040A0600040A0800040A0A00040A0C00040A0E00040C0000040C0200040C0400040C0600040C08000
310
40C0A00040C0C00040C0E00040E0000040E0200040E0400040E0600040E0800040E0A00040E0C00040E0E00080000000800020008000400080006000800080008000A0008000C0008000E00080200000802020008020400080206000802080008020A0008020C0008020E00080400000804020008040400080406000804080
310
008040A0008040C0008040E00080600000806020008060400080606000806080008060A0008060C0008060E00080800000808020008080400080806000808080008080A0008080C0008080E00080A0000080A0200080A0400080A0600080A0800080A0A00080A0C00080A0E00080C0000080C0200080C0400080C0600080C0
310
800080C0A00080C0C00080C0E00080E0000080E0200080E0400080E0600080E0800080E0A00080E0C00080E0E000C0000000C0002000C0004000C0006000C0008000C000A000C000C000C000E000C0200000C0202000C0204000C0206000C0208000C020A000C020C000C020E000C0400000C0402000C0404000C0406000C0
310
408000C040A000C040C000C040E000C0600000C0602000C0604000C0606000C0608000C060A000C060C000C060E000C0800000C0802000C0804000C0806000C0808000C080A000C080C000C080E000C0A00000C0A02000C0A04000C0A06000C0A08000C0A0A000C0A0C000C0A0E000C0C00000C0C02000C0C04000C0C06000
310
C0C08000C0C0A000F0FBFF00A4A0A000808080000000FF0000FF000000FFFF00FF000000FF00FF00FFFF0000FFFFFF0000000000000000000000000000000000000000000000000000000000000000000000000000000000000000000000000000000000000000000000000000000000000000000000000000000000000000
310
00000000000000000000000000000000000000000000000000000000000000000000000000000000000000000000000000000000000000000000000000000000000000000000000000000000000000000000000000000000000000000000000000000000000000000000000000000000000000000000000000000000000000
310
00000000000000000000000000000000000000000000000000000000000000000000000000000000000000000000000000000000000000000000000000000000000000000000000000000000000000000000000000000000000000000000000000000000000000000000000000000000000000000000000000000000000000
310
0000000000000000000000000000000000000000000000000000000000000000000000000000000000000000000000000000000000000000FFFFFFFFFFFFFFFFFFFFFFFFFFFFFFFFFFFFFFFFFFFFFFFFFFFF00000000FFFFFFFFFFFFFFFFFFFFFFFFFFFFFFFFFFFFFFFFFFFFFFFFFFFFFFFF0000FFFFFF00FF0000000000FF
310
FFFFFFFFFFFFFFFFFFFFFFFF00FFFFFFFF00FF0000FF000000FF0000000000FFFFFF0000FF00FFFF00FFFFFF00FF00FFFF00FF0000FF000000FF0000000000FFFFFF0000FF00FFFF00FFFFFF00FF00FFFF00FF0000FFFFFF00FF0000000000FFFFFFFFFFFFFFFFFFFFFFFFFF00FFFFFFFF00FF00000000FFFFFFFFFFFFFFFF
310
FFFFFFFFFFFFFFFFFFFFFFFFFFFFFFFFFFFFFFFF000000000000FFFFFFFFFFFFFFFFFFFFFFFFFFFFFFFFFFFFFFFFFFFFFFFFFFFF000000000000000000000000000000000000000000000000000000000000000000000000000000000000000000000000000000000000000000000000000000000000000000000000000000
310
00000000000000000000000000000000000000000000000000000000000000000000000000000000000000000000000000000000000000000000000000000000000000000000000000000000000000000000000000000000000000000000000000000000000000000000000000000000000000000000000000000000000000
310
00000000000000000000000000000000000000000000000000000000000000000000000000000000000000000000000000000000000000000000000000000000000000000000000000000000000000000000000000000000000000000000000000000000000000000000000000000000000000000000000000000000000000
310
0000000000000000000000000000000000000000000000000000000000000000000000000000000000000000000000000000000000000000
102
{BLKREFS
331
1D6B
102
}
1001
AcDbDynamicBlockGUID
1000
{B3994EDA-D753-4A53-A5B8-FD26AEC49654}
1001
AcDbBlockRepETag
1070
     1
1071
      264
1001
ACAD
1000
DesignCenter Data
1002
{
1070
     1
1070
     4
1002
}
  0
BLOCK_RECORD
  5
A34
330
1
100
AcDbSymbolTableRecord
100
AcDbBlockTableRecord
  2
4
340
0
310
2800000020000000200000000100080000000000000400000000000000000000000000000000000000000000000080000080000000808000800000008000800080800000C0C0C000C0DCC000F0CAA6000020400000206000002080000020A0000020C0000020E00000400000004020000040400000406000004080000040A0
310
000040C0000040E00000600000006020000060400000606000006080000060A0000060C0000060E00000800000008020000080400000806000008080000080A0000080C0000080E00000A0000000A0200000A0400000A0600000A0800000A0A00000A0C00000A0E00000C0000000C0200000C0400000C0600000C0800000C0
310
A00000C0C00000C0E00000E0000000E0200000E0400000E0600000E0800000E0A00000E0C00000E0E00040000000400020004000400040006000400080004000A0004000C0004000E00040200000402020004020400040206000402080004020A0004020C0004020E000404000004040200040404000404060004040800040
310
40A0004040C0004040E00040600000406020004060400040606000406080004060A0004060C0004060E00040800000408020004080400040806000408080004080A0004080C0004080E00040A0000040A0200040A0400040A0600040A0800040A0A00040A0C00040A0E00040C0000040C0200040C0400040C0600040C08000
310
40C0A00040C0C00040C0E00040E0000040E0200040E0400040E0600040E0800040E0A00040E0C00040E0E00080000000800020008000400080006000800080008000A0008000C0008000E00080200000802020008020400080206000802080008020A0008020C0008020E00080400000804020008040400080406000804080
310
008040A0008040C0008040E00080600000806020008060400080606000806080008060A0008060C0008060E00080800000808020008080400080806000808080008080A0008080C0008080E00080A0000080A0200080A0400080A0600080A0800080A0A00080A0C00080A0E00080C0000080C0200080C0400080C0600080C0
310
800080C0A00080C0C00080C0E00080E0000080E0200080E0400080E0600080E0800080E0A00080E0C00080E0E000C0000000C0002000C0004000C0006000C0008000C000A000C000C000C000E000C0200000C0202000C0204000C0206000C0208000C020A000C020C000C020E000C0400000C0402000C0404000C0406000C0
310
408000C040A000C040C000C040E000C0600000C0602000C0604000C0606000C0608000C060A000C060C000C060E000C0800000C0802000C0804000C0806000C0808000C080A000C080C000C080E000C0A00000C0A02000C0A04000C0A06000C0A08000C0A0A000C0A0C000C0A0E000C0C00000C0C02000C0C04000C0C06000
310
C0C08000C0C0A000F0FBFF00A4A0A000808080000000FF0000FF000000FFFF00FF000000FF00FF00FFFF0000FFFFFF00000000000000000000000000000000000000000000000000000000000000000000000000000000000000000000000000000000000000FFFF0000000000000000000000000000000000000000000000
310
0000000000FFFF00FFFF00000000000000000000000000000000000000000000000000FFFF000000FFFFFFFF00000000000000000000000000000000000000000000FF0000000000FFFFFFFFFF000000000000000000000000000000000000000000FF0000000000FFFFFFFFFF000000000000000000000000000000000000
310
000000FF0000000000FFFF0000FF00000000000000000000000000000000000000FFFF000000000000FF000000FF000000000000000000000000000000FF00FFFF0000000000000000FF000000FF00000000000000000000000000FFFFFFFF00000000000000000000FF000000FF0000000000000000000000FFFF00000000
310
000000000000000000FFFF000000FF00000000000000000000FF000000000000000000000000000000FFFF00FF00FF000000000000000000FF0000000000000000000000000000FFFFFFFFFFFFFFFF000000000000000000FF000000000000000000000000FFFFFFFFFF0000FFFFFF000000000000000000FF000000000000
310
000000FFFFFFFFFFFF00000000FFFF00000000000000000000FF00000000000000FFFFFFFF0000FFFF0000FFFF000000000000000000000000FF00000000000000FFFFFFFFFFFFFFFFFFFF0000000000000000000000000000FF000000000000FFFF00FFFFFF00FFFFFF000000000000000000000000000000FF000000FFFF
310
FFFFFFFFFF0000FFFF00000000000000000000000000000000FFFF000000FF00FFFFFFFF00FFFF00FF00000000000000000000000000000000FF00FFFFFFFFFF00FF00FF0000FFFF0000000000000000000000000000000000FF0000FFFF000000FF00FF0000FFFF0000000000000000000000000000000000FFFFFF000000
310
0000FFFF0000FF00FF0000000000000000000000000000000000FF00FFFF00000000FFFFFFFFFF00FF0000000000000000000000000000000000FFFF0000FFFF00FF000000FFFFFF00000000000000000000000000000000000000FFFFFF00FFFFFF0000FF00FFFFFFFF0000000000000000000000000000000000000000FF
310
0000FF00FFFFFF000000FF00000000000000000000000000000000000000000000FFFFFFFFFFFF0000FFFF0000000000000000000000000000000000000000000000FFFFFFFFFFFFFFFF000000000000000000000000000000000000000000000000FFFF00FFFFFFFFFF000000000000000000000000000000000000000000
310
00000000FFFF0000000000000000000000000000000000000000000000000000000000000000000000000000000000000000000000000000
102
{BLKREFS
331
1E94
102
}
1001
ACAD
1000
DesignCenter Data
1002
{
1070
     1
1070
     4
1002
}
  0
ENDTAB
  0
ENDSEC
  0
SECTION
  2
BLOCKS
  0
BLOCK
  5
20
330
1F
100
AcDbEntity
  8
0
100
AcDbBlockBegin
  2
*Model_Space
 70
     0
 10
0.0
 20
0.0
 30
0.0
  3
*Model_Space
  1

  0
ENDBLK
  5
21
330
1F
100
AcDbEntity
  8
0
100
AcDbBlockEnd
  0
BLOCK
  5
D4
330
D2
100
AcDbEntity
 67
     1
  8
0
100
AcDbBlockBegin
  2
*Paper_Space
 70
     0
 10
0.0
 20
0.0
 30
0.0
  3
*Paper_Space
  1

  0
ENDBLK
  5
D5
330
D2
100
AcDbEntity
 67
     1
  8
0
100
AcDbBlockEnd
  0
BLOCK
  5
D8
330
D6
100
AcDbEntity
 67
     1
  8
0
100
AcDbBlockBegin
  2
*Paper_Space0
 70
     0
 10
0.0
 20
0.0
 30
0.0
  3
*Paper_Space0
  1

  0
ENDBLK
  5
D9
330
D6
100
AcDbEntity
 67
     1
  8
0
100
AcDbBlockEnd
  0
BLOCK
  5
820
330
81F
100
AcDbEntity
  8
0
100
AcDbBlockBegin
  2
1
 70
     0
 10
0.0
 20
0.0
 30
0.0
  3
1
  1

  0
LINE
  5
1F21
330
81F
100
AcDbEntity
  8
0
  6
Continuous
 62
     7
370
    15
100
AcDbLine
 10
2523.148374149462
 20
877.9693110206519
 30
0.0
 11
2523.148374149462
 21
879.9693113484774
 31
0.0
1001
AcDbBlockRepETag
1070
     1
1071
        0
1005
1F21
  0
LINE
  5
1F22
330
81F
100
AcDbEntity
  8
0
  6
Continuous
 62
     7
370
    15
100
AcDbLine
 10
2517.148375028631
 20
879.9693113484774
 30
0.0
 11
2517.148375028631
 21
877.9693110206519
 31
0.0
1001
AcDbBlockRepETag
1070
     1
1071
        1
1005
1F22
  0
LINE
  5
1F23
330
81F
100
AcDbEntity
  8
0
  6
Continuous
 62
     7
370
    15
100
AcDbLine
 10
2523.148374149462
 20
879.9693113484774
 30
0.0
 11
2522.648374998829
 21
880.4693123617564
 31
0.0
1001
AcDbBlockRepETag
1070
     1
1071
        2
1005
1F23
  0
LINE
  5
1F24
330
81F
100
AcDbEntity
  8
0
  6
Continuous
 62
     7
370
    15
100
AcDbLine
 10
2517.648374179265
 20
880.4693123617564
 30
0.0
 11
2517.148375028631
 21
879.9693113484774
 31
0.0
1001
AcDbBlockRepETag
1070
     1
1071
        3
1005
1F24
  0
LINE
  5
1F25
330
81F
100
AcDbEntity
  8
0
  6
Continuous
 62
     7
370
    15
100
AcDbLine
 10
2498.898374249114
 20
834.3693124422227
 30
0.0
 11
2498.898374249114
 21
833.9693112590705
 31
0.0
1001
AcDbBlockRepETag
1070
     1
1071
        4
1005
1F25
  0
LINE
  5
1F26
330
81F
100
AcDbEntity
  8
0
  6
Continuous
 62
     7
370
    15
100
AcDbLine
 10
2501.39837430965
 20
833.9693112590705
 30
0.0
 11
2501.39837430965
 21
834.3693124422227
 31
0.0
1001
AcDbBlockRepETag
1070
     1
1071
        5
1005
1F26
  0
LINE
  5
1F27
330
81F
100
AcDbEntity
  8
0
  6
Continuous
 62
     7
370
    15
100
AcDbLine
 10
2472.148373240492
 20
875.4693115421925
 30
0.0
 11
2473.187604436537
 21
875.4693115421925
 31
0.0
1001
AcDbBlockRepETag
1070
     1
1071
        6
1005
1F27
  0
LINE
  5
1F28
330
81F
100
AcDbEntity
  8
0
  6
Continuous
 62
     7
370
    15
100
AcDbLine
 10
2475.687603914997
 20
877.9693110206519
 30
0.0
 11
2473.187604436537
 21
875.4693115421925
 31
0.0
1001
AcDbBlockRepETag
1070
     1
1071
        7
1005
1F28
  0
LINE
  5
1F29
330
81F
100
AcDbEntity
  8
0
  6
Continuous
 62
     7
370
    15
100
AcDbLine
 10
2487.609143817684
 20
877.9693110206519
 30
0.0
 11
2475.687603914997
 21
877.9693110206519
 31
0.0
1001
AcDbBlockRepETag
1070
     1
1071
        8
1005
1F29
  0
LINE
  5
1F2A
330
81F
100
AcDbEntity
  8
0
  6
Continuous
 62
     7
370
    15
100
AcDbLine
 10
2492.025290133318
 20
873.5531656363402
 30
0.0
 11
2487.609143817684
 21
877.9693110206519
 31
0.0
1001
AcDbBlockRepETag
1070
     1
1071
        9
1005
1F2A
  0
ARC
  5
1F2B
330
81F
100
AcDbEntity
  8
0
  6
Continuous
 62
     7
370
    15
100
AcDbCircle
 10
2494.148374104362
 20
874.9656149193377
 30
0.0
 40
2.549999997955707
100
AcDbArc
 50
213.6351232118218
 51
340.0000000000046
1001
AcDbBlockRepETag
1070
     1
1071
       10
1005
1F2B
  0
LINE
  5
1F2C
330
81F
100
AcDbEntity
  8
0
  6
Continuous
 62
     7
370
    15
100
AcDbLine
 10
2496.544590202978
 20
874.0934631147776
 30
0.0
 11
2496.916365094369
 21
875.1149060496484
 31
0.0
1001
AcDbBlockRepETag
1070
     1
1071
       11
1005
1F2C
  0
ARC
  5
1F2D
330
81F
100
AcDbEntity
  8
0
  6
Continuous
 62
     7
370
    15
100
AcDbCircle
 10
2497.13321166857
 20
874.6643763076642
 30
0.0
 40
0.5000000000000745
100
AcDbArc
 50
108.5048641245116
 51
115.7021562425203
1001
AcDbBlockRepETag
1070
     1
1071
       12
1005
1F2D
  0
ARC
  5
1F2E
330
81F
100
AcDbEntity
  8
0
  6
Continuous
 62
     7
370
    15
100
AcDbCircle
 10
2500.148370718846
 20
865.6555575226329
 30
0.0
 40
10.00000107463909
100
AcDbArc
 50
71.49509717562217
 51
108.5048641245116
1001
AcDbBlockRepETag
1070
     1
1071
       13
1005
1F2E
  0
ARC
  5
1F2F
330
81F
100
AcDbEntity
  8
0
  6
Continuous
 62
     7
370
    15
100
AcDbCircle
 10
2503.163536540947
 20
874.6643763076642
 30
0.0
 40
0.500000000000027
100
AcDbArc
 50
64.29784375747964
 51
71.49509775052306
1001
AcDbBlockRepETag
1070
     1
1071
       14
1005
1F2F
  0
LINE
  5
1F30
330
81F
100
AcDbEntity
  8
0
  6
Continuous
 62
     7
370
    15
100
AcDbLine
 10
2503.380383115148
 20
875.1149060496484
 30
0.0
 11
2503.75215800654
 21
874.0934631147776
 31
0.0
1001
AcDbBlockRepETag
1070
     1
1071
       15
1005
1F30
  0
ARC
  5
1F31
330
81F
100
AcDbEntity
  8
0
  6
Continuous
 62
     7
370
    15
100
AcDbCircle
 10
2506.148374105155
 20
874.9656149193377
 30
0.0
 40
2.549999997955652
100
AcDbArc
 50
200.0000000000015
 51
326.364876805162
1001
AcDbBlockRepETag
1070
     1
1071
       16
1005
1F31
  0
LINE
  5
1F32
330
81F
100
AcDbEntity
  8
0
  6
Continuous
 62
     7
370
    15
100
AcDbLine
 10
2512.687604391834
 20
877.9693110206519
 30
0.0
 11
2508.2714580762
 21
873.5531656363402
 31
0.0
1001
AcDbBlockRepETag
1070
     1
1071
       17
1005
1F32
  0
LINE
  5
1F33
330
81F
100
AcDbEntity
  8
0
  6
Continuous
 62
     7
370
    15
100
AcDbLine
 10
2524.609144294521
 20
877.9693110206519
 30
0.0
 11
2512.687604391834
 21
877.9693110206519
 31
0.0
1001
AcDbBlockRepETag
1070
     1
1071
       18
1005
1F33
  0
LINE
  5
1F34
330
81F
100
AcDbEntity
  8
0
  6
Continuous
 62
     7
370
    15
100
AcDbLine
 10
2527.10914377298
 20
875.4693115421925
 30
0.0
 11
2524.609144294521
 21
877.9693110206519
 31
0.0
1001
AcDbBlockRepETag
1070
     1
1071
       19
1005
1F34
  0
LINE
  5
1F35
330
81F
100
AcDbEntity
  8
0
  6
Continuous
 62
     7
370
    15
100
AcDbLine
 10
2527.10914377298
 20
875.4693115421925
 30
0.0
 11
2528.148374969026
 21
875.4693115421925
 31
0.0
1001
AcDbBlockRepETag
1070
     1
1071
       20
1005
1F35
  0
LINE
  5
1F36
330
81F
100
AcDbEntity
  8
0
  6
Continuous
 62
     7
370
    15
100
AcDbLine
 10
2530.648374447486
 20
877.9693110206519
 30
0.0
 11
2528.148374969026
 21
875.4693115421925
 31
0.0
1001
AcDbBlockRepETag
1070
     1
1071
       21
1005
1F36
  0
LINE
  5
1F37
330
81F
100
AcDbEntity
  8
0
  6
Continuous
 62
     7
370
    15
100
AcDbLine
 10
2544.898375386259
 20
877.9693110206519
 30
0.0
 11
2530.648374447486
 21
877.9693110206519
 31
0.0
1001
AcDbBlockRepETag
1070
     1
1071
       22
1005
1F37
  0
LINE
  5
1F38
330
81F
100
AcDbEntity
  8
0
  6
Continuous
 62
     7
370
    15
100
AcDbLine
 10
2553.648374492189
 20
869.2193119147216
 30
0.0
 11
2544.898375386259
 21
877.9693110206519
 31
0.0
1001
AcDbBlockRepETag
1070
     1
1071
       23
1005
1F38
  0
LINE
  5
1F39
330
81F
100
AcDbEntity
  8
0
  6
Continuous
 62
     7
370
    15
100
AcDbLine
 10
2553.648374492189
 20
831.1693122902308
 30
0.0
 11
2553.648374492189
 21
869.2193119147216
 31
0.0
1001
AcDbBlockRepETag
1070
     1
1071
       24
1005
1F39
  0
ARC
  5
1F3A
330
81F
100
AcDbEntity
  8
0
  6
Continuous
 62
     7
370
    15
100
AcDbCircle
 10
2549.648374104759
 20
831.169311497489
 30
0.0
 40
3.999999999999992
100
AcDbArc
 50
270.0
 51
0.0
1001
AcDbBlockRepETag
1070
     1
1071
       25
1005
1F3A
  0
LINE
  5
1F3B
330
81F
100
AcDbEntity
  8
0
  6
Continuous
 62
     7
370
    15
100
AcDbLine
 10
2519.107749776255
 20
827.1693116345797
 30
0.0
 11
2549.648373836538
 21
827.1693116345797
 31
0.0
1001
AcDbBlockRepETag
1070
     1
1071
       26
1005
1F3B
  0
ARC
  5
1F3C
330
81F
100
AcDbEntity
  8
0
  6
Continuous
 62
     7
370
    15
100
AcDbCircle
 10
2519.107883497547
 20
827.6693119743264
 30
0.0
 40
0.500000357628025
100
AcDbArc
 50
221.573525651239
 51
270.0
1001
AcDbBlockRepETag
1070
     1
1071
       27
1005
1F3C
  0
ARC
  5
1F3D
330
81F
100
AcDbEntity
  8
0
  6
Continuous
 62
     7
370
    15
100
AcDbCircle
 10
2541.10216424794
 20
847.178581931781
 30
0.0
 40
29.90000000000016
100
AcDbArc
 50
218.6715148610681
 51
221.5735256511703
1001
AcDbBlockRepETag
1070
     1
1071
       28
1005
1F3D
  0
ARC
  5
1F3E
330
81F
100
AcDbEntity
  8
0
  6
Continuous
 62
     7
370
    15
100
AcDbCircle
 10
2518.148374256255
 20
828.8078572586059
 30
0.0
 40
0.4999999999999432
100
AcDbArc
 50
179.9999999999935
 51
218.6715148609847
1001
AcDbBlockRepETag
1070
     1
1071
       29
1005
1F3E
  0
LINE
  5
1F3F
330
81F
100
AcDbEntity
  8
0
  6
Continuous
 62
     7
370
    15
100
AcDbLine
 10
2517.648374685904
 20
834.3693124422227
 30
0.0
 11
2517.648374685904
 21
828.8078563579713
 31
0.0
1001
AcDbBlockRepETag
1070
     1
1071
       30
1005
1F3F
  0
LINE
  5
1F40
330
81F
100
AcDbEntity
  8
0
  6
Continuous
 62
     7
370
    15
100
AcDbLine
 10
2482.648373523613
 20
834.3693124422227
 30
0.0
 11
2517.648374685904
 21
834.3693124422227
 31
0.0
1001
AcDbBlockRepETag
1070
     1
1071
       31
1005
1F40
  0
LINE
  5
1F41
330
81F
100
AcDbEntity
  8
0
  6
Continuous
 62
     7
370
    15
100
AcDbLine
 10
2482.648373523614
 20
828.8078563579713
 30
0.0
 11
2482.648373523614
 21
834.3693124422227
 31
0.0
1001
AcDbBlockRepETag
1070
     1
1071
       32
1005
1F41
  0
ARC
  5
1F42
330
81F
100
AcDbEntity
  8
0
  6
Continuous
 62
     7
370
    15
100
AcDbCircle
 10
2482.148374256255
 20
828.8078572586059
 30
0.0
 40
0.4999999999999574
100
AcDbArc
 50
321.3284851390102
 51
0.0
1001
AcDbBlockRepETag
1070
     1
1071
       33
1005
1F42
  0
ARC
  5
1F43
330
81F
100
AcDbEntity
  8
0
  6
Continuous
 62
     7
370
    15
100
AcDbCircle
 10
2459.194584264569
 20
847.178581931781
 30
0.0
 40
29.90000000000001
100
AcDbArc
 50
318.4264743488296
 51
321.3284851389318
1001
AcDbBlockRepETag
1070
     1
1071
       34
1005
1F43
  0
ARC
  5
1F44
330
81F
100
AcDbEntity
  8
0
  6
Continuous
 62
     7
370
    15
100
AcDbCircle
 10
2481.188865014963
 20
827.6693119743264
 30
0.0
 40
0.5000004768373572
100
AcDbArc
 50
269.9999999999219
 51
318.4264743488443
1001
AcDbBlockRepETag
1070
     1
1071
       35
1005
1F44
  0
LINE
  5
1F45
330
81F
100
AcDbEntity
  8
0
  6
Continuous
 62
     7
370
    15
100
AcDbLine
 10
2450.64837437298
 20
827.1693116345797
 30
0.0
 11
2481.189235272732
 21
827.1693116345797
 31
0.0
1001
AcDbBlockRepETag
1070
     1
1071
       36
1005
1F45
  0
ARC
  5
1F46
330
81F
100
AcDbEntity
  8
0
  6
Continuous
 62
     7
370
    15
100
AcDbCircle
 10
2450.648374104759
 20
831.169311497489
 30
0.0
 40
4.0
100
AcDbArc
 50
180.0
 51
270.0
1001
AcDbBlockRepETag
1070
     1
1071
       37
1005
1F46
  0
LINE
  5
1F47
330
81F
100
AcDbEntity
  8
0
  6
Continuous
 62
     7
370
    15
100
AcDbLine
 10
2446.648373717329
 20
869.2193119147216
 30
0.0
 11
2446.648373717329
 21
831.1693122902308
 31
0.0
1001
AcDbBlockRepETag
1070
     1
1071
       38
1005
1F47
  0
LINE
  5
1F48
330
81F
100
AcDbEntity
  8
0
  6
Continuous
 62
     7
370
    15
100
AcDbLine
 10
2455.398372823259
 20
877.9693110206519
 30
0.0
 11
2446.648373717329
 21
869.2193119147216
 31
0.0
1001
AcDbBlockRepETag
1070
     1
1071
       39
1005
1F48
  0
LINE
  5
1F49
330
81F
100
AcDbEntity
  8
0
  6
Continuous
 62
     7
370
    15
100
AcDbLine
 10
2469.648373762032
 20
877.9693110206519
 30
0.0
 11
2455.398372823259
 21
877.9693110206519
 31
0.0
1001
AcDbBlockRepETag
1070
     1
1071
       40
1005
1F49
  0
LINE
  5
1F4A
330
81F
100
AcDbEntity
  8
0
  6
Continuous
 62
     7
370
    15
100
AcDbLine
 10
2472.148373240492
 20
875.4693115421925
 30
0.0
 11
2469.648373762032
 21
877.9693110206519
 31
0.0
1001
AcDbBlockRepETag
1070
     1
1071
       41
1005
1F4A
  0
ARC
  5
1F4B
330
81F
100
AcDbEntity
  8
0
  6
Continuous
 62
     7
370
    15
100
AcDbCircle
 10
2502.692137668194
 20
874.9884202356353
 30
0.0
 40
0.7399999999999868
100
AcDbArc
 50
19.99999999999536
 51
64.99999999771907
1001
AcDbBlockRepETag
1070
     1
1071
       42
1005
1F4B
  0
LINE
  5
1F4C
330
81F
100
AcDbEntity
  8
0
  6
Continuous
 62
     7
370
    15
100
AcDbLine
 10
2496.836710704377
 20
878.5353502550517
 30
0.0
 11
2503.004875250047
 21
875.6590871432219
 31
0.0
1001
AcDbBlockRepETag
1070
     1
1071
       43
1005
1F4C
  0
ARC
  5
1F4D
330
81F
100
AcDbEntity
  8
0
  6
Continuous
 62
     7
370
    15
100
AcDbCircle
 10
2506.148374105155
 20
874.9656149193379
 30
0.0
 40
2.499999997955697
100
AcDbArc
 50
200.0000000000015
 51
64.99999999128161
1001
AcDbBlockRepETag
1070
     1
1071
       44
1005
1F4D
  0
LINE
  5
1F4E
330
81F
100
AcDbEntity
  8
0
  6
Continuous
 62
     7
370
    15
100
AcDbLine
 10
2503.387510293981
 20
875.241515628377
 30
0.0
 11
2503.799142531937
 21
874.1105640598927
 31
0.0
1001
AcDbBlockRepETag
1070
     1
1071
       45
1005
1F4E
  0
LINE
  5
1F4F
330
81F
100
AcDbEntity
  8
0
  6
Continuous
 62
     7
370
    15
100
AcDbLine
 10
2501.089274051486
 20
880.0831562199984
 30
0.0
 11
2496.836710704377
 21
878.5353502550517
 31
0.0
1001
AcDbBlockRepETag
1070
     1
1071
       46
1005
1F4F
  0
LINE
  5
1F50
330
81F
100
AcDbEntity
  8
0
  6
Continuous
 62
     7
370
    15
100
AcDbLine
 10
2507.204919570944
 20
877.2313850292359
 30
0.0
 11
2501.089274051486
 21
880.0831562199984
 31
0.0
1001
AcDbBlockRepETag
1070
     1
1071
       47
1005
1F50
  0
ARC
  5
1F51
330
81F
100
AcDbEntity
  8
0
  6
Continuous
 62
     7
370
    15
100
AcDbCircle
 10
2492.944841635385
 20
878.2056149172936
 30
0.0
 40
0.7400000000000091
100
AcDbArc
 50
225.0000000022799
 51
270.0
1001
AcDbBlockRepETag
1070
     1
1071
       48
1005
1F51
  0
LINE
  5
1F52
330
81F
100
AcDbEntity
  8
0
  6
Continuous
 62
     7
370
    15
100
AcDbLine
 10
2492.944841721913
 20
877.4656145193969
 30
0.0
 11
2494.148374052605
 21
877.4656145193969
 31
0.0
1001
AcDbBlockRepETag
1070
     1
1071
       49
1005
1F52
  0
ARC
  5
1F53
330
81F
100
AcDbEntity
  8
0
  6
Continuous
 62
     7
370
    15
100
AcDbCircle
 10
2494.148374104362
 20
874.9656149193377
 30
0.0
 40
2.499999997955711
100
AcDbArc
 50
225.0000001845598
 51
90.0
1001
AcDbBlockRepETag
1070
     1
1071
       50
1005
1F53
  0
LINE
  5
1F54
330
81F
100
AcDbEntity
  8
0
  6
Continuous
 62
     7
370
    15
100
AcDbLine
 10
2492.025290133318
 20
873.5531656363402
 30
0.0
 11
2492.380607390663
 21
873.1978474476729
 31
0.0
1001
AcDbBlockRepETag
1070
     1
1071
       51
1005
1F54
  0
LINE
  5
1F55
330
81F
100
AcDbEntity
  8
0
  6
Continuous
 62
     7
370
    15
100
AcDbLine
 10
2492.421582789978
 20
877.6823556342517
 30
0.0
 11
2487.609143817684
 21
882.4947955378686
 31
0.0
1001
AcDbBlockRepETag
1070
     1
1071
       52
1005
1F55
  0
LINE
  5
1F56
330
81F
100
AcDbEntity
  8
0
  6
Continuous
 62
     7
370
    15
100
AcDbLine
 10
2487.609143817684
 20
882.4947955378686
 30
0.0
 11
2487.609143817684
 21
877.9693110206519
 31
0.0
1001
AcDbBlockRepETag
1070
     1
1071
       53
1005
1F56
  0
LINE
  5
1F57
330
81F
100
AcDbEntity
  8
0
  6
Continuous
 62
     7
370
    15
100
AcDbLine
 10
2473.387604096791
 20
875.6693112024461
 30
0.0
 11
2471.948373580238
 21
875.6693112024461
 31
0.0
1001
AcDbBlockRepETag
1070
     1
1071
       54
1005
1F57
  0
LINE
  5
1F58
330
81F
100
AcDbEntity
  8
0
  6
Continuous
 62
     7
370
    15
100
AcDbLine
 10
2436.798367166778
 20
863.1693119475041
 30
0.0
 11
2446.648373717329
 21
863.1693119475041
 31
0.0
1001
AcDbBlockRepETag
1070
     1
1071
       55
1005
1F58
  0
LINE
  5
1F59
330
81F
100
AcDbEntity
  8
0
  6
Continuous
 62
     7
370
    15
100
AcDbLine
 10
2446.398373210689
 20
885.1693099656497
 30
0.0
 11
2446.398373210689
 21
885.6693109789286
 31
0.0
1001
AcDbBlockRepETag
1070
     1
1071
       56
1005
1F59
  0
LINE
  5
1F5A
330
81F
100
AcDbEntity
  8
0
  6
Continuous
 62
     7
370
    15
100
AcDbLine
 10
2484.434626513979
 20
885.6693109789286
 30
0.0
 11
2446.398373210689
 21
885.6693109789286
 31
0.0
1001
AcDbBlockRepETag
1070
     1
1071
       57
1005
1F5A
  0
LINE
  5
1F5B
330
81F
100
AcDbEntity
  8
0
  6
Continuous
 62
     7
370
    15
100
AcDbLine
 10
2436.798367166778
 20
885.1693099656497
 30
0.0
 11
2436.798367166778
 21
863.1693119475041
 31
0.0
1001
AcDbBlockRepETag
1070
     1
1071
       58
1005
1F5B
  0
LINE
  5
1F5C
330
81F
100
AcDbEntity
  8
0
  6
Continuous
 62
     7
370
    15
100
AcDbLine
 10
2446.398373210689
 20
885.1693099656497
 30
0.0
 11
2436.798367166778
 21
885.1693099656497
 31
0.0
1001
AcDbBlockRepETag
1070
     1
1071
       59
1005
1F5C
  0
LINE
  5
1F5D
330
81F
100
AcDbEntity
  8
0
  6
Continuous
 62
     7
370
    15
100
AcDbLine
 10
2487.609143817684
 20
882.4947955378686
 30
0.0
 11
2484.434626513979
 21
885.6693109789286
 31
0.0
1001
AcDbBlockRepETag
1070
     1
1071
       60
1005
1F5D
  0
LINE
  5
1F5E
330
81F
100
AcDbEntity
  8
0
  6
Continuous
 62
     7
370
    15
100
AcDbLine
 10
2492.182531842848
 20
911.2789793231879
 30
0.0
 11
2503.928689734897
 21
915.5542342284118
 31
0.0
1001
AcDbBlockRepETag
1070
     1
1071
       61
1005
1F5E
  0
LINE
  5
1F5F
330
81F
100
AcDbEntity
  8
0
  6
Continuous
 62
     7
370
    15
100
AcDbLine
 10
2492.767892295381
 20
880.4326722690259
 30
0.0
 11
2479.758727813026
 21
916.175061307231
 31
0.0
1001
AcDbBlockRepETag
1070
     1
1071
       62
1005
1F5F
  0
LINE
  5
1F60
330
81F
100
AcDbEntity
  8
0
  6
Continuous
 62
     7
370
    15
100
AcDbLine
 10
2480.228574463984
 20
916.3460670330916
 30
0.0
 11
2479.758727813026
 21
916.175061307231
 31
0.0
1001
AcDbBlockRepETag
1070
     1
1071
       63
1005
1F60
  0
LINE
  5
1F61
330
81F
100
AcDbEntity
  8
0
  6
Continuous
 62
     7
370
    15
100
AcDbLine
 10
2476.945178100726
 20
925.3671257117186
 30
0.0
 11
2480.228574463984
 21
916.3460670330916
 31
0.0
1001
AcDbBlockRepETag
1070
     1
1071
       64
1005
1F61
  0
LINE
  5
1F62
330
81F
100
AcDbEntity
  8
0
  6
Continuous
 62
     7
370
    15
100
AcDbLine
 10
2497.61841607455
 20
932.8915639140998
 30
0.0
 11
2476.945178100726
 21
925.3671257117186
 31
0.0
1001
AcDbBlockRepETag
1070
     1
1071
       65
1005
1F62
  0
LINE
  5
1F63
330
81F
100
AcDbEntity
  8
0
  6
Continuous
 62
     7
370
    15
100
AcDbLine
 10
2503.928689734897
 20
915.5542342284118
 30
0.0
 11
2497.61841607455
 21
932.8915639140998
 31
0.0
1001
AcDbBlockRepETag
1070
     1
1071
       66
1005
1F63
  0
LINE
  5
1F64
330
81F
100
AcDbEntity
  8
0
  6
Continuous
 62
     7
370
    15
100
AcDbLine
 10
2504.037213494888
 20
878.7085091987048
 30
0.0
 11
2492.182531842848
 21
911.2789793231879
 31
0.0
1001
AcDbBlockRepETag
1070
     1
1071
       67
1005
1F64
  0
LINE
  5
1F65
330
81F
100
AcDbEntity
  8
0
  6
Continuous
 62
     7
370
    15
100
AcDbLine
 10
2496.836710704377
 20
878.5353502550517
 30
0.0
 11
2492.767892295381
 21
880.4326722690259
 31
0.0
1001
AcDbBlockRepETag
1070
     1
1071
       68
1005
1F65
  0
LINE
  5
1F66
330
81F
100
AcDbEntity
  8
0
  6
Continuous
 62
     7
370
    15
100
AcDbLine
 10
2508.313437441251
 20
877.9693110206519
 30
0.0
 11
2508.313437441251
 21
876.3128346124087
 31
0.0
1001
AcDbBlockRepETag
1070
     1
1071
       69
1005
1F66
  0
LINE
  5
1F67
330
81F
100
AcDbEntity
  8
0
  6
Continuous
 62
     7
370
    15
100
AcDbLine
 10
2509.148373717329
 20
877.9693110206519
 30
0.0
 11
2508.313437441251
 21
877.9693110206519
 31
0.0
1001
AcDbBlockRepETag
1070
     1
1071
       70
1005
1F67
  0
LINE
  5
1F68
330
81F
100
AcDbEntity
  8
0
  6
Continuous
 62
     7
370
    15
100
AcDbLine
 10
2509.148373717329
 20
874.4300803461467
 30
0.0
 11
2509.148373717329
 21
877.9693110206519
 31
0.0
1001
AcDbBlockRepETag
1070
     1
1071
       71
1005
1F68
  0
ARC
  5
1F69
330
81F
100
AcDbEntity
  8
0
  6
Continuous
 62
     7
370
    15
100
AcDbCircle
 10
2506.148374105155
 20
874.9656149193377
 30
0.0
 40
2.549999997955643
100
AcDbArc
 50
326.3648767910272
 51
31.89210300078861
1001
AcDbBlockRepETag
1070
     1
1071
       72
1005
1F69
  0
LINE
  5
1F6A
330
81F
100
AcDbEntity
  8
0
  6
Continuous
 62
     7
370
    15
100
AcDbLine
 10
2503.32392075274
 20
875.2700345882569
 30
0.0
 11
2503.369407245776
 21
875.2865916409884
 31
0.0
1001
AcDbBlockRepETag
1070
     1
1071
       73
1005
1F6A
  0
LINE
  5
1F6B
330
81F
100
AcDbEntity
  8
0
  6
Continuous
 62
     7
370
    15
100
AcDbLine
 10
2502.365563280767
 20
875.9572034993563
 30
0.0
 11
2502.341755881792
 21
875.4120463797246
 31
0.0
1001
AcDbBlockRepETag
1070
     1
1071
       74
1005
1F6B
  0
LINE
  5
1F6C
330
81F
100
AcDbEntity
  8
0
  6
Continuous
 62
     7
370
    15
100
AcDbLine
 10
2503.32392075274
 20
875.2700345882569
 30
0.0
 11
2503.380383115148
 21
875.1149060496484
 31
0.0
1001
AcDbBlockRepETag
1070
     1
1071
       75
1005
1F6C
  0
ARC
  5
1F6D
330
81F
100
AcDbEntity
  8
0
  6
Continuous
 62
     7
370
    15
100
AcDbCircle
 10
2494.148374104362
 20
874.9656149193377
 30
0.0
 40
2.549999997955666
100
AcDbArc
 50
9.407143045412869
 51
31.8921030271034
1001
AcDbBlockRepETag
1070
     1
1071
       76
1005
1F6D
  0
LINE
  5
1F6E
330
81F
100
AcDbEntity
  8
0
  6
Continuous
 62
     7
370
    15
100
AcDbLine
 10
2496.313437569773
 20
877.9693110206519
 30
0.0
 11
2496.313437569773
 21
876.3128346124087
 31
0.0
1001
AcDbBlockRepETag
1070
     1
1071
       77
1005
1F6E
  0
LINE
  5
1F6F
330
81F
100
AcDbEntity
  8
0
  6
Continuous
 62
     7
370
    15
100
AcDbLine
 10
2497.954992327726
 20
875.4120463797246
 30
0.0
 11
2497.843314643836
 21
877.9693110206519
 31
0.0
1001
AcDbBlockRepETag
1070
     1
1071
       78
1005
1F6F
  0
LINE
  5
1F70
330
81F
100
AcDbEntity
  8
0
  6
Continuous
 62
     7
370
    15
100
AcDbLine
 10
2496.972827456778
 20
875.2700345882569
 30
0.0
 11
2496.664081217608
 21
875.3824098327552
 31
0.0
1001
AcDbBlockRepETag
1070
     1
1071
       79
1005
1F70
  0
LINE
  5
1F71
330
81F
100
AcDbEntity
  8
0
  6
Continuous
 62
     7
370
    15
100
AcDbLine
 10
2497.843314643836
 20
877.9693110206519
 30
0.0
 11
2496.313437569773
 21
877.9693110206519
 31
0.0
1001
AcDbBlockRepETag
1070
     1
1071
       80
1005
1F71
  0
LINE
  5
1F72
330
81F
100
AcDbEntity
  8
0
  6
Continuous
 62
     7
370
    15
100
AcDbLine
 10
2496.972827456778
 20
875.2700345882569
 30
0.0
 11
2496.916365094369
 21
875.1149060496484
 31
0.0
1001
AcDbBlockRepETag
1070
     1
1071
       81
1005
1F72
  0
LINE
  5
1F73
330
81F
100
AcDbEntity
  8
0
  6
Continuous
 62
     7
370
    15
100
AcDbLine
 10
2505.622429756334
 20
877.9693110206519
 30
0.0
 11
2508.313437441251
 21
877.9693110206519
 31
0.0
1001
AcDbBlockRepETag
1070
     1
1071
       82
1005
1F73
  0
LINE
  5
1F74
330
81F
100
AcDbEntity
  8
0
  6
Continuous
 62
     7
370
    15
100
AcDbLine
 10
2492.134627403578
 20
877.9693110206519
 30
0.0
 11
2496.313437569773
 21
877.9693110206519
 31
0.0
1001
AcDbBlockRepETag
1070
     1
1071
       83
1005
1F74
  0
LINE
  5
1F75
330
81F
100
AcDbEntity
  8
0
  6
Continuous
 62
     7
370
    15
100
AcDbLine
 10
2431.798364484569
 20
884.2758884945308
 30
0.0
 11
2436.798367166778
 21
883.1674153277074
 31
0.0
1001
AcDbBlockRepETag
1070
     1
1071
       84
1005
1F75
  0
LINE
  5
1F76
330
81F
100
AcDbEntity
  8
0
  6
Continuous
 62
     7
370
    15
100
AcDbLine
 10
2431.798364484569
 20
884.2758884945308
 30
0.0
 11
2431.798364484569
 21
885.1693099656497
 31
0.0
1001
AcDbBlockRepETag
1070
     1
1071
       85
1005
1F76
  0
LINE
  5
1F77
330
81F
100
AcDbEntity
  8
0
  6
Continuous
 62
     7
370
    15
100
AcDbLine
 10
2436.798367166778
 20
885.1693099656497
 30
0.0
 11
2431.798364484569
 21
885.1693099656497
 31
0.0
1001
AcDbBlockRepETag
1070
     1
1071
       86
1005
1F77
  0
LINE
  5
1F78
330
81F
100
AcDbEntity
  8
0
  6
Continuous
 62
     7
370
    15
100
AcDbLine
 10
2475.235078001281
 20
930.0655884960089
 30
0.0
 11
2476.074620598814
 21
930.37115170745
 31
0.0
1001
AcDbBlockRepETag
1070
     1
1071
       87
1005
1F78
  0
LINE
  5
1F79
330
81F
100
AcDbEntity
  8
0
  6
Continuous
 62
     7
370
    15
100
AcDbLine
 10
2478.826345393321
 20
926.0518117168341
 30
0.0
 11
2476.074620598814
 21
930.37115170745
 31
0.0
1001
AcDbBlockRepETag
1070
     1
1071
       88
1005
1F79
  0
LINE
  5
1F7A
330
81F
100
AcDbEntity
  8
0
  6
Continuous
 62
     7
370
    15
100
AcDbLine
 10
2475.235078001281
 20
930.0655884960089
 30
0.0
 11
2476.945178100726
 21
925.3671257117186
 31
0.0
1001
AcDbBlockRepETag
1070
     1
1071
       89
1005
1F7A
  0
ARC
  5
1F7B
330
81F
100
AcDbEntity
  8
0
  6
Continuous
 62
     7
370
    15
100
AcDbCircle
 10
2478.788690430337
 20
827.4693114976207
 30
0.0
 40
0.5000000000000569
100
AcDbArc
 50
216.8698976647079
 51
270.0
1001
AcDbBlockRepETag
1070
     1
1071
       90
1005
1F7B
  0
LINE
  5
1F7C
330
81F
100
AcDbEntity
  8
0
  6
Continuous
 62
     7
370
    15
100
AcDbLine
 10
2482.64837386038
 20
833.1693107554112
 30
0.0
 11
2482.64837386038
 21
834.3693124422227
 31
0.0
1001
AcDbBlockRepETag
1070
     1
1071
       91
1005
1F7C
  0
LINE
  5
1F7D
330
81F
100
AcDbEntity
  8
0
  6
Continuous
 62
     7
370
    15
100
AcDbLine
 10
2484.748374188205
 20
832.6261503913794
 30
0.0
 11
2482.648373523614
 21
833.1964688606202
 31
0.0
1001
AcDbBlockRepETag
1070
     1
1071
       92
1005
1F7D
  0
ARC
  5
1F7E
330
81F
100
AcDbEntity
  8
0
  6
Continuous
 62
     7
370
    15
100
AcDbCircle
 10
2458.944584112868
 20
846.9785814550753
 30
0.0
 40
30.00000000000004
100
AcDbArc
 50
318.598524287358
 51
329.3307708032692
1001
AcDbBlockRepETag
1070
     1
1071
       93
1005
1F7E
  0
ARC
  5
1F7F
330
81F
100
AcDbEntity
  8
0
  6
Continuous
 62
     7
370
    15
100
AcDbCircle
 10
2481.072358192679
 20
827.4693114976205
 30
0.0
 40
0.5000000000000407
100
AcDbArc
 50
270.0
 51
318.5985242873678
1001
AcDbBlockRepETag
1070
     1
1071
       94
1005
1F7F
  0
LINE
  5
1F80
330
81F
100
AcDbEntity
  8
0
  6
Continuous
 62
     7
370
    15
100
AcDbLine
 10
2478.788690158984
 20
826.9693119743262
 30
0.0
 11
2481.072358304521
 21
826.9693119743262
 31
0.0
1001
AcDbBlockRepETag
1070
     1
1071
       95
1005
1F80
  0
LINE
  5
1F81
330
81F
100
AcDbEntity
  8
0
  6
Continuous
 62
     7
370
    15
100
AcDbLine
 10
2484.748374188205
 20
831.6761492112075
 30
0.0
 11
2484.748374188205
 21
832.6261503913794
 31
0.0
1001
AcDbBlockRepETag
1070
     1
1071
       96
1005
1F81
  0
ARC
  5
1F82
330
81F
100
AcDbEntity
  8
0
  6
Continuous
 62
     7
370
    15
100
AcDbCircle
 10
2521.508057778772
 20
827.4693114976207
 30
0.0
 40
0.5000000000001564
100
AcDbArc
 50
270.0
 51
323.1301023352921
1001
AcDbBlockRepETag
1070
     1
1071
       97
1005
1F82
  0
LINE
  5
1F83
330
81F
100
AcDbEntity
  8
0
  6
Continuous
 62
     7
370
    15
100
AcDbLine
 10
2519.224389904997
 20
826.9693119743262
 30
0.0
 11
2521.508058050534
 21
826.9693119743262
 31
0.0
1001
AcDbBlockRepETag
1070
     1
1071
       98
1005
1F83
  0
ARC
  5
1F84
330
81F
100
AcDbEntity
  8
0
  6
Continuous
 62
     7
370
    15
100
AcDbCircle
 10
2519.224390016429
 20
827.4693114976203
 30
0.0
 40
0.5000000000000569
100
AcDbArc
 50
221.4014757124288
 51
270.0
1001
AcDbBlockRepETag
1070
     1
1071
       99
1005
1F84
  0
ARC
  5
1F85
330
81F
100
AcDbEntity
  8
0
  6
Continuous
 62
     7
370
    15
100
AcDbCircle
 10
2541.35216409624
 20
846.9785814550753
 30
0.0
 40
30.00000000000007
100
AcDbArc
 50
210.6692297661942
 51
221.401475712642
1001
AcDbBlockRepETag
1070
     1
1071
      100
1005
1F85
  0
LINE
  5
1F86
330
81F
100
AcDbEntity
  8
0
  6
Continuous
 62
     7
370
    15
100
AcDbLine
 10
2515.548374021312
 20
832.6261503913794
 30
0.0
 11
2515.548374021312
 21
831.6761492112075
 31
0.0
1001
AcDbBlockRepETag
1070
     1
1071
      101
1005
1F86
  0
LINE
  5
1F87
330
81F
100
AcDbEntity
  8
0
  6
Continuous
 62
     7
370
    15
100
AcDbLine
 10
2517.648374685904
 20
833.1964688606204
 30
0.0
 11
2515.548374021312
 21
832.6261503913794
 31
0.0
1001
AcDbBlockRepETag
1070
     1
1071
      102
1005
1F87
  0
LINE
  5
1F89
330
81F
100
AcDbEntity
  8
0
  6
Continuous
 62
     7
370
    15
100
AcDbLine
 10
2523.148374149462
 20
879.9693113484774
 30
0.0
 11
2517.148375028631
 21
879.9693113484774
 31
0.0
1001
AcDbBlockRepETag
1070
     1
1071
      104
1005
1F89
  0
LINE
  5
1F8A
330
81F
100
AcDbEntity
  8
0
  6
Continuous
 62
     7
370
    15
100
AcDbLine
 10
2522.648374998829
 20
880.4693123617564
 30
0.0
 11
2517.648374179265
 21
880.4693123617564
 31
0.0
1001
AcDbBlockRepETag
1070
     1
1071
      105
1005
1F8A
  0
LINE
  5
1F8B
330
81F
100
AcDbEntity
  8
0
  6
Continuous
 62
     7
370
    15
100
AcDbLine
 10
2498.898374249114
 20
833.9693112590705
 30
0.0
 11
2501.39837430965
 21
833.9693112590705
 31
0.0
1001
AcDbBlockRepETag
1070
     1
1071
      106
1005
1F8B
  0
ENDBLK
  5
821
330
81F
100
AcDbEntity
  8
0
100
AcDbBlockEnd
  0
BLOCK
  5
896
330
895
100
AcDbEntity
  8
0
100
AcDbBlockBegin
  2
2
 70
     0
 10
0.0
 20
0.0
 30
0.0
  3
2
  1

  0
LINE
  5
1BC7
330
895
100
AcDbEntity
  8
0
  6
Continuous
 62
     7
370
    15
100
AcDbLine
 10
2386.042690432798
 20
863.1693119475041
 30
0.0
 11
2386.042690432798
 21
864.2693119415437
 31
0.0
  0
LINE
  5
1BC8
330
895
100
AcDbEntity
  8
0
  6
Continuous
 62
     7
370
    15
100
AcDbLine
 10
2373.542689315211
 20
864.2693119415437
 30
0.0
 11
2373.542689315211
 21
863.1693119475041
 31
0.0
  0
ARC
  5
1BC9
330
895
100
AcDbEntity
  8
0
  6
Continuous
 62
     7
370
    15
100
AcDbCircle
 10
2373.742690224182
 20
864.2693114974891
 30
0.0
 40
0.1999999999999886
100
AcDbArc
 50
90.0
 51
180.0
  0
ARC
  5
1BCA
330
895
100
AcDbEntity
  8
0
  6
Continuous
 62
     7
370
    15
100
AcDbCircle
 10
2385.842690224182
 20
864.2693114974891
 30
0.0
 40
0.200000000000017
100
AcDbArc
 50
0.0
 51
90.0
  0
ARC
  5
1BCB
330
895
100
AcDbEntity
  8
0
  6
Continuous
 62
     7
370
    15
100
AcDbCircle
 10
2373.742690224182
 20
863.1693114974892
 30
0.0
 40
0.1999999999999886
100
AcDbArc
 50
180.0
 51
270.0
  0
ARC
  5
1BCC
330
895
100
AcDbEntity
  8
0
  6
Continuous
 62
     7
370
    15
100
AcDbCircle
 10
2385.842690224182
 20
863.1693114974892
 30
0.0
 40
0.200000000000017
100
AcDbArc
 50
270.0
 51
0.0
  0
LINE
  5
1BCD
330
895
100
AcDbEntity
  8
0
  6
Continuous
 62
     7
370
    15
100
AcDbLine
 10
2382.792690365743
 20
869.469312421361
 30
0.0
 11
2382.792690365743
 21
879.9693113484774
 31
0.0
  0
LINE
  5
1BCE
330
895
100
AcDbEntity
  8
0
  6
Continuous
 62
     7
370
    15
100
AcDbLine
 10
2376.792690313589
 20
879.9693113484774
 30
0.0
 11
2376.792690313589
 21
869.469312421361
 31
0.0
  0
LINE
  5
1BCF
330
895
100
AcDbEntity
  8
0
  6
Continuous
 62
     7
370
    15
100
AcDbLine
 10
2382.792690365743
 20
879.9693113484774
 30
0.0
 11
2382.292690283787
 21
880.4693123617564
 31
0.0
  0
LINE
  5
1BD0
330
895
100
AcDbEntity
  8
0
  6
Continuous
 62
     7
370
    15
100
AcDbLine
 10
2377.292689464223
 20
880.4693123617564
 30
0.0
 11
2376.792690313589
 21
879.9693113484774
 31
0.0
  0
LINE
  5
1BD1
330
895
100
AcDbEntity
  8
0
  6
Continuous
 62
     7
370
    15
100
AcDbLine
 10
2370.092690519225
 20
869.2193119147216
 30
0.0
 11
2366.292689523827
 21
869.2193119147216
 31
0.0
  0
LINE
  5
1BD2
330
895
100
AcDbEntity
  8
0
  6
Continuous
 62
     7
370
    15
100
AcDbLine
 10
2370.092690519225
 20
869.2193119147216
 30
0.0
 11
2370.092690519225
 21
835.5080871203337
 31
0.0
  0
LINE
  5
1BD3
330
895
100
AcDbEntity
  8
0
  6
Continuous
 62
     7
370
    15
100
AcDbLine
 10
2370.092690519225
 20
835.5080871203337
 30
0.0
 11
2389.492690160107
 21
835.5080871203337
 31
0.0
  0
LINE
  5
1BD4
330
895
100
AcDbEntity
  8
0
  6
Continuous
 62
     7
370
    15
100
AcDbLine
 10
2389.492690160107
 20
835.5080871203337
 30
0.0
 11
2389.492690160107
 21
869.2193119147216
 31
0.0
  0
LINE
  5
1BD5
330
895
100
AcDbEntity
  8
0
  6
Continuous
 62
     7
370
    15
100
AcDbLine
 10
2389.492690160107
 20
869.2193119147216
 30
0.0
 11
2393.292690224182
 21
869.2193119147216
 31
0.0
  0
LINE
  5
1BD6
330
895
100
AcDbEntity
  8
0
  6
Continuous
 62
     7
370
    15
100
AcDbLine
 10
2393.292690224182
 20
869.2193119147216
 30
0.0
 11
2393.292690224182
 21
831.1693122902308
 31
0.0
  0
LINE
  5
1BD7
330
895
100
AcDbEntity
  8
0
  6
Continuous
 62
     7
370
    15
100
AcDbLine
 10
2393.292690224182
 20
831.1693122902308
 30
0.0
 11
2366.292689523827
 21
831.1693122902308
 31
0.0
  0
LINE
  5
1BD8
330
895
100
AcDbEntity
  8
0
  6
Continuous
 62
     7
370
    15
100
AcDbLine
 10
2366.292689523827
 20
831.1693122902308
 30
0.0
 11
2366.292689523827
 21
869.2193119147216
 31
0.0
  0
LINE
  5
1BD9
330
895
100
AcDbEntity
  8
0
  6
Continuous
 62
     7
370
    15
100
AcDbLine
 10
2389.492690160107
 20
877.9693110206519
 30
0.0
 11
2393.292690224182
 21
877.9693110206519
 31
0.0
  0
LINE
  5
1BDA
330
895
100
AcDbEntity
  8
0
  6
Continuous
 62
     7
370
    15
100
AcDbLine
 10
2393.292690224182
 20
877.9693110206519
 30
0.0
 11
2393.292690224182
 21
869.2193119147216
 31
0.0
  0
LINE
  5
1BDB
330
895
100
AcDbEntity
  8
0
  6
Continuous
 62
     7
370
    15
100
AcDbLine
 10
2389.492690160107
 20
869.2193119147216
 30
0.0
 11
2389.492690160107
 21
877.9693110206519
 31
0.0
  0
LINE
  5
1BDC
330
895
100
AcDbEntity
  8
0
  6
Continuous
 62
     7
370
    15
100
AcDbLine
 10
2366.292689523827
 20
869.2193119147216
 30
0.0
 11
2366.292689523827
 21
877.9693110206519
 31
0.0
  0
LINE
  5
1BDD
330
895
100
AcDbEntity
  8
0
  6
Continuous
 62
     7
370
    15
100
AcDbLine
 10
2370.092690519225
 20
877.9693110206519
 30
0.0
 11
2366.292689523827
 21
877.9693110206519
 31
0.0
  0
LINE
  5
1BDE
330
895
100
AcDbEntity
  8
0
  6
Continuous
 62
     7
370
    15
100
AcDbLine
 10
2370.092690519225
 20
877.9693110206519
 30
0.0
 11
2370.092690519225
 21
869.2193119147216
 31
0.0
  0
LINE
  5
1BDF
330
895
100
AcDbEntity
  8
0
  6
Continuous
 62
     7
370
    15
100
AcDbLine
 10
2366.292689523827
 20
827.1693116345797
 30
0.0
 11
2393.292690224182
 21
827.1693116345797
 31
0.0
  0
LINE
  5
1BE0
330
895
100
AcDbEntity
  8
0
  6
Continuous
 62
     7
370
    15
100
AcDbLine
 10
2366.292689523827
 20
827.1693116345797
 30
0.0
 11
2366.292689523827
 21
831.1693122902308
 31
0.0
  0
LINE
  5
1BE1
330
895
100
AcDbEntity
  8
0
  6
Continuous
 62
     7
370
    15
100
AcDbLine
 10
2393.292690224182
 20
827.1693116345797
 30
0.0
 11
2393.292690224182
 21
831.1693122902308
 31
0.0
  0
LINE
  5
1BE2
330
895
100
AcDbEntity
  8
0
  6
Continuous
 62
     7
370
    15
100
AcDbLine
 10
2384.792689762246
 20
840.4693113931809
 30
0.0
 11
2374.792689985763
 21
840.4693113931809
 31
0.0
  0
LINE
  5
1BE3
330
895
100
AcDbEntity
  8
0
  6
Continuous
 62
     7
370
    15
100
AcDbLine
 10
2384.792689762246
 20
839.2693115690146
 30
0.0
 11
2384.792689762246
 21
840.4693113931809
 31
0.0
  0
LINE
  5
1BE4
330
895
100
AcDbEntity
  8
0
  6
Continuous
 62
     7
370
    15
100
AcDbLine
 10
2384.792689762246
 20
839.2693115690146
 30
0.0
 11
2386.792690090071
 21
839.2693115690146
 31
0.0
  0
LINE
  5
1BE5
330
895
100
AcDbEntity
  8
0
  6
Continuous
 62
     7
370
    15
100
AcDbLine
 10
2386.792690090071
 20
836.2693110772763
 30
0.0
 11
2386.792690090071
 21
839.2693115690146
 31
0.0
  0
LINE
  5
1BE6
330
895
100
AcDbEntity
  8
0
  6
Continuous
 62
     7
370
    15
100
AcDbLine
 10
2386.792690090071
 20
836.2693110772763
 30
0.0
 11
2384.792689762246
 21
836.2693110772763
 31
0.0
  0
LINE
  5
1BE7
330
895
100
AcDbEntity
  8
0
  6
Continuous
 62
     7
370
    15
100
AcDbLine
 10
2384.792689762246
 20
836.2693110772763
 30
0.0
 11
2384.792689762246
 21
835.5080871203337
 31
0.0
  0
LINE
  5
1BE8
330
895
100
AcDbEntity
  8
0
  6
Continuous
 62
     7
370
    15
100
AcDbLine
 10
2374.792689985763
 20
835.5080871203337
 30
0.0
 11
2374.792689985763
 21
836.2693110772763
 31
0.0
  0
LINE
  5
1BE9
330
895
100
AcDbEntity
  8
0
  6
Continuous
 62
     7
370
    15
100
AcDbLine
 10
2374.792689985763
 20
836.2693110772763
 30
0.0
 11
2372.792689657938
 21
836.2693110772763
 31
0.0
  0
LINE
  5
1BEA
330
895
100
AcDbEntity
  8
0
  6
Continuous
 62
     7
370
    15
100
AcDbLine
 10
2372.792689657938
 20
836.2693110772763
 30
0.0
 11
2372.792689657938
 21
839.2693115690146
 31
0.0
  0
LINE
  5
1BEB
330
895
100
AcDbEntity
  8
0
  6
Continuous
 62
     7
370
    15
100
AcDbLine
 10
2372.792689657938
 20
839.2693115690146
 30
0.0
 11
2374.792689985763
 21
839.2693115690146
 31
0.0
  0
LINE
  5
1BEC
330
895
100
AcDbEntity
  8
0
  6
Continuous
 62
     7
370
    15
100
AcDbLine
 10
2374.792689985763
 20
840.4693113931809
 30
0.0
 11
2374.792689985763
 21
839.2693115690146
 31
0.0
  0
LINE
  5
1BED
330
895
100
AcDbEntity
  8
0
  6
Continuous
 62
     7
370
    15
100
AcDbLine
 10
2374.792689985763
 20
835.8362982341443
 30
0.0
 11
2372.792689657938
 21
835.8362982341443
 31
0.0
  0
LINE
  5
1BEE
330
895
100
AcDbEntity
  8
0
  6
Continuous
 62
     7
370
    15
100
AcDbLine
 10
2372.792689657938
 20
835.8362982341443
 30
0.0
 11
2372.792689657938
 21
836.2693110772763
 31
0.0
  0
LINE
  5
1BEF
330
895
100
AcDbEntity
  8
0
  6
Continuous
 62
     7
370
    15
100
AcDbLine
 10
2386.792690090071
 20
835.8362982341443
 30
0.0
 11
2384.792689762246
 21
835.8362982341443
 31
0.0
  0
LINE
  5
1BF0
330
895
100
AcDbEntity
  8
0
  6
Continuous
 62
     7
370
    15
100
AcDbLine
 10
2386.792690090071
 20
835.8362982341443
 30
0.0
 11
2386.792690090071
 21
836.2693110772763
 31
0.0
  0
LINE
  5
1BF1
330
895
100
AcDbEntity
  8
0
  6
Continuous
 62
     7
370
    15
100
AcDbLine
 10
2384.792689762246
 20
839.7023244121466
 30
0.0
 11
2386.792690090071
 21
839.7023244121466
 31
0.0
  0
LINE
  5
1BF2
330
895
100
AcDbEntity
  8
0
  6
Continuous
 62
     7
370
    15
100
AcDbLine
 10
2386.792690090071
 20
839.2693115690146
 30
0.0
 11
2386.792690090071
 21
839.7023244121466
 31
0.0
  0
LINE
  5
1BF3
330
895
100
AcDbEntity
  8
0
  6
Continuous
 62
     7
370
    15
100
AcDbLine
 10
2372.792689657938
 20
839.7023244121466
 30
0.0
 11
2374.792689985763
 21
839.7023244121466
 31
0.0
  0
LINE
  5
1BF4
330
895
100
AcDbEntity
  8
0
  6
Continuous
 62
     7
370
    15
100
AcDbLine
 10
2372.792689657938
 20
839.7023244121466
 30
0.0
 11
2372.792689657938
 21
839.2693115690146
 31
0.0
  0
LINE
  5
1BF5
330
895
100
AcDbEntity
  8
0
  6
Continuous
 62
     7
370
    15
100
AcDbLine
 10
2375.292690999042
 20
840.7651152753626
 30
0.0
 11
2374.792689985763
 21
840.7651152753626
 31
0.0
  0
LINE
  5
1BF6
330
895
100
AcDbEntity
  8
0
  6
Continuous
 62
     7
370
    15
100
AcDbLine
 10
2384.292690611612
 20
840.7693118148838
 30
0.0
 11
2375.292690999042
 21
840.7693118148838
 31
0.0
  0
LINE
  5
1BF7
330
895
100
AcDbEntity
  8
0
  6
Continuous
 62
     7
370
    15
100
AcDbLine
 10
2384.792689762246
 20
840.7651152753626
 30
0.0
 11
2384.292690611612
 21
840.7651152753626
 31
0.0
  0
LINE
  5
1BF8
330
895
100
AcDbEntity
  8
0
  6
Continuous
 62
     7
370
    15
100
AcDbLine
 10
2374.792689985763
 20
840.7651152753626
 30
0.0
 11
2374.792689985763
 21
840.4693113931809
 31
0.0
  0
LINE
  5
1BF9
330
895
100
AcDbEntity
  8
0
  6
Continuous
 62
     7
370
    15
100
AcDbLine
 10
2384.792689762246
 20
840.4693113931809
 30
0.0
 11
2384.792689762246
 21
840.7651152753626
 31
0.0
  0
LINE
  5
1BFA
330
895
100
AcDbEntity
  8
0
  6
Continuous
 62
     7
370
    15
100
AcDbLine
 10
2384.292690611612
 20
853.743317705894
 30
0.0
 11
2384.292690611612
 21
840.7651152753626
 31
0.0
  0
LINE
  5
1BFB
330
895
100
AcDbEntity
  8
0
  6
Continuous
 62
     7
370
    15
100
AcDbLine
 10
2375.292690999042
 20
853.743317705894
 30
0.0
 11
2384.292690611612
 21
853.743317705894
 31
0.0
  0
LINE
  5
1BFC
330
895
100
AcDbEntity
  8
0
  6
Continuous
 62
     7
370
    15
100
AcDbLine
 10
2375.292690999042
 20
840.7651152753626
 30
0.0
 11
2375.292690999042
 21
853.743317705894
 31
0.0
  0
LINE
  5
1BFD
330
895
100
AcDbEntity
  8
0
  6
Continuous
 62
     7
370
    15
100
AcDbLine
 10
2389.492690160107
 20
860.969311959425
 30
0.0
 11
2370.092690519225
 21
860.969311959425
 31
0.0
  0
LINE
  5
1BFE
330
895
100
AcDbEntity
  8
0
  6
Continuous
 62
     7
370
    15
100
AcDbLine
 10
2375.292690999042
 20
853.7121092028339
 30
0.0
 11
2384.292690611612
 21
853.7121092028339
 31
0.0
  0
LINE
  5
1BFF
330
895
100
AcDbEntity
  8
0
  6
Continuous
 62
     7
370
    15
100
AcDbLine
 10
2384.292690611612
 20
848.0620555871521
 30
0.0
 11
2375.292690999042
 21
848.0620555871521
 31
0.0
  0
LINE
  5
1C00
330
895
100
AcDbEntity
  8
0
  6
Continuous
 62
     7
370
    15
100
AcDbLine
 10
2384.292690611612
 20
847.750085342059
 30
0.0
 11
2375.292690999042
 21
847.750085342059
 31
0.0
  0
LINE
  5
1C01
330
895
100
AcDbEntity
  8
0
  6
Continuous
 62
     7
370
    15
100
AcDbLine
 10
2385.842690306883
 20
864.4693116017972
 30
0.0
 11
2373.74269083811
 21
864.4693116017972
 31
0.0
  0
LINE
  5
1C02
330
895
100
AcDbEntity
  8
0
  6
Continuous
 62
     7
370
    15
100
AcDbLine
 10
2379.01630491687
 20
862.969311355928
 30
0.0
 11
2380.569011501204
 21
862.969311355928
 31
0.0
  0
LINE
  5
1C03
330
895
100
AcDbEntity
  8
0
  6
Continuous
 62
     7
370
    15
100
AcDbLine
 10
2385.292689844202
 20
860.969311959425
 30
0.0
 11
2385.292689844202
 21
862.969311355928
 31
0.0
  0
LINE
  5
1C04
330
895
100
AcDbEntity
  8
0
  6
Continuous
 62
     7
370
    15
100
AcDbLine
 10
2374.29269083513
 20
860.969311959425
 30
0.0
 11
2374.29269083513
 21
862.969311355928
 31
0.0
  0
LINE
  5
1C05
330
895
100
AcDbEntity
  8
0
  6
Continuous
 62
     7
370
    15
100
AcDbLine
 10
2385.292689844202
 20
862.969311355928
 30
0.0
 11
2380.569011501204
 21
862.969311355928
 31
0.0
  0
LINE
  5
1C06
330
895
100
AcDbEntity
  8
0
  6
Continuous
 62
     7
370
    15
100
AcDbLine
 10
2379.01630491687
 20
862.969311355928
 30
0.0
 11
2374.29269083513
 21
862.969311355928
 31
0.0
  0
LINE
  5
1C07
330
895
100
AcDbEntity
  8
0
  6
Continuous
 62
     7
370
    15
100
AcDbLine
 10
2387.292690172028
 20
860.969311959425
 30
0.0
 11
2387.292690172028
 21
862.969311355928
 31
0.0
  0
LINE
  5
1C08
330
895
100
AcDbEntity
  8
0
  6
Continuous
 62
     7
370
    15
100
AcDbLine
 10
2387.292690172028
 20
862.969311355928
 30
0.0
 11
2385.292689844202
 21
862.969311355928
 31
0.0
  0
LINE
  5
1C09
330
895
100
AcDbEntity
  8
0
  6
Continuous
 62
     7
370
    15
100
AcDbLine
 10
2372.292690507304
 20
860.969311959425
 30
0.0
 11
2372.292690507304
 21
862.969311355928
 31
0.0
  0
LINE
  5
1C0A
330
895
100
AcDbEntity
  8
0
  6
Continuous
 62
     7
370
    15
100
AcDbLine
 10
2374.29269083513
 20
862.969311355928
 30
0.0
 11
2372.292690507304
 21
862.969311355928
 31
0.0
  0
LINE
  5
1C0B
330
895
100
AcDbEntity
  8
0
  6
Continuous
 62
     7
370
    15
100
AcDbLine
 10
2382.621706991624
 20
869.1806359508429
 30
0.0
 11
2385.450723177921
 21
869.1806359508429
 31
0.0
  0
LINE
  5
1C0C
330
895
100
AcDbEntity
  8
0
  6
Continuous
 62
     7
370
    15
100
AcDbLine
 10
2385.450723177921
 20
869.1806359508429
 30
0.0
 11
2385.450723177921
 21
864.7579862096701
 31
0.0
  0
LINE
  5
1C0D
330
895
100
AcDbEntity
  8
0
  6
Continuous
 62
     7
370
    15
100
AcDbLine
 10
2382.621706991624
 20
864.7579862096701
 30
0.0
 11
2385.450723177921
 21
864.7579862096701
 31
0.0
  0
LINE
  5
1C0E
330
895
100
AcDbEntity
  8
0
  6
Continuous
 62
     7
370
    15
100
AcDbLine
 10
2382.621706991624
 20
869.1806359508429
 30
0.0
 11
2382.621706991624
 21
864.7579862096701
 31
0.0
  0
LINE
  5
1C0F
330
895
100
AcDbEntity
  8
0
  6
Continuous
 62
     7
370
    15
100
AcDbLine
 10
2382.621706991624
 20
869.1806359508429
 30
0.0
 11
2382.333031452429
 21
869.469312421361
 31
0.0
  0
LINE
  5
1C10
330
895
100
AcDbEntity
  8
0
  6
Continuous
 62
     7
370
    15
100
AcDbLine
 10
2384.873373030853
 20
869.469312421361
 30
0.0
 11
2382.333031452429
 21
869.469312421361
 31
0.0
  0
LINE
  5
1C11
330
895
100
AcDbEntity
  8
0
  6
Continuous
 62
     7
370
    15
100
AcDbLine
 10
2385.450723177921
 20
869.1806359508429
 30
0.0
 11
2384.873373030853
 21
869.469312421361
 31
0.0
  0
LINE
  5
1C12
330
895
100
AcDbEntity
  8
0
  6
Continuous
 62
     7
370
    15
100
AcDbLine
 10
2385.450723177921
 20
864.7579862096701
 30
0.0
 11
2384.873373030853
 21
864.4693116017972
 31
0.0
  0
LINE
  5
1C13
330
895
100
AcDbEntity
  8
0
  6
Continuous
 62
     7
370
    15
100
AcDbLine
 10
2382.621706991624
 20
864.7579862096701
 30
0.0
 11
2382.333031452429
 21
864.4693116017972
 31
0.0
  0
LINE
  5
1C14
330
895
100
AcDbEntity
  8
0
  6
Continuous
 62
     7
370
    15
100
AcDbLine
 10
2376.963673687708
 20
869.1806359508429
 30
0.0
 11
2382.621706991624
 21
869.1806359508429
 31
0.0
  0
LINE
  5
1C15
330
895
100
AcDbEntity
  8
0
  6
Continuous
 62
     7
370
    15
100
AcDbLine
 10
2376.963673687708
 20
869.1806359508429
 30
0.0
 11
2377.252348295581
 21
869.469312421361
 31
0.0
  0
LINE
  5
1C16
330
895
100
AcDbEntity
  8
0
  6
Continuous
 62
     7
370
    15
100
AcDbLine
 10
2382.333031452429
 20
869.469312421361
 30
0.0
 11
2377.252348295581
 21
869.469312421361
 31
0.0
  0
LINE
  5
1C17
330
895
100
AcDbEntity
  8
0
  6
Continuous
 62
     7
370
    15
100
AcDbLine
 10
2376.963673687708
 20
864.7579862096701
 30
0.0
 11
2382.621706991624
 21
864.7579862096701
 31
0.0
  0
LINE
  5
1C18
330
895
100
AcDbEntity
  8
0
  6
Continuous
 62
     7
370
    15
100
AcDbLine
 10
2376.963673687708
 20
864.7579862096701
 30
0.0
 11
2377.252348295581
 21
864.4693116017972
 31
0.0
  0
LINE
  5
1C19
330
895
100
AcDbEntity
  8
0
  6
Continuous
 62
     7
370
    15
100
AcDbLine
 10
2376.963673687708
 20
869.1806359508429
 30
0.0
 11
2376.963673687708
 21
864.7579862096701
 31
0.0
  0
LINE
  5
1C1A
330
895
100
AcDbEntity
  8
0
  6
Continuous
 62
     7
370
    15
100
AcDbLine
 10
2374.134658432733
 20
869.1806359508429
 30
0.0
 11
2376.963673687708
 21
869.1806359508429
 31
0.0
  0
LINE
  5
1C1B
330
895
100
AcDbEntity
  8
0
  6
Continuous
 62
     7
370
    15
100
AcDbLine
 10
2374.134658432733
 20
864.7579862096701
 30
0.0
 11
2376.963673687708
 21
864.7579862096701
 31
0.0
  0
LINE
  5
1C1C
330
895
100
AcDbEntity
  8
0
  6
Continuous
 62
     7
370
    15
100
AcDbLine
 10
2374.134658432733
 20
869.1806359508429
 30
0.0
 11
2374.134658432733
 21
864.7579862096701
 31
0.0
  0
LINE
  5
1C1D
330
895
100
AcDbEntity
  8
0
  6
Continuous
 62
     7
370
    15
100
AcDbLine
 10
2377.252348295581
 20
869.469312421361
 30
0.0
 11
2374.712007648479
 21
869.469312421361
 31
0.0
  0
LINE
  5
1C1E
330
895
100
AcDbEntity
  8
0
  6
Continuous
 62
     7
370
    15
100
AcDbLine
 10
2374.134658432733
 20
869.1806359508429
 30
0.0
 11
2374.712007648479
 21
869.469312421361
 31
0.0
  0
LINE
  5
1C1F
330
895
100
AcDbEntity
  8
0
  6
Continuous
 62
     7
370
    15
100
AcDbLine
 10
2374.134658432733
 20
864.7579862096701
 30
0.0
 11
2374.712007648479
 21
864.4693116017972
 31
0.0
  0
LINE
  5
1C20
330
895
100
AcDbEntity
  8
0
  6
Continuous
 62
     7
370
    15
100
AcDbLine
 10
2382.792690365743
 20
879.9693113484774
 30
0.0
 11
2376.792690313589
 21
879.9693113484774
 31
0.0
  0
LINE
  5
1C21
330
895
100
AcDbEntity
  8
0
  6
Continuous
 62
     7
370
    15
100
AcDbLine
 10
2379.792689874005
 20
880.4693123617564
 30
0.0
 11
2377.292689464223
 21
880.4693123617564
 31
0.0
  0
LINE
  5
1C22
330
895
100
AcDbEntity
  8
0
  6
Continuous
 62
     7
370
    15
100
AcDbLine
 10
2382.292690283787
 20
880.4693123617564
 30
0.0
 11
2379.792689874005
 21
880.4693123617564
 31
0.0
  0
LINE
  5
1C23
330
895
100
AcDbEntity
  8
0
  6
Continuous
 62
     7
370
    15
100
AcDbLine
 10
2374.792689985763
 20
826.9693119743262
 30
0.0
 11
2384.792689762246
 21
826.9693119743262
 31
0.0
  0
LINE
  5
1C24
330
895
100
AcDbEntity
  8
0
  6
Continuous
 62
     7
370
    15
100
AcDbLine
 10
2374.792689985763
 20
827.1693116345797
 30
0.0
 11
2374.792689985763
 21
826.9693119743262
 31
0.0
  0
LINE
  5
1C25
330
895
100
AcDbEntity
  8
0
  6
Continuous
 62
     7
370
    15
100
AcDbLine
 10
2384.792689762246
 20
826.9693119743262
 30
0.0
 11
2384.792689762246
 21
827.1693116345797
 31
0.0
  0
LINE
  5
1C26
330
895
100
AcDbEntity
  8
0
  6
Continuous
 62
     7
370
    15
100
AcDbLine
 10
2389.492690160107
 20
877.9693110206519
 30
0.0
 11
2382.792690365743
 21
877.9693110206519
 31
0.0
  0
LINE
  5
1C27
330
895
100
AcDbEntity
  8
0
  6
Continuous
 62
     7
370
    15
100
AcDbLine
 10
2376.792690313589
 20
877.9693110206519
 30
0.0
 11
2370.092690519225
 21
877.9693110206519
 31
0.0
  0
LINE
  5
1C28
330
895
100
AcDbEntity
  8
0
  6
Continuous
 62
     7
370
    15
100
AcDbLine
 10
2368.092690191399
 20
878.7085091987048
 30
0.0
 11
2368.092690191399
 21
877.9693110206519
 31
0.0
  0
LINE
  5
1C29
330
895
100
AcDbEntity
  8
0
  6
Continuous
 62
     7
370
    15
100
AcDbLine
 10
2366.942689350974
 20
880.0831562199984
 30
0.0
 11
2366.44269020034
 21
880.0831562199984
 31
0.0
  0
LINE
  5
1C2A
330
895
100
AcDbEntity
  8
0
  6
Continuous
 62
     7
370
    15
100
AcDbLine
 10
2366.942689350974
 20
878.7085091987048
 30
0.0
 11
2368.092690191399
 21
878.7085091987048
 31
0.0
  0
LINE
  5
1C2B
330
895
100
AcDbEntity
  8
0
  6
Continuous
 62
     7
370
    15
100
AcDbLine
 10
2366.44269020034
 20
877.9693110206519
 30
0.0
 11
2366.44269020034
 21
880.0831562199984
 31
0.0
  0
LINE
  5
1C2C
330
895
100
AcDbEntity
  8
0
  6
Continuous
 62
     7
370
    15
100
AcDbLine
 10
2391.492690255102
 20
877.9693110206519
 30
0.0
 11
2391.492690255102
 21
878.7085091987048
 31
0.0
  0
LINE
  5
1C2D
330
895
100
AcDbEntity
  8
0
  6
Continuous
 62
     7
370
    15
100
AcDbLine
 10
2392.642690222412
 20
878.7085091987048
 30
0.0
 11
2391.492690255102
 21
878.7085091987048
 31
0.0
  0
LINE
  5
1C2E
330
895
100
AcDbEntity
  8
0
  6
Continuous
 62
     7
370
    15
100
AcDbLine
 10
2393.142690217057
 20
880.0831562199984
 30
0.0
 11
2392.642690222412
 21
880.0831562199984
 31
0.0
  0
LINE
  5
1C2F
330
895
100
AcDbEntity
  8
0
  6
Continuous
 62
     7
370
    15
100
AcDbLine
 10
2393.142690217057
 20
880.0831562199984
 30
0.0
 11
2393.142690217057
 21
877.9693110206519
 31
0.0
  0
LINE
  5
1C30
330
895
100
AcDbEntity
  8
0
  6
Continuous
 62
     7
370
    15
100
AcDbLine
 10
2366.942689350974
 20
878.7085091987048
 30
0.0
 11
2366.942689350974
 21
911.2789793231879
 31
0.0
  0
LINE
  5
1C31
330
895
100
AcDbEntity
  8
0
  6
Continuous
 62
     7
370
    15
100
AcDbLine
 10
2368.242690867912
 20
911.2789793231879
 30
0.0
 11
2366.942689350974
 21
911.2789793231879
 31
0.0
  0
LINE
  5
1C32
330
895
100
AcDbEntity
  8
0
  6
Continuous
 62
     7
370
    15
100
AcDbLine
 10
2368.242690867912
 20
878.7085091987048
 30
0.0
 11
2368.242690867912
 21
911.2789793231879
 31
0.0
  0
LINE
  5
1C33
330
895
100
AcDbEntity
  8
0
  6
Continuous
 62
     7
370
    15
100
AcDbLine
 10
2368.092690191399
 20
878.7085091987048
 30
0.0
 11
2368.242690867912
 21
878.7085091987048
 31
0.0
  0
LINE
  5
1C34
330
895
100
AcDbEntity
  8
0
  6
Continuous
 62
     7
370
    15
100
AcDbLine
 10
2368.242690867912
 20
878.7085091987048
 30
0.0
 11
2368.242690867912
 21
877.9693110206519
 31
0.0
  0
LINE
  5
1C35
330
895
100
AcDbEntity
  8
0
  6
Continuous
 62
     7
370
    15
100
AcDbLine
 10
2391.342690277081
 20
877.9693110206519
 30
0.0
 11
2391.342690277081
 21
878.7085091987048
 31
0.0
  0
LINE
  5
1C36
330
895
100
AcDbEntity
  8
0
  6
Continuous
 62
     7
370
    15
100
AcDbLine
 10
2391.342690277081
 20
878.7085091987048
 30
0.0
 11
2391.492690255102
 21
878.7085091987048
 31
0.0
  0
LINE
  5
1C37
330
895
100
AcDbEntity
  8
0
  6
Continuous
 62
     7
370
    15
100
AcDbLine
 10
2392.642690222412
 20
911.2789793231879
 30
0.0
 11
2391.342690277081
 21
911.2789793231879
 31
0.0
  0
LINE
  5
1C38
330
895
100
AcDbEntity
  8
0
  6
Continuous
 62
     7
370
    15
100
AcDbLine
 10
2392.642690222412
 20
911.2789793231879
 30
0.0
 11
2392.642690222412
 21
878.7085091987048
 31
0.0
  0
LINE
  5
1C39
330
895
100
AcDbEntity
  8
0
  6
Continuous
 62
     7
370
    15
100
AcDbLine
 10
2391.342690277081
 20
911.2789793231879
 30
0.0
 11
2391.342690277081
 21
878.7085091987048
 31
0.0
  0
LINE
  5
1C3A
330
895
100
AcDbEntity
  8
0
  6
Continuous
 62
     7
370
    15
100
AcDbLine
 10
2372.042690000665
 20
932.8915639140998
 30
0.0
 11
2372.042690000665
 21
931.9518743374739
 31
0.0
  0
LINE
  5
1C3B
330
895
100
AcDbEntity
  8
0
  6
Continuous
 62
     7
370
    15
100
AcDbLine
 10
2372.042690000665
 20
931.9518743374739
 30
0.0
 11
2368.242690867912
 21
931.9518743374739
 31
0.0
  0
LINE
  5
1C3C
330
895
100
AcDbEntity
  8
0
  6
Continuous
 62
     7
370
    15
100
AcDbLine
 10
2368.242690867912
 20
915.5542342284118
 30
0.0
 11
2366.942689350974
 21
915.5542342284118
 31
0.0
  0
LINE
  5
1C3D
330
895
100
AcDbEntity
  8
0
  6
Continuous
 62
     7
370
    15
100
AcDbLine
 10
2372.042690000665
 20
932.8915639140998
 30
0.0
 11
2366.942689350974
 21
932.8915639140998
 31
0.0
  0
LINE
  5
1C3E
330
895
100
AcDbEntity
  8
0
  6
Continuous
 62
     7
370
    15
100
AcDbLine
 10
2368.242690867912
 20
915.5542342284118
 30
0.0
 11
2368.242690867912
 21
931.9518743374739
 31
0.0
  0
LINE
  5
1C3F
330
895
100
AcDbEntity
  8
0
  6
Continuous
 62
     7
370
    15
100
AcDbLine
 10
2366.942689350974
 20
915.5542342284118
 30
0.0
 11
2366.942689350974
 21
932.8915639140998
 31
0.0
  0
LINE
  5
1C40
330
895
100
AcDbEntity
  8
0
  6
Continuous
 62
     7
370
    15
100
AcDbLine
 10
2368.242690867912
 20
911.2789793231879
 30
0.0
 11
2368.242690867912
 21
915.5542342284118
 31
0.0
  0
LINE
  5
1C41
330
895
100
AcDbEntity
  8
0
  6
Continuous
 62
     7
370
    15
100
AcDbLine
 10
2366.942689350974
 20
911.2789793231879
 30
0.0
 11
2366.942689350974
 21
915.5542342284118
 31
0.0
  0
LINE
  5
1C42
330
895
100
AcDbEntity
  8
0
  6
Continuous
 62
     7
370
    15
100
AcDbLine
 10
2392.642690222412
 20
915.5542342284118
 30
0.0
 11
2391.342690277081
 21
915.5542342284118
 31
0.0
  0
LINE
  5
1C43
330
895
100
AcDbEntity
  8
0
  6
Continuous
 62
     7
370
    15
100
AcDbLine
 10
2391.342690277081
 20
915.5542342284118
 30
0.0
 11
2391.342690277081
 21
911.2789793231879
 31
0.0
  0
LINE
  5
1C44
330
895
100
AcDbEntity
  8
0
  6
Continuous
 62
     7
370
    15
100
AcDbLine
 10
2392.642690222412
 20
915.5542342284118
 30
0.0
 11
2392.642690222412
 21
911.2789793231879
 31
0.0
  0
LINE
  5
1C45
330
895
100
AcDbEntity
  8
0
  6
Continuous
 62
     7
370
    15
100
AcDbLine
 10
2391.342690277081
 20
931.9518743374739
 30
0.0
 11
2387.542690213006
 21
931.9518743374739
 31
0.0
  0
LINE
  5
1C46
330
895
100
AcDbEntity
  8
0
  6
Continuous
 62
     7
370
    15
100
AcDbLine
 10
2387.542690213006
 20
931.9518743374739
 30
0.0
 11
2387.542690213006
 21
932.8915639140998
 31
0.0
  0
LINE
  5
1C47
330
895
100
AcDbEntity
  8
0
  6
Continuous
 62
     7
370
    15
100
AcDbLine
 10
2387.542690213006
 20
932.8915639140998
 30
0.0
 11
2392.642690222412
 21
932.8915639140998
 31
0.0
  0
LINE
  5
1C48
330
895
100
AcDbEntity
  8
0
  6
Continuous
 62
     7
370
    15
100
AcDbLine
 10
2391.342690277081
 20
931.9518743374739
 30
0.0
 11
2391.342690277081
 21
915.5542342284118
 31
0.0
  0
LINE
  5
1C49
330
895
100
AcDbEntity
  8
0
  6
Continuous
 62
     7
370
    15
100
AcDbLine
 10
2392.642690222412
 20
932.8915639140998
 30
0.0
 11
2392.642690222412
 21
915.5542342284118
 31
0.0
  0
LINE
  5
1C4A
330
895
100
AcDbEntity
  8
0
  6
Continuous
 62
     7
370
    15
100
AcDbLine
 10
2368.242690867912
 20
881.5295523324405
 30
0.0
 11
2391.342690277081
 21
881.5295523324405
 31
0.0
  0
LWPOLYLINE
  5
1C4B
330
895
100
AcDbEntity
  8
0
  6
Continuous
 62
     7
370
    15
100
AcDbPolyline
 90
        9
 70
   128
 43
0.0
 10
2387.542690213006
 20
925.9665174701606
 10
2387.513868107628
 20
925.8664338210021
 10
2387.428509599697
 20
925.7701946714316
 10
2387.28989480732
 20
925.6814955094252
 10
2387.103350429963
 20
925.6037561514769
 10
2386.876045788806
 20
925.5399493792449
 10
2386.616715292614
 20
925.4925413349067
 10
2386.33532548992
 20
925.4633499601279
 10
2386.042690432798
 20
925.4534928419982
  0
LINE
  5
1C4C
330
895
100
AcDbEntity
  8
0
  6
Continuous
 62
     7
370
    15
100
AcDbLine
 10
2387.542690213006
 20
931.9518743374739
 30
0.0
 11
2387.542690213006
 21
925.9665174701606
 31
0.0
  0
LINE
  5
1C4D
330
895
100
AcDbEntity
  8
0
  6
Continuous
 62
     7
370
    15
100
AcDbLine
 10
2368.242690867912
 20
924.9404607632552
 30
0.0
 11
2391.342690277081
 21
924.9404607632552
 31
0.0
  0
LINE
  5
1C4E
330
895
100
AcDbEntity
  8
0
  6
Continuous
 62
     7
370
    15
100
AcDbLine
 10
2372.042690000665
 20
925.9665174701606
 30
0.0
 11
2372.042690000665
 21
931.9518743374739
 31
0.0
  0
LWPOLYLINE
  5
1C4F
330
895
100
AcDbEntity
  8
0
  6
Continuous
 62
     7
370
    15
100
AcDbPolyline
 90
        9
 70
   128
 43
0.0
 10
2373.542689315211
 20
925.4534928419982
 10
2373.250054723751
 20
925.4633499601279
 10
2372.968664921057
 20
925.4925413349067
 10
2372.709334424865
 20
925.5399493792449
 10
2372.482030249368
 20
925.6037561514769
 10
2372.295486337673
 20
925.6814955094252
 10
2372.156870148312
 20
925.7701946714316
 10
2372.071512571704
 20
925.8664338210021
 10
2372.042690000665
 20
925.9665174701606
  0
LINE
  5
1C50
330
895
100
AcDbEntity
  8
0
  6
Continuous
 62
     7
370
    15
100
AcDbLine
 10
2386.042690432798
 20
925.4534928419982
 30
0.0
 11
2373.542689315211
 21
925.4534928419982
 31
0.0
  0
LINE
  5
1C51
330
895
100
AcDbEntity
  8
0
  6
Continuous
 62
     7
370
    15
100
AcDbLine
 10
2368.242690867912
 20
916.6880859353934
 30
0.0
 11
2391.342690277081
 21
916.6880859353934
 31
0.0
  0
LINE
  5
1C52
330
895
100
AcDbEntity
  8
0
  6
Continuous
 62
     7
370
    15
100
AcDbLine
 10
2366.942689350974
 20
882.4947955378686
 30
0.0
 11
2366.44269020034
 21
882.4947955378686
 31
0.0
  0
LINE
  5
1C53
330
895
100
AcDbEntity
  8
0
  6
Continuous
 62
     7
370
    15
100
AcDbLine
 10
2393.142690217057
 20
882.4947955378686
 30
0.0
 11
2392.642690222412
 21
882.4947955378686
 31
0.0
  0
LINE
  5
1C54
330
895
100
AcDbEntity
  8
0
  6
Continuous
 62
     7
370
    15
100
AcDbLine
 10
2366.44269020034
 20
880.0831562199984
 30
0.0
 11
2366.44269020034
 21
882.4947955378686
 31
0.0
  0
LINE
  5
1C55
330
895
100
AcDbEntity
  8
0
  6
Continuous
 62
     7
370
    15
100
AcDbLine
 10
2393.142690217057
 20
880.0831562199984
 30
0.0
 11
2393.142690217057
 21
882.4947955378686
 31
0.0
  0
LINE
  5
1C56
330
895
100
AcDbEntity
  8
0
  6
Continuous
 62
     7
370
    15
100
AcDbLine
 10
2391.342690277081
 20
916.8590991118346
 30
0.0
 11
2368.242690867912
 21
916.8590991118346
 31
0.0
  0
LINE
  5
1C57
330
895
100
AcDbEntity
  8
0
  6
Continuous
 62
     7
370
    15
100
AcDbLine
 10
2386.042690432798
 20
925.4534928419982
 30
0.0
 11
2386.042690432798
 21
926.393182418624
 31
0.0
  0
LWPOLYLINE
  5
1C58
330
895
100
AcDbEntity
  8
0
  6
Continuous
 62
     7
370
    15
100
AcDbPolyline
 90
        9
 70
   128
 43
0.0
 10
2387.542690213006
 20
926.906214497367
 10
2387.513868107628
 20
926.8061233976279
 10
2387.428509599697
 20
926.7098842480574
 10
2387.28989480732
 20
926.6211925366317
 10
2387.103350429963
 20
926.5434457281028
 10
2386.876045788806
 20
926.4796464064513
 10
2386.616715292614
 20
926.4322383621131
 10
2386.33532548992
 20
926.4030395367537
 10
2386.042690432798
 20
926.393182418624
  0
LINE
  5
1C59
330
895
100
AcDbEntity
  8
0
  6
Continuous
 62
     7
370
    15
100
AcDbLine
 10
2373.542689315211
 20
926.393182418624
 30
0.0
 11
2373.542689315211
 21
925.4534928419982
 31
0.0
  0
LWPOLYLINE
  5
1C5A
330
895
100
AcDbEntity
  8
0
  6
Continuous
 62
     7
370
    15
100
AcDbPolyline
 90
        9
 70
   128
 43
0.0
 10
2373.542689315211
 20
926.393182418624
 10
2373.250054723751
 20
926.4030395367537
 10
2372.968664921057
 20
926.4322383621131
 10
2372.709334424865
 20
926.4796464064513
 10
2372.482030249368
 20
926.5434457281028
 10
2372.295486337673
 20
926.6211925366317
 10
2372.156870148312
 20
926.7098842480574
 10
2372.071512571704
 20
926.8061233976279
 10
2372.042690000665
 20
926.906214497367
  0
LINE
  5
1C5B
330
895
100
AcDbEntity
  8
0
  6
Continuous
 62
     7
370
    15
100
AcDbLine
 10
2386.042690432798
 20
926.393182418624
 30
0.0
 11
2373.542689315211
 21
926.393182418624
 31
0.0
  0
LINE
  5
1C5C
330
895
100
AcDbEntity
  8
0
  6
Continuous
 62
     7
370
    15
100
AcDbLine
 10
2372.597478858363
 20
926.5078543045913
 30
0.0
 11
2375.179442173969
 21
930.37115170745
 31
0.0
  0
LINE
  5
1C5D
330
895
100
AcDbEntity
  8
0
  6
Continuous
 62
     7
370
    15
100
AcDbLine
 10
2375.179442173969
 20
930.37115170745
 30
0.0
 11
2384.405938505363
 21
930.37115170745
 31
0.0
  0
LINE
  5
1C5E
330
895
100
AcDbEntity
  8
0
  6
Continuous
 62
     7
370
    15
100
AcDbLine
 10
2386.98790228663
 20
926.5078543045913
 30
0.0
 11
2384.405938505363
 21
930.37115170745
 31
0.0
  0
LINE
  5
1C5F
330
895
100
AcDbEntity
  8
0
  6
Continuous
 62
     8
370
    15
100
AcDbLine
 10
2379.792689874005
 20
863.1693119475041
 30
0.0
 11
2373.542689315211
 21
863.1693119475041
 31
0.0
  0
LINE
  5
1C60
330
895
100
AcDbEntity
  8
0
  6
Continuous
 62
     8
370
    15
100
AcDbLine
 10
2386.042690432798
 20
863.1693119475041
 30
0.0
 11
2379.792689874005
 21
863.1693119475041
 31
0.0
  0
LINE
  5
1C61
330
895
100
AcDbEntity
  8
0
  6
Continuous
 62
     8
370
    15
100
AcDbLine
 10
2386.042690432798
 20
864.2693119415437
 30
0.0
 11
2373.542689315211
 21
864.2693119415437
 31
0.0
  0
ENDBLK
  5
897
330
895
100
AcDbEntity
  8
0
100
AcDbBlockEnd
  0
BLOCK
  5
92C
330
92B
100
AcDbEntity
  8
0
100
AcDbBlockBegin
  2
3
 70
     0
 10
0.0
 20
0.0
 30
0.0
  3
3
  1

  0
LINE
  5
1F93
330
92B
100
AcDbEntity
  8
0
  6
Continuous
 62
     7
370
    15
100
AcDbLine
 10
2496.648373996726
 20
788.9009696602467
 30
0.0
 11
2496.648373996726
 21
789.4009696548916
 31
0.0
1001
AcDbBlockRepETag
1070
     1
1071
        0
1005
1F93
  0
LINE
  5
1F94
330
92B
100
AcDbEntity
  8
0
  6
Continuous
 62
     7
370
    15
100
AcDbLine
 10
2508.648374566695
 20
787.6509696299788
 30
0.0
 11
2508.648374566695
 21
789.4009696548916
 31
0.0
1001
AcDbBlockRepETag
1070
     1
1071
        1
1005
1F94
  0
LINE
  5
1F95
330
92B
100
AcDbEntity
  8
0
  6
Continuous
 62
     7
370
    15
100
AcDbLine
 10
2508.648374566695
 20
762.7009696381744
 30
0.0
 11
2508.648374566695
 21
764.4509694593605
 31
0.0
1001
AcDbBlockRepETag
1070
     1
1071
        2
1005
1F95
  0
LINE
  5
1F96
330
92B
100
AcDbEntity
  8
0
  6
Continuous
 62
     7
370
    15
100
AcDbLine
 10
2496.648373996726
 20
762.7009696381744
 30
0.0
 11
2496.648373996726
 21
763.2009687888082
 31
0.0
1001
AcDbBlockRepETag
1070
     1
1071
        3
1005
1F96
  0
LINE
  5
1F97
330
92B
100
AcDbEntity
  8
0
  6
Continuous
 62
     7
370
    15
100
AcDbLine
 10
2479.764256143829
 20
782.3009698706325
 30
0.0
 11
2479.764256143829
 21
769.8009687530454
 31
0.0
1001
AcDbBlockRepETag
1070
     1
1071
        4
1005
1F97
  0
ARC
  5
1F98
330
92B
100
AcDbEntity
  8
0
  6
Continuous
 62
     7
370
    15
100
AcDbCircle
 10
2481.220475387394
 20
769.757101203537
 30
0.0
 40
1.456879832803769
100
AcDbArc
 50
178.2745279726978
 51
268.1638218291517
1001
AcDbBlockRepETag
1070
     1
1071
        5
1005
1F98
  0
LINE
  5
1F99
330
92B
100
AcDbEntity
  8
0
  6
Continuous
 62
     7
370
    15
100
AcDbLine
 10
2481.173794234058
 20
768.3009694384988
 30
0.0
 11
2497.61841607455
 21
768.3009694384988
 31
0.0
1001
AcDbBlockRepETag
1070
     1
1071
        6
1005
1F99
  0
LINE
  5
1F9A
330
92B
100
AcDbEntity
  8
0
  6
Continuous
 62
     7
370
    15
100
AcDbLine
 10
2497.61841607455
 20
768.3009694384988
 30
0.0
 11
2497.61841607455
 21
763.2009687888082
 31
0.0
1001
AcDbBlockRepETag
1070
     1
1071
        7
1005
1F9A
  0
LINE
  5
1F9B
330
92B
100
AcDbEntity
  8
0
  6
Continuous
 62
     7
370
    15
100
AcDbLine
 10
2497.61841607455
 20
763.2009687888082
 30
0.0
 11
2476.945178100726
 21
763.2009687888082
 31
0.0
1001
AcDbBlockRepETag
1070
     1
1071
        8
1005
1F9B
  0
LINE
  5
1F9C
330
92B
100
AcDbEntity
  8
0
  6
Continuous
 62
     7
370
    15
100
AcDbLine
 10
2476.945178100726
 20
763.2009687888082
 30
0.0
 11
2476.945178100726
 21
768.5509699451383
 31
0.0
1001
AcDbBlockRepETag
1070
     1
1071
        9
1005
1F9C
  0
LINE
  5
1F9D
330
92B
100
AcDbEntity
  8
0
  6
Continuous
 62
     7
370
    15
100
AcDbLine
 10
2476.945178100726
 20
768.5509699451383
 30
0.0
 11
2478.826345393321
 21
768.5509699451383
 31
0.0
1001
AcDbBlockRepETag
1070
     1
1071
       10
1005
1F9D
  0
LINE
  5
1F9E
330
92B
100
AcDbEntity
  8
0
  6
Continuous
 62
     7
370
    15
100
AcDbLine
 10
2478.826345393321
 20
768.5509699451383
 30
0.0
 11
2478.826345393321
 21
783.5509696098622
 31
0.0
1001
AcDbBlockRepETag
1070
     1
1071
       11
1005
1F9E
  0
LINE
  5
1F9F
330
92B
100
AcDbEntity
  8
0
  6
Continuous
 62
     7
370
    15
100
AcDbLine
 10
2478.826345393321
 20
783.5509696098622
 30
0.0
 11
2476.945178100726
 21
783.5509696098622
 31
0.0
1001
AcDbBlockRepETag
1070
     1
1071
       12
1005
1F9F
  0
LINE
  5
1FA0
330
92B
100
AcDbEntity
  8
0
  6
Continuous
 62
     7
370
    15
100
AcDbLine
 10
2476.945178100726
 20
783.5509696098622
 30
0.0
 11
2476.945178100726
 21
788.9009696602467
 31
0.0
1001
AcDbBlockRepETag
1070
     1
1071
       13
1005
1FA0
  0
LINE
  5
1FA1
330
92B
100
AcDbEntity
  8
0
  6
Continuous
 62
     7
370
    15
100
AcDbLine
 10
2476.945178100726
 20
788.9009696602467
 30
0.0
 11
2497.61841607455
 21
788.9009696602467
 31
0.0
1001
AcDbBlockRepETag
1070
     1
1071
       14
1005
1FA1
  0
LINE
  5
1FA2
330
92B
100
AcDbEntity
  8
0
  6
Continuous
 62
     7
370
    15
100
AcDbLine
 10
2497.61841607455
 20
783.8009696508404
 30
0.0
 11
2497.61841607455
 21
788.9009696602467
 31
0.0
1001
AcDbBlockRepETag
1070
     1
1071
       15
1005
1FA2
  0
LINE
  5
1FA3
330
92B
100
AcDbEntity
  8
0
  6
Continuous
 62
     7
370
    15
100
AcDbLine
 10
2497.61841607455
 20
783.8009696508404
 30
0.0
 11
2481.173794234058
 21
783.8009696508404
 31
0.0
1001
AcDbBlockRepETag
1070
     1
1071
       16
1005
1FA3
  0
ARC
  5
1FA4
330
92B
100
AcDbEntity
  8
0
  6
Continuous
 62
     7
370
    15
100
AcDbCircle
 10
2481.220475600319
 20
782.3448376721003
 30
0.0
 40
1.456880053218368
100
AcDbArc
 50
91.83618627111
 51
181.7254816796618
1001
AcDbBlockRepETag
1070
     1
1071
       17
1005
1FA4
  0
LINE
  5
1FA5
330
92B
100
AcDbEntity
  8
0
  6
Continuous
 62
     7
370
    15
100
AcDbLine
 10
2503.928689734897
 20
788.9009696602467
 30
0.0
 11
2503.928689734897
 21
787.6009697149154
 31
0.0
1001
AcDbBlockRepETag
1070
     1
1071
       18
1005
1FA5
  0
LINE
  5
1FA6
330
92B
100
AcDbEntity
  8
0
  6
Continuous
 62
     7
370
    15
100
AcDbLine
 10
2497.960436141005
 20
787.6009697149154
 30
0.0
 11
2503.928689734897
 21
787.6009697149154
 31
0.0
1001
AcDbBlockRepETag
1070
     1
1071
       19
1005
1FA6
  0
LINE
  5
1FA7
330
92B
100
AcDbEntity
  8
0
  6
Continuous
 62
     7
370
    15
100
AcDbLine
 10
2497.960436141005
 20
787.6009697149154
 30
0.0
 11
2497.960436141005
 21
783.8009696508404
 31
0.0
1001
AcDbBlockRepETag
1070
     1
1071
       20
1005
1FA7
  0
LINE
  5
1FA8
330
92B
100
AcDbEntity
  8
0
  6
Continuous
 62
     7
370
    15
100
AcDbLine
 10
2497.960436141005
 20
783.8009696508404
 30
0.0
 11
2497.61841607455
 21
783.8009696508404
 31
0.0
1001
AcDbBlockRepETag
1070
     1
1071
       21
1005
1FA8
  0
LINE
  5
1FA9
330
92B
100
AcDbEntity
  8
0
  6
Continuous
 62
     7
370
    15
100
AcDbLine
 10
2497.61841607455
 20
788.9009696602467
 30
0.0
 11
2503.928689734897
 21
788.9009696602467
 31
0.0
1001
AcDbBlockRepETag
1070
     1
1071
       22
1005
1FA9
  0
LINE
  5
1FAA
330
92B
100
AcDbEntity
  8
0
  6
Continuous
 62
     7
370
    15
100
AcDbLine
 10
2497.960436141005
 20
768.3009694384988
 30
0.0
 11
2497.960436141005
 21
764.5009703057464
 31
0.0
1001
AcDbBlockRepETag
1070
     1
1071
       23
1005
1FAA
  0
LINE
  5
1FAB
330
92B
100
AcDbEntity
  8
0
  6
Continuous
 62
     7
370
    15
100
AcDbLine
 10
2503.928689734897
 20
764.5009703057464
 30
0.0
 11
2497.960436141005
 21
764.5009703057464
 31
0.0
1001
AcDbBlockRepETag
1070
     1
1071
       24
1005
1FAB
  0
LINE
  5
1FAC
330
92B
100
AcDbEntity
  8
0
  6
Continuous
 62
     7
370
    15
100
AcDbLine
 10
2503.928689734897
 20
764.5009703057464
 30
0.0
 11
2503.928689734897
 21
763.2009687888082
 31
0.0
1001
AcDbBlockRepETag
1070
     1
1071
       25
1005
1FAC
  0
LINE
  5
1FAD
330
92B
100
AcDbEntity
  8
0
  6
Continuous
 62
     7
370
    15
100
AcDbLine
 10
2503.928689734897
 20
763.2009687888082
 30
0.0
 11
2497.61841607455
 21
763.2009687888082
 31
0.0
1001
AcDbBlockRepETag
1070
     1
1071
       26
1005
1FAD
  0
LINE
  5
1FAE
330
92B
100
AcDbEntity
  8
0
  6
Continuous
 62
     7
370
    15
100
AcDbLine
 10
2497.61841607455
 20
768.3009694384988
 30
0.0
 11
2497.960436141005
 21
768.3009694384988
 31
0.0
1001
AcDbBlockRepETag
1070
     1
1071
       27
1005
1FAE
  0
LINE
  5
1FAF
330
92B
100
AcDbEntity
  8
0
  6
Continuous
 62
     7
370
    15
100
AcDbLine
 10
2476.074620598814
 20
780.6642179431971
 30
0.0
 11
2475.235078001281
 21
780.6642179431971
 31
0.0
1001
AcDbBlockRepETag
1070
     1
1071
       28
1005
1FAF
  0
LINE
  5
1FB0
330
92B
100
AcDbEntity
  8
0
  6
Continuous
 62
     7
370
    15
100
AcDbLine
 10
2476.074620598814
 20
771.4377216118034
 30
0.0
 11
2476.074620598814
 21
780.6642179431971
 31
0.0
1001
AcDbBlockRepETag
1070
     1
1071
       29
1005
1FB0
  0
LINE
  5
1FB1
330
92B
100
AcDbEntity
  8
0
  6
Continuous
 62
     7
370
    15
100
AcDbLine
 10
2475.235078001281
 20
771.4377216118034
 30
0.0
 11
2476.074620598814
 21
771.4377216118034
 31
0.0
1001
AcDbBlockRepETag
1070
     1
1071
       30
1005
1FB1
  0
LINE
  5
1FB2
330
92B
100
AcDbEntity
  8
0
  6
Continuous
 62
     7
370
    15
100
AcDbLine
 10
2475.235078001281
 20
780.6642179431971
 30
0.0
 11
2475.235078001281
 21
771.4377216118034
 31
0.0
1001
AcDbBlockRepETag
1070
     1
1071
       31
1005
1FB2
  0
LINE
  5
1FB3
330
92B
100
AcDbEntity
  8
0
  6
Continuous
 62
     7
370
    15
100
AcDbLine
 10
2478.826345393321
 20
768.5509699451383
 30
0.0
 11
2476.074620598814
 21
771.4377216118034
 31
0.0
1001
AcDbBlockRepETag
1070
     1
1071
       32
1005
1FB3
  0
LINE
  5
1FB4
330
92B
100
AcDbEntity
  8
0
  6
Continuous
 62
     7
370
    15
100
AcDbLine
 10
2478.826345393321
 20
783.5509696098622
 30
0.0
 11
2476.074620598814
 21
780.6642179431971
 31
0.0
1001
AcDbBlockRepETag
1070
     1
1071
       33
1005
1FB4
  0
LINE
  5
1FB5
330
92B
100
AcDbEntity
  8
0
  6
Continuous
 62
     7
370
    15
100
AcDbLine
 10
2475.235078001281
 20
771.4377216118034
 30
0.0
 11
2476.945178100726
 21
768.5509699451383
 31
0.0
1001
AcDbBlockRepETag
1070
     1
1071
       34
1005
1FB5
  0
LINE
  5
1FB6
330
92B
100
AcDbEntity
  8
0
  6
Continuous
 62
     7
370
    15
100
AcDbLine
 10
2476.945178100726
 20
783.5509696098622
 30
0.0
 11
2475.235078001281
 21
780.6642179431971
 31
0.0
1001
AcDbBlockRepETag
1070
     1
1071
       35
1005
1FB6
  0
LINE
  5
1FB7
330
92B
100
AcDbEntity
  8
0
  6
Continuous
 62
     7
370
    15
100
AcDbLine
 10
2480.106276908776
 20
782.3009698706325
 30
0.0
 11
2479.764256143829
 21
782.3009698706325
 31
0.0
1001
AcDbBlockRepETag
1070
     1
1071
       36
1005
1FB7
  0
ARC
  5
1FB8
330
92B
100
AcDbEntity
  8
0
  6
Continuous
 62
     7
370
    15
100
AcDbCircle
 10
2481.562496365266
 20
782.3448376721003
 30
0.0
 40
1.456880053218368
100
AcDbArc
 50
91.83618627111
 51
181.7254816796618
1001
AcDbBlockRepETag
1070
     1
1071
       37
1005
1FB8
  0
LINE
  5
1FB9
330
92B
100
AcDbEntity
  8
0
  6
Continuous
 62
     7
370
    15
100
AcDbLine
 10
2479.764256143829
 20
769.8009687530454
 30
0.0
 11
2480.106276908776
 21
769.8009687530454
 31
0.0
1001
AcDbBlockRepETag
1070
     1
1071
       38
1005
1FB9
  0
ARC
  5
1FBA
330
92B
100
AcDbEntity
  8
0
  6
Continuous
 62
     7
370
    15
100
AcDbCircle
 10
2481.562496152341
 20
769.757101203537
 30
0.0
 40
1.456879832803769
100
AcDbArc
 50
178.2745279726978
 51
268.1638218291517
1001
AcDbBlockRepETag
1070
     1
1071
       39
1005
1FBA
  0
LINE
  5
1FBB
330
92B
100
AcDbEntity
  8
0
  6
Continuous
 62
     7
370
    15
100
AcDbLine
 10
2480.106276908776
 20
782.3009698706325
 30
0.0
 11
2480.106276908776
 21
769.8009687530454
 31
0.0
1001
AcDbBlockRepETag
1070
     1
1071
       40
1005
1FBB
  0
LINE
  5
1FBC
330
92B
100
AcDbEntity
  8
0
  6
Continuous
 62
     7
370
    15
100
AcDbLine
 10
2481.638112554213
 20
783.8009696508404
 30
0.0
 11
2481.638112554213
 21
768.3009694384988
 31
0.0
1001
AcDbBlockRepETag
1070
     1
1071
       41
1005
1FBC
  0
LINE
  5
1FBD
330
92B
100
AcDbEntity
  8
0
  6
Continuous
 62
     7
370
    15
100
AcDbLine
 10
2493.964927254131
 20
768.3009694384988
 30
0.0
 11
2493.964927254131
 21
783.8009696508404
 31
0.0
1001
AcDbBlockRepETag
1070
     1
1071
       42
1005
1FBD
  0
LINE
  5
1FBE
330
92B
100
AcDbEntity
  8
0
  6
Continuous
 62
     7
370
    15
100
AcDbLine
 10
2504.037213494888
 20
764.3509696292337
 30
0.0
 11
2504.037213494888
 21
764.5009703057464
 31
0.0
1001
AcDbBlockRepETag
1070
     1
1071
       43
1005
1FBE
  0
LINE
  5
1FBF
330
92B
100
AcDbEntity
  8
0
  6
Continuous
 62
     7
370
    15
100
AcDbLine
 10
2504.037213494888
 20
763.2009687888082
 30
0.0
 11
2504.037213494888
 21
764.3509696292337
 31
0.0
1001
AcDbBlockRepETag
1070
     1
1071
       44
1005
1FBF
  0
LINE
  5
1FC0
330
92B
100
AcDbEntity
  8
0
  6
Continuous
 62
     7
370
    15
100
AcDbLine
 10
2504.037213494888
 20
764.5009703057464
 30
0.0
 11
2503.928689734897
 21
764.5009703057464
 31
0.0
1001
AcDbBlockRepETag
1070
     1
1071
       45
1005
1FC0
  0
LINE
  5
1FC1
330
92B
100
AcDbEntity
  8
0
  6
Continuous
 62
     7
370
    15
100
AcDbLine
 10
2504.037213494888
 20
763.2009687888082
 30
0.0
 11
2503.928689734897
 21
763.2009687888082
 31
0.0
1001
AcDbBlockRepETag
1070
     1
1071
       46
1005
1FC1
  0
LINE
  5
1FC2
330
92B
100
AcDbEntity
  8
0
  6
Continuous
 62
     7
370
    15
100
AcDbLine
 10
2504.037213494888
 20
788.9009696602467
 30
0.0
 11
2504.037213494888
 21
787.7509696929362
 31
0.0
1001
AcDbBlockRepETag
1070
     1
1071
       47
1005
1FC2
  0
LINE
  5
1FC3
330
92B
100
AcDbEntity
  8
0
  6
Continuous
 62
     7
370
    15
100
AcDbLine
 10
2504.037213494888
 20
787.6009697149154
 30
0.0
 11
2504.037213494888
 21
787.7509696929362
 31
0.0
1001
AcDbBlockRepETag
1070
     1
1071
       48
1005
1FC3
  0
LINE
  5
1FC4
330
92B
100
AcDbEntity
  8
0
  6
Continuous
 62
     7
370
    15
100
AcDbLine
 10
2503.928689734897
 20
787.6009697149154
 30
0.0
 11
2504.037213494888
 21
787.6009697149154
 31
0.0
1001
AcDbBlockRepETag
1070
     1
1071
       49
1005
1FC4
  0
LINE
  5
1FC5
330
92B
100
AcDbEntity
  8
0
  6
Continuous
 62
     7
370
    15
100
AcDbLine
 10
2503.928689734897
 20
788.9009696602467
 30
0.0
 11
2504.037213494888
 21
788.9009696602467
 31
0.0
1001
AcDbBlockRepETag
1070
     1
1071
       50
1005
1FC5
  0
LINE
  5
1FC6
330
92B
100
AcDbEntity
  8
0
  6
Continuous
 62
     7
370
    15
100
AcDbLine
 10
2446.398373210689
 20
788.9009696602467
 30
0.0
 11
2476.945178100726
 21
788.9009696602467
 31
0.0
1001
AcDbBlockRepETag
1070
     1
1071
       51
1005
1FC6
  0
LINE
  5
1FC7
330
92B
100
AcDbEntity
  8
0
  6
Continuous
 62
     7
370
    15
100
AcDbLine
 10
2476.945178100726
 20
763.2009687888082
 30
0.0
 11
2446.398373210689
 21
763.2009687888082
 31
0.0
1001
AcDbBlockRepETag
1070
     1
1071
       52
1005
1FC7
  0
LINE
  5
1FC8
330
92B
100
AcDbEntity
  8
0
  6
Continuous
 62
     7
370
    15
100
AcDbLine
 10
2446.398373210689
 20
788.9009696602467
 30
0.0
 11
2446.398373210689
 21
763.2009687888082
 31
0.0
1001
AcDbBlockRepETag
1070
     1
1071
       53
1005
1FC8
  0
LINE
  5
1FC9
330
92B
100
AcDbEntity
  8
0
  6
Continuous
 62
     7
370
    15
100
AcDbLine
 10
2492.421582789978
 20
762.7009696381744
 30
0.0
 11
2487.609143817684
 21
762.7009696381744
 31
0.0
1001
AcDbBlockRepETag
1070
     1
1071
       54
1005
1FC9
  0
LINE
  5
1FCA
330
92B
100
AcDbEntity
  8
0
  6
Continuous
 62
     7
370
    15
100
AcDbLine
 10
2487.609143817684
 20
763.2009687888082
 30
0.0
 11
2487.609143817684
 21
762.7009696381744
 31
0.0
1001
AcDbBlockRepETag
1070
     1
1071
       55
1005
1FCA
  0
LINE
  5
1FCB
330
92B
100
AcDbEntity
  8
0
  6
Continuous
 62
     7
370
    15
100
AcDbLine
 10
2487.609143817684
 20
789.4009696548916
 30
0.0
 11
2487.609143817684
 21
788.9009696602467
 31
0.0
1001
AcDbBlockRepETag
1070
     1
1071
       56
1005
1FCB
  0
LINE
  5
1FCC
330
92B
100
AcDbEntity
  8
0
  6
Continuous
 62
     7
370
    15
100
AcDbLine
 10
2492.421582789978
 20
789.4009696548916
 30
0.0
 11
2487.609143817684
 21
789.4009696548916
 31
0.0
1001
AcDbBlockRepETag
1070
     1
1071
       57
1005
1FCC
  0
LINE
  5
1FCD
330
92B
100
AcDbEntity
  8
0
  6
Continuous
 62
     7
370
    15
100
AcDbLine
 10
2431.798364484569
 20
771.4377216118034
 30
0.0
 11
2431.798364484569
 21
780.6642179431971
 31
0.0
1001
AcDbBlockRepETag
1070
     1
1071
       58
1005
1FCD
  0
LINE
  5
1FCE
330
92B
100
AcDbEntity
  8
0
  6
Continuous
 62
     7
370
    15
100
AcDbLine
 10
2431.798364484569
 20
780.6642179431971
 30
0.0
 11
2436.798367166778
 21
783.5509696098622
 31
0.0
1001
AcDbBlockRepETag
1070
     1
1071
       59
1005
1FCE
  0
LINE
  5
1FCF
330
92B
100
AcDbEntity
  8
0
  6
Continuous
 62
     7
370
    15
100
AcDbLine
 10
2436.798367166778
 20
768.5509699451383
 30
0.0
 11
2431.798364484569
 21
771.4377216118034
 31
0.0
1001
AcDbBlockRepETag
1070
     1
1071
       60
1005
1FCF
  0
LINE
  5
1FD0
330
92B
100
AcDbEntity
  8
0
  6
Continuous
 62
     7
370
    15
100
AcDbLine
 10
2436.798367166778
 20
768.5509699451383
 30
0.0
 11
2436.798367166778
 21
763.2009687888082
 31
0.0
1001
AcDbBlockRepETag
1070
     1
1071
       61
1005
1FD0
  0
LINE
  5
1FD1
330
92B
100
AcDbEntity
  8
0
  6
Continuous
 62
     7
370
    15
100
AcDbLine
 10
2436.798367166778
 20
788.9009696602467
 30
0.0
 11
2436.798367166778
 21
783.5509696098622
 31
0.0
1001
AcDbBlockRepETag
1070
     1
1071
       62
1005
1FD1
  0
LINE
  5
1FD2
330
92B
100
AcDbEntity
  8
0
  6
Continuous
 62
     7
370
    15
100
AcDbLine
 10
2436.798367166778
 20
788.9009696602467
 30
0.0
 11
2446.398373210689
 21
788.9009696602467
 31
0.0
1001
AcDbBlockRepETag
1070
     1
1071
       63
1005
1FD2
  0
LINE
  5
1FD3
330
92B
100
AcDbEntity
  8
0
  6
Continuous
 62
     7
370
    15
100
AcDbLine
 10
2446.398373210689
 20
763.2009687888082
 30
0.0
 11
2436.798367166778
 21
763.2009687888082
 31
0.0
1001
AcDbBlockRepETag
1070
     1
1071
       64
1005
1FD3
  0
LINE
  5
1FD4
330
92B
100
AcDbEntity
  8
0
  6
Continuous
 62
     7
370
    15
100
AcDbLine
 10
2501.778039133063
 20
764.5009703057464
 30
0.0
 11
2501.778039133063
 21
787.6009697149154
 31
0.0
1001
AcDbBlockRepETag
1070
     1
1071
       65
1005
1FD4
  0
CIRCLE
  5
1FD5
330
92B
100
AcDbEntity
  8
0
  6
Continuous
 62
     7
370
    15
100
AcDbCircle
 10
2520.148374104759
 20
776.0509696620163
 30
0.0
 40
2.500000000036379
1001
AcDbBlockRepETag
1070
     1
1071
       66
1005
1FD5
  0
CIRCLE
  5
1FD6
330
92B
100
AcDbEntity
  8
0
  6
Continuous
 62
     7
370
    15
100
AcDbCircle
 10
2520.148374104759
 20
776.0509696620163
 30
0.0
 40
3.0
1001
AcDbBlockRepETag
1070
     1
1071
       67
1005
1FD6
  0
LINE
  5
1FD7
330
92B
100
AcDbEntity
  8
0
  6
Continuous
 62
     7
370
    15
100
AcDbLine
 10
2504.037213494888
 20
764.3509696292337
 30
0.0
 11
2507.204919570944
 21
764.3509696292337
 31
0.0
1001
AcDbBlockRepETag
1070
     1
1071
       68
1005
1FD7
  0
LINE
  5
1FD8
330
92B
100
AcDbEntity
  8
0
  6
Continuous
 62
     7
370
    15
100
AcDbLine
 10
2507.204919570944
 20
762.7009696381744
 30
0.0
 11
2507.204919570944
 21
764.3509696292337
 31
0.0
1001
AcDbBlockRepETag
1070
     1
1071
       69
1005
1FD8
  0
LINE
  5
1FD9
330
92B
100
AcDbEntity
  8
0
  6
Continuous
 62
     7
370
    15
100
AcDbLine
 10
2507.204919570944
 20
762.7009696381744
 30
0.0
 11
2501.089274051486
 21
762.7009696381744
 31
0.0
1001
AcDbBlockRepETag
1070
     1
1071
       70
1005
1FD9
  0
LINE
  5
1FDA
330
92B
100
AcDbEntity
  8
0
  6
Continuous
 62
     7
370
    15
100
AcDbLine
 10
2501.089274051486
 20
763.2009687888082
 30
0.0
 11
2501.089274051486
 21
762.7009696381744
 31
0.0
1001
AcDbBlockRepETag
1070
     1
1071
       71
1005
1FDA
  0
LINE
  5
1FDB
330
92B
100
AcDbEntity
  8
0
  6
Continuous
 62
     7
370
    15
100
AcDbLine
 10
2501.089274051486
 20
762.7009696381744
 30
0.0
 11
2496.836710704377
 21
762.7009696381744
 31
0.0
1001
AcDbBlockRepETag
1070
     1
1071
       72
1005
1FDB
  0
LINE
  5
1FDC
330
92B
100
AcDbEntity
  8
0
  6
Continuous
 62
     7
370
    15
100
AcDbLine
 10
2496.836710704377
 20
762.7009696381744
 30
0.0
 11
2496.836710704377
 21
763.2009687888082
 31
0.0
1001
AcDbBlockRepETag
1070
     1
1071
       73
1005
1FDC
  0
LINE
  5
1FDD
330
92B
100
AcDbEntity
  8
0
  6
Continuous
 62
     7
370
    15
100
AcDbLine
 10
2496.836710704377
 20
789.4009696548916
 30
0.0
 11
2501.089274051486
 21
789.4009696548916
 31
0.0
1001
AcDbBlockRepETag
1070
     1
1071
       74
1005
1FDD
  0
LINE
  5
1FDE
330
92B
100
AcDbEntity
  8
0
  6
Continuous
 62
     7
370
    15
100
AcDbLine
 10
2501.089274051486
 20
789.4009696548916
 30
0.0
 11
2501.089274051486
 21
788.9009696602467
 31
0.0
1001
AcDbBlockRepETag
1070
     1
1071
       75
1005
1FDE
  0
LINE
  5
1FDF
330
92B
100
AcDbEntity
  8
0
  6
Continuous
 62
     7
370
    15
100
AcDbLine
 10
2496.836710704377
 20
788.9009696602467
 30
0.0
 11
2496.836710704377
 21
789.4009696548916
 31
0.0
1001
AcDbBlockRepETag
1070
     1
1071
       76
1005
1FDF
  0
LINE
  5
1FE0
330
92B
100
AcDbEntity
  8
0
  6
Continuous
 62
     7
370
    15
100
AcDbLine
 10
2507.204919570944
 20
787.7509696929362
 30
0.0
 11
2504.037213494888
 21
787.7509696929362
 31
0.0
1001
AcDbBlockRepETag
1070
     1
1071
       77
1005
1FE0
  0
LINE
  5
1FE1
330
92B
100
AcDbEntity
  8
0
  6
Continuous
 62
     7
370
    15
100
AcDbLine
 10
2507.204919570944
 20
787.7509696929362
 30
0.0
 11
2507.204919570944
 21
789.4009696548916
 31
0.0
1001
AcDbBlockRepETag
1070
     1
1071
       78
1005
1FE1
  0
LINE
  5
1FE2
330
92B
100
AcDbEntity
  8
0
  6
Continuous
 62
     7
370
    15
100
AcDbLine
 10
2501.089274051486
 20
789.4009696548916
 30
0.0
 11
2507.204919570944
 21
789.4009696548916
 31
0.0
1001
AcDbBlockRepETag
1070
     1
1071
       79
1005
1FE2
  0
LINE
  5
1FE3
330
92B
100
AcDbEntity
  8
0
  6
Continuous
 62
     7
370
    15
100
AcDbLine
 10
2508.313437441251
 20
766.7009702938255
 30
0.0
 11
2508.313437441251
 21
764.4509694593605
 31
0.0
1001
AcDbBlockRepETag
1070
     1
1071
       80
1005
1FE3
  0
LINE
  5
1FE4
330
92B
100
AcDbEntity
  8
0
  6
Continuous
 62
     7
370
    15
100
AcDbLine
 10
2503.983310639745
 20
766.7009702938255
 30
0.0
 11
2508.313437441251
 21
766.7009702938255
 31
0.0
1001
AcDbBlockRepETag
1070
     1
1071
       81
1005
1FE4
  0
LINE
  5
1FE5
330
92B
100
AcDbEntity
  8
0
  6
Continuous
 62
     7
370
    15
100
AcDbLine
 10
2503.983310639745
 20
766.7009702938255
 30
0.0
 11
2503.983310639745
 21
764.5009703057464
 31
0.0
1001
AcDbBlockRepETag
1070
     1
1071
       82
1005
1FE5
  0
LINE
  5
1FE6
330
92B
100
AcDbEntity
  8
0
  6
Continuous
 62
     7
370
    15
100
AcDbLine
 10
2502.453433565682
 20
787.6009697149154
 30
0.0
 11
2502.453433565682
 21
764.5009703057464
 31
0.0
1001
AcDbBlockRepETag
1070
     1
1071
       83
1005
1FE6
  0
LINE
  5
1FE7
330
92B
100
AcDbEntity
  8
0
  6
Continuous
 62
     7
370
    15
100
AcDbLine
 10
2503.983310639745
 20
787.6009697149154
 30
0.0
 11
2503.983310639745
 21
785.4009697268363
 31
0.0
1001
AcDbBlockRepETag
1070
     1
1071
       84
1005
1FE7
  0
LINE
  5
1FE8
330
92B
100
AcDbEntity
  8
0
  6
Continuous
 62
     7
370
    15
100
AcDbLine
 10
2503.983310639745
 20
785.4009697268363
 30
0.0
 11
2508.313437441251
 21
785.4009697268363
 31
0.0
1001
AcDbBlockRepETag
1070
     1
1071
       85
1005
1FE8
  0
LINE
  5
1FE9
330
92B
100
AcDbEntity
  8
0
  6
Continuous
 62
     7
370
    15
100
AcDbLine
 10
2508.313437441251
 20
785.4009697268363
 30
0.0
 11
2508.313437441251
 21
787.6509696299788
 31
0.0
1001
AcDbBlockRepETag
1070
     1
1071
       86
1005
1FE9
  0
LINE
  5
1FEA
330
92B
100
AcDbEntity
  8
0
  6
Continuous
 62
     7
370
    15
100
AcDbLine
 10
2508.313437441251
 20
787.6509696299788
 30
0.0
 11
2509.148373717329
 21
787.6509696299788
 31
0.0
1001
AcDbBlockRepETag
1070
     1
1071
       87
1005
1FEA
  0
LINE
  5
1FEB
330
92B
100
AcDbEntity
  8
0
  6
Continuous
 62
     7
370
    15
100
AcDbLine
 10
2509.148373717329
 20
764.4509694593605
 30
0.0
 11
2508.313437441251
 21
764.4509694593605
 31
0.0
1001
AcDbBlockRepETag
1070
     1
1071
       88
1005
1FEB
  0
LINE
  5
1FEC
330
92B
100
AcDbEntity
  8
0
  6
Continuous
 62
     7
370
    15
100
AcDbLine
 10
2509.148373717329
 20
787.6509696299788
 30
0.0
 11
2509.148373717329
 21
764.4509694593605
 31
0.0
1001
AcDbBlockRepETag
1070
     1
1071
       89
1005
1FEC
  0
LINE
  5
1FED
330
92B
100
AcDbEntity
  8
0
  6
Continuous
 62
     7
370
    15
100
AcDbLine
 10
2475.687603914997
 20
788.9009696602467
 30
0.0
 11
2475.687603914997
 21
789.5509696620167
 31
0.0
1001
AcDbBlockRepETag
1070
     1
1071
       90
1005
1FED
  0
LINE
  5
1FEE
330
92B
100
AcDbEntity
  8
0
  6
Continuous
 62
     7
370
    15
100
AcDbLine
 10
2475.687603914997
 20
789.5509696620167
 30
0.0
 11
2487.609143817684
 21
789.5509696620167
 31
0.0
1001
AcDbBlockRepETag
1070
     1
1071
       91
1005
1FEE
  0
LINE
  5
1FEF
330
92B
100
AcDbEntity
  8
0
  6
Continuous
 62
     7
370
    15
100
AcDbLine
 10
2487.609143817684
 20
789.4009696548916
 30
0.0
 11
2487.609143817684
 21
789.5509696620167
 31
0.0
1001
AcDbBlockRepETag
1070
     1
1071
       92
1005
1FEF
  0
LINE
  5
1FF0
330
92B
100
AcDbEntity
  8
0
  6
Continuous
 62
     7
370
    15
100
AcDbLine
 10
2487.609143817684
 20
789.5509696620167
 30
0.0
 11
2491.767215059957
 21
789.5509696620162
 31
0.0
1001
AcDbBlockRepETag
1070
     1
1071
       93
1005
1FF0
  0
LINE
  5
1FF1
330
92B
100
AcDbEntity
  8
0
  6
Continuous
 62
     7
370
    15
100
AcDbLine
 10
2491.767215059957
 20
789.5509696620162
 30
0.0
 11
2491.767215059957
 21
789.4009696548916
 31
0.0
1001
AcDbBlockRepETag
1070
     1
1071
       94
1005
1FF1
  0
LINE
  5
1FF2
330
92B
100
AcDbEntity
  8
0
  6
Continuous
 62
     7
370
    15
100
AcDbLine
 10
2492.025290133318
 20
762.7009696381744
 30
0.0
 11
2492.025290133318
 21
762.5509689616617
 31
0.0
1001
AcDbBlockRepETag
1070
     1
1071
       95
1005
1FF2
  0
LINE
  5
1FF3
330
92B
100
AcDbEntity
  8
0
  6
Continuous
 62
     7
370
    15
100
AcDbLine
 10
2492.025290133318
 20
762.5509689616617
 30
0.0
 11
2487.609143817684
 21
762.5509689616617
 31
0.0
1001
AcDbBlockRepETag
1070
     1
1071
       96
1005
1FF3
  0
LINE
  5
1FF4
330
92B
100
AcDbEntity
  8
0
  6
Continuous
 62
     7
370
    15
100
AcDbLine
 10
2487.609143817684
 20
762.7009696381744
 30
0.0
 11
2487.609143817684
 21
762.5509689616617
 31
0.0
1001
AcDbBlockRepETag
1070
     1
1071
       97
1005
1FF4
  0
LINE
  5
1FF5
330
92B
100
AcDbEntity
  8
0
  6
Continuous
 62
     7
370
    15
100
AcDbLine
 10
2487.609143817684
 20
762.5509689616617
 30
0.0
 11
2475.687603914997
 21
762.5509689616617
 31
0.0
1001
AcDbBlockRepETag
1070
     1
1071
       98
1005
1FF5
  0
LINE
  5
1FF6
330
92B
100
AcDbEntity
  8
0
  6
Continuous
 62
     7
370
    15
100
AcDbLine
 10
2475.687603914997
 20
763.2009687888082
 30
0.0
 11
2475.687603914997
 21
762.5509689616617
 31
0.0
1001
AcDbBlockRepETag
1070
     1
1071
       99
1005
1FF6
  0
LINE
  5
1FF7
330
92B
100
AcDbEntity
  8
0
  6
Continuous
 62
     7
370
    15
100
AcDbLine
 10
2473.187604436537
 20
788.9009696602467
 30
0.0
 11
2473.187604436537
 21
789.5509696620164
 31
0.0
1001
AcDbBlockRepETag
1070
     1
1071
      100
1005
1FF7
  0
LINE
  5
1FF8
330
92B
100
AcDbEntity
  8
0
  6
Continuous
 62
     7
370
    15
100
AcDbLine
 10
2473.187604436537
 20
789.5509696620167
 30
0.0
 11
2475.687603914997
 21
789.5509696620167
 31
0.0
1001
AcDbBlockRepETag
1070
     1
1071
      101
1005
1FF8
  0
LINE
  5
1FF9
330
92B
100
AcDbEntity
  8
0
  6
Continuous
 62
     7
370
    15
100
AcDbLine
 10
2510.187604913375
 20
763.9150715487655
 30
0.0
 11
2512.687604391834
 21
763.2451991605218
 31
0.0
1001
AcDbBlockRepETag
1070
     1
1071
      102
1005
1FF9
  0
LINE
  5
1FFA
330
92B
100
AcDbEntity
  8
0
  6
Continuous
 62
     7
370
    15
100
AcDbLine
 10
2512.687604391834
 20
763.2451991605218
 30
0.0
 11
2512.687604391834
 21
762.5509689616617
 31
0.0
1001
AcDbBlockRepETag
1070
     1
1071
      103
1005
1FFA
  0
LINE
  5
1FFB
330
92B
100
AcDbEntity
  8
0
  6
Continuous
 62
     7
370
    15
100
AcDbLine
 10
2508.2714580762
 20
762.7009696381744
 30
0.0
 11
2508.2714580762
 21
762.5509689616617
 31
0.0
1001
AcDbBlockRepETag
1070
     1
1071
      104
1005
1FFB
  0
LINE
  5
1FFC
330
92B
100
AcDbEntity
  8
0
  6
Continuous
 62
     7
370
    15
100
AcDbLine
 10
2510.187604913375
 20
764.4509694593605
 30
0.0
 11
2509.148373717329
 21
764.4509694593605
 31
0.0
1001
AcDbBlockRepETag
1070
     1
1071
      105
1005
1FFC
  0
LINE
  5
1FFD
330
92B
100
AcDbEntity
  8
0
  6
Continuous
 62
     7
370
    15
100
AcDbLine
 10
2510.187604913375
 20
764.4509694593605
 30
0.0
 11
2510.187604913375
 21
763.9150715487655
 31
0.0
1001
AcDbBlockRepETag
1070
     1
1071
      106
1005
1FFD
  0
LINE
  5
1FFE
330
92B
100
AcDbEntity
  8
0
  6
Continuous
 62
     7
370
    15
100
AcDbLine
 10
2512.687604391834
 20
762.5509689616617
 30
0.0
 11
2508.2714580762
 21
762.5509689616617
 31
0.0
1001
AcDbBlockRepETag
1070
     1
1071
      107
1005
1FFE
  0
LINE
  5
1FFF
330
92B
100
AcDbEntity
  8
0
  6
Continuous
 62
     7
370
    15
100
AcDbLine
 10
2524.609144294521
 20
763.2451991605218
 30
0.0
 11
2524.609144294521
 21
762.5509689616617
 31
0.0
1001
AcDbBlockRepETag
1070
     1
1071
      108
1005
1FFF
  0
LINE
  5
2000
330
92B
100
AcDbEntity
  8
0
  6
Continuous
 62
     7
370
    15
100
AcDbLine
 10
2512.687604391834
 20
763.2451991605218
 30
0.0
 11
2524.609144294521
 21
763.2451991605218
 31
0.0
1001
AcDbBlockRepETag
1070
     1
1071
      109
1005
2000
  0
LINE
  5
2001
330
92B
100
AcDbEntity
  8
0
  6
Continuous
 62
     7
370
    15
100
AcDbLine
 10
2524.609144294521
 20
762.5509689616617
 30
0.0
 11
2512.687604391834
 21
762.5509689616617
 31
0.0
1001
AcDbBlockRepETag
1070
     1
1071
      110
1005
2001
  0
LINE
  5
2002
330
92B
100
AcDbEntity
  8
0
  6
Continuous
 62
     7
370
    15
100
AcDbLine
 10
2544.898375386259
 20
785.7509695979413
 30
0.0
 11
2544.898375386259
 21
789.550969662017
 31
0.0
1001
AcDbBlockRepETag
1070
     1
1071
      111
1005
2002
  0
LINE
  5
2003
330
92B
100
AcDbEntity
  8
0
  6
Continuous
 62
     7
370
    15
100
AcDbLine
 10
2553.648374492189
 20
785.7509695979413
 30
0.0
 11
2553.648374492189
 21
789.5509696620165
 31
0.0
1001
AcDbBlockRepETag
1070
     1
1071
      112
1005
2003
  0
LINE
  5
2004
330
92B
100
AcDbEntity
  8
0
  6
Continuous
 62
     7
370
    15
100
AcDbLine
 10
2553.648374492189
 20
785.7509695979413
 30
0.0
 11
2544.898375386259
 21
785.7509695979413
 31
0.0
1001
AcDbBlockRepETag
1070
     1
1071
      113
1005
2004
  0
LINE
  5
2005
330
92B
100
AcDbEntity
  8
0
  6
Continuous
 62
     7
370
    15
100
AcDbLine
 10
2544.898375386259
 20
789.550969662017
 30
0.0
 11
2553.648374492189
 21
789.550969662017
 31
0.0
1001
AcDbBlockRepETag
1070
     1
1071
      114
1005
2005
  0
LINE
  5
2006
330
92B
100
AcDbEntity
  8
0
  6
Continuous
 62
     7
370
    15
100
AcDbLine
 10
2530.648374447486
 20
788.8567410347629
 30
0.0
 11
2530.648374447486
 21
789.550969662017
 31
0.0
1001
AcDbBlockRepETag
1070
     1
1071
      115
1005
2006
  0
LINE
  5
2007
330
92B
100
AcDbEntity
  8
0
  6
Continuous
 62
     7
370
    15
100
AcDbLine
 10
2543.898373359701
 20
785.7509695979413
 30
0.0
 11
2544.898375386259
 21
785.7509695979413
 31
0.0
1001
AcDbBlockRepETag
1070
     1
1071
      116
1005
2007
  0
LINE
  5
2008
330
92B
100
AcDbEntity
  8
0
  6
Continuous
 62
     7
370
    15
100
AcDbLine
 10
2543.898373359701
 20
785.7509695979413
 30
0.0
 11
2543.898373359701
 21
788.8567410347629
 31
0.0
1001
AcDbBlockRepETag
1070
     1
1071
      117
1005
2008
  0
LINE
  5
2009
330
92B
100
AcDbEntity
  8
0
  6
Continuous
 62
     7
370
    15
100
AcDbLine
 10
2543.898373359701
 20
788.8567410347629
 30
0.0
 11
2530.648374447486
 21
788.8567410347629
 31
0.0
1001
AcDbBlockRepETag
1070
     1
1071
      118
1005
2009
  0
LINE
  5
200A
330
92B
100
AcDbEntity
  8
0
  6
Continuous
 62
     7
370
    15
100
AcDbLine
 10
2530.648374447486
 20
789.550969662017
 30
0.0
 11
2544.898375386259
 21
789.550969662017
 31
0.0
1001
AcDbBlockRepETag
1070
     1
1071
      119
1005
200A
  0
LINE
  5
200B
330
92B
100
AcDbEntity
  8
0
  6
Continuous
 62
     7
370
    15
100
AcDbLine
 10
2510.187604913375
 20
763.9150715487655
 30
0.0
 11
2527.10914377298
 21
763.9150715487655
 31
0.0
1001
AcDbBlockRepETag
1070
     1
1071
      120
1005
200B
  0
LINE
  5
200C
330
92B
100
AcDbEntity
  8
0
  6
Continuous
 62
     7
370
    15
100
AcDbLine
 10
2524.609144294521
 20
763.2451991605218
 30
0.0
 11
2527.10914377298
 21
763.9150715487655
 31
0.0
1001
AcDbBlockRepETag
1070
     1
1071
      121
1005
200C
  0
LINE
  5
200D
330
92B
100
AcDbEntity
  8
0
  6
Continuous
 62
     7
370
    15
100
AcDbLine
 10
2527.10914377298
 20
763.9150715487655
 30
0.0
 11
2527.10914377298
 21
762.5509689616617
 31
0.0
1001
AcDbBlockRepETag
1070
     1
1071
      122
1005
200D
  0
LINE
  5
200E
330
92B
100
AcDbEntity
  8
0
  6
Continuous
 62
     7
370
    15
100
AcDbLine
 10
2527.10914377298
 20
762.5509689616617
 30
0.0
 11
2524.609144294521
 21
762.5509689616617
 31
0.0
1001
AcDbBlockRepETag
1070
     1
1071
      123
1005
200E
  0
LINE
  5
200F
330
92B
100
AcDbEntity
  8
0
  6
Continuous
 62
     7
370
    15
100
AcDbLine
 10
2528.148374969026
 20
788.186868006235
 30
0.0
 11
2528.148374969026
 21
789.5509696620165
 31
0.0
1001
AcDbBlockRepETag
1070
     1
1071
      124
1005
200F
  0
LINE
  5
2010
330
92B
100
AcDbEntity
  8
0
  6
Continuous
 62
     7
370
    15
100
AcDbLine
 10
2530.648374447486
 20
788.8567410347629
 30
0.0
 11
2528.148374969026
 21
788.186868006235
 31
0.0
1001
AcDbBlockRepETag
1070
     1
1071
      125
1005
2010
  0
LINE
  5
2011
330
92B
100
AcDbEntity
  8
0
  6
Continuous
 62
     7
370
    15
100
AcDbLine
 10
2528.148374969026
 20
789.550969662017
 30
0.0
 11
2530.648374447486
 21
789.550969662017
 31
0.0
1001
AcDbBlockRepETag
1070
     1
1071
      126
1005
2011
  0
LINE
  5
2012
330
92B
100
AcDbEntity
  8
0
  6
Continuous
 62
     7
370
    15
100
AcDbLine
 10
2543.898373359701
 20
788.186868006235
 30
0.0
 11
2528.148374969026
 21
788.186868006235
 31
0.0
1001
AcDbBlockRepETag
1070
     1
1071
      127
1005
2012
  0
LINE
  5
2013
330
92B
100
AcDbEntity
  8
0
  6
Continuous
 62
     7
370
    15
100
AcDbLine
 10
2446.648373717329
 20
788.9009696602467
 30
0.0
 11
2446.648373717329
 21
789.5509696620164
 31
0.0
1001
AcDbBlockRepETag
1070
     1
1071
      128
1005
2013
  0
LINE
  5
2014
330
92B
100
AcDbEntity
  8
0
  6
Continuous
 62
     7
370
    15
100
AcDbLine
 10
2455.398372823259
 20
788.9009696602467
 30
0.0
 11
2455.398372823259
 21
789.5509696620166
 31
0.0
1001
AcDbBlockRepETag
1070
     1
1071
      129
1005
2014
  0
LINE
  5
2015
330
92B
100
AcDbEntity
  8
0
  6
Continuous
 62
     7
370
    15
100
AcDbLine
 10
2446.648373717329
 20
789.5509696620166
 30
0.0
 11
2455.398372823259
 21
789.5509696620166
 31
0.0
1001
AcDbBlockRepETag
1070
     1
1071
      130
1005
2015
  0
LINE
  5
2016
330
92B
100
AcDbEntity
  8
0
  6
Continuous
 62
     7
370
    15
100
AcDbLine
 10
2469.648373762032
 20
788.9009696602467
 30
0.0
 11
2469.648373762032
 21
789.5509696620166
 31
0.0
1001
AcDbBlockRepETag
1070
     1
1071
      131
1005
2016
  0
LINE
  5
2017
330
92B
100
AcDbEntity
  8
0
  6
Continuous
 62
     7
370
    15
100
AcDbLine
 10
2455.398372823259
 20
789.5509696620166
 30
0.0
 11
2469.648373762032
 21
789.5509696620167
 31
0.0
1001
AcDbBlockRepETag
1070
     1
1071
      132
1005
2017
  0
LINE
  5
2018
330
92B
100
AcDbEntity
  8
0
  6
Continuous
 62
     7
370
    15
100
AcDbLine
 10
2455.398372823259
 20
762.5509689616617
 30
0.0
 11
2455.398372823259
 21
763.2009687888082
 31
0.0
1001
AcDbBlockRepETag
1070
     1
1071
      133
1005
2018
  0
LINE
  5
2019
330
92B
100
AcDbEntity
  8
0
  6
Continuous
 62
     7
370
    15
100
AcDbLine
 10
2446.648373717329
 20
763.2009687888082
 30
0.0
 11
2446.648373717329
 21
762.5509689616617
 31
0.0
1001
AcDbBlockRepETag
1070
     1
1071
      134
1005
2019
  0
LINE
  5
201A
330
92B
100
AcDbEntity
  8
0
  6
Continuous
 62
     7
370
    15
100
AcDbLine
 10
2455.398372823259
 20
762.5509689616617
 30
0.0
 11
2446.648373717329
 21
762.5509689616617
 31
0.0
1001
AcDbBlockRepETag
1070
     1
1071
      135
1005
201A
  0
LINE
  5
201B
330
92B
100
AcDbEntity
  8
0
  6
Continuous
 62
     7
370
    15
100
AcDbLine
 10
2469.648373762032
 20
763.2009687888082
 30
0.0
 11
2469.648373762032
 21
762.5509689616617
 31
0.0
1001
AcDbBlockRepETag
1070
     1
1071
      136
1005
201B
  0
LINE
  5
201C
330
92B
100
AcDbEntity
  8
0
  6
Continuous
 62
     7
370
    15
100
AcDbLine
 10
2469.648373762032
 20
762.5509689616617
 30
0.0
 11
2455.398372823259
 21
762.5509689616617
 31
0.0
1001
AcDbBlockRepETag
1070
     1
1071
      137
1005
201C
  0
LINE
  5
201D
330
92B
100
AcDbEntity
  8
0
  6
Continuous
 62
     7
370
    15
100
AcDbLine
 10
2512.687604391834
 20
788.8567410347629
 30
0.0
 11
2512.687604391834
 21
789.5509696620169
 31
0.0
1001
AcDbBlockRepETag
1070
     1
1071
      138
1005
201D
  0
LINE
  5
201E
330
92B
100
AcDbEntity
  8
0
  6
Continuous
 62
     7
370
    15
100
AcDbLine
 10
2524.609144294521
 20
788.8567410347629
 30
0.0
 11
2524.609144294521
 21
789.5509696620167
 31
0.0
1001
AcDbBlockRepETag
1070
     1
1071
      139
1005
201E
  0
LINE
  5
201F
330
92B
100
AcDbEntity
  8
0
  6
Continuous
 62
     7
370
    15
100
AcDbLine
 10
2524.609144294521
 20
788.8567410347629
 30
0.0
 11
2512.687604391834
 21
788.8567410347629
 31
0.0
1001
AcDbBlockRepETag
1070
     1
1071
      140
1005
201F
  0
LINE
  5
2020
330
92B
100
AcDbEntity
  8
0
  6
Continuous
 62
     7
370
    15
100
AcDbLine
 10
2512.687604391834
 20
789.5509696620169
 30
0.0
 11
2524.609144294521
 21
789.550969662017
 31
0.0
1001
AcDbBlockRepETag
1070
     1
1071
      141
1005
2020
  0
LINE
  5
2021
330
92B
100
AcDbEntity
  8
0
  6
Continuous
 62
     7
370
    15
100
AcDbLine
 10
2512.687604391834
 20
788.8567410347629
 30
0.0
 11
2510.187604913375
 21
788.186868006235
 31
0.0
1001
AcDbBlockRepETag
1070
     1
1071
      142
1005
2021
  0
LINE
  5
2022
330
92B
100
AcDbEntity
  8
0
  6
Continuous
 62
     7
370
    15
100
AcDbLine
 10
2510.187604913375
 20
788.186868006235
 30
0.0
 11
2510.187604913375
 21
787.6509696299788
 31
0.0
1001
AcDbBlockRepETag
1070
     1
1071
      143
1005
2022
  0
LINE
  5
2023
330
92B
100
AcDbEntity
  8
0
  6
Continuous
 62
     7
370
    15
100
AcDbLine
 10
2509.148373717329
 20
787.6509696299788
 30
0.0
 11
2510.187604913375
 21
787.6509696299788
 31
0.0
1001
AcDbBlockRepETag
1070
     1
1071
      144
1005
2023
  0
LINE
  5
2024
330
92B
100
AcDbEntity
  8
0
  6
Continuous
 62
     7
370
    15
100
AcDbLine
 10
2508.529533149561
 20
789.5509696620162
 30
0.0
 11
2512.687604391834
 21
789.5509696620169
 31
0.0
1001
AcDbBlockRepETag
1070
     1
1071
      145
1005
2024
  0
LINE
  5
2025
330
92B
100
AcDbEntity
  8
0
  6
Continuous
 62
     7
370
    15
100
AcDbLine
 10
2527.10914377298
 20
789.5509696620165
 30
0.0
 11
2527.10914377298
 21
788.186868006235
 31
0.0
1001
AcDbBlockRepETag
1070
     1
1071
      146
1005
2025
  0
LINE
  5
2026
330
92B
100
AcDbEntity
  8
0
  6
Continuous
 62
     7
370
    15
100
AcDbLine
 10
2527.10914377298
 20
788.186868006235
 30
0.0
 11
2524.609144294521
 21
788.8567410347629
 31
0.0
1001
AcDbBlockRepETag
1070
     1
1071
      147
1005
2026
  0
LINE
  5
2027
330
92B
100
AcDbEntity
  8
0
  6
Continuous
 62
     7
370
    15
100
AcDbLine
 10
2524.609144294521
 20
789.550969662017
 30
0.0
 11
2527.10914377298
 21
789.550969662017
 31
0.0
1001
AcDbBlockRepETag
1070
     1
1071
      148
1005
2027
  0
LINE
  5
2028
330
92B
100
AcDbEntity
  8
0
  6
Continuous
 62
     7
370
    15
100
AcDbLine
 10
2527.10914377298
 20
788.186868006235
 30
0.0
 11
2510.187604913375
 21
788.186868006235
 31
0.0
1001
AcDbBlockRepETag
1070
     1
1071
      149
1005
2028
  0
LINE
  5
2029
330
92B
100
AcDbEntity
  8
0
  6
Continuous
 62
     7
370
    15
100
AcDbLine
 10
2502.341755881792
 20
764.5009703057464
 30
0.0
 11
2502.341755881792
 21
787.6009697149154
 31
0.0
1001
AcDbBlockRepETag
1070
     1
1071
      150
1005
2029
  0
LINE
  5
202A
330
92B
100
AcDbEntity
  8
0
  6
Continuous
 62
     7
370
    15
100
AcDbLine
 10
2543.898373359701
 20
763.2451991605218
 30
0.0
 11
2543.898373359701
 21
766.3509699570592
 31
0.0
1001
AcDbBlockRepETag
1070
     1
1071
      151
1005
202A
  0
LINE
  5
202B
330
92B
100
AcDbEntity
  8
0
  6
Continuous
 62
     7
370
    15
100
AcDbLine
 10
2544.898375386259
 20
766.3509699570592
 30
0.0
 11
2543.898373359701
 21
766.3509699570592
 31
0.0
1001
AcDbBlockRepETag
1070
     1
1071
      152
1005
202B
  0
LINE
  5
202C
330
92B
100
AcDbEntity
  8
0
  6
Continuous
 62
     7
370
    15
100
AcDbLine
 10
2544.898375386259
 20
766.3509699570592
 30
0.0
 11
2544.898375386259
 21
762.5509689616617
 31
0.0
1001
AcDbBlockRepETag
1070
     1
1071
      153
1005
202C
  0
LINE
  5
202D
330
92B
100
AcDbEntity
  8
0
  6
Continuous
 62
     7
370
    15
100
AcDbLine
 10
2530.648374447486
 20
763.2451991605218
 30
0.0
 11
2530.648374447486
 21
762.5509689616617
 31
0.0
1001
AcDbBlockRepETag
1070
     1
1071
      154
1005
202D
  0
LINE
  5
202E
330
92B
100
AcDbEntity
  8
0
  6
Continuous
 62
     7
370
    15
100
AcDbLine
 10
2530.648374447486
 20
763.2451991605218
 30
0.0
 11
2543.898373359701
 21
763.2451991605218
 31
0.0
1001
AcDbBlockRepETag
1070
     1
1071
      155
1005
202E
  0
LINE
  5
202F
330
92B
100
AcDbEntity
  8
0
  6
Continuous
 62
     7
370
    15
100
AcDbLine
 10
2544.898375386259
 20
762.5509689616617
 30
0.0
 11
2530.648374447486
 21
762.5509689616617
 31
0.0
1001
AcDbBlockRepETag
1070
     1
1071
      156
1005
202F
  0
LINE
  5
2030
330
92B
100
AcDbEntity
  8
0
  6
Continuous
 62
     7
370
    15
100
AcDbLine
 10
2553.648374492189
 20
766.3509699570592
 30
0.0
 11
2553.648374492189
 21
762.5509689616617
 31
0.0
1001
AcDbBlockRepETag
1070
     1
1071
      157
1005
2030
  0
LINE
  5
2031
330
92B
100
AcDbEntity
  8
0
  6
Continuous
 62
     7
370
    15
100
AcDbLine
 10
2544.898375386259
 20
766.3509699570592
 30
0.0
 11
2553.648374492189
 21
766.3509699570592
 31
0.0
1001
AcDbBlockRepETag
1070
     1
1071
      158
1005
2031
  0
LINE
  5
2032
330
92B
100
AcDbEntity
  8
0
  6
Continuous
 62
     7
370
    15
100
AcDbLine
 10
2553.648374492189
 20
762.5509689616617
 30
0.0
 11
2544.898375386259
 21
762.5509689616617
 31
0.0
1001
AcDbBlockRepETag
1070
     1
1071
      159
1005
2032
  0
LINE
  5
2033
330
92B
100
AcDbEntity
  8
0
  6
Continuous
 62
     7
370
    15
100
AcDbLine
 10
2472.148373240492
 20
789.5509696620164
 30
0.0
 11
2472.148373240492
 21
788.9009696602467
 31
0.0
1001
AcDbBlockRepETag
1070
     1
1071
      160
1005
2033
  0
LINE
  5
2034
330
92B
100
AcDbEntity
  8
0
  6
Continuous
 62
     7
370
    15
100
AcDbLine
 10
2469.648373762032
 20
789.5509696620167
 30
0.0
 11
2472.148373240492
 21
789.5509696620167
 31
0.0
1001
AcDbBlockRepETag
1070
     1
1071
      161
1005
2034
  0
LINE
  5
2035
330
92B
100
AcDbEntity
  8
0
  6
Continuous
 62
     7
370
    15
100
AcDbLine
 10
2528.148374969026
 20
762.5509689616617
 30
0.0
 11
2528.148374969026
 21
763.9150715487655
 31
0.0
1001
AcDbBlockRepETag
1070
     1
1071
      162
1005
2035
  0
LINE
  5
2036
330
92B
100
AcDbEntity
  8
0
  6
Continuous
 62
     7
370
    15
100
AcDbLine
 10
2528.148374969026
 20
763.9150715487655
 30
0.0
 11
2530.648374447486
 21
763.2451991605218
 31
0.0
1001
AcDbBlockRepETag
1070
     1
1071
      163
1005
2036
  0
LINE
  5
2037
330
92B
100
AcDbEntity
  8
0
  6
Continuous
 62
     7
370
    15
100
AcDbLine
 10
2530.648374447486
 20
762.5509689616617
 30
0.0
 11
2528.148374969026
 21
762.5509689616617
 31
0.0
1001
AcDbBlockRepETag
1070
     1
1071
      164
1005
2037
  0
LINE
  5
2038
330
92B
100
AcDbEntity
  8
0
  6
Continuous
 62
     7
370
    15
100
AcDbLine
 10
2528.148374969026
 20
763.9150715487655
 30
0.0
 11
2543.898373359701
 21
763.9150715487655
 31
0.0
1001
AcDbBlockRepETag
1070
     1
1071
      165
1005
2038
  0
LINE
  5
2039
330
92B
100
AcDbEntity
  8
0
  6
Continuous
 62
     7
370
    15
100
AcDbLine
 10
2472.148373240492
 20
763.2009687888082
 30
0.0
 11
2472.148373240492
 21
762.5509689616617
 31
0.0
1001
AcDbBlockRepETag
1070
     1
1071
      166
1005
2039
  0
LINE
  5
203A
330
92B
100
AcDbEntity
  8
0
  6
Continuous
 62
     7
370
    15
100
AcDbLine
 10
2472.148373240492
 20
762.5509689616617
 30
0.0
 11
2469.648373762032
 21
762.5509689616617
 31
0.0
1001
AcDbBlockRepETag
1070
     1
1071
      167
1005
203A
  0
LINE
  5
203B
330
92B
100
AcDbEntity
  8
0
  6
Continuous
 62
     7
370
    15
100
AcDbLine
 10
2473.187604436537
 20
762.5509689616617
 30
0.0
 11
2473.187604436537
 21
763.2009687888082
 31
0.0
1001
AcDbBlockRepETag
1070
     1
1071
      168
1005
203B
  0
LINE
  5
203C
330
92B
100
AcDbEntity
  8
0
  6
Continuous
 62
     7
370
    15
100
AcDbLine
 10
2475.687603914997
 20
762.5509689616617
 30
0.0
 11
2473.187604436537
 21
762.5509689616617
 31
0.0
1001
AcDbBlockRepETag
1070
     1
1071
      169
1005
203C
  0
LINE
  5
203D
330
92B
100
AcDbEntity
  8
0
  6
Continuous
 62
     7
370
    15
100
AcDbLine
 10
2492.421582789978
 20
789.4009696548916
 30
0.0
 11
2492.944841721913
 21
789.4009696548916
 31
0.0
1001
AcDbBlockRepETag
1070
     1
1071
      170
1005
203D
  0
LINE
  5
203E
330
92B
100
AcDbEntity
  8
0
  6
Continuous
 62
     7
370
    15
100
AcDbLine
 10
2492.944841721913
 20
762.7009696381744
 30
0.0
 11
2492.421582789978
 21
762.7009696381744
 31
0.0
1001
AcDbBlockRepETag
1070
     1
1071
      171
1005
203E
  0
LINE
  5
203F
330
92B
100
AcDbEntity
  8
0
  6
Continuous
 62
     7
370
    15
100
AcDbLine
 10
2492.944841721913
 20
762.7009696381744
 30
0.0
 11
2494.148374052605
 21
762.7009696381744
 31
0.0
1001
AcDbBlockRepETag
1070
     1
1071
      172
1005
203F
  0
LINE
  5
2040
330
92B
100
AcDbEntity
  8
0
  6
Continuous
 62
     7
370
    15
100
AcDbLine
 10
2494.148374052605
 20
789.4009696548916
 30
0.0
 11
2492.944841721913
 21
789.4009696548916
 31
0.0
1001
AcDbBlockRepETag
1070
     1
1071
      173
1005
2040
  0
LINE
  5
2041
330
92B
100
AcDbEntity
  8
0
  6
Continuous
 62
     7
370
    15
100
AcDbLine
 10
2494.148374052605
 20
789.4009696548916
 30
0.0
 11
2496.648373996726
 21
789.4009696548916
 31
0.0
1001
AcDbBlockRepETag
1070
     1
1071
      174
1005
2041
  0
LINE
  5
2042
330
92B
100
AcDbEntity
  8
0
  6
Continuous
 62
     7
370
    15
100
AcDbLine
 10
2508.648374566695
 20
789.4009696548916
 30
0.0
 11
2507.204919570944
 21
789.4009696548916
 31
0.0
1001
AcDbBlockRepETag
1070
     1
1071
      175
1005
2042
  0
LINE
  5
2043
330
92B
100
AcDbEntity
  8
0
  6
Continuous
 62
     7
370
    15
100
AcDbLine
 10
2507.204919570944
 20
762.7009696381744
 30
0.0
 11
2508.648374566695
 21
762.7009696381744
 31
0.0
1001
AcDbBlockRepETag
1070
     1
1071
      176
1005
2043
  0
LINE
  5
2044
330
92B
100
AcDbEntity
  8
0
  6
Continuous
 62
     7
370
    15
100
AcDbLine
 10
2496.648373996726
 20
762.7009696381744
 30
0.0
 11
2494.148374052605
 21
762.7009696381744
 31
0.0
1001
AcDbBlockRepETag
1070
     1
1071
      177
1005
2044
  0
LINE
  5
2045
330
92B
100
AcDbEntity
  8
0
  6
Continuous
 62
     7
370
    15
100
AcDbLine
 10
2503.75215800654
 20
789.5509696620162
 30
0.0
 11
2508.146726975104
 21
789.5509696620162
 31
0.0
1001
AcDbBlockRepETag
1070
     1
1071
      178
1005
2045
  0
LINE
  5
2046
330
92B
100
AcDbEntity
  8
0
  6
Continuous
 62
     7
370
    15
100
AcDbLine
 10
2492.150021234414
 20
789.5509696620162
 30
0.0
 11
2496.544590202978
 21
789.5509696620165
 31
0.0
1001
AcDbBlockRepETag
1070
     1
1071
      179
1005
2046
  0
LINE
  5
2047
330
92B
100
AcDbEntity
  8
0
  6
Continuous
 62
     7
370
    15
100
AcDbLine
 10
2508.2714580762
 20
762.5509689616617
 30
0.0
 11
2503.75215800654
 21
762.5509689616617
 31
0.0
1001
AcDbBlockRepETag
1070
     1
1071
      180
1005
2047
  0
LINE
  5
2048
330
92B
100
AcDbEntity
  8
0
  6
Continuous
 62
     7
370
    15
100
AcDbLine
 10
2496.544590202978
 20
762.5509689616617
 30
0.0
 11
2492.025290133318
 21
762.5509689616617
 31
0.0
1001
AcDbBlockRepETag
1070
     1
1071
      181
1005
2048
  0
LINE
  5
2049
330
92B
100
AcDbEntity
  8
0
  6
Continuous
 62
     7
370
    15
100
AcDbLine
 10
2503.322229005283
 20
762.5509689616617
 30
0.0
 11
2496.974518971404
 21
762.5509689616617
 31
0.0
1001
AcDbBlockRepETag
1070
     1
1071
      182
1005
2049
  0
LINE
  5
204A
330
92B
100
AcDbEntity
  8
0
  6
Continuous
 62
     7
370
    15
100
AcDbLine
 10
2503.322229005283
 20
789.5509696620162
 30
0.0
 11
2496.974518971404
 21
789.5509696620162
 31
0.0
1001
AcDbBlockRepETag
1070
     1
1071
      183
1005
204A
  0
LINE
  5
204B
330
92B
100
AcDbEntity
  8
0
  6
Continuous
 62
     7
370
    15
100
AcDbLine
 10
2473.187604436537
 20
789.5509696620164
 30
0.0
 11
2472.148373240492
 21
789.5509696620164
 31
0.0
1001
AcDbBlockRepETag
1070
     1
1071
      184
1005
204B
  0
LINE
  5
204C
330
92B
100
AcDbEntity
  8
0
  6
Continuous
 62
     7
370
    15
100
AcDbLine
 10
2472.148373240492
 20
762.5509689616617
 30
0.0
 11
2473.187604436537
 21
762.5509689616617
 31
0.0
1001
AcDbBlockRepETag
1070
     1
1071
      185
1005
204C
  0
LINE
  5
204D
330
92B
100
AcDbEntity
  8
0
  6
Continuous
 62
     7
370
    15
100
AcDbLine
 10
2543.898373359701
 20
764.4509694593605
 30
0.0
 11
2510.187604913375
 21
764.4509694593605
 31
0.0
1001
AcDbBlockRepETag
1070
     1
1071
      186
1005
204D
  0
LINE
  5
204E
330
92B
100
AcDbEntity
  8
0
  6
Continuous
 62
     7
370
    15
100
AcDbLine
 10
2527.10914377298
 20
762.5509689616617
 30
0.0
 11
2528.148374969026
 21
762.5509689616617
 31
0.0
1001
AcDbBlockRepETag
1070
     1
1071
      187
1005
204E
  0
LINE
  5
204F
330
92B
100
AcDbEntity
  8
0
  6
Continuous
 62
     7
370
    15
100
AcDbLine
 10
2510.187604913375
 20
787.6509696299788
 30
0.0
 11
2543.898373359701
 21
787.6509696299788
 31
0.0
1001
AcDbBlockRepETag
1070
     1
1071
      188
1005
204F
  0
LINE
  5
2050
330
92B
100
AcDbEntity
  8
0
  6
Continuous
 62
     7
370
    15
100
AcDbLine
 10
2528.148374969026
 20
789.5509696620165
 30
0.0
 11
2527.10914377298
 21
789.5509696620165
 31
0.0
1001
AcDbBlockRepETag
1070
     1
1071
      189
1005
2050
  0
LINE
  5
2051
330
92B
100
AcDbEntity
  8
0
  6
Continuous
 62
     7
370
    15
100
AcDbLine
 10
2496.916365094369
 20
789.5509696620165
 30
0.0
 11
2496.916365094369
 21
789.4009696548916
 31
0.0
1001
AcDbBlockRepETag
1070
     1
1071
      190
1005
2051
  0
LINE
  5
2052
330
92B
100
AcDbEntity
  8
0
  6
Continuous
 62
     7
370
    15
100
AcDbLine
 10
2496.544590202978
 20
789.5509696620165
 30
0.0
 11
2496.916365094369
 21
789.5509696620165
 31
0.0
1001
AcDbBlockRepETag
1070
     1
1071
      191
1005
2052
  0
LINE
  5
2053
330
92B
100
AcDbEntity
  8
0
  6
Continuous
 62
     7
370
    15
100
AcDbLine
 10
2503.380383115148
 20
789.4009696548916
 30
0.0
 11
2503.380383115148
 21
789.5509696620162
 31
0.0
1001
AcDbBlockRepETag
1070
     1
1071
      192
1005
2053
  0
LINE
  5
2054
330
92B
100
AcDbEntity
  8
0
  6
Continuous
 62
     7
370
    15
100
AcDbLine
 10
2503.380383115148
 20
789.5509696620162
 30
0.0
 11
2503.75215800654
 21
789.5509696620162
 31
0.0
1001
AcDbBlockRepETag
1070
     1
1071
      193
1005
2054
  0
LINE
  5
2055
330
92B
100
AcDbEntity
  8
0
  6
Continuous
 62
     7
370
    15
100
AcDbLine
 10
2503.380383115148
 20
762.5509689616617
 30
0.0
 11
2503.380383115148
 21
762.7009696381744
 31
0.0
1001
AcDbBlockRepETag
1070
     1
1071
      194
1005
2055
  0
LINE
  5
2056
330
92B
100
AcDbEntity
  8
0
  6
Continuous
 62
     7
370
    15
100
AcDbLine
 10
2503.380383115148
 20
762.5509689616617
 30
0.0
 11
2503.75215800654
 21
762.5509689616617
 31
0.0
1001
AcDbBlockRepETag
1070
     1
1071
      195
1005
2056
  0
LINE
  5
2057
330
92B
100
AcDbEntity
  8
0
  6
Continuous
 62
     7
370
    15
100
AcDbLine
 10
2496.916365094369
 20
762.5509689616617
 30
0.0
 11
2496.916365094369
 21
762.7009696381744
 31
0.0
1001
AcDbBlockRepETag
1070
     1
1071
      196
1005
2057
  0
LINE
  5
2058
330
92B
100
AcDbEntity
  8
0
  6
Continuous
 62
     7
370
    15
100
AcDbLine
 10
2496.544590202978
 20
762.5509689616617
 30
0.0
 11
2496.916365094369
 21
762.5509689616617
 31
0.0
1001
AcDbBlockRepETag
1070
     1
1071
      197
1005
2058
  0
LINE
  5
2059
330
92B
100
AcDbEntity
  8
0
  6
Continuous
 62
     7
370
    15
100
AcDbLine
 10
2496.974518971404
 20
789.5509696620162
 30
0.0
 11
2496.916365094369
 21
789.5509696620165
 31
0.0
1001
AcDbBlockRepETag
1070
     1
1071
      198
1005
2059
  0
LINE
  5
205A
330
92B
100
AcDbEntity
  8
0
  6
Continuous
 62
     7
370
    15
100
AcDbLine
 10
2496.916365094369
 20
762.5509689616617
 30
0.0
 11
2496.974518971404
 21
762.5509689616617
 31
0.0
1001
AcDbBlockRepETag
1070
     1
1071
      199
1005
205A
  0
LINE
  5
205B
330
92B
100
AcDbEntity
  8
0
  6
Continuous
 62
     7
370
    15
100
AcDbLine
 10
2503.322229005283
 20
789.5509696620162
 30
0.0
 11
2503.380383115148
 21
789.5509696620162
 31
0.0
1001
AcDbBlockRepETag
1070
     1
1071
      200
1005
205B
  0
LINE
  5
205C
330
92B
100
AcDbEntity
  8
0
  6
Continuous
 62
     7
370
    15
100
AcDbLine
 10
2503.322229005283
 20
762.5509689616617
 30
0.0
 11
2503.380383115148
 21
762.5509689616617
 31
0.0
1001
AcDbBlockRepETag
1070
     1
1071
      201
1005
205C
  0
LINE
  5
205D
330
92B
100
AcDbEntity
  8
0
  6
Continuous
 62
     7
370
    15
100
AcDbLine
 10
2492.150021234414
 20
789.5509696620162
 30
0.0
 11
2491.767215059957
 21
789.5509696620162
 31
0.0
1001
AcDbBlockRepETag
1070
     1
1071
      202
1005
205D
  0
LINE
  5
205E
330
92B
100
AcDbEntity
  8
0
  6
Continuous
 62
     7
370
    15
100
AcDbLine
 10
2508.529533149561
 20
789.5509696620162
 30
0.0
 11
2508.146726975104
 21
789.5509696620162
 31
0.0
1001
AcDbBlockRepETag
1070
     1
1071
      203
1005
205E
  0
LINE
  5
205F
330
92B
100
AcDbEntity
  8
0
  6
Continuous
 62
     7
370
    15
100
AcDbLine
 10
2520.148373657724
 20
781.7090026157554
 30
0.0
 11
2515.248374530932
 21
778.8799864294585
 31
0.0
1001
AcDbBlockRepETag
1070
     1
1071
      204
1005
205F
  0
LINE
  5
2060
330
92B
100
AcDbEntity
  8
0
  6
Continuous
 62
     7
370
    15
100
AcDbLine
 10
2520.148373657724
 20
781.7090026157554
 30
0.0
 11
2520.148373657724
 21
781.1316524686869
 31
0.0
1001
AcDbBlockRepETag
1070
     1
1071
      205
1005
2060
  0
LINE
  5
2061
330
92B
100
AcDbEntity
  8
0
  6
Continuous
 62
     7
370
    15
100
AcDbLine
 10
2515.748373681566
 20
778.5913108902629
 30
0.0
 11
2520.148373657724
 21
781.1316524686869
 31
0.0
1001
AcDbBlockRepETag
1070
     1
1071
      206
1005
2061
  0
LINE
  5
2062
330
92B
100
AcDbEntity
  8
0
  6
Continuous
 62
     7
370
    15
100
AcDbLine
 10
2515.748373681566
 20
778.5913108902629
 30
0.0
 11
2515.248374530932
 21
778.8799864294585
 31
0.0
1001
AcDbBlockRepETag
1070
     1
1071
      207
1005
2062
  0
LINE
  5
2063
330
92B
100
AcDbEntity
  8
0
  6
Continuous
 62
     7
370
    15
100
AcDbLine
 10
2525.048374647161
 20
778.8799864294585
 30
0.0
 11
2520.148373657724
 21
781.7090026157554
 31
0.0
1001
AcDbBlockRepETag
1070
     1
1071
      208
1005
2063
  0
LINE
  5
2064
330
92B
100
AcDbEntity
  8
0
  6
Continuous
 62
     7
370
    15
100
AcDbLine
 10
2525.048374647161
 20
778.8799864294585
 30
0.0
 11
2524.548373633882
 21
778.5913108902629
 31
0.0
1001
AcDbBlockRepETag
1070
     1
1071
      209
1005
2064
  0
LINE
  5
2065
330
92B
100
AcDbEntity
  8
0
  6
Continuous
 62
     7
370
    15
100
AcDbLine
 10
2520.148373657724
 20
781.1316524686869
 30
0.0
 11
2524.548373633882
 21
778.5913108902629
 31
0.0
1001
AcDbBlockRepETag
1070
     1
1071
      210
1005
2065
  0
LINE
  5
2066
330
92B
100
AcDbEntity
  8
0
  6
Continuous
 62
     7
370
    15
100
AcDbLine
 10
2524.548373633882
 20
778.5913108902629
 30
0.0
 11
2524.548373633882
 21
773.510627733415
 31
0.0
1001
AcDbBlockRepETag
1070
     1
1071
      211
1005
2066
  0
LINE
  5
2067
330
92B
100
AcDbEntity
  8
0
  6
Continuous
 62
     7
370
    15
100
AcDbLine
 10
2524.548373633882
 20
773.510627733415
 30
0.0
 11
2520.148373657724
 21
770.9702870863136
 31
0.0
1001
AcDbBlockRepETag
1070
     1
1071
      212
1005
2067
  0
LINE
  5
2068
330
92B
100
AcDbEntity
  8
0
  6
Continuous
 62
     7
370
    15
100
AcDbLine
 10
2520.148373657724
 20
770.9702870863136
 30
0.0
 11
2515.748373681566
 21
773.510627733415
 31
0.0
1001
AcDbBlockRepETag
1070
     1
1071
      213
1005
2068
  0
LINE
  5
2069
330
92B
100
AcDbEntity
  8
0
  6
Continuous
 62
     7
370
    15
100
AcDbLine
 10
2515.748373681566
 20
773.510627733415
 30
0.0
 11
2515.748373681566
 21
778.5913108902629
 31
0.0
1001
AcDbBlockRepETag
1070
     1
1071
      214
1005
2069
  0
LINE
  5
206A
330
92B
100
AcDbEntity
  8
0
  6
Continuous
 62
     7
370
    15
100
AcDbLine
 10
2515.248374530932
 20
778.8799864294585
 30
0.0
 11
2515.248374530932
 21
773.221953125542
 31
0.0
1001
AcDbBlockRepETag
1070
     1
1071
      215
1005
206A
  0
LINE
  5
206B
330
92B
100
AcDbEntity
  8
0
  6
Continuous
 62
     7
370
    15
100
AcDbLine
 10
2515.248374530932
 20
773.221953125542
 30
0.0
 11
2515.748373681566
 21
773.510627733415
 31
0.0
1001
AcDbBlockRepETag
1070
     1
1071
      216
1005
206B
  0
LINE
  5
206C
330
92B
100
AcDbEntity
  8
0
  6
Continuous
 62
     7
370
    15
100
AcDbLine
 10
2525.048374647161
 20
773.221953125542
 30
0.0
 11
2525.048374647161
 21
778.8799864294585
 31
0.0
1001
AcDbBlockRepETag
1070
     1
1071
      217
1005
206C
  0
LINE
  5
206D
330
92B
100
AcDbEntity
  8
0
  6
Continuous
 62
     7
370
    15
100
AcDbLine
 10
2525.048374647161
 20
773.221953125542
 30
0.0
 11
2524.548373633882
 21
773.510627733415
 31
0.0
1001
AcDbBlockRepETag
1070
     1
1071
      218
1005
206D
  0
LINE
  5
206E
330
92B
100
AcDbEntity
  8
0
  6
Continuous
 62
     7
370
    15
100
AcDbLine
 10
2520.148373657724
 20
770.3929378705677
 30
0.0
 11
2520.148373657724
 21
770.9702870863136
 31
0.0
1001
AcDbBlockRepETag
1070
     1
1071
      219
1005
206E
  0
LINE
  5
206F
330
92B
100
AcDbEntity
  8
0
  6
Continuous
 62
     7
370
    15
100
AcDbLine
 10
2515.248374530932
 20
773.221953125542
 30
0.0
 11
2520.148373657724
 21
770.3929378705677
 31
0.0
1001
AcDbBlockRepETag
1070
     1
1071
      220
1005
206F
  0
LINE
  5
2070
330
92B
100
AcDbEntity
  8
0
  6
Continuous
 62
     7
370
    15
100
AcDbLine
 10
2520.148373657724
 20
770.3929378705677
 30
0.0
 11
2525.048374647161
 21
773.221953125542
 31
0.0
1001
AcDbBlockRepETag
1070
     1
1071
      221
1005
2070
  0
CIRCLE
  5
2071
330
92B
100
AcDbEntity
  8
0
  6
Continuous
 62
     7
370
    15
100
AcDbCircle
 10
2520.148374104759
 20
776.0509696620163
 30
0.0
 40
6.049999999999997
1001
AcDbBlockRepETag
1070
     1
1071
      222
1005
2071
  0
CIRCLE
  5
2072
330
92B
100
AcDbEntity
  8
0
  6
Continuous
 62
     7
370
    15
100
AcDbCircle
 10
2520.148374104759
 20
776.0509696620163
 30
0.0
 40
6.25
1001
AcDbBlockRepETag
1070
     1
1071
      223
1005
2072
  0
LINE
  5
2073
330
92B
100
AcDbEntity
  8
0
  6
Continuous
 62
     7
370
    15
100
AcDbLine
 10
2524.148374313375
 20
783.5509696098622
 30
0.0
 11
2526.148374641201
 21
781.5509692820366
 31
0.0
1001
AcDbBlockRepETag
1070
     1
1071
      224
1005
2073
  0
LINE
  5
2074
330
92B
100
AcDbEntity
  8
0
  6
Continuous
 62
     7
370
    15
100
AcDbLine
 10
2526.148374641201
 20
781.5509692820366
 30
0.0
 11
2526.148374641201
 21
777.8009700643476
 31
0.0
1001
AcDbBlockRepETag
1070
     1
1071
      225
1005
2074
  0
LINE
  5
2075
330
92B
100
AcDbEntity
  8
0
  6
Continuous
 62
     7
370
    15
100
AcDbLine
 10
2526.148374641201
 20
774.3009694906529
 30
0.0
 11
2526.148374641201
 21
770.5509702729639
 31
0.0
1001
AcDbBlockRepETag
1070
     1
1071
      226
1005
2075
  0
LINE
  5
2076
330
92B
100
AcDbEntity
  8
0
  6
Continuous
 62
     7
370
    15
100
AcDbLine
 10
2526.148374641201
 20
770.5509702729639
 30
0.0
 11
2524.148374313375
 21
768.5509699451383
 31
0.0
1001
AcDbBlockRepETag
1070
     1
1071
      227
1005
2076
  0
LINE
  5
2077
330
92B
100
AcDbEntity
  8
0
  6
Continuous
 62
     7
370
    15
100
AcDbLine
 10
2524.148374313375
 20
768.5509699451383
 30
0.0
 11
2509.148373717329
 21
768.5509699451383
 31
0.0
1001
AcDbBlockRepETag
1070
     1
1071
      228
1005
2077
  0
LINE
  5
2078
330
92B
100
AcDbEntity
  8
0
  6
Continuous
 62
     7
370
    15
100
AcDbLine
 10
2509.148373717329
 20
783.5509696098622
 30
0.0
 11
2524.148374313375
 21
783.5509696098622
 31
0.0
1001
AcDbBlockRepETag
1070
     1
1071
      229
1005
2078
  0
LINE
  5
2079
330
92B
100
AcDbEntity
  8
0
  6
Continuous
 62
     7
370
    15
100
AcDbLine
 10
2531.898375118038
 20
785.7509695979413
 30
0.0
 11
2531.898375118038
 21
766.3509699570592
 31
0.0
1001
AcDbBlockRepETag
1070
     1
1071
      230
1005
2079
  0
LINE
  5
207A
330
92B
100
AcDbEntity
  8
0
  6
Continuous
 62
     7
370
    15
100
AcDbLine
 10
2543.898373359701
 20
766.3509699570592
 30
0.0
 11
2531.898375118038
 21
766.3509699570592
 31
0.0
1001
AcDbBlockRepETag
1070
     1
1071
      231
1005
207A
  0
LINE
  5
207B
330
92B
100
AcDbEntity
  8
0
  6
Continuous
 62
     7
370
    15
100
AcDbLine
 10
2531.898375118038
 20
785.7509695979413
 30
0.0
 11
2543.898373359701
 21
785.7509695979413
 31
0.0
1001
AcDbBlockRepETag
1070
     1
1071
      232
1005
207B
  0
LINE
  5
207C
330
92B
100
AcDbEntity
  8
0
  6
Continuous
 62
     7
370
    15
100
AcDbLine
 10
2532.148375624677
 20
781.0509692000803
 30
0.0
 11
2531.898375118038
 21
781.0509692000803
 31
0.0
1001
AcDbBlockRepETag
1070
     1
1071
      233
1005
207C
  0
LINE
  5
207D
330
92B
100
AcDbEntity
  8
0
  6
Continuous
 62
     7
370
    15
100
AcDbLine
 10
2532.148375624677
 20
781.0509692000803
 30
0.0
 11
2532.148375624677
 21
771.0509694235977
 31
0.0
1001
AcDbBlockRepETag
1070
     1
1071
      234
1005
207D
  0
LINE
  5
207E
330
92B
100
AcDbEntity
  8
0
  6
Continuous
 62
     7
370
    15
100
AcDbLine
 10
2531.898375118038
 20
771.0509694235977
 30
0.0
 11
2532.148375624677
 21
771.0509694235977
 31
0.0
1001
AcDbBlockRepETag
1070
     1
1071
      235
1005
207E
  0
LINE
  5
207F
330
92B
100
AcDbEntity
  8
0
  6
Continuous
 62
     7
370
    15
100
AcDbLine
 10
2532.148375624677
 20
783.0509695279058
 30
0.0
 11
2531.898375118038
 21
783.0509695279058
 31
0.0
1001
AcDbBlockRepETag
1070
     1
1071
      236
1005
207F
  0
LINE
  5
2080
330
92B
100
AcDbEntity
  8
0
  6
Continuous
 62
     7
370
    15
100
AcDbLine
 10
2532.148375624677
 20
781.0509692000803
 30
0.0
 11
2532.148375624677
 21
783.0509695279058
 31
0.0
1001
AcDbBlockRepETag
1070
     1
1071
      237
1005
2080
  0
LINE
  5
2081
330
92B
100
AcDbEntity
  8
0
  6
Continuous
 62
     7
370
    15
100
AcDbLine
 10
2531.898375118038
 20
769.0509690957721
 30
0.0
 11
2532.148375624677
 21
769.0509690957721
 31
0.0
1001
AcDbBlockRepETag
1070
     1
1071
      238
1005
2081
  0
LINE
  5
2082
330
92B
100
AcDbEntity
  8
0
  6
Continuous
 62
     7
370
    15
100
AcDbLine
 10
2532.148375624677
 20
769.0509690957721
 30
0.0
 11
2532.148375624677
 21
771.0509694235977
 31
0.0
1001
AcDbBlockRepETag
1070
     1
1071
      239
1005
2082
  0
LINE
  5
2083
330
92B
100
AcDbEntity
  8
0
  6
Continuous
 62
     7
370
    15
100
AcDbLine
 10
2548.38837262418
 20
766.3509699570592
 30
0.0
 11
2548.38837262418
 21
785.7509695979413
 31
0.0
1001
AcDbBlockRepETag
1070
     1
1071
      240
1005
2083
  0
LINE
  5
2084
330
92B
100
AcDbEntity
  8
0
  6
Continuous
 62
     7
370
    15
100
AcDbLine
 10
2553.648374492189
 20
766.3509699570592
 30
0.0
 11
2553.648374492189
 21
785.7509695979413
 31
0.0
1001
AcDbBlockRepETag
1070
     1
1071
      241
1005
2084
  0
LINE
  5
2085
330
92B
100
AcDbEntity
  8
0
  6
Continuous
 62
     7
370
    15
100
AcDbLine
 10
2545.149597788116
 20
785.7509695979413
 30
0.0
 11
2545.149597788116
 21
766.3509699570592
 31
0.0
1001
AcDbBlockRepETag
1070
     1
1071
      242
1005
2085
  0
LINE
  5
208A
330
92B
100
AcDbEntity
  8
0
  6
Continuous
 62
     8
370
    15
100
AcDbLine
 10
2492.421582789978
 20
762.7009696381744
 30
0.0
 11
2492.421582789978
 21
763.2009687888082
 31
0.0
1001
AcDbBlockRepETag
1070
     1
1071
      243
1005
208A
  0
LINE
  5
208B
330
92B
100
AcDbEntity
  8
0
  6
Continuous
 62
     8
370
    15
100
AcDbLine
 10
2492.421582789978
 20
788.9009696602467
 30
0.0
 11
2492.421582789978
 21
789.4009696548916
 31
0.0
1001
AcDbBlockRepETag
1070
     1
1071
      244
1005
208B
  0
LINE
  5
208C
330
92B
100
AcDbEntity
  8
0
  6
Continuous
 62
     8
370
    15
100
AcDbLine
 10
2508.529533149561
 20
789.4009696548916
 30
0.0
 11
2508.529533149561
 21
789.5509696620162
 31
0.0
1001
AcDbBlockRepETag
1070
     1
1071
      245
1005
208C
  0
LINE
  5
208D
330
92B
100
AcDbEntity
  8
0
  6
Continuous
 62
     8
370
    15
100
AcDbLine
 10
2492.944841721913
 20
789.4009696548916
 30
0.0
 11
2492.944841721913
 21
788.9009696602467
 31
0.0
1001
AcDbBlockRepETag
1070
     1
1071
      246
1005
208D
  0
LINE
  5
208E
330
92B
100
AcDbEntity
  8
0
  6
Continuous
 62
     8
370
    15
100
AcDbLine
 10
2492.944841721913
 20
763.2009687888082
 30
0.0
 11
2492.944841721913
 21
762.7009696381744
 31
0.0
1001
AcDbBlockRepETag
1070
     1
1071
      247
1005
208E
  0
LINE
  5
208F
330
92B
100
AcDbEntity
  8
0
  6
Continuous
 62
     8
370
    15
100
AcDbLine
 10
2494.148374052605
 20
763.2009687888082
 30
0.0
 11
2494.148374052605
 21
762.7009696381744
 31
0.0
1001
AcDbBlockRepETag
1070
     1
1071
      248
1005
208F
  0
LINE
  5
2090
330
92B
100
AcDbEntity
  8
0
  6
Continuous
 62
     8
370
    15
100
AcDbLine
 10
2494.148374052605
 20
789.4009696548916
 30
0.0
 11
2494.148374052605
 21
788.9009696602467
 31
0.0
1001
AcDbBlockRepETag
1070
     1
1071
      249
1005
2090
  0
LINE
  5
2091
330
92B
100
AcDbEntity
  8
0
  6
Continuous
 62
     8
370
    15
100
AcDbLine
 10
2503.75215800654
 20
789.4009696548916
 30
0.0
 11
2503.75215800654
 21
789.5509696620162
 31
0.0
1001
AcDbBlockRepETag
1070
     1
1071
      250
1005
2091
  0
LINE
  5
2092
330
92B
100
AcDbEntity
  8
0
  6
Continuous
 62
     8
370
    15
100
AcDbLine
 10
2508.146726975104
 20
789.5509696620162
 30
0.0
 11
2508.146726975104
 21
789.4009696548916
 31
0.0
1001
AcDbBlockRepETag
1070
     1
1071
      251
1005
2092
  0
LINE
  5
2093
330
92B
100
AcDbEntity
  8
0
  6
Continuous
 62
     8
370
    15
100
AcDbLine
 10
2492.150021234414
 20
789.4009696548916
 30
0.0
 11
2492.150021234414
 21
789.5509696620162
 31
0.0
1001
AcDbBlockRepETag
1070
     1
1071
      252
1005
2093
  0
LINE
  5
2094
330
92B
100
AcDbEntity
  8
0
  6
Continuous
 62
     8
370
    15
100
AcDbLine
 10
2496.544590202978
 20
789.4009696548916
 30
0.0
 11
2496.544590202978
 21
789.5509696620165
 31
0.0
1001
AcDbBlockRepETag
1070
     1
1071
      253
1005
2094
  0
LINE
  5
2095
330
92B
100
AcDbEntity
  8
0
  6
Continuous
 62
     8
370
    15
100
AcDbLine
 10
2503.75215800654
 20
762.5509689616617
 30
0.0
 11
2503.75215800654
 21
762.7009696381744
 31
0.0
1001
AcDbBlockRepETag
1070
     1
1071
      254
1005
2095
  0
LINE
  5
2096
330
92B
100
AcDbEntity
  8
0
  6
Continuous
 62
     8
370
    15
100
AcDbLine
 10
2496.544590202978
 20
762.7009696381744
 30
0.0
 11
2496.544590202978
 21
762.5509689616617
 31
0.0
1001
AcDbBlockRepETag
1070
     1
1071
      255
1005
2096
  0
LINE
  5
2097
330
92B
100
AcDbEntity
  8
0
  6
Continuous
 62
     8
370
    15
100
AcDbLine
 10
2496.974518971404
 20
789.5509696620162
 30
0.0
 11
2496.974518971404
 21
789.4009696548916
 31
0.0
1001
AcDbBlockRepETag
1070
     1
1071
      256
1005
2097
  0
LINE
  5
2098
330
92B
100
AcDbEntity
  8
0
  6
Continuous
 62
     8
370
    15
100
AcDbLine
 10
2503.322229005283
 20
789.4009696548916
 30
0.0
 11
2503.322229005283
 21
789.5509696620162
 31
0.0
1001
AcDbBlockRepETag
1070
     1
1071
      257
1005
2098
  0
LINE
  5
2099
330
92B
100
AcDbEntity
  8
0
  6
Continuous
 62
     8
370
    15
100
AcDbLine
 10
2503.322229005283
 20
762.5509689616617
 30
0.0
 11
2503.322229005283
 21
762.7009696381744
 31
0.0
1001
AcDbBlockRepETag
1070
     1
1071
      258
1005
2099
  0
LINE
  5
209A
330
92B
100
AcDbEntity
  8
0
  6
Continuous
 62
     8
370
    15
100
AcDbLine
 10
2496.974518971404
 20
762.7009696381744
 30
0.0
 11
2496.974518971404
 21
762.5509689616617
 31
0.0
1001
AcDbBlockRepETag
1070
     1
1071
      259
1005
209A
  0
ARC
  5
209E
330
92B
100
AcDbEntity
  8
0
  6
Continuous
 62
     7
370
    15
100
AcDbCircle
 10
2538.398374104768
 20
780.9009696620164
 30
0.0
 40
3.300000000000006
100
AcDbArc
 50
0.0
 51
180.0
1001
AcDbBlockRepETag
1070
     1
1071
      260
1005
209E
  0
LINE
  5
20A0
330
92B
100
AcDbEntity
  8
0
  6
Continuous
 62
     7
370
    15
100
AcDbLine
 10
2535.09837425377
 20
771.1509692537244
 30
0.0
 11
2535.09837425377
 21
780.9509693699535
 31
0.0
1001
AcDbBlockRepETag
1070
     1
1071
      261
1005
20A0
  0
LINE
  5
20A1
330
92B
100
AcDbEntity
  8
0
  6
Continuous
 62
     7
370
    15
100
AcDbLine
 10
2541.698372525236
 20
780.9509693699535
 30
0.0
 11
2541.698372525236
 21
771.1509692537244
 31
0.0
1001
AcDbBlockRepETag
1070
     1
1071
      262
1005
20A1
  0
ARC
  5
20A2
330
92B
100
AcDbEntity
  8
0
  6
Continuous
 62
     7
370
    15
100
AcDbCircle
 10
2538.398374104768
 20
771.2009696620161
 30
0.0
 40
3.300000000000006
100
AcDbArc
 50
180.0
 51
0.0
1001
AcDbBlockRepETag
1070
     1
1071
      263
1005
20A2
  0
ENDBLK
  5
92D
330
92B
100
AcDbEntity
  8
0
100
AcDbBlockEnd
  0
BLOCK
  5
A35
330
A34
100
AcDbEntity
  8
0
100
AcDbBlockBegin
  2
4
 70
     0
 10
0.0
 20
0.0
 30
0.0
  3
4
  1

  0
LINE
  5
1D6C
330
A34
100
AcDbEntity
  8
0
  6
Continuous
 62
     7
370
    15
100
AcDbLine
 10
2346.479247701973
 20
719.7381006330853
 30
0.0
 11
2346.125636301511
 21
719.9423032599306
 31
0.0
  0
LINE
  5
1D6D
330
A34
100
AcDbEntity
  8
0
  6
Continuous
 62
     7
370
    15
100
AcDbLine
 10
2342.589528223793
 20
719.9423028797609
 30
0.0
 11
2342.23591814042
 21
719.7381002529157
 31
0.0
  0
LINE
  5
1D6E
330
A34
100
AcDbEntity
  8
0
  6
Continuous
 62
     7
370
    15
100
AcDbLine
 10
2347.35758209804
 20
709.940010204942
 30
0.0
 11
2347.35758209804
 21
718.5136878536891
 31
0.0
  0
LINE
  5
1D6F
330
A34
100
AcDbEntity
  8
0
  6
Continuous
 62
     7
370
    15
100
AcDbLine
 10
2341.357582427265
 20
718.5136874735195
 30
0.0
 11
2341.357582427265
 21
709.9400098247724
 31
0.0
  0
LINE
  5
1D70
330
A34
100
AcDbEntity
  8
0
  6
Continuous
 62
     7
370
    15
100
AcDbLine
 10
2326.268110430023
 20
712.5281753216161
 30
0.0
 11
2326.413311591498
 21
712.6119981679168
 31
0.0
  0
LINE
  5
1D71
330
A34
100
AcDbEntity
  8
0
  6
Continuous
 62
     7
370
    15
100
AcDbLine
 10
2326.596741261663
 20
718.4912367574968
 30
0.0
 11
2325.81029423934
 21
718.0372305553035
 31
0.0
  0
LINE
  5
1D72
330
A34
100
AcDbEntity
  8
0
  6
Continuous
 62
     7
370
    15
100
AcDbLine
 10
2357.671126662898
 20
657.649526654945
 30
0.0
 11
2376.763010250161
 21
668.6710364504393
 31
0.0
  0
LINE
  5
1D73
330
A34
100
AcDbEntity
  8
0
  6
Continuous
 62
     7
370
    15
100
AcDbLine
 10
2350.607582880087
 20
704.7958023229687
 30
0.0
 11
2350.607582880087
 21
705.6939972111759
 31
0.0
  0
LINE
  5
1D74
330
A34
100
AcDbEntity
  8
0
  6
Continuous
 62
     7
370
    15
100
AcDbLine
 10
2317.782828982027
 20
717.4266240351313
 30
0.0
 11
2317.928030143503
 21
717.5104468814319
 31
0.0
  0
LINE
  5
1D75
330
A34
100
AcDbEntity
  8
0
  6
Continuous
 62
     7
370
    15
100
AcDbLine
 10
2341.481338580747
 20
727.0839318891454
 30
0.0
 11
2340.693612335717
 21
726.6291872074023
 31
0.0
  0
LINE
  5
1D76
330
A34
100
AcDbEntity
  8
0
  6
Continuous
 62
     7
370
    15
100
AcDbLine
 10
2307.336309793027
 20
685.8703054703759
 30
0.0
 11
2312.324756782127
 21
688.7500746195732
 31
0.0
  0
LINE
  5
1D77
330
A34
100
AcDbEntity
  8
0
  6
Continuous
 62
     7
370
    15
100
AcDbLine
 10
2315.496423036405
 20
750.2496569053063
 30
0.0
 11
2323.802210934761
 21
748.9457477237269
 31
0.0
  0
LINE
  5
1D78
330
A34
100
AcDbEntity
  8
0
  6
Continuous
 62
     7
370
    15
100
AcDbLine
 10
2323.87894882137
 20
718.8154096544599
 30
0.0
 11
2315.496423036405
 21
750.2496569053063
 31
0.0
  0
LINE
  5
1D79
330
A34
100
AcDbEntity
  8
0
  6
Continuous
 62
     7
370
    15
100
AcDbLine
 10
2323.87894882137
 20
718.8154096544599
 30
0.0
 11
2321.794440850413
 21
721.141225886661
 31
0.0
  0
LINE
  5
1D7A
330
A34
100
AcDbEntity
  8
0
  6
Continuous
 62
     7
370
    15
100
AcDbLine
 10
2318.787424470247
 20
721.6132927537117
 30
0.0
 11
2321.794440850413
 21
721.141225886661
 31
0.0
  0
LINE
  5
1D7B
330
A34
100
AcDbEntity
  8
0
  6
Continuous
 62
     7
370
    15
100
AcDbLine
 10
2318.787424470247
 20
721.6132927537117
 30
0.0
 11
2315.91033538183
 21
724.8234417887297
 31
0.0
  0
LINE
  5
1D7C
330
A34
100
AcDbEntity
  8
0
  6
Continuous
 62
     7
370
    15
100
AcDbLine
 10
2315.91033538183
 20
724.8234417887297
 30
0.0
 11
2306.711466958786
 21
759.3189548584373
 31
0.0
  0
LINE
  5
1D7D
330
A34
100
AcDbEntity
  8
0
  6
Continuous
 62
     7
370
    15
100
AcDbLine
 10
2307.043698711796
 20
759.2667947040912
 30
0.0
 11
2306.711466958786
 21
759.3189548584373
 31
0.0
  0
LINE
  5
1D7E
330
A34
100
AcDbEntity
  8
0
  6
Continuous
 62
     7
370
    15
100
AcDbLine
 10
2304.721986878012
 20
767.973152994253
 30
0.0
 11
2307.043698711796
 21
759.2667947040912
 31
0.0
  0
LINE
  5
1D7F
330
A34
100
AcDbEntity
  8
0
  6
Continuous
 62
     7
370
    15
100
AcDbLine
 10
2319.340173638387
 20
765.6782642832738
 30
0.0
 11
2304.721986878012
 21
767.973152994253
 31
0.0
  0
LINE
  5
1D80
330
A34
100
AcDbEntity
  8
0
  6
Continuous
 62
     7
370
    15
100
AcDbLine
 10
2323.802210934761
 20
748.9457477237269
 30
0.0
 11
2319.340173638387
 21
765.6782642832738
 31
0.0
  0
LINE
  5
1D81
330
A34
100
AcDbEntity
  8
0
  6
Continuous
 62
     7
370
    15
100
AcDbLine
 10
2322.946418681839
 20
767.7601052336281
 30
0.0
 11
2323.188263390131
 21
766.8531963654793
 31
0.0
  0
LINE
  5
1D82
330
A34
100
AcDbEntity
  8
0
  6
Continuous
 62
     7
370
    15
100
AcDbLine
 10
2323.188263390131
 20
766.8531963654793
 30
0.0
 11
2320.501258234859
 21
765.3020213070302
 31
0.0
  0
LINE
  5
1D83
330
A34
100
AcDbEntity
  8
0
  6
Continuous
 62
     7
370
    15
100
AcDbLine
 10
2324.721450822941
 20
749.476413615632
 30
0.0
 11
2320.501258234859
 21
765.3020213070302
 31
0.0
  0
LINE
  5
1D84
330
A34
100
AcDbEntity
  8
0
  6
Continuous
 62
     7
370
    15
100
AcDbLine
 10
2324.721450822941
 20
749.476413615632
 30
0.0
 11
2323.802210934761
 21
748.9457477237269
 31
0.0
  0
LINE
  5
1D85
330
A34
100
AcDbEntity
  8
0
  6
Continuous
 62
     7
370
    15
100
AcDbLine
 10
2322.946418681839
 20
767.7601052336281
 30
0.0
 11
2319.340173638387
 21
765.6782642832738
 31
0.0
  0
LINE
  5
1D86
330
A34
100
AcDbEntity
  8
0
  6
Continuous
 62
     7
370
    15
100
AcDbLine
 10
2300.870514347767
 20
728.9222939345239
 30
0.0
 11
2301.605361773711
 21
728.4980755452684
 31
0.0
  0
LINE
  5
1D87
330
A34
100
AcDbEntity
  8
0
  6
Continuous
 62
     7
370
    15
100
AcDbLine
 10
2303.373128357893
 20
729.5189172222401
 30
0.0
 11
2301.605361773711
 21
728.4980755452684
 31
0.0
  0
LINE
  5
1D88
330
A34
100
AcDbEntity
  8
0
  6
Continuous
 62
     7
370
    15
100
AcDbLine
 10
2311.802930065269
 20
724.6524962812542
 30
0.0
 11
2303.373128357893
 21
729.5189172222401
 31
0.0
  0
LINE
  5
1D89
330
A34
100
AcDbEntity
  8
0
  6
Continuous
 62
     7
370
    15
100
AcDbLine
 10
2314.925617071766
 20
719.243844506203
 30
0.0
 11
2311.802930065269
 21
724.6524962812542
 31
0.0
  0
LWPOLYLINE
  5
1D8A
330
A34
100
AcDbEntity
  8
0
  6
Continuous
 62
     7
370
    15
100
AcDbPolyline
 90
       11
 70
   128
 43
0.0
 10
2318.121244797239
 20
717.8402228295904
 10
2317.945289936512
 20
717.531012563999
 10
2317.695775324972
 20
717.3186679120417
 10
2317.384788547061
 20
717.2134748883064
 10
2317.027395454763
 20
717.2205309584184
 10
2316.640909841734
 20
717.3394928770639
 10
2316.244054786884
 20
717.5645984726037
 10
2315.856055838576
 20
717.8849422297824
 10
2315.495709503431
 20
718.2850069559982
 10
2315.180472808538
 20
718.7454083791601
 10
2314.925617071766
 20
719.243844506203
  0
LINE
  5
1D8B
330
A34
100
AcDbEntity
  8
0
  6
Continuous
 62
     7
370
    15
100
AcDbLine
 10
2318.121244797239
 20
717.8402228295904
 30
0.0
 11
2318.384129344017
 21
718.5225126543728
 31
0.0
  0
ARC
  5
1D8C
330
A34
100
AcDbEntity
  8
0
  6
Continuous
 62
     7
370
    15
100
AcDbCircle
 10
2318.378103534724
 20
718.2747931476728
 30
0.0
 40
0.247792785159926
100
AcDbArc
 50
79.03162881315175
 51
88.60654749173635
  0
ARC
  5
1D8D
330
A34
100
AcDbEntity
  8
0
  6
Continuous
 62
     7
370
    15
100
AcDbCircle
 10
2316.200179693728
 20
709.480541926382
 30
0.0
 40
9.307398159042415
100
AcDbArc
 50
43.8367232350925
 51
76.16865329761338
  0
ARC
  5
1D8E
330
A34
100
AcDbEntity
  8
0
  6
Continuous
 62
     7
370
    15
100
AcDbCircle
 10
2322.401066399883
 20
715.3957183064394
 30
0.0
 40
0.7382452937003849
100
AcDbArc
 50
41.39437192974478
 51
46.01461944118412
  0
LINE
  5
1D8F
330
A34
100
AcDbEntity
  8
0
  6
Continuous
 62
     7
370
    15
100
AcDbLine
 10
2322.954880320222
 20
715.8838742808066
 30
0.0
 11
2323.217764867
 21
714.8980644189204
 31
0.0
  0
LWPOLYLINE
  5
1D90
330
A34
100
AcDbEntity
  8
0
  6
Continuous
 62
     7
370
    15
100
AcDbPolyline
 90
       11
 70
   128
 43
0.0
 10
2326.413392592473
 20
712.6120928589016
 10
2326.1585368557
 20
712.4079069022455
 10
2325.843300160807
 20
712.3114700198036
 10
2325.482953825662
 20
712.3274523163363
 10
2325.094954877355
 20
712.4550826094776
 10
2324.698099822504
 20
712.6881761072267
 10
2324.311614209476
 20
713.0154409791792
 10
2323.954221117177
 20
713.4210221902041
 10
2323.643234339267
 20
713.885272904957
 10
2323.393719727726
 20
714.3857009953705
 10
2323.217764867
 20
714.8980644189204
  0
LINE
  5
1D91
330
A34
100
AcDbEntity
  8
0
  6
Continuous
 62
     7
370
    15
100
AcDbLine
 10
2329.53607959897
 20
714.4153669588732
 30
0.0
 11
2326.413392592473
 21
712.6120928589016
 31
0.0
  0
LINE
  5
1D92
330
A34
100
AcDbEntity
  8
0
  6
Continuous
 62
     7
370
    15
100
AcDbLine
 10
2337.965881306346
 20
709.5489460178872
 30
0.0
 11
2329.53607959897
 21
714.4153669588732
 31
0.0
  0
LINE
  5
1D93
330
A34
100
AcDbEntity
  8
0
  6
Continuous
 62
     7
370
    15
100
AcDbLine
 10
2339.733647890527
 20
706.4870844871486
 30
0.0
 11
2337.965881306346
 21
709.5489460178872
 31
0.0
  0
LINE
  5
1D94
330
A34
100
AcDbEntity
  8
0
  6
Continuous
 62
     7
370
    15
100
AcDbLine
 10
2339.733647890527
 20
706.4870844871486
 30
0.0
 11
2340.468495316472
 21
706.0628660978931
 31
0.0
  0
LINE
  5
1D95
330
A34
100
AcDbEntity
  8
0
  6
Continuous
 62
     7
370
    15
100
AcDbLine
 10
2342.236261900653
 20
707.0837077748649
 30
0.0
 11
2340.468495316472
 21
706.0628660978931
 31
0.0
  0
LINE
  5
1D96
330
A34
100
AcDbEntity
  8
0
  6
Continuous
 62
     7
370
    15
100
AcDbLine
 10
2352.312534196375
 20
701.266799594917
 30
0.0
 11
2342.236261900653
 21
707.0837077748649
 31
0.0
  0
LINE
  5
1D97
330
A34
100
AcDbEntity
  8
0
  6
Continuous
 62
     7
370
    15
100
AcDbLine
 10
2358.499717899554
 20
690.5502830966996
 30
0.0
 11
2352.312534196375
 21
701.266799594917
 31
0.0
  0
LINE
  5
1D98
330
A34
100
AcDbEntity
  8
0
  6
Continuous
 62
     7
370
    15
100
AcDbLine
 10
2358.499717899554
 20
659.4809055110655
 30
0.0
 11
2358.499717899554
 21
690.5502830966996
 31
0.0
  0
ARC
  5
1D99
330
A34
100
AcDbEntity
  8
0
  6
Continuous
 62
     7
370
    15
100
AcDbCircle
 10
2356.766760119497
 20
659.2161930359728
 30
0.0
 40
1.753058858660773
100
AcDbArc
 50
231.325849874759
 51
8.684901879991405
  0
LINE
  5
1D9A
330
A34
100
AcDbEntity
  8
0
  6
Continuous
 62
     7
370
    15
100
AcDbLine
 10
2334.252679415174
 20
670.2122590996544
 30
0.0
 11
2355.671290311192
 21
657.8475582194415
 31
0.0
  0
ARC
  5
1D9B
330
A34
100
AcDbEntity
  8
0
  6
Continuous
 62
     7
370
    15
100
AcDbCircle
 10
2334.643210959349
 20
670.834015210447
 30
0.0
 40
0.734231263501883
100
AcDbArc
 50
206.858385881848
 51
237.8666386075945
  0
ARC
  5
1D9C
330
A34
100
AcDbEntity
  8
0
  6
Continuous
 62
     7
370
    15
100
AcDbCircle
 10
2379.368882246071
 20
694.6531488172179
 30
0.0
 40
51.40691870916234
100
AcDbArc
 50
206.3374396815791
 51
208.0211624262877
  0
ARC
  5
1D9D
330
A34
100
AcDbEntity
  8
0
  6
Continuous
 62
     7
370
    15
100
AcDbCircle
 10
2333.91459714404
 20
672.1654235598788
 30
0.0
 40
0.6942190062722407
100
AcDbArc
 50
181.6053288226728
 51
207.3841577547079
  0
LINE
  5
1D9E
330
A34
100
AcDbEntity
  8
0
  6
Continuous
 62
     7
370
    15
100
AcDbLine
 10
2333.220650609113
 20
676.6871311529631
 30
0.0
 11
2333.220650609113
 21
672.1459752866616
 31
0.0
  0
LINE
  5
1D9F
330
A34
100
AcDbEntity
  8
0
  6
Continuous
 62
     7
370
    15
100
AcDbLine
 10
2308.118359055126
 20
691.1783756122679
 30
0.0
 11
2333.220650609113
 21
676.6871311529631
 31
0.0
  0
LINE
  5
1DA0
330
A34
100
AcDbEntity
  8
0
  6
Continuous
 62
     7
370
    15
100
AcDbLine
 10
2308.118359055126
 20
686.6372197459663
 30
0.0
 11
2308.118359055126
 21
691.1783756122679
 31
0.0
  0
ARC
  5
1DA1
330
A34
100
AcDbEntity
  8
0
  6
Continuous
 62
     7
370
    15
100
AcDbCircle
 10
2307.8469717244
 20
686.6177651920422
 30
0.0
 40
0.2720837425265282
100
AcDbArc
 50
315.4414109695691
 51
4.100266369993245
  0
ARC
  5
1DA2
330
A34
100
AcDbEntity
  8
0
  6
Continuous
 62
     7
370
    15
100
AcDbCircle
 10
2301.371053727109
 20
694.1296374764121
 30
0.0
 40
10.18915222931309
100
AcDbArc
 50
305.9356511121797
 51
310.8890864418039
  0
ARC
  5
1DA3
330
A34
100
AcDbEntity
  8
0
  6
Continuous
 62
     7
370
    15
100
AcDbCircle
 10
2307.230313469323
 20
686.089742429768
 30
0.0
 40
0.242142395480053
100
AcDbArc
 50
233.514302683065
 51
299.8473197583184
  0
LINE
  5
1DA4
330
A34
100
AcDbEntity
  8
0
  6
Continuous
 62
     7
370
    15
100
AcDbLine
 10
2285.667719353046
 20
698.2597595356879
 30
0.0
 11
2307.086330249064
 21
685.895058655475
 31
0.0
  0
ARC
  5
1DA5
330
A34
100
AcDbEntity
  8
0
  6
Continuous
 62
     7
370
    15
100
AcDbCircle
 10
2288.954189155494
 20
703.4231906206389
 30
0.0
 40
6.120613068267097
100
AcDbArc
 50
182.4763260526792
 51
237.5236740929439
  0
LINE
  5
1DA6
330
A34
100
AcDbEntity
  8
0
  6
Continuous
 62
     7
370
    15
100
AcDbLine
 10
2282.839291764684
 20
734.2281173955158
 30
0.0
 11
2282.839291764684
 21
703.1587398098817
 31
0.0
  0
LINE
  5
1DA7
330
A34
100
AcDbEntity
  8
0
  6
Continuous
 62
     7
370
    15
100
AcDbLine
 10
2289.026475467864
 20
737.8010636452103
 30
0.0
 11
2282.839291764684
 21
734.2281173955158
 31
0.0
  0
LINE
  5
1DA8
330
A34
100
AcDbEntity
  8
0
  6
Continuous
 62
     7
370
    15
100
AcDbLine
 10
2299.102747763585
 20
731.9841554652624
 30
0.0
 11
2289.026475467864
 21
737.8010636452103
 31
0.0
  0
LINE
  5
1DA9
330
A34
100
AcDbEntity
  8
0
  6
Continuous
 62
     7
370
    15
100
AcDbLine
 10
2300.870514347767
 20
728.9222939345239
 30
0.0
 11
2299.102747763585
 21
731.9841554652624
 31
0.0
  0
LINE
  5
1DAA
330
A34
100
AcDbEntity
  8
0
  6
Continuous
 62
     7
370
    15
100
AcDbLine
 10
2361.186724371915
 20
692.1014589154881
 30
0.0
 11
2358.499717899554
 21
690.5502830966996
 31
0.0
  0
LINE
  5
1DAB
330
A34
100
AcDbEntity
  8
0
  6
Continuous
 62
     7
370
    15
100
AcDbLine
 10
2354.999540668736
 20
702.8179754137055
 30
0.0
 11
2352.312534196375
 21
701.266799594917
 31
0.0
  0
LINE
  5
1DAC
330
A34
100
AcDbEntity
  8
0
  6
Continuous
 62
     7
370
    15
100
AcDbLine
 10
2354.999540668736
 20
702.8179754137055
 30
0.0
 11
2361.186724371915
 21
692.1014589154881
 31
0.0
  0
LINE
  5
1DAD
330
A34
100
AcDbEntity
  8
0
  6
Continuous
 62
     7
370
    15
100
AcDbLine
 10
2320.221116364613
 20
775.4569089891369
 30
0.0
 11
2311.382280809528
 21
770.3543578340413
 31
0.0
  0
LWPOLYLINE
  5
1DAE
330
A34
100
AcDbEntity
  8
0
  6
Continuous
 62
     7
370
    15
100
AcDbPolyline
 90
        9
 70
   128
 43
0.0
 10
2311.382280809528
 20
770.3543578340413
 10
2311.194508696878
 20
770.2318958523191
 10
2311.052252546441
 20
770.1081316949958
 10
2310.960983545991
 20
769.9878112497298
 10
2310.924206469398
 20
769.8755639813062
 10
2310.943335870266
 20
769.7757082926839
 10
2311.017634178746
 20
769.692069812801
 10
2311.144251214207
 20
769.6278719294655
 10
2311.318315064379
 20
769.5855844946863
  0
LINE
  5
1DAF
330
A34
100
AcDbEntity
  8
0
  6
Continuous
 62
     7
370
    15
100
AcDbLine
 10
2311.318315064379
 20
769.5855844946863
 30
0.0
 11
2322.946418681839
 21
767.7601052336281
 31
0.0
  0
LINE
  5
1DB0
330
A34
100
AcDbEntity
  8
0
  6
Continuous
 62
     7
370
    15
100
AcDbLine
 10
2304.721986878012
 20
767.973152994253
 30
0.0
 11
2308.505008975009
 21
770.1570451653974
 31
0.0
  0
LINE
  5
1DB1
330
A34
100
AcDbEntity
  8
0
  6
Continuous
 62
     7
370
    15
100
AcDbLine
 10
2308.505008975009
 20
770.1570451653974
 30
0.0
 11
2309.835195124149
 21
769.9482191132162
 31
0.0
  0
LINE
  5
1DB2
330
A34
100
AcDbEntity
  8
0
  6
Continuous
 62
     7
370
    15
100
AcDbLine
 10
2309.835195124149
 20
769.9482191132162
 30
0.0
 11
2320.441796604871
 21
776.0712798150255
 31
0.0
  0
LINE
  5
1DB3
330
A34
100
AcDbEntity
  8
0
  6
Continuous
 62
     7
370
    15
100
AcDbLine
 10
2319.767294904916
 20
776.6586244427265
 30
0.0
 11
2322.894631770707
 21
778.4639975868994
 31
0.0
  0
LINE
  5
1DB4
330
A34
100
AcDbEntity
  8
0
  6
Continuous
 62
     7
370
    15
100
AcDbLine
 10
2322.894631770707
 20
778.4639975868994
 30
0.0
 11
2337.512818531081
 21
776.1691088759203
 31
0.0
  0
LINE
  5
1DB5
330
A34
100
AcDbEntity
  8
0
  6
Continuous
 62
     7
370
    15
100
AcDbLine
 10
2333.906573940378
 20
774.0872681869327
 30
0.0
 11
2337.512818531081
 21
776.1691088759203
 31
0.0
  0
LINE
  5
1DB6
330
A34
100
AcDbEntity
  8
0
  6
Continuous
 62
     7
370
    15
100
AcDbLine
 10
2333.906573940378
 20
774.0872681869327
 30
0.0
 11
2322.278470322918
 21
775.912747447991
 31
0.0
  0
ARC
  5
1DB7
330
A34
100
AcDbEntity
  8
0
  6
Continuous
 62
     7
370
    15
100
AcDbCircle
 10
2321.998357949419
 20
772.3063016274573
 30
0.0
 40
3.617307617307753
100
AcDbArc
 50
85.55875759841896
 51
119.4271238378959
  0
LINE
  5
1DB8
330
A34
100
AcDbEntity
  8
0
  6
Continuous
 62
     7
370
    15
100
AcDbLine
 10
2361.186724371915
 20
664.5748680522157
 30
0.0
 11
2374.904595673
 21
672.4940265903025
 31
0.0
  0
LINE
  5
1DB9
330
A34
100
AcDbEntity
  8
0
  6
Continuous
 62
     7
370
    15
100
AcDbLine
 10
2374.904595673
 20
672.4940265903025
 30
0.0
 11
2374.904595673
 21
700.020617453575
 31
0.0
  0
LINE
  5
1DBA
330
A34
100
AcDbEntity
  8
0
  6
Continuous
 62
     7
370
    15
100
AcDbLine
 10
2374.904595673
 20
700.020617453575
 30
0.0
 11
2377.591601486817
 21
701.5717928921938
 31
0.0
  0
LINE
  5
1DBB
330
A34
100
AcDbEntity
  8
0
  6
Continuous
 62
     7
370
    15
100
AcDbLine
 10
2377.591601486817
 20
701.5717928921938
 30
0.0
 11
2377.591601486817
 21
670.5024153065598
 31
0.0
  0
LINE
  5
1DBC
330
A34
100
AcDbEntity
  8
0
  6
Continuous
 62
     7
370
    15
100
AcDbLine
 10
2377.591601486817
 20
670.5024153065598
 30
0.0
 11
2358.499717899554
 21
659.4809055110655
 31
0.0
  0
LINE
  5
1DBD
330
A34
100
AcDbEntity
  8
0
  6
Continuous
 62
     7
370
    15
100
AcDbLine
 10
2361.186724371915
 20
692.1014589154881
 30
0.0
 11
2361.186724371915
 21
664.5748680522157
 31
0.0
  0
LINE
  5
1DBE
330
A34
100
AcDbEntity
  8
0
  6
Continuous
 62
     7
370
    15
100
AcDbLine
 10
2352.096320863513
 20
701.9583920609884
 30
0.0
 11
2354.292432454557
 21
703.2261802968661
 31
0.0
  0
LINE
  5
1DBF
330
A34
100
AcDbEntity
  8
0
  6
Continuous
 62
     7
370
    15
100
AcDbLine
 10
2342.727156781972
 20
707.3670953577758
 30
0.0
 11
2342.236261900653
 21
707.0837077748649
 31
0.0
  0
LINE
  5
1DC0
330
A34
100
AcDbEntity
  8
0
  6
Continuous
 62
     7
370
    15
100
AcDbLine
 10
2342.727156781972
 20
707.3670953577758
 30
0.0
 11
2352.096320863513
 21
701.9583920609884
 31
0.0
  0
LINE
  5
1DC1
330
A34
100
AcDbEntity
  8
0
  6
Continuous
 62
     7
370
    15
100
AcDbLine
 10
2354.999540668736
 20
702.8179754137055
 30
0.0
 11
2354.292432454557
 21
703.2261802968661
 31
0.0
  0
LINE
  5
1DC2
330
A34
100
AcDbEntity
  8
0
  6
Continuous
 62
     7
370
    15
100
AcDbLine
 10
2340.698214080102
 20
707.0439166958837
 30
0.0
 11
2339.733647890527
 21
706.4870844871486
 31
0.0
  0
LINE
  5
1DC3
330
A34
100
AcDbEntity
  8
0
  6
Continuous
 62
     7
370
    15
100
AcDbLine
 10
2341.811779915876
 20
706.838580223612
 30
0.0
 11
2340.042020576014
 21
707.8602405438632
 31
0.0
  0
LINE
  5
1DC4
330
A34
100
AcDbEntity
  8
0
  6
Continuous
 62
     7
370
    15
100
AcDbLine
 10
2341.974855827455
 20
759.4365923163735
 30
0.0
 11
2341.055617050569
 21
758.9059270660047
 31
0.0
  0
LINE
  5
1DC5
330
A34
100
AcDbEntity
  8
0
  6
Continuous
 62
     7
370
    15
100
AcDbLine
 10
2336.835424462487
 20
774.7315347574028
 30
0.0
 11
2341.055617050569
 21
758.9059270660047
 31
0.0
  0
LINE
  5
1DC6
330
A34
100
AcDbEntity
  8
0
  6
Continuous
 62
     7
370
    15
100
AcDbLine
 10
2334.148418648671
 20
773.1803593187841
 30
0.0
 11
2333.906573940378
 21
774.0872681869327
 31
0.0
  0
LINE
  5
1DC7
330
A34
100
AcDbEntity
  8
0
  6
Continuous
 62
     7
370
    15
100
AcDbLine
 10
2337.512818531081
 20
776.1691088759203
 30
0.0
 11
2341.974855827455
 21
759.4365923163735
 31
0.0
  0
LINE
  5
1DC8
330
A34
100
AcDbEntity
  8
0
  6
Continuous
 62
     7
370
    15
100
AcDbLine
 10
2336.835424462487
 20
774.7315347574028
 30
0.0
 11
2334.148418648671
 21
773.1803593187841
 31
0.0
  0
LINE
  5
1DC9
330
A34
100
AcDbEntity
  8
0
  6
Continuous
 62
     7
370
    15
100
AcDbLine
 10
2324.692122214006
 20
719.284844661823
 30
0.0
 11
2324.79818870955
 21
719.3460755463649
 31
0.0
  0
LINE
  5
1DCA
330
A34
100
AcDbEntity
  8
0
  6
Continuous
 62
     7
370
    15
100
AcDbLine
 10
2323.87894882137
 20
718.8154096544599
 30
0.0
 11
2324.692122214006
 21
719.284844661823
 31
0.0
  0
LINE
  5
1DCB
330
A34
100
AcDbEntity
  8
0
  6
Continuous
 62
     7
370
    15
100
AcDbLine
 10
2324.79818870955
 20
719.3460755463649
 30
0.0
 11
2316.603522294383
 21
750.0758565376686
 31
0.0
  0
LINE
  5
1DCC
330
A34
100
AcDbEntity
  8
0
  6
Continuous
 62
     7
370
    15
100
AcDbLine
 10
2332.749829152214
 20
760.209836247584
 30
0.0
 11
2341.132354937179
 21
728.7755889967377
 31
0.0
  0
LINE
  5
1DCD
330
A34
100
AcDbEntity
  8
0
  6
Continuous
 62
     7
370
    15
100
AcDbLine
 10
2339.53487742605
 20
729.0263743638984
 30
0.0
 11
2341.132354937179
 21
728.7755889967377
 31
0.0
  0
LINE
  5
1DCE
330
A34
100
AcDbEntity
  8
0
  6
Continuous
 62
     7
370
    15
100
AcDbLine
 10
2339.53487742605
 20
729.0263743638984
 30
0.0
 11
2334.010173034288
 21
735.1906339432998
 31
0.0
  0
LINE
  5
1DCF
330
A34
100
AcDbEntity
  8
0
  6
Continuous
 62
     7
370
    15
100
AcDbLine
 10
2334.010173034288
 20
735.1906339432998
 30
0.0
 11
2325.017942377686
 21
768.9112549064515
 31
0.0
  0
LINE
  5
1DD0
330
A34
100
AcDbEntity
  8
0
  6
Continuous
 62
     7
370
    15
100
AcDbLine
 10
2325.293798769546
 20
769.0705065110762
 30
0.0
 11
2323.763059475945
 21
774.8107367833299
 31
0.0
  0
LINE
  5
1DD1
330
A34
100
AcDbEntity
  8
0
  6
Continuous
 62
     7
370
    15
100
AcDbLine
 10
2341.055617050569
 20
758.9059270660047
 30
0.0
 11
2332.749829152214
 21
760.209836247584
 31
0.0
  0
LINE
  5
1DD2
330
A34
100
AcDbEntity
  8
0
  6
Continuous
 62
     7
370
    15
100
AcDbLine
 10
2322.278470322918
 20
775.912747447991
 30
0.0
 11
2322.520315525119
 21
775.005832211012
 31
0.0
  0
LINE
  5
1DD3
330
A34
100
AcDbEntity
  8
0
  6
Continuous
 62
     7
370
    15
100
AcDbLine
 10
2334.148418648671
 20
773.1803593187841
 30
0.0
 11
2322.520315525119
 21
775.005832211012
 31
0.0
  0
LINE
  5
1DD4
330
A34
100
AcDbEntity
  8
0
  6
Continuous
 62
     7
370
    15
100
AcDbLine
 10
2322.365565468277
 20
728.4683450833833
 30
0.0
 11
2334.010173034288
 21
735.1906339432998
 31
0.0
  0
LINE
  5
1DD5
330
A34
100
AcDbEntity
  8
0
  6
Continuous
 62
     7
370
    15
100
AcDbLine
 10
2368.71741196982
 20
710.7371339517924
 30
0.0
 11
2371.404417783637
 21
712.2883093904115
 31
0.0
  0
LINE
  5
1DD6
330
A34
100
AcDbEntity
  8
0
  6
Continuous
 62
     7
370
    15
100
AcDbLine
 10
2371.404417783637
 20
712.2883093904115
 30
0.0
 11
2377.591601486817
 21
701.5717928921941
 31
0.0
  0
LINE
  5
1DD7
330
A34
100
AcDbEntity
  8
0
  6
Continuous
 62
     7
370
    15
100
AcDbLine
 10
2374.904595673
 20
700.020617453575
 30
0.0
 11
2368.71741196982
 21
710.7371339517924
 31
0.0
  0
LINE
  5
1DD8
330
A34
100
AcDbEntity
  8
0
  6
Continuous
 62
     7
370
    15
100
AcDbLine
 10
2368.010303755641
 20
711.1453388349529
 30
0.0
 11
2368.71741196982
 21
710.7371339517924
 31
0.0
  0
LINE
  5
1DD9
330
A34
100
AcDbEntity
  8
0
  6
Continuous
 62
     7
370
    15
100
AcDbLine
 10
2374.904595673
 20
672.4940265903025
 30
0.0
 11
2371.185212683076
 21
674.6411806869254
 31
0.0
  0
LINE
  5
1DDA
330
A34
100
AcDbEntity
  8
0
  6
Continuous
 62
     7
370
    15
100
AcDbLine
 10
2368.894681614657
 20
673.3188842927196
 30
0.0
 11
2361.186723713371
 21
677.7685936744047
 31
0.0
  0
LINE
  5
1DDB
330
A34
100
AcDbEntity
  8
0
  6
Continuous
 62
     7
370
    15
100
AcDbLine
 10
2359.525023624734
 20
694.9796086237299
 30
0.0
 11
2359.525023624734
 21
702.1625937526177
 31
0.0
  0
LINE
  5
1DDC
330
A34
100
AcDbEntity
  8
0
  6
Continuous
 62
     7
370
    15
100
AcDbLine
 10
2359.525023624734
 20
702.1625937526177
 30
0.0
 11
2368.010303755641
 21
697.2641457994418
 31
0.0
  0
LINE
  5
1DDD
330
A34
100
AcDbEntity
  8
0
  6
Continuous
 62
     7
370
    15
100
AcDbLine
 10
2368.010303755641
 20
697.2641457994418
 30
0.0
 11
2368.010303755641
 21
711.1453388349529
 31
0.0
  0
LINE
  5
1DDE
330
A34
100
AcDbEntity
  8
0
  6
Continuous
 62
     7
370
    15
100
AcDbLine
 10
2338.456776187664
 20
709.832333600798
 30
0.0
 11
2337.965881306346
 21
709.5489460178872
 31
0.0
  0
LINE
  5
1DDF
330
A34
100
AcDbEntity
  8
0
  6
Continuous
 62
     7
370
    15
100
AcDbLine
 10
2338.456776187664
 20
709.832333600798
 30
0.0
 11
2340.698214080102
 21
707.0439166958837
 31
0.0
  0
LINE
  5
1DE0
330
A34
100
AcDbEntity
  8
0
  6
Continuous
 62
     7
370
    15
100
AcDbLine
 10
2325.293798769546
 20
769.0705065110762
 30
0.0
 11
2322.95675206835
 21
767.7213581679056
 31
0.0
  0
LINE
  5
1DE1
330
A34
100
AcDbEntity
  8
0
  6
Continuous
 62
     7
370
    15
100
AcDbLine
 10
2309.337027277285
 20
775.8699853172458
 30
0.0
 11
2309.930673541094
 21
775.7767854565754
 31
0.0
  0
LINE
  5
1DE2
330
A34
100
AcDbEntity
  8
0
  6
Continuous
 62
     7
370
    15
100
AcDbLine
 10
2309.835195124149
 20
769.9482191132162
 30
0.0
 11
2309.930673541094
 21
775.7767854565754
 31
0.0
  0
LINE
  5
1DE3
330
A34
100
AcDbEntity
  8
0
  6
Continuous
 62
     7
370
    15
100
AcDbLine
 10
2309.337027277285
 20
775.8699853172458
 30
0.0
 11
2308.505008975009
 21
770.1570451653974
 31
0.0
  0
LINE
  5
1DE4
330
A34
100
AcDbEntity
  8
0
  6
Continuous
 62
     7
370
    15
100
AcDbLine
 10
2309.930673541094
 20
775.7767854565754
 30
0.0
 11
2316.454791663616
 21
779.5430786809015
 31
0.0
  0
LINE
  5
1DE5
330
A34
100
AcDbEntity
  8
0
  6
Continuous
 62
     7
370
    15
100
AcDbLine
 10
2320.441796604871
 20
776.0712798150255
 30
0.0
 11
2316.454791663616
 21
779.5430786809015
 31
0.0
  0
LINE
  5
1DE6
330
A34
100
AcDbEntity
  8
0
  6
Continuous
 62
     7
370
    15
100
AcDbLine
 10
2359.525023624734
 20
702.1625937526177
 30
0.0
 11
2356.414615839133
 21
700.366993558415
 31
0.0
  0
LINE
  5
1DE7
330
A34
100
AcDbEntity
  8
0
  6
Continuous
 62
     7
370
    15
100
AcDbLine
 10
2351.567944921523
 20
702.2634170254309
 30
0.0
 11
2352.489310591375
 21
702.7953101049736
 31
0.0
  0
LINE
  5
1DE8
330
A34
100
AcDbEntity
  8
0
  6
Continuous
 62
     7
370
    15
100
AcDbLine
 10
2349.533812559659
 20
709.4815725679576
 30
0.0
 11
2368.010304743457
 21
698.8153206678061
 31
0.0
  0
LINE
  5
1DE9
330
A34
100
AcDbEntity
  8
0
  6
Continuous
 62
     7
370
    15
100
AcDbLine
 10
2330.026974480288
 20
714.698754541784
 30
0.0
 11
2329.53607959897
 21
714.4153669588732
 31
0.0
  0
LINE
  5
1DEA
330
A34
100
AcDbEntity
  8
0
  6
Continuous
 62
     7
370
    15
100
AcDbLine
 10
2330.026974480288
 20
714.698754541784
 30
0.0
 11
2338.456776187664
 21
709.832333600798
 31
0.0
  0
LINE
  5
1DEB
330
A34
100
AcDbEntity
  8
0
  6
Continuous
 62
     7
370
    15
100
AcDbLine
 10
2360.837251717891
 20
717.8218306289844
 30
0.0
 11
2361.328145487916
 21
718.1052175703594
 31
0.0
  0
LINE
  5
1DEC
330
A34
100
AcDbEntity
  8
0
  6
Continuous
 62
     7
370
    15
100
AcDbLine
 10
2368.010303755641
 20
711.1453388349529
 30
0.0
 11
2370.206415799433
 21
712.4131273321971
 31
0.0
  0
LINE
  5
1DED
330
A34
100
AcDbEntity
  8
0
  6
Continuous
 62
     7
370
    15
100
AcDbLine
 10
2370.206415799433
 20
712.4131273321971
 30
0.0
 11
2360.837251717891
 21
717.8218306289844
 31
0.0
  0
LINE
  5
1DEE
330
A34
100
AcDbEntity
  8
0
  6
Continuous
 62
     7
370
    15
100
AcDbLine
 10
2361.328145487916
 20
718.1052175703594
 30
0.0
 11
2371.404417783637
 21
712.2883093904115
 31
0.0
  0
LINE
  5
1DEF
330
A34
100
AcDbEntity
  8
0
  6
Continuous
 62
     7
370
    15
100
AcDbLine
 10
2320.462961566814
 20
774.5499998358609
 30
0.0
 11
2320.221116364613
 21
775.4569089891369
 31
0.0
  0
LINE
  5
1DF0
330
A34
100
AcDbEntity
  8
0
  6
Continuous
 62
     7
370
    15
100
AcDbLine
 10
2320.462961566814
 20
774.5499998358609
 30
0.0
 11
2311.746869488393
 21
769.5183069815827
 31
0.0
  0
LINE
  5
1DF1
330
A34
100
AcDbEntity
  8
0
  6
Continuous
 62
     7
370
    15
100
AcDbLine
 10
2316.454791663616
 20
779.5430786809015
 30
0.0
 11
2315.861145399806
 21
779.6362785415721
 31
0.0
  0
LINE
  5
1DF2
330
A34
100
AcDbEntity
  8
0
  6
Continuous
 62
     7
370
    15
100
AcDbLine
 10
2315.861145399806
 20
779.6362785415721
 30
0.0
 11
2309.337027277285
 21
775.8699853172458
 31
0.0
  0
LINE
  5
1DF3
330
A34
100
AcDbEntity
  8
0
  6
Continuous
 62
     7
370
    15
100
AcDbLine
 10
2368.01030507273
 20
711.0926736908655
 30
0.0
 11
2358.595813372704
 21
716.527544064822
 31
0.0
  0
LINE
  5
1DF4
330
A34
100
AcDbEntity
  8
0
  6
Continuous
 62
     7
370
    15
100
AcDbLine
 10
2360.837251717891
 20
717.8218306289844
 30
0.0
 11
2358.595813372704
 21
716.527544064822
 31
0.0
  0
LINE
  5
1DF5
330
A34
100
AcDbEntity
  8
0
  6
Continuous
 62
     7
370
    15
100
AcDbLine
 10
2306.711466958786
 20
759.3189548584373
 30
0.0
 11
2306.987324667734
 21
759.4782041240976
 31
0.0
  0
LINE
  5
1DF6
330
A34
100
AcDbEntity
  8
0
  6
Continuous
 62
     7
370
    15
100
AcDbLine
 10
2344.781846269198
 20
723.2160910627854
 30
0.0
 11
2344.781846269198
 21
720.3442424982235
 31
0.0
  0
LINE
  5
1DF7
330
A34
100
AcDbEntity
  8
0
  6
Continuous
 62
     7
370
    15
100
AcDbLine
 10
2344.781846269198
 20
723.2160910627854
 30
0.0
 11
2345.516693695143
 21
723.6404473580861
 31
0.0
  0
LINE
  5
1DF8
330
A34
100
AcDbEntity
  8
0
  6
Continuous
 62
     7
370
    15
100
AcDbLine
 10
2345.516693695143
 20
723.6404473580861
 30
0.0
 11
2368.010304743457
 21
710.6551620994621
 31
0.0
  0
LINE
  5
1DF9
330
A34
100
AcDbEntity
  8
0
  6
Continuous
 62
     7
370
    15
100
AcDbLine
 10
2358.82553147779
 20
717.5085942826428
 30
0.0
 11
2357.860965946759
 21
716.9517624540775
 31
0.0
  0
LINE
  5
1DFA
330
A34
100
AcDbEntity
  8
0
  6
Continuous
 62
     7
370
    15
100
AcDbLine
 10
2345.89563107102
 20
723.8592032488302
 30
0.0
 11
2345.516693695143
 21
723.6404473580861
 31
0.0
  0
LINE
  5
1DFB
330
A34
100
AcDbEntity
  8
0
  6
Continuous
 62
     7
370
    15
100
AcDbLine
 10
2357.860965946759
 20
716.9517624540775
 30
0.0
 11
2345.89563107102
 21
723.8592032488302
 31
0.0
  0
LINE
  5
1DFC
330
A34
100
AcDbEntity
  8
0
  6
Continuous
 62
     7
370
    15
100
AcDbLine
 10
2359.560255097367
 20
717.084447365282
 30
0.0
 11
2358.82553147779
 21
717.5085942826428
 31
0.0
  0
LWPOLYLINE
  5
1DFD
330
A34
100
AcDbEntity
  8
0
  6
Continuous
 62
     7
370
    15
100
AcDbPolyline
 90
       25
 70
   128
 43
0.0
 10
2346.478902624651
 20
719.7382998419831
 10
2346.851991137481
 20
719.4758592267454
 10
2347.129221253185
 20
719.1764429309535
 10
2347.299938380167
 20
718.8515567891347
 10
2347.35758209804
 20
718.5136878536891
 10
2347.299938380167
 20
718.1758173975651
 10
2347.12922059464
 20
717.8509323962551
 10
2346.851991796026
 20
717.551515340124
 10
2346.478902624651
 20
717.2890751050559
 10
2346.024293545722
 20
717.0736953109091
 10
2345.505632452314
 20
716.9136549122024
 10
2344.942853486682
 20
716.8151012522137
 10
2344.35758193338
 20
716.7818246223764
 10
2343.772311697167
 20
716.8151012522137
 10
2343.209532731535
 20
716.9136549122024
 10
2342.690870979582
 20
717.0736956910789
 10
2342.236261900653
 20
717.2890754852256
 10
2341.863172729279
 20
717.5515157202935
 10
2341.585943930664
 20
717.8509327764248
 10
2341.415226803682
 20
718.1758173975651
 10
2341.357582427265
 20
718.5136874735195
 10
2341.415226803682
 20
718.8515567891347
 10
2341.585943930664
 20
719.1764429309535
 10
2341.863173387823
 20
719.4758588465758
 10
2342.23591814042
 20
719.7381002529157
  0
LWPOLYLINE
  5
1DFE
330
A34
100
AcDbEntity
  8
0
  6
Continuous
 62
     7
370
    15
100
AcDbPolyline
 90
       30
 70
   128
 43
0.0
 10
2346.12534983465
 20
717.9014480196233
 10
2345.704001863186
 20
717.7059279079442
 10
2345.219697695304
 20
717.5672678703143
 10
2344.695082042454
 20
717.4919513199841
 10
2344.154685029015
 20
717.4835005287827
 10
2343.623775666302
 20
717.5423104929787
 10
2343.127179106634
 20
717.6656306851375
 10
2342.688112995183
 20
717.8476962126515
 10
2342.327110749708
 20
718.0799927959871
 10
2342.06104954886
 20
718.3516582278383
 10
2341.902373908205
 20
718.6499906599514
 10
2341.85849969745
 20
718.9610397669348
 10
2341.931479599825
 20
719.2702621587387
 10
2342.117902354778
 20
719.5631977024675
 10
2342.409049491569
 20
719.8261500260573
 10
2342.791307578128
 20
720.0468229222733
 10
2343.246803716509
 20
720.2148985867514
 10
2343.754237943145
 20
720.322518152439
 10
2344.289884875049
 20
720.3646485533091
 10
2344.828696113312
 20
720.3393205105627
 10
2345.34547837924
 20
720.2477186328362
 10
2345.816069016288
 20
720.0941255312632
 10
2346.218461442634
 20
719.8857229907455
 10
2346.533842358774
 20
719.6322555198115
 10
2346.747462343363
 20
719.3455764280509
 10
2346.849335227481
 20
719.0390889767257
 10
2346.834696441613
 20
718.7271244212196
 10
2346.704230213502
 20
718.4242702512618
 10
2346.464037299472
 20
718.1446870260616
 10
2346.12534983465
 20
717.9014480196233
  0
LWPOLYLINE
  5
1DFF
330
A34
100
AcDbEntity
  8
0
  6
Continuous
 62
     7
370
    15
100
AcDbPolyline
 90
       18
 70
   128
 43
0.0
 10
2347.35758209804
 20
709.940010204942
 10
2347.299938380167
 20
709.6021397488178
 10
2347.12922059464
 20
709.2772547475081
 10
2346.851991796026
 20
708.9778376913768
 10
2346.478902624651
 20
708.7153974563087
 10
2346.024293545722
 20
708.5000176621621
 10
2345.505632452314
 20
708.3399772634553
 10
2344.942853486682
 20
708.2414236034666
 10
2344.35758193338
 20
708.2081469736293
 10
2343.772311697167
 20
708.2414236034666
 10
2343.209532731535
 20
708.3399772634553
 10
2342.690870979582
 20
708.5000180423317
 10
2342.236261900653
 20
708.7153978364783
 10
2341.863172729279
 20
708.9778380715464
 10
2341.585943930664
 20
709.2772551276778
 10
2341.415226803682
 20
709.6021397488179
 10
2341.357582427265
 20
709.9400098247724
 10
2341.357582427265
 20
709.9400098247724
  0
LINE
  5
1E00
330
A34
100
AcDbEntity
  8
0
  6
Continuous
 62
     7
370
    15
100
AcDbLine
 10
2342.051593714065
 20
729.3062542471065
 30
0.0
 11
2341.238420938815
 21
728.8368195961524
 31
0.0
  0
LINE
  5
1E01
330
A34
100
AcDbEntity
  8
0
  6
Continuous
 62
     7
370
    15
100
AcDbLine
 10
2341.132354937179
 20
728.7755889967377
 30
0.0
 11
2341.238420938815
 21
728.8368195961524
 31
0.0
  0
LINE
  5
1E02
330
A34
100
AcDbEntity
  8
0
  6
Continuous
 62
     7
370
    15
100
AcDbLine
 10
2333.856927298897
 20
760.0360352384101
 30
0.0
 11
2342.051593714065
 21
729.3062542471065
 31
0.0
  0
ARC
  5
1E03
330
A34
100
AcDbEntity
  8
0
  6
Continuous
 62
     7
370
    15
100
AcDbCircle
 10
2322.240187099491
 20
771.399416790978
 30
0.0
 40
3.617278551162972
100
AcDbArc
 50
85.5584668167256
 51
119.4270916224804
  0
ARC
  5
1E04
330
A34
100
AcDbEntity
  8
0
  6
Continuous
 62
     7
370
    15
100
AcDbCircle
 10
2321.868980933487
 20
715.7163433233437
 30
0.0
 40
1.241457848350874
100
AcDbArc
 50
15.37882594194606
 51
41.7331590830646
  0
LINE
  5
1E05
330
A34
100
AcDbEntity
  8
0
  6
Continuous
 62
     7
370
    15
100
AcDbLine
 10
2318.433871680247
 20
721.4091910724707
 30
0.0
 11
2322.795422657964
 21
716.5427350708689
 31
0.0
  0
LINE
  5
1E06
330
A34
100
AcDbEntity
  8
0
  6
Continuous
 62
     7
370
    15
100
AcDbLine
 10
2321.440888060413
 20
720.9371242054202
 30
0.0
 11
2318.433871680247
 21
721.4091910724707
 31
0.0
  0
LINE
  5
1E07
330
A34
100
AcDbEntity
  8
0
  6
Continuous
 62
     7
370
    15
100
AcDbLine
 10
2325.765302478554
 20
716.1121053364438
 30
0.0
 11
2321.440888060413
 21
720.9371242054202
 31
0.0
  0
LWPOLYLINE
  5
1E08
330
A34
100
AcDbEntity
  8
0
  6
Continuous
 62
     7
370
    15
100
AcDbPolyline
 90
       19
 70
   128
 43
0.0
 10
2325.765302478554
 20
716.1121053364438
 10
2326.094360376309
 20
715.6915643022637
 10
2326.372400172485
 20
715.2236975367967
 10
2326.586240769483
 20
714.7306847947143
 10
2326.725743545332
 20
714.2359015638381
 10
2326.784296713169
 20
713.7628014202538
 10
2326.759122532263
 20
713.3338139562933
 10
2326.651415602349
 20
712.9692778640752
 10
2326.466281618998
 20
712.686474001191
 10
2326.212497992685
 20
712.4988084409827
 10
2325.902095343753
 20
712.4151795380324
 10
2325.54978983705
 20
712.4395527761398
 10
2325.172283149116
 20
712.5707702066818
 10
2324.787472214772
 20
712.8026127324178
 10
2324.413600033977
 20
713.1240895740529
 10
2324.068391661437
 20
713.519958345783
 10
2323.768211928175
 20
713.971453119479
 10
2323.527292474916
 20
714.4571701963675
 10
2323.357054439064
 20
714.9540796492383
  0
LINE
  5
1E09
330
A34
100
AcDbEntity
  8
0
  6
Continuous
 62
     7
370
    15
100
AcDbLine
 10
2323.06598649225
 20
716.0455777102495
 30
0.0
 11
2323.357054439064
 21
714.9540796492383
 31
0.0
  0
LINE
  5
1E0A
330
A34
100
AcDbEntity
  8
0
  6
Continuous
 62
     7
370
    15
100
AcDbLine
 10
2324.692122214006
 20
719.284844661823
 30
0.0
 11
2326.93202866119
 21
716.7856420250479
 31
0.0
  0
LINE
  5
1E0B
330
A34
100
AcDbEntity
  8
0
  6
Continuous
 62
     7
370
    15
100
AcDbLine
 10
2325.765302478554
 20
716.1121053364438
 30
0.0
 11
2326.93202866119
 21
716.7856420250479
 31
0.0
  0
LINE
  5
1E0C
330
A34
100
AcDbEntity
  8
0
  6
Continuous
 62
     7
370
    15
100
AcDbLine
 10
2321.794440850413
 20
721.141225886661
 30
0.0
 11
2321.440888060413
 21
720.9371242054202
 31
0.0
  0
LINE
  5
1E0D
330
A34
100
AcDbEntity
  8
0
  6
Continuous
 62
     7
370
    15
100
AcDbLine
 10
2345.672558997108
 20
707.1069342527819
 30
0.0
 11
2340.764997078657
 21
707.8660547335162
 31
0.0
  0
LINE
  5
1E0E
330
A34
100
AcDbEntity
  8
0
  6
Continuous
 62
     7
370
    15
100
AcDbLine
 10
2345.821989331414
 20
706.5492775458201
 30
0.0
 11
2345.672558997108
 21
707.1069342527819
 31
0.0
  0
LINE
  5
1E0F
330
A34
100
AcDbEntity
  8
0
  6
Continuous
 62
     7
370
    15
100
AcDbLine
 10
2341.028512346437
 20
707.290751311633
 30
0.0
 11
2342.263890476941
 21
707.0996575152158
 31
0.0
  0
LINE
  5
1E10
330
A34
100
AcDbEntity
  8
0
  6
Continuous
 62
     7
370
    15
100
AcDbLine
 10
2343.529555069367
 20
706.9038807890214
 30
0.0
 11
2345.821989331414
 21
706.5492775458201
 31
0.0
  0
LINE
  5
1E11
330
A34
100
AcDbEntity
  8
0
  6
Continuous
 62
     7
370
    15
100
AcDbLine
 10
2340.520661261127
 20
707.5839276765608
 30
0.0
 11
2340.764997078657
 21
707.8660547335162
 31
0.0
  0
LINE
  5
1E12
330
A34
100
AcDbEntity
  8
0
  6
Continuous
 62
     7
370
    15
100
AcDbLine
 10
2345.821989331414
 20
706.5492775458201
 30
0.0
 11
2345.821989331414
 21
705.5804858455707
 31
0.0
  0
LWPOLYLINE
  5
1E13
330
A34
100
AcDbEntity
  8
0
  6
Continuous
 62
     7
370
    15
100
AcDbPolyline
 90
        9
 70
   128
 43
0.0
 10
2328.764401754327
 20
717.5409919612127
 10
2328.707980624334
 20
717.6115118054569
 10
2328.360266819213
 20
717.9828905852617
 10
2327.989091378179
 20
718.2785914100115
 10
2327.611409188133
 20
718.4851077682997
 10
2327.24447181028
 20
718.59300678615
 10
2326.905040190164
 20
718.5973578640973
 10
2326.608618770409
 20
718.4979634058103
 10
2326.596741261663
 20
718.4912367574968
  0
LINE
  5
1E14
330
A34
100
AcDbEntity
  8
0
  6
Continuous
 62
     7
370
    15
100
AcDbLine
 10
2349.265144510376
 20
709.1808897242076
 30
0.0
 11
2345.672558997108
 21
707.1069342527819
 31
0.0
  0
LINE
  5
1E15
330
A34
100
AcDbEntity
  8
0
  6
Continuous
 62
     7
370
    15
100
AcDbLine
 10
2340.764997078657
 20
707.8660547335162
 30
0.0
 11
2339.450019356384
 21
710.699129925337
 31
0.0
  0
LINE
  5
1E16
330
A34
100
AcDbEntity
  8
0
  6
Continuous
 62
     7
370
    15
100
AcDbLine
 10
2339.450019356384
 20
710.699129925337
 30
0.0
 11
2341.357582427265
 21
711.8003426461846
 31
0.0
  0
LINE
  5
1E17
330
A34
100
AcDbEntity
  8
0
  6
Continuous
 62
     7
370
    15
100
AcDbLine
 10
2347.35758209804
 20
712.1056283812387
 30
0.0
 11
2347.950167446647
 21
712.0139652961982
 31
0.0
  0
LINE
  5
1E18
330
A34
100
AcDbEntity
  8
0
  6
Continuous
 62
     7
370
    15
100
AcDbLine
 10
2347.950167446647
 20
712.0139652961982
 30
0.0
 11
2349.265144510376
 21
709.1808897242076
 31
0.0
  0
LINE
  5
1E19
330
A34
100
AcDbEntity
  8
0
  6
Continuous
 62
     7
370
    15
100
AcDbLine
 10
2361.186723054826
 20
668.869175485122
 30
0.0
 11
2371.185212683076
 21
674.6411806869254
 31
0.0
  0
ARC
  5
1E1A
330
A34
100
AcDbEntity
  8
0
  6
Continuous
 62
     7
370
    15
100
AcDbCircle
 10
2325.800713143204
 20
714.5319672150511
 30
0.0
 40
2.266283779909417
100
AcDbArc
 50
329.6741209030384
 51
28.80488203596804
  0
LINE
  5
1E1B
330
A34
100
AcDbEntity
  8
0
  6
Continuous
 62
     7
370
    15
100
AcDbLine
 10
2327.786579722351
 20
716.9765075587289
 30
0.0
 11
2327.786579722351
 21
715.6239269674724
 31
0.0
  0
LINE
  5
1E1C
330
A34
100
AcDbEntity
  8
0
  6
Continuous
 62
     7
370
    15
100
AcDbLine
 10
2328.376968825025
 20
716.6356831844062
 30
0.0
 11
2327.786579722351
 21
716.9765075587289
 31
0.0
  0
LINE
  5
1E1D
330
A34
100
AcDbEntity
  8
0
  6
Continuous
 62
     7
370
    15
100
AcDbLine
 10
2328.376968825025
 20
713.7460093696748
 30
0.0
 11
2328.376968825025
 21
716.6356831844062
 31
0.0
  0
LINE
  5
1E1E
330
A34
100
AcDbEntity
  8
0
  6
Continuous
 62
     7
370
    15
100
AcDbLine
 10
2344.781846269198
 20
726.1060173511967
 30
0.0
 11
2328.376968825025
 21
716.6356831844062
 31
0.0
  0
LINE
  5
1E1F
330
A34
100
AcDbEntity
  8
0
  6
Continuous
 62
     7
370
    15
100
AcDbLine
 10
2344.781846269198
 20
726.1060173511967
 30
0.0
 11
2344.781846269198
 21
723.2160910627854
 31
0.0
  0
LINE
  5
1E20
330
A34
100
AcDbEntity
  8
0
  6
Continuous
 62
     7
370
    15
100
AcDbLine
 10
2338.892342135055
 20
710.4579670797599
 30
0.0
 11
2338.132685361862
 21
710.0194265591926
 31
0.0
  0
LINE
  5
1E21
330
A34
100
AcDbEntity
  8
0
  6
Continuous
 62
     7
370
    15
100
AcDbLine
 10
2329.377570570076
 20
717.8949670251616
 30
0.0
 11
2327.786579722351
 21
716.9765075587289
 31
0.0
  0
LINE
  5
1E22
330
A34
100
AcDbEntity
  8
0
  6
Continuous
 62
     7
370
    15
100
AcDbLine
 10
2326.315708545334
 20
719.6625423481466
 30
0.0
 11
2329.377570570076
 21
717.8949670251616
 31
0.0
  0
LINE
  5
1E23
330
A34
100
AcDbEntity
  8
0
  6
Continuous
 62
     7
370
    15
100
AcDbLine
 10
2326.315708545334
 20
719.6625423481466
 30
0.0
 11
2325.022637964664
 21
718.9160685910662
 31
0.0
  0
LINE
  5
1E24
330
A34
100
AcDbEntity
  8
0
  6
Continuous
 62
     7
370
    15
100
AcDbLine
 10
2340.04780868833
 20
728.8389190751827
 30
0.0
 11
2324.638866542825
 21
719.9435261183459
 31
0.0
  0
LINE
  5
1E25
330
A34
100
AcDbEntity
  8
0
  6
Continuous
 62
     7
370
    15
100
AcDbLine
 10
2340.04780868833
 20
728.8389190751827
 30
0.0
 11
2341.129595141782
 21
728.2144170485045
 31
0.0
  0
LINE
  5
1E26
330
A34
100
AcDbEntity
  8
0
  6
Continuous
 62
     7
370
    15
100
AcDbLine
 10
2341.129595141782
 20
728.2144170485045
 30
0.0
 11
2339.538604952601
 21
727.2959579622416
 31
0.0
  0
LINE
  5
1E27
330
A34
100
AcDbEntity
  8
0
  6
Continuous
 62
     7
370
    15
100
AcDbLine
 10
2339.538604952601
 20
727.2959579622416
 30
0.0
 11
2342.600466977343
 21
725.5283826392565
 31
0.0
  0
LINE
  5
1E28
330
A34
100
AcDbEntity
  8
0
  6
Continuous
 62
     7
370
    15
100
AcDbLine
 10
2342.600466977343
 20
725.5283826392565
 30
0.0
 11
2344.191457166524
 21
726.4468417255194
 31
0.0
  0
LINE
  5
1E29
330
A34
100
AcDbEntity
  8
0
  6
Continuous
 62
     7
370
    15
100
AcDbLine
 10
2344.191457166524
 20
726.4468417255194
 30
0.0
 11
2344.781846269198
 21
726.1060173511967
 31
0.0
  0
ARC
  5
1E2A
330
A34
100
AcDbEntity
  8
0
  6
Continuous
 62
     7
370
    15
100
AcDbCircle
 10
2375.591690769686
 20
670.3041234673088
 30
0.0
 40
2.009717027346618
100
AcDbArc
 50
305.649700294555
 51
5.662389492333429
  0
LINE
  5
1E2B
330
A34
100
AcDbEntity
  8
0
  6
Continuous
 62
     7
370
    15
100
AcDbLine
 10
2345.821989331414
 20
706.5492775458201
 30
0.0
 11
2349.822823048794
 21
708.8589096889602
 31
0.0
  0
LINE
  5
1E2C
330
A34
100
AcDbEntity
  8
0
  6
Continuous
 62
     7
370
    15
100
AcDbLine
 10
2349.822823048794
 20
708.8589096889602
 30
0.0
 11
2349.265144510376
 21
709.1808897242076
 31
0.0
  0
ARC
  5
1E2D
330
A34
100
AcDbEntity
  8
0
  6
Continuous
 62
     7
370
    15
100
AcDbCircle
 10
2348.224153367258
 20
705.69226207331
 30
0.0
 40
2.366855093153302
100
AcDbArc
 50
313.3902736090658
 51
45.58651597291635
  0
LINE
  5
1E2E
330
A34
100
AcDbEntity
  8
0
  6
Continuous
 62
     7
370
    15
100
AcDbLine
 10
2349.822823048794
 20
708.8589096889602
 30
0.0
 11
2349.822823048794
 21
705.2476356786168
 31
0.0
  0
LINE
  5
1E2F
330
A34
100
AcDbEntity
  8
0
  6
Continuous
 62
     7
370
    15
100
AcDbLine
 10
2348.110694255913
 20
704.2592447649792
 30
0.0
 11
2349.822823048794
 21
705.2476356786168
 31
0.0
  0
ARC
  5
1E30
330
A34
100
AcDbEntity
  8
0
  6
Continuous
 62
     7
370
    15
100
AcDbCircle
 10
2348.130943663374
 20
704.8676129520063
 30
0.0
 40
2.477680079470033
100
AcDbArc
 50
317.4853528051085
 51
358.339163214551
  0
LINE
  5
1E31
330
A34
100
AcDbEntity
  8
0
  6
Continuous
 62
     7
370
    15
100
AcDbLine
 10
2352.489310591375
 20
706.0612077272501
 30
0.0
 11
2352.489310591375
 21
704.4283912359652
 31
0.0
  0
LINE
  5
1E32
330
A34
100
AcDbEntity
  8
0
  6
Continuous
 62
     7
370
    15
100
AcDbLine
 10
2352.489310591375
 20
704.4283912359652
 30
0.0
 11
2350.153502612398
 21
703.0799564712321
 31
0.0
  0
LINE
  5
1E33
330
A34
100
AcDbEntity
  8
0
  6
Continuous
 62
     7
370
    15
100
AcDbLine
 10
2349.822821731704
 20
707.6005389803508
 30
0.0
 11
2352.489310591375
 21
706.0612077272501
 31
0.0
  0
LINE
  5
1E34
330
A34
100
AcDbEntity
  8
0
  6
Continuous
 62
     7
370
    15
100
AcDbLine
 10
2326.315708545334
 20
719.6625423481466
 30
0.0
 11
2326.315708545334
 21
718.3289991849085
 31
0.0
  0
LINE
  5
1E35
330
A34
100
AcDbEntity
  8
0
  6
Continuous
 62
     7
370
    15
100
AcDbLine
 10
2338.892342793601
 20
710.5496773411966
 30
0.0
 11
2340.176750879813
 21
707.7824627399435
 31
0.0
  0
LINE
  5
1E36
330
A34
100
AcDbEntity
  8
0
  6
Continuous
 62
     7
370
    15
100
AcDbLine
 10
2338.892342793601
 20
710.5496773411966
 30
0.0
 11
2339.450019356384
 21
710.699129925337
 31
0.0
  0
LINE
  5
1E37
330
A34
100
AcDbEntity
  8
0
  6
Continuous
 62
     7
370
    15
100
AcDbLine
 10
2338.892342793601
 20
710.5496773411966
 30
0.0
 11
2338.892342793601
 21
709.2904747488138
 31
0.0
  0
LINE
  5
1E38
330
A34
100
AcDbEntity
  8
0
  6
Continuous
 62
     7
370
    15
100
AcDbLine
 10
2324.527118619174
 20
720.3625796187457
 30
0.0
 11
2339.53487742605
 21
729.0263743638984
 31
0.0
  0
LINE
  5
1E39
330
A34
100
AcDbEntity
  8
0
  6
Continuous
 62
     7
370
    15
100
AcDbLine
 10
2352.489310591375
 20
702.7953101049736
 30
0.0
 11
2352.489310591375
 21
704.4283912359652
 31
0.0
  0
LINE
  5
1E3A
330
A34
100
AcDbEntity
  8
0
  6
Continuous
 62
     7
370
    15
100
AcDbLine
 10
2318.433871680247
 20
721.4091910724707
 30
0.0
 11
2318.787424470247
 21
721.6132927537117
 31
0.0
  0
LINE
  5
1E3B
330
A34
100
AcDbEntity
  8
0
  6
Continuous
 62
     7
370
    15
100
AcDbLine
 10
2356.566871123584
 20
720.2870688720068
 30
0.0
 11
2348.137069416207
 21
725.1534898129927
 31
0.0
  0
LINE
  5
1E3C
330
A34
100
AcDbEntity
  8
0
  6
Continuous
 62
     7
370
    15
100
AcDbLine
 10
2357.860965946759
 20
716.9517624540775
 30
0.0
 11
2356.566871123584
 21
720.2870688720068
 31
0.0
  0
LINE
  5
1E3D
330
A34
100
AcDbEntity
  8
0
  6
Continuous
 62
     7
370
    15
100
AcDbLine
 10
2348.137069416207
 20
725.1534898129927
 30
0.0
 11
2345.89563107102
 21
723.8592032488302
 31
0.0
  0
LINE
  5
1E3E
330
A34
100
AcDbEntity
  8
0
  6
Continuous
 62
     7
370
    15
100
AcDbLine
 10
2356.566871123584
 20
720.2870688720068
 30
0.0
 11
2357.057764893609
 21
720.5704558133816
 31
0.0
  0
LINE
  5
1E3F
330
A34
100
AcDbEntity
  8
0
  6
Continuous
 62
     7
370
    15
100
AcDbLine
 10
2357.057764893609
 20
720.5704558133816
 30
0.0
 11
2358.82553147779
 21
717.5085942826431
 31
0.0
  0
LINE
  5
1E40
330
A34
100
AcDbEntity
  8
0
  6
Continuous
 62
     7
370
    15
100
AcDbLine
 10
2322.954880320222
 20
715.8838742808066
 30
0.0
 11
2323.088531928117
 21
715.961029711745
 31
0.0
  0
ARC
  5
1E41
330
A34
100
AcDbEntity
  8
0
  6
Continuous
 62
     7
370
    15
100
AcDbCircle
 10
2316.246909741037
 20
723.0301687452895
 30
0.0
 40
1.067555644175314
100
AcDbArc
 50
208.8557863709941
 51
238.0451306910086
  0
LINE
  5
1E42
330
A34
100
AcDbEntity
  8
0
  6
Continuous
 62
     7
370
    15
100
AcDbLine
 10
2315.681904731257
 20
722.1243848900932
 30
0.0
 11
2316.532930603666
 21
721.6330981112844
 31
0.0
  0
LWPOLYLINE
  5
1E43
330
A34
100
AcDbEntity
  8
0
  6
Continuous
 62
     7
370
    15
100
AcDbPolyline
 90
       10
 70
   128
 43
0.0
 10
2315.282930809452
 20
718.8699016429093
 10
2315.583110213442
 20
718.4184070592983
 10
2315.928318585982
 20
718.0225382875683
 10
2316.302190766776
 20
717.701061445933
 10
2316.68700170112
 20
717.4692189201971
 10
2317.064508389055
 20
717.3380014896551
 10
2317.416814225029
 20
717.3136280614629
 10
2317.727216544689
 20
717.397257154498
 10
2317.981000500275
 20
717.5849225246214
 10
2318.003261280278
 20
717.6096689352053
  0
ARC
  5
1E44
330
A34
100
AcDbEntity
  8
0
  6
Continuous
 62
     7
370
    15
100
AcDbCircle
 10
2314.570446669949
 20
718.4817224469338
 30
0.0
 40
3.71248054108835
100
AcDbArc
 50
356.2557270478478
 51
58.08787577903411
  0
LINE
  5
1E45
330
A34
100
AcDbEntity
  8
0
  6
Continuous
 62
     7
370
    15
100
AcDbLine
 10
2315.031683567311
 20
719.3050753907449
 30
0.0
 11
2315.282930809452
 21
718.8699016429093
 31
0.0
  0
LINE
  5
1E46
330
A34
100
AcDbEntity
  8
0
  6
Continuous
 62
     7
370
    15
100
AcDbLine
 10
2311.908996560814
 20
724.7137271657962
 30
0.0
 11
2315.031683567311
 21
719.3050753907449
 31
0.0
  0
LINE
  5
1E47
330
A34
100
AcDbEntity
  8
0
  6
Continuous
 62
     7
370
    15
100
AcDbLine
 10
2311.908996560814
 20
728.4089699676607
 30
0.0
 11
2311.908996560814
 21
724.7137271657962
 31
0.0
  0
LINE
  5
1E48
330
A34
100
AcDbEntity
  8
0
  6
Continuous
 62
     7
370
    15
100
AcDbLine
 10
2315.311904792169
 20
722.5149592742935
 30
0.0
 11
2311.908996560814
 21
728.4089699676607
 31
0.0
  0
LINE
  5
1E49
330
A34
100
AcDbEntity
  8
0
  6
Continuous
 62
     7
370
    15
100
AcDbLine
 10
2319.768753581001
 20
719.2936472542153
 30
0.0
 11
2318.425250344821
 21
718.5180593448211
 31
0.0
  0
ARC
  5
1E4A
330
A34
100
AcDbEntity
  8
0
  6
Continuous
 62
     7
370
    15
100
AcDbCircle
 10
2318.630811776271
 20
713.386565337114
 30
0.0
 40
6.015690178715857
100
AcDbArc
 50
72.27727921721913
 51
79.09609883075733
  0
LINE
  5
1E4B
330
A34
100
AcDbEntity
  8
0
  6
Continuous
 62
     7
370
    15
100
AcDbLine
 10
2320.479456954286
 20
719.1268030444669
 30
0.0
 11
2320.462052940029
 21
719.1167559208954
 31
0.0
  0
LINE
  5
1E4C
330
A34
100
AcDbEntity
  8
0
  6
Continuous
 62
     7
370
    15
100
AcDbLine
 10
2349.822823048794
 20
708.8589096889602
 30
0.0
 11
2348.358415650759
 21
712.0139258483034
 31
0.0
  0
LINE
  5
1E4D
330
A34
100
AcDbEntity
  8
0
  6
Continuous
 62
     7
370
    15
100
AcDbLine
 10
2348.358415650759
 20
712.0139258483034
 30
0.0
 11
2347.950167446647
 21
712.0139652961982
 31
0.0
  0
LINE
  5
1E4E
330
A34
100
AcDbEntity
  8
0
  6
Continuous
 62
     7
370
    15
100
AcDbLine
 10
2315.311904792169
 20
722.5149592742935
 30
0.0
 11
2316.478630974805
 21
723.1884959628976
 31
0.0
  0
LINE
  5
1E4F
330
A34
100
AcDbEntity
  8
0
  6
Continuous
 62
     7
370
    15
100
AcDbLine
 10
2312.262549350814
 20
728.6130716489016
 30
0.0
 11
2311.908996560814
 21
728.4089699676607
 31
0.0
  0
LINE
  5
1E50
330
A34
100
AcDbEntity
  8
0
  6
Continuous
 62
     7
370
    15
100
AcDbLine
 10
2312.262549350814
 20
728.6130716489016
 30
0.0
 11
2310.01782663837
 21
732.5010439034218
 31
0.0
  0
LINE
  5
1E51
330
A34
100
AcDbEntity
  8
0
  6
Continuous
 62
     7
370
    15
100
AcDbLine
 10
2310.01782663837
 20
732.5010439034218
 30
0.0
 11
2313.349992043045
 21
734.4246620461772
 31
0.0
  0
LINE
  5
1E52
330
A34
100
AcDbEntity
  8
0
  6
Continuous
 62
     7
370
    15
100
AcDbLine
 10
2314.70206821163
 20
726.2655936829828
 30
0.0
 11
2315.415873823456
 21
726.6776648915075
 31
0.0
  0
LINE
  5
1E53
330
A34
100
AcDbEntity
  8
0
  6
Continuous
 62
     7
370
    15
100
AcDbLine
 10
2316.478630974805
 20
723.1884959628976
 30
0.0
 11
2314.70206821163
 21
726.2655936829828
 31
0.0
  0
LINE
  5
1E54
330
A34
100
AcDbEntity
  8
0
  6
Continuous
 62
     7
370
    15
100
AcDbLine
 10
2348.137069416207
 20
725.1534898129927
 30
0.0
 11
2348.627963186233
 21
725.4368767543675
 31
0.0
  0
LINE
  5
1E55
330
A34
100
AcDbEntity
  8
0
  6
Continuous
 62
     7
370
    15
100
AcDbLine
 10
2348.627963186233
 20
725.4368767543675
 30
0.0
 11
2357.057764893609
 21
720.5704558133816
 31
0.0
  0
LINE
  5
1E56
330
A34
100
AcDbEntity
  8
0
  6
Continuous
 62
     7
370
    15
100
AcDbLine
 10
2341.357583085809
 20
711.9728302692269
 30
0.0
 11
2338.892342793601
 21
710.5496773411966
 31
0.0
  0
ARC
  5
1E57
330
A34
100
AcDbEntity
  8
0
  6
Continuous
 62
     7
370
    15
100
AcDbCircle
 10
2319.721606770904
 20
719.0503810570661
 30
0.0
 40
0.2477927851608422
100
AcDbArc
 50
79.03162881315175
 51
88.60654749173635
  0
LINE
  5
1E58
330
A34
100
AcDbEntity
  8
0
  6
Continuous
 62
     7
370
    15
100
AcDbLine
 10
2319.767557499538
 20
719.4017211812875
 30
0.0
 11
2319.727632580198
 21
719.2981005637669
 31
0.0
  0
LINE
  5
1E59
330
A34
100
AcDbEntity
  8
0
  6
Continuous
 62
     7
370
    15
100
AcDbLine
 10
2319.767557499538
 20
719.4017211812875
 30
0.0
 11
2319.549240940155
 21
719.6195116217427
 31
0.0
  0
ARC
  5
1E5A
330
A34
100
AcDbEntity
  8
0
  6
Continuous
 62
     7
370
    15
100
AcDbCircle
 10
2316.031747615172
 20
719.1338656749024
 30
0.0
 40
3.550860638914039
100
AcDbArc
 50
7.860897164760746
 51
20.52868646049072
  0
LINE
  5
1E5B
330
A34
100
AcDbEntity
  8
0
  6
Continuous
 62
     7
370
    15
100
AcDbLine
 10
2320.462052940029
 20
719.1167559208954
 30
0.0
 11
2320.460915469027
 21
719.1474919181261
 31
0.0
  0
LINE
  5
1E5C
330
A34
100
AcDbEntity
  8
0
  6
Continuous
 62
     7
370
    15
100
AcDbLine
 10
2316.23943641425
 20
723.6425315001869
 30
0.0
 11
2316.720055367065
 21
723.9199869158429
 31
0.0
  0
LINE
  5
1E5D
330
A34
100
AcDbEntity
  8
0
  6
Continuous
 62
     7
370
    15
100
AcDbLine
 10
2316.23943641425
 20
723.6425315001869
 30
0.0
 11
2316.20502351244
 21
723.6623976455384
 31
0.0
  0
LINE
  5
1E5E
330
A34
100
AcDbEntity
  8
0
  6
Continuous
 62
     7
370
    15
100
AcDbLine
 10
2315.927058461065
 20
724.1438482949329
 30
0.0
 11
2316.317439694131
 21
724.3692105838102
 31
0.0
  0
LINE
  5
1E5F
330
A34
100
AcDbEntity
  8
0
  6
Continuous
 62
     7
370
    15
100
AcDbLine
 10
2363.025200197008
 20
672.7885046685627
 30
0.0
 11
2361.186723054826
 21
671.7271744054312
 31
0.0
  0
LWPOLYLINE
  5
1E60
330
A34
100
AcDbEntity
  8
0
  6
Continuous
 62
     7
370
    15
100
AcDbPolyline
 90
       13
 70
   128
 43
0.0
 10
2361.186723713371
 20
675.972495838127
 10
2361.361147458116
 20
675.955302475516
 10
2361.970824670884
 20
675.8485367708675
 10
2362.532706698896
 20
675.6751588802485
 10
2363.025200855553
 20
675.4418307065613
 10
2363.429380900965
 20
675.1575198816498
 10
2363.729712758009
 20
674.8331522912367
 10
2363.914656421997
 20
674.4811931279673
 10
2363.977104551328
 20
674.1151671173075
 10
2363.91465675127
 20
673.7491416769022
 10
2363.729713416554
 20
673.3971819433783
 10
2363.429379913149
 20
673.0728149232198
 10
2363.025200197008
 20
672.7885046685627
  0
LINE
  5
1E61
330
A34
100
AcDbEntity
  8
0
  6
Continuous
 62
     7
370
    15
100
AcDbLine
 10
2348.358415650759
 20
712.0139258483034
 30
0.0
 11
2347.357582756584
 21
712.1687381539515
 31
0.0
  0
LINE
  5
1E62
330
A34
100
AcDbEntity
  8
0
  6
Continuous
 62
     7
370
    15
100
AcDbLine
 10
2315.031683567311
 20
719.3050753907449
 30
0.0
 11
2314.925617071766
 21
719.243844506203
 31
0.0
  0
LINE
  5
1E63
330
A34
100
AcDbEntity
  8
0
  6
Continuous
 62
     7
370
    15
100
AcDbLine
 10
2303.832747643438
 20
729.7842497880231
 30
0.0
 11
2311.908995902269
 21
725.1219309084477
 31
0.0
  0
LINE
  5
1E64
330
A34
100
AcDbEntity
  8
0
  6
Continuous
 62
     7
370
    15
100
AcDbLine
 10
2302.206328418272
 20
728.8451179025162
 30
0.0
 11
2301.188712517312
 21
729.4325750577635
 31
0.0
  0
LINE
  5
1E65
330
A34
100
AcDbEntity
  8
0
  6
Continuous
 62
     7
370
    15
100
AcDbLine
 10
2299.56236704913
 20
732.2494880310452
 30
0.0
 11
2301.188712517312
 21
729.4325750577635
 31
0.0
  0
LINE
  5
1E66
330
A34
100
AcDbEntity
  8
0
  6
Continuous
 62
     7
370
    15
100
AcDbLine
 10
2289.48609475341
 20
738.0663962109931
 30
0.0
 11
2299.56236704913
 21
732.2494880310452
 31
0.0
  0
LINE
  5
1E67
330
A34
100
AcDbEntity
  8
0
  6
Continuous
 62
     7
370
    15
100
AcDbLine
 10
2276.333904623604
 20
733.5741907008463
 30
0.0
 11
2282.839291764684
 21
729.8187106419411
 31
0.0
  0
LINE
  5
1E68
330
A34
100
AcDbEntity
  8
0
  6
Continuous
 62
     7
370
    15
100
AcDbLine
 10
2276.333904623604
 20
751.5380869440678
 30
0.0
 11
2276.333904623604
 21
733.5741907008463
 31
0.0
  0
LINE
  5
1E69
330
A34
100
AcDbEntity
  8
0
  6
Continuous
 62
     7
370
    15
100
AcDbLine
 10
2283.122133996685
 20
747.6193255401698
 30
0.0
 11
2276.333904623604
 21
751.5380869440678
 31
0.0
  0
LINE
  5
1E6A
330
A34
100
AcDbEntity
  8
0
  6
Continuous
 62
     7
370
    15
100
AcDbLine
 10
2283.122133996685
 20
747.6193255401698
 30
0.0
 11
2283.122133996685
 21
748.0275967734963
 31
0.0
  0
LINE
  5
1E6B
330
A34
100
AcDbEntity
  8
0
  6
Continuous
 62
     7
370
    15
100
AcDbLine
 10
2310.01782663837
 20
732.5010439034218
 30
0.0
 11
2283.122133996685
 21
748.0275967734963
 31
0.0
  0
LINE
  5
1E6C
330
A34
100
AcDbEntity
  8
0
  6
Continuous
 62
     7
370
    15
100
AcDbLine
 10
2318.384129344017
 20
718.5225126543728
 30
0.0
 11
2319.727632580198
 21
719.2981005637669
 31
0.0
  0
LINE
  5
1E6D
330
A34
100
AcDbEntity
  8
0
  6
Continuous
 62
     7
370
    15
100
AcDbLine
 10
2317.42734402244
 20
723.1308209364478
 30
0.0
 11
2316.849656926236
 21
722.797329274379
 31
0.0
  0
LINE
  5
1E6E
330
A34
100
AcDbEntity
  8
0
  6
Continuous
 62
     7
370
    15
100
AcDbLine
 10
2316.848630913892
 20
722.7979215786974
 30
0.0
 11
2315.681904731257
 21
722.1243848900932
 31
0.0
  0
LINE
  5
1E6F
330
A34
100
AcDbEntity
  8
0
  6
Continuous
 62
     7
370
    15
100
AcDbLine
 10
2316.848630913892
 20
722.7979215786974
 30
0.0
 11
2316.849656926236
 21
722.797329274379
 31
0.0
  0
ARC
  5
1E70
330
A34
100
AcDbEntity
  8
0
  6
Continuous
 62
     7
370
    15
100
AcDbCircle
 10
2317.413635923672
 20
723.7037054338937
 30
0.0
 40
1.067555644175484
100
AcDbArc
 50
208.8557863709998
 51
238.0451306910051
  0
LINE
  5
1E71
330
A34
100
AcDbEntity
  8
0
  6
Continuous
 62
     7
370
    15
100
AcDbLine
 10
2311.908996560814
 20
724.7137271657962
 30
0.0
 11
2311.802930065269
 21
724.6524962812542
 31
0.0
  0
LINE
  5
1E72
330
A34
100
AcDbEntity
  8
0
  6
Continuous
 62
     7
370
    15
100
AcDbLine
 10
2301.29477888938
 20
758.5184413661428
 30
0.0
 11
2307.949376410901
 21
754.6768239880935
 31
0.0
  0
LINE
  5
1E73
330
A34
100
AcDbEntity
  8
0
  6
Continuous
 62
     7
370
    15
100
AcDbLine
 10
2301.29477888938
 20
758.5184413661428
 30
0.0
 11
2283.122133996685
 21
748.0275967734963
 31
0.0
  0
LINE
  5
1E74
330
A34
100
AcDbEntity
  8
0
  6
Continuous
 62
     7
370
    15
100
AcDbLine
 10
2315.452129332799
 20
724.9664488801805
 30
0.0
 11
2315.816159565921
 21
725.1765990605898
 31
0.0
  0
LINE
  5
1E75
330
A34
100
AcDbEntity
  8
0
  6
Continuous
 62
     7
370
    15
100
AcDbLine
 10
2316.23943641425
 20
723.6027927513442
 30
0.0
 11
2316.23943641425
 21
723.6425315001869
 31
0.0
  0
LINE
  5
1E76
330
A34
100
AcDbEntity
  8
0
  6
Continuous
 62
     7
370
    15
100
AcDbLine
 10
2301.471578456915
 20
729.2692808589106
 30
0.0
 11
2300.870514347767
 21
728.9222939345239
 31
0.0
  0
LINE
  5
1E77
330
A34
100
AcDbEntity
  8
0
  6
Continuous
 62
     7
370
    15
100
AcDbLine
 10
2303.832747643438
 20
729.7842497880231
 30
0.0
 11
2303.373128357893
 21
729.5189172222401
 31
0.0
  0
LWPOLYLINE
  5
1E78
330
A34
100
AcDbEntity
  8
0
  6
Continuous
 62
     7
370
    15
100
AcDbPolyline
 90
       10
 70
   128
 43
0.0
 10
2345.147861499524
 20
723.4272236212732
 10
2345.3460326885
 20
723.5855223008481
 10
2345.531166671851
 20
723.8683261637325
 10
2345.638873601765
 20
724.2328622559506
 10
2345.664047782671
 20
724.6618497199109
 10
2345.605494614833
 20
725.1349498634953
 10
2345.465991838985
 20
725.6297330943716
 10
2345.252151241986
 20
726.1227458364539
 10
2344.97411144581
 20
726.5906126019209
 10
2344.645053548056
 20
727.0111536361009
  0
LWPOLYLINE
  5
1E79
330
A34
100
AcDbEntity
  8
0
  6
Continuous
 62
     7
370
    15
100
AcDbPolyline
 90
        7
 70
   128
 43
0.0
 10
2343.478327386
 20
726.3376169593771
 10
2343.090245461084
 20
726.710369529843
 10
2342.682955768505
 20
726.9872726958712
 10
2342.278249216757
 20
727.1535065100738
 10
2341.897778419993
 20
727.2001803412489
 10
2341.561899318225
 20
727.1247962678188
 10
2341.481338580747
 20
727.0839318891454
  0
LINE
  5
1E7A
330
A34
100
AcDbEntity
  8
0
  6
Continuous
 62
     7
370
    15
100
AcDbLine
 10
2343.478327386
 20
726.3376169593771
 30
0.0
 11
2344.645053548056
 21
727.0111536361009
 31
0.0
  0
LINE
  5
1E7B
330
A34
100
AcDbEntity
  8
0
  6
Continuous
 62
     7
370
    15
100
AcDbLine
 10
2343.478327386
 20
726.3376169593771
 30
0.0
 11
2341.238420938815
 21
728.8368195961524
 31
0.0
  0
LINE
  5
1E7C
330
A34
100
AcDbEntity
  8
0
  6
Continuous
 62
     7
370
    15
100
AcDbLine
 10
2341.824359083216
 20
730.1583784228029
 30
0.0
 11
2344.645053548056
 21
727.0111536361009
 31
0.0
  0
LINE
  5
1E7D
330
A34
100
AcDbEntity
  8
0
  6
Continuous
 62
     7
370
    15
100
AcDbLine
 10
2339.128338926958
 20
728.308121207924
 30
0.0
 11
2338.84272162956
 21
728.626802100114
 31
0.0
  0
LINE
  5
1E7E
330
A34
100
AcDbEntity
  8
0
  6
Continuous
 62
     7
370
    15
100
AcDbLine
 10
2341.129595141782
 20
728.2144170485045
 30
0.0
 11
2341.129595141782
 21
726.8808738852665
 31
0.0
  0
LINE
  5
1E7F
330
A34
100
AcDbEntity
  8
0
  6
Continuous
 62
     7
370
    15
100
AcDbLine
 10
2361.307408909176
 20
671.7968432770645
 30
0.0
 11
2361.186723713371
 21
671.8081371670108
 31
0.0
  0
LWPOLYLINE
  5
1E80
330
A34
100
AcDbEntity
  8
0
  6
Continuous
 62
     7
370
    15
100
AcDbPolyline
 90
        3
 70
   128
 43
0.0
 10
2316.166923419931
 20
724.5371520614095
 10
2316.073311318121
 20
724.5363088451207
 10
2315.692376906023
 20
724.55032760105
  0
LINE
  5
1E81
330
A34
100
AcDbEntity
  8
0
  6
Continuous
 62
     7
370
    15
100
AcDbLine
 10
2299.56236704913
 20
732.2494880310452
 30
0.0
 11
2299.102747763585
 21
731.9841554652624
 31
0.0
  0
LINE
  5
1E82
330
A34
100
AcDbEntity
  8
0
  6
Continuous
 62
     7
370
    15
100
AcDbLine
 10
2289.026475467864
 20
737.8010636452103
 30
0.0
 11
2289.48609475341
 21
738.0663962109931
 31
0.0
  0
LINE
  5
1E83
330
A34
100
AcDbEntity
  8
0
  6
Continuous
 62
     7
370
    15
100
AcDbLine
 10
2278.62263259716
 20
756.941384228399
 30
0.0
 11
2285.146750719682
 21
760.7076774527253
 31
0.0
  0
LINE
  5
1E84
330
A34
100
AcDbEntity
  8
0
  6
Continuous
 62
     7
370
    15
100
AcDbLine
 10
2285.146750719682
 20
760.7076774527253
 30
0.0
 11
2290.723528201323
 21
759.8450398170214
 31
0.0
  0
LINE
  5
1E85
330
A34
100
AcDbEntity
  8
0
  6
Continuous
 62
     7
370
    15
100
AcDbLine
 10
2294.506549516298
 20
762.0289315367143
 30
0.0
 11
2290.723528201323
 21
759.8450398170214
 31
0.0
  0
LINE
  5
1E86
330
A34
100
AcDbEntity
  8
0
  6
Continuous
 62
     7
370
    15
100
AcDbLine
 10
2280.116926720601
 20
753.7219791152121
 30
0.0
 11
2276.333904623604
 21
751.5380869440678
 31
0.0
  0
LINE
  5
1E87
330
A34
100
AcDbEntity
  8
0
  6
Continuous
 62
     7
370
    15
100
AcDbLine
 10
2280.116926720601
 20
753.7219791152121
 30
0.0
 11
2278.62263259716
 21
756.941384228399
 31
0.0
  0
LINE
  5
1E88
330
A34
100
AcDbEntity
  8
0
  6
Continuous
 62
     7
370
    15
100
AcDbLine
 10
2294.506549516298
 20
762.0289315367143
 30
0.0
 11
2300.941169464551
 21
758.3143045086473
 31
0.0
  0
LINE
  5
1E89
330
A34
100
AcDbEntity
  8
0
  6
Continuous
 62
     7
370
    15
100
AcDbLine
 10
2278.62263259716
 20
756.2118691350154
 30
0.0
 11
2279.627147413679
 21
753.4392340373591
 31
0.0
  0
LINE
  5
1E8A
330
A34
100
AcDbEntity
  8
0
  6
Continuous
 62
     7
370
    15
100
AcDbLine
 10
2278.62263259716
 20
756.2118691350154
 30
0.0
 11
2278.62263259716
 21
756.941384228399
 31
0.0
  0
LINE
  5
1E8B
330
A34
100
AcDbEntity
  8
0
  6
Continuous
 62
     8
370
    15
100
AcDbLine
 10
2311.382280809528
 20
770.3543578340413
 30
0.0
 11
2311.599042051419
 21
769.541510263461
 31
0.0
  0
LINE
  5
1E8C
330
A34
100
AcDbEntity
  8
0
  6
Continuous
 62
     8
370
    15
100
AcDbLine
 10
2323.217764867
 20
714.8980644189204
 30
0.0
 11
2323.351416474895
 21
714.9752198498588
 31
0.0
  0
ARC
  5
1E8D
330
A34
100
AcDbEntity
  8
0
  6
Continuous
 62
     8
370
    15
100
AcDbCircle
 10
2347.894260543779
 20
705.8308967435589
 30
0.0
 40
2.458298512396063
100
AcDbArc
 50
299.3608930556901
 51
38.32456461518298
  0
LWPOLYLINE
  5
1E8E
330
A34
100
AcDbEntity
  8
0
  6
Continuous
 62
     8
370
    15
100
AcDbPolyline
 90
        3
 70
   128
 43
0.0
 10
2349.85009798668
 20
703.972289071616
 10
2349.583720684469
 20
703.7151567652337
 10
2349.365192567662
 20
703.5350388468486
  0
LINE
  5
1E8F
330
A34
100
AcDbEntity
  8
0
  6
Continuous
 62
     8
370
    15
100
AcDbLine
 10
2322.913759154782
 20
715.9268983632427
 30
0.0
 11
2323.0731045352
 21
716.0188864933359
 31
0.0
  0
LINE
  5
1E90
330
A34
100
AcDbEntity
  8
0
  6
Continuous
 62
     8
370
    15
100
AcDbLine
 10
2318.007000825267
 20
722.4840607369656
 30
0.0
 11
2316.532930603666
 21
721.6330981112844
 31
0.0
  0
LINE
  5
1E91
330
A34
100
AcDbEntity
  8
0
  6
Continuous
 62
     8
370
    15
100
AcDbLine
 10
2312.051541153744
 20
688.9077974408934
 30
0.0
 11
2308.118359055126
 21
686.6372197459663
 31
0.0
  0
LINE
  5
1E92
330
A34
100
AcDbEntity
  8
0
  6
Continuous
 62
     8
370
    15
100
AcDbLine
 10
2308.040840464002
 20
686.4268608318195
 30
0.0
 11
2312.19497741594
 21
688.824993048493
 31
0.0
  0
LINE
  5
1E93
330
A34
100
AcDbEntity
  8
0
  6
Continuous
 62
     8
370
    15
100
AcDbLine
 10
2312.323861161596
 20
688.7505915006216
 30
0.0
 11
2307.350825431072
 21
685.8797190816278
 31
0.0
  0
ENDBLK
  5
A36
330
A34
100
AcDbEntity
  8
0
100
AcDbBlockEnd
  0
ENDSEC
  0
SECTION
  2
ENTITIES
  0
INSERT
  5
1BC6
330
1F
100
AcDbEntity
  8
0
100
AcDbBlockReference
  2
1
 10
0.0
 20
0.0
 30
0.0
  0
INSERT
  5
1C62
330
1F
100
AcDbEntity
  8
0
100
AcDbBlockReference
  2
2
 10
0.0
 20
0.0
 30
0.0
  0
INSERT
  5
1D6B
330
1F
100
AcDbEntity
  8
0
100
AcDbBlockReference
  2
3
 10
0.0
 20
0.0
 30
0.0
  0
INSERT
  5
1E94
330
1F
100
AcDbEntity
  8
0
100
AcDbBlockReference
  2
4
 10
314.9572786530871
 20
168.4688671255042
 30
0.0
  0
ENDSEC
  0
SECTION
  2
OBJECTS
  0
DICTIONARY
  5
C
330
0
100
AcDbDictionary
281
     1
  3
ACAD_COLOR
350
6B
  3
ACAD_GROUP
350
D
  3
ACAD_LAYOUT
350
1A
  3
ACAD_MATERIAL
350
6A
  3
ACAD_MLEADERSTYLE
350
12D
  3
ACAD_MLINESTYLE
350
17
  3
ACAD_PLOTSETTINGS
350
19
  3
ACAD_PLOTSTYLENAME
350
E
  3
ACAD_SCALELIST
350
10C
  3
ACAD_TABLESTYLE
350
7E
  3
ACAD_VISUALSTYLE
350
EF
  3
ACDB_RECOMPOSE_DATA
350
15D
  3
AcDbVariableDictionary
350
5E
  3
DWGPROPS
350
20DB
  0
DICTIONARY
  5
13C
330
10
100
AcDbDictionary
280
     1
281
     1
  3
ADSK_XREC_LAYER_RECONCILED
360
B66
  0
DICTIONARY
  5
1F8C
330
81F
100
AcDbDictionary
280
     1
281
     1
  0
DICTIONARY
  5
209B
330
92B
100
AcDbDictionary
280
     1
281
     1
  3
ACAD_SORTENTS
360
209F
  0
DICTIONARY
  5
6B
102
{ACAD_REACTORS
330
C
102
}
330
C
100
AcDbDictionary
281
     1
  0
DICTIONARY
  5
D
102
{ACAD_REACTORS
330
C
102
}
330
C
100
AcDbDictionary
281
     1
  0
DICTIONARY
  5
1A
102
{ACAD_REACTORS
330
C
102
}
330
C
100
AcDbDictionary
281
     1
  3
Layout1
350
D3
  3
Layout2
350
D7
  3
Model
350
22
  0
DICTIONARY
  5
6A
102
{ACAD_REACTORS
330
C
102
}
330
C
100
AcDbDictionary
281
     1
  3
ByBlock
350
ED
  3
ByLayer
350
EC
  3
Global
350
EE
  0
DICTIONARY
  5
12D
102
{ACAD_REACTORS
330
C
102
}
330
C
100
AcDbDictionary
281
     1
  3
Annotative
350
13B
  3
Standard
350
12E
  0
DICTIONARY
  5
17
102
{ACAD_REACTORS
330
C
102
}
330
C
100
AcDbDictionary
281
     1
  3
Standard
350
18
  0
DICTIONARY
  5
19
102
{ACAD_REACTORS
330
C
102
}
330
C
100
AcDbDictionary
281
     1
  0
ACDBDICTIONARYWDFLT
  5
E
102
{ACAD_REACTORS
330
C
102
}
330
C
100
AcDbDictionary
281
     1
  3
Normal
350
F
100
AcDbDictionaryWithDefault
340
F
  0
DICTIONARY
  5
10C
102
{ACAD_REACTORS
330
C
102
}
330
C
100
AcDbDictionary
281
     1
  3
A0
350
10D
  3
A1
350
188
  3
A2
350
189
  3
A3
350
18A
  3
A4
350
18B
  3
A5
350
18C
  3
A6
350
18D
  3
A7
350
18E
  3
A8
350
18F
  3
A9
350
190
  3
B0
350
191
  3
B1
350
192
  3
B2
350
193
  3
B3
350
194
  3
B4
350
195
  3
B5
350
196
  3
B6
350
197
  3
B7
350
198
  3
B8
350
199
  3
B9
350
19A
  3
C0
350
19B
  3
C1
350
19C
  3
C2
350
19D
  3
C3
350
19E
  3
C4
350
19F
  3
C5
350
1A0
  3
C6
350
1A1
  3
C7
350
1A2
  3
C8
350
1A3
  3
C9
350
1A4
  3
D0
350
1A5
  3
D1
350
1A6
  3
D2
350
1A7
  0
DICTIONARY
  5
7E
102
{ACAD_REACTORS
330
C
102
}
330
C
100
AcDbDictionary
281
     1
  3
Standard
350
7F
  0
DICTIONARY
  5
EF
102
{ACAD_REACTORS
330
C
102
}
330
C
100
AcDbDictionary
281
     1
  3
2dWireframe
350
F5
  3
3D Hidden
350
F7
  3
3dWireframe
350
F6
  3
Basic
350
F4
  3
Brighten
350
FB
  3
ColorChange
350
FF
  3
Conceptual
350
F8
  3
Dim
350
FA
  3
Facepattern
350
FE
  3
Flat
350
F0
  3
FlatWithEdges
350
F1
  3
Gouraud
350
F2
  3
GouraudWithEdges
350
F3
  3
Linepattern
350
FD
  3
Realistic
350
F9
  3
Thicken
350
FC
  0
XRECORD
  5
15D
102
{ACAD_REACTORS
330
C
102
}
330
C
100
AcDbXrecord
280
     1
 90
        1
330
7F
  0
DICTIONARY
  5
5E
102
{ACAD_REACTORS
330
C
102
}
330
C
100
AcDbDictionary
281
     1
  3
CANNOSCALE
350
146
  3
CMLEADERSTYLE
350
145
  3
CTABLESTYLE
350
84
  3
DIMASSOC
350
5F
  3
HIDETEXT
350
63
  3
INDEXCTL
350
20D7
  3
LIGHTINGUNITS
350
20D5
  3
MSLTSCALE
350
20D4
  3
PSOLHEIGHT
350
20D9
  3
PSOLWIDTH
350
20D8
  3
SORTENTS
350
20D6
  0
XRECORD
  5
20DB
102
{ACAD_REACTORS
330
C
102
}
330
C
100
AcDbXrecord
280
     1
  1
DWGPROPS COOKIE
  2

  3

  4

  6

  7

  8
orhan kara
  9

300
=
301
=
302
=
303
=
304
=
305
=
306
=
307
=
308
=
309
=
 40
0.0060588425925926
 41
2458569.479046215
 42
2458956.428343866
  1

 90
        0
  0
XRECORD
  5
B66
102
{ACAD_REACTORS
330
13C
102
}
330
13C
100
AcDbXrecord
280
     1
290
     1
  0
SORTENTSTABLE
  5
209F
102
{ACAD_REACTORS
330
209B
102
}
330
209B
100
AcDbSortentsTable
330
92B
331
208B
  5
208F
331
2093
  5
2097
331
1FAB
  5
1FAB
331
1FE2
  5
1FE2
331
2021
  5
2021
331
2029
  5
2029
331
1FB3
  5
1FB3
331
1FEA
  5
1FEA
331
2031
  5
2031
331
1FBB
  5
1FBB
331
1FF2
  5
1FF2
331
1FFA
  5
1FFA
331
2039
  5
2039
331
1FC3
  5
1FC3
331
205C
  5
205C
331
2064
  5
2064
331
206C
  5
206C
331
2074
  5
2074
331
1FCB
  5
1FCB
331
2002
  5
2002
331
2041
  5
2041
331
2049
  5
2049
331
1FD3
  5
1FD3
331
200A
  5
200A
331
1F94
  5
1F94
331
2051
  5
2051
331
1F9C
  5
1F9C
331
1FDB
  5
1FDB
331
2012
  5
2012
331
201A
  5
201A
331
1FA4
  5
1FA4
331
207C
  5
207C
331
2084
  5
2084
331
208C
  5
2090
331
2094
  5
2098
331
1FE3
  5
1FE3
331
2022
  5
2022
331
1FAC
  5
1FAC
331
1FEB
  5
1FEB
331
202A
  5
202A
331
1FB4
  5
1FB4
331
1FBC
  5
1FBC
331
1FF3
  5
1FF3
331
2032
  5
2032
331
203A
  5
203A
331
1FC4
  5
1FC4
331
1FFB
  5
1FFB
331
205D
  5
205D
331
2065
  5
2065
331
206D
  5
206D
331
2075
  5
2075
331
2042
  5
2042
331
1FCC
  5
1FCC
331
2003
  5
2003
331
200B
  5
200B
331
204A
  5
204A
331
1F95
  5
1F95
331
1FD4
  5
1FD4
331
2052
  5
2052
331
1FDC
  5
1FDC
331
2013
  5
2013
331
1F9D
  5
1F9D
331
201B
  5
201B
331
1FA5
  5
1FA5
331
207D
  5
207D
331
2085
  5
2085
331
208D
  5
2091
331
2095
  5
2099
331
1FAD
  5
1FAD
331
1FE4
  5
1FE4
331
2023
  5
2023
331
202B
  5
202B
331
1FB5
  5
1FB5
331
1FEC
  5
1FEC
331
1FF4
  5
1FF4
331
2033
  5
2033
331
1FBD
  5
1FBD
331
1FFC
  5
1FFC
331
203B
  5
203B
331
1FC5
  5
1FC5
331
205E
  5
205E
331
2066
  5
2066
331
206E
  5
206E
331
2076
  5
2076
331
1FCD
  5
1FCD
331
2004
  5
2004
331
2043
  5
2043
331
204B
  5
204B
331
1F96
  5
1F96
331
1FD5
  5
1FD5
331
200C
  5
200C
331
2053
  5
2053
331
1F9E
  5
1F9E
331
1FDD
  5
1FDD
331
2014
  5
2014
331
201C
  5
201C
331
1FA6
  5
1FA6
331
207E
  5
207E
331
208E
  5
2092
331
2096
  5
209A
331
1FE5
  5
1FE5
331
2024
  5
2024
331
1FAE
  5
1FAE
331
1FED
  5
1FED
331
202C
  5
202C
331
1FB6
  5
1FB6
331
1FBE
  5
1FBE
331
1FF5
  5
1FF5
331
2034
  5
2034
331
203C
  5
203C
331
1FC6
  5
1FC6
331
1FFD
  5
1FFD
331
209E
  5
2089
331
205F
  5
205F
331
2067
  5
2067
331
206F
  5
206F
331
2077
  5
2077
331
2005
  5
2005
331
2044
  5
2044
331
1FCE
  5
1FCE
331
200D
  5
200D
331
204C
  5
204C
331
1F97
  5
1F97
331
1FD6
  5
1FD6
331
2054
  5
2054
331
1FDE
  5
1FDE
331
2015
  5
2015
331
1F9F
  5
1F9F
331
1FA7
  5
1FA7
331
201D
  5
201D
331
207F
  5
207F
331
208F
  5
2093
331
2097
  5
209E
331
1FAF
  5
1FAF
331
1FE6
  5
1FE6
331
2025
  5
2025
331
202D
  5
202D
331
1FB7
  5
1FB7
331
1FEE
  5
1FEE
331
1FF6
  5
1FF6
331
2035
  5
2035
331
1FBF
  5
1FBF
331
1FFE
  5
1FFE
331
203D
  5
203D
331
1FC7
  5
1FC7
331
2058
  5
2058
331
2060
  5
2060
331
2068
  5
2068
331
2070
  5
2070
331
1FCF
  5
1FCF
331
2006
  5
2006
331
2045
  5
2045
331
204D
  5
204D
331
1F98
  5
1F98
331
1FD7
  5
1FD7
331
200E
  5
200E
331
2016
  5
2016
331
2055
  5
2055
331
1FA0
  5
1FA0
331
1FDF
  5
1FDF
331
201E
  5
201E
331
2078
  5
2078
331
2080
  5
2080
331
2090
  5
2094
331
1FA8
  5
1FA8
331
1FE7
  5
1FE7
331
2026
  5
2026
331
1FB0
  5
1FB0
331
1FB8
  5
1FB8
331
1FEF
  5
1FEF
331
202E
  5
202E
331
1FC0
  5
1FC0
331
1FF7
  5
1FF7
331
2036
  5
2036
331
203E
  5
203E
331
1FFF
  5
1FFF
331
2098
  5
20A0
331
2059
  5
2059
331
20A0
  5
208B
331
2061
  5
2061
331
2069
  5
2069
331
2071
  5
2071
331
1FC8
  5
1FC8
331
2007
  5
2007
331
2046
  5
2046
331
1FD0
  5
1FD0
331
1FD8
  5
1FD8
331
200F
  5
200F
331
1F99
  5
1F99
331
204E
  5
204E
331
2056
  5
2056
331
2017
  5
2017
331
1FA1
  5
1FA1
331
201F
  5
201F
331
2079
  5
2079
331
2081
  5
2081
331
2091
  5
2095
331
1FA9
  5
1FA9
331
1FE0
  5
1FE0
331
2027
  5
2027
331
1FB1
  5
1FB1
331
1FE8
  5
1FE8
331
202F
  5
202F
331
1FB9
  5
1FB9
331
1FF0
  5
1FF0
331
1FF8
  5
1FF8
331
2037
  5
2037
331
1FC1
  5
1FC1
331
203F
  5
203F
331
205A
  5
205A
331
2099
  5
20A1
331
2062
  5
2062
331
20A1
  5
2087
331
206A
  5
206A
331
2072
  5
2072
331
1FC9
  5
1FC9
331
2000
  5
2000
331
1FD1
  5
1FD1
331
2008
  5
2008
331
2047
  5
2047
331
204F
  5
204F
331
1F9A
  5
1F9A
331
1FD9
  5
1FD9
331
2010
  5
2010
331
2018
  5
2018
331
1FA2
  5
1FA2
331
2057
  5
2057
331
207A
  5
207A
331
2082
  5
2082
331
208A
  5
208E
331
2092
  5
2096
331
2020
  5
2020
331
1FAA
  5
1FAA
331
1FE1
  5
1FE1
331
1FE9
  5
1FE9
331
2028
  5
2028
331
1FB2
  5
1FB2
331
1FBA
  5
1FBA
331
1FF1
  5
1FF1
331
2030
  5
2030
331
2038
  5
2038
331
1FC2
  5
1FC2
331
1FF9
  5
1FF9
331
209A
  5
20A2
331
205B
  5
205B
331
2063
  5
2063
331
20A2
  5
208D
331
206B
  5
206B
331
2073
  5
2073
331
2040
  5
2040
331
1FCA
  5
1FCA
331
2001
  5
2001
331
2009
  5
2009
331
2048
  5
2048
331
1F93
  5
1F93
331
1FD2
  5
1FD2
331
1FDA
  5
1FDA
331
2011
  5
2011
331
1F9B
  5
1F9B
331
2050
  5
2050
331
2019
  5
2019
331
1FA3
  5
1FA3
331
207B
  5
207B
331
2083
  5
2083
  0
LAYOUT
  5
D3
102
{ACAD_XDICTIONARY
360
20DF
102
}
102
{ACAD_REACTORS
330
1A
102
}
330
1A
100
AcDbPlotSettings
  1

  2
C:\Documents and Settings\basas\Application Data\Autodesk\AutoCAD 2005\R16.1\enu\plotters\Default Windows System Printer.pc3
  4

  6

 40
0.0
 41
0.0
 42
0.0
 43
0.0
 44
0.0
 45
0.0
 46
0.0
 47
0.0
 48
0.0
 49
0.0
140
0.0
141
0.0
142
1.0
143
1.0
 70
   688
 72
     0
 73
     0
 74
     5
  7

 75
    16
147
1.0
148
0.0
149
0.0
100
AcDbLayout
  1
Layout1
 70
     1
 71
     1
 10
0.0
 20
0.0
 11
12.0
 21
9.0
 12
0.0
 22
0.0
 32
0.0
 14
0.0
 24
0.0
 34
0.0
 15
0.0
 25
0.0
 35
0.0
146
0.0
 13
0.0
 23
0.0
 33
0.0
 16
1.0
 26
0.0
 36
0.0
 17
0.0
 27
1.0
 37
0.0
 76
     0
330
D2
  0
LAYOUT
  5
D7
102
{ACAD_XDICTIONARY
360
20E1
102
}
102
{ACAD_REACTORS
330
1A
102
}
330
1A
100
AcDbPlotSettings
  1

  2
C:\Documents and Settings\basas\Application Data\Autodesk\AutoCAD 2005\R16.1\enu\plotters\Default Windows System Printer.pc3
  4

  6

 40
0.0
 41
0.0
 42
0.0
 43
0.0
 44
0.0
 45
0.0
 46
0.0
 47
0.0
 48
0.0
 49
0.0
140
0.0
141
0.0
142
1.0
143
1.0
 70
   688
 72
     0
 73
     0
 74
     5
  7

 75
    16
147
1.0
148
0.0
149
0.0
100
AcDbLayout
  1
Layout2
 70
     1
 71
     2
 10
0.0
 20
0.0
 11
12.0
 21
9.0
 12
0.0
 22
0.0
 32
0.0
 14
0.0
 24
0.0
 34
0.0
 15
0.0
 25
0.0
 35
0.0
146
0.0
 13
0.0
 23
0.0
 33
0.0
 16
1.0
 26
0.0
 36
0.0
 17
0.0
 27
1.0
 37
0.0
 76
     0
330
D6
  0
LAYOUT
  5
22
102
{ACAD_XDICTIONARY
360
20DC
102
}
102
{ACAD_REACTORS
330
1A
102
}
330
1A
100
AcDbPlotSettings
  1

  2
none_device
  4
ISO_A4_(210.00_x_297.00_MM)
  6

 40
7.5
 41
20.0
 42
7.5
 43
20.0
 44
210.0
 45
297.0
 46
11.54999923706054
 47
-13.65000009536743
 48
0.0
 49
0.0
140
0.0
141
0.0
142
1.0
143
8.704084754739808
 70
 11952
 72
     1
 73
     0
 74
     0
  7

 75
     0
147
0.1148885871608098
148
0.0
149
0.0
100
AcDbLayout
  1
Model
 70
     1
 71
     0
 10
0.0
 20
0.0
 11
12.0
 21
9.0
 12
0.0
 22
0.0
 32
0.0
 14
0.0
 24
0.0
 34
0.0
 15
0.0
 25
0.0
 35
0.0
146
0.0
 13
0.0
 23
0.0
 33
0.0
 16
1.0
 26
0.0
 36
0.0
 17
0.0
 27
1.0
 37
0.0
 76
     0
330
1F
331
EA
1001
ACAD_PSEXT
1000
None
1000
None
1000
Not applicable
1000
The layout will not be plotted unless a new plotter configuration name is selected.
1070
     0
  0
MATERIAL
  5
ED
102
{ACAD_XDICTIONARY
360
20E5
102
}
102
{ACAD_REACTORS
330
6A
102
}
330
6A
100
AcDbMaterial
  1
ByBlock
  0
MATERIAL
  5
EC
102
{ACAD_XDICTIONARY
360
20E3
102
}
102
{ACAD_REACTORS
330
6A
102
}
330
6A
100
AcDbMaterial
  1
ByLayer
  0
MATERIAL
  5
EE
102
{ACAD_XDICTIONARY
360
173
102
}
102
{ACAD_REACTORS
330
6A
102
}
330
6A
100
AcDbMaterial
  1
Global
 43
0.0007999999797903
 43
0.0
 43
0.0
 43
0.0
 43
0.0
 43
0.0007999999797903
 43
0.0
 43
0.0
 43
0.0
 43
0.0
 43
1.0
 43
0.0
 43
0.0
 43
0.0
 43
0.0
 43
1.0
 49
0.0007999999797903
 49
0.0
 49
0.0
 49
0.0
 49
0.0
 49
0.0007999999797903
 49
0.0
 49
0.0
 49
0.0
 49
0.0
 49
1.0
 49
0.0
 49
0.0
 49
0.0
 49
0.0
 49
1.0
142
0.0007999999797903
142
0.0
142
0.0
142
0.0
142
0.0
142
0.0007999999797903
142
0.0
142
0.0
142
0.0
142
0.0
142
1.0
142
0.0
142
0.0
142
0.0
142
0.0
142
1.0
144
0.0007999999797903
144
0.0
144
0.0
144
0.0
144
0.0
144
0.0007999999797903
144
0.0
144
0.0
144
0.0
144
0.0
144
1.0
144
0.0
144
0.0
144
0.0
144
0.0
144
1.0
1001
ACAD
1070
    -1
1070
     3
1070
     0
1000

1071
        0
1070
     0
  0
MLEADERSTYLE
  5
13B
102
{ACAD_REACTORS
330
12D
102
}
330
12D
100
AcDbMLeaderStyle
170
     2
171
     1
172
     0
 90
        2
 40
0.0
 41
0.0
173
     1
 91
-1056964608
340
14
 92
       -2
290
     1
 42
2.0
291
     1
 43
8.0
  3
Standard
 44
4.0
300

342
11
174
     1
178
     1
175
     1
176
     0
 93
-1056964608
 45
4.0
292
     0
297
     0
 46
4.0
 94
-1056964608
 47
1.0
 49
1.0
140
1.0
293
     1
141
0.0
294
     1
177
     0
142
1.0
295
     0
296
     1
143
3.75
1001
ACAD_MLEADERVER
1070
     2
  0
MLEADERSTYLE
  5
12E
102
{ACAD_REACTORS
330
12D
102
}
330
12D
100
AcDbMLeaderStyle
170
     2
171
     1
172
     0
 90
        2
 40
0.0
 41
0.0
173
     1
 91
-1056964608
340
14
 92
       -2
290
     1
 42
2.0
291
     1
 43
8.0
  3
Standard
 44
4.0
300

342
11
174
     1
178
     1
175
     1
176
     0
 93
-1056964608
 45
4.0
292
     0
297
     0
 46
4.0
 94
-1056964608
 47
1.0
 49
1.0
140
1.0
293
     1
141
0.0
294
     1
177
     0
142
1.0
295
     0
296
     0
143
3.75
1001
ACAD_MLEADERVER
1070
     2
  0
MLINESTYLE
  5
18
102
{ACAD_REACTORS
330
17
102
}
330
17
100
AcDbMlineStyle
  2
STANDARD
 70
     0
  3

 62
   256
 51
90.0
 52
90.0
 71
     2
 49
0.5
 62
   256
  6
BYLAYER
 49
-0.5
 62
   256
  6
BYLAYER
  0
ACDBPLACEHOLDER
  5
F
102
{ACAD_REACTORS
330
E
102
}
330
E
  0
SCALE
  5
10D
102
{ACAD_REACTORS
330
10C
102
}
330
10C
100
AcDbScale
 70
     0
300
1:1
140
1.0
141
1.0
290
     1
  0
SCALE
  5
188
102
{ACAD_REACTORS
330
10C
102
}
330
10C
100
AcDbScale
 70
     0
300
1:2
140
1.0
141
2.0
290
     0
  0
SCALE
  5
189
102
{ACAD_REACTORS
330
10C
102
}
330
10C
100
AcDbScale
 70
     0
300
1:4
140
1.0
141
4.0
290
     0
  0
SCALE
  5
18A
102
{ACAD_REACTORS
330
10C
102
}
330
10C
100
AcDbScale
 70
     0
300
1:5
140
1.0
141
5.0
290
     0
  0
SCALE
  5
18B
102
{ACAD_REACTORS
330
10C
102
}
330
10C
100
AcDbScale
 70
     0
300
1:8
140
1.0
141
8.0
290
     0
  0
SCALE
  5
18C
102
{ACAD_REACTORS
330
10C
102
}
330
10C
100
AcDbScale
 70
     0
300
1:10
140
1.0
141
10.0
290
     0
  0
SCALE
  5
18D
102
{ACAD_REACTORS
330
10C
102
}
330
10C
100
AcDbScale
 70
     0
300
1:16
140
1.0
141
16.0
290
     0
  0
SCALE
  5
18E
102
{ACAD_REACTORS
330
10C
102
}
330
10C
100
AcDbScale
 70
     0
300
1:20
140
1.0
141
20.0
290
     0
  0
SCALE
  5
18F
102
{ACAD_REACTORS
330
10C
102
}
330
10C
100
AcDbScale
 70
     0
300
1:30
140
1.0
141
30.0
290
     0
  0
SCALE
  5
190
102
{ACAD_REACTORS
330
10C
102
}
330
10C
100
AcDbScale
 70
     0
300
1:40
140
1.0
141
40.0
290
     0
  0
SCALE
  5
191
102
{ACAD_REACTORS
330
10C
102
}
330
10C
100
AcDbScale
 70
     0
300
1:50
140
1.0
141
50.0
290
     0
  0
SCALE
  5
192
102
{ACAD_REACTORS
330
10C
102
}
330
10C
100
AcDbScale
 70
     0
300
1:100
140
1.0
141
100.0
290
     0
  0
SCALE
  5
193
102
{ACAD_REACTORS
330
10C
102
}
330
10C
100
AcDbScale
 70
     0
300
2:1
140
2.0
141
1.0
290
     0
  0
SCALE
  5
194
102
{ACAD_REACTORS
330
10C
102
}
330
10C
100
AcDbScale
 70
     0
300
4:1
140
4.0
141
1.0
290
     0
  0
SCALE
  5
195
102
{ACAD_REACTORS
330
10C
102
}
330
10C
100
AcDbScale
 70
     0
300
8:1
140
8.0
141
1.0
290
     0
  0
SCALE
  5
196
102
{ACAD_REACTORS
330
10C
102
}
330
10C
100
AcDbScale
 70
     0
300
10:1
140
10.0
141
1.0
290
     0
  0
SCALE
  5
197
102
{ACAD_REACTORS
330
10C
102
}
330
10C
100
AcDbScale
 70
     0
300
100:1
140
100.0
141
1.0
290
     0
  0
SCALE
  5
198
102
{ACAD_REACTORS
330
10C
102
}
330
10C
100
AcDbScale
 70
     0
300
1/128" = 1'-0"
140
0.0078125
141
12.0
290
     0
  0
SCALE
  5
199
102
{ACAD_REACTORS
330
10C
102
}
330
10C
100
AcDbScale
 70
     0
300
1/64" = 1'-0"
140
0.015625
141
12.0
290
     0
  0
SCALE
  5
19A
102
{ACAD_REACTORS
330
10C
102
}
330
10C
100
AcDbScale
 70
     0
300
1/32" = 1'-0"
140
0.03125
141
12.0
290
     0
  0
SCALE
  5
19B
102
{ACAD_REACTORS
330
10C
102
}
330
10C
100
AcDbScale
 70
     0
300
1/16" = 1'-0"
140
0.0625
141
12.0
290
     0
  0
SCALE
  5
19C
102
{ACAD_REACTORS
330
10C
102
}
330
10C
100
AcDbScale
 70
     0
300
3/32" = 1'-0"
140
0.09375
141
12.0
290
     0
  0
SCALE
  5
19D
102
{ACAD_REACTORS
330
10C
102
}
330
10C
100
AcDbScale
 70
     0
300
1/8" = 1'-0"
140
0.125
141
12.0
290
     0
  0
SCALE
  5
19E
102
{ACAD_REACTORS
330
10C
102
}
330
10C
100
AcDbScale
 70
     0
300
3/16" = 1'-0"
140
0.1875
141
12.0
290
     0
  0
SCALE
  5
19F
102
{ACAD_REACTORS
330
10C
102
}
330
10C
100
AcDbScale
 70
     0
300
1/4" = 1'-0"
140
0.25
141
12.0
290
     0
  0
SCALE
  5
1A0
102
{ACAD_REACTORS
330
10C
102
}
330
10C
100
AcDbScale
 70
     0
300
3/8" = 1'-0"
140
0.375
141
12.0
290
     0
  0
SCALE
  5
1A1
102
{ACAD_REACTORS
330
10C
102
}
330
10C
100
AcDbScale
 70
     0
300
1/2" = 1'-0"
140
0.5
141
12.0
290
     0
  0
SCALE
  5
1A2
102
{ACAD_REACTORS
330
10C
102
}
330
10C
100
AcDbScale
 70
     0
300
3/4" = 1'-0"
140
0.75
141
12.0
290
     0
  0
SCALE
  5
1A3
102
{ACAD_REACTORS
330
10C
102
}
330
10C
100
AcDbScale
 70
     0
300
1" = 1'-0"
140
1.0
141
12.0
290
     0
  0
SCALE
  5
1A4
102
{ACAD_REACTORS
330
10C
102
}
330
10C
100
AcDbScale
 70
     0
300
1-1/2" = 1'-0"
140
1.5
141
12.0
290
     0
  0
SCALE
  5
1A5
102
{ACAD_REACTORS
330
10C
102
}
330
10C
100
AcDbScale
 70
     0
300
3" = 1'-0"
140
3.0
141
12.0
290
     0
  0
SCALE
  5
1A6
102
{ACAD_REACTORS
330
10C
102
}
330
10C
100
AcDbScale
 70
     0
300
6" = 1'-0"
140
6.0
141
12.0
290
     0
  0
SCALE
  5
1A7
102
{ACAD_REACTORS
330
10C
102
}
330
10C
100
AcDbScale
 70
     0
300
1'-0" = 1'-0"
140
12.0
141
12.0
290
     0
  0
TABLESTYLE
  5
7F
102
{ACAD_XDICTIONARY
360
162
102
}
102
{ACAD_REACTORS
330
7E
102
}
330
7E
100
AcDbTableStyle
  3
Standard
 70
     0
 71
     0
 40
1.5
 41
1.5
280
     0
281
     0
  7
Standard
140
4.5
170
     2
 62
     0
 63
     7
283
     0
274
    -2
284
     1
 64
     0
275
    -2
285
     1
 65
     0
276
    -2
286
     1
 66
     0
277
    -2
287
     1
 67
     0
278
    -2
288
     1
 68
     0
279
    -2
289
     1
 69
     0
  7
Standard
140
6.0
170
     5
 62
     0
 63
     7
283
     0
274
    -2
284
     1
 64
     0
275
    -2
285
     1
 65
     0
276
    -2
286
     1
 66
     0
277
    -2
287
     1
 67
     0
278
    -2
288
     1
 68
     0
279
    -2
289
     1
 69
     0
  7
Standard
140
4.5
170
     5
 62
     0
 63
     7
283
     0
274
    -2
284
     1
 64
     0
275
    -2
285
     1
 65
     0
276
    -2
286
     1
 66
     0
277
    -2
287
     1
 67
     0
278
    -2
288
     1
 68
     0
279
    -2
289
     1
 69
     0
  0
VISUALSTYLE
  5
F5
102
{ACAD_REACTORS
330
EF
102
}
330
EF
100
AcDbVisualStyle
  2
2dWireframe
 70
     4
 71
     0
 72
     2
 73
     1
 90
        0
 40
-0.6
 41
-30.0
 62
     5
 63
     7
 74
     1
 91
        4
 64
     7
 65
   257
 75
     1
175
     1
 42
1.0
 92
        0
 66
   257
 43
1.0
 76
     1
 77
     6
 78
     2
 67
     7
 79
     5
170
     0
171
     0
290
     0
174
     0
 93
        1
 44
0.0
173
     0
291
     0
 45
0.0
1001
ACAD
1000
AcDbSavedByObjectVersion
1070
     0
  0
VISUALSTYLE
  5
F7
102
{ACAD_REACTORS
330
EF
102
}
330
EF
100
AcDbVisualStyle
  2
3D Hidden
 70
     6
 71
     1
 72
     2
 73
     2
 90
        0
 40
-0.6
 41
-30.0
 62
     5
 63
     7
 74
     2
 91
        2
 64
     7
 65
   257
 75
     2
175
     1
 42
40.0
 92
        0
 66
   257
 43
1.0
 76
     1
 77
     6
 78
     2
 67
     7
 79
     3
170
     0
171
     0
290
     0
174
     0
 93
        1
 44
0.0
173
     0
291
     0
 45
0.0
1001
ACAD
1000
AcDbSavedByObjectVersion
1070
     0
  0
VISUALSTYLE
  5
F6
102
{ACAD_REACTORS
330
EF
102
}
330
EF
100
AcDbVisualStyle
  2
3dWireframe
 70
     5
 71
     0
 72
     2
 73
     1
 90
        0
 40
-0.6
 41
-30.0
 62
     5
 63
     7
 74
     1
 91
        4
 64
     7
 65
   257
 75
     1
175
     1
 42
1.0
 92
        0
 66
   257
 43
1.0
 76
     1
 77
     6
 78
     2
 67
     7
 79
     5
170
     0
171
     0
290
     0
174
     0
 93
        1
 44
0.0
173
     0
291
     0
 45
0.0
1001
ACAD
1000
AcDbSavedByObjectVersion
1070
     0
  0
VISUALSTYLE
  5
F4
102
{ACAD_REACTORS
330
EF
102
}
330
EF
100
AcDbVisualStyle
  2
Basic
 70
     7
 71
     1
 72
     0
 73
     1
 90
        0
 40
-0.6
 41
-30.0
 62
     5
 63
     7
 74
     0
 91
        4
 64
     7
 65
   257
 75
     1
175
     1
 42
1.0
 92
        8
 66
     7
 43
1.0
 76
     1
 77
     6
 78
     2
 67
     7
 79
     5
170
     0
171
     0
290
     0
174
     0
 93
        1
 44
0.0
173
     0
291
     1
 45
0.0
1001
ACAD
1000
AcDbSavedByObjectVersion
1070
     0
  0
VISUALSTYLE
  5
FB
102
{ACAD_REACTORS
330
EF
102
}
330
EF
100
AcDbVisualStyle
  2
Brighten
 70
    12
 71
     2
 72
     2
 73
     1
 90
        0
 40
-0.6
 41
-30.0
 62
     5
 63
     7
 74
     1
 91
        4
 64
     7
 65
   257
 75
     1
175
     1
 42
1.0
 92
        8
 66
     7
 43
1.0
 76
     1
 77
     6
 78
     2
 67
     7
 79
     5
170
     0
171
     0
290
     0
174
     0
 93
        1
 44
50.0
173
     0
291
     1
 45
0.0
1001
ACAD
1000
AcDbSavedByObjectVersion
1070
     0
  0
VISUALSTYLE
  5
FF
102
{ACAD_REACTORS
330
EF
102
}
330
EF
100
AcDbVisualStyle
  2
ColorChange
 70
    16
 71
     2
 72
     2
 73
     3
 90
        0
 40
-0.6
 41
-30.0
 62
     5
 63
     8
 74
     1
 91
        4
 64
     7
 65
   257
 75
     1
175
     1
 42
1.0
 92
        8
 66
     8
 43
1.0
 76
     1
 77
     6
 78
     2
 67
     7
 79
     5
170
     0
171
     0
290
     0
174
     0
 93
        1
 44
0.0
173
     0
291
     1
 45
0.0
1001
ACAD
1000
AcDbSavedByObjectVersion
1070
     0
  0
VISUALSTYLE
  5
F8
102
{ACAD_REACTORS
330
EF
102
}
330
EF
100
AcDbVisualStyle
  2
Conceptual
 70
     9
 71
     3
 72
     2
 73
     1
 90
        0
 40
-0.6
 41
-30.0
 62
     5
 63
     7
 74
     2
 91
        2
 64
     7
 65
   257
 75
     1
175
     1
 42
40.0
 92
        8
 66
     7
 43
1.0
 76
     1
 77
     6
 78
     2
 67
     7
 79
     3
170
     0
171
     0
290
     0
174
     0
 93
        1
 44
0.0
173
     0
291
     0
 45
0.0
1001
ACAD
1000
AcDbSavedByObjectVersion
1070
     0
  0
VISUALSTYLE
  5
FA
102
{ACAD_REACTORS
330
EF
102
}
330
EF
100
AcDbVisualStyle
  2
Dim
 70
    11
 71
     2
 72
     2
 73
     1
 90
        0
 40
-0.6
 41
-30.0
 62
     5
 63
     7
 74
     1
 91
        4
 64
     7
 65
   257
 75
     1
175
     1
 42
1.0
 92
        8
 66
     7
 43
1.0
 76
     1
 77
     6
 78
     2
 67
     7
 79
     5
170
     0
171
     0
290
     0
174
     0
 93
        1
 44
-50.0
173
     0
291
     1
 45
0.0
1001
ACAD
1000
AcDbSavedByObjectVersion
1070
     0
  0
VISUALSTYLE
  5
FE
102
{ACAD_REACTORS
330
EF
102
}
330
EF
100
AcDbVisualStyle
  2
Facepattern
 70
    15
 71
     2
 72
     2
 73
     1
 90
        0
 40
-0.6
 41
-30.0
 62
     5
 63
     7
 74
     1
 91
        4
 64
     7
 65
   257
 75
     1
175
     1
 42
1.0
 92
        8
 66
     7
 43
1.0
 76
     1
 77
     6
 78
     2
 67
     7
 79
     5
170
     0
171
     0
290
     0
174
     0
 93
        1
 44
0.0
173
     0
291
     1
 45
0.0
1001
ACAD
1000
AcDbSavedByObjectVersion
1070
     0
  0
VISUALSTYLE
  5
F0
102
{ACAD_REACTORS
330
EF
102
}
330
EF
100
AcDbVisualStyle
  2
Flat
 70
     0
 71
     2
 72
     1
 73
     1
 90
        2
 40
-0.6
 41
30.0
 62
     5
 63
     7
 74
     0
 91
        4
 64
     7
 65
   257
 75
     1
175
     1
 42
1.0
 92
        8
 66
     7
 43
1.0
 76
     1
 77
     6
 78
     2
 67
     7
 79
     5
170
     0
171
     0
290
     0
174
     0
 93
        1
 44
0.0
173
     0
291
     1
 45
0.0
1001
ACAD
1000
AcDbSavedByObjectVersion
1070
     0
  0
VISUALSTYLE
  5
F1
102
{ACAD_REACTORS
330
EF
102
}
330
EF
100
AcDbVisualStyle
  2
FlatWithEdges
 70
     1
 71
     2
 72
     1
 73
     1
 90
        2
 40
-0.6
 41
30.0
 62
     5
 63
     7
 74
     1
 91
        4
 64
     7
 65
   257
 75
     1
175
     1
 42
1.0
 92
        0
 66
   257
 43
1.0
 76
     1
 77
     6
 78
     2
 67
     7
 79
     5
170
     0
171
     0
290
     0
174
     0
 93
        1
 44
0.0
173
     0
291
     1
 45
0.0
1001
ACAD
1000
AcDbSavedByObjectVersion
1070
     0
  0
VISUALSTYLE
  5
F2
102
{ACAD_REACTORS
330
EF
102
}
330
EF
100
AcDbVisualStyle
  2
Gouraud
 70
     2
 71
     2
 72
     2
 73
     1
 90
        2
 40
-0.6
 41
30.0
 62
     5
 63
     7
 74
     0
 91
        4
 64
     7
 65
   257
 75
     1
175
     1
 42
1.0
 92
        0
 66
     7
 43
1.0
 76
     1
 77
     6
 78
     2
 67
     7
 79
     5
170
     0
171
     0
290
     0
174
     0
 93
        1
 44
0.0
173
     0
291
     1
 45
0.0
1001
ACAD
1000
AcDbSavedByObjectVersion
1070
     0
  0
VISUALSTYLE
  5
F3
102
{ACAD_REACTORS
330
EF
102
}
330
EF
100
AcDbVisualStyle
  2
GouraudWithEdges
 70
     3
 71
     2
 72
     2
 73
     1
 90
        2
 40
-0.6
 41
30.0
 62
     5
 63
     7
 74
     1
 91
        4
 64
     7
 65
   257
 75
     1
175
     1
 42
1.0
 92
        0
 66
   257
 43
1.0
 76
     1
 77
     6
 78
     2
 67
     7
 79
     5
170
     0
171
     0
290
     0
174
     0
 93
        1
 44
0.0
173
     0
291
     1
 45
0.0
1001
ACAD
1000
AcDbSavedByObjectVersion
1070
     0
  0
VISUALSTYLE
  5
FD
102
{ACAD_REACTORS
330
EF
102
}
330
EF
100
AcDbVisualStyle
  2
Linepattern
 70
    14
 71
     2
 72
     2
 73
     1
 90
        0
 40
-0.6
 41
-30.0
 62
     5
 63
     7
 74
     1
 91
        4
 64
     7
 65
   257
 75
     7
175
     7
 42
1.0
 92
        8
 66
     7
 43
1.0
 76
     1
 77
     6
 78
     2
 67
     7
 79
     5
170
     0
171
     0
290
     0
174
     0
 93
        1
 44
0.0
173
     0
291
     1
 45
0.0
1001
ACAD
1000
AcDbSavedByObjectVersion
1070
     0
  0
VISUALSTYLE
  5
F9
102
{ACAD_REACTORS
330
EF
102
}
330
EF
100
AcDbVisualStyle
  2
Realistic
 70
     8
 71
     2
 72
     2
 73
     1
 90
        0
 40
-0.6
 41
-30.0
 62
     5
 63
     7
 74
     1
 91
        0
 64
     7
 65
   257
 75
     1
175
     1
 42
1.0
 92
        8
 66
     8
 43
1.0
 76
     1
 77
     6
 78
     2
 67
     7
 79
     5
170
     0
171
     0
290
     0
174
     0
 93
       13
 44
0.0
173
     0
291
     0
 45
0.0
1001
ACAD
1000
AcDbSavedByObjectVersion
1070
     0
  0
VISUALSTYLE
  5
FC
102
{ACAD_REACTORS
330
EF
102
}
330
EF
100
AcDbVisualStyle
  2
Thicken
 70
    13
 71
     2
 72
     2
 73
     1
 90
        0
 40
-0.6
 41
-30.0
 62
     5
 63
     7
 74
     1
 91
        4
 64
     7
 65
   257
 75
     1
175
     1
 42
1.0
 92
       12
 66
     7
 43
1.0
 76
     1
 77
     6
 78
     2
 67
     7
 79
     5
170
     0
171
     0
290
     0
174
     0
 93
        1
 44
0.0
173
     0
291
     1
 45
0.0
1001
ACAD
1000
AcDbSavedByObjectVersion
1070
     0
  0
DICTIONARYVAR
  5
146
102
{ACAD_REACTORS
330
5E
102
}
330
5E
100
DictionaryVariables
280
     0
  1
1:1
  0
DICTIONARYVAR
  5
145
102
{ACAD_REACTORS
330
5E
102
}
330
5E
100
DictionaryVariables
280
     0
  1
STANDARD
  0
DICTIONARYVAR
  5
84
102
{ACAD_REACTORS
330
5E
102
}
330
5E
100
DictionaryVariables
280
     0
  1
STANDARD
  0
DICTIONARYVAR
  5
5F
102
{ACAD_REACTORS
330
5E
102
}
330
5E
100
DictionaryVariables
280
     0
  1
2
  0
DICTIONARYVAR
  5
63
102
{ACAD_REACTORS
330
5E
102
}
330
5E
100
DictionaryVariables
280
     0
  1
1
  0
DICTIONARYVAR
  5
20D7
102
{ACAD_REACTORS
330
5E
102
}
330
5E
100
DictionaryVariables
280
     0
  1
0
  0
DICTIONARYVAR
  5
20D5
102
{ACAD_REACTORS
330
5E
102
}
330
5E
100
DictionaryVariables
280
     0
  1
2
  0
DICTIONARYVAR
  5
20D4
102
{ACAD_REACTORS
330
5E
102
}
330
5E
100
DictionaryVariables
280
     0
  1
1
  0
DICTIONARYVAR
  5
20D9
102
{ACAD_REACTORS
330
5E
102
}
330
5E
100
DictionaryVariables
280
     0
  1
80.000000
  0
DICTIONARYVAR
  5
20D8
102
{ACAD_REACTORS
330
5E
102
}
330
5E
100
DictionaryVariables
280
     0
  1
5.000000
  0
DICTIONARYVAR
  5
20D6
102
{ACAD_REACTORS
330
5E
102
}
330
5E
100
DictionaryVariables
280
     0
  1
127
  0
DICTIONARY
  5
20DF
330
D3
100
AcDbDictionary
280
     1
281
     1
  3
ACAD_XREC_ROUNDTRIP
360
20E0
  0
DICTIONARY
  5
20E1
330
D7
100
AcDbDictionary
280
     1
281
     1
  3
ACAD_XREC_ROUNDTRIP
360
20E2
  0
DICTIONARY
  5
20DC
330
22
100
AcDbDictionary
280
     1
281
     1
  3
ACAD_XREC_ROUNDTRIP
360
20DD
  0
DICTIONARY
  5
20E5
330
ED
100
AcDbDictionary
280
     1
281
     1
  3
ACAD_XREC_ROUNDTRIP
360
20E6
  0
DICTIONARY
  5
20E3
330
EC
100
AcDbDictionary
280
     1
281
     1
  3
ACAD_XREC_ROUNDTRIP
360
20E4
  0
DICTIONARY
  5
173
330
EE
100
AcDbDictionary
280
     1
281
     1
  3
ACAD_XREC_ROUNDTRIP
360
20E7
  3
BUMPTILE
360
175
  3
DIFFUSETILE
360
174
  3
OPACITYTILE
360
176
  3
REFLECTIONTILE
360
177
  0
DICTIONARY
  5
162
330
7F
100
AcDbDictionary
280
     1
281
     1
  3
ACAD_ROUNDTRIP_2008_TABLESTYLE_CELLSTYLEMAP
360
20DA
  3
ACAD_XREC_ROUNDTRIP
360
20DE
  0
XRECORD
  5
20E0
102
{ACAD_REACTORS
330
20DF
102
}
330
20DF
100
AcDbXrecord
280
     1
102
SHADEPLOT
 70
     0
102
SHADEPLOTRESLEVEL
 70
     2
102
SHADEPLOTCUSTOMDPI
 70
   300
  0
XRECORD
  5
20E2
102
{ACAD_REACTORS
330
20E1
102
}
330
20E1
100
AcDbXrecord
280
     1
102
SHADEPLOT
 70
     0
102
SHADEPLOTRESLEVEL
 70
     2
102
SHADEPLOTCUSTOMDPI
 70
   300
  0
XRECORD
  5
20DD
102
{ACAD_REACTORS
330
20DC
102
}
330
20DC
100
AcDbXrecord
280
     1
102
SHADEPLOT
 70
     0
102
SHADEPLOTRESLEVEL
 70
     2
102
SHADEPLOTCUSTOMDPI
 70
   300
  0
XRECORD
  5
20E6
102
{ACAD_REACTORS
330
20E5
102
}
330
20E5
100
AcDbXrecord
280
     1
102
MATERIAL
148
0.0
149
0.0
149
0.0
 93
        0
 94
       63
282
     0
 72
     1
 77
     1
171
     1
175
     1
179
     1
273
     0
  0
XRECORD
  5
20E4
102
{ACAD_REACTORS
330
20E3
102
}
330
20E3
100
AcDbXrecord
280
     1
102
MATERIAL
148
0.0
149
0.0
149
0.0
 93
        0
 94
       63
282
     0
 72
     1
 77
     1
171
     1
175
     1
179
     1
273
     0
  0
XRECORD
  5
20E7
102
{ACAD_REACTORS
330
173
102
}
330
173
100
AcDbXrecord
280
     1
102
MATERIAL
148
0.0
149
0.0
149
0.0
 93
        0
 94
       63
282
     0
 72
     1
 77
     1
171
     1
175
     1
179
     1
273
     0
  0
XRECORD
  5
175
102
{ACAD_REACTORS
330
173
102
}
330
173
100
AcDbXrecord
280
     1
270
     1
271
     1
  0
XRECORD
  5
174
102
{ACAD_REACTORS
330
173
102
}
330
173
100
AcDbXrecord
280
     1
270
     1
271
     1
  0
XRECORD
  5
176
102
{ACAD_REACTORS
330
173
102
}
330
173
100
AcDbXrecord
280
     1
270
     1
271
     1
  0
XRECORD
  5
177
102
{ACAD_REACTORS
330
173
102
}
330
173
100
AcDbXrecord
280
     1
270
     1
271
     1
  0
CELLSTYLEMAP
  5
20DA
102
{ACAD_REACTORS
330
162
102
}
330
162
100
AcDbCellStyleMap
 90
        3
300
CELLSTYLE
  1
TABLEFORMAT_BEGIN
 90
        5
170
     1
 91
        0
 92
    32768
 62
   257
 93
        1
300
CONTENTFORMAT
  1
CONTENTFORMAT_BEGIN
 90
        0
 91
        0
 92
      512
 93
        0
300

 40
0.0
140
1.0
 94
        5
 62
     0
340
11
144
6.0
309
CONTENTFORMAT_END
171
     1
301
MARGIN
  1
CELLMARGIN_BEGIN
 40
1.5
 40
1.5
 40
1.5
 40
1.5
 40
4.5
 40
4.5
309
CELLMARGIN_END
 94
        6
 95
        1
302
GRIDFORMAT
  1
GRIDFORMAT_BEGIN
 90
        0
 91
        1
 62
     0
 92
       -2
340
14
 93
        0
 40
1.125
309
GRIDFORMAT_END
 95
        2
302
GRIDFORMAT
  1
GRIDFORMAT_BEGIN
 90
        0
 91
        1
 62
     0
 92
       -2
340
14
 93
        0
 40
1.125
309
GRIDFORMAT_END
 95
        4
302
GRIDFORMAT
  1
GRIDFORMAT_BEGIN
 90
        0
 91
        1
 62
     0
 92
       -2
340
14
 93
        0
 40
1.125
309
GRIDFORMAT_END
 95
        8
302
GRIDFORMAT
  1
GRIDFORMAT_BEGIN
 90
        0
 91
        1
 62
     0
 92
       -2
340
14
 93
        0
 40
1.125
309
GRIDFORMAT_END
 95
       16
302
GRIDFORMAT
  1
GRIDFORMAT_BEGIN
 90
        0
 91
        1
 62
     0
 92
       -2
340
14
 93
        0
 40
1.125
309
GRIDFORMAT_END
 95
       32
302
GRIDFORMAT
  1
GRIDFORMAT_BEGIN
 90
        0
 91
        1
 62
     0
 92
       -2
340
14
 93
        0
 40
1.125
309
GRIDFORMAT_END
309
TABLEFORMAT_END
  1
CELLSTYLE_BEGIN
 90
        1
 91
        1
300
_TITLE
309
CELLSTYLE_END
300
CELLSTYLE
  1
TABLEFORMAT_BEGIN
 90
        5
170
     1
 91
        0
 92
        0
 62
   257
 93
        1
300
CONTENTFORMAT
  1
CONTENTFORMAT_BEGIN
 90
        0
 91
        0
 92
      512
 93
        0
300

 40
0.0
140
1.0
 94
        5
 62
     0
340
11
144
4.5
309
CONTENTFORMAT_END
171
     1
301
MARGIN
  1
CELLMARGIN_BEGIN
 40
1.5
 40
1.5
 40
1.5
 40
1.5
 40
4.5
 40
4.5
309
CELLMARGIN_END
 94
        6
 95
        1
302
GRIDFORMAT
  1
GRIDFORMAT_BEGIN
 90
        0
 91
        1
 62
     0
 92
       -2
340
14
 93
        0
 40
1.125
309
GRIDFORMAT_END
 95
        2
302
GRIDFORMAT
  1
GRIDFORMAT_BEGIN
 90
        0
 91
        1
 62
     0
 92
       -2
340
14
 93
        0
 40
1.125
309
GRIDFORMAT_END
 95
        4
302
GRIDFORMAT
  1
GRIDFORMAT_BEGIN
 90
        0
 91
        1
 62
     0
 92
       -2
340
14
 93
        0
 40
1.125
309
GRIDFORMAT_END
 95
        8
302
GRIDFORMAT
  1
GRIDFORMAT_BEGIN
 90
        0
 91
        1
 62
     0
 92
       -2
340
14
 93
        0
 40
1.125
309
GRIDFORMAT_END
 95
       16
302
GRIDFORMAT
  1
GRIDFORMAT_BEGIN
 90
        0
 91
        1
 62
     0
 92
       -2
340
14
 93
        0
 40
1.125
309
GRIDFORMAT_END
 95
       32
302
GRIDFORMAT
  1
GRIDFORMAT_BEGIN
 90
        0
 91
        1
 62
     0
 92
       -2
340
14
 93
        0
 40
1.125
309
GRIDFORMAT_END
309
TABLEFORMAT_END
  1
CELLSTYLE_BEGIN
 90
        2
 91
        1
300
_HEADER
309
CELLSTYLE_END
300
CELLSTYLE
  1
TABLEFORMAT_BEGIN
 90
        5
170
     1
 91
        0
 92
        0
 62
   257
 93
        1
300
CONTENTFORMAT
  1
CONTENTFORMAT_BEGIN
 90
        0
 91
        0
 92
      512
 93
        0
300

 40
0.0
140
1.0
 94
        2
 62
     0
340
11
144
4.5
309
CONTENTFORMAT_END
171
     1
301
MARGIN
  1
CELLMARGIN_BEGIN
 40
1.5
 40
1.5
 40
1.5
 40
1.5
 40
4.5
 40
4.5
309
CELLMARGIN_END
 94
        6
 95
        1
302
GRIDFORMAT
  1
GRIDFORMAT_BEGIN
 90
        0
 91
        1
 62
     0
 92
       -2
340
14
 93
        0
 40
1.125
309
GRIDFORMAT_END
 95
        2
302
GRIDFORMAT
  1
GRIDFORMAT_BEGIN
 90
        0
 91
        1
 62
     0
 92
       -2
340
14
 93
        0
 40
1.125
309
GRIDFORMAT_END
 95
        4
302
GRIDFORMAT
  1
GRIDFORMAT_BEGIN
 90
        0
 91
        1
 62
     0
 92
       -2
340
14
 93
        0
 40
1.125
309
GRIDFORMAT_END
 95
        8
302
GRIDFORMAT
  1
GRIDFORMAT_BEGIN
 90
        0
 91
        1
 62
     0
 92
       -2
340
14
 93
        0
 40
1.125
309
GRIDFORMAT_END
 95
       16
302
GRIDFORMAT
  1
GRIDFORMAT_BEGIN
 90
        0
 91
        1
 62
     0
 92
       -2
340
14
 93
        0
 40
1.125
309
GRIDFORMAT_END
 95
       32
302
GRIDFORMAT
  1
GRIDFORMAT_BEGIN
 90
        0
 91
        1
 62
     0
 92
       -2
340
14
 93
        0
 40
1.125
309
GRIDFORMAT_END
309
TABLEFORMAT_END
  1
CELLSTYLE_BEGIN
 90
        3
 91
        2
300
_DATA
309
CELLSTYLE_END
  0
XRECORD
  5
20DE
102
{ACAD_REACTORS
330
162
102
}
330
162
100
AcDbXrecord
280
     1
102
ACAD_ROUNDTRIP_PRE2007_TABLESTYLE
 90
      512
 91
        0
  1

 92
      512
 93
        0
  2

 94
      512
 95
        0
  3

  0
ENDSEC
  0
EOF
