  0
SECTION
  2
HEADER
  9
$ACADVER
  1
AC1015
  9
$ACADMAINTVER
 70
    20
  9
$DWGCODEPAGE
  3
ANSI_1254
  9
$INSBASE
 10
0.0
 20
0.0
 30
0.0
  9
$EXTMIN
 10
2225.791534991354
 20
1112.688381112671
 30
0.0
  9
$EXTMAX
 10
2492.489187620673
 20
1174.981314549736
 30
0.0
  9
$LIMMIN
 10
0.0
 20
0.0
  9
$LIMMAX
 10
420.0
 20
297.0
  9
$ORTHOMODE
 70
     0
  9
$REGENMODE
 70
     1
  9
$FILLMODE
 70
     1
  9
$QTEXTMODE
 70
     0
  9
$MIRRTEXT
 70
     0
  9
$LTSCALE
 40
1.0
  9
$ATTMODE
 70
     1
  9
$TEXTSIZE
 40
2.5
  9
$TRACEWID
 40
1.0
  9
$TEXTSTYLE
  7
Standard
  9
$CLAYER
  8
0
  9
$CELTYPE
  6
ByLayer
  9
$CECOLOR
 62
   256
  9
$CELTSCALE
 40
1.0
  9
$DISPSILH
 70
     0
  9
$DIMSCALE
 40
1.0
  9
$DIMASZ
 40
2.5
  9
$DIMEXO
 40
0.625
  9
$DIMDLI
 40
3.75
  9
$DIMRND
 40
0.0
  9
$DIMDLE
 40
0.0
  9
$DIMEXE
 40
1.25
  9
$DIMTP
 40
0.0
  9
$DIMTM
 40
0.0
  9
$DIMTXT
 40
2.5
  9
$DIMCEN
 40
2.5
  9
$DIMTSZ
 40
0.0
  9
$DIMTOL
 70
     0
  9
$DIMLIM
 70
     0
  9
$DIMTIH
 70
     0
  9
$DIMTOH
 70
     0
  9
$DIMSE1
 70
     0
  9
$DIMSE2
 70
     0
  9
$DIMTAD
 70
     1
  9
$DIMZIN
 70
     8
  9
$DIMBLK
  1

  9
$DIMASO
 70
     1
  9
$DIMSHO
 70
     1
  9
$DIMPOST
  1

  9
$DIMAPOST
  1

  9
$DIMALT
 70
     0
  9
$DIMALTD
 70
     3
  9
$DIMALTF
 40
0.03937007874016
  9
$DIMLFAC
 40
1.0
  9
$DIMTOFL
 70
     1
  9
$DIMTVP
 40
0.0
  9
$DIMTIX
 70
     0
  9
$DIMSOXD
 70
     0
  9
$DIMSAH
 70
     0
  9
$DIMBLK1
  1

  9
$DIMBLK2
  1

  9
$DIMSTYLE
  2
ISO-25
  9
$DIMCLRD
 70
     0
  9
$DIMCLRE
 70
     0
  9
$DIMCLRT
 70
     0
  9
$DIMTFAC
 40
1.0
  9
$DIMGAP
 40
0.625
  9
$DIMJUST
 70
     0
  9
$DIMSD1
 70
     0
  9
$DIMSD2
 70
     0
  9
$DIMTOLJ
 70
     0
  9
$DIMTZIN
 70
     8
  9
$DIMALTZ
 70
     0
  9
$DIMALTTZ
 70
     0
  9
$DIMUPT
 70
     0
  9
$DIMDEC
 70
     2
  9
$DIMTDEC
 70
     2
  9
$DIMALTU
 70
     2
  9
$DIMALTTD
 70
     3
  9
$DIMTXSTY
  7
Standard
  9
$DIMAUNIT
 70
     0
  9
$DIMADEC
 70
     0
  9
$DIMALTRND
 40
0.0
  9
$DIMAZIN
 70
     0
  9
$DIMDSEP
 70
    44
  9
$DIMATFIT
 70
     3
  9
$DIMFRAC
 70
     0
  9
$DIMLDRBLK
  1

  9
$DIMLUNIT
 70
     2
  9
$DIMLWD
 70
    -2
  9
$DIMLWE
 70
    -2
  9
$DIMTMOVE
 70
     0
  9
$LUNITS
 70
     2
  9
$LUPREC
 70
     4
  9
$SKETCHINC
 40
1.0
  9
$FILLETRAD
 40
0.0
  9
$AUNITS
 70
     0
  9
$AUPREC
 70
     0
  9
$MENU
  1
.
  9
$ELEVATION
 40
0.0
  9
$PELEVATION
 40
0.0
  9
$THICKNESS
 40
0.0
  9
$LIMCHECK
 70
     0
  9
$CHAMFERA
 40
0.0
  9
$CHAMFERB
 40
0.0
  9
$CHAMFERC
 40
0.0
  9
$CHAMFERD
 40
0.0
  9
$SKPOLY
 70
     0
  9
$TDCREATE
 40
2458935.544994607
  9
$TDUCREATE
 40
2458935.419994606
  9
$TDUPDATE
 40
2458956.465372685
  9
$TDUUPDATE
 40
2458956.340372685
  9
$TDINDWG
 40
0.0003554630
  9
$TDUSRTIMER
 40
0.0003554630
  9
$USRTIMER
 70
     1
  9
$ANGBASE
 50
0.0
  9
$ANGDIR
 70
     0
  9
$PDMODE
 70
     0
  9
$PDSIZE
 40
0.0
  9
$PLINEWID
 40
0.0
  9
$SPLFRAME
 70
     0
  9
$SPLINETYPE
 70
     6
  9
$SPLINESEGS
 70
     8
  9
$HANDSEED
  5
A06
  9
$SURFTAB1
 70
     6
  9
$SURFTAB2
 70
     6
  9
$SURFTYPE
 70
     6
  9
$SURFU
 70
     6
  9
$SURFV
 70
     6
  9
$UCSBASE
  2

  9
$UCSNAME
  2

  9
$UCSORG
 10
0.0
 20
0.0
 30
0.0
  9
$UCSXDIR
 10
1.0
 20
0.0
 30
0.0
  9
$UCSYDIR
 10
0.0
 20
1.0
 30
0.0
  9
$UCSORTHOREF
  2

  9
$UCSORTHOVIEW
 70
     0
  9
$UCSORGTOP
 10
0.0
 20
0.0
 30
0.0
  9
$UCSORGBOTTOM
 10
0.0
 20
0.0
 30
0.0
  9
$UCSORGLEFT
 10
0.0
 20
0.0
 30
0.0
  9
$UCSORGRIGHT
 10
0.0
 20
0.0
 30
0.0
  9
$UCSORGFRONT
 10
0.0
 20
0.0
 30
0.0
  9
$UCSORGBACK
 10
0.0
 20
0.0
 30
0.0
  9
$PUCSBASE
  2

  9
$PUCSNAME
  2

  9
$PUCSORG
 10
0.0
 20
0.0
 30
0.0
  9
$PUCSXDIR
 10
1.0
 20
0.0
 30
0.0
  9
$PUCSYDIR
 10
0.0
 20
1.0
 30
0.0
  9
$PUCSORTHOREF
  2

  9
$PUCSORTHOVIEW
 70
     0
  9
$PUCSORGTOP
 10
0.0
 20
0.0
 30
0.0
  9
$PUCSORGBOTTOM
 10
0.0
 20
0.0
 30
0.0
  9
$PUCSORGLEFT
 10
0.0
 20
0.0
 30
0.0
  9
$PUCSORGRIGHT
 10
0.0
 20
0.0
 30
0.0
  9
$PUCSORGFRONT
 10
0.0
 20
0.0
 30
0.0
  9
$PUCSORGBACK
 10
0.0
 20
0.0
 30
0.0
  9
$USERI1
 70
     0
  9
$USERI2
 70
     0
  9
$USERI3
 70
     0
  9
$USERI4
 70
     0
  9
$USERI5
 70
     0
  9
$USERR1
 40
0.0
  9
$USERR2
 40
0.0
  9
$USERR3
 40
0.0
  9
$USERR4
 40
0.0
  9
$USERR5
 40
0.0
  9
$WORLDVIEW
 70
     1
  9
$SHADEDGE
 70
     3
  9
$SHADEDIF
 70
    70
  9
$TILEMODE
 70
     1
  9
$MAXACTVP
 70
    64
  9
$PINSBASE
 10
0.0
 20
0.0
 30
0.0
  9
$PLIMCHECK
 70
     0
  9
$PEXTMIN
 10
0.0
 20
0.0
 30
0.0
  9
$PEXTMAX
 10
0.0
 20
0.0
 30
0.0
  9
$PLIMMIN
 10
0.0
 20
0.0
  9
$PLIMMAX
 10
12.0
 20
9.0
  9
$UNITMODE
 70
     0
  9
$VISRETAIN
 70
     1
  9
$PLINEGEN
 70
     0
  9
$PSLTSCALE
 70
     1
  9
$TREEDEPTH
 70
  3020
  9
$CMLSTYLE
  2
Standard
  9
$CMLJUST
 70
     0
  9
$CMLSCALE
 40
20.0
  9
$PROXYGRAPHICS
 70
     1
  9
$MEASUREMENT
 70
     1
  9
$CELWEIGHT
370
    -1
  9
$ENDCAPS
280
     0
  9
$JOINSTYLE
280
     0
  9
$LWDISPLAY
290
     0
  9
$INSUNITS
 70
     4
  9
$HYPERLINKBASE
  1

  9
$STYLESHEET
  1

  9
$XEDIT
290
     1
  9
$CEPSNTYPE
380
     0
  9
$PSTYLEMODE
290
     1
  9
$FINGERPRINTGUID
  2
{11A93C3F-8EAD-4205-A033-1E6D100782C1}
  9
$VERSIONGUID
  2
{706DC31B-A879-4A03-88C9-536C1FADD79A}
  9
$EXTNAMES
290
     1
  9
$PSVPSCALE
 40
0.0
  9
$OLESTARTUP
290
     0
  0
ENDSEC
  0
SECTION
  2
CLASSES
  0
CLASS
  1
ACDBDICTIONARYWDFLT
  2
AcDbDictionaryWithDefault
  3
ObjectDBX Classes
 90
        0
280
     0
281
     0
  0
CLASS
  1
ACDBPLACEHOLDER
  2
AcDbPlaceHolder
  3
ObjectDBX Classes
 90
        0
280
     0
281
     0
  0
CLASS
  1
LAYOUT
  2
AcDbLayout
  3
ObjectDBX Classes
 90
        0
280
     0
281
     0
  0
CLASS
  1
DICTIONARYVAR
  2
AcDbDictionaryVar
  3
ObjectDBX Classes
 90
        0
280
     0
281
     0
  0
CLASS
  1
TABLESTYLE
  2
AcDbTableStyle
  3
ObjectDBX Classes
 90
     4095
280
     0
281
     0
  0
CLASS
  1
MATERIAL
  2
AcDbMaterial
  3
ObjectDBX Classes
 90
     1153
280
     0
281
     0
  0
CLASS
  1
VISUALSTYLE
  2
AcDbVisualStyle
  3
ObjectDBX Classes
 90
     4095
280
     0
281
     0
  0
CLASS
  1
SCALE
  2
AcDbScale
  3
ObjectDBX Classes
 90
     1153
280
     0
281
     0
  0
CLASS
  1
MLEADERSTYLE
  2
AcDbMLeaderStyle
  3
ACDB_MLEADERSTYLE_CLASS
 90
     4095
280
     0
281
     0
  0
CLASS
  1
CELLSTYLEMAP
  2
AcDbCellStyleMap
  3
ObjectDBX Classes
 90
     1152
280
     0
281
     0
  0
ENDSEC
  0
SECTION
  2
TABLES
  0
TABLE
  2
VPORT
  5
8
330
0
100
AcDbSymbolTable
 70
     1
  0
VPORT
  5
EA
330
8
100
AcDbSymbolTableRecord
100
AcDbViewportTableRecord
  2
*Active
 70
     0
 10
0.0
 20
0.0
 11
1.0
 21
1.0
 12
2379.957598506963
 22
1160.87012523842
 13
0.0
 23
0.0
 14
10.0
 24
10.0
 15
10.0
 25
10.0
 16
0.0
 26
0.0
 36
1.0
 17
0.0
 27
0.0
 37
0.0
 40
248.5141073380725
 41
1.903110047846889
 42
50.0
 43
0.0
 44
0.0
 50
0.0
 51
0.0
 71
     0
 72
  1000
 73
     1
 74
     3
 75
     0
 76
     0
 77
     0
 78
     0
281
     0
 65
     1
110
0.0
120
0.0
130
0.0
111
1.0
121
0.0
131
0.0
112
0.0
122
1.0
132
0.0
 79
     0
146
0.0
  0
ENDTAB
  0
TABLE
  2
LTYPE
  5
5
330
0
100
AcDbSymbolTable
 70
     1
  0
LTYPE
  5
14
330
5
100
AcDbSymbolTableRecord
100
AcDbLinetypeTableRecord
  2
ByBlock
 70
     0
  3

 72
    65
 73
     0
 40
0.0
  0
LTYPE
  5
15
330
5
100
AcDbSymbolTableRecord
100
AcDbLinetypeTableRecord
  2
ByLayer
 70
     0
  3

 72
    65
 73
     0
 40
0.0
  0
LTYPE
  5
16
330
5
100
AcDbSymbolTableRecord
100
AcDbLinetypeTableRecord
  2
Continuous
 70
     0
  3
Solid line
 72
    65
 73
     0
 40
0.0
  0
ENDTAB
  0
TABLE
  2
LAYER
  5
2
330
0
100
AcDbSymbolTable
 70
     1
  0
LAYER
  5
10
102
{ACAD_XDICTIONARY
360
13C
102
}
330
2
100
AcDbSymbolTableRecord
100
AcDbLayerTableRecord
  2
0
 70
     0
 62
     7
  6
Continuous
370
    -3
390
F
  0
ENDTAB
  0
TABLE
  2
STYLE
  5
3
330
0
100
AcDbSymbolTable
 70
     2
  0
STYLE
  5
11
330
3
100
AcDbSymbolTableRecord
100
AcDbTextStyleTableRecord
  2
Standard
 70
     0
 40
0.0
 41
1.0
 50
0.0
 71
     0
 42
2.5
  3
txt
  4

  0
STYLE
  5
132
330
3
100
AcDbSymbolTableRecord
100
AcDbTextStyleTableRecord
  2
Annotative
 70
     0
 40
0.0
 41
1.0
 50
0.0
 71
     0
 42
2.5
  3
txt.shx
  4

1001
AcadAnnotative
1000
AnnotativeData
1002
{
1070
     1
1070
     1
1002
}
  0
ENDTAB
  0
TABLE
  2
VIEW
  5
6
330
0
100
AcDbSymbolTable
 70
     0
  0
ENDTAB
  0
TABLE
  2
UCS
  5
7
330
0
100
AcDbSymbolTable
 70
     0
  0
ENDTAB
  0
TABLE
  2
APPID
  5
9
330
0
100
AcDbSymbolTable
 70
     7
  0
APPID
  5
12
330
9
100
AcDbSymbolTableRecord
100
AcDbRegAppTableRecord
  2
ACAD
 70
     0
  0
APPID
  5
9E
330
9
100
AcDbSymbolTableRecord
100
AcDbRegAppTableRecord
  2
ACAD_PSEXT
 70
     0
  0
APPID
  5
133
330
9
100
AcDbSymbolTableRecord
100
AcDbRegAppTableRecord
  2
AcadAnnoPO
 70
     0
  0
APPID
  5
134
330
9
100
AcDbSymbolTableRecord
100
AcDbRegAppTableRecord
  2
AcadAnnotative
 70
     0
  0
APPID
  5
135
330
9
100
AcDbSymbolTableRecord
100
AcDbRegAppTableRecord
  2
ACAD_DSTYLE_DIMJAG
 70
     0
  0
APPID
  5
136
330
9
100
AcDbSymbolTableRecord
100
AcDbRegAppTableRecord
  2
ACAD_DSTYLE_DIMTALN
 70
     0
  0
APPID
  5
165
330
9
100
AcDbSymbolTableRecord
100
AcDbRegAppTableRecord
  2
ACAD_MLEADERVER
 70
     0
  0
ENDTAB
  0
TABLE
  2
DIMSTYLE
  5
A
330
0
100
AcDbSymbolTable
 70
     2
100
AcDbDimStyleTable
 71
     2
340
27
340
137
  0
DIMSTYLE
105
27
330
A
100
AcDbSymbolTableRecord
100
AcDbDimStyleTableRecord
  2
ISO-25
 70
     0
 41
2.5
 42
0.625
 43
3.75
 44
1.25
 73
     0
 74
     0
 77
     1
 78
     8
140
2.5
141
2.5
143
0.03937007874016
147
0.625
171
     3
172
     1
271
     2
272
     2
274
     3
278
    44
283
     0
284
     8
340
11
  0
DIMSTYLE
105
137
330
A
100
AcDbSymbolTableRecord
100
AcDbDimStyleTableRecord
  2
Annotative
 70
     0
 40
0.0
 41
2.5
 42
0.625
 43
3.75
 44
1.25
 73
     0
 74
     0
 77
     1
 78
     8
140
2.5
141
2.5
143
0.03937007874016
147
0.625
171
     3
172
     1
271
     2
272
     2
274
     3
278
    44
283
     0
284
     8
340
11
1001
AcadAnnotative
1000
AnnotativeData
1002
{
1070
     1
1070
     1
1002
}
1001
ACAD_DSTYLE_DIMJAG
1070
   388
1040
1.5
1001
ACAD_DSTYLE_DIMTALN
1070
   392
1070
     0
  0
ENDTAB
  0
TABLE
  2
BLOCK_RECORD
  5
1
330
0
100
AcDbSymbolTable
 70
     5
  0
BLOCK_RECORD
  5
1F
330
1
100
AcDbSymbolTableRecord
100
AcDbBlockTableRecord
  2
*Model_Space
340
22
  0
BLOCK_RECORD
  5
D2
330
1
100
AcDbSymbolTableRecord
100
AcDbBlockTableRecord
  2
*Paper_Space
340
D3
  0
BLOCK_RECORD
  5
D6
330
1
100
AcDbSymbolTableRecord
100
AcDbBlockTableRecord
  2
*Paper_Space0
340
D7
  0
BLOCK_RECORD
  5
723
330
1
100
AcDbSymbolTableRecord
100
AcDbBlockTableRecord
  2
1
340
0
310
2800000020000000200000000100080000000000000400000000000000000000000000000000000000000000000080000080000000808000800000008000800080800000C0C0C000C0DCC000F0CAA6000020400000206000002080000020A0000020C0000020E00000400000004020000040400000406000004080000040A0
310
000040C0000040E00000600000006020000060400000606000006080000060A0000060C0000060E00000800000008020000080400000806000008080000080A0000080C0000080E00000A0000000A0200000A0400000A0600000A0800000A0A00000A0C00000A0E00000C0000000C0200000C0400000C0600000C0800000C0
310
A00000C0C00000C0E00000E0000000E0200000E0400000E0600000E0800000E0A00000E0C00000E0E00040000000400020004000400040006000400080004000A0004000C0004000E00040200000402020004020400040206000402080004020A0004020C0004020E000404000004040200040404000404060004040800040
310
40A0004040C0004040E00040600000406020004060400040606000406080004060A0004060C0004060E00040800000408020004080400040806000408080004080A0004080C0004080E00040A0000040A0200040A0400040A0600040A0800040A0A00040A0C00040A0E00040C0000040C0200040C0400040C0600040C08000
310
40C0A00040C0C00040C0E00040E0000040E0200040E0400040E0600040E0800040E0A00040E0C00040E0E00080000000800020008000400080006000800080008000A0008000C0008000E00080200000802020008020400080206000802080008020A0008020C0008020E00080400000804020008040400080406000804080
310
008040A0008040C0008040E00080600000806020008060400080606000806080008060A0008060C0008060E00080800000808020008080400080806000808080008080A0008080C0008080E00080A0000080A0200080A0400080A0600080A0800080A0A00080A0C00080A0E00080C0000080C0200080C0400080C0600080C0
310
800080C0A00080C0C00080C0E00080E0000080E0200080E0400080E0600080E0800080E0A00080E0C00080E0E000C0000000C0002000C0004000C0006000C0008000C000A000C000C000C000E000C0200000C0202000C0204000C0206000C0208000C020A000C020C000C020E000C0400000C0402000C0404000C0406000C0
310
408000C040A000C040C000C040E000C0600000C0602000C0604000C0606000C0608000C060A000C060C000C060E000C0800000C0802000C0804000C0806000C0808000C080A000C080C000C080E000C0A00000C0A02000C0A04000C0A06000C0A08000C0A0A000C0A0C000C0A0E000C0C00000C0C02000C0C04000C0C06000
310
C0C08000C0C0A000F0FBFF00A4A0A000808080000000FF0000FF000000FFFF00FF000000FF00FF00FFFF0000FFFFFF0000000000000000000000000000000000000000000000000000000000000000000000000000000000000000000000000000000000000000000000000000000000000000000000000000000000000000
310
00000000000000000000000000000000000000000000000000000000000000000000000000000000000000000000000000000000000000000000000000000000000000000000000000000000000000000000000000000000000000000000000000000000000000000000000000000000000000000000000000000000000000
310
00000000000000000000000000000000000000000000000000000000000000000000000000000000000000000000000000000000000000000000000000000000000000000000000000000000000000000000000000000000000000000000000000000000000000000000000000000000000000000000000000000000000000
310
00000000000000000000000000000000000000000000000000000000000000000000000000000000000000000000000000000000000000000000000000000000000000000000000000000000000000000000000000FFFF00FFFF00FFFFFF00FFFF00FFFF00FFFF00FFFFFF00FFFF00FFFF00000000FFFF00FFFF00FF00FF00
310
FFFF00FFFF00FFFF00FF00FF00FFFF00FFFF00000000FFFF00FFFF00FF00FF00FFFF00FFFF00FFFF00FF00FF00FFFF00FFFF000000FFFFFFFFFFFFFFFFFFFFFFFFFFFFFFFFFFFFFFFFFFFFFFFFFFFFFFFFFFFF000000FFFF00FFFFFFFFFFFF00FFFF00FFFF00FFFF00FFFFFFFFFFFF00FFFF00000000FFFF00FFFFFFFFFFFF
310
00FFFF00FFFF00FFFF00FFFFFFFFFFFF00FFFF000000000000000000000000000000000000000000000000000000000000000000000000000000000000000000000000000000000000000000000000000000000000000000000000000000000000000000000000000000000000000000000000000000000000000000000000
310
00000000000000000000000000000000000000000000000000000000000000000000000000000000000000000000000000000000000000000000000000000000000000000000000000000000000000000000000000000000000000000000000000000000000000000000000000000000000000000000000000000000000000
310
00000000000000000000000000000000000000000000000000000000000000000000000000000000000000000000000000000000000000000000000000000000000000000000000000000000000000000000000000000000000000000000000000000000000000000000000000000000000000000000000000000000000000
310
0000000000000000000000000000000000000000000000000000000000000000000000000000000000000000000000000000000000000000
102
{BLKREFS
331
802
102
}
1001
ACAD
1000
DesignCenter Data
1002
{
1070
     1
1070
     4
1002
}
  0
BLOCK_RECORD
  5
803
330
1
100
AcDbSymbolTableRecord
100
AcDbBlockTableRecord
  2
2
340
0
310
2800000020000000200000000100080000000000000400000000000000000000000000000000000000000000000080000080000000808000800000008000800080800000C0C0C000C0DCC000F0CAA6000020400000206000002080000020A0000020C0000020E00000400000004020000040400000406000004080000040A0
310
000040C0000040E00000600000006020000060400000606000006080000060A0000060C0000060E00000800000008020000080400000806000008080000080A0000080C0000080E00000A0000000A0200000A0400000A0600000A0800000A0A00000A0C00000A0E00000C0000000C0200000C0400000C0600000C0800000C0
310
A00000C0C00000C0E00000E0000000E0200000E0400000E0600000E0800000E0A00000E0C00000E0E00040000000400020004000400040006000400080004000A0004000C0004000E00040200000402020004020400040206000402080004020A0004020C0004020E000404000004040200040404000404060004040800040
310
40A0004040C0004040E00040600000406020004060400040606000406080004060A0004060C0004060E00040800000408020004080400040806000408080004080A0004080C0004080E00040A0000040A0200040A0400040A0600040A0800040A0A00040A0C00040A0E00040C0000040C0200040C0400040C0600040C08000
310
40C0A00040C0C00040C0E00040E0000040E0200040E0400040E0600040E0800040E0A00040E0C00040E0E00080000000800020008000400080006000800080008000A0008000C0008000E00080200000802020008020400080206000802080008020A0008020C0008020E00080400000804020008040400080406000804080
310
008040A0008040C0008040E00080600000806020008060400080606000806080008060A0008060C0008060E00080800000808020008080400080806000808080008080A0008080C0008080E00080A0000080A0200080A0400080A0600080A0800080A0A00080A0C00080A0E00080C0000080C0200080C0400080C0600080C0
310
800080C0A00080C0C00080C0E00080E0000080E0200080E0400080E0600080E0800080E0A00080E0C00080E0E000C0000000C0002000C0004000C0006000C0008000C000A000C000C000C000E000C0200000C0202000C0204000C0206000C0208000C020A000C020C000C020E000C0400000C0402000C0404000C0406000C0
310
408000C040A000C040C000C040E000C0600000C0602000C0604000C0606000C0608000C060A000C060C000C060E000C0800000C0802000C0804000C0806000C0808000C080A000C080C000C080E000C0A00000C0A02000C0A04000C0A06000C0A08000C0A0A000C0A0C000C0A0E000C0C00000C0C02000C0C04000C0C06000
310
C0C08000C0C0A000F0FBFF00A4A0A000808080000000FF0000FF000000FFFF00FF000000FF00FF00FFFF0000FFFFFF0000000000000000000000000000000000000000000000000000000000000000000000000000000000000000000000000000000000000000000000000000000000000000000000000000000000000000
310
00000000000000000000000000000000000000000000000000000000000000000000000000000000000000000000000000000000000000000000000000000000000000000000000000000000000000000000000000000000000000000000000000000000000000000000000000000000000000000000000000000000000000
310
00000000000000000000000000000000000000000000000000000000000000000000000000000000000000000000000000000000000000000000000000000000000000000000000000000000000000000000000000000000000000000000000000000000000000000000000000000000000000000000000000000000000000
310
00000000000000000000000000000000000000000000000000000000000000000000000000000000000000000000000000000000000000000000000000000000000000000000000000000000000000000000000000000000000000000000000000000000000000000000000000000000000000000000000000000000000000
310
000000000000000000000000000000000000000000FFFFFFFFFFFFFFFFFFFFFFFFFFFFFFFFFFFFFFFFFFFFFFFFFFFFFFFFFFFF0000FFFFFFFFFFFFFFFFFFFFFFFFFFFFFFFFFFFFFFFFFFFFFFFFFFFFFFFFFFFF0000000000000000000000000000000000000000000000000000000000000000000000000000000000000000
310
00000000000000000000000000000000000000000000000000000000000000000000000000000000000000000000000000000000000000000000000000000000000000000000000000000000000000000000000000000000000000000000000000000000000000000000000000000000000000000000000000000000000000
310
00000000000000000000000000000000000000000000000000000000000000000000000000000000000000000000000000000000000000000000000000000000000000000000000000000000000000000000000000000000000000000000000000000000000000000000000000000000000000000000000000000000000000
310
00000000000000000000000000000000000000000000000000000000000000000000000000000000000000000000000000000000000000000000000000000000000000000000000000000000000000000000000000000000000000000000000000000000000000000000000000000000000000000000000000000000000000
310
0000000000000000000000000000000000000000000000000000000000000000000000000000000000000000000000000000000000000000
102
{BLKREFS
331
8C7
102
}
1001
ACAD
1000
DesignCenter Data
1002
{
1070
     1
1070
     4
1002
}
  0
BLOCK_RECORD
  5
8C8
330
1
100
AcDbSymbolTableRecord
100
AcDbBlockTableRecord
  2
4
340
0
310
2800000020000000200000000100080000000000000400000000000000000000000000000000000000000000000080000080000000808000800000008000800080800000C0C0C000C0DCC000F0CAA6000020400000206000002080000020A0000020C0000020E00000400000004020000040400000406000004080000040A0
310
000040C0000040E00000600000006020000060400000606000006080000060A0000060C0000060E00000800000008020000080400000806000008080000080A0000080C0000080E00000A0000000A0200000A0400000A0600000A0800000A0A00000A0C00000A0E00000C0000000C0200000C0400000C0600000C0800000C0
310
A00000C0C00000C0E00000E0000000E0200000E0400000E0600000E0800000E0A00000E0C00000E0E00040000000400020004000400040006000400080004000A0004000C0004000E00040200000402020004020400040206000402080004020A0004020C0004020E000404000004040200040404000404060004040800040
310
40A0004040C0004040E00040600000406020004060400040606000406080004060A0004060C0004060E00040800000408020004080400040806000408080004080A0004080C0004080E00040A0000040A0200040A0400040A0600040A0800040A0A00040A0C00040A0E00040C0000040C0200040C0400040C0600040C08000
310
40C0A00040C0C00040C0E00040E0000040E0200040E0400040E0600040E0800040E0A00040E0C00040E0E00080000000800020008000400080006000800080008000A0008000C0008000E00080200000802020008020400080206000802080008020A0008020C0008020E00080400000804020008040400080406000804080
310
008040A0008040C0008040E00080600000806020008060400080606000806080008060A0008060C0008060E00080800000808020008080400080806000808080008080A0008080C0008080E00080A0000080A0200080A0400080A0600080A0800080A0A00080A0C00080A0E00080C0000080C0200080C0400080C0600080C0
310
800080C0A00080C0C00080C0E00080E0000080E0200080E0400080E0600080E0800080E0A00080E0C00080E0E000C0000000C0002000C0004000C0006000C0008000C000A000C000C000C000E000C0200000C0202000C0204000C0206000C0208000C020A000C020C000C020E000C0400000C0402000C0404000C0406000C0
310
408000C040A000C040C000C040E000C0600000C0602000C0604000C0606000C0608000C060A000C060C000C060E000C0800000C0802000C0804000C0806000C0808000C080A000C080C000C080E000C0A00000C0A02000C0A04000C0A06000C0A08000C0A0A000C0A0C000C0A0E000C0C00000C0C02000C0C04000C0C06000
310
C0C08000C0C0A000F0FBFF00A4A0A000808080000000FF0000FF000000FFFF00FF000000FF00FF00FFFF0000FFFFFF000000000000000000000000000000000000000000000000000000000000000000000000000000000000000000FFFFFFFFFFFFFFFF000000000000000000000000000000000000000000000000FFFFFF
310
FFFFFFFFFF000000000000000000000000000000000000000000000000FF000000000000FF000000000000000000000000000000000000000000000000FF000000000000FF000000000000000000000000000000000000000000000000FF000000000000FF000000000000000000000000000000000000000000000000FF00
310
0000000000FF000000000000000000000000000000000000000000000000FF000000000000FF000000000000000000000000000000000000000000000000FF000000000000FF000000000000000000000000000000000000000000000000FF000000000000FF000000000000000000000000000000000000000000000000FF
310
000000000000FF000000000000000000000000000000000000000000000000FF000000000000FF000000000000000000000000000000000000000000000000FF000000000000FF000000000000000000000000000000000000000000000000FF000000000000FF000000000000000000000000000000000000000000000000
310
FF000000000000FF000000000000000000000000000000000000000000000000FF000000000000FF0000000000000000000000000000000000000000000000FFFFFFFFFFFFFFFFFFFF00000000000000000000000000000000000000000000FF0000000000000000FF00000000000000000000000000000000000000000000
310
FF0000000000000000FF00000000000000000000000000000000000000000000FF0000000000000000FF00000000000000000000000000000000000000000000FF0000000000000000FF00000000000000000000000000000000000000000000FFFFFFFFFFFFFFFFFFFF000000000000000000000000000000000000000000
310
00FFFFFFFFFFFFFFFFFFFF00000000000000000000000000000000000000000000FFA4A4A4A4A4A4A4A4FF00000000000000000000000000000000000000000000FF0000000000000000FF00000000000000000000000000000000000000000000FF0000000000000000FF0000000000000000000000000000000000000000
310
0000FF0000000000000000FF00000000000000000000000000000000000000000000FF0000000000000000FF00000000000000000000000000000000000000000000FF0000000000000000FF00000000000000000000000000000000000000000000FF0000000000000000FF00000000000000000000000000000000000000
310
000000FFFFFFFFFFFFFFFFFFFF00000000000000000000000000000000000000000000000000000000000000000000000000000000000000
102
{BLKREFS
331
8EB
102
}
1001
ACAD
1000
DesignCenter Data
1002
{
1070
     1
1070
     4
1002
}
  0
BLOCK_RECORD
  5
8EC
330
1
100
AcDbSymbolTableRecord
100
AcDbBlockTableRecord
  2
3
340
0
310
2800000020000000200000000100080000000000000400000000000000000000000000000000000000000000000080000080000000808000800000008000800080800000C0C0C000C0DCC000F0CAA6000020400000206000002080000020A0000020C0000020E00000400000004020000040400000406000004080000040A0
310
000040C0000040E00000600000006020000060400000606000006080000060A0000060C0000060E00000800000008020000080400000806000008080000080A0000080C0000080E00000A0000000A0200000A0400000A0600000A0800000A0A00000A0C00000A0E00000C0000000C0200000C0400000C0600000C0800000C0
310
A00000C0C00000C0E00000E0000000E0200000E0400000E0600000E0800000E0A00000E0C00000E0E00040000000400020004000400040006000400080004000A0004000C0004000E00040200000402020004020400040206000402080004020A0004020C0004020E000404000004040200040404000404060004040800040
310
40A0004040C0004040E00040600000406020004060400040606000406080004060A0004060C0004060E00040800000408020004080400040806000408080004080A0004080C0004080E00040A0000040A0200040A0400040A0600040A0800040A0A00040A0C00040A0E00040C0000040C0200040C0400040C0600040C08000
310
40C0A00040C0C00040C0E00040E0000040E0200040E0400040E0600040E0800040E0A00040E0C00040E0E00080000000800020008000400080006000800080008000A0008000C0008000E00080200000802020008020400080206000802080008020A0008020C0008020E00080400000804020008040400080406000804080
310
008040A0008040C0008040E00080600000806020008060400080606000806080008060A0008060C0008060E00080800000808020008080400080806000808080008080A0008080C0008080E00080A0000080A0200080A0400080A0600080A0800080A0A00080A0C00080A0E00080C0000080C0200080C0400080C0600080C0
310
800080C0A00080C0C00080C0E00080E0000080E0200080E0400080E0600080E0800080E0A00080E0C00080E0E000C0000000C0002000C0004000C0006000C0008000C000A000C000C000C000E000C0200000C0202000C0204000C0206000C0208000C020A000C020C000C020E000C0400000C0402000C0404000C0406000C0
310
408000C040A000C040C000C040E000C0600000C0602000C0604000C0606000C0608000C060A000C060C000C060E000C0800000C0802000C0804000C0806000C0808000C080A000C080C000C080E000C0A00000C0A02000C0A04000C0A06000C0A08000C0A0A000C0A0C000C0A0E000C0C00000C0C02000C0C04000C0C06000
310
C0C08000C0C0A000F0FBFF00A4A0A000808080000000FF0000FF000000FFFF00FF000000FF00FF00FFFF0000FFFFFF0000000000000000000000000000000000000000000000000000000000000000000000000000000000000000000000000000000000000000000000000000000000000000000000000000000000000000
310
00000000000000000000000000000000000000000000000000000000000000000000000000000000000000000000000000000000000000000000000000000000000000000000000000000000000000000000000000000000000000000000000000000000000000000000000000000000000000000000000000000000000000
310
000000000000000000000000000000000000000000000000000000000000000000000000000000000000000000FFFFFF0000000000000000000000000000000000000000000000000000FFFF00FF00FF0000000000000000000000000000000000000000000000000000FFFF00FFFFFF000000000000000000000000000000
310
0000000000000000FFFF00FF00FFFFFFFFFF00000000000000000000000000000000000000FFFF00FFFFFFFFFFFFFFFFFFFF00000000000000000000000000000000000000FFFF00FFFFFFFFFFFFFFFFFF0000000000000000000000000000000000FFFF00FFFFFFFFFF00FFFFFFFFFFFF0000000000000000000000000000
310
FFFF00FFFFFFFFFFFFFFFFFFFFFFFF0000000000000000000000000000FFFF00FFFF00FFFFFFFFFFFFFFFFFF00000000000000000000000000000000FFFFFF00FFFFFFFFFFFFFFFFFFFFFF0000000000000000000000000000FFFFFF00FFFFFFFFFFFFFFFF00FFFFFF00000000000000000000000000FFFFFFFF00FFFFFFFF
310
FFFFFFFFFFFF0000000000000000000000000000000000FF00FFFFFFFFFFFFFFFFFFFF0000000000000000000000000000000000000000FF00FFFFFFFFFFFFFF00FFFF00000000000000000000000000000000000000FFFFFFFFFFFFFFFFFFFF00000000000000000000000000000000000000000000FFFFFFFFFFFFFF0000
310
000000000000000000000000000000000000000000000000FFFFFF00FFFF0000000000000000000000000000000000000000000000000000FFFFFF0000000000000000000000000000000000000000000000000000000000000000000000000000000000000000000000000000000000000000000000000000000000000000
310
00000000000000000000000000000000000000000000000000000000000000000000000000000000000000000000000000000000000000000000000000000000000000000000000000000000000000000000000000000000000000000000000000000000000000000000000000000000000000000000000000000000000000
310
0000000000000000000000000000000000000000000000000000000000000000000000000000000000000000000000000000000000000000
102
{BLKREFS
331
9EB
102
}
1001
ACAD
1000
DesignCenter Data
1002
{
1070
     1
1070
     4
1002
}
  0
ENDTAB
  0
ENDSEC
  0
SECTION
  2
BLOCKS
  0
BLOCK
  5
20
330
1F
100
AcDbEntity
  8
0
100
AcDbBlockBegin
  2
*Model_Space
 70
     0
 10
0.0
 20
0.0
 30
0.0
  3
*Model_Space
  1

  0
ENDBLK
  5
21
330
1F
100
AcDbEntity
  8
0
100
AcDbBlockEnd
  0
BLOCK
  5
D4
330
D2
100
AcDbEntity
 67
     1
  8
0
100
AcDbBlockBegin
  2
*Paper_Space
 70
     0
 10
0.0
 20
0.0
 30
0.0
  3
*Paper_Space
  1

  0
ENDBLK
  5
D5
330
D2
100
AcDbEntity
 67
     1
  8
0
100
AcDbBlockEnd
  0
BLOCK
  5
D8
330
D6
100
AcDbEntity
 67
     1
  8
0
100
AcDbBlockBegin
  2
*Paper_Space0
 70
     0
 10
0.0
 20
0.0
 30
0.0
  3
*Paper_Space0
  1

  0
ENDBLK
  5
D9
330
D6
100
AcDbEntity
 67
     1
  8
0
100
AcDbBlockEnd
  0
BLOCK
  5
724
330
723
100
AcDbEntity
  8
0
100
AcDbBlockBegin
  2
1
 70
     0
 10
0.0
 20
0.0
 30
0.0
  3
1
  1

  0
ARC
  5
726
330
723
100
AcDbEntity
  8
0
  6
Continuous
 62
     7
370
    15
100
AcDbCircle
 10
2252.851478512948
 20
1165.334293036169
 30
0.0
 40
0.200000000000017
100
AcDbArc
 50
180.0
 51
270.0
  0
ARC
  5
727
330
723
100
AcDbEntity
  8
0
  6
Continuous
 62
     7
370
    15
100
AcDbCircle
 10
2259.301478512947
 20
1165.334293036169
 30
0.0
 40
0.1999999999999886
100
AcDbArc
 50
270.0
 51
0.0
  0
ARC
  5
728
330
723
100
AcDbEntity
  8
0
  6
Continuous
 62
     7
370
    15
100
AcDbCircle
 10
2267.851478512949
 20
1165.334293036169
 30
0.0
 40
0.200000000000017
100
AcDbArc
 50
180.0
 51
270.0
  0
ARC
  5
729
330
723
100
AcDbEntity
  8
0
  6
Continuous
 62
     7
370
    15
100
AcDbCircle
 10
2274.301478512949
 20
1165.334293036169
 30
0.0
 40
0.1999999999999886
100
AcDbArc
 50
270.0
 51
0.0
  0
ARC
  5
72A
330
723
100
AcDbEntity
  8
0
  6
Continuous
 62
     7
370
    15
100
AcDbCircle
 10
2282.851478512949
 20
1165.334293036169
 30
0.0
 40
0.200000000000017
100
AcDbArc
 50
180.0
 51
270.0
  0
ARC
  5
72B
330
723
100
AcDbEntity
  8
0
  6
Continuous
 62
     7
370
    15
100
AcDbCircle
 10
2289.301478512949
 20
1165.334293036169
 30
0.0
 40
0.200000000000017
100
AcDbArc
 50
270.0
 51
0.0
  0
ARC
  5
72C
330
723
100
AcDbEntity
  8
0
  6
Continuous
 62
     7
370
    15
100
AcDbCircle
 10
2297.851478512949
 20
1165.334293036169
 30
0.0
 40
0.200000000000017
100
AcDbArc
 50
180.0
 51
270.0
  0
ARC
  5
72D
330
723
100
AcDbEntity
  8
0
  6
Continuous
 62
     7
370
    15
100
AcDbCircle
 10
2304.301478512949
 20
1165.334293036169
 30
0.0
 40
0.1999999999999886
100
AcDbArc
 50
270.0
 51
0.0
  0
ARC
  5
72E
330
723
100
AcDbEntity
  8
0
  6
Continuous
 62
     7
370
    15
100
AcDbCircle
 10
2312.851478512949
 20
1165.334293036169
 30
0.0
 40
0.1999999999999886
100
AcDbArc
 50
180.0
 51
270.0
  0
ARC
  5
72F
330
723
100
AcDbEntity
  8
0
  6
Continuous
 62
     7
370
    15
100
AcDbCircle
 10
2319.301478512949
 20
1165.334293036169
 30
0.0
 40
0.1999999999999886
100
AcDbArc
 50
270.0
 51
0.0
  0
ARC
  5
730
330
723
100
AcDbEntity
  8
0
  6
Continuous
 62
     7
370
    15
100
AcDbCircle
 10
2327.851478512949
 20
1165.334293036169
 30
0.0
 40
0.2000000000000455
100
AcDbArc
 50
180.0
 51
270.0
  0
ARC
  5
731
330
723
100
AcDbEntity
  8
0
  6
Continuous
 62
     7
370
    15
100
AcDbCircle
 10
2334.301478512949
 20
1165.334293036169
 30
0.0
 40
0.1999999999999886
100
AcDbArc
 50
270.0
 51
0.0
  0
ARC
  5
732
330
723
100
AcDbEntity
  8
0
  6
Continuous
 62
     7
370
    15
100
AcDbCircle
 10
2342.851478512949
 20
1165.334293036169
 30
0.0
 40
0.2000000000000455
100
AcDbArc
 50
180.0
 51
270.0
  0
ARC
  5
733
330
723
100
AcDbEntity
  8
0
  6
Continuous
 62
     7
370
    15
100
AcDbCircle
 10
2349.301478512949
 20
1165.334293036169
 30
0.0
 40
0.1999999999999886
100
AcDbArc
 50
270.0
 51
0.0
  0
ARC
  5
734
330
723
100
AcDbEntity
  8
0
  6
Continuous
 62
     7
370
    15
100
AcDbCircle
 10
2357.851478512949
 20
1165.334293036169
 30
0.0
 40
0.1999999999999886
100
AcDbArc
 50
180.0
 51
270.0
  0
ARC
  5
735
330
723
100
AcDbEntity
  8
0
  6
Continuous
 62
     7
370
    15
100
AcDbCircle
 10
2364.301478512949
 20
1165.334293036169
 30
0.0
 40
0.2000000000000455
100
AcDbArc
 50
270.0
 51
0.0
  0
ARC
  5
736
330
723
100
AcDbEntity
  8
0
  6
Continuous
 62
     7
370
    15
100
AcDbCircle
 10
2372.851478512949
 20
1165.334293036169
 30
0.0
 40
0.1999999999999886
100
AcDbArc
 50
180.0
 51
270.0
  0
ARC
  5
737
330
723
100
AcDbEntity
  8
0
  6
Continuous
 62
     7
370
    15
100
AcDbCircle
 10
2379.301478512949
 20
1165.334293036169
 30
0.0
 40
0.1999999999999886
100
AcDbArc
 50
270.0
 51
0.0
  0
LINE
  5
738
330
723
100
AcDbEntity
  8
0
  6
Continuous
 62
     7
370
    15
100
AcDbLine
 10
2259.501478512948
 20
1165.334293036169
 30
0.0
 11
2259.501478512948
 21
1170.534293036169
 31
0.0
  0
LINE
  5
739
330
723
100
AcDbEntity
  8
0
  6
Continuous
 62
     7
370
    15
100
AcDbLine
 10
2252.651478512948
 20
1170.534293036169
 30
0.0
 11
2252.651478512948
 21
1165.334293036169
 31
0.0
  0
LINE
  5
73A
330
723
100
AcDbEntity
  8
0
  6
Continuous
 62
     7
370
    15
100
AcDbLine
 10
2274.501478512949
 20
1165.334293036169
 30
0.0
 11
2274.501478512949
 21
1170.534293036169
 31
0.0
  0
LINE
  5
73B
330
723
100
AcDbEntity
  8
0
  6
Continuous
 62
     7
370
    15
100
AcDbLine
 10
2267.651478512949
 20
1170.534293036169
 30
0.0
 11
2267.651478512949
 21
1165.334293036169
 31
0.0
  0
LINE
  5
73C
330
723
100
AcDbEntity
  8
0
  6
Continuous
 62
     7
370
    15
100
AcDbLine
 10
2289.501478512949
 20
1165.334293036169
 30
0.0
 11
2289.501478512949
 21
1170.534293036169
 31
0.0
  0
LINE
  5
73D
330
723
100
AcDbEntity
  8
0
  6
Continuous
 62
     7
370
    15
100
AcDbLine
 10
2282.651478512949
 20
1170.534293036169
 30
0.0
 11
2282.651478512949
 21
1165.334293036169
 31
0.0
  0
LINE
  5
73E
330
723
100
AcDbEntity
  8
0
  6
Continuous
 62
     7
370
    15
100
AcDbLine
 10
2304.501478512949
 20
1165.334293036169
 30
0.0
 11
2304.501478512949
 21
1170.534293036169
 31
0.0
  0
LINE
  5
73F
330
723
100
AcDbEntity
  8
0
  6
Continuous
 62
     7
370
    15
100
AcDbLine
 10
2297.651478512949
 20
1170.534293036169
 30
0.0
 11
2297.651478512949
 21
1165.334293036169
 31
0.0
  0
LINE
  5
740
330
723
100
AcDbEntity
  8
0
  6
Continuous
 62
     7
370
    15
100
AcDbLine
 10
2319.501478512949
 20
1165.334293036169
 30
0.0
 11
2319.501478512949
 21
1170.534293036169
 31
0.0
  0
LINE
  5
741
330
723
100
AcDbEntity
  8
0
  6
Continuous
 62
     7
370
    15
100
AcDbLine
 10
2312.651478512949
 20
1170.534293036169
 30
0.0
 11
2312.651478512949
 21
1165.334293036169
 31
0.0
  0
LINE
  5
742
330
723
100
AcDbEntity
  8
0
  6
Continuous
 62
     7
370
    15
100
AcDbLine
 10
2334.501478512949
 20
1165.334293036169
 30
0.0
 11
2334.501478512949
 21
1170.534293036169
 31
0.0
  0
LINE
  5
743
330
723
100
AcDbEntity
  8
0
  6
Continuous
 62
     7
370
    15
100
AcDbLine
 10
2327.651478512949
 20
1170.534293036169
 30
0.0
 11
2327.651478512949
 21
1165.334293036169
 31
0.0
  0
LINE
  5
744
330
723
100
AcDbEntity
  8
0
  6
Continuous
 62
     7
370
    15
100
AcDbLine
 10
2349.501478512949
 20
1165.334293036169
 30
0.0
 11
2349.501478512949
 21
1170.534293036169
 31
0.0
  0
LINE
  5
745
330
723
100
AcDbEntity
  8
0
  6
Continuous
 62
     7
370
    15
100
AcDbLine
 10
2342.651478512949
 20
1170.534293036169
 30
0.0
 11
2342.651478512949
 21
1165.334293036169
 31
0.0
  0
LINE
  5
746
330
723
100
AcDbEntity
  8
0
  6
Continuous
 62
     7
370
    15
100
AcDbLine
 10
2364.501478512949
 20
1165.334293036169
 30
0.0
 11
2364.501478512949
 21
1170.534293036169
 31
0.0
  0
LINE
  5
747
330
723
100
AcDbEntity
  8
0
  6
Continuous
 62
     7
370
    15
100
AcDbLine
 10
2357.651478512949
 20
1170.534293036169
 30
0.0
 11
2357.651478512949
 21
1165.334293036169
 31
0.0
  0
LINE
  5
748
330
723
100
AcDbEntity
  8
0
  6
Continuous
 62
     7
370
    15
100
AcDbLine
 10
2379.501478512949
 20
1165.334293036169
 30
0.0
 11
2379.501478512949
 21
1170.534293036169
 31
0.0
  0
LINE
  5
749
330
723
100
AcDbEntity
  8
0
  6
Continuous
 62
     7
370
    15
100
AcDbLine
 10
2372.651478512949
 20
1170.534293036169
 30
0.0
 11
2372.651478512949
 21
1165.334293036169
 31
0.0
  0
LINE
  5
74A
330
723
100
AcDbEntity
  8
0
  6
Continuous
 62
     7
370
    15
100
AcDbLine
 10
2259.074800906407
 20
1160.234293036205
 30
0.0
 11
2258.974800906369
 21
1160.334293036186
 31
0.0
  0
LINE
  5
74B
330
723
100
AcDbEntity
  8
0
  6
Continuous
 62
     7
370
    15
100
AcDbLine
 10
2253.174800906347
 20
1160.334293036186
 30
0.0
 11
2253.074800906309
 21
1160.234293036205
 31
0.0
  0
LINE
  5
74C
330
723
100
AcDbEntity
  8
0
  6
Continuous
 62
     7
370
    15
100
AcDbLine
 10
2259.074800906358
 20
1149.534293036169
 30
0.0
 11
2259.074800906358
 21
1160.234293036205
 31
0.0
  0
LINE
  5
74D
330
723
100
AcDbEntity
  8
0
  6
Continuous
 62
     7
370
    15
100
AcDbLine
 10
2253.074800906358
 20
1160.234293036205
 30
0.0
 11
2253.074800906358
 21
1149.534293036169
 31
0.0
  0
LINE
  5
74E
330
723
100
AcDbEntity
  8
0
  6
Continuous
 62
     7
370
    15
100
AcDbLine
 10
2274.078156119587
 20
1160.234293036205
 30
0.0
 11
2273.978156119549
 21
1160.334293036186
 31
0.0
  0
LINE
  5
74F
330
723
100
AcDbEntity
  8
0
  6
Continuous
 62
     7
370
    15
100
AcDbLine
 10
2268.178156119527
 20
1160.334293036186
 30
0.0
 11
2268.078156119489
 21
1160.234293036205
 31
0.0
  0
LINE
  5
750
330
723
100
AcDbEntity
  8
0
  6
Continuous
 62
     7
370
    15
100
AcDbLine
 10
2274.078156119538
 20
1149.534293036169
 30
0.0
 11
2274.078156119538
 21
1160.234293036205
 31
0.0
  0
LINE
  5
751
330
723
100
AcDbEntity
  8
0
  6
Continuous
 62
     7
370
    15
100
AcDbLine
 10
2268.078156119538
 20
1160.234293036205
 30
0.0
 11
2268.078156119538
 21
1149.534293036169
 31
0.0
  0
LINE
  5
752
330
723
100
AcDbEntity
  8
0
  6
Continuous
 62
     7
370
    15
100
AcDbLine
 10
2289.078156119538
 20
1149.534293036169
 30
0.0
 11
2289.078156119538
 21
1160.234293036205
 31
0.0
  0
LINE
  5
753
330
723
100
AcDbEntity
  8
0
  6
Continuous
 62
     7
370
    15
100
AcDbLine
 10
2283.078156119538
 20
1160.234293036205
 30
0.0
 11
2283.078156119538
 21
1149.534293036169
 31
0.0
  0
LINE
  5
754
330
723
100
AcDbEntity
  8
0
  6
Continuous
 62
     7
370
    15
100
AcDbLine
 10
2289.078156119587
 20
1160.234293036205
 30
0.0
 11
2288.978156119549
 21
1160.334293036186
 31
0.0
  0
LINE
  5
755
330
723
100
AcDbEntity
  8
0
  6
Continuous
 62
     7
370
    15
100
AcDbLine
 10
2283.178156119527
 20
1160.334293036186
 30
0.0
 11
2283.078156119489
 21
1160.234293036205
 31
0.0
  0
LINE
  5
756
330
723
100
AcDbEntity
  8
0
  6
Continuous
 62
     7
370
    15
100
AcDbLine
 10
2304.078156119538
 20
1149.534293036169
 30
0.0
 11
2304.078156119538
 21
1160.234293036205
 31
0.0
  0
LINE
  5
757
330
723
100
AcDbEntity
  8
0
  6
Continuous
 62
     7
370
    15
100
AcDbLine
 10
2298.078156119538
 20
1160.234293036205
 30
0.0
 11
2298.078156119538
 21
1149.534293036169
 31
0.0
  0
LINE
  5
758
330
723
100
AcDbEntity
  8
0
  6
Continuous
 62
     7
370
    15
100
AcDbLine
 10
2304.078156119587
 20
1160.234293036205
 30
0.0
 11
2303.97815611955
 21
1160.334293036186
 31
0.0
  0
LINE
  5
759
330
723
100
AcDbEntity
  8
0
  6
Continuous
 62
     7
370
    15
100
AcDbLine
 10
2298.178156119528
 20
1160.334293036186
 30
0.0
 11
2298.078156119489
 21
1160.234293036205
 31
0.0
  0
LINE
  5
75A
330
723
100
AcDbEntity
  8
0
  6
Continuous
 62
     7
370
    15
100
AcDbLine
 10
2319.078156119538
 20
1149.534293036169
 30
0.0
 11
2319.078156119538
 21
1160.234293036205
 31
0.0
  0
LINE
  5
75B
330
723
100
AcDbEntity
  8
0
  6
Continuous
 62
     7
370
    15
100
AcDbLine
 10
2313.078156119538
 20
1160.234293036205
 30
0.0
 11
2313.078156119538
 21
1149.534293036169
 31
0.0
  0
LINE
  5
75C
330
723
100
AcDbEntity
  8
0
  6
Continuous
 62
     7
370
    15
100
AcDbLine
 10
2319.078156119587
 20
1160.234293036205
 30
0.0
 11
2318.978156119549
 21
1160.334293036186
 31
0.0
  0
LINE
  5
75D
330
723
100
AcDbEntity
  8
0
  6
Continuous
 62
     7
370
    15
100
AcDbLine
 10
2313.178156119527
 20
1160.334293036186
 30
0.0
 11
2313.078156119489
 21
1160.234293036205
 31
0.0
  0
LINE
  5
75E
330
723
100
AcDbEntity
  8
0
  6
Continuous
 62
     7
370
    15
100
AcDbLine
 10
2334.078156119538
 20
1149.534293036169
 30
0.0
 11
2334.078156119538
 21
1160.234293036205
 31
0.0
  0
LINE
  5
75F
330
723
100
AcDbEntity
  8
0
  6
Continuous
 62
     7
370
    15
100
AcDbLine
 10
2328.078156119538
 20
1160.234293036205
 30
0.0
 11
2328.078156119538
 21
1149.534293036169
 31
0.0
  0
LINE
  5
760
330
723
100
AcDbEntity
  8
0
  6
Continuous
 62
     7
370
    15
100
AcDbLine
 10
2334.078156119587
 20
1160.234293036205
 30
0.0
 11
2333.978156119549
 21
1160.334293036186
 31
0.0
  0
LINE
  5
761
330
723
100
AcDbEntity
  8
0
  6
Continuous
 62
     7
370
    15
100
AcDbLine
 10
2328.178156119527
 20
1160.334293036186
 30
0.0
 11
2328.078156119489
 21
1160.234293036205
 31
0.0
  0
LINE
  5
762
330
723
100
AcDbEntity
  8
0
  6
Continuous
 62
     7
370
    15
100
AcDbLine
 10
2349.078156119538
 20
1149.534293036169
 30
0.0
 11
2349.078156119538
 21
1160.234293036205
 31
0.0
  0
LINE
  5
763
330
723
100
AcDbEntity
  8
0
  6
Continuous
 62
     7
370
    15
100
AcDbLine
 10
2343.078156119538
 20
1160.234293036205
 30
0.0
 11
2343.078156119538
 21
1149.534293036169
 31
0.0
  0
LINE
  5
764
330
723
100
AcDbEntity
  8
0
  6
Continuous
 62
     7
370
    15
100
AcDbLine
 10
2349.078156119587
 20
1160.234293036205
 30
0.0
 11
2348.978156119549
 21
1160.334293036186
 31
0.0
  0
LINE
  5
765
330
723
100
AcDbEntity
  8
0
  6
Continuous
 62
     7
370
    15
100
AcDbLine
 10
2343.178156119527
 20
1160.334293036186
 30
0.0
 11
2343.078156119489
 21
1160.234293036205
 31
0.0
  0
LINE
  5
766
330
723
100
AcDbEntity
  8
0
  6
Continuous
 62
     7
370
    15
100
AcDbLine
 10
2364.078156119587
 20
1160.234293036205
 30
0.0
 11
2363.978156119549
 21
1160.334293036186
 31
0.0
  0
LINE
  5
767
330
723
100
AcDbEntity
  8
0
  6
Continuous
 62
     7
370
    15
100
AcDbLine
 10
2358.178156119527
 20
1160.334293036186
 30
0.0
 11
2358.078156119489
 21
1160.234293036205
 31
0.0
  0
LINE
  5
768
330
723
100
AcDbEntity
  8
0
  6
Continuous
 62
     7
370
    15
100
AcDbLine
 10
2364.078156119538
 20
1149.534293036169
 30
0.0
 11
2364.078156119538
 21
1160.234293036205
 31
0.0
  0
LINE
  5
769
330
723
100
AcDbEntity
  8
0
  6
Continuous
 62
     7
370
    15
100
AcDbLine
 10
2358.078156119538
 20
1160.234293036205
 30
0.0
 11
2358.078156119538
 21
1149.534293036169
 31
0.0
  0
LINE
  5
76A
330
723
100
AcDbEntity
  8
0
  6
Continuous
 62
     7
370
    15
100
AcDbLine
 10
2379.078156119587
 20
1160.234293036205
 30
0.0
 11
2378.978156119549
 21
1160.334293036186
 31
0.0
  0
LINE
  5
76B
330
723
100
AcDbEntity
  8
0
  6
Continuous
 62
     7
370
    15
100
AcDbLine
 10
2373.178156119527
 20
1160.334293036186
 30
0.0
 11
2373.078156119489
 21
1160.234293036205
 31
0.0
  0
LINE
  5
76C
330
723
100
AcDbEntity
  8
0
  6
Continuous
 62
     7
370
    15
100
AcDbLine
 10
2379.078156119538
 20
1149.534293036169
 30
0.0
 11
2379.078156119538
 21
1160.234293036205
 31
0.0
  0
LINE
  5
76D
330
723
100
AcDbEntity
  8
0
  6
Continuous
 62
     7
370
    15
100
AcDbLine
 10
2373.078156119538
 20
1160.234293036205
 30
0.0
 11
2373.078156119538
 21
1149.534293036169
 31
0.0
  0
LINE
  5
76E
330
723
100
AcDbEntity
  8
0
  6
Continuous
 62
     7
370
    15
100
AcDbLine
 10
2259.076478512947
 20
1164.234293036169
 30
0.0
 11
2259.076478512947
 21
1165.134293036169
 31
0.0
  0
LINE
  5
76F
330
723
100
AcDbEntity
  8
0
  6
Continuous
 62
     7
370
    15
100
AcDbLine
 10
2253.076478512948
 20
1165.134293036169
 30
0.0
 11
2253.076478512948
 21
1164.234293036169
 31
0.0
  0
LINE
  5
770
330
723
100
AcDbEntity
  8
0
  6
Continuous
 62
     7
370
    15
100
AcDbLine
 10
2253.074800906373
 20
1149.534293036169
 30
0.0
 11
2253.274800906329
 21
1149.334293036213
 31
0.0
  0
LINE
  5
771
330
723
100
AcDbEntity
  8
0
  6
Continuous
 62
     7
370
    15
100
AcDbLine
 10
2258.874800906388
 20
1149.334293036213
 30
0.0
 11
2259.074800906344
 21
1149.534293036169
 31
0.0
  0
LINE
  5
772
330
723
100
AcDbEntity
  8
0
  6
Continuous
 62
     7
370
    15
100
AcDbLine
 10
2268.078156119552
 20
1149.534293036169
 30
0.0
 11
2268.278156119508
 21
1149.334293036213
 31
0.0
  0
LINE
  5
773
330
723
100
AcDbEntity
  8
0
  6
Continuous
 62
     7
370
    15
100
AcDbLine
 10
2273.878156119568
 20
1149.334293036213
 30
0.0
 11
2274.078156119524
 21
1149.534293036169
 31
0.0
  0
LINE
  5
774
330
723
100
AcDbEntity
  8
0
  6
Continuous
 62
     7
370
    15
100
AcDbLine
 10
2274.076478512949
 20
1164.234293036169
 30
0.0
 11
2274.076478512949
 21
1165.134293036169
 31
0.0
  0
LINE
  5
775
330
723
100
AcDbEntity
  8
0
  6
Continuous
 62
     7
370
    15
100
AcDbLine
 10
2268.076478512949
 20
1165.134293036169
 30
0.0
 11
2268.076478512949
 21
1164.234293036169
 31
0.0
  0
LINE
  5
776
330
723
100
AcDbEntity
  8
0
  6
Continuous
 62
     7
370
    15
100
AcDbLine
 10
2283.078156119552
 20
1149.534293036169
 30
0.0
 11
2283.278156119509
 21
1149.334293036213
 31
0.0
  0
LINE
  5
777
330
723
100
AcDbEntity
  8
0
  6
Continuous
 62
     7
370
    15
100
AcDbLine
 10
2288.878156119568
 20
1149.334293036213
 30
0.0
 11
2289.078156119524
 21
1149.534293036169
 31
0.0
  0
LINE
  5
778
330
723
100
AcDbEntity
  8
0
  6
Continuous
 62
     7
370
    15
100
AcDbLine
 10
2289.076478512949
 20
1164.234293036169
 30
0.0
 11
2289.076478512949
 21
1165.134293036169
 31
0.0
  0
LINE
  5
779
330
723
100
AcDbEntity
  8
0
  6
Continuous
 62
     7
370
    15
100
AcDbLine
 10
2283.076478512949
 20
1165.134293036169
 30
0.0
 11
2283.076478512949
 21
1164.234293036169
 31
0.0
  0
LINE
  5
77A
330
723
100
AcDbEntity
  8
0
  6
Continuous
 62
     7
370
    15
100
AcDbLine
 10
2304.076478512949
 20
1164.234293036169
 30
0.0
 11
2304.076478512949
 21
1165.134293036169
 31
0.0
  0
LINE
  5
77B
330
723
100
AcDbEntity
  8
0
  6
Continuous
 62
     7
370
    15
100
AcDbLine
 10
2298.076478512949
 20
1165.134293036169
 30
0.0
 11
2298.076478512949
 21
1164.234293036169
 31
0.0
  0
LINE
  5
77C
330
723
100
AcDbEntity
  8
0
  6
Continuous
 62
     7
370
    15
100
AcDbLine
 10
2298.078156119553
 20
1149.534293036169
 30
0.0
 11
2298.278156119508
 21
1149.334293036213
 31
0.0
  0
LINE
  5
77D
330
723
100
AcDbEntity
  8
0
  6
Continuous
 62
     7
370
    15
100
AcDbLine
 10
2303.878156119568
 20
1149.334293036213
 30
0.0
 11
2304.078156119524
 21
1149.534293036169
 31
0.0
  0
LINE
  5
77E
330
723
100
AcDbEntity
  8
0
  6
Continuous
 62
     7
370
    15
100
AcDbLine
 10
2313.078156119552
 20
1149.534293036169
 30
0.0
 11
2313.278156119508
 21
1149.334293036213
 31
0.0
  0
LINE
  5
77F
330
723
100
AcDbEntity
  8
0
  6
Continuous
 62
     7
370
    15
100
AcDbLine
 10
2318.878156119568
 20
1149.334293036213
 30
0.0
 11
2319.078156119524
 21
1149.534293036169
 31
0.0
  0
LINE
  5
780
330
723
100
AcDbEntity
  8
0
  6
Continuous
 62
     7
370
    15
100
AcDbLine
 10
2319.076478512949
 20
1164.234293036169
 30
0.0
 11
2319.076478512949
 21
1165.134293036169
 31
0.0
  0
LINE
  5
781
330
723
100
AcDbEntity
  8
0
  6
Continuous
 62
     7
370
    15
100
AcDbLine
 10
2313.076478512949
 20
1165.134293036169
 30
0.0
 11
2313.076478512949
 21
1164.234293036169
 31
0.0
  0
LINE
  5
782
330
723
100
AcDbEntity
  8
0
  6
Continuous
 62
     7
370
    15
100
AcDbLine
 10
2334.076478512949
 20
1164.234293036169
 30
0.0
 11
2334.076478512949
 21
1165.134293036169
 31
0.0
  0
LINE
  5
783
330
723
100
AcDbEntity
  8
0
  6
Continuous
 62
     7
370
    15
100
AcDbLine
 10
2328.076478512949
 20
1165.134293036169
 30
0.0
 11
2328.076478512949
 21
1164.234293036169
 31
0.0
  0
LINE
  5
784
330
723
100
AcDbEntity
  8
0
  6
Continuous
 62
     7
370
    15
100
AcDbLine
 10
2328.078156119552
 20
1149.534293036169
 30
0.0
 11
2328.278156119508
 21
1149.334293036213
 31
0.0
  0
LINE
  5
785
330
723
100
AcDbEntity
  8
0
  6
Continuous
 62
     7
370
    15
100
AcDbLine
 10
2333.878156119568
 20
1149.334293036213
 30
0.0
 11
2334.078156119524
 21
1149.534293036169
 31
0.0
  0
LINE
  5
786
330
723
100
AcDbEntity
  8
0
  6
Continuous
 62
     7
370
    15
100
AcDbLine
 10
2343.078156119553
 20
1149.534293036169
 30
0.0
 11
2343.278156119509
 21
1149.334293036213
 31
0.0
  0
LINE
  5
787
330
723
100
AcDbEntity
  8
0
  6
Continuous
 62
     7
370
    15
100
AcDbLine
 10
2348.878156119568
 20
1149.334293036213
 30
0.0
 11
2349.078156119524
 21
1149.534293036169
 31
0.0
  0
LINE
  5
788
330
723
100
AcDbEntity
  8
0
  6
Continuous
 62
     7
370
    15
100
AcDbLine
 10
2349.076478512949
 20
1164.234293036169
 30
0.0
 11
2349.076478512949
 21
1165.134293036169
 31
0.0
  0
LINE
  5
789
330
723
100
AcDbEntity
  8
0
  6
Continuous
 62
     7
370
    15
100
AcDbLine
 10
2343.076478512949
 20
1165.134293036169
 30
0.0
 11
2343.076478512949
 21
1164.234293036169
 31
0.0
  0
LINE
  5
78A
330
723
100
AcDbEntity
  8
0
  6
Continuous
 62
     7
370
    15
100
AcDbLine
 10
2364.076478512949
 20
1164.234293036169
 30
0.0
 11
2364.076478512949
 21
1165.134293036169
 31
0.0
  0
LINE
  5
78B
330
723
100
AcDbEntity
  8
0
  6
Continuous
 62
     7
370
    15
100
AcDbLine
 10
2358.076478512949
 20
1165.134293036169
 30
0.0
 11
2358.076478512949
 21
1164.234293036169
 31
0.0
  0
LINE
  5
78C
330
723
100
AcDbEntity
  8
0
  6
Continuous
 62
     7
370
    15
100
AcDbLine
 10
2358.078156119552
 20
1149.534293036169
 30
0.0
 11
2358.278156119508
 21
1149.334293036213
 31
0.0
  0
LINE
  5
78D
330
723
100
AcDbEntity
  8
0
  6
Continuous
 62
     7
370
    15
100
AcDbLine
 10
2363.878156119568
 20
1149.334293036213
 30
0.0
 11
2364.078156119524
 21
1149.534293036169
 31
0.0
  0
LINE
  5
78E
330
723
100
AcDbEntity
  8
0
  6
Continuous
 62
     7
370
    15
100
AcDbLine
 10
2373.078156119552
 20
1149.534293036169
 30
0.0
 11
2373.278156119508
 21
1149.334293036213
 31
0.0
  0
LINE
  5
78F
330
723
100
AcDbEntity
  8
0
  6
Continuous
 62
     7
370
    15
100
AcDbLine
 10
2378.878156119568
 20
1149.334293036213
 30
0.0
 11
2379.078156119524
 21
1149.534293036169
 31
0.0
  0
LINE
  5
790
330
723
100
AcDbEntity
  8
0
  6
Continuous
 62
     7
370
    15
100
AcDbLine
 10
2379.076478512949
 20
1164.234293036169
 30
0.0
 11
2379.076478512949
 21
1165.134293036169
 31
0.0
  0
LINE
  5
791
330
723
100
AcDbEntity
  8
0
  6
Continuous
 62
     7
370
    15
100
AcDbLine
 10
2373.076478512949
 20
1165.134293036169
 30
0.0
 11
2373.076478512949
 21
1164.234293036169
 31
0.0
  0
LINE
  5
792
330
723
100
AcDbEntity
  8
0
  6
Continuous
 62
     7
370
    15
100
AcDbLine
 10
2259.576478512949
 20
1160.334293036169
 30
0.0
 11
2259.576478512949
 21
1164.234293036169
 31
0.0
  0
LINE
  5
793
330
723
100
AcDbEntity
  8
0
  6
Continuous
 62
     7
370
    15
100
AcDbLine
 10
2252.576478512946
 20
1164.234293036169
 30
0.0
 11
2252.576478512947
 21
1160.334293036169
 31
0.0
  0
LINE
  5
794
330
723
100
AcDbEntity
  8
0
  6
Continuous
 62
     7
370
    15
100
AcDbLine
 10
2252.576478512946
 20
1164.234293036169
 30
0.0
 11
2259.576478512949
 21
1164.234293036169
 31
0.0
  0
LINE
  5
795
330
723
100
AcDbEntity
  8
0
  6
Continuous
 62
     7
370
    15
100
AcDbLine
 10
2252.576478512947
 20
1160.334293036169
 30
0.0
 11
2259.576478512949
 21
1160.334293036169
 31
0.0
  0
LINE
  5
796
330
723
100
AcDbEntity
  8
0
  6
Continuous
 62
     7
370
    15
100
AcDbLine
 10
2267.576478512947
 20
1160.334293036169
 30
0.0
 11
2267.576478512947
 21
1164.234293036169
 31
0.0
  0
LINE
  5
797
330
723
100
AcDbEntity
  8
0
  6
Continuous
 62
     7
370
    15
100
AcDbLine
 10
2274.576478512949
 20
1164.234293036169
 30
0.0
 11
2274.576478512951
 21
1160.334293036169
 31
0.0
  0
LINE
  5
798
330
723
100
AcDbEntity
  8
0
  6
Continuous
 62
     7
370
    15
100
AcDbLine
 10
2274.576478512949
 20
1164.234293036169
 30
0.0
 11
2267.576478512947
 21
1164.234293036169
 31
0.0
  0
LINE
  5
799
330
723
100
AcDbEntity
  8
0
  6
Continuous
 62
     7
370
    15
100
AcDbLine
 10
2274.576478512951
 20
1160.334293036169
 30
0.0
 11
2267.576478512947
 21
1160.334293036169
 31
0.0
  0
LINE
  5
79A
330
723
100
AcDbEntity
  8
0
  6
Continuous
 62
     7
370
    15
100
AcDbLine
 10
2282.576478512947
 20
1160.334293036169
 30
0.0
 11
2282.576478512947
 21
1164.234293036169
 31
0.0
  0
LINE
  5
79B
330
723
100
AcDbEntity
  8
0
  6
Continuous
 62
     7
370
    15
100
AcDbLine
 10
2289.576478512951
 20
1164.234293036169
 30
0.0
 11
2289.576478512949
 21
1160.334293036169
 31
0.0
  0
LINE
  5
79C
330
723
100
AcDbEntity
  8
0
  6
Continuous
 62
     7
370
    15
100
AcDbLine
 10
2289.576478512951
 20
1164.234293036169
 30
0.0
 11
2282.576478512947
 21
1164.234293036169
 31
0.0
  0
LINE
  5
79D
330
723
100
AcDbEntity
  8
0
  6
Continuous
 62
     7
370
    15
100
AcDbLine
 10
2289.576478512949
 20
1160.334293036169
 30
0.0
 11
2282.576478512947
 21
1160.334293036169
 31
0.0
  0
LINE
  5
79E
330
723
100
AcDbEntity
  8
0
  6
Continuous
 62
     7
370
    15
100
AcDbLine
 10
2297.576478512947
 20
1160.334293036169
 30
0.0
 11
2297.576478512947
 21
1164.234293036169
 31
0.0
  0
LINE
  5
79F
330
723
100
AcDbEntity
  8
0
  6
Continuous
 62
     7
370
    15
100
AcDbLine
 10
2304.576478512951
 20
1164.234293036169
 30
0.0
 11
2304.576478512949
 21
1160.334293036169
 31
0.0
  0
LINE
  5
7A0
330
723
100
AcDbEntity
  8
0
  6
Continuous
 62
     7
370
    15
100
AcDbLine
 10
2304.576478512951
 20
1164.234293036169
 30
0.0
 11
2297.576478512947
 21
1164.234293036169
 31
0.0
  0
LINE
  5
7A1
330
723
100
AcDbEntity
  8
0
  6
Continuous
 62
     7
370
    15
100
AcDbLine
 10
2304.576478512949
 20
1160.334293036169
 30
0.0
 11
2297.576478512947
 21
1160.334293036169
 31
0.0
  0
LINE
  5
7A2
330
723
100
AcDbEntity
  8
0
  6
Continuous
 62
     7
370
    15
100
AcDbLine
 10
2312.576478512947
 20
1160.334293036169
 30
0.0
 11
2312.576478512947
 21
1164.234293036169
 31
0.0
  0
LINE
  5
7A3
330
723
100
AcDbEntity
  8
0
  6
Continuous
 62
     7
370
    15
100
AcDbLine
 10
2319.576478512951
 20
1164.234293036169
 30
0.0
 11
2319.576478512949
 21
1160.334293036169
 31
0.0
  0
LINE
  5
7A4
330
723
100
AcDbEntity
  8
0
  6
Continuous
 62
     7
370
    15
100
AcDbLine
 10
2319.576478512951
 20
1164.234293036169
 30
0.0
 11
2312.576478512947
 21
1164.234293036169
 31
0.0
  0
LINE
  5
7A5
330
723
100
AcDbEntity
  8
0
  6
Continuous
 62
     7
370
    15
100
AcDbLine
 10
2319.576478512949
 20
1160.334293036169
 30
0.0
 11
2312.576478512947
 21
1160.334293036169
 31
0.0
  0
LINE
  5
7A6
330
723
100
AcDbEntity
  8
0
  6
Continuous
 62
     7
370
    15
100
AcDbLine
 10
2327.576478512947
 20
1160.334293036169
 30
0.0
 11
2327.576478512947
 21
1164.234293036169
 31
0.0
  0
LINE
  5
7A7
330
723
100
AcDbEntity
  8
0
  6
Continuous
 62
     7
370
    15
100
AcDbLine
 10
2334.576478512951
 20
1164.234293036169
 30
0.0
 11
2334.576478512949
 21
1160.334293036169
 31
0.0
  0
LINE
  5
7A8
330
723
100
AcDbEntity
  8
0
  6
Continuous
 62
     7
370
    15
100
AcDbLine
 10
2334.576478512951
 20
1164.234293036169
 30
0.0
 11
2327.576478512947
 21
1164.234293036169
 31
0.0
  0
LINE
  5
7A9
330
723
100
AcDbEntity
  8
0
  6
Continuous
 62
     7
370
    15
100
AcDbLine
 10
2334.576478512949
 20
1160.334293036169
 30
0.0
 11
2327.576478512947
 21
1160.334293036169
 31
0.0
  0
LINE
  5
7AA
330
723
100
AcDbEntity
  8
0
  6
Continuous
 62
     7
370
    15
100
AcDbLine
 10
2342.576478512947
 20
1160.334293036169
 30
0.0
 11
2342.576478512947
 21
1164.234293036169
 31
0.0
  0
LINE
  5
7AB
330
723
100
AcDbEntity
  8
0
  6
Continuous
 62
     7
370
    15
100
AcDbLine
 10
2349.576478512951
 20
1164.234293036169
 30
0.0
 11
2349.576478512949
 21
1160.334293036169
 31
0.0
  0
LINE
  5
7AC
330
723
100
AcDbEntity
  8
0
  6
Continuous
 62
     7
370
    15
100
AcDbLine
 10
2349.576478512951
 20
1164.234293036169
 30
0.0
 11
2342.576478512947
 21
1164.234293036169
 31
0.0
  0
LINE
  5
7AD
330
723
100
AcDbEntity
  8
0
  6
Continuous
 62
     7
370
    15
100
AcDbLine
 10
2349.576478512949
 20
1160.334293036169
 30
0.0
 11
2342.576478512947
 21
1160.334293036169
 31
0.0
  0
LINE
  5
7AE
330
723
100
AcDbEntity
  8
0
  6
Continuous
 62
     7
370
    15
100
AcDbLine
 10
2357.576478512947
 20
1160.334293036169
 30
0.0
 11
2357.576478512947
 21
1164.234293036169
 31
0.0
  0
LINE
  5
7AF
330
723
100
AcDbEntity
  8
0
  6
Continuous
 62
     7
370
    15
100
AcDbLine
 10
2364.576478512951
 20
1164.234293036169
 30
0.0
 11
2364.576478512949
 21
1160.334293036169
 31
0.0
  0
LINE
  5
7B0
330
723
100
AcDbEntity
  8
0
  6
Continuous
 62
     7
370
    15
100
AcDbLine
 10
2364.576478512951
 20
1164.234293036169
 30
0.0
 11
2357.576478512947
 21
1164.234293036169
 31
0.0
  0
LINE
  5
7B1
330
723
100
AcDbEntity
  8
0
  6
Continuous
 62
     7
370
    15
100
AcDbLine
 10
2364.576478512949
 20
1160.334293036169
 30
0.0
 11
2357.576478512947
 21
1160.334293036169
 31
0.0
  0
LINE
  5
7B2
330
723
100
AcDbEntity
  8
0
  6
Continuous
 62
     7
370
    15
100
AcDbLine
 10
2372.576478512947
 20
1160.334293036169
 30
0.0
 11
2372.576478512947
 21
1164.234293036169
 31
0.0
  0
LINE
  5
7B3
330
723
100
AcDbEntity
  8
0
  6
Continuous
 62
     7
370
    15
100
AcDbLine
 10
2379.576478512951
 20
1164.234293036169
 30
0.0
 11
2379.576478512949
 21
1160.334293036169
 31
0.0
  0
LINE
  5
7B4
330
723
100
AcDbEntity
  8
0
  6
Continuous
 62
     7
370
    15
100
AcDbLine
 10
2379.576478512951
 20
1164.234293036169
 30
0.0
 11
2372.576478512947
 21
1164.234293036169
 31
0.0
  0
LINE
  5
7B5
330
723
100
AcDbEntity
  8
0
  6
Continuous
 62
     7
370
    15
100
AcDbLine
 10
2379.576478512949
 20
1160.334293036169
 30
0.0
 11
2372.576478512947
 21
1160.334293036169
 31
0.0
  0
SPLINE
  5
7B6
330
723
100
AcDbEntity
  8
0
  6
Continuous
 62
     7
370
    15
100
AcDbSpline
210
0.0
220
0.0
230
1.0
 70
    24
 71
     3
 72
    10
 73
     6
 74
     0
 42
0.0000000001
 43
0.0000000001
 40
0.0
 40
0.0
 40
0.0
 40
0.0
 40
0.5
 40
0.5
 40
1.0
 40
1.0
 40
1.0
 40
1.0
 10
2252.851478512948
 20
1165.134293036169
 30
0.0
 10
2252.851478512948
 20
1165.134293036169
 30
0.0
 10
2254.296552605945
 20
1165.134293036169
 30
0.0
 10
2257.856404419949
 20
1165.134293036169
 30
0.0
 10
2259.301478512947
 20
1165.134293036169
 30
0.0
 10
2259.301478512947
 20
1165.134293036169
 30
0.0
  0
SPLINE
  5
7B7
330
723
100
AcDbEntity
  8
0
  6
Continuous
 62
     7
370
    15
100
AcDbSpline
210
0.0
220
0.0
230
1.0
 70
    24
 71
     3
 72
    30
 73
    26
 74
     0
 42
0.0000000001
 43
0.0000000001
 40
0.0
 40
0.0
 40
0.0
 40
0.0
 40
0.0172934937130203
 40
0.0344596655377185
 40
0.0515480950579254
 40
0.068609039634892
 40
0.0856929991960945
 40
0.1028502704464566
 40
0.1201305099490629
 40
0.1850828601801404
 40
0.2500881522292469
 40
0.3150405262905461
 40
0.3800458421887532
 40
0.4400038891296366
 40
0.5000143502049812
 40
0.55997241137046
 40
0.6199828837922907
 40
0.6849352340234343
 40
0.7499405260724737
 40
0.8148929001337954
 40
0.8798982160319786
 40
0.910029097664276
 40
0.9399097371916235
 40
0.9698101950927375
 40
1.0
 40
1.0
 40
1.0
 40
1.0
 10
2274.301478512949
 20
1165.134293036169
 30
0.0
 10
2274.300579447926
 20
1165.134293036169
 30
0.0
 10
2274.298787937171
 20
1165.134293036169
 30
0.0
 10
2274.284386489632
 20
1165.134293036169
 30
0.0
 10
2274.261381600219
 20
1165.134293036169
 30
0.0
 10
2274.228949555648
 20
1165.134293036169
 30
0.0
 10
2274.187314657718
 20
1165.134293036169
 30
0.0
 10
2274.136403845943
 20
1165.134293036169
 30
0.0
 10
2274.021272563045
 20
1165.134293036169
 30
0.0
 10
2273.791952600253
 20
1165.134293036169
 30
0.0
 10
2273.372456296051
 20
1165.134293036169
 30
0.0
 10
2272.86024171394
 20
1165.134293036169
 30
0.0
 10
2272.286809003503
 20
1165.134293036169
 30
0.0
 10
2271.684617558467
 20
1165.134293036169
 30
0.0
 10
2271.076654910033
 20
1165.134293036169
 30
0.0
 10
2270.468519072852
 20
1165.134293036169
 30
0.0
 10
2269.866477850106
 20
1165.134293036169
 30
0.0
 10
2269.292869351561
 20
1165.134293036169
 30
0.0
 10
2268.780766638153
 20
1165.134293036169
 30
0.0
 10
2268.361051221454
 20
1165.134293036169
 30
0.0
 10
2268.111879323598
 20
1165.134293036169
 30
0.0
 10
2267.974467314811
 20
1165.134293036169
 30
0.0
 10
2267.90375635249
 20
1165.134293036169
 30
0.0
 10
2267.85960140214
 20
1165.134293036169
 30
0.0
 10
2267.854194820614
 20
1165.134293036169
 30
0.0
 10
2267.851478512949
 20
1165.134293036169
 30
0.0
  0
SPLINE
  5
7B8
330
723
100
AcDbEntity
  8
0
  6
Continuous
 62
     7
370
    15
100
AcDbSpline
210
0.0
220
0.0
230
1.0
 70
    24
 71
     3
 72
    30
 73
    26
 74
     0
 42
0.0000000001
 43
0.0000000001
 40
0.0
 40
0.0
 40
0.0
 40
0.0
 40
0.0172934937130203
 40
0.0344596655377185
 40
0.0515480950579254
 40
0.0686090396348921
 40
0.0856929991960945
 40
0.1028502704464567
 40
0.120130509949063
 40
0.1850828601801405
 40
0.250088152229247
 40
0.3150405262905462
 40
0.3800458421887532
 40
0.4400038891296367
 40
0.5000143502049813
 40
0.55997241137046
 40
0.6199828837922908
 40
0.6849352340234343
 40
0.7499405260724737
 40
0.8148929001337954
 40
0.8798982160319788
 40
0.910029097664276
 40
0.9399097371916235
 40
0.9698101950927375
 40
1.0
 40
1.0
 40
1.0
 40
1.0
 10
2289.301478512949
 20
1165.134293036169
 30
0.0
 10
2289.300579447926
 20
1165.134293036169
 30
0.0
 10
2289.298787937172
 20
1165.134293036169
 30
0.0
 10
2289.284386489632
 20
1165.134293036169
 30
0.0
 10
2289.26138160022
 20
1165.134293036169
 30
0.0
 10
2289.228949555648
 20
1165.134293036169
 30
0.0
 10
2289.187314657718
 20
1165.134293036169
 30
0.0
 10
2289.136403845943
 20
1165.134293036169
 30
0.0
 10
2289.021272563045
 20
1165.134293036169
 30
0.0
 10
2288.791952600254
 20
1165.134293036169
 30
0.0
 10
2288.372456296052
 20
1165.134293036169
 30
0.0
 10
2287.86024171394
 20
1165.134293036169
 30
0.0
 10
2287.286809003503
 20
1165.134293036169
 30
0.0
 10
2286.684617558467
 20
1165.134293036169
 30
0.0
 10
2286.076654910033
 20
1165.134293036169
 30
0.0
 10
2285.468519072852
 20
1165.134293036169
 30
0.0
 10
2284.866477850107
 20
1165.134293036169
 30
0.0
 10
2284.292869351562
 20
1165.134293036169
 30
0.0
 10
2283.780766638153
 20
1165.134293036169
 30
0.0
 10
2283.361051221454
 20
1165.134293036169
 30
0.0
 10
2283.111879323597
 20
1165.134293036169
 30
0.0
 10
2282.974467314811
 20
1165.134293036169
 30
0.0
 10
2282.90375635249
 20
1165.134293036169
 30
0.0
 10
2282.85960140214
 20
1165.134293036169
 30
0.0
 10
2282.854194820615
 20
1165.134293036169
 30
0.0
 10
2282.851478512949
 20
1165.134293036169
 30
0.0
  0
SPLINE
  5
7B9
330
723
100
AcDbEntity
  8
0
  6
Continuous
 62
     7
370
    15
100
AcDbSpline
210
0.0
220
0.0
230
1.0
 70
    24
 71
     3
 72
    30
 73
    26
 74
     0
 42
0.0000000001
 43
0.0000000001
 40
0.0
 40
0.0
 40
0.0
 40
0.0
 40
0.0172934937130203
 40
0.0344596655377185
 40
0.0515480950579254
 40
0.0686090396348921
 40
0.0856929991960945
 40
0.1028502704464567
 40
0.120130509949063
 40
0.1850828601801405
 40
0.2500881522292471
 40
0.3150405262905462
 40
0.3800458421887533
 40
0.4400038891296368
 40
0.5000143502049815
 40
0.5599724113704601
 40
0.619982883792291
 40
0.6849352340234346
 40
0.7499405260724741
 40
0.8148929001337954
 40
0.8798982160319791
 40
0.9100290976642764
 40
0.9399097371916237
 40
0.9698101950927377
 40
1.0
 40
1.0
 40
1.0
 40
1.0
 10
2304.301478512949
 20
1165.134293036169
 30
0.0
 10
2304.300579447926
 20
1165.134293036169
 30
0.0
 10
2304.298787937171
 20
1165.134293036169
 30
0.0
 10
2304.284386489632
 20
1165.134293036169
 30
0.0
 10
2304.26138160022
 20
1165.134293036169
 30
0.0
 10
2304.228949555648
 20
1165.134293036169
 30
0.0
 10
2304.187314657718
 20
1165.134293036169
 30
0.0
 10
2304.136403845943
 20
1165.134293036169
 30
0.0
 10
2304.021272563046
 20
1165.134293036169
 30
0.0
 10
2303.791952600253
 20
1165.134293036169
 30
0.0
 10
2303.372456296052
 20
1165.134293036169
 30
0.0
 10
2302.86024171394
 20
1165.134293036169
 30
0.0
 10
2302.286809003503
 20
1165.134293036169
 30
0.0
 10
2301.684617558467
 20
1165.134293036169
 30
0.0
 10
2301.076654910033
 20
1165.134293036169
 30
0.0
 10
2300.468519072852
 20
1165.134293036169
 30
0.0
 10
2299.866477850107
 20
1165.134293036169
 30
0.0
 10
2299.292869351562
 20
1165.134293036169
 30
0.0
 10
2298.780766638153
 20
1165.134293036169
 30
0.0
 10
2298.361051221454
 20
1165.134293036169
 30
0.0
 10
2298.111879323597
 20
1165.134293036169
 30
0.0
 10
2297.974467314811
 20
1165.134293036169
 30
0.0
 10
2297.90375635249
 20
1165.134293036169
 30
0.0
 10
2297.859601402139
 20
1165.134293036169
 30
0.0
 10
2297.854194820614
 20
1165.134293036169
 30
0.0
 10
2297.851478512949
 20
1165.134293036169
 30
0.0
  0
SPLINE
  5
7BA
330
723
100
AcDbEntity
  8
0
  6
Continuous
 62
     7
370
    15
100
AcDbSpline
210
0.0
220
0.0
230
1.0
 70
    24
 71
     3
 72
    30
 73
    26
 74
     0
 42
0.0000000001
 43
0.0000000001
 40
0.0
 40
0.0
 40
0.0
 40
0.0
 40
0.0172934937130203
 40
0.0344596655377184
 40
0.0515480950579255
 40
0.0686090396348921
 40
0.0856929991960945
 40
0.1028502704464566
 40
0.1201305099490631
 40
0.1850828601801403
 40
0.2500881522292468
 40
0.315040526290546
 40
0.3800458421887531
 40
0.4400038891296365
 40
0.5000143502049812
 40
0.55997241137046
 40
0.6199828837922908
 40
0.6849352340234343
 40
0.7499405260724739
 40
0.8148929001337952
 40
0.8798982160319789
 40
0.9100290976642762
 40
0.9399097371916237
 40
0.9698101950927377
 40
1.0
 40
1.0
 40
1.0
 40
1.0
 10
2319.301478512949
 20
1165.134293036169
 30
0.0
 10
2319.300579447926
 20
1165.134293036169
 30
0.0
 10
2319.298787937171
 20
1165.134293036169
 30
0.0
 10
2319.284386489632
 20
1165.134293036169
 30
0.0
 10
2319.261381600219
 20
1165.134293036169
 30
0.0
 10
2319.228949555648
 20
1165.134293036169
 30
0.0
 10
2319.187314657718
 20
1165.134293036169
 30
0.0
 10
2319.136403845943
 20
1165.134293036169
 30
0.0
 10
2319.021272563046
 20
1165.134293036169
 30
0.0
 10
2318.791952600253
 20
1165.134293036169
 30
0.0
 10
2318.372456296052
 20
1165.134293036169
 30
0.0
 10
2317.86024171394
 20
1165.134293036169
 30
0.0
 10
2317.286809003503
 20
1165.134293036169
 30
0.0
 10
2316.684617558467
 20
1165.134293036169
 30
0.0
 10
2316.076654910033
 20
1165.134293036169
 30
0.0
 10
2315.468519072853
 20
1165.134293036169
 30
0.0
 10
2314.866477850106
 20
1165.134293036169
 30
0.0
 10
2314.292869351561
 20
1165.134293036169
 30
0.0
 10
2313.780766638153
 20
1165.134293036169
 30
0.0
 10
2313.361051221454
 20
1165.134293036169
 30
0.0
 10
2313.111879323598
 20
1165.134293036169
 30
0.0
 10
2312.974467314811
 20
1165.134293036169
 30
0.0
 10
2312.90375635249
 20
1165.134293036169
 30
0.0
 10
2312.85960140214
 20
1165.134293036169
 30
0.0
 10
2312.854194820614
 20
1165.134293036169
 30
0.0
 10
2312.851478512949
 20
1165.134293036169
 30
0.0
  0
SPLINE
  5
7BB
330
723
100
AcDbEntity
  8
0
  6
Continuous
 62
     7
370
    15
100
AcDbSpline
210
0.0
220
0.0
230
1.0
 70
    24
 71
     3
 72
    30
 73
    26
 74
     0
 42
0.0000000001
 43
0.0000000001
 40
0.0
 40
0.0
 40
0.0
 40
0.0
 40
0.0172934937130203
 40
0.0344596655377185
 40
0.0515480950579255
 40
0.0686090396348921
 40
0.0856929991960945
 40
0.1028502704464566
 40
0.1201305099490631
 40
0.1850828601801404
 40
0.2500881522292469
 40
0.3150405262905456
 40
0.3800458421887533
 40
0.4400038891296367
 40
0.5000143502049813
 40
0.5599724113704593
 40
0.6199828837922908
 40
0.6849352340234343
 40
0.749940526072474
 40
0.8148929001337958
 40
0.8798982160319789
 40
0.9100290976642765
 40
0.9399097371916235
 40
0.9698101950927378
 40
1.0
 40
1.0
 40
1.0
 40
1.0
 10
2334.301478512949
 20
1165.134293036169
 30
0.0
 10
2334.300579447926
 20
1165.134293036169
 30
0.0
 10
2334.298787937171
 20
1165.134293036169
 30
0.0
 10
2334.284386489632
 20
1165.134293036169
 30
0.0
 10
2334.26138160022
 20
1165.134293036169
 30
0.0
 10
2334.228949555648
 20
1165.134293036169
 30
0.0
 10
2334.187314657718
 20
1165.134293036169
 30
0.0
 10
2334.136403845943
 20
1165.134293036169
 30
0.0
 10
2334.021272563045
 20
1165.134293036169
 30
0.0
 10
2333.791952600253
 20
1165.134293036169
 30
0.0
 10
2333.372456296052
 20
1165.134293036169
 30
0.0
 10
2332.86024171394
 20
1165.134293036169
 30
0.0
 10
2332.286809003503
 20
1165.134293036169
 30
0.0
 10
2331.684617558467
 20
1165.134293036169
 30
0.0
 10
2331.076654910033
 20
1165.134293036169
 30
0.0
 10
2330.468519072852
 20
1165.134293036169
 30
0.0
 10
2329.866477850107
 20
1165.134293036169
 30
0.0
 10
2329.292869351561
 20
1165.134293036169
 30
0.0
 10
2328.780766638153
 20
1165.134293036169
 30
0.0
 10
2328.361051221454
 20
1165.134293036169
 30
0.0
 10
2328.111879323597
 20
1165.134293036169
 30
0.0
 10
2327.974467314811
 20
1165.134293036169
 30
0.0
 10
2327.90375635249
 20
1165.134293036169
 30
0.0
 10
2327.85960140214
 20
1165.134293036169
 30
0.0
 10
2327.854194820615
 20
1165.134293036169
 30
0.0
 10
2327.851478512949
 20
1165.134293036169
 30
0.0
  0
SPLINE
  5
7BC
330
723
100
AcDbEntity
  8
0
  6
Continuous
 62
     7
370
    15
100
AcDbSpline
210
0.0
220
0.0
230
1.0
 70
    24
 71
     3
 72
    30
 73
    26
 74
     0
 42
0.0000000001
 43
0.0000000001
 40
0.0
 40
0.0
 40
0.0
 40
0.0
 40
0.0172934937130203
 40
0.0344596655377185
 40
0.0515480950579255
 40
0.0686090396348921
 40
0.0856929991960945
 40
0.1028502704464566
 40
0.1201305099490631
 40
0.1850828601801403
 40
0.2500881522292468
 40
0.3150405262905455
 40
0.3800458421887533
 40
0.4400038891296367
 40
0.5000143502049813
 40
0.5599724113704593
 40
0.6199828837922908
 40
0.6849352340234344
 40
0.749940526072474
 40
0.8148929001337958
 40
0.8798982160319789
 40
0.9100290976642765
 40
0.9399097371916235
 40
0.9698101950927378
 40
1.0
 40
1.0
 40
1.0
 40
1.0
 10
2349.301478512949
 20
1165.134293036169
 30
0.0
 10
2349.300579447926
 20
1165.134293036169
 30
0.0
 10
2349.298787937172
 20
1165.134293036169
 30
0.0
 10
2349.284386489632
 20
1165.134293036169
 30
0.0
 10
2349.26138160022
 20
1165.134293036169
 30
0.0
 10
2349.228949555648
 20
1165.134293036169
 30
0.0
 10
2349.187314657718
 20
1165.134293036169
 30
0.0
 10
2349.136403845943
 20
1165.134293036169
 30
0.0
 10
2349.021272563045
 20
1165.134293036169
 30
0.0
 10
2348.791952600254
 20
1165.134293036169
 30
0.0
 10
2348.372456296051
 20
1165.134293036169
 30
0.0
 10
2347.86024171394
 20
1165.134293036169
 30
0.0
 10
2347.286809003503
 20
1165.134293036169
 30
0.0
 10
2346.684617558467
 20
1165.134293036169
 30
0.0
 10
2346.076654910033
 20
1165.134293036169
 30
0.0
 10
2345.468519072852
 20
1165.134293036169
 30
0.0
 10
2344.866477850107
 20
1165.134293036169
 30
0.0
 10
2344.292869351562
 20
1165.134293036169
 30
0.0
 10
2343.780766638153
 20
1165.134293036169
 30
0.0
 10
2343.361051221454
 20
1165.134293036169
 30
0.0
 10
2343.111879323597
 20
1165.134293036169
 30
0.0
 10
2342.974467314811
 20
1165.134293036169
 30
0.0
 10
2342.90375635249
 20
1165.134293036169
 30
0.0
 10
2342.859601402139
 20
1165.134293036169
 30
0.0
 10
2342.854194820614
 20
1165.134293036169
 30
0.0
 10
2342.851478512949
 20
1165.134293036169
 30
0.0
  0
SPLINE
  5
7BD
330
723
100
AcDbEntity
  8
0
  6
Continuous
 62
     7
370
    15
100
AcDbSpline
210
0.0
220
0.0
230
1.0
 70
    24
 71
     3
 72
    30
 73
    26
 74
     0
 42
0.0000000001
 43
0.0000000001
 40
0.0
 40
0.0
 40
0.0
 40
0.0
 40
0.0172934937130203
 40
0.0344596655377184
 40
0.0515480950579255
 40
0.0686090396348921
 40
0.0856929991960945
 40
0.1028502704464566
 40
0.1201305099490631
 40
0.1850828601801403
 40
0.2500881522292468
 40
0.3150405262905455
 40
0.3800458421887532
 40
0.4400038891296367
 40
0.5000143502049813
 40
0.5599724113704593
 40
0.6199828837922908
 40
0.6849352340234344
 40
0.749940526072474
 40
0.8148929001337958
 40
0.8798982160319789
 40
0.9100290976642765
 40
0.9399097371916235
 40
0.9698101950927378
 40
1.0
 40
1.0
 40
1.0
 40
1.0
 10
2364.301478512949
 20
1165.134293036169
 30
0.0
 10
2364.300579447927
 20
1165.134293036169
 30
0.0
 10
2364.298787937171
 20
1165.134293036169
 30
0.0
 10
2364.284386489632
 20
1165.134293036169
 30
0.0
 10
2364.26138160022
 20
1165.134293036169
 30
0.0
 10
2364.228949555648
 20
1165.134293036169
 30
0.0
 10
2364.187314657718
 20
1165.134293036169
 30
0.0
 10
2364.136403845943
 20
1165.134293036169
 30
0.0
 10
2364.021272563046
 20
1165.134293036169
 30
0.0
 10
2363.791952600253
 20
1165.134293036169
 30
0.0
 10
2363.372456296052
 20
1165.134293036169
 30
0.0
 10
2362.86024171394
 20
1165.134293036169
 30
0.0
 10
2362.286809003503
 20
1165.134293036169
 30
0.0
 10
2361.684617558467
 20
1165.134293036169
 30
0.0
 10
2361.076654910033
 20
1165.134293036169
 30
0.0
 10
2360.468519072853
 20
1165.134293036169
 30
0.0
 10
2359.866477850107
 20
1165.134293036169
 30
0.0
 10
2359.292869351561
 20
1165.134293036169
 30
0.0
 10
2358.780766638153
 20
1165.134293036169
 30
0.0
 10
2358.361051221454
 20
1165.134293036169
 30
0.0
 10
2358.111879323598
 20
1165.134293036169
 30
0.0
 10
2357.974467314811
 20
1165.134293036169
 30
0.0
 10
2357.90375635249
 20
1165.134293036169
 30
0.0
 10
2357.85960140214
 20
1165.134293036169
 30
0.0
 10
2357.854194820614
 20
1165.134293036169
 30
0.0
 10
2357.851478512949
 20
1165.134293036169
 30
0.0
  0
SPLINE
  5
7BE
330
723
100
AcDbEntity
  8
0
  6
Continuous
 62
     7
370
    15
100
AcDbSpline
210
0.0
220
0.0
230
1.0
 70
    24
 71
     3
 72
    30
 73
    26
 74
     0
 42
0.0000000001
 43
0.0000000001
 40
0.0
 40
0.0
 40
0.0
 40
0.0
 40
0.0172934937130203
 40
0.0344596655377185
 40
0.0515480950579255
 40
0.0686090396348921
 40
0.0856929991960945
 40
0.1028502704464566
 40
0.1201305099490631
 40
0.1850828601801404
 40
0.2500881522292469
 40
0.3150405262905456
 40
0.3800458421887533
 40
0.4400038891296367
 40
0.5000143502049813
 40
0.5599724113704593
 40
0.6199828837922908
 40
0.6849352340234343
 40
0.749940526072474
 40
0.8148929001337958
 40
0.8798982160319789
 40
0.9100290976642765
 40
0.9399097371916235
 40
0.9698101950927378
 40
1.0
 40
1.0
 40
1.0
 40
1.0
 10
2379.301478512949
 20
1165.134293036169
 30
0.0
 10
2379.300579447926
 20
1165.134293036169
 30
0.0
 10
2379.298787937171
 20
1165.134293036169
 30
0.0
 10
2379.284386489632
 20
1165.134293036169
 30
0.0
 10
2379.261381600219
 20
1165.134293036169
 30
0.0
 10
2379.228949555648
 20
1165.134293036169
 30
0.0
 10
2379.187314657718
 20
1165.134293036169
 30
0.0
 10
2379.136403845943
 20
1165.134293036169
 30
0.0
 10
2379.021272563045
 20
1165.134293036169
 30
0.0
 10
2378.791952600253
 20
1165.134293036169
 30
0.0
 10
2378.372456296052
 20
1165.134293036169
 30
0.0
 10
2377.86024171394
 20
1165.134293036169
 30
0.0
 10
2377.286809003503
 20
1165.134293036169
 30
0.0
 10
2376.684617558467
 20
1165.134293036169
 30
0.0
 10
2376.076654910033
 20
1165.134293036169
 30
0.0
 10
2375.468519072852
 20
1165.134293036169
 30
0.0
 10
2374.866477850106
 20
1165.134293036169
 30
0.0
 10
2374.292869351561
 20
1165.134293036169
 30
0.0
 10
2373.780766638153
 20
1165.134293036169
 30
0.0
 10
2373.361051221454
 20
1165.134293036169
 30
0.0
 10
2373.111879323598
 20
1165.134293036169
 30
0.0
 10
2372.974467314811
 20
1165.134293036169
 30
0.0
 10
2372.90375635249
 20
1165.134293036169
 30
0.0
 10
2372.85960140214
 20
1165.134293036169
 30
0.0
 10
2372.854194820614
 20
1165.134293036169
 30
0.0
 10
2372.851478512949
 20
1165.134293036169
 30
0.0
  0
LINE
  5
7BF
330
723
100
AcDbEntity
  8
0
  6
Continuous
 62
     7
370
    15
100
AcDbLine
 10
2259.501478512948
 20
1170.534293036169
 30
0.0
 11
2252.651478512948
 21
1170.534293036169
 31
0.0
  0
LINE
  5
7C0
330
723
100
AcDbEntity
  8
0
  6
Continuous
 62
     7
370
    15
100
AcDbLine
 10
2267.651478512949
 20
1170.534293036169
 30
0.0
 11
2274.501478512949
 21
1170.534293036169
 31
0.0
  0
LINE
  5
7C1
330
723
100
AcDbEntity
  8
0
  6
Continuous
 62
     7
370
    15
100
AcDbLine
 10
2282.651478512949
 20
1170.534293036169
 30
0.0
 11
2289.501478512949
 21
1170.534293036169
 31
0.0
  0
LINE
  5
7C2
330
723
100
AcDbEntity
  8
0
  6
Continuous
 62
     7
370
    15
100
AcDbLine
 10
2297.651478512949
 20
1170.534293036169
 30
0.0
 11
2304.501478512949
 21
1170.534293036169
 31
0.0
  0
LINE
  5
7C3
330
723
100
AcDbEntity
  8
0
  6
Continuous
 62
     7
370
    15
100
AcDbLine
 10
2312.651478512949
 20
1170.534293036169
 30
0.0
 11
2319.501478512949
 21
1170.534293036169
 31
0.0
  0
LINE
  5
7C4
330
723
100
AcDbEntity
  8
0
  6
Continuous
 62
     7
370
    15
100
AcDbLine
 10
2327.651478512949
 20
1170.534293036169
 30
0.0
 11
2334.501478512949
 21
1170.534293036169
 31
0.0
  0
LINE
  5
7C5
330
723
100
AcDbEntity
  8
0
  6
Continuous
 62
     7
370
    15
100
AcDbLine
 10
2342.651478512949
 20
1170.534293036169
 30
0.0
 11
2349.501478512949
 21
1170.534293036169
 31
0.0
  0
LINE
  5
7C6
330
723
100
AcDbEntity
  8
0
  6
Continuous
 62
     7
370
    15
100
AcDbLine
 10
2357.651478512949
 20
1170.534293036169
 30
0.0
 11
2364.501478512949
 21
1170.534293036169
 31
0.0
  0
LINE
  5
7C7
330
723
100
AcDbEntity
  8
0
  6
Continuous
 62
     7
370
    15
100
AcDbLine
 10
2372.651478512949
 20
1170.534293036169
 30
0.0
 11
2379.501478512949
 21
1170.534293036169
 31
0.0
  0
LINE
  5
7C8
330
723
100
AcDbEntity
  8
0
  6
Continuous
 62
     7
370
    15
100
AcDbLine
 10
2250.376478512947
 20
1164.234293036169
 30
0.0
 11
2250.376478512947
 21
1160.334293036169
 31
0.0
  0
LINE
  5
7C9
330
723
100
AcDbEntity
  8
0
  6
Continuous
 62
     7
370
    15
100
AcDbLine
 10
2250.376478512947
 20
1164.234293036169
 30
0.0
 11
2252.576478512946
 21
1164.234293036169
 31
0.0
  0
LINE
  5
7CA
330
723
100
AcDbEntity
  8
0
  6
Continuous
 62
     7
370
    15
100
AcDbLine
 10
2252.576478512947
 20
1160.334293036169
 30
0.0
 11
2250.376478512947
 21
1160.334293036169
 31
0.0
  0
LINE
  5
7CB
330
723
100
AcDbEntity
  8
0
  6
Continuous
 62
     7
370
    15
100
AcDbLine
 10
2274.576478512949
 20
1164.234293036169
 30
0.0
 11
2282.576478512947
 21
1164.234293036169
 31
0.0
  0
LINE
  5
7CC
330
723
100
AcDbEntity
  8
0
  6
Continuous
 62
     7
370
    15
100
AcDbLine
 10
2282.576478512947
 20
1160.334293036169
 30
0.0
 11
2274.576478512951
 21
1160.334293036169
 31
0.0
  0
LINE
  5
7CD
330
723
100
AcDbEntity
  8
0
  6
Continuous
 62
     7
370
    15
100
AcDbLine
 10
2297.576478512947
 20
1164.234293036169
 30
0.0
 11
2289.576478512951
 21
1164.234293036169
 31
0.0
  0
LINE
  5
7CE
330
723
100
AcDbEntity
  8
0
  6
Continuous
 62
     7
370
    15
100
AcDbLine
 10
2289.576478512949
 20
1160.334293036169
 30
0.0
 11
2297.576478512947
 21
1160.334293036169
 31
0.0
  0
LINE
  5
7CF
330
723
100
AcDbEntity
  8
0
  6
Continuous
 62
     7
370
    15
100
AcDbLine
 10
2312.576478512947
 20
1164.234293036169
 30
0.0
 11
2304.576478512951
 21
1164.234293036169
 31
0.0
  0
LINE
  5
7D0
330
723
100
AcDbEntity
  8
0
  6
Continuous
 62
     7
370
    15
100
AcDbLine
 10
2304.576478512949
 20
1160.334293036169
 30
0.0
 11
2312.576478512947
 21
1160.334293036169
 31
0.0
  0
LINE
  5
7D1
330
723
100
AcDbEntity
  8
0
  6
Continuous
 62
     7
370
    15
100
AcDbLine
 10
2259.576478512949
 20
1164.234293036169
 30
0.0
 11
2267.576478512947
 21
1164.234293036169
 31
0.0
  0
LINE
  5
7D2
330
723
100
AcDbEntity
  8
0
  6
Continuous
 62
     7
370
    15
100
AcDbLine
 10
2267.576478512947
 20
1160.334293036169
 30
0.0
 11
2259.576478512949
 21
1160.334293036169
 31
0.0
  0
LINE
  5
7D3
330
723
100
AcDbEntity
  8
0
  6
Continuous
 62
     7
370
    15
100
AcDbLine
 10
2327.576478512947
 20
1164.234293036169
 30
0.0
 11
2319.576478512951
 21
1164.234293036169
 31
0.0
  0
LINE
  5
7D4
330
723
100
AcDbEntity
  8
0
  6
Continuous
 62
     7
370
    15
100
AcDbLine
 10
2319.576478512949
 20
1160.334293036169
 30
0.0
 11
2327.576478512947
 21
1160.334293036169
 31
0.0
  0
LINE
  5
7D5
330
723
100
AcDbEntity
  8
0
  6
Continuous
 62
     7
370
    15
100
AcDbLine
 10
2342.576478512947
 20
1164.234293036169
 30
0.0
 11
2334.576478512951
 21
1164.234293036169
 31
0.0
  0
LINE
  5
7D6
330
723
100
AcDbEntity
  8
0
  6
Continuous
 62
     7
370
    15
100
AcDbLine
 10
2334.576478512949
 20
1160.334293036169
 30
0.0
 11
2342.576478512947
 21
1160.334293036169
 31
0.0
  0
LINE
  5
7D7
330
723
100
AcDbEntity
  8
0
  6
Continuous
 62
     7
370
    15
100
AcDbLine
 10
2357.576478512947
 20
1164.234293036169
 30
0.0
 11
2349.576478512951
 21
1164.234293036169
 31
0.0
  0
LINE
  5
7D8
330
723
100
AcDbEntity
  8
0
  6
Continuous
 62
     7
370
    15
100
AcDbLine
 10
2349.576478512949
 20
1160.334293036169
 30
0.0
 11
2357.576478512947
 21
1160.334293036169
 31
0.0
  0
LINE
  5
7D9
330
723
100
AcDbEntity
  8
0
  6
Continuous
 62
     7
370
    15
100
AcDbLine
 10
2372.576478512947
 20
1164.234293036169
 30
0.0
 11
2364.576478512951
 21
1164.234293036169
 31
0.0
  0
LINE
  5
7DA
330
723
100
AcDbEntity
  8
0
  6
Continuous
 62
     7
370
    15
100
AcDbLine
 10
2364.576478512949
 20
1160.334293036169
 30
0.0
 11
2372.576478512947
 21
1160.334293036169
 31
0.0
  0
LINE
  5
7DB
330
723
100
AcDbEntity
  8
0
  6
Continuous
 62
     7
370
    15
100
AcDbLine
 10
2381.776478512949
 20
1164.234293036169
 30
0.0
 11
2381.776478512949
 21
1160.334293036169
 31
0.0
  0
LINE
  5
7DC
330
723
100
AcDbEntity
  8
0
  6
Continuous
 62
     7
370
    15
100
AcDbLine
 10
2381.776478512949
 20
1164.234293036169
 30
0.0
 11
2379.576478512951
 21
1164.234293036169
 31
0.0
  0
LINE
  5
7DD
330
723
100
AcDbEntity
  8
0
  6
Continuous
 62
     7
370
    15
100
AcDbLine
 10
2379.576478512949
 20
1160.334293036169
 30
0.0
 11
2381.776478512949
 21
1160.334293036169
 31
0.0
  0
LINE
  5
7DE
330
723
100
AcDbEntity
  8
0
  6
Continuous
 62
     7
370
    15
100
AcDbLine
 10
2253.074800906309
 20
1160.234293036205
 30
0.0
 11
2259.074800906407
 21
1160.234293036205
 31
0.0
  0
LINE
  5
7DF
330
723
100
AcDbEntity
  8
0
  6
Continuous
 62
     7
370
    15
100
AcDbLine
 10
2253.074800906358
 20
1149.534293036169
 30
0.0
 11
2259.074800906358
 21
1149.534293036169
 31
0.0
  0
LINE
  5
7E0
330
723
100
AcDbEntity
  8
0
  6
Continuous
 62
     7
370
    15
100
AcDbLine
 10
2274.078156119587
 20
1160.234293036205
 30
0.0
 11
2268.078156119489
 21
1160.234293036205
 31
0.0
  0
LINE
  5
7E1
330
723
100
AcDbEntity
  8
0
  6
Continuous
 62
     7
370
    15
100
AcDbLine
 10
2274.078156119538
 20
1149.534293036169
 30
0.0
 11
2268.078156119538
 21
1149.534293036169
 31
0.0
  0
LINE
  5
7E2
330
723
100
AcDbEntity
  8
0
  6
Continuous
 62
     7
370
    15
100
AcDbLine
 10
2289.078156119587
 20
1160.234293036205
 30
0.0
 11
2283.078156119489
 21
1160.234293036205
 31
0.0
  0
LINE
  5
7E3
330
723
100
AcDbEntity
  8
0
  6
Continuous
 62
     7
370
    15
100
AcDbLine
 10
2289.078156119538
 20
1149.534293036169
 30
0.0
 11
2283.078156119538
 21
1149.534293036169
 31
0.0
  0
LINE
  5
7E4
330
723
100
AcDbEntity
  8
0
  6
Continuous
 62
     7
370
    15
100
AcDbLine
 10
2304.078156119587
 20
1160.234293036205
 30
0.0
 11
2298.078156119489
 21
1160.234293036205
 31
0.0
  0
LINE
  5
7E5
330
723
100
AcDbEntity
  8
0
  6
Continuous
 62
     7
370
    15
100
AcDbLine
 10
2304.078156119538
 20
1149.534293036169
 30
0.0
 11
2298.078156119538
 21
1149.534293036169
 31
0.0
  0
LINE
  5
7E6
330
723
100
AcDbEntity
  8
0
  6
Continuous
 62
     7
370
    15
100
AcDbLine
 10
2319.078156119587
 20
1160.234293036205
 30
0.0
 11
2313.078156119489
 21
1160.234293036205
 31
0.0
  0
LINE
  5
7E7
330
723
100
AcDbEntity
  8
0
  6
Continuous
 62
     7
370
    15
100
AcDbLine
 10
2319.078156119538
 20
1149.534293036169
 30
0.0
 11
2313.078156119538
 21
1149.534293036169
 31
0.0
  0
LINE
  5
7E8
330
723
100
AcDbEntity
  8
0
  6
Continuous
 62
     7
370
    15
100
AcDbLine
 10
2334.078156119587
 20
1160.234293036205
 30
0.0
 11
2328.078156119489
 21
1160.234293036205
 31
0.0
  0
LINE
  5
7E9
330
723
100
AcDbEntity
  8
0
  6
Continuous
 62
     7
370
    15
100
AcDbLine
 10
2334.078156119538
 20
1149.534293036169
 30
0.0
 11
2328.078156119538
 21
1149.534293036169
 31
0.0
  0
LINE
  5
7EA
330
723
100
AcDbEntity
  8
0
  6
Continuous
 62
     7
370
    15
100
AcDbLine
 10
2349.078156119587
 20
1160.234293036205
 30
0.0
 11
2343.078156119489
 21
1160.234293036205
 31
0.0
  0
LINE
  5
7EB
330
723
100
AcDbEntity
  8
0
  6
Continuous
 62
     7
370
    15
100
AcDbLine
 10
2349.078156119538
 20
1149.534293036169
 30
0.0
 11
2343.078156119538
 21
1149.534293036169
 31
0.0
  0
LINE
  5
7EC
330
723
100
AcDbEntity
  8
0
  6
Continuous
 62
     7
370
    15
100
AcDbLine
 10
2364.078156119587
 20
1160.234293036205
 30
0.0
 11
2358.078156119489
 21
1160.234293036205
 31
0.0
  0
LINE
  5
7ED
330
723
100
AcDbEntity
  8
0
  6
Continuous
 62
     7
370
    15
100
AcDbLine
 10
2364.078156119538
 20
1149.534293036169
 30
0.0
 11
2358.078156119538
 21
1149.534293036169
 31
0.0
  0
LINE
  5
7EE
330
723
100
AcDbEntity
  8
0
  6
Continuous
 62
     7
370
    15
100
AcDbLine
 10
2379.078156119587
 20
1160.234293036205
 30
0.0
 11
2373.078156119489
 21
1160.234293036205
 31
0.0
  0
LINE
  5
7EF
330
723
100
AcDbEntity
  8
0
  6
Continuous
 62
     7
370
    15
100
AcDbLine
 10
2379.078156119538
 20
1149.534293036169
 30
0.0
 11
2373.078156119538
 21
1149.534293036169
 31
0.0
  0
LINE
  5
7F0
330
723
100
AcDbEntity
  8
0
  6
Continuous
 62
     7
370
    15
100
AcDbLine
 10
2253.274800906329
 20
1149.334293036213
 30
0.0
 11
2258.874800906388
 21
1149.334293036213
 31
0.0
  0
LINE
  5
7F1
330
723
100
AcDbEntity
  8
0
  6
Continuous
 62
     7
370
    15
100
AcDbLine
 10
2273.878156119568
 20
1149.334293036213
 30
0.0
 11
2268.278156119508
 21
1149.334293036213
 31
0.0
  0
LINE
  5
7F2
330
723
100
AcDbEntity
  8
0
  6
Continuous
 62
     7
370
    15
100
AcDbLine
 10
2288.878156119568
 20
1149.334293036213
 30
0.0
 11
2283.278156119509
 21
1149.334293036213
 31
0.0
  0
LINE
  5
7F3
330
723
100
AcDbEntity
  8
0
  6
Continuous
 62
     7
370
    15
100
AcDbLine
 10
2303.878156119568
 20
1149.334293036213
 30
0.0
 11
2298.278156119508
 21
1149.334293036213
 31
0.0
  0
LINE
  5
7F4
330
723
100
AcDbEntity
  8
0
  6
Continuous
 62
     7
370
    15
100
AcDbLine
 10
2318.878156119568
 20
1149.334293036213
 30
0.0
 11
2313.278156119508
 21
1149.334293036213
 31
0.0
  0
LINE
  5
7F5
330
723
100
AcDbEntity
  8
0
  6
Continuous
 62
     7
370
    15
100
AcDbLine
 10
2333.878156119568
 20
1149.334293036213
 30
0.0
 11
2328.278156119508
 21
1149.334293036213
 31
0.0
  0
LINE
  5
7F6
330
723
100
AcDbEntity
  8
0
  6
Continuous
 62
     7
370
    15
100
AcDbLine
 10
2348.878156119568
 20
1149.334293036213
 30
0.0
 11
2343.278156119509
 21
1149.334293036213
 31
0.0
  0
LINE
  5
7F7
330
723
100
AcDbEntity
  8
0
  6
Continuous
 62
     7
370
    15
100
AcDbLine
 10
2363.878156119568
 20
1149.334293036213
 30
0.0
 11
2358.278156119508
 21
1149.334293036213
 31
0.0
  0
LINE
  5
7F8
330
723
100
AcDbEntity
  8
0
  6
Continuous
 62
     7
370
    15
100
AcDbLine
 10
2378.878156119568
 20
1149.334293036213
 30
0.0
 11
2373.278156119508
 21
1149.334293036213
 31
0.0
  0
LINE
  5
7F9
330
723
100
AcDbEntity
  8
0
  6
Continuous
 62
     8
370
    15
100
AcDbLine
 10
2259.501478512948
 20
1165.334293036169
 30
0.0
 11
2252.651478512948
 21
1165.334293036169
 31
0.0
  0
LINE
  5
7FA
330
723
100
AcDbEntity
  8
0
  6
Continuous
 62
     8
370
    15
100
AcDbLine
 10
2267.651478512949
 20
1165.334293036169
 30
0.0
 11
2274.501478512949
 21
1165.334293036169
 31
0.0
  0
LINE
  5
7FB
330
723
100
AcDbEntity
  8
0
  6
Continuous
 62
     8
370
    15
100
AcDbLine
 10
2282.651478512949
 20
1165.334293036169
 30
0.0
 11
2289.501478512949
 21
1165.334293036169
 31
0.0
  0
LINE
  5
7FC
330
723
100
AcDbEntity
  8
0
  6
Continuous
 62
     8
370
    15
100
AcDbLine
 10
2297.651478512949
 20
1165.334293036169
 30
0.0
 11
2304.501478512949
 21
1165.334293036169
 31
0.0
  0
LINE
  5
7FD
330
723
100
AcDbEntity
  8
0
  6
Continuous
 62
     8
370
    15
100
AcDbLine
 10
2312.651478512949
 20
1165.334293036169
 30
0.0
 11
2319.501478512949
 21
1165.334293036169
 31
0.0
  0
LINE
  5
7FE
330
723
100
AcDbEntity
  8
0
  6
Continuous
 62
     8
370
    15
100
AcDbLine
 10
2327.651478512949
 20
1165.334293036169
 30
0.0
 11
2334.501478512949
 21
1165.334293036169
 31
0.0
  0
LINE
  5
7FF
330
723
100
AcDbEntity
  8
0
  6
Continuous
 62
     8
370
    15
100
AcDbLine
 10
2342.651478512949
 20
1165.334293036169
 30
0.0
 11
2349.501478512949
 21
1165.334293036169
 31
0.0
  0
LINE
  5
800
330
723
100
AcDbEntity
  8
0
  6
Continuous
 62
     8
370
    15
100
AcDbLine
 10
2357.651478512949
 20
1165.334293036169
 30
0.0
 11
2364.501478512949
 21
1165.334293036169
 31
0.0
  0
LINE
  5
801
330
723
100
AcDbEntity
  8
0
  6
Continuous
 62
     8
370
    15
100
AcDbLine
 10
2372.651478512949
 20
1165.334293036169
 30
0.0
 11
2379.501478512949
 21
1165.334293036169
 31
0.0
  0
ENDBLK
  5
725
330
723
100
AcDbEntity
  8
0
100
AcDbBlockEnd
  0
BLOCK
  5
804
330
803
100
AcDbEntity
  8
0
100
AcDbBlockBegin
  2
2
 70
     0
 10
0.0
 20
0.0
 30
0.0
  3
2
  1

  0
CIRCLE
  5
806
330
803
100
AcDbEntity
  8
0
  6
Continuous
 62
     7
370
    15
100
AcDbCircle
 10
2286.076478512949
 20
1127.742957488
 30
0.0
 40
2.475000000004001
  0
CIRCLE
  5
807
330
803
100
AcDbEntity
  8
0
  6
Continuous
 62
     7
370
    15
100
AcDbCircle
 10
2286.076478512949
 20
1127.742957488
 30
0.0
 40
3.425000000000011
  0
ARC
  5
808
330
803
100
AcDbEntity
  8
0
  6
Continuous
 62
     7
370
    15
100
AcDbCircle
 10
2286.076478512949
 20
1127.742957488
 30
0.0
 40
2.145679479869426
100
AcDbArc
 50
166.5246847195578
 51
193.4753152804421
  0
ARC
  5
809
330
803
100
AcDbEntity
  8
0
  6
Continuous
 62
     7
370
    15
100
AcDbCircle
 10
2286.076478512949
 20
1127.742957488
 30
0.0
 40
2.197439522055198
100
AcDbArc
 50
193.1521401048725
 51
346.8478598951275
  0
ARC
  5
80A
330
803
100
AcDbEntity
  8
0
  6
Continuous
 62
     7
370
    15
100
AcDbCircle
 10
2286.076478512949
 20
1127.742957488
 30
0.0
 40
2.145679479869398
100
AcDbArc
 50
346.5246847195578
 51
13.47531528044217
  0
ARC
  5
80B
330
803
100
AcDbEntity
  8
0
  6
Continuous
 62
     7
370
    15
100
AcDbCircle
 10
2286.076478512949
 20
1127.742957488
 30
0.0
 40
2.197439522055198
100
AcDbArc
 50
13.1521401048725
 51
166.8478598951275
  0
CIRCLE
  5
80C
330
803
100
AcDbEntity
  8
0
  6
Continuous
 62
     7
370
    15
100
AcDbCircle
 10
2361.076478512949
 20
1127.742957488001
 30
0.0
 40
2.475000000004001
  0
CIRCLE
  5
80D
330
803
100
AcDbEntity
  8
0
  6
Continuous
 62
     7
370
    15
100
AcDbCircle
 10
2361.076478512949
 20
1127.742957488001
 30
0.0
 40
3.424999999999954
  0
ARC
  5
80E
330
803
100
AcDbEntity
  8
0
  6
Continuous
 62
     7
370
    15
100
AcDbCircle
 10
2361.076478512949
 20
1127.742957488001
 30
0.0
 40
2.145679479869454
100
AcDbArc
 50
166.5246847195578
 51
193.4753152804421
  0
ARC
  5
80F
330
803
100
AcDbEntity
  8
0
  6
Continuous
 62
     7
370
    15
100
AcDbCircle
 10
2361.076478512949
 20
1127.742957488001
 30
0.0
 40
2.197439522055226
100
AcDbArc
 50
193.1521401048725
 51
346.8478598951275
  0
ARC
  5
810
330
803
100
AcDbEntity
  8
0
  6
Continuous
 62
     7
370
    15
100
AcDbCircle
 10
2361.076478512949
 20
1127.742957488001
 30
0.0
 40
2.145679479869398
100
AcDbArc
 50
346.5246847195578
 51
13.47531528044217
  0
ARC
  5
811
330
803
100
AcDbEntity
  8
0
  6
Continuous
 62
     7
370
    15
100
AcDbCircle
 10
2361.076478512949
 20
1127.742957488001
 30
0.0
 40
2.19743952205517
100
AcDbArc
 50
13.1521401048725
 51
166.8478598951275
  0
CIRCLE
  5
812
330
803
100
AcDbEntity
  8
0
  6
Continuous
 62
     7
370
    15
100
AcDbCircle
 10
2376.076478512949
 20
1127.742957488001
 30
0.0
 40
2.475000000004001
  0
ARC
  5
813
330
803
100
AcDbEntity
  8
0
  6
Continuous
 62
     7
370
    15
100
AcDbCircle
 10
2376.076478512949
 20
1127.742957488001
 30
0.0
 40
2.145679479869398
100
AcDbArc
 50
166.5246847195578
 51
193.4753152804421
  0
ARC
  5
814
330
803
100
AcDbEntity
  8
0
  6
Continuous
 62
     7
370
    15
100
AcDbCircle
 10
2376.076478512949
 20
1127.742957488001
 30
0.0
 40
2.197439522055223
100
AcDbArc
 50
193.1521401048725
 51
346.8478598951275
  0
ARC
  5
815
330
803
100
AcDbEntity
  8
0
  6
Continuous
 62
     7
370
    15
100
AcDbCircle
 10
2376.076478512949
 20
1127.742957488001
 30
0.0
 40
2.14567947986945
100
AcDbArc
 50
346.5246847195578
 51
13.47531528044217
  0
ARC
  5
816
330
803
100
AcDbEntity
  8
0
  6
Continuous
 62
     7
370
    15
100
AcDbCircle
 10
2376.076478512949
 20
1127.742957488001
 30
0.0
 40
2.197439522055226
100
AcDbArc
 50
13.1521401048725
 51
166.8478598951275
  0
CIRCLE
  5
817
330
803
100
AcDbEntity
  8
0
  6
Continuous
 62
     7
370
    15
100
AcDbCircle
 10
2316.076478512949
 20
1127.742957488
 30
0.0
 40
2.475000000004001
  0
CIRCLE
  5
818
330
803
100
AcDbEntity
  8
0
  6
Continuous
 62
     7
370
    15
100
AcDbCircle
 10
2316.076478512949
 20
1127.742957488
 30
0.0
 40
3.424999999999982
  0
CIRCLE
  5
819
330
803
100
AcDbEntity
  8
0
  6
Continuous
 62
     7
370
    15
100
AcDbCircle
 10
2271.076478512949
 20
1127.742957488
 30
0.0
 40
2.475000000004001
  0
CIRCLE
  5
81A
330
803
100
AcDbEntity
  8
0
  6
Continuous
 62
     7
370
    15
100
AcDbCircle
 10
2271.076478512949
 20
1127.742957488
 30
0.0
 40
3.425000000000011
  0
ARC
  5
81B
330
803
100
AcDbEntity
  8
0
  6
Continuous
 62
     7
370
    15
100
AcDbCircle
 10
2271.076478512949
 20
1127.742957488
 30
0.0
 40
2.145679479869371
100
AcDbArc
 50
166.5246847195578
 51
193.4753152804421
  0
ARC
  5
81C
330
803
100
AcDbEntity
  8
0
  6
Continuous
 62
     7
370
    15
100
AcDbCircle
 10
2271.076478512949
 20
1127.742957488
 30
0.0
 40
2.197439522055198
100
AcDbArc
 50
193.1521401048725
 51
346.8478598951275
  0
ARC
  5
81D
330
803
100
AcDbEntity
  8
0
  6
Continuous
 62
     7
370
    15
100
AcDbCircle
 10
2271.076478512949
 20
1127.742957488
 30
0.0
 40
2.145679479869454
100
AcDbArc
 50
346.5246847195578
 51
13.47531528044217
  0
ARC
  5
81E
330
803
100
AcDbEntity
  8
0
  6
Continuous
 62
     7
370
    15
100
AcDbCircle
 10
2271.076478512949
 20
1127.742957488
 30
0.0
 40
2.197439522055253
100
AcDbArc
 50
13.1521401048725
 51
166.8478598951275
  0
ARC
  5
81F
330
803
100
AcDbEntity
  8
0
  6
Continuous
 62
     7
370
    15
100
AcDbCircle
 10
2316.076478512949
 20
1127.742957488
 30
0.0
 40
2.145679479869426
100
AcDbArc
 50
166.5246847195578
 51
193.4753152804421
  0
ARC
  5
820
330
803
100
AcDbEntity
  8
0
  6
Continuous
 62
     7
370
    15
100
AcDbCircle
 10
2316.076478512949
 20
1127.742957488
 30
0.0
 40
2.197439522055198
100
AcDbArc
 50
193.1521401048725
 51
346.8478598951275
  0
ARC
  5
821
330
803
100
AcDbEntity
  8
0
  6
Continuous
 62
     7
370
    15
100
AcDbCircle
 10
2316.076478512949
 20
1127.742957488
 30
0.0
 40
2.145679479869426
100
AcDbArc
 50
346.5246847195578
 51
13.47531528044217
  0
ARC
  5
822
330
803
100
AcDbEntity
  8
0
  6
Continuous
 62
     7
370
    15
100
AcDbCircle
 10
2316.076478512949
 20
1127.742957488
 30
0.0
 40
2.197439522055226
100
AcDbArc
 50
13.1521401048725
 51
166.8478598951275
  0
CIRCLE
  5
823
330
803
100
AcDbEntity
  8
0
  6
Continuous
 62
     7
370
    15
100
AcDbCircle
 10
2256.076478512947
 20
1127.742957488
 30
0.0
 40
2.475000000004001
  0
ARC
  5
824
330
803
100
AcDbEntity
  8
0
  6
Continuous
 62
     7
370
    15
100
AcDbCircle
 10
2256.076478512947
 20
1127.742957488
 30
0.0
 40
2.197439522055226
100
AcDbArc
 50
13.1521401048725
 51
166.8478598951275
  0
ARC
  5
825
330
803
100
AcDbEntity
  8
0
  6
Continuous
 62
     7
370
    15
100
AcDbCircle
 10
2256.076478512947
 20
1127.742957488
 30
0.0
 40
2.145679479869426
100
AcDbArc
 50
166.5246847195578
 51
193.4753152804421
  0
ARC
  5
826
330
803
100
AcDbEntity
  8
0
  6
Continuous
 62
     7
370
    15
100
AcDbCircle
 10
2256.076478512947
 20
1127.742957488
 30
0.0
 40
2.197439522055226
100
AcDbArc
 50
193.1521401048725
 51
346.8478598951275
  0
ARC
  5
827
330
803
100
AcDbEntity
  8
0
  6
Continuous
 62
     7
370
    15
100
AcDbCircle
 10
2256.076478512947
 20
1127.742957488
 30
0.0
 40
2.145679479869398
100
AcDbArc
 50
346.5246847195578
 51
13.47531528044217
  0
CIRCLE
  5
828
330
803
100
AcDbEntity
  8
0
  6
Continuous
 62
     7
370
    15
100
AcDbCircle
 10
2376.076478512949
 20
1127.742957488001
 30
0.0
 40
3.425000000000011
  0
CIRCLE
  5
829
330
803
100
AcDbEntity
  8
0
  6
Continuous
 62
     7
370
    15
100
AcDbCircle
 10
2256.076478512947
 20
1127.742957488
 30
0.0
 40
3.425000000000011
  0
CIRCLE
  5
82A
330
803
100
AcDbEntity
  8
0
  6
Continuous
 62
     7
370
    15
100
AcDbCircle
 10
2331.076478512949
 20
1127.742957488
 30
0.0
 40
2.475000000004001
  0
CIRCLE
  5
82B
330
803
100
AcDbEntity
  8
0
  6
Continuous
 62
     7
370
    15
100
AcDbCircle
 10
2331.076478512949
 20
1127.742957488
 30
0.0
 40
3.425000000000011
  0
ARC
  5
82C
330
803
100
AcDbEntity
  8
0
  6
Continuous
 62
     7
370
    15
100
AcDbCircle
 10
2331.076478512949
 20
1127.742957488
 30
0.0
 40
2.145679479869398
100
AcDbArc
 50
166.5246847195578
 51
193.4753152804421
  0
ARC
  5
82D
330
803
100
AcDbEntity
  8
0
  6
Continuous
 62
     7
370
    15
100
AcDbCircle
 10
2331.076478512949
 20
1127.742957488
 30
0.0
 40
2.19743952205517
100
AcDbArc
 50
193.1521401048725
 51
346.8478598951275
  0
ARC
  5
82E
330
803
100
AcDbEntity
  8
0
  6
Continuous
 62
     7
370
    15
100
AcDbCircle
 10
2331.076478512949
 20
1127.742957488
 30
0.0
 40
2.145679479869454
100
AcDbArc
 50
346.5246847195578
 51
13.47531528044217
  0
ARC
  5
82F
330
803
100
AcDbEntity
  8
0
  6
Continuous
 62
     7
370
    15
100
AcDbCircle
 10
2331.076478512949
 20
1127.742957488
 30
0.0
 40
2.197439522055281
100
AcDbArc
 50
13.1521401048725
 51
166.8478598951275
  0
CIRCLE
  5
830
330
803
100
AcDbEntity
  8
0
  6
Continuous
 62
     7
370
    15
100
AcDbCircle
 10
2301.076478512949
 20
1127.742957488
 30
0.0
 40
2.475000000004001
  0
CIRCLE
  5
831
330
803
100
AcDbEntity
  8
0
  6
Continuous
 62
     7
370
    15
100
AcDbCircle
 10
2301.076478512949
 20
1127.742957488
 30
0.0
 40
3.424999999999982
  0
CIRCLE
  5
832
330
803
100
AcDbEntity
  8
0
  6
Continuous
 62
     7
370
    15
100
AcDbCircle
 10
2346.076478512949
 20
1127.742957488
 30
0.0
 40
2.475000000004001
  0
ARC
  5
833
330
803
100
AcDbEntity
  8
0
  6
Continuous
 62
     7
370
    15
100
AcDbCircle
 10
2346.076478512949
 20
1127.742957488
 30
0.0
 40
2.145679479869398
100
AcDbArc
 50
166.5246847195578
 51
193.4753152804421
  0
ARC
  5
834
330
803
100
AcDbEntity
  8
0
  6
Continuous
 62
     7
370
    15
100
AcDbCircle
 10
2346.076478512949
 20
1127.742957488
 30
0.0
 40
2.19743952205517
100
AcDbArc
 50
193.1521401048725
 51
346.8478598951275
  0
ARC
  5
835
330
803
100
AcDbEntity
  8
0
  6
Continuous
 62
     7
370
    15
100
AcDbCircle
 10
2346.076478512949
 20
1127.742957488
 30
0.0
 40
2.145679479869454
100
AcDbArc
 50
346.5246847195578
 51
13.47531528044217
  0
ARC
  5
836
330
803
100
AcDbEntity
  8
0
  6
Continuous
 62
     7
370
    15
100
AcDbCircle
 10
2346.076478512949
 20
1127.742957488
 30
0.0
 40
2.197439522055226
100
AcDbArc
 50
13.1521401048725
 51
166.8478598951275
  0
CIRCLE
  5
837
330
803
100
AcDbEntity
  8
0
  6
Continuous
 62
     7
370
    15
100
AcDbCircle
 10
2346.076478512949
 20
1127.742957488
 30
0.0
 40
3.425000000000011
  0
ARC
  5
838
330
803
100
AcDbEntity
  8
0
  6
Continuous
 62
     7
370
    15
100
AcDbCircle
 10
2301.076478512949
 20
1127.742957488
 30
0.0
 40
2.145679479869398
100
AcDbArc
 50
166.5246847195578
 51
193.4753152804421
  0
ARC
  5
839
330
803
100
AcDbEntity
  8
0
  6
Continuous
 62
     7
370
    15
100
AcDbCircle
 10
2301.076478512949
 20
1127.742957488
 30
0.0
 40
2.197439522055226
100
AcDbArc
 50
193.1521401048725
 51
346.8478598951275
  0
ARC
  5
83A
330
803
100
AcDbEntity
  8
0
  6
Continuous
 62
     7
370
    15
100
AcDbCircle
 10
2301.076478512949
 20
1127.742957488
 30
0.0
 40
2.145679479869426
100
AcDbArc
 50
346.5246847195578
 51
13.47531528044217
  0
ARC
  5
83B
330
803
100
AcDbEntity
  8
0
  6
Continuous
 62
     7
370
    15
100
AcDbCircle
 10
2301.076478512949
 20
1127.742957488
 30
0.0
 40
2.197439522055226
100
AcDbArc
 50
13.1521401048725
 51
166.8478598951275
  0
SPLINE
  5
83C
330
803
100
AcDbEntity
  8
0
  6
Continuous
 62
     7
370
    15
100
AcDbSpline
210
0.0
220
0.0
230
1.0
 70
     8
 71
     3
 72
    26
 73
    22
 74
     0
 42
0.0000000001
 43
0.0000000001
 40
0.0
 40
0.0
 40
0.0
 40
0.0
 40
0.0230715729476342
 40
0.046009032497359
 40
0.0688963121643152
 40
0.0918178967114747
 40
0.1148578935298943
 40
0.1672666081108501
 40
0.2198734143150276
 40
0.2872072951295931
 40
0.3550347613670424
 40
0.4272288750175969
 40
0.5000425990362797
 40
0.5721736231559386
 40
0.6450487461993218
 40
0.7123665728304424
 40
0.7802169049632344
 40
0.8396683342519311
 40
0.8991910480712959
 40
0.9495075749985694
 40
1.0
 40
1.0
 40
1.0
 40
1.0
 10
2374.151521617806
 20
1128.242957488001
 30
0.0
 10
2374.162320592232
 20
1128.281728955335
 30
0.0
 10
2374.183855767421
 20
1128.359046514248
 30
0.0
 10
2374.224841824005
 20
1128.472107922122
 30
0.0
 10
2374.272031480964
 20
1128.582380776579
 30
0.0
 10
2374.32605838387
 20
1128.689700934711
 30
0.0
 10
2374.412269986075
 20
1128.838100761573
 30
0.0
 10
2374.543359609288
 20
1129.019884029843
 30
0.0
 10
2374.751906041133
 20
1129.237536462325
 30
0.0
 10
2375.013874346785
 20
1129.437036373571
 30
0.0
 10
2375.338007609016
 20
1129.601515156287
 30
0.0
 10
2375.695950638435
 20
1129.70804411498
 30
0.0
 10
2376.075289656162
 20
1129.743613074382
 30
0.0
 10
2376.455795690128
 20
1129.708228996949
 30
0.0
 10
2376.812981083206
 20
1129.602234200612
 30
0.0
 10
2377.138517289922
 20
1129.437826050302
 30
0.0
 10
2377.409807810593
 20
1129.230811116235
 30
0.0
 10
2377.634501005497
 20
1128.993019497509
 30
0.0
 10
2377.800377088816
 20
1128.747497000769
 30
0.0
 10
2377.925220088135
 20
1128.495988503444
 30
0.0
 10
2377.976000766287
 20
1128.327399215033
 30
0.0
 10
2378.001435408092
 20
1128.242957488001
 30
0.0
  0
LINE
  5
83D
330
803
100
AcDbEntity
  8
0
  6
Continuous
 62
     7
370
    15
100
AcDbLine
 10
2378.001435408092
 20
1128.242957488001
 30
0.0
 11
2374.151521617806
 21
1128.242957488001
 31
0.0
  0
SPLINE
  5
83E
330
803
100
AcDbEntity
  8
0
  6
Continuous
 62
     7
370
    15
100
AcDbSpline
210
0.0
220
0.0
230
1.0
 70
     8
 71
     3
 72
    26
 73
    22
 74
     0
 42
0.0000000001
 43
0.0000000001
 40
0.0
 40
0.0
 40
0.0
 40
0.0
 40
0.0230715729476342
 40
0.046009032497359
 40
0.0688963121643152
 40
0.0918178967114747
 40
0.1148578935298943
 40
0.1672666081108501
 40
0.2198734143150275
 40
0.2872072951295931
 40
0.3550347613670423
 40
0.4272288750175968
 40
0.5000425990362794
 40
0.5721736231559384
 40
0.6450487461993215
 40
0.7123665728304422
 40
0.7802169049632341
 40
0.8396683342519311
 40
0.8991910480712959
 40
0.9495075749985694
 40
0.9999999999999998
 40
0.9999999999999998
 40
0.9999999999999998
 40
0.9999999999999998
 10
2359.151521617806
 20
1128.242957488001
 30
0.0
 10
2359.162320592232
 20
1128.281728955335
 30
0.0
 10
2359.183855767422
 20
1128.359046514248
 30
0.0
 10
2359.224841824005
 20
1128.472107922122
 30
0.0
 10
2359.272031480964
 20
1128.582380776578
 30
0.0
 10
2359.32605838387
 20
1128.689700934711
 30
0.0
 10
2359.412269986076
 20
1128.838100761573
 30
0.0
 10
2359.543359609288
 20
1129.019884029843
 30
0.0
 10
2359.751906041132
 20
1129.237536462325
 30
0.0
 10
2360.013874346785
 20
1129.437036373571
 30
0.0
 10
2360.338007609016
 20
1129.601515156287
 30
0.0
 10
2360.695950638435
 20
1129.70804411498
 30
0.0
 10
2361.075289656162
 20
1129.743613074382
 30
0.0
 10
2361.455795690128
 20
1129.708228996949
 30
0.0
 10
2361.812981083206
 20
1129.602234200612
 30
0.0
 10
2362.138517289922
 20
1129.437826050302
 30
0.0
 10
2362.409807810593
 20
1129.230811116235
 30
0.0
 10
2362.634501005496
 20
1128.993019497509
 30
0.0
 10
2362.800377088816
 20
1128.747497000769
 30
0.0
 10
2362.925220088134
 20
1128.495988503444
 30
0.0
 10
2362.976000766287
 20
1128.327399215033
 30
0.0
 10
2363.001435408092
 20
1128.242957488001
 30
0.0
  0
LINE
  5
83F
330
803
100
AcDbEntity
  8
0
  6
Continuous
 62
     7
370
    15
100
AcDbLine
 10
2363.001435408092
 20
1128.242957488001
 30
0.0
 11
2359.151521617806
 21
1128.242957488001
 31
0.0
  0
SPLINE
  5
840
330
803
100
AcDbEntity
  8
0
  6
Continuous
 62
     7
370
    15
100
AcDbSpline
210
0.0
220
0.0
230
1.0
 70
     8
 71
     3
 72
    14
 73
    10
 74
     0
 42
0.0000000001
 43
0.0000000001
 40
0.0
 40
0.0
 40
0.0
 40
0.0
 40
0.25
 40
0.25
 40
0.5
 40
0.5
 40
0.75
 40
0.75
 40
1.0
 40
1.0
 40
1.0
 40
1.0
 10
2254.151521617804
 20
1128.242957488
 30
0.0
 10
2254.262240863189
 20
1128.669217037659
 30
0.0
 10
2254.511346240322
 20
1129.046712055516
 30
0.0
 10
2255.208077447716
 20
1129.585590005091
 30
0.0
 10
2255.636074204415
 20
1129.731791077862
 30
0.0
 10
2256.51688282148
 20
1129.731791077862
 30
0.0
 10
2256.944879578178
 20
1129.585590005091
 30
0.0
 10
2257.641610785573
 20
1129.046712055516
 30
0.0
 10
2257.890716162706
 20
1128.669217037659
 30
0.0
 10
2258.001435408091
 20
1128.242957488
 30
0.0
  0
LINE
  5
841
330
803
100
AcDbEntity
  8
0
  6
Continuous
 62
     7
370
    15
100
AcDbLine
 10
2254.151521617804
 20
1128.242957488
 30
0.0
 11
2258.001435408091
 21
1128.242957488
 31
0.0
  0
SPLINE
  5
842
330
803
100
AcDbEntity
  8
0
  6
Continuous
 62
     7
370
    15
100
AcDbSpline
210
0.0
220
0.0
230
1.0
 70
     8
 71
     3
 72
    26
 73
    22
 74
     0
 42
0.0000000001
 43
0.0000000001
 40
0.0
 40
0.0
 40
0.0
 40
0.0
 40
0.0230715729476346
 40
0.0460090324973592
 40
0.0688963121643151
 40
0.0918178967114755
 40
0.1148578935298948
 40
0.1672666081108498
 40
0.2198734143150282
 40
0.2872072951295933
 40
0.3550347613670425
 40
0.4272288750175978
 40
0.500042599036279
 40
0.57217362315594
 40
0.6450487461993232
 40
0.7123665728304428
 40
0.7802169049632336
 40
0.8396683342519322
 40
0.8991910480712963
 40
0.9495075749985691
 40
1.0
 40
1.0
 40
1.0
 40
1.0
 10
2284.151521617806
 20
1128.242957488
 30
0.0
 10
2284.162320592232
 20
1128.281728955335
 30
0.0
 10
2284.183855767421
 20
1128.359046514248
 30
0.0
 10
2284.224841824005
 20
1128.472107922122
 30
0.0
 10
2284.272031480965
 20
1128.582380776578
 30
0.0
 10
2284.32605838387
 20
1128.68970093471
 30
0.0
 10
2284.412269986075
 20
1128.838100761572
 30
0.0
 10
2284.543359609288
 20
1129.019884029843
 30
0.0
 10
2284.751906041132
 20
1129.237536462325
 30
0.0
 10
2285.013874346785
 20
1129.437036373571
 30
0.0
 10
2285.338007609016
 20
1129.601515156287
 30
0.0
 10
2285.695950638435
 20
1129.708044114979
 30
0.0
 10
2286.075289656162
 20
1129.743613074382
 30
0.0
 10
2286.455795690128
 20
1129.708228996949
 30
0.0
 10
2286.812981083206
 20
1129.602234200611
 30
0.0
 10
2287.138517289923
 20
1129.437826050302
 30
0.0
 10
2287.409807810593
 20
1129.230811116234
 30
0.0
 10
2287.634501005497
 20
1128.993019497509
 30
0.0
 10
2287.800377088816
 20
1128.747497000769
 30
0.0
 10
2287.925220088135
 20
1128.495988503444
 30
0.0
 10
2287.976000766287
 20
1128.327399215032
 30
0.0
 10
2288.001435408093
 20
1128.242957488
 30
0.0
  0
LINE
  5
843
330
803
100
AcDbEntity
  8
0
  6
Continuous
 62
     7
370
    15
100
AcDbLine
 10
2288.001435408093
 20
1128.242957488
 30
0.0
 11
2284.151521617806
 21
1128.242957488
 31
0.0
  0
SPLINE
  5
844
330
803
100
AcDbEntity
  8
0
  6
Continuous
 62
     7
370
    15
100
AcDbSpline
210
0.0
220
0.0
230
1.0
 70
     8
 71
     3
 72
    26
 73
    22
 74
     0
 42
0.0000000001
 43
0.0000000001
 40
0.0
 40
0.0
 40
0.0
 40
0.0
 40
0.0230715729476345
 40
0.0460090324973591
 40
0.068896312164315
 40
0.0918178967114755
 40
0.1148578935298947
 40
0.1672666081108498
 40
0.2198734143150281
 40
0.2872072951295931
 40
0.3550347613670426
 40
0.4272288750175976
 40
0.5000425990362788
 40
0.5721736231559394
 40
0.645048746199323
 40
0.7123665728304424
 40
0.7802169049632333
 40
0.8396683342519317
 40
0.8991910480712959
 40
0.9495075749985691
 40
0.9999999999999998
 40
0.9999999999999998
 40
0.9999999999999998
 40
0.9999999999999998
 10
2269.151521617805
 20
1128.242957488
 30
0.0
 10
2269.162320592232
 20
1128.281728955335
 30
0.0
 10
2269.183855767421
 20
1128.359046514248
 30
0.0
 10
2269.224841824005
 20
1128.472107922122
 30
0.0
 10
2269.272031480964
 20
1128.582380776578
 30
0.0
 10
2269.32605838387
 20
1128.68970093471
 30
0.0
 10
2269.412269986076
 20
1128.838100761572
 30
0.0
 10
2269.543359609288
 20
1129.019884029843
 30
0.0
 10
2269.751906041133
 20
1129.237536462325
 30
0.0
 10
2270.013874346785
 20
1129.43703637357
 30
0.0
 10
2270.338007609016
 20
1129.601515156287
 30
0.0
 10
2270.695950638435
 20
1129.708044114979
 30
0.0
 10
2271.075289656161
 20
1129.743613074382
 30
0.0
 10
2271.455795690128
 20
1129.708228996949
 30
0.0
 10
2271.812981083206
 20
1129.602234200611
 30
0.0
 10
2272.138517289922
 20
1129.437826050302
 30
0.0
 10
2272.409807810593
 20
1129.230811116234
 30
0.0
 10
2272.634501005497
 20
1128.993019497509
 30
0.0
 10
2272.800377088816
 20
1128.747497000769
 30
0.0
 10
2272.925220088135
 20
1128.495988503444
 30
0.0
 10
2272.976000766287
 20
1128.327399215032
 30
0.0
 10
2273.001435408093
 20
1128.242957488
 30
0.0
  0
LINE
  5
845
330
803
100
AcDbEntity
  8
0
  6
Continuous
 62
     7
370
    15
100
AcDbLine
 10
2273.001435408093
 20
1128.242957488
 30
0.0
 11
2269.151521617805
 21
1128.242957488
 31
0.0
  0
SPLINE
  5
846
330
803
100
AcDbEntity
  8
0
  6
Continuous
 62
     7
370
    15
100
AcDbSpline
210
0.0
220
0.0
230
1.0
 70
     8
 71
     3
 72
    26
 73
    22
 74
     0
 42
0.0000000001
 43
0.0000000001
 40
0.0
 40
0.0
 40
0.0
 40
0.0
 40
0.0230715729476342
 40
0.046009032497359
 40
0.0688963121643152
 40
0.0918178967114747
 40
0.1148578935298943
 40
0.1672666081108501
 40
0.2198734143150276
 40
0.2872072951295931
 40
0.3550347613670424
 40
0.4272288750175969
 40
0.5000425990362797
 40
0.5721736231559386
 40
0.6450487461993218
 40
0.7123665728304424
 40
0.7802169049632344
 40
0.8396683342519311
 40
0.8991910480712959
 40
0.9495075749985694
 40
1.0
 40
1.0
 40
1.0
 40
1.0
 10
2329.151521617806
 20
1128.242957488001
 30
0.0
 10
2329.162320592232
 20
1128.281728955335
 30
0.0
 10
2329.183855767421
 20
1128.359046514248
 30
0.0
 10
2329.224841824005
 20
1128.472107922122
 30
0.0
 10
2329.272031480964
 20
1128.582380776578
 30
0.0
 10
2329.32605838387
 20
1128.689700934711
 30
0.0
 10
2329.412269986075
 20
1128.838100761573
 30
0.0
 10
2329.543359609288
 20
1129.019884029843
 30
0.0
 10
2329.751906041133
 20
1129.237536462325
 30
0.0
 10
2330.013874346785
 20
1129.437036373571
 30
0.0
 10
2330.338007609016
 20
1129.601515156287
 30
0.0
 10
2330.695950638435
 20
1129.708044114979
 30
0.0
 10
2331.075289656162
 20
1129.743613074382
 30
0.0
 10
2331.455795690128
 20
1129.708228996949
 30
0.0
 10
2331.812981083206
 20
1129.602234200611
 30
0.0
 10
2332.138517289922
 20
1129.437826050302
 30
0.0
 10
2332.409807810593
 20
1129.230811116235
 30
0.0
 10
2332.634501005497
 20
1128.993019497509
 30
0.0
 10
2332.800377088816
 20
1128.747497000769
 30
0.0
 10
2332.925220088135
 20
1128.495988503444
 30
0.0
 10
2332.976000766286
 20
1128.327399215033
 30
0.0
 10
2333.001435408093
 20
1128.242957488001
 30
0.0
  0
LINE
  5
847
330
803
100
AcDbEntity
  8
0
  6
Continuous
 62
     7
370
    15
100
AcDbLine
 10
2333.001435408093
 20
1128.242957488001
 30
0.0
 11
2329.151521617806
 21
1128.242957488001
 31
0.0
  0
SPLINE
  5
848
330
803
100
AcDbEntity
  8
0
  6
Continuous
 62
     7
370
    15
100
AcDbSpline
210
0.0
220
0.0
230
1.0
 70
     8
 71
     3
 72
    26
 73
    22
 74
     0
 42
0.0000000001
 43
0.0000000001
 40
0.0
 40
0.0
 40
0.0
 40
0.0
 40
0.0230715729476342
 40
0.046009032497359
 40
0.0688963121643151
 40
0.0918178967114747
 40
0.1148578935298942
 40
0.16726660811085
 40
0.2198734143150275
 40
0.287207295129593
 40
0.3550347613670422
 40
0.4272288750175968
 40
0.5000425990362794
 40
0.5721736231559384
 40
0.6450487461993215
 40
0.7123665728304422
 40
0.7802169049632342
 40
0.8396683342519311
 40
0.8991910480712959
 40
0.9495075749985694
 40
1.0
 40
1.0
 40
1.0
 40
1.0
 10
2344.151521617805
 20
1128.242957488001
 30
0.0
 10
2344.162320592232
 20
1128.281728955335
 30
0.0
 10
2344.183855767421
 20
1128.359046514248
 30
0.0
 10
2344.224841824005
 20
1128.472107922122
 30
0.0
 10
2344.272031480965
 20
1128.582380776578
 30
0.0
 10
2344.32605838387
 20
1128.689700934711
 30
0.0
 10
2344.412269986076
 20
1128.838100761573
 30
0.0
 10
2344.543359609288
 20
1129.019884029843
 30
0.0
 10
2344.751906041132
 20
1129.237536462325
 30
0.0
 10
2345.013874346784
 20
1129.437036373571
 30
0.0
 10
2345.338007609016
 20
1129.601515156287
 30
0.0
 10
2345.695950638435
 20
1129.70804411498
 30
0.0
 10
2346.075289656162
 20
1129.743613074382
 30
0.0
 10
2346.455795690129
 20
1129.708228996949
 30
0.0
 10
2346.812981083206
 20
1129.602234200612
 30
0.0
 10
2347.138517289922
 20
1129.437826050302
 30
0.0
 10
2347.409807810592
 20
1129.230811116235
 30
0.0
 10
2347.634501005497
 20
1128.993019497509
 30
0.0
 10
2347.800377088816
 20
1128.747497000769
 30
0.0
 10
2347.925220088135
 20
1128.495988503444
 30
0.0
 10
2347.976000766287
 20
1128.327399215033
 30
0.0
 10
2348.001435408092
 20
1128.242957488001
 30
0.0
  0
LINE
  5
849
330
803
100
AcDbEntity
  8
0
  6
Continuous
 62
     7
370
    15
100
AcDbLine
 10
2348.001435408092
 20
1128.242957488001
 30
0.0
 11
2344.151521617805
 21
1128.242957488001
 31
0.0
  0
SPLINE
  5
84A
330
803
100
AcDbEntity
  8
0
  6
Continuous
 62
     7
370
    15
100
AcDbSpline
210
0.0
220
0.0
230
1.0
 70
     8
 71
     3
 72
    26
 73
    22
 74
     0
 42
0.0000000001
 43
0.0000000001
 40
0.0
 40
0.0
 40
0.0
 40
0.0
 40
0.0230715729476349
 40
0.0460090324973593
 40
0.0688963121643149
 40
0.0918178967114757
 40
0.1148578935298945
 40
0.1672666081108504
 40
0.2198734143150288
 40
0.2872072951295932
 40
0.3550347613670424
 40
0.427228875017597
 40
0.5000425990362782
 40
0.57217362315594
 40
0.6450487461993231
 40
0.7123665728304426
 40
0.7802169049632334
 40
0.8396683342519322
 40
0.8991910480712963
 40
0.9495075749985691
 40
0.9999999999999998
 40
0.9999999999999998
 40
0.9999999999999998
 40
0.9999999999999998
 10
2299.151521617806
 20
1128.242957488001
 30
0.0
 10
2299.162320592232
 20
1128.281728955335
 30
0.0
 10
2299.183855767422
 20
1128.359046514248
 30
0.0
 10
2299.224841824005
 20
1128.472107922122
 30
0.0
 10
2299.272031480965
 20
1128.582380776578
 30
0.0
 10
2299.32605838387
 20
1128.689700934711
 30
0.0
 10
2299.412269986075
 20
1128.838100761572
 30
0.0
 10
2299.543359609288
 20
1129.019884029843
 30
0.0
 10
2299.751906041132
 20
1129.237536462325
 30
0.0
 10
2300.013874346785
 20
1129.437036373571
 30
0.0
 10
2300.338007609016
 20
1129.601515156287
 30
0.0
 10
2300.695950638435
 20
1129.708044114979
 30
0.0
 10
2301.075289656162
 20
1129.743613074382
 30
0.0
 10
2301.455795690128
 20
1129.708228996949
 30
0.0
 10
2301.812981083206
 20
1129.602234200611
 30
0.0
 10
2302.138517289922
 20
1129.437826050302
 30
0.0
 10
2302.409807810593
 20
1129.230811116235
 30
0.0
 10
2302.634501005496
 20
1128.993019497509
 30
0.0
 10
2302.800377088816
 20
1128.747497000769
 30
0.0
 10
2302.925220088135
 20
1128.495988503444
 30
0.0
 10
2302.976000766287
 20
1128.327399215033
 30
0.0
 10
2303.001435408093
 20
1128.242957488001
 30
0.0
  0
LINE
  5
84B
330
803
100
AcDbEntity
  8
0
  6
Continuous
 62
     7
370
    15
100
AcDbLine
 10
2303.001435408093
 20
1128.242957488001
 30
0.0
 11
2299.151521617806
 21
1128.242957488001
 31
0.0
  0
SPLINE
  5
84C
330
803
100
AcDbEntity
  8
0
  6
Continuous
 62
     7
370
    15
100
AcDbSpline
210
0.0
220
0.0
230
1.0
 70
     8
 71
     3
 72
    26
 73
    22
 74
     0
 42
0.0000000001
 43
0.0000000001
 40
0.0
 40
0.0
 40
0.0
 40
0.0
 40
0.0230715729476349
 40
0.0460090324973593
 40
0.0688963121643149
 40
0.0918178967114757
 40
0.1148578935298945
 40
0.1672666081108504
 40
0.2198734143150288
 40
0.2872072951295932
 40
0.3550347613670425
 40
0.427228875017597
 40
0.5000425990362782
 40
0.57217362315594
 40
0.6450487461993231
 40
0.7123665728304425
 40
0.7802169049632334
 40
0.8396683342519322
 40
0.8991910480712963
 40
0.9495075749985691
 40
0.9999999999999998
 40
0.9999999999999998
 40
0.9999999999999998
 40
0.9999999999999998
 10
2314.151521617805
 20
1128.242957488001
 30
0.0
 10
2314.162320592232
 20
1128.281728955335
 30
0.0
 10
2314.183855767422
 20
1128.359046514248
 30
0.0
 10
2314.224841824005
 20
1128.472107922122
 30
0.0
 10
2314.272031480964
 20
1128.582380776578
 30
0.0
 10
2314.32605838387
 20
1128.689700934711
 30
0.0
 10
2314.412269986076
 20
1128.838100761573
 30
0.0
 10
2314.543359609288
 20
1129.019884029843
 30
0.0
 10
2314.751906041133
 20
1129.237536462325
 30
0.0
 10
2315.013874346785
 20
1129.437036373571
 30
0.0
 10
2315.338007609016
 20
1129.601515156287
 30
0.0
 10
2315.695950638435
 20
1129.708044114979
 30
0.0
 10
2316.075289656162
 20
1129.743613074382
 30
0.0
 10
2316.455795690128
 20
1129.708228996949
 30
0.0
 10
2316.812981083206
 20
1129.602234200611
 30
0.0
 10
2317.138517289922
 20
1129.437826050302
 30
0.0
 10
2317.409807810593
 20
1129.230811116235
 30
0.0
 10
2317.634501005497
 20
1128.993019497509
 30
0.0
 10
2317.800377088816
 20
1128.747497000769
 30
0.0
 10
2317.925220088135
 20
1128.495988503444
 30
0.0
 10
2317.976000766287
 20
1128.327399215033
 30
0.0
 10
2318.001435408093
 20
1128.242957488001
 30
0.0
  0
LINE
  5
84D
330
803
100
AcDbEntity
  8
0
  6
Continuous
 62
     7
370
    15
100
AcDbLine
 10
2318.001435408093
 20
1128.242957488001
 30
0.0
 11
2314.151521617805
 21
1128.242957488001
 31
0.0
  0
SPLINE
  5
84E
330
803
100
AcDbEntity
  8
0
  6
Continuous
 62
     7
370
    15
100
AcDbSpline
210
0.0
220
0.0
230
1.0
 70
     8
 71
     3
 72
    19
 73
    15
 74
     0
 42
0.0000000001
 43
0.0000000001
 40
0.0
 40
0.0
 40
0.0
 40
0.0
 40
0.0488679617767459
 40
0.097420499671415
 40
0.1458568154919768
 40
0.1943775425164291
 40
0.243182273005898
 40
0.3715078253163589
 40
0.50003520272821
 40
0.6283607973257657
 40
0.7568882170903853
 40
0.8379484026938454
 40
0.9186755957281148
 40
1.0
 40
1.0
 40
1.0
 40
1.0
 10
2318.001435408092
 20
1127.242957488
 30
0.0
 10
2317.989952749603
 20
1127.201893778703
 30
0.0
 10
2317.967061548763
 20
1127.120031410546
 30
0.0
 10
2317.923007867782
 20
1127.000539688395
 30
0.0
 10
2317.872019744904
 20
1126.884239260284
 30
0.0
 10
2317.813390479848
 20
1126.771309781265
 30
0.0
 10
2317.711756436888
 20
1126.602661772913
 30
0.0
 10
2317.548070907188
 20
1126.390399922127
 30
0.0
 10
2317.299079210506
 20
1126.162507639472
 30
0.0
 10
2317.015780235828
 20
1125.978692197127
 30
0.0
 10
2316.743223758583
 20
1125.862426554804
 30
0.0
 10
2316.498632042744
 20
1125.795666445879
 30
0.0
 10
2316.288860614957
 20
1125.76059925261
 30
0.0
 10
2316.147446265775
 20
1125.756287646173
 30
0.0
 10
2316.076478512949
 20
1125.754123898139
 30
0.0
  0
SPLINE
  5
84F
330
803
100
AcDbEntity
  8
0
  6
Continuous
 62
     7
370
    15
100
AcDbSpline
210
0.0
220
0.0
230
1.0
 70
     8
 71
     3
 72
    19
 73
    15
 74
     0
 42
0.0000000001
 43
0.0000000001
 40
0.0
 40
0.0
 40
0.0
 40
0.0
 40
0.0488679617766757
 40
0.097420499671311
 40
0.1458568154918727
 40
0.1943775425163592
 40
0.2431822730058941
 40
0.3715078253162684
 40
0.5000352027282084
 40
0.6283607973257645
 40
0.756888217090384
 40
0.8379484026938241
 40
0.9186755957280944
 40
1.0
 40
1.0
 40
1.0
 40
1.0
 10
2316.076478512949
 20
1125.754123898139
 30
0.0
 10
2316.033846892069
 20
1125.754914194519
 30
0.0
 10
2315.948858821012
 20
1125.75648968622
 30
0.0
 10
2315.822129638518
 20
1125.769087812083
 30
0.0
 10
2315.696745909226
 20
1125.78919996468
 30
0.0
 10
2315.572703851062
 20
1125.817555312662
 30
0.0
 10
2315.383921255111
 20
1125.873526384433
 30
0.0
 10
2315.137325622075
 20
1125.978591315307
 30
0.0
 10
2314.854155289444
 20
1126.162293030673
 30
0.0
 10
2314.605021177349
 20
1126.390281232316
 30
0.0
 10
2314.423968026238
 20
1126.624854225956
 30
0.0
 10
2314.297860849048
 20
1126.844806492284
 30
0.0
 10
2314.211182632104
 20
1127.039024531268
 30
0.0
 10
2314.171457422546
 20
1127.174813027946
 30
0.0
 10
2314.151521617805
 20
1127.242957488
 30
0.0
  0
LINE
  5
850
330
803
100
AcDbEntity
  8
0
  6
Continuous
 62
     7
370
    15
100
AcDbLine
 10
2314.151521617805
 20
1127.242957488
 30
0.0
 11
2318.001435408092
 21
1127.242957488
 31
0.0
  0
SPLINE
  5
851
330
803
100
AcDbEntity
  8
0
  6
Continuous
 62
     7
370
    15
100
AcDbSpline
210
0.0
220
0.0
230
1.0
 70
     8
 71
     3
 72
    19
 73
    15
 74
     0
 42
0.0000000001
 43
0.0000000001
 40
0.0
 40
0.0
 40
0.0
 40
0.0
 40
0.0488679617767452
 40
0.0974204996714143
 40
0.1458568154919773
 40
0.1943775425164284
 40
0.2431822730058973
 40
0.3715078253163599
 40
0.5000352027282094
 40
0.6283607973257652
 40
0.7568882170903875
 40
0.8379484026938426
 40
0.9186755957281175
 40
1.0
 40
1.0
 40
1.0
 40
1.0
 10
2333.001435408093
 20
1127.242957488
 30
0.0
 10
2332.989952749603
 20
1127.201893778703
 30
0.0
 10
2332.967061548764
 20
1127.120031410546
 30
0.0
 10
2332.923007867782
 20
1127.000539688395
 30
0.0
 10
2332.872019744904
 20
1126.884239260284
 30
0.0
 10
2332.813390479847
 20
1126.771309781265
 30
0.0
 10
2332.711756436888
 20
1126.602661772913
 30
0.0
 10
2332.548070907188
 20
1126.390399922128
 30
0.0
 10
2332.299079210506
 20
1126.162507639472
 30
0.0
 10
2332.015780235828
 20
1125.978692197127
 30
0.0
 10
2331.743223758584
 20
1125.862426554804
 30
0.0
 10
2331.498632042744
 20
1125.795666445879
 30
0.0
 10
2331.288860614957
 20
1125.76059925261
 30
0.0
 10
2331.147446265775
 20
1125.756287646173
 30
0.0
 10
2331.076478512949
 20
1125.754123898139
 30
0.0
  0
SPLINE
  5
852
330
803
100
AcDbEntity
  8
0
  6
Continuous
 62
     7
370
    15
100
AcDbSpline
210
0.0
220
0.0
230
1.0
 70
     8
 71
     3
 72
    19
 73
    15
 74
     0
 42
0.0000000001
 43
0.0000000001
 40
0.0
 40
0.0
 40
0.0
 40
0.0
 40
0.0488679617766784
 40
0.0974204996713085
 40
0.1458568154918755
 40
0.1943775425163595
 40
0.2431822730058919
 40
0.3715078253162689
 40
0.5000352027282089
 40
0.6283607973257652
 40
0.756888217090385
 40
0.8379484026938238
 40
0.9186755957280942
 40
1.0
 40
1.0
 40
1.0
 40
1.0
 10
2331.076478512949
 20
1125.754123898139
 30
0.0
 10
2331.033846892069
 20
1125.754914194519
 30
0.0
 10
2330.948858821011
 20
1125.75648968622
 30
0.0
 10
2330.822129638518
 20
1125.769087812083
 30
0.0
 10
2330.696745909226
 20
1125.78919996468
 30
0.0
 10
2330.572703851062
 20
1125.817555312662
 30
0.0
 10
2330.383921255111
 20
1125.873526384433
 30
0.0
 10
2330.137325622075
 20
1125.978591315307
 30
0.0
 10
2329.854155289444
 20
1126.162293030673
 30
0.0
 10
2329.605021177349
 20
1126.390281232316
 30
0.0
 10
2329.423968026237
 20
1126.624854225956
 30
0.0
 10
2329.297860849049
 20
1126.844806492284
 30
0.0
 10
2329.211182632104
 20
1127.039024531268
 30
0.0
 10
2329.171457422546
 20
1127.174813027946
 30
0.0
 10
2329.151521617806
 20
1127.242957488
 30
0.0
  0
LINE
  5
853
330
803
100
AcDbEntity
  8
0
  6
Continuous
 62
     7
370
    15
100
AcDbLine
 10
2329.151521617806
 20
1127.242957488
 30
0.0
 11
2333.001435408093
 21
1127.242957488
 31
0.0
  0
SPLINE
  5
854
330
803
100
AcDbEntity
  8
0
  6
Continuous
 62
     7
370
    15
100
AcDbSpline
210
0.0
220
0.0
230
1.0
 70
     8
 71
     3
 72
    19
 73
    15
 74
     0
 42
0.0000000001
 43
0.0000000001
 40
0.0
 40
0.0
 40
0.0
 40
0.0
 40
0.0488679617767452
 40
0.0974204996714143
 40
0.1458568154919773
 40
0.1943775425164284
 40
0.2431822730058973
 40
0.37150782531636
 40
0.5000352027282094
 40
0.6283607973257652
 40
0.7568882170903875
 40
0.8379484026938426
 40
0.9186755957281175
 40
1.0
 40
1.0
 40
1.0
 40
1.0
 10
2378.001435408092
 20
1127.242957488001
 30
0.0
 10
2377.989952749603
 20
1127.201893778704
 30
0.0
 10
2377.967061548764
 20
1127.120031410546
 30
0.0
 10
2377.923007867782
 20
1127.000539688395
 30
0.0
 10
2377.872019744904
 20
1126.884239260285
 30
0.0
 10
2377.813390479847
 20
1126.771309781265
 30
0.0
 10
2377.711756436888
 20
1126.602661772913
 30
0.0
 10
2377.548070907188
 20
1126.390399922128
 30
0.0
 10
2377.299079210505
 20
1126.162507639473
 30
0.0
 10
2377.015780235828
 20
1125.978692197127
 30
0.0
 10
2376.743223758584
 20
1125.862426554804
 30
0.0
 10
2376.498632042744
 20
1125.795666445879
 30
0.0
 10
2376.288860614957
 20
1125.76059925261
 30
0.0
 10
2376.147446265775
 20
1125.756287646173
 30
0.0
 10
2376.076478512949
 20
1125.754123898139
 30
0.0
  0
SPLINE
  5
855
330
803
100
AcDbEntity
  8
0
  6
Continuous
 62
     7
370
    15
100
AcDbSpline
210
0.0
220
0.0
230
1.0
 70
     8
 71
     3
 72
    19
 73
    15
 74
     0
 42
0.0000000001
 43
0.0000000001
 40
0.0
 40
0.0
 40
0.0
 40
0.0
 40
0.0488679617766784
 40
0.0974204996713085
 40
0.1458568154918755
 40
0.1943775425163595
 40
0.2431822730058919
 40
0.3715078253162689
 40
0.5000352027282089
 40
0.6283607973257652
 40
0.756888217090385
 40
0.8379484026938238
 40
0.9186755957280942
 40
1.0
 40
1.0
 40
1.0
 40
1.0
 10
2376.076478512949
 20
1125.754123898139
 30
0.0
 10
2376.033846892069
 20
1125.754914194519
 30
0.0
 10
2375.948858821011
 20
1125.75648968622
 30
0.0
 10
2375.822129638518
 20
1125.769087812083
 30
0.0
 10
2375.696745909226
 20
1125.78919996468
 30
0.0
 10
2375.572703851062
 20
1125.817555312662
 30
0.0
 10
2375.383921255111
 20
1125.873526384433
 30
0.0
 10
2375.137325622075
 20
1125.978591315307
 30
0.0
 10
2374.854155289444
 20
1126.162293030673
 30
0.0
 10
2374.605021177349
 20
1126.390281232316
 30
0.0
 10
2374.423968026238
 20
1126.624854225957
 30
0.0
 10
2374.297860849049
 20
1126.844806492284
 30
0.0
 10
2374.211182632104
 20
1127.039024531268
 30
0.0
 10
2374.171457422546
 20
1127.174813027946
 30
0.0
 10
2374.151521617806
 20
1127.242957488001
 30
0.0
  0
LINE
  5
856
330
803
100
AcDbEntity
  8
0
  6
Continuous
 62
     7
370
    15
100
AcDbLine
 10
2374.151521617806
 20
1127.242957488001
 30
0.0
 11
2378.001435408092
 21
1127.242957488001
 31
0.0
  0
SPLINE
  5
857
330
803
100
AcDbEntity
  8
0
  6
Continuous
 62
     7
370
    15
100
AcDbSpline
210
0.0
220
0.0
230
1.0
 70
     8
 71
     3
 72
    19
 73
    15
 74
     0
 42
0.0000000001
 43
0.0000000001
 40
0.0
 40
0.0
 40
0.0
 40
0.0
 40
0.0488679617767452
 40
0.0974204996714143
 40
0.1458568154919773
 40
0.1943775425164284
 40
0.2431822730058974
 40
0.37150782531636
 40
0.5000352027282094
 40
0.6283607973257652
 40
0.7568882170903875
 40
0.8379484026938424
 40
0.9186755957281175
 40
1.0
 40
1.0
 40
1.0
 40
1.0
 10
2363.001435408092
 20
1127.242957488001
 30
0.0
 10
2362.989952749603
 20
1127.201893778704
 30
0.0
 10
2362.967061548764
 20
1127.120031410546
 30
0.0
 10
2362.923007867782
 20
1127.000539688395
 30
0.0
 10
2362.872019744904
 20
1126.884239260284
 30
0.0
 10
2362.813390479847
 20
1126.771309781265
 30
0.0
 10
2362.711756436888
 20
1126.602661772913
 30
0.0
 10
2362.548070907187
 20
1126.390399922128
 30
0.0
 10
2362.299079210506
 20
1126.162507639473
 30
0.0
 10
2362.015780235828
 20
1125.978692197127
 30
0.0
 10
2361.743223758583
 20
1125.862426554804
 30
0.0
 10
2361.498632042744
 20
1125.795666445879
 30
0.0
 10
2361.288860614957
 20
1125.76059925261
 30
0.0
 10
2361.147446265775
 20
1125.756287646173
 30
0.0
 10
2361.076478512949
 20
1125.754123898139
 30
0.0
  0
SPLINE
  5
858
330
803
100
AcDbEntity
  8
0
  6
Continuous
 62
     7
370
    15
100
AcDbSpline
210
0.0
220
0.0
230
1.0
 70
     8
 71
     3
 72
    19
 73
    15
 74
     0
 42
0.0000000001
 43
0.0000000001
 40
0.0
 40
0.0
 40
0.0
 40
0.0
 40
0.0488679617766784
 40
0.0974204996713085
 40
0.1458568154918755
 40
0.1943775425163595
 40
0.2431822730058919
 40
0.3715078253162688
 40
0.5000352027282089
 40
0.6283607973257652
 40
0.756888217090385
 40
0.8379484026938238
 40
0.9186755957280942
 40
1.0
 40
1.0
 40
1.0
 40
1.0
 10
2361.076478512949
 20
1125.754123898139
 30
0.0
 10
2361.033846892069
 20
1125.754914194519
 30
0.0
 10
2360.948858821012
 20
1125.75648968622
 30
0.0
 10
2360.822129638518
 20
1125.769087812083
 30
0.0
 10
2360.696745909226
 20
1125.78919996468
 30
0.0
 10
2360.572703851062
 20
1125.817555312662
 30
0.0
 10
2360.383921255111
 20
1125.873526384433
 30
0.0
 10
2360.137325622075
 20
1125.978591315307
 30
0.0
 10
2359.854155289444
 20
1126.162293030673
 30
0.0
 10
2359.605021177349
 20
1126.390281232316
 30
0.0
 10
2359.423968026238
 20
1126.624854225957
 30
0.0
 10
2359.297860849048
 20
1126.844806492284
 30
0.0
 10
2359.211182632104
 20
1127.039024531268
 30
0.0
 10
2359.171457422546
 20
1127.174813027946
 30
0.0
 10
2359.151521617806
 20
1127.242957488001
 30
0.0
  0
LINE
  5
859
330
803
100
AcDbEntity
  8
0
  6
Continuous
 62
     7
370
    15
100
AcDbLine
 10
2359.151521617806
 20
1127.242957488001
 30
0.0
 11
2363.001435408092
 21
1127.242957488001
 31
0.0
  0
SPLINE
  5
85A
330
803
100
AcDbEntity
  8
0
  6
Continuous
 62
     7
370
    15
100
AcDbSpline
210
0.0
220
0.0
230
1.0
 70
     8
 71
     3
 72
    19
 73
    15
 74
     0
 42
0.0000000001
 43
0.0000000001
 40
0.0
 40
0.0
 40
0.0
 40
0.0
 40
0.0488679617767459
 40
0.0974204996714149
 40
0.1458568154919767
 40
0.1943775425164291
 40
0.2431822730058979
 40
0.3715078253163588
 40
0.50003520272821
 40
0.6283607973257657
 40
0.7568882170903853
 40
0.8379484026938454
 40
0.9186755957281148
 40
1.0
 40
1.0
 40
1.0
 40
1.0
 10
2303.001435408093
 20
1127.242957488
 30
0.0
 10
2302.989952749603
 20
1127.201893778703
 30
0.0
 10
2302.967061548764
 20
1127.120031410546
 30
0.0
 10
2302.923007867782
 20
1127.000539688394
 30
0.0
 10
2302.872019744904
 20
1126.884239260284
 30
0.0
 10
2302.813390479848
 20
1126.771309781265
 30
0.0
 10
2302.711756436888
 20
1126.602661772913
 30
0.0
 10
2302.548070907187
 20
1126.390399922127
 30
0.0
 10
2302.299079210506
 20
1126.162507639472
 30
0.0
 10
2302.015780235828
 20
1125.978692197127
 30
0.0
 10
2301.743223758584
 20
1125.862426554804
 30
0.0
 10
2301.498632042744
 20
1125.795666445879
 30
0.0
 10
2301.288860614957
 20
1125.76059925261
 30
0.0
 10
2301.147446265775
 20
1125.756287646173
 30
0.0
 10
2301.076478512949
 20
1125.754123898139
 30
0.0
  0
SPLINE
  5
85B
330
803
100
AcDbEntity
  8
0
  6
Continuous
 62
     7
370
    15
100
AcDbSpline
210
0.0
220
0.0
230
1.0
 70
     8
 71
     3
 72
    19
 73
    15
 74
     0
 42
0.0000000001
 43
0.0000000001
 40
0.0
 40
0.0
 40
0.0
 40
0.0
 40
0.0488679617766757
 40
0.097420499671311
 40
0.1458568154918727
 40
0.1943775425163592
 40
0.2431822730058941
 40
0.3715078253162684
 40
0.5000352027282084
 40
0.6283607973257645
 40
0.756888217090384
 40
0.8379484026938241
 40
0.9186755957280944
 40
1.0
 40
1.0
 40
1.0
 40
1.0
 10
2301.076478512949
 20
1125.754123898139
 30
0.0
 10
2301.033846892069
 20
1125.754914194519
 30
0.0
 10
2300.948858821012
 20
1125.756489686219
 30
0.0
 10
2300.822129638518
 20
1125.769087812083
 30
0.0
 10
2300.696745909226
 20
1125.78919996468
 30
0.0
 10
2300.572703851063
 20
1125.817555312662
 30
0.0
 10
2300.383921255111
 20
1125.873526384433
 30
0.0
 10
2300.137325622074
 20
1125.978591315307
 30
0.0
 10
2299.854155289444
 20
1126.162293030673
 30
0.0
 10
2299.605021177349
 20
1126.390281232316
 30
0.0
 10
2299.423968026238
 20
1126.624854225956
 30
0.0
 10
2299.297860849049
 20
1126.844806492284
 30
0.0
 10
2299.211182632104
 20
1127.039024531268
 30
0.0
 10
2299.171457422547
 20
1127.174813027946
 30
0.0
 10
2299.151521617806
 20
1127.242957488
 30
0.0
  0
LINE
  5
85C
330
803
100
AcDbEntity
  8
0
  6
Continuous
 62
     7
370
    15
100
AcDbLine
 10
2299.151521617806
 20
1127.242957488
 30
0.0
 11
2303.001435408093
 21
1127.242957488
 31
0.0
  0
SPLINE
  5
85D
330
803
100
AcDbEntity
  8
0
  6
Continuous
 62
     7
370
    15
100
AcDbSpline
210
0.0
220
0.0
230
1.0
 70
     8
 71
     3
 72
    10
 73
     6
 74
     0
 42
0.0000000001
 43
0.0000000001
 40
0.0
 40
0.0
 40
0.0
 40
0.0
 40
0.5
 40
0.5
 40
1.0
 40
1.0
 40
1.0
 40
1.0
 10
2258.001435408091
 20
1127.242957488
 30
0.0
 10
2257.890716162706
 20
1126.816697938342
 30
0.0
 10
2257.641610785573
 20
1126.439202920484
 30
0.0
 10
2256.944879578178
 20
1125.90032497091
 30
0.0
 10
2256.51688282148
 20
1125.754123898139
 30
0.0
 10
2256.076478512947
 20
1125.754123898139
 30
0.0
  0
SPLINE
  5
85E
330
803
100
AcDbEntity
  8
0
  6
Continuous
 62
     7
370
    15
100
AcDbSpline
210
0.0
220
0.0
230
1.0
 70
     8
 71
     3
 72
    10
 73
     6
 74
     0
 42
0.0000000001
 43
0.0000000001
 40
0.0
 40
0.0
 40
0.0
 40
0.0
 40
0.5
 40
0.5
 40
1.0
 40
1.0
 40
1.0
 40
1.0
 10
2256.076478512947
 20
1125.754123898139
 30
0.0
 10
2255.636074204415
 20
1125.754123898139
 30
0.0
 10
2255.208077447716
 20
1125.90032497091
 30
0.0
 10
2254.511346240322
 20
1126.439202920484
 30
0.0
 10
2254.262240863189
 20
1126.816697938342
 30
0.0
 10
2254.151521617804
 20
1127.242957488
 30
0.0
  0
LINE
  5
85F
330
803
100
AcDbEntity
  8
0
  6
Continuous
 62
     7
370
    15
100
AcDbLine
 10
2258.001435408091
 20
1127.242957488
 30
0.0
 11
2254.151521617804
 21
1127.242957488
 31
0.0
  0
SPLINE
  5
860
330
803
100
AcDbEntity
  8
0
  6
Continuous
 62
     7
370
    15
100
AcDbSpline
210
0.0
220
0.0
230
1.0
 70
     8
 71
     3
 72
    19
 73
    15
 74
     0
 42
0.0000000001
 43
0.0000000001
 40
0.0
 40
0.0
 40
0.0
 40
0.0
 40
0.0488679617767459
 40
0.0974204996714149
 40
0.1458568154919767
 40
0.194377542516429
 40
0.2431822730058979
 40
0.3715078253163588
 40
0.500035202728209
 40
0.6283607973257657
 40
0.7568882170903854
 40
0.8379484026938454
 40
0.9186755957281148
 40
1.0
 40
1.0
 40
1.0
 40
1.0
 10
2288.001435408093
 20
1127.242957488
 30
0.0
 10
2287.989952749603
 20
1127.201893778703
 30
0.0
 10
2287.967061548764
 20
1127.120031410546
 30
0.0
 10
2287.923007867782
 20
1127.000539688394
 30
0.0
 10
2287.872019744904
 20
1126.884239260284
 30
0.0
 10
2287.813390479847
 20
1126.771309781265
 30
0.0
 10
2287.711756436888
 20
1126.602661772913
 30
0.0
 10
2287.548070907188
 20
1126.390399922127
 30
0.0
 10
2287.299079210506
 20
1126.162507639472
 30
0.0
 10
2287.015780235828
 20
1125.978692197127
 30
0.0
 10
2286.743223758584
 20
1125.862426554804
 30
0.0
 10
2286.498632042744
 20
1125.795666445879
 30
0.0
 10
2286.288860614957
 20
1125.76059925261
 30
0.0
 10
2286.147446265776
 20
1125.756287646173
 30
0.0
 10
2286.076478512949
 20
1125.754123898139
 30
0.0
  0
SPLINE
  5
861
330
803
100
AcDbEntity
  8
0
  6
Continuous
 62
     7
370
    15
100
AcDbSpline
210
0.0
220
0.0
230
1.0
 70
     8
 71
     3
 72
    19
 73
    15
 74
     0
 42
0.0000000001
 43
0.0000000001
 40
0.0
 40
0.0
 40
0.0
 40
0.0
 40
0.0488679617766757
 40
0.097420499671311
 40
0.1458568154918727
 40
0.1943775425163593
 40
0.2431822730058942
 40
0.3715078253162698
 40
0.5000352027282098
 40
0.6283607973257639
 40
0.7568882170903844
 40
0.8379484026938245
 40
0.9186755957280945
 40
1.0
 40
1.0
 40
1.0
 40
1.0
 10
2286.076478512949
 20
1125.754123898139
 30
0.0
 10
2286.033846892069
 20
1125.754914194519
 30
0.0
 10
2285.948858821011
 20
1125.756489686219
 30
0.0
 10
2285.822129638518
 20
1125.769087812083
 30
0.0
 10
2285.696745909226
 20
1125.78919996468
 30
0.0
 10
2285.572703851062
 20
1125.817555312662
 30
0.0
 10
2285.383921255111
 20
1125.873526384433
 30
0.0
 10
2285.137325622075
 20
1125.978591315307
 30
0.0
 10
2284.854155289444
 20
1126.162293030673
 30
0.0
 10
2284.605021177349
 20
1126.390281232316
 30
0.0
 10
2284.423968026238
 20
1126.624854225956
 30
0.0
 10
2284.297860849048
 20
1126.844806492284
 30
0.0
 10
2284.211182632104
 20
1127.039024531268
 30
0.0
 10
2284.171457422546
 20
1127.174813027946
 30
0.0
 10
2284.151521617806
 20
1127.242957488
 30
0.0
  0
LINE
  5
862
330
803
100
AcDbEntity
  8
0
  6
Continuous
 62
     7
370
    15
100
AcDbLine
 10
2284.151521617806
 20
1127.242957488
 30
0.0
 11
2288.001435408093
 21
1127.242957488
 31
0.0
  0
SPLINE
  5
863
330
803
100
AcDbEntity
  8
0
  6
Continuous
 62
     7
370
    15
100
AcDbSpline
210
0.0
220
0.0
230
1.0
 70
     8
 71
     3
 72
    19
 73
    15
 74
     0
 42
0.0000000001
 43
0.0000000001
 40
0.0
 40
0.0
 40
0.0
 40
0.0
 40
0.0488679617767459
 40
0.0974204996714149
 40
0.1458568154919773
 40
0.194377542516429
 40
0.2431822730058978
 40
0.3715078253163588
 40
0.5000352027282089
 40
0.6283607973257657
 40
0.7568882170903854
 40
0.8379484026938449
 40
0.9186755957281148
 40
1.0
 40
1.0
 40
1.0
 40
1.0
 10
2273.001435408093
 20
1127.242957488
 30
0.0
 10
2272.989952749603
 20
1127.201893778703
 30
0.0
 10
2272.967061548763
 20
1127.120031410546
 30
0.0
 10
2272.923007867782
 20
1127.000539688394
 30
0.0
 10
2272.872019744904
 20
1126.884239260284
 30
0.0
 10
2272.813390479848
 20
1126.771309781265
 30
0.0
 10
2272.711756436888
 20
1126.602661772913
 30
0.0
 10
2272.548070907188
 20
1126.390399922127
 30
0.0
 10
2272.299079210506
 20
1126.162507639472
 30
0.0
 10
2272.015780235828
 20
1125.978692197127
 30
0.0
 10
2271.743223758583
 20
1125.862426554804
 30
0.0
 10
2271.498632042744
 20
1125.795666445879
 30
0.0
 10
2271.288860614957
 20
1125.76059925261
 30
0.0
 10
2271.147446265775
 20
1125.756287646173
 30
0.0
 10
2271.076478512949
 20
1125.754123898139
 30
0.0
  0
SPLINE
  5
864
330
803
100
AcDbEntity
  8
0
  6
Continuous
 62
     7
370
    15
100
AcDbSpline
210
0.0
220
0.0
230
1.0
 70
     8
 71
     3
 72
    19
 73
    15
 74
     0
 42
0.0000000001
 43
0.0000000001
 40
0.0
 40
0.0
 40
0.0
 40
0.0
 40
0.0488679617766764
 40
0.0974204996713111
 40
0.1458568154918728
 40
0.1943775425163587
 40
0.2431822730058942
 40
0.3715078253162693
 40
0.5000352027282091
 40
0.6283607973257638
 40
0.7568882170903847
 40
0.8379484026938241
 40
0.9186755957280945
 40
1.0
 40
1.0
 40
1.0
 40
1.0
 10
2271.076478512949
 20
1125.754123898139
 30
0.0
 10
2271.033846892069
 20
1125.754914194519
 30
0.0
 10
2270.948858821012
 20
1125.756489686219
 30
0.0
 10
2270.822129638518
 20
1125.769087812083
 30
0.0
 10
2270.696745909226
 20
1125.78919996468
 30
0.0
 10
2270.572703851062
 20
1125.817555312661
 30
0.0
 10
2270.383921255111
 20
1125.873526384433
 30
0.0
 10
2270.137325622075
 20
1125.978591315307
 30
0.0
 10
2269.854155289444
 20
1126.162293030673
 30
0.0
 10
2269.605021177349
 20
1126.390281232316
 30
0.0
 10
2269.423968026238
 20
1126.624854225956
 30
0.0
 10
2269.297860849048
 20
1126.844806492284
 30
0.0
 10
2269.211182632104
 20
1127.039024531268
 30
0.0
 10
2269.171457422546
 20
1127.174813027946
 30
0.0
 10
2269.151521617805
 20
1127.242957488
 30
0.0
  0
LINE
  5
865
330
803
100
AcDbEntity
  8
0
  6
Continuous
 62
     7
370
    15
100
AcDbLine
 10
2269.151521617805
 20
1127.242957488
 30
0.0
 11
2273.001435408093
 21
1127.242957488
 31
0.0
  0
SPLINE
  5
866
330
803
100
AcDbEntity
  8
0
  6
Continuous
 62
     7
370
    15
100
AcDbSpline
210
0.0
220
0.0
230
1.0
 70
     8
 71
     3
 72
    19
 73
    15
 74
     0
 42
0.0000000001
 43
0.0000000001
 40
0.0
 40
0.0
 40
0.0
 40
0.0
 40
0.0488679617767452
 40
0.0974204996714143
 40
0.1458568154919773
 40
0.1943775425164284
 40
0.2431822730058974
 40
0.37150782531636
 40
0.5000352027282094
 40
0.6283607973257653
 40
0.7568882170903875
 40
0.8379484026938426
 40
0.9186755957281175
 40
1.0
 40
1.0
 40
1.0
 40
1.0
 10
2348.001435408092
 20
1127.242957488
 30
0.0
 10
2347.989952749603
 20
1127.201893778704
 30
0.0
 10
2347.967061548764
 20
1127.120031410546
 30
0.0
 10
2347.923007867782
 20
1127.000539688395
 30
0.0
 10
2347.872019744904
 20
1126.884239260284
 30
0.0
 10
2347.813390479847
 20
1126.771309781265
 30
0.0
 10
2347.711756436888
 20
1126.602661772913
 30
0.0
 10
2347.548070907188
 20
1126.390399922128
 30
0.0
 10
2347.299079210506
 20
1126.162507639472
 30
0.0
 10
2347.015780235828
 20
1125.978692197127
 30
0.0
 10
2346.743223758584
 20
1125.862426554804
 30
0.0
 10
2346.498632042744
 20
1125.795666445879
 30
0.0
 10
2346.288860614957
 20
1125.76059925261
 30
0.0
 10
2346.147446265775
 20
1125.756287646173
 30
0.0
 10
2346.076478512949
 20
1125.754123898139
 30
0.0
  0
SPLINE
  5
867
330
803
100
AcDbEntity
  8
0
  6
Continuous
 62
     7
370
    15
100
AcDbSpline
210
0.0
220
0.0
230
1.0
 70
     8
 71
     3
 72
    19
 73
    15
 74
     0
 42
0.0000000001
 43
0.0000000001
 40
0.0
 40
0.0
 40
0.0
 40
0.0
 40
0.0488679617766784
 40
0.0974204996713085
 40
0.1458568154918755
 40
0.1943775425163596
 40
0.2431822730058919
 40
0.3715078253162689
 40
0.500035202728209
 40
0.6283607973257652
 40
0.756888217090385
 40
0.8379484026938238
 40
0.9186755957280942
 40
1.0
 40
1.0
 40
1.0
 40
1.0
 10
2346.076478512949
 20
1125.754123898139
 30
0.0
 10
2346.033846892069
 20
1125.754914194519
 30
0.0
 10
2345.948858821012
 20
1125.75648968622
 30
0.0
 10
2345.822129638518
 20
1125.769087812083
 30
0.0
 10
2345.696745909226
 20
1125.78919996468
 30
0.0
 10
2345.572703851062
 20
1125.817555312662
 30
0.0
 10
2345.383921255111
 20
1125.873526384433
 30
0.0
 10
2345.137325622074
 20
1125.978591315307
 30
0.0
 10
2344.854155289444
 20
1126.162293030673
 30
0.0
 10
2344.605021177349
 20
1126.390281232316
 30
0.0
 10
2344.423968026237
 20
1126.624854225957
 30
0.0
 10
2344.297860849049
 20
1126.844806492284
 30
0.0
 10
2344.211182632104
 20
1127.039024531268
 30
0.0
 10
2344.171457422546
 20
1127.174813027946
 30
0.0
 10
2344.151521617805
 20
1127.242957488
 30
0.0
  0
LINE
  5
868
330
803
100
AcDbEntity
  8
0
  6
Continuous
 62
     7
370
    15
100
AcDbLine
 10
2344.151521617805
 20
1127.242957488
 30
0.0
 11
2348.001435408092
 21
1127.242957488
 31
0.0
  0
ARC
  5
869
330
803
100
AcDbEntity
  8
0
  6
Continuous
 62
     7
370
    15
100
AcDbCircle
 10
2256.076478512947
 20
1127.742957488
 30
0.0
 40
2.188421798069978
100
AcDbArc
 50
193.2073141036553
 51
346.7926858963447
  0
SPLINE
  5
86A
330
803
100
AcDbEntity
  8
0
  6
Continuous
 62
     7
370
    15
100
AcDbSpline
210
0.0
220
0.0
230
1.0
 70
    24
 71
     3
 72
    10
 73
     6
 74
     0
 42
0.0000000001
 43
0.0000000001
 40
0.0
 40
0.0
 40
0.0
 40
0.0
 40
0.5
 40
0.5
 40
1.0
 40
1.0
 40
1.0
 40
1.0
 10
2254.151521617804
 20
1127.242957488
 30
0.0
 10
2254.100055034212
 20
1127.242957488
 30
0.0
 10
2254.049655792245
 20
1127.242957488
 30
0.0
 10
2253.973605793952
 20
1127.242957488
 30
0.0
 10
2253.949334347314
 20
1127.242957488
 30
0.0
 10
2253.945941029994
 20
1127.242957488
 30
0.0
  0
SPLINE
  5
86B
330
803
100
AcDbEntity
  8
0
  6
Continuous
 62
     7
370
    15
100
AcDbSpline
210
0.0
220
0.0
230
1.0
 70
    24
 71
     3
 72
    10
 73
     6
 74
     0
 42
0.0000000001
 43
0.0000000001
 40
0.0
 40
0.0
 40
0.0
 40
0.0
 40
0.5
 40
0.5
 40
1.0
 40
1.0
 40
1.0
 40
1.0
 10
2258.2070159959
 20
1127.242957488
 30
0.0
 10
2258.203625257614
 20
1127.242957488
 30
0.0
 10
2258.17924922184
 20
1127.242957488
 30
0.0
 10
2258.103586644185
 20
1127.242957488
 30
0.0
 10
2258.052867635013
 20
1127.242957488
 30
0.0
 10
2258.001435408091
 20
1127.242957488
 30
0.0
  0
ARC
  5
86C
330
803
100
AcDbEntity
  8
0
  6
Continuous
 62
     7
370
    15
100
AcDbCircle
 10
2271.076478512949
 20
1127.742957488
 30
0.0
 40
2.188421798070006
100
AcDbArc
 50
193.2073141036553
 51
346.7926858963447
  0
SPLINE
  5
86D
330
803
100
AcDbEntity
  8
0
  6
Continuous
 62
     7
370
    15
100
AcDbSpline
210
0.0
220
0.0
230
1.0
 70
    24
 71
     3
 72
    10
 73
     6
 74
     0
 42
0.0000000001
 43
0.0000000001
 40
0.0
 40
0.0
 40
0.0
 40
0.0
 40
0.5
 40
0.5
 40
1.0
 40
1.0
 40
1.0
 40
1.0
 10
2268.945941029996
 20
1127.242957488
 30
0.0
 10
2268.949331768282
 20
1127.242957488
 30
0.0
 10
2268.973707804057
 20
1127.242957488
 30
0.0
 10
2269.049370381711
 20
1127.242957488
 30
0.0
 10
2269.100089390884
 20
1127.242957488
 30
0.0
 10
2269.151521617805
 20
1127.242957488
 30
0.0
  0
SPLINE
  5
86E
330
803
100
AcDbEntity
  8
0
  6
Continuous
 62
     7
370
    15
100
AcDbSpline
210
0.0
220
0.0
230
1.0
 70
    24
 71
     3
 72
    10
 73
     6
 74
     0
 42
0.0000000001
 43
0.0000000001
 40
0.0
 40
0.0
 40
0.0
 40
0.0
 40
0.5
 40
0.5
 40
1.0
 40
1.0
 40
1.0
 40
1.0
 10
2273.001435408093
 20
1127.242957488
 30
0.0
 10
2273.052901991685
 20
1127.242957488
 30
0.0
 10
2273.103301233652
 20
1127.242957488
 30
0.0
 10
2273.179351231945
 20
1127.242957488
 30
0.0
 10
2273.203622678583
 20
1127.242957488
 30
0.0
 10
2273.207015995902
 20
1127.242957488
 30
0.0
  0
ARC
  5
86F
330
803
100
AcDbEntity
  8
0
  6
Continuous
 62
     7
370
    15
100
AcDbCircle
 10
2361.076478512949
 20
1127.742957488001
 30
0.0
 40
2.188421798070006
100
AcDbArc
 50
193.2073141036553
 51
346.7926858963447
  0
SPLINE
  5
870
330
803
100
AcDbEntity
  8
0
  6
Continuous
 62
     7
370
    15
100
AcDbSpline
210
0.0
220
0.0
230
1.0
 70
    24
 71
     3
 72
    10
 73
     6
 74
     0
 42
0.0000000001
 43
0.0000000001
 40
0.0
 40
0.0
 40
0.0
 40
0.0
 40
0.5
 40
0.5
 40
1.0
 40
1.0
 40
1.0
 40
1.0
 10
2358.945941029996
 20
1127.242957488001
 30
0.0
 10
2358.949331768282
 20
1127.242957488001
 30
0.0
 10
2358.973707804057
 20
1127.242957488001
 30
0.0
 10
2359.049370381711
 20
1127.242957488001
 30
0.0
 10
2359.100089390884
 20
1127.242957488001
 30
0.0
 10
2359.151521617806
 20
1127.242957488001
 30
0.0
  0
SPLINE
  5
871
330
803
100
AcDbEntity
  8
0
  6
Continuous
 62
     7
370
    15
100
AcDbSpline
210
0.0
220
0.0
230
1.0
 70
    24
 71
     3
 72
    10
 73
     6
 74
     0
 42
0.0000000001
 43
0.0000000001
 40
0.0
 40
0.0
 40
0.0
 40
0.0
 40
0.5
 40
0.5
 40
1.0
 40
1.0
 40
1.0
 40
1.0
 10
2363.001435408092
 20
1127.242957488001
 30
0.0
 10
2363.052901991685
 20
1127.242957488001
 30
0.0
 10
2363.103301233652
 20
1127.242957488001
 30
0.0
 10
2363.179351231945
 20
1127.242957488001
 30
0.0
 10
2363.203622678582
 20
1127.242957488001
 30
0.0
 10
2363.207015995902
 20
1127.242957488001
 30
0.0
  0
ARC
  5
872
330
803
100
AcDbEntity
  8
0
  6
Continuous
 62
     7
370
    15
100
AcDbCircle
 10
2316.076478512949
 20
1127.742957488
 30
0.0
 40
2.188421798069978
100
AcDbArc
 50
193.2073141036553
 51
346.7926858963447
  0
SPLINE
  5
873
330
803
100
AcDbEntity
  8
0
  6
Continuous
 62
     7
370
    15
100
AcDbSpline
210
0.0
220
0.0
230
1.0
 70
    24
 71
     3
 72
    10
 73
     6
 74
     0
 42
0.0000000001
 43
0.0000000001
 40
0.0
 40
0.0
 40
0.0
 40
0.0
 40
0.5
 40
0.5
 40
1.0
 40
1.0
 40
1.0
 40
1.0
 10
2313.945941029996
 20
1127.242957488
 30
0.0
 10
2313.949331768282
 20
1127.242957488
 30
0.0
 10
2313.973707804057
 20
1127.242957488
 30
0.0
 10
2314.049370381711
 20
1127.242957488
 30
0.0
 10
2314.100089390884
 20
1127.242957488
 30
0.0
 10
2314.151521617805
 20
1127.242957488
 30
0.0
  0
SPLINE
  5
874
330
803
100
AcDbEntity
  8
0
  6
Continuous
 62
     7
370
    15
100
AcDbSpline
210
0.0
220
0.0
230
1.0
 70
    24
 71
     3
 72
    10
 73
     6
 74
     0
 42
0.0000000001
 43
0.0000000001
 40
0.0
 40
0.0
 40
0.0
 40
0.0
 40
0.5
 40
0.5
 40
1.0
 40
1.0
 40
1.0
 40
1.0
 10
2318.001435408092
 20
1127.242957488
 30
0.0
 10
2318.052901991685
 20
1127.242957488
 30
0.0
 10
2318.103301233652
 20
1127.242957488
 30
0.0
 10
2318.179351231945
 20
1127.242957488
 30
0.0
 10
2318.203622678582
 20
1127.242957488
 30
0.0
 10
2318.207015995902
 20
1127.242957488
 30
0.0
  0
ARC
  5
875
330
803
100
AcDbEntity
  8
0
  6
Continuous
 62
     7
370
    15
100
AcDbCircle
 10
2346.076478512949
 20
1127.742957488
 30
0.0
 40
2.188421798070006
100
AcDbArc
 50
193.2073141036553
 51
346.7926858963447
  0
SPLINE
  5
876
330
803
100
AcDbEntity
  8
0
  6
Continuous
 62
     7
370
    15
100
AcDbSpline
210
0.0
220
0.0
230
1.0
 70
    24
 71
     3
 72
    10
 73
     6
 74
     0
 42
0.0000000001
 43
0.0000000001
 40
0.0
 40
0.0
 40
0.0
 40
0.0
 40
0.5
 40
0.5
 40
1.0
 40
1.0
 40
1.0
 40
1.0
 10
2343.945941029996
 20
1127.242957488
 30
0.0
 10
2343.949331768282
 20
1127.242957488
 30
0.0
 10
2343.973707804057
 20
1127.242957488
 30
0.0
 10
2344.049370381711
 20
1127.242957488
 30
0.0
 10
2344.100089390884
 20
1127.242957488
 30
0.0
 10
2344.151521617805
 20
1127.242957488
 30
0.0
  0
SPLINE
  5
877
330
803
100
AcDbEntity
  8
0
  6
Continuous
 62
     7
370
    15
100
AcDbSpline
210
0.0
220
0.0
230
1.0
 70
    24
 71
     3
 72
    10
 73
     6
 74
     0
 42
0.0000000001
 43
0.0000000001
 40
0.0
 40
0.0
 40
0.0
 40
0.0
 40
0.5
 40
0.5
 40
1.0
 40
1.0
 40
1.0
 40
1.0
 10
2348.001435408092
 20
1127.242957488
 30
0.0
 10
2348.052901991685
 20
1127.242957488
 30
0.0
 10
2348.103301233652
 20
1127.242957488
 30
0.0
 10
2348.179351231944
 20
1127.242957488
 30
0.0
 10
2348.203622678582
 20
1127.242957488
 30
0.0
 10
2348.207015995902
 20
1127.242957488
 30
0.0
  0
ARC
  5
878
330
803
100
AcDbEntity
  8
0
  6
Continuous
 62
     7
370
    15
100
AcDbCircle
 10
2301.076478512949
 20
1127.742957488
 30
0.0
 40
2.188421798069978
100
AcDbArc
 50
193.2073141036553
 51
346.7926858963447
  0
SPLINE
  5
879
330
803
100
AcDbEntity
  8
0
  6
Continuous
 62
     7
370
    15
100
AcDbSpline
210
0.0
220
0.0
230
1.0
 70
    24
 71
     3
 72
    10
 73
     6
 74
     0
 42
0.0000000001
 43
0.0000000001
 40
0.0
 40
0.0
 40
0.0
 40
0.0
 40
0.5
 40
0.5
 40
1.0
 40
1.0
 40
1.0
 40
1.0
 10
2298.945941029996
 20
1127.242957488
 30
0.0
 10
2298.949331768282
 20
1127.242957488
 30
0.0
 10
2298.973707804057
 20
1127.242957488
 30
0.0
 10
2299.049370381711
 20
1127.242957488
 30
0.0
 10
2299.100089390884
 20
1127.242957488
 30
0.0
 10
2299.151521617806
 20
1127.242957488
 30
0.0
  0
SPLINE
  5
87A
330
803
100
AcDbEntity
  8
0
  6
Continuous
 62
     7
370
    15
100
AcDbSpline
210
0.0
220
0.0
230
1.0
 70
    24
 71
     3
 72
    10
 73
     6
 74
     0
 42
0.0000000001
 43
0.0000000001
 40
0.0
 40
0.0
 40
0.0
 40
0.0
 40
0.5
 40
0.5
 40
1.0
 40
1.0
 40
1.0
 40
1.0
 10
2303.001435408093
 20
1127.242957488
 30
0.0
 10
2303.052901991685
 20
1127.242957488
 30
0.0
 10
2303.103301233652
 20
1127.242957488
 30
0.0
 10
2303.179351231944
 20
1127.242957488
 30
0.0
 10
2303.203622678582
 20
1127.242957488
 30
0.0
 10
2303.207015995902
 20
1127.242957488
 30
0.0
  0
ARC
  5
87B
330
803
100
AcDbEntity
  8
0
  6
Continuous
 62
     7
370
    15
100
AcDbCircle
 10
2376.076478512949
 20
1127.742957488001
 30
0.0
 40
2.188421798070006
100
AcDbArc
 50
193.2073141036553
 51
346.7926858963447
  0
SPLINE
  5
87C
330
803
100
AcDbEntity
  8
0
  6
Continuous
 62
     7
370
    15
100
AcDbSpline
210
0.0
220
0.0
230
1.0
 70
    24
 71
     3
 72
    10
 73
     6
 74
     0
 42
0.0000000001
 43
0.0000000001
 40
0.0
 40
0.0
 40
0.0
 40
0.0
 40
0.5
 40
0.5
 40
1.0
 40
1.0
 40
1.0
 40
1.0
 10
2373.945941029996
 20
1127.242957488001
 30
0.0
 10
2373.949331768282
 20
1127.242957488001
 30
0.0
 10
2373.973707804057
 20
1127.242957488001
 30
0.0
 10
2374.049370381711
 20
1127.242957488001
 30
0.0
 10
2374.100089390884
 20
1127.242957488001
 30
0.0
 10
2374.151521617806
 20
1127.242957488001
 30
0.0
  0
SPLINE
  5
87D
330
803
100
AcDbEntity
  8
0
  6
Continuous
 62
     7
370
    15
100
AcDbSpline
210
0.0
220
0.0
230
1.0
 70
    24
 71
     3
 72
    10
 73
     6
 74
     0
 42
0.0000000001
 43
0.0000000001
 40
0.0
 40
0.0
 40
0.0
 40
0.0
 40
0.5
 40
0.5
 40
1.0
 40
1.0
 40
1.0
 40
1.0
 10
2378.001435408092
 20
1127.242957488001
 30
0.0
 10
2378.052901991685
 20
1127.242957488001
 30
0.0
 10
2378.103301233652
 20
1127.242957488001
 30
0.0
 10
2378.179351231945
 20
1127.242957488001
 30
0.0
 10
2378.203622678582
 20
1127.242957488001
 30
0.0
 10
2378.207015995903
 20
1127.242957488001
 30
0.0
  0
ARC
  5
87E
330
803
100
AcDbEntity
  8
0
  6
Continuous
 62
     7
370
    15
100
AcDbCircle
 10
2286.076478512949
 20
1127.742957488
 30
0.0
 40
2.188421798069978
100
AcDbArc
 50
193.2073141036553
 51
346.7926858963447
  0
SPLINE
  5
87F
330
803
100
AcDbEntity
  8
0
  6
Continuous
 62
     7
370
    15
100
AcDbSpline
210
0.0
220
0.0
230
1.0
 70
    24
 71
     3
 72
    10
 73
     6
 74
     0
 42
0.0000000001
 43
0.0000000001
 40
0.0
 40
0.0
 40
0.0
 40
0.0
 40
0.5
 40
0.5
 40
1.0
 40
1.0
 40
1.0
 40
1.0
 10
2283.945941029996
 20
1127.242957488
 30
0.0
 10
2283.949331768282
 20
1127.242957488
 30
0.0
 10
2283.973707804057
 20
1127.242957488
 30
0.0
 10
2284.049370381711
 20
1127.242957488
 30
0.0
 10
2284.100089390884
 20
1127.242957488
 30
0.0
 10
2284.151521617806
 20
1127.242957488
 30
0.0
  0
SPLINE
  5
880
330
803
100
AcDbEntity
  8
0
  6
Continuous
 62
     7
370
    15
100
AcDbSpline
210
0.0
220
0.0
230
1.0
 70
    24
 71
     3
 72
    10
 73
     6
 74
     0
 42
0.0000000001
 43
0.0000000001
 40
0.0
 40
0.0
 40
0.0
 40
0.0
 40
0.5
 40
0.5
 40
1.0
 40
1.0
 40
1.0
 40
1.0
 10
2288.001435408093
 20
1127.242957488
 30
0.0
 10
2288.052901991685
 20
1127.242957488
 30
0.0
 10
2288.103301233652
 20
1127.242957488
 30
0.0
 10
2288.179351231945
 20
1127.242957488
 30
0.0
 10
2288.203622678582
 20
1127.242957488
 30
0.0
 10
2288.207015995902
 20
1127.242957488
 30
0.0
  0
ARC
  5
881
330
803
100
AcDbEntity
  8
0
  6
Continuous
 62
     7
370
    15
100
AcDbCircle
 10
2331.076478512949
 20
1127.742957488
 30
0.0
 40
2.188421798070006
100
AcDbArc
 50
193.2073141036553
 51
346.7926858963447
  0
SPLINE
  5
882
330
803
100
AcDbEntity
  8
0
  6
Continuous
 62
     7
370
    15
100
AcDbSpline
210
0.0
220
0.0
230
1.0
 70
    24
 71
     3
 72
    10
 73
     6
 74
     0
 42
0.0000000001
 43
0.0000000001
 40
0.0
 40
0.0
 40
0.0
 40
0.0
 40
0.5
 40
0.5
 40
1.0
 40
1.0
 40
1.0
 40
1.0
 10
2328.945941029996
 20
1127.242957488
 30
0.0
 10
2328.949331768282
 20
1127.242957488
 30
0.0
 10
2328.973707804057
 20
1127.242957488
 30
0.0
 10
2329.049370381711
 20
1127.242957488
 30
0.0
 10
2329.100089390884
 20
1127.242957488
 30
0.0
 10
2329.151521617806
 20
1127.242957488
 30
0.0
  0
SPLINE
  5
883
330
803
100
AcDbEntity
  8
0
  6
Continuous
 62
     7
370
    15
100
AcDbSpline
210
0.0
220
0.0
230
1.0
 70
    24
 71
     3
 72
    10
 73
     6
 74
     0
 42
0.0000000001
 43
0.0000000001
 40
0.0
 40
0.0
 40
0.0
 40
0.0
 40
0.5
 40
0.5
 40
1.0
 40
1.0
 40
1.0
 40
1.0
 10
2333.001435408093
 20
1127.242957488
 30
0.0
 10
2333.052901991685
 20
1127.242957488
 30
0.0
 10
2333.103301233652
 20
1127.242957488
 30
0.0
 10
2333.179351231945
 20
1127.242957488
 30
0.0
 10
2333.203622678582
 20
1127.242957488
 30
0.0
 10
2333.207015995902
 20
1127.242957488
 30
0.0
  0
ARC
  5
884
330
803
100
AcDbEntity
  8
0
  6
Continuous
 62
     7
370
    15
100
AcDbCircle
 10
2316.076478512949
 20
1127.742957488
 30
0.0
 40
2.188421798069978
100
AcDbArc
 50
13.20731410365529
 51
166.7926858963447
  0
SPLINE
  5
885
330
803
100
AcDbEntity
  8
0
  6
Continuous
 62
     7
370
    15
100
AcDbSpline
210
0.0
220
0.0
230
1.0
 70
    24
 71
     3
 72
    10
 73
     6
 74
     0
 42
0.0000000001
 43
0.0000000001
 40
0.0
 40
0.0
 40
0.0
 40
0.0
 40
0.5
 40
0.5
 40
1.0
 40
1.0
 40
1.0
 40
1.0
 10
2314.151521617805
 20
1128.242957488001
 30
0.0
 10
2314.100055034213
 20
1128.242957488001
 30
0.0
 10
2314.049655792246
 20
1128.242957488001
 30
0.0
 10
2313.973605793954
 20
1128.242957488001
 30
0.0
 10
2313.949334347316
 20
1128.242957488001
 30
0.0
 10
2313.945941029996
 20
1128.242957488001
 30
0.0
  0
SPLINE
  5
886
330
803
100
AcDbEntity
  8
0
  6
Continuous
 62
     7
370
    15
100
AcDbSpline
210
0.0
220
0.0
230
1.0
 70
    24
 71
     3
 72
    10
 73
     6
 74
     0
 42
0.0000000001
 43
0.0000000001
 40
0.0
 40
0.0
 40
0.0
 40
0.0
 40
0.5
 40
0.5
 40
1.0
 40
1.0
 40
1.0
 40
1.0
 10
2318.207015995902
 20
1128.242957488001
 30
0.0
 10
2318.203625257616
 20
1128.242957488001
 30
0.0
 10
2318.179249221842
 20
1128.242957488001
 30
0.0
 10
2318.103586644187
 20
1128.242957488001
 30
0.0
 10
2318.052867635014
 20
1128.242957488001
 30
0.0
 10
2318.001435408093
 20
1128.242957488001
 30
0.0
  0
ARC
  5
887
330
803
100
AcDbEntity
  8
0
  6
Continuous
 62
     7
370
    15
100
AcDbCircle
 10
2346.076478512949
 20
1127.742957488
 30
0.0
 40
2.188421798070006
100
AcDbArc
 50
13.20731410365529
 51
166.7926858963447
  0
SPLINE
  5
888
330
803
100
AcDbEntity
  8
0
  6
Continuous
 62
     7
370
    15
100
AcDbSpline
210
0.0
220
0.0
230
1.0
 70
    24
 71
     3
 72
    10
 73
     6
 74
     0
 42
0.0000000001
 43
0.0000000001
 40
0.0
 40
0.0
 40
0.0
 40
0.0
 40
0.5
 40
0.5
 40
1.0
 40
1.0
 40
1.0
 40
1.0
 10
2344.151521617805
 20
1128.242957488001
 30
0.0
 10
2344.100055034213
 20
1128.242957488001
 30
0.0
 10
2344.049655792246
 20
1128.242957488001
 30
0.0
 10
2343.973605793954
 20
1128.242957488001
 30
0.0
 10
2343.949334347316
 20
1128.242957488001
 30
0.0
 10
2343.945941029996
 20
1128.242957488001
 30
0.0
  0
SPLINE
  5
889
330
803
100
AcDbEntity
  8
0
  6
Continuous
 62
     7
370
    15
100
AcDbSpline
210
0.0
220
0.0
230
1.0
 70
    24
 71
     3
 72
    10
 73
     6
 74
     0
 42
0.0000000001
 43
0.0000000001
 40
0.0
 40
0.0
 40
0.0
 40
0.0
 40
0.5
 40
0.5
 40
1.0
 40
1.0
 40
1.0
 40
1.0
 10
2348.207015995902
 20
1128.242957488001
 30
0.0
 10
2348.203625257616
 20
1128.242957488001
 30
0.0
 10
2348.179249221841
 20
1128.242957488001
 30
0.0
 10
2348.103586644187
 20
1128.242957488001
 30
0.0
 10
2348.052867635014
 20
1128.242957488001
 30
0.0
 10
2348.001435408092
 20
1128.242957488001
 30
0.0
  0
ARC
  5
88A
330
803
100
AcDbEntity
  8
0
  6
Continuous
 62
     7
370
    15
100
AcDbCircle
 10
2271.076478512949
 20
1127.742957488
 30
0.0
 40
2.188421798070006
100
AcDbArc
 50
13.20731410365529
 51
166.7926858963447
  0
SPLINE
  5
88B
330
803
100
AcDbEntity
  8
0
  6
Continuous
 62
     7
370
    15
100
AcDbSpline
210
0.0
220
0.0
230
1.0
 70
    24
 71
     3
 72
    10
 73
     6
 74
     0
 42
0.0000000001
 43
0.0000000001
 40
0.0
 40
0.0
 40
0.0
 40
0.0
 40
0.5
 40
0.5
 40
1.0
 40
1.0
 40
1.0
 40
1.0
 10
2269.151521617805
 20
1128.242957488
 30
0.0
 10
2269.100055034213
 20
1128.242957488
 30
0.0
 10
2269.049655792246
 20
1128.242957488
 30
0.0
 10
2268.973605793954
 20
1128.242957488
 30
0.0
 10
2268.949334347316
 20
1128.242957488
 30
0.0
 10
2268.945941029996
 20
1128.242957488
 30
0.0
  0
SPLINE
  5
88C
330
803
100
AcDbEntity
  8
0
  6
Continuous
 62
     7
370
    15
100
AcDbSpline
210
0.0
220
0.0
230
1.0
 70
    24
 71
     3
 72
    10
 73
     6
 74
     0
 42
0.0000000001
 43
0.0000000001
 40
0.0
 40
0.0
 40
0.0
 40
0.0
 40
0.5
 40
0.5
 40
1.0
 40
1.0
 40
1.0
 40
1.0
 10
2273.207015995902
 20
1128.242957488
 30
0.0
 10
2273.203625257616
 20
1128.242957488
 30
0.0
 10
2273.179249221842
 20
1128.242957488
 30
0.0
 10
2273.103586644187
 20
1128.242957488
 30
0.0
 10
2273.052867635014
 20
1128.242957488
 30
0.0
 10
2273.001435408093
 20
1128.242957488
 30
0.0
  0
ARC
  5
88D
330
803
100
AcDbEntity
  8
0
  6
Continuous
 62
     7
370
    15
100
AcDbCircle
 10
2286.076478512949
 20
1127.742957488
 30
0.0
 40
2.188421798069978
100
AcDbArc
 50
13.20731410365529
 51
166.7926858963447
  0
SPLINE
  5
88E
330
803
100
AcDbEntity
  8
0
  6
Continuous
 62
     7
370
    15
100
AcDbSpline
210
0.0
220
0.0
230
1.0
 70
    24
 71
     3
 72
    10
 73
     6
 74
     0
 42
0.0000000001
 43
0.0000000001
 40
0.0
 40
0.0
 40
0.0
 40
0.0
 40
0.5
 40
0.5
 40
1.0
 40
1.0
 40
1.0
 40
1.0
 10
2284.151521617806
 20
1128.242957488
 30
0.0
 10
2284.100055034214
 20
1128.242957488
 30
0.0
 10
2284.049655792246
 20
1128.242957488
 30
0.0
 10
2283.973605793954
 20
1128.242957488
 30
0.0
 10
2283.949334347316
 20
1128.242957488
 30
0.0
 10
2283.945941029996
 20
1128.242957488
 30
0.0
  0
SPLINE
  5
88F
330
803
100
AcDbEntity
  8
0
  6
Continuous
 62
     7
370
    15
100
AcDbSpline
210
0.0
220
0.0
230
1.0
 70
    24
 71
     3
 72
    10
 73
     6
 74
     0
 42
0.0000000001
 43
0.0000000001
 40
0.0
 40
0.0
 40
0.0
 40
0.0
 40
0.5
 40
0.5
 40
1.0
 40
1.0
 40
1.0
 40
1.0
 10
2288.207015995902
 20
1128.242957488
 30
0.0
 10
2288.203625257617
 20
1128.242957488
 30
0.0
 10
2288.179249221842
 20
1128.242957488
 30
0.0
 10
2288.103586644187
 20
1128.242957488
 30
0.0
 10
2288.052867635014
 20
1128.242957488
 30
0.0
 10
2288.001435408093
 20
1128.242957488
 30
0.0
  0
ARC
  5
890
330
803
100
AcDbEntity
  8
0
  6
Continuous
 62
     7
370
    15
100
AcDbCircle
 10
2301.076478512949
 20
1127.742957488
 30
0.0
 40
2.188421798069978
100
AcDbArc
 50
13.20731410365529
 51
166.7926858963447
  0
SPLINE
  5
891
330
803
100
AcDbEntity
  8
0
  6
Continuous
 62
     7
370
    15
100
AcDbSpline
210
0.0
220
0.0
230
1.0
 70
    24
 71
     3
 72
    10
 73
     6
 74
     0
 42
0.0000000001
 43
0.0000000001
 40
0.0
 40
0.0
 40
0.0
 40
0.0
 40
0.5
 40
0.5
 40
1.0
 40
1.0
 40
1.0
 40
1.0
 10
2299.151521617806
 20
1128.242957488001
 30
0.0
 10
2299.100055034213
 20
1128.242957488001
 30
0.0
 10
2299.049655792246
 20
1128.242957488001
 30
0.0
 10
2298.973605793953
 20
1128.242957488001
 30
0.0
 10
2298.949334347316
 20
1128.242957488001
 30
0.0
 10
2298.945941029996
 20
1128.242957488001
 30
0.0
  0
SPLINE
  5
892
330
803
100
AcDbEntity
  8
0
  6
Continuous
 62
     7
370
    15
100
AcDbSpline
210
0.0
220
0.0
230
1.0
 70
    24
 71
     3
 72
    10
 73
     6
 74
     0
 42
0.0000000001
 43
0.0000000001
 40
0.0
 40
0.0
 40
0.0
 40
0.0
 40
0.5
 40
0.5
 40
1.0
 40
1.0
 40
1.0
 40
1.0
 10
2303.207015995902
 20
1128.242957488001
 30
0.0
 10
2303.203625257616
 20
1128.242957488001
 30
0.0
 10
2303.179249221841
 20
1128.242957488001
 30
0.0
 10
2303.103586644187
 20
1128.242957488001
 30
0.0
 10
2303.052867635014
 20
1128.242957488001
 30
0.0
 10
2303.001435408093
 20
1128.242957488001
 30
0.0
  0
ARC
  5
893
330
803
100
AcDbEntity
  8
0
  6
Continuous
 62
     7
370
    15
100
AcDbCircle
 10
2256.076478512947
 20
1127.742957488
 30
0.0
 40
2.188421798069978
100
AcDbArc
 50
13.20731410365529
 51
166.7926858963447
  0
SPLINE
  5
894
330
803
100
AcDbEntity
  8
0
  6
Continuous
 62
     7
370
    15
100
AcDbSpline
210
0.0
220
0.0
230
1.0
 70
    24
 71
     3
 72
    10
 73
     6
 74
     0
 42
0.0000000001
 43
0.0000000001
 40
0.0
 40
0.0
 40
0.0
 40
0.0
 40
0.5
 40
0.5
 40
1.0
 40
1.0
 40
1.0
 40
1.0
 10
2253.945941029994
 20
1128.242957488
 30
0.0
 10
2253.94933176828
 20
1128.242957488
 30
0.0
 10
2253.973707804055
 20
1128.242957488
 30
0.0
 10
2254.049370381709
 20
1128.242957488
 30
0.0
 10
2254.100089390882
 20
1128.242957488
 30
0.0
 10
2254.151521617804
 20
1128.242957488
 30
0.0
  0
SPLINE
  5
895
330
803
100
AcDbEntity
  8
0
  6
Continuous
 62
     7
370
    15
100
AcDbSpline
210
0.0
220
0.0
230
1.0
 70
    24
 71
     3
 72
    10
 73
     6
 74
     0
 42
0.0000000001
 43
0.0000000001
 40
0.0
 40
0.0
 40
0.0
 40
0.0
 40
0.5
 40
0.5
 40
1.0
 40
1.0
 40
1.0
 40
1.0
 10
2258.001435408091
 20
1128.242957488
 30
0.0
 10
2258.052901991683
 20
1128.242957488
 30
0.0
 10
2258.10330123365
 20
1128.242957488
 30
0.0
 10
2258.179351231943
 20
1128.242957488
 30
0.0
 10
2258.20362267858
 20
1128.242957488
 30
0.0
 10
2258.2070159959
 20
1128.242957488
 30
0.0
  0
ARC
  5
896
330
803
100
AcDbEntity
  8
0
  6
Continuous
 62
     7
370
    15
100
AcDbCircle
 10
2376.076478512949
 20
1127.742957488001
 30
0.0
 40
2.188421798070002
100
AcDbArc
 50
13.20731410365529
 51
166.7926858963447
  0
SPLINE
  5
897
330
803
100
AcDbEntity
  8
0
  6
Continuous
 62
     7
370
    15
100
AcDbSpline
210
0.0
220
0.0
230
1.0
 70
    24
 71
     3
 72
    10
 73
     6
 74
     0
 42
0.0000000001
 43
0.0000000001
 40
0.0
 40
0.0
 40
0.0
 40
0.0
 40
0.5
 40
0.5
 40
1.0
 40
1.0
 40
1.0
 40
1.0
 10
2374.151521617806
 20
1128.242957488001
 30
0.0
 10
2374.100055034213
 20
1128.242957488001
 30
0.0
 10
2374.049655792246
 20
1128.242957488001
 30
0.0
 10
2373.973605793954
 20
1128.242957488001
 30
0.0
 10
2373.949334347316
 20
1128.242957488001
 30
0.0
 10
2373.945941029996
 20
1128.242957488001
 30
0.0
  0
SPLINE
  5
898
330
803
100
AcDbEntity
  8
0
  6
Continuous
 62
     7
370
    15
100
AcDbSpline
210
0.0
220
0.0
230
1.0
 70
    24
 71
     3
 72
    10
 73
     6
 74
     0
 42
0.0000000001
 43
0.0000000001
 40
0.0
 40
0.0
 40
0.0
 40
0.0
 40
0.5
 40
0.5
 40
1.0
 40
1.0
 40
1.0
 40
1.0
 10
2378.207015995903
 20
1128.242957488001
 30
0.0
 10
2378.203625257616
 20
1128.242957488001
 30
0.0
 10
2378.179249221842
 20
1128.242957488001
 30
0.0
 10
2378.103586644187
 20
1128.242957488001
 30
0.0
 10
2378.052867635014
 20
1128.242957488001
 30
0.0
 10
2378.001435408092
 20
1128.242957488001
 30
0.0
  0
ARC
  5
899
330
803
100
AcDbEntity
  8
0
  6
Continuous
 62
     7
370
    15
100
AcDbCircle
 10
2331.076478512949
 20
1127.742957488
 30
0.0
 40
2.188421798070006
100
AcDbArc
 50
13.20731410365529
 51
166.7926858963447
  0
SPLINE
  5
89A
330
803
100
AcDbEntity
  8
0
  6
Continuous
 62
     7
370
    15
100
AcDbSpline
210
0.0
220
0.0
230
1.0
 70
    24
 71
     3
 72
    10
 73
     6
 74
     0
 42
0.0000000001
 43
0.0000000001
 40
0.0
 40
0.0
 40
0.0
 40
0.0
 40
0.5
 40
0.5
 40
1.0
 40
1.0
 40
1.0
 40
1.0
 10
2329.151521617806
 20
1128.242957488001
 30
0.0
 10
2329.100055034214
 20
1128.242957488001
 30
0.0
 10
2329.049655792246
 20
1128.242957488001
 30
0.0
 10
2328.973605793954
 20
1128.242957488001
 30
0.0
 10
2328.949334347316
 20
1128.242957488001
 30
0.0
 10
2328.945941029996
 20
1128.242957488001
 30
0.0
  0
SPLINE
  5
89B
330
803
100
AcDbEntity
  8
0
  6
Continuous
 62
     7
370
    15
100
AcDbSpline
210
0.0
220
0.0
230
1.0
 70
    24
 71
     3
 72
    10
 73
     6
 74
     0
 42
0.0000000001
 43
0.0000000001
 40
0.0
 40
0.0
 40
0.0
 40
0.0
 40
0.5
 40
0.5
 40
1.0
 40
1.0
 40
1.0
 40
1.0
 10
2333.207015995902
 20
1128.242957488001
 30
0.0
 10
2333.203625257616
 20
1128.242957488001
 30
0.0
 10
2333.179249221842
 20
1128.242957488001
 30
0.0
 10
2333.103586644187
 20
1128.242957488001
 30
0.0
 10
2333.052867635014
 20
1128.242957488001
 30
0.0
 10
2333.001435408093
 20
1128.242957488001
 30
0.0
  0
ARC
  5
89C
330
803
100
AcDbEntity
  8
0
  6
Continuous
 62
     7
370
    15
100
AcDbCircle
 10
2361.076478512949
 20
1127.742957488001
 30
0.0
 40
2.188421798070006
100
AcDbArc
 50
13.20731410365529
 51
166.7926858963447
  0
SPLINE
  5
89D
330
803
100
AcDbEntity
  8
0
  6
Continuous
 62
     7
370
    15
100
AcDbSpline
210
0.0
220
0.0
230
1.0
 70
    24
 71
     3
 72
    10
 73
     6
 74
     0
 42
0.0000000001
 43
0.0000000001
 40
0.0
 40
0.0
 40
0.0
 40
0.0
 40
0.5
 40
0.5
 40
1.0
 40
1.0
 40
1.0
 40
1.0
 10
2359.151521617806
 20
1128.242957488001
 30
0.0
 10
2359.100055034213
 20
1128.242957488001
 30
0.0
 10
2359.049655792246
 20
1128.242957488001
 30
0.0
 10
2358.973605793954
 20
1128.242957488001
 30
0.0
 10
2358.949334347316
 20
1128.242957488001
 30
0.0
 10
2358.945941029996
 20
1128.242957488001
 30
0.0
  0
SPLINE
  5
89E
330
803
100
AcDbEntity
  8
0
  6
Continuous
 62
     7
370
    15
100
AcDbSpline
210
0.0
220
0.0
230
1.0
 70
    24
 71
     3
 72
    10
 73
     6
 74
     0
 42
0.0000000001
 43
0.0000000001
 40
0.0
 40
0.0
 40
0.0
 40
0.0
 40
0.5
 40
0.5
 40
1.0
 40
1.0
 40
1.0
 40
1.0
 10
2363.207015995902
 20
1128.242957488001
 30
0.0
 10
2363.203625257616
 20
1128.242957488001
 30
0.0
 10
2363.179249221841
 20
1128.242957488001
 30
0.0
 10
2363.103586644187
 20
1128.242957488001
 30
0.0
 10
2363.052867635014
 20
1128.242957488001
 30
0.0
 10
2363.001435408092
 20
1128.242957488001
 30
0.0
  0
LINE
  5
89F
330
803
100
AcDbEntity
  8
0
  6
Continuous
 62
     7
370
    15
100
AcDbLine
 10
2357.576478512947
 20
1124.392957488001
 30
0.0
 11
2349.576478512951
 21
1124.392957488001
 31
0.0
  0
LINE
  5
8A0
330
803
100
AcDbEntity
  8
0
  6
Continuous
 62
     7
370
    15
100
AcDbLine
 10
2342.576478512947
 20
1124.392957488001
 30
0.0
 11
2334.576478512951
 21
1124.392957488001
 31
0.0
  0
ARC
  5
8A1
330
803
100
AcDbEntity
  8
0
  6
Continuous
 62
     7
370
    15
100
AcDbCircle
 10
2331.076478512949
 20
1141.717957488005
 30
0.0
 40
17.67500000000503
100
AcDbArc
 50
258.5788137250069
 51
281.4211862749931
  0
LINE
  5
8A2
330
803
100
AcDbEntity
  8
0
  6
Continuous
 62
     7
370
    15
100
AcDbLine
 10
2327.576478512947
 20
1124.392957488001
 30
0.0
 11
2319.576478512951
 21
1124.392957488001
 31
0.0
  0
ARC
  5
8A3
330
803
100
AcDbEntity
  8
0
  6
Continuous
 62
     7
370
    15
100
AcDbCircle
 10
2316.076478512949
 20
1141.717957488005
 30
0.0
 40
17.67500000000501
100
AcDbArc
 50
258.5788137250069
 51
281.4211862749931
  0
LINE
  5
8A4
330
803
100
AcDbEntity
  8
0
  6
Continuous
 62
     7
370
    15
100
AcDbLine
 10
2312.576478512947
 20
1124.392957488001
 30
0.0
 11
2304.576478512951
 21
1124.392957488
 31
0.0
  0
ARC
  5
8A5
330
803
100
AcDbEntity
  8
0
  6
Continuous
 62
     7
370
    15
100
AcDbCircle
 10
2301.076478512949
 20
1141.717957488005
 30
0.0
 40
17.67500000000503
100
AcDbArc
 50
258.5788137250069
 51
281.4211862749931
  0
LINE
  5
8A6
330
803
100
AcDbEntity
  8
0
  6
Continuous
 62
     7
370
    15
100
AcDbLine
 10
2297.576478512947
 20
1124.392957488
 30
0.0
 11
2289.576478512951
 21
1124.392957488
 31
0.0
  0
ARC
  5
8A7
330
803
100
AcDbEntity
  8
0
  6
Continuous
 62
     7
370
    15
100
AcDbCircle
 10
2286.076478512949
 20
1141.717957488005
 30
0.0
 40
17.675000000005
100
AcDbArc
 50
258.5788137250069
 51
281.4211862749931
  0
LINE
  5
8A8
330
803
100
AcDbEntity
  8
0
  6
Continuous
 62
     7
370
    15
100
AcDbLine
 10
2274.576478512949
 20
1124.392957488
 30
0.0
 11
2282.576478512947
 21
1124.392957488
 31
0.0
  0
ARC
  5
8A9
330
803
100
AcDbEntity
  8
0
  6
Continuous
 62
     7
370
    15
100
AcDbCircle
 10
2271.076478512949
 20
1141.717957488005
 30
0.0
 40
17.67500000000498
100
AcDbArc
 50
258.5788137250069
 51
281.4211862749931
  0
LINE
  5
8AA
330
803
100
AcDbEntity
  8
0
  6
Continuous
 62
     7
370
    15
100
AcDbLine
 10
2259.576478512949
 20
1124.392957488
 30
0.0
 11
2267.576478512947
 21
1124.392957488
 31
0.0
  0
ARC
  5
8AB
330
803
100
AcDbEntity
  8
0
  6
Continuous
 62
     7
370
    15
100
AcDbCircle
 10
2256.076478512947
 20
1141.717957488005
 30
0.0
 40
17.67500000000501
100
AcDbArc
 50
258.5788137250069
 51
281.4211862749931
  0
LINE
  5
8AC
330
803
100
AcDbEntity
  8
0
  6
Continuous
 62
     7
370
    15
100
AcDbLine
 10
2250.376478512947
 20
1124.392957488
 30
0.0
 11
2252.576478512946
 21
1124.392957488
 31
0.0
  0
LINE
  5
8AD
330
803
100
AcDbEntity
  8
0
  6
Continuous
 62
     7
370
    15
100
AcDbLine
 10
2250.376478512947
 20
1131.092957488
 30
0.0
 11
2250.376478512947
 21
1124.392957488
 31
0.0
  0
LINE
  5
8AE
330
803
100
AcDbEntity
  8
0
  6
Continuous
 62
     7
370
    15
100
AcDbLine
 10
2252.576478512947
 20
1131.092957488
 30
0.0
 11
2250.376478512947
 21
1131.092957488
 31
0.0
  0
ARC
  5
8AF
330
803
100
AcDbEntity
  8
0
  6
Continuous
 62
     7
370
    15
100
AcDbCircle
 10
2256.076478512947
 20
1113.767957487995
 30
0.0
 40
17.67500000000479
100
AcDbArc
 50
78.57881372500691
 51
101.4211862749931
  0
LINE
  5
8B0
330
803
100
AcDbEntity
  8
0
  6
Continuous
 62
     7
370
    15
100
AcDbLine
 10
2267.576478512949
 20
1131.092957488
 30
0.0
 11
2259.576478512948
 21
1131.092957488
 31
0.0
  0
ARC
  5
8B1
330
803
100
AcDbEntity
  8
0
  6
Continuous
 62
     7
370
    15
100
AcDbCircle
 10
2271.076478512949
 20
1113.767957487995
 30
0.0
 40
17.67500000000485
100
AcDbArc
 50
78.57881372500691
 51
101.4211862749931
  0
ARC
  5
8B2
330
803
100
AcDbEntity
  8
0
  6
Continuous
 62
     7
370
    15
100
AcDbCircle
 10
2286.076478512949
 20
1113.767957487995
 30
0.0
 40
17.67500000000479
100
AcDbArc
 50
78.57881372500691
 51
101.4211862749931
  0
ARC
  5
8B3
330
803
100
AcDbEntity
  8
0
  6
Continuous
 62
     7
370
    15
100
AcDbCircle
 10
2301.076478512949
 20
1113.767957487995
 30
0.0
 40
17.67500000000479
100
AcDbArc
 50
78.57881372500691
 51
101.4211862749931
  0
ARC
  5
8B4
330
803
100
AcDbEntity
  8
0
  6
Continuous
 62
     7
370
    15
100
AcDbCircle
 10
2316.076478512949
 20
1113.767957487995
 30
0.0
 40
17.67500000000478
100
AcDbArc
 50
78.57881372500691
 51
101.4211862749931
  0
LINE
  5
8B5
330
803
100
AcDbEntity
  8
0
  6
Continuous
 62
     7
370
    15
100
AcDbLine
 10
2319.576478512949
 20
1131.092957488001
 30
0.0
 11
2327.576478512949
 21
1131.092957488001
 31
0.0
  0
ARC
  5
8B6
330
803
100
AcDbEntity
  8
0
  6
Continuous
 62
     7
370
    15
100
AcDbCircle
 10
2331.076478512949
 20
1113.767957487996
 30
0.0
 40
17.67500000000478
100
AcDbArc
 50
78.57881372500691
 51
101.4211862749931
  0
LINE
  5
8B7
330
803
100
AcDbEntity
  8
0
  6
Continuous
 62
     7
370
    15
100
AcDbLine
 10
2334.576478512949
 20
1131.092957488001
 30
0.0
 11
2342.576478512949
 21
1131.092957488001
 31
0.0
  0
LINE
  5
8B8
330
803
100
AcDbEntity
  8
0
  6
Continuous
 62
     7
370
    15
100
AcDbLine
 10
2349.576478512949
 20
1131.092957488001
 30
0.0
 11
2357.576478512949
 21
1131.092957488001
 31
0.0
  0
ARC
  5
8B9
330
803
100
AcDbEntity
  8
0
  6
Continuous
 62
     7
370
    15
100
AcDbCircle
 10
2361.076478512949
 20
1113.767957487996
 30
0.0
 40
17.67500000000479
100
AcDbArc
 50
78.57881372500691
 51
101.4211862749931
  0
ARC
  5
8BA
330
803
100
AcDbEntity
  8
0
  6
Continuous
 62
     7
370
    15
100
AcDbCircle
 10
2376.076478512949
 20
1113.767957487996
 30
0.0
 40
17.67500000000479
100
AcDbArc
 50
78.57881372500691
 51
101.4211862749931
  0
LINE
  5
8BB
330
803
100
AcDbEntity
  8
0
  6
Continuous
 62
     7
370
    15
100
AcDbLine
 10
2379.576478512949
 20
1131.092957488001
 30
0.0
 11
2381.776478512949
 21
1131.092957488001
 31
0.0
  0
LINE
  5
8BC
330
803
100
AcDbEntity
  8
0
  6
Continuous
 62
     7
370
    15
100
AcDbLine
 10
2381.776478512949
 20
1131.092957488001
 30
0.0
 11
2381.776478512949
 21
1124.392957488001
 31
0.0
  0
LINE
  5
8BD
330
803
100
AcDbEntity
  8
0
  6
Continuous
 62
     7
370
    15
100
AcDbLine
 10
2381.776478512949
 20
1124.392957488001
 30
0.0
 11
2379.576478512951
 21
1124.392957488001
 31
0.0
  0
ARC
  5
8BE
330
803
100
AcDbEntity
  8
0
  6
Continuous
 62
     7
370
    15
100
AcDbCircle
 10
2376.076478512949
 20
1141.717957488005
 30
0.0
 40
17.67500000000501
100
AcDbArc
 50
258.5788137250069
 51
281.4211862749931
  0
ARC
  5
8BF
330
803
100
AcDbEntity
  8
0
  6
Continuous
 62
     7
370
    15
100
AcDbCircle
 10
2361.076478512949
 20
1141.717957488005
 30
0.0
 40
17.67500000000499
100
AcDbArc
 50
258.5788137250069
 51
281.4211862749931
  0
ARC
  5
8C0
330
803
100
AcDbEntity
  8
0
  6
Continuous
 62
     7
370
    15
100
AcDbCircle
 10
2346.076478512949
 20
1113.767957487996
 30
0.0
 40
17.67500000000479
100
AcDbArc
 50
78.57881372500691
 51
101.4211862749931
  0
LINE
  5
8C1
330
803
100
AcDbEntity
  8
0
  6
Continuous
 62
     7
370
    15
100
AcDbLine
 10
2372.576478512947
 20
1124.392957488001
 30
0.0
 11
2364.576478512951
 21
1124.392957488001
 31
0.0
  0
LINE
  5
8C2
330
803
100
AcDbEntity
  8
0
  6
Continuous
 62
     7
370
    15
100
AcDbLine
 10
2289.576478512949
 20
1131.092957488
 30
0.0
 11
2297.576478512949
 21
1131.092957488
 31
0.0
  0
LINE
  5
8C3
330
803
100
AcDbEntity
  8
0
  6
Continuous
 62
     7
370
    15
100
AcDbLine
 10
2304.576478512949
 20
1131.092957488
 30
0.0
 11
2312.576478512949
 21
1131.092957488
 31
0.0
  0
LINE
  5
8C4
330
803
100
AcDbEntity
  8
0
  6
Continuous
 62
     7
370
    15
100
AcDbLine
 10
2282.576478512949
 20
1131.092957488
 30
0.0
 11
2274.576478512949
 21
1131.092957488
 31
0.0
  0
LINE
  5
8C5
330
803
100
AcDbEntity
  8
0
  6
Continuous
 62
     7
370
    15
100
AcDbLine
 10
2364.576478512949
 20
1131.092957488001
 30
0.0
 11
2372.576478512949
 21
1131.092957488001
 31
0.0
  0
ARC
  5
8C6
330
803
100
AcDbEntity
  8
0
  6
Continuous
 62
     7
370
    15
100
AcDbCircle
 10
2346.076478512949
 20
1141.717957488005
 30
0.0
 40
17.67500000000503
100
AcDbArc
 50
258.5788137250069
 51
281.4211862749931
  0
ENDBLK
  5
805
330
803
100
AcDbEntity
  8
0
100
AcDbBlockEnd
  0
BLOCK
  5
8C9
330
8C8
100
AcDbEntity
  8
0
100
AcDbBlockBegin
  2
4
 70
     0
 10
0.0
 20
0.0
 30
0.0
  3
4
  1

  0
LINE
  5
8CB
330
8C8
100
AcDbEntity
  8
0
  6
Continuous
 62
     7
370
    15
100
AcDbLine
 10
2225.791534991354
 20
1164.234293036169
 30
0.0
 11
2225.791534991354
 21
1160.334293036169
 31
0.0
  0
LINE
  5
8CC
330
8C8
100
AcDbEntity
  8
0
  6
Continuous
 62
     7
370
    15
100
AcDbLine
 10
2233.191534991354
 20
1160.334293036169
 30
0.0
 11
2233.191534991354
 21
1164.234293036169
 31
0.0
  0
ARC
  5
8CD
330
8C8
100
AcDbEntity
  8
0
  6
Continuous
 62
     7
370
    15
100
AcDbCircle
 10
2226.266534991354
 20
1165.334293036169
 30
0.0
 40
0.200000000000017
100
AcDbArc
 50
180.0
 51
270.0
  0
ARC
  5
8CE
330
8C8
100
AcDbEntity
  8
0
  6
Continuous
 62
     7
370
    15
100
AcDbCircle
 10
2232.716534991354
 20
1165.334293036169
 30
0.0
 40
0.1999999999999886
100
AcDbArc
 50
270.0
 51
0.0
  0
LINE
  5
8CF
330
8C8
100
AcDbEntity
  8
0
  6
Continuous
 62
     7
370
    15
100
AcDbLine
 10
2232.916534991354
 20
1165.334293036169
 30
0.0
 11
2232.916534991354
 21
1170.534293036169
 31
0.0
  0
LINE
  5
8D0
330
8C8
100
AcDbEntity
  8
0
  6
Continuous
 62
     7
370
    15
100
AcDbLine
 10
2226.066534991354
 20
1170.534293036169
 30
0.0
 11
2226.066534991354
 21
1165.334293036169
 31
0.0
  0
LINE
  5
8D1
330
8C8
100
AcDbEntity
  8
0
  6
Continuous
 62
     7
370
    15
100
AcDbLine
 10
2232.491534991354
 20
1149.534293036169
 30
0.0
 11
2232.491534991354
 21
1160.234293036205
 31
0.0
  0
LINE
  5
8D2
330
8C8
100
AcDbEntity
  8
0
  6
Continuous
 62
     7
370
    15
100
AcDbLine
 10
2226.491534991354
 20
1160.234293036205
 30
0.0
 11
2226.491534991354
 21
1149.534293036169
 31
0.0
  0
LINE
  5
8D3
330
8C8
100
AcDbEntity
  8
0
  6
Continuous
 62
     7
370
    15
100
AcDbLine
 10
2232.491534991403
 20
1160.234293036205
 30
0.0
 11
2232.391534991365
 21
1160.334293036186
 31
0.0
  0
LINE
  5
8D4
330
8C8
100
AcDbEntity
  8
0
  6
Continuous
 62
     7
370
    15
100
AcDbLine
 10
2226.591534991343
 20
1160.334293036186
 30
0.0
 11
2226.491534991305
 21
1160.234293036205
 31
0.0
  0
LINE
  5
8D5
330
8C8
100
AcDbEntity
  8
0
  6
Continuous
 62
     7
370
    15
100
AcDbLine
 10
2226.491534991368
 20
1149.534293036169
 30
0.0
 11
2226.691534991324
 21
1149.334293036213
 31
0.0
  0
LINE
  5
8D6
330
8C8
100
AcDbEntity
  8
0
  6
Continuous
 62
     7
370
    15
100
AcDbLine
 10
2232.291534991384
 20
1149.334293036213
 30
0.0
 11
2232.49153499134
 21
1149.534293036169
 31
0.0
  0
LINE
  5
8D7
330
8C8
100
AcDbEntity
  8
0
  6
Continuous
 62
     7
370
    15
100
AcDbLine
 10
2232.491534991354
 20
1164.234293036169
 30
0.0
 11
2232.491534991354
 21
1165.134293036169
 31
0.0
  0
LINE
  5
8D8
330
8C8
100
AcDbEntity
  8
0
  6
Continuous
 62
     7
370
    15
100
AcDbLine
 10
2226.491534991354
 20
1165.134293036169
 30
0.0
 11
2226.491534991354
 21
1164.234293036169
 31
0.0
  0
LINE
  5
8D9
330
8C8
100
AcDbEntity
  8
0
  6
Continuous
 62
     7
370
    15
100
AcDbLine
 10
2226.141534991354
 20
1164.234293036169
 30
0.0
 11
2226.141534991354
 21
1160.334293036169
 31
0.0
  0
LINE
  5
8DA
330
8C8
100
AcDbEntity
  8
0
  6
Continuous
 62
     7
370
    15
100
AcDbLine
 10
2232.841534991354
 20
1164.234293036169
 30
0.0
 11
2232.841534991354
 21
1160.334293036169
 31
0.0
  0
LINE
  5
8DB
330
8C8
100
AcDbEntity
  8
0
  6
Continuous
 62
     7
370
    15
100
AcDbLine
 10
2232.841534991354
 20
1164.234293036169
 30
0.0
 11
2226.141534991354
 21
1164.234293036169
 31
0.0
  0
LINE
  5
8DC
330
8C8
100
AcDbEntity
  8
0
  6
Continuous
 62
     7
370
    15
100
AcDbLine
 10
2226.141534991354
 20
1160.334293036169
 30
0.0
 11
2232.841534991354
 21
1160.334293036169
 31
0.0
  0
LINE
  5
8DD
330
8C8
100
AcDbEntity
  8
0
  6
Continuous
 62
     7
370
    15
100
AcDbLine
 10
2226.141534991354
 20
1164.234293036169
 30
0.0
 11
2225.791534991354
 21
1164.234293036169
 31
0.0
  0
LINE
  5
8DE
330
8C8
100
AcDbEntity
  8
0
  6
Continuous
 62
     7
370
    15
100
AcDbLine
 10
2226.141534991354
 20
1160.334293036169
 30
0.0
 11
2225.791534991354
 21
1160.334293036169
 31
0.0
  0
LINE
  5
8DF
330
8C8
100
AcDbEntity
  8
0
  6
Continuous
 62
     7
370
    15
100
AcDbLine
 10
2233.191534991354
 20
1164.234293036169
 30
0.0
 11
2232.841534991354
 21
1164.234293036169
 31
0.0
  0
LINE
  5
8E0
330
8C8
100
AcDbEntity
  8
0
  6
Continuous
 62
     7
370
    15
100
AcDbLine
 10
2233.191534991354
 20
1160.334293036169
 30
0.0
 11
2232.841534991354
 21
1160.334293036169
 31
0.0
  0
SPLINE
  5
8E1
330
8C8
100
AcDbEntity
  8
0
  6
Continuous
 62
     7
370
    15
100
AcDbSpline
210
0.0
220
0.0
230
1.0
 70
    24
 71
     3
 72
    22
 73
    18
 74
     0
 42
0.0000000001
 43
0.0000000001
 40
0.0
 40
0.0
 40
0.0
 40
0.0
 40
0.0345767369425583
 40
0.068898905576792
 40
0.1030656356827384
 40
0.1371774121935309
 40
0.1713352050309756
 40
0.2056395777922317
 40
0.2401898141702156
 40
0.3700560150090881
 40
0.5000280681034758
 40
0.6298943165886661
 40
0.7598664173671197
 40
0.8201306883705267
 40
0.8798809851167735
 40
0.9396575701707888
 40
1.0
 40
1.0
 40
1.0
 40
1.0
 10
2229.491534991354
 20
1165.134293036169
 30
0.0
 10
2229.433195791438
 20
1165.134293036169
 30
0.0
 10
2229.316946909044
 20
1165.134293036169
 30
0.0
 10
2229.143542084376
 20
1165.134293036169
 30
0.0
 10
2228.971918747321
 20
1165.134293036169
 30
0.0
 10
2228.802080015116
 20
1165.134293036169
 30
0.0
 10
2228.634035083345
 20
1165.134293036169
 30
0.0
 10
2228.467770477926
 20
1165.134293036169
 30
0.0
 10
2228.152848070068
 20
1165.134293036169
 30
0.0
 10
2227.707794426319
 20
1165.134293036169
 30
0.0
 10
2227.195858762947
 20
1165.134293036169
 30
0.0
 10
2226.776096436446
 20
1165.134293036169
 30
0.0
 10
2226.526925647535
 20
1165.134293036169
 30
0.0
 10
2226.389491664575
 20
1165.134293036169
 30
0.0
 10
2226.318764641094
 20
1165.134293036169
 30
0.0
 10
2226.274617090687
 20
1165.134293036169
 30
0.0
 10
2226.269237471724
 20
1165.134293036169
 30
0.0
 10
2226.266534991354
 20
1165.134293036169
 30
0.0
  0
SPLINE
  5
8E2
330
8C8
100
AcDbEntity
  8
0
  6
Continuous
 62
     7
370
    15
100
AcDbSpline
210
0.0
220
0.0
230
1.0
 70
    24
 71
     3
 72
    22
 73
    18
 74
     0
 42
0.0000000001
 43
0.0000000001
 40
0.0
 40
0.0
 40
0.0
 40
0.0
 40
0.0345391614887341
 40
0.0688357986754425
 40
0.1029895277956236
 40
0.1371012171073349
 40
0.171272107159667
 40
0.2056029147619393
 40
0.2401929598423603
 40
0.3700588287086892
 40
0.5000305495597695
 40
0.6298964660721063
 40
0.7598682346073091
 40
0.8201119842015359
 40
0.8798553991925299
 40
0.9396384390827632
 40
1.0
 40
1.0
 40
1.0
 40
1.0
 10
2232.716534991354
 20
1165.134293036169
 30
0.0
 10
2232.715662094821
 20
1165.134293036169
 30
0.0
 10
2232.713922430991
 20
1165.134293036169
 30
0.0
 10
2232.699567132527
 20
1165.134293036169
 30
0.0
 10
2232.676585754902
 20
1165.134293036169
 30
0.0
 10
2232.644151570863
 20
1165.134293036169
 30
0.0
 10
2232.602490309301
 20
1165.134293036169
 30
0.0
 10
2232.551527186887
 20
1165.134293036169
 30
0.0
 10
2232.436351764694
 20
1165.134293036169
 30
0.0
 10
2232.207019710535
 20
1165.134293036169
 30
0.0
 10
2231.787484744268
 20
1165.134293036169
 30
0.0
 10
2231.275399619601
 20
1165.134293036169
 30
0.0
 10
2230.791633523399
 20
1165.134293036169
 30
0.0
 10
2230.392438120188
 20
1165.134293036169
 30
0.0
 10
2230.097107750873
 20
1165.134293036169
 30
0.0
 10
2229.796174139167
 20
1165.134293036169
 30
0.0
 10
2229.593406829427
 20
1165.134293036169
 30
0.0
 10
2229.491534991354
 20
1165.134293036169
 30
0.0
  0
LINE
  5
8E3
330
8C8
100
AcDbEntity
  8
0
  6
Continuous
 62
     7
370
    15
100
AcDbLine
 10
2229.491534991354
 20
1170.534293036169
 30
0.0
 11
2232.916534991354
 21
1170.534293036169
 31
0.0
  0
LINE
  5
8E4
330
8C8
100
AcDbEntity
  8
0
  6
Continuous
 62
     7
370
    15
100
AcDbLine
 10
2226.066534991354
 20
1170.534293036169
 30
0.0
 11
2229.491534991354
 21
1170.534293036169
 31
0.0
  0
LINE
  5
8E5
330
8C8
100
AcDbEntity
  8
0
  6
Continuous
 62
     7
370
    15
100
AcDbLine
 10
2229.491534991354
 20
1160.234293036205
 30
0.0
 11
2226.491534991305
 21
1160.234293036205
 31
0.0
  0
LINE
  5
8E6
330
8C8
100
AcDbEntity
  8
0
  6
Continuous
 62
     7
370
    15
100
AcDbLine
 10
2232.491534991354
 20
1160.234293036205
 30
0.0
 11
2229.491534991354
 21
1160.234293036205
 31
0.0
  0
LINE
  5
8E7
330
8C8
100
AcDbEntity
  8
0
  6
Continuous
 62
     7
370
    15
100
AcDbLine
 10
2229.491534991354
 20
1149.534293036169
 30
0.0
 11
2226.491534991354
 21
1149.534293036169
 31
0.0
  0
LINE
  5
8E8
330
8C8
100
AcDbEntity
  8
0
  6
Continuous
 62
     7
370
    15
100
AcDbLine
 10
2232.491534991354
 20
1149.534293036169
 30
0.0
 11
2229.491534991354
 21
1149.534293036169
 31
0.0
  0
LINE
  5
8E9
330
8C8
100
AcDbEntity
  8
0
  6
Continuous
 62
     7
370
    15
100
AcDbLine
 10
2232.291534991384
 20
1149.334293036213
 30
0.0
 11
2226.691534991324
 21
1149.334293036213
 31
0.0
  0
LINE
  5
8EA
330
8C8
100
AcDbEntity
  8
0
  6
Continuous
 62
     8
370
    15
100
AcDbLine
 10
2226.066534991354
 20
1165.334293036169
 30
0.0
 11
2232.916534991354
 21
1165.334293036169
 31
0.0
  0
ENDBLK
  5
8CA
330
8C8
100
AcDbEntity
  8
0
100
AcDbBlockEnd
  0
BLOCK
  5
8ED
330
8EC
100
AcDbEntity
  8
0
100
AcDbBlockBegin
  2
3
 70
     0
 10
0.0
 20
0.0
 30
0.0
  3
3
  1

  0
LINE
  5
8EF
330
8EC
100
AcDbEntity
  8
0
  6
Continuous
 62
     7
370
    15
100
AcDbLine
 10
2489.467512885762
 20
1127.992393412353
 30
0.0
 11
2489.581099998801
 21
1132.544091494556
 31
0.0
  0
LINE
  5
8F0
330
8EC
100
AcDbEntity
  8
0
  6
Continuous
 62
     7
370
    15
100
AcDbLine
 10
2482.733231909558
 20
1132.714979271532
 30
0.0
 11
2482.619644796518
 21
1128.16328118933
 31
0.0
  0
SPLINE
  5
8F1
330
8EC
100
AcDbEntity
  8
0
  6
Continuous
 62
     7
370
    15
100
AcDbSpline
210
0.0
220
0.0
230
1.0
 70
     8
 71
     3
 72
    20
 73
    16
 74
     0
 42
0.0000000001
 43
0.0000000001
 40
0.0
 40
0.0
 40
0.0
 40
0.0
 40
0.0796632568144797
 40
0.1676460396697894
 40
0.2565120247895983
 40
0.3448590328064588
 40
0.4319841378513985
 40
0.5178022005905203
 40
0.6022972924127262
 40
0.6843409776762721
 40
0.7726157446958612
 40
0.8376581053759341
 40
0.8944340682707798
 40
0.9653964237789775
 40
1.0
 40
1.0
 40
1.0
 40
1.0
 10
2482.62442340866
 20
1128.1799161773
 30
0.0
 10
2482.625258487602
 20
1128.098937252139
 30
0.0
 10
2482.627015855841
 20
1127.928522475706
 30
0.0
 10
2482.722601588125
 20
1127.675987663473
 30
0.0
 10
2482.880134006693
 20
1127.432418641471
 30
0.0
 10
2483.098003950543
 20
1127.209361535725
 30
0.0
 10
2483.365318907134
 20
1127.009254691172
 30
0.0
 10
2483.675231425017
 20
1126.833187080792
 30
0.0
 10
2484.019006593795
 20
1126.682642591896
 30
0.0
 10
2484.400169100596
 20
1126.554228861589
 30
0.0
 10
2484.778944824297
 20
1126.459512441128
 30
0.0
 10
2485.132806714756
 20
1126.395360849634
 30
0.0
 10
2485.465983564236
 20
1126.352093282189
 30
0.0
 10
2485.75175880064
 20
1126.328781302924
 30
0.0
 10
2485.938511068815
 20
1126.322608365669
 30
0.0
 10
2485.999726806131
 20
1126.320584931581
 30
0.0
  0
SPLINE
  5
8F2
330
8EC
100
AcDbEntity
  8
0
  6
Continuous
 62
     7
370
    15
100
AcDbSpline
210
0.0
220
0.0
230
1.0
 70
     8
 71
     3
 72
    20
 73
    16
 74
     0
 42
0.0000000001
 43
0.0000000001
 40
0.0
 40
0.0
 40
0.0
 40
0.0
 40
0.0280015617209663
 40
0.1034838818816609
 40
0.1807125853918934
 40
0.2624208337813053
 40
0.3463959175754677
 40
0.4318325125398697
 40
0.5181827968286637
 40
0.6052262170858858
 40
0.692981208200738
 40
0.7816306231817001
 40
0.8718972366871279
 40
0.9656943954876425
 40
1.0
 40
1.0
 40
1.0
 40
1.0
 10
2486.621446629853
 20
1126.334208165154
 30
0.0
 10
2486.664979924501
 20
1126.3370687968
 30
0.0
 10
2486.825863605425
 20
1126.347640680982
 30
0.0
 10
2487.101104576201
 20
1126.380545566166
 30
0.0
 10
2487.446713812889
 20
1126.439823051061
 30
0.0
 10
2487.787416690693
 20
1126.521547680129
 30
0.0
 10
2488.116698896539
 20
1126.626155213908
 30
0.0
 10
2488.423845084487
 20
1126.752800021537
 30
0.0
 10
2488.701754710505
 20
1126.900378883537
 30
0.0
 10
2488.945163865259
 20
1127.068031419639
 30
0.0
 10
2489.149324218541
 20
1127.255451137478
 30
0.0
 10
2489.311520704315
 20
1127.463320497191
 30
0.0
 10
2489.42027403345
 20
1127.693368072534
 30
0.0
 10
2489.473393508862
 20
1127.888827394652
 30
0.0
 10
2489.461834544665
 20
1128.004374908497
 30
0.0
 10
2489.458739082521
 20
1128.035318248124
 30
0.0
  0
SPLINE
  5
8F3
330
8EC
100
AcDbEntity
  8
0
  6
Continuous
 62
     7
370
    15
100
AcDbSpline
210
0.0
220
0.0
230
1.0
 70
     8
 71
     3
 72
     9
 73
     5
 74
     0
 42
0.0000000001
 43
0.0000000001
 40
0.0
 40
0.0
 40
0.0
 40
0.0
 40
0.8649287728215508
 40
1.0
 40
1.0
 40
1.0
 40
1.0
 10
2485.999726806131
 20
1126.320584931581
 30
0.0
 10
2486.180369110892
 20
1126.318898871386
 30
0.0
 10
2486.389221342935
 20
1126.31694950833
 30
0.0
 10
2486.593812280805
 20
1126.332154419186
 30
0.0
 10
2486.621446629853
 20
1126.334208165154
 30
0.0
  0
LINE
  5
8F4
330
8EC
100
AcDbEntity
  8
0
  6
Continuous
 62
     7
370
    15
100
AcDbLine
 10
2489.018617114453
 20
1127.040136728965
 30
0.0
 11
2489.021294648229
 21
1127.14743169428
 31
0.0
  0
LINE
  5
8F5
330
8EC
100
AcDbEntity
  8
0
  6
Continuous
 62
     7
370
    15
100
AcDbLine
 10
2483.02320680303
 20
1127.298909165864
 30
0.0
 11
2483.02048448154
 21
1127.189819453325
 31
0.0
  0
LINE
  5
8F6
330
8EC
100
AcDbEntity
  8
0
  6
Continuous
 62
     7
370
    15
100
AcDbLine
 10
2488.698756172606
 20
1114.172267440534
 30
0.0
 11
2488.871948140893
 21
1121.112469799844
 31
0.0
  0
LINE
  5
8F7
330
8EC
100
AcDbEntity
  8
0
  6
Continuous
 62
     7
370
    15
100
AcDbLine
 10
2482.909253565026
 20
1122.682237355784
 30
0.0
 11
2482.700623539691
 21
1114.321950164894
 31
0.0
  0
LINE
  5
8F8
330
8EC
100
AcDbEntity
  8
0
  6
Continuous
 62
     7
370
    15
100
AcDbLine
 10
2478.370549614223
 20
1133.079468100766
 30
0.0
 11
2478.484136727264
 21
1137.631166182968
 31
0.0
  0
LINE
  5
8F9
330
8EC
100
AcDbEntity
  8
0
  6
Continuous
 62
     7
370
    15
100
AcDbLine
 10
2471.63626863802
 20
1137.802053959945
 30
0.0
 11
2471.52268152498
 21
1133.250355877743
 31
0.0
  0
LINE
  5
8FA
330
8EC
100
AcDbEntity
  8
0
  6
Continuous
 62
     7
370
    15
100
AcDbLine
 10
2483.178330611809
 20
1113.510351674569
 30
0.0
 11
2483.342052492946
 21
1113.384403505619
 31
0.0
  0
LINE
  5
8FB
330
8EC
100
AcDbEntity
  8
0
  6
Continuous
 62
     7
370
    15
100
AcDbLine
 10
2488.01136199658
 20
1113.267881412802
 30
0.0
 11
2488.181162222769
 21
1113.385506575123
 31
0.0
  0
SPLINE
  5
8FC
330
8EC
100
AcDbEntity
  8
0
  6
Continuous
 62
     7
370
    15
100
AcDbSpline
210
0.0
220
0.0
230
1.0
 70
     8
 71
     3
 72
    20
 73
    16
 74
     0
 42
0.0000000001
 43
0.0000000001
 40
0.0
 40
0.0
 40
0.0
 40
0.0
 40
0.0796632568144772
 40
0.1676460396697831
 40
0.2565120247895887
 40
0.3448590328064495
 40
0.4319841378513864
 40
0.517802200590508
 40
0.6022972924127133
 40
0.6843409776762581
 40
0.7726157446958517
 40
0.8376581053759297
 40
0.8944340682707784
 40
0.9653964237790017
 40
1.0
 40
1.0
 40
1.0
 40
1.0
 10
2471.527460137121
 20
1133.266990865712
 30
0.0
 10
2471.528295216064
 20
1133.186011940551
 30
0.0
 10
2471.530052584303
 20
1133.015597164119
 30
0.0
 10
2471.625638316587
 20
1132.763062351885
 30
0.0
 10
2471.783170735155
 20
1132.519493329883
 30
0.0
 10
2472.001040679006
 20
1132.296436224137
 30
0.0
 10
2472.268355635595
 20
1132.096329379584
 30
0.0
 10
2472.578268153479
 20
1131.920261769204
 30
0.0
 10
2472.922043322256
 20
1131.769717280308
 30
0.0
 10
2473.303205829057
 20
1131.641303550001
 30
0.0
 10
2473.681981552758
 20
1131.54658712954
 30
0.0
 10
2474.035843443217
 20
1131.482435538046
 30
0.0
 10
2474.369020292698
 20
1131.439167970601
 30
0.0
 10
2474.654795529102
 20
1131.415855991336
 30
0.0
 10
2474.841547797277
 20
1131.409683054081
 30
0.0
 10
2474.902763534593
 20
1131.407659619993
 30
0.0
  0
SPLINE
  5
8FD
330
8EC
100
AcDbEntity
  8
0
  6
Continuous
 62
     7
370
    15
100
AcDbSpline
210
0.0
220
0.0
230
1.0
 70
     8
 71
     3
 72
    20
 73
    16
 74
     0
 42
0.0000000001
 43
0.0000000001
 40
0.0
 40
0.0
 40
0.0
 40
0.0
 40
0.028001561720966
 40
0.1034838818816556
 40
0.1807125853918857
 40
0.2624208337812965
 40
0.3463959175754566
 40
0.4318325125398563
 40
0.5181827968286714
 40
0.605226217085865
 40
0.6929812082006949
 40
0.7816306231816621
 40
0.8718972366870685
 40
0.96569439548761
 40
1.0
 40
1.0
 40
1.0
 40
1.0
 10
2475.524483358315
 20
1131.421282853566
 30
0.0
 10
2475.568016652963
 20
1131.424143485213
 30
0.0
 10
2475.728900333888
 20
1131.434715369394
 30
0.0
 10
2476.004141304664
 20
1131.467620254579
 30
0.0
 10
2476.349750541351
 20
1131.526897739473
 30
0.0
 10
2476.690453419155
 20
1131.608622368541
 30
0.0
 10
2477.019735625001
 20
1131.71322990232
 30
0.0
 10
2477.326881812949
 20
1131.839874709949
 30
0.0
 10
2477.604791438966
 20
1131.987453571949
 30
0.0
 10
2477.848200593721
 20
1132.155106108051
 30
0.0
 10
2478.052360947004
 20
1132.34252582589
 30
0.0
 10
2478.214557432777
 20
1132.550395185603
 30
0.0
 10
2478.323310761912
 20
1132.780442760946
 30
0.0
 10
2478.376430237324
 20
1132.975902083065
 30
0.0
 10
2478.364871273126
 20
1133.091449596909
 30
0.0
 10
2478.361775810983
 20
1133.122392936536
 30
0.0
  0
SPLINE
  5
8FE
330
8EC
100
AcDbEntity
  8
0
  6
Continuous
 62
     7
370
    15
100
AcDbSpline
210
0.0
220
0.0
230
1.0
 70
     8
 71
     3
 72
     9
 73
     5
 74
     0
 42
0.0000000001
 43
0.0000000001
 40
0.0
 40
0.0
 40
0.0
 40
0.0
 40
0.8649287728215512
 40
1.0
 40
1.0
 40
1.0
 40
1.0
 10
2474.902763534593
 20
1131.407659619993
 30
0.0
 10
2475.083405839355
 20
1131.405973559798
 30
0.0
 10
2475.292258071397
 20
1131.404024196743
 30
0.0
 10
2475.496849009267
 20
1131.419229107598
 30
0.0
 10
2475.524483358315
 20
1131.421282853566
 30
0.0
  0
LINE
  5
8FF
330
8EC
100
AcDbEntity
  8
0
  6
Continuous
 62
     7
370
    15
100
AcDbLine
 10
2477.921653842916
 20
1132.127211417378
 30
0.0
 11
2477.924331376692
 21
1132.234506382692
 31
0.0
  0
LINE
  5
900
330
8EC
100
AcDbEntity
  8
0
  6
Continuous
 62
     7
370
    15
100
AcDbLine
 10
2471.926243531493
 20
1132.385983854277
 30
0.0
 11
2471.923521210002
 21
1132.276894141737
 31
0.0
  0
LINE
  5
901
330
8EC
100
AcDbEntity
  8
0
  6
Continuous
 62
     7
370
    15
100
AcDbLine
 10
2477.601792901067
 20
1119.259342128946
 30
0.0
 11
2477.75166324146
 21
1125.26499296982
 31
0.0
  0
LINE
  5
902
330
8EC
100
AcDbEntity
  8
0
  6
Continuous
 62
     7
370
    15
100
AcDbLine
 10
2471.812290293487
 20
1127.769312044196
 30
0.0
 11
2471.603660268153
 21
1119.409024853306
 31
0.0
  0
LINE
  5
903
330
8EC
100
AcDbEntity
  8
0
  6
Continuous
 62
     7
370
    15
100
AcDbLine
 10
2467.273586342685
 20
1138.166542789178
 30
0.0
 11
2467.387173455726
 21
1142.71824087138
 31
0.0
  0
LINE
  5
904
330
8EC
100
AcDbEntity
  8
0
  6
Continuous
 62
     7
370
    15
100
AcDbLine
 10
2460.539305366482
 20
1142.889128648357
 30
0.0
 11
2460.425718253441
 21
1138.337430566155
 31
0.0
  0
LINE
  5
905
330
8EC
100
AcDbEntity
  8
0
  6
Continuous
 62
     7
370
    15
100
AcDbLine
 10
2472.081367340271
 20
1118.597426362981
 30
0.0
 11
2472.245089221408
 21
1118.471478194031
 31
0.0
  0
LINE
  5
906
330
8EC
100
AcDbEntity
  8
0
  6
Continuous
 62
     7
370
    15
100
AcDbLine
 10
2476.914398725043
 20
1118.354956101214
 30
0.0
 11
2477.084198951231
 21
1118.472581263536
 31
0.0
  0
SPLINE
  5
907
330
8EC
100
AcDbEntity
  8
0
  6
Continuous
 62
     7
370
    15
100
AcDbSpline
210
0.0
220
0.0
230
1.0
 70
     8
 71
     3
 72
    20
 73
    16
 74
     0
 42
0.0000000001
 43
0.0000000001
 40
0.0
 40
0.0
 40
0.0
 40
0.0
 40
0.0796632568144794
 40
0.1676460396697883
 40
0.2565120247895971
 40
0.344859032806458
 40
0.4319841378513952
 40
0.5178022005905172
 40
0.6022972924127231
 40
0.684340977676269
 40
0.772615744695858
 40
0.8376581053759281
 40
0.8944340682707643
 40
0.9653964237789306
 40
1.0
 40
1.0
 40
1.0
 40
1.0
 10
2460.430496865584
 20
1138.354065554124
 30
0.0
 10
2460.431331944525
 20
1138.273086628964
 30
0.0
 10
2460.433089312765
 20
1138.102671852531
 30
0.0
 10
2460.528675045049
 20
1137.850137040298
 30
0.0
 10
2460.686207463617
 20
1137.606568018296
 30
0.0
 10
2460.904077407468
 20
1137.38351091255
 30
0.0
 10
2461.171392364057
 20
1137.183404067996
 30
0.0
 10
2461.481304881941
 20
1137.007336457616
 30
0.0
 10
2461.825080050719
 20
1136.85679196872
 30
0.0
 10
2462.206242557519
 20
1136.728378238413
 30
0.0
 10
2462.585018281221
 20
1136.633661817952
 30
0.0
 10
2462.938880171679
 20
1136.569510226459
 30
0.0
 10
2463.27205702116
 20
1136.526242659013
 30
0.0
 10
2463.557832257564
 20
1136.502930679748
 30
0.0
 10
2463.744584525739
 20
1136.496757742493
 30
0.0
 10
2463.805800263055
 20
1136.494734308405
 30
0.0
  0
SPLINE
  5
908
330
8EC
100
AcDbEntity
  8
0
  6
Continuous
 62
     7
370
    15
100
AcDbSpline
210
0.0
220
0.0
230
1.0
 70
     8
 71
     3
 72
    20
 73
    16
 74
     0
 42
0.0000000001
 43
0.0000000001
 40
0.0
 40
0.0
 40
0.0
 40
0.0
 40
0.0280015617209661
 40
0.1034838818816605
 40
0.1807125853918929
 40
0.2624208337813046
 40
0.3463959175754667
 40
0.4318325125398685
 40
0.5181827968286622
 40
0.6052262170858841
 40
0.6929812082007362
 40
0.7816306231816976
 40
0.8718972366871255
 40
0.9656943954876396
 40
1.0
 40
1.0
 40
1.0
 40
1.0
 10
2464.427520086777
 20
1136.508357541978
 30
0.0
 10
2464.471053381425
 20
1136.511218173625
 30
0.0
 10
2464.63193706235
 20
1136.521790057806
 30
0.0
 10
2464.907178033125
 20
1136.554694942991
 30
0.0
 10
2465.252787269813
 20
1136.613972427886
 30
0.0
 10
2465.593490147617
 20
1136.695697056954
 30
0.0
 10
2465.922772353463
 20
1136.800304590732
 30
0.0
 10
2466.229918541412
 20
1136.926949398362
 30
0.0
 10
2466.507828167428
 20
1137.074528260361
 30
0.0
 10
2466.751237322183
 20
1137.242180796464
 30
0.0
 10
2466.955397675465
 20
1137.429600514303
 30
0.0
 10
2467.117594161239
 20
1137.637469874015
 30
0.0
 10
2467.226347490374
 20
1137.867517449359
 30
0.0
 10
2467.279466965786
 20
1138.062976771477
 30
0.0
 10
2467.267908001589
 20
1138.178524285322
 30
0.0
 10
2467.264812539445
 20
1138.209467624949
 30
0.0
  0
SPLINE
  5
909
330
8EC
100
AcDbEntity
  8
0
  6
Continuous
 62
     7
370
    15
100
AcDbSpline
210
0.0
220
0.0
230
1.0
 70
     8
 71
     3
 72
     9
 73
     5
 74
     0
 42
0.0000000001
 43
0.0000000001
 40
0.0
 40
0.0
 40
0.0
 40
0.0
 40
0.8649287728215512
 40
1.0
 40
1.0
 40
1.0
 40
1.0
 10
2463.805800263055
 20
1136.494734308405
 30
0.0
 10
2463.986442567816
 20
1136.49304824821
 30
0.0
 10
2464.195294799859
 20
1136.491098885155
 30
0.0
 10
2464.399885737729
 20
1136.50630379601
 30
0.0
 10
2464.427520086777
 20
1136.508357541978
 30
0.0
  0
LINE
  5
90A
330
8EC
100
AcDbEntity
  8
0
  6
Continuous
 62
     7
370
    15
100
AcDbLine
 10
2466.824690571377
 20
1137.21428610579
 30
0.0
 11
2466.827368105154
 21
1137.321581071105
 31
0.0
  0
LINE
  5
90B
330
8EC
100
AcDbEntity
  8
0
  6
Continuous
 62
     7
370
    15
100
AcDbLine
 10
2460.829280259955
 20
1137.473058542689
 30
0.0
 11
2460.826557938464
 21
1137.36396883015
 31
0.0
  0
LINE
  5
90C
330
8EC
100
AcDbEntity
  8
0
  6
Continuous
 62
     7
370
    15
100
AcDbLine
 10
2466.50482962953
 20
1124.346416817359
 30
0.0
 11
2466.654699969922
 21
1130.352067658233
 31
0.0
  0
LINE
  5
90D
330
8EC
100
AcDbEntity
  8
0
  6
Continuous
 62
     7
370
    15
100
AcDbLine
 10
2460.715327021949
 20
1132.856386732608
 30
0.0
 11
2460.506696996616
 21
1124.496099541718
 31
0.0
  0
LINE
  5
90E
330
8EC
100
AcDbEntity
  8
0
  6
Continuous
 62
     7
370
    15
100
AcDbLine
 10
2456.176623071148
 20
1143.25361747759
 30
0.0
 11
2456.290210184187
 21
1147.805315559792
 31
0.0
  0
LINE
  5
90F
330
8EC
100
AcDbEntity
  8
0
  6
Continuous
 62
     7
370
    15
100
AcDbLine
 10
2449.442342094944
 20
1147.976203336769
 30
0.0
 11
2449.328754981904
 21
1143.424505254567
 31
0.0
  0
LINE
  5
910
330
8EC
100
AcDbEntity
  8
0
  6
Continuous
 62
     7
370
    15
100
AcDbLine
 10
2460.984404068733
 20
1123.684501051393
 30
0.0
 11
2461.148125949871
 21
1123.558552882443
 31
0.0
  0
LINE
  5
911
330
8EC
100
AcDbEntity
  8
0
  6
Continuous
 62
     7
370
    15
100
AcDbLine
 10
2465.817435453504
 20
1123.442030789626
 30
0.0
 11
2465.987235679693
 21
1123.559655951948
 31
0.0
  0
SPLINE
  5
912
330
8EC
100
AcDbEntity
  8
0
  6
Continuous
 62
     7
370
    15
100
AcDbSpline
210
0.0
220
0.0
230
1.0
 70
     8
 71
     3
 72
    20
 73
    16
 74
     0
 42
0.0000000001
 43
0.0000000001
 40
0.0
 40
0.0
 40
0.0
 40
0.0
 40
0.0796632568144789
 40
0.1676460396697841
 40
0.2565120247895898
 40
0.3448590328064505
 40
0.4319841378513845
 40
0.5178022005905059
 40
0.602297292412711
 40
0.6843409776762557
 40
0.772615744695849
 40
0.8376581053759238
 40
0.8944340682707629
 40
0.9653964237789308
 40
0.9999999999999998
 40
0.9999999999999998
 40
0.9999999999999998
 40
0.9999999999999998
 10
2449.333533594046
 20
1143.441140242537
 30
0.0
 10
2449.334368672988
 20
1143.360161317376
 30
0.0
 10
2449.336126041227
 20
1143.189746540943
 30
0.0
 10
2449.431711773511
 20
1142.93721172871
 30
0.0
 10
2449.589244192079
 20
1142.693642706708
 30
0.0
 10
2449.807114135929
 20
1142.470585600962
 30
0.0
 10
2450.074429092519
 20
1142.270478756408
 30
0.0
 10
2450.384341610403
 20
1142.094411146028
 30
0.0
 10
2450.72811677918
 20
1141.943866657133
 30
0.0
 10
2451.109279285981
 20
1141.815452926826
 30
0.0
 10
2451.488055009682
 20
1141.720736506365
 30
0.0
 10
2451.841916900141
 20
1141.656584914871
 30
0.0
 10
2452.175093749622
 20
1141.613317347426
 30
0.0
 10
2452.460868986026
 20
1141.59000536816
 30
0.0
 10
2452.647621254201
 20
1141.583832430906
 30
0.0
 10
2452.708836991517
 20
1141.581808996817
 30
0.0
  0
SPLINE
  5
913
330
8EC
100
AcDbEntity
  8
0
  6
Continuous
 62
     7
370
    15
100
AcDbSpline
210
0.0
220
0.0
230
1.0
 70
     8
 71
     3
 72
    20
 73
    16
 74
     0
 42
0.0000000001
 43
0.0000000001
 40
0.0
 40
0.0
 40
0.0
 40
0.0
 40
0.0280015617209661
 40
0.103483881881656
 40
0.1807125853918865
 40
0.2624208337812976
 40
0.3463959175754563
 40
0.4318325125398569
 40
0.5181827968286728
 40
0.6052262170858659
 40
0.6929812082007189
 40
0.7816306231816366
 40
0.8718972366870511
 40
0.9656943954875959
 40
1.0
 40
1.0
 40
1.0
 40
1.0
 10
2453.330556815239
 20
1141.595432230391
 30
0.0
 10
2453.374090109888
 20
1141.598292862037
 30
0.0
 10
2453.534973790811
 20
1141.608864746219
 30
0.0
 10
2453.810214761587
 20
1141.641769631403
 30
0.0
 10
2454.155823998275
 20
1141.701047116298
 30
0.0
 10
2454.496526876079
 20
1141.782771745366
 30
0.0
 10
2454.825809081925
 20
1141.887379279145
 30
0.0
 10
2455.132955269874
 20
1142.014024086774
 30
0.0
 10
2455.41086489589
 20
1142.161602948774
 30
0.0
 10
2455.654274050644
 20
1142.329255484876
 30
0.0
 10
2455.858434403928
 20
1142.516675202715
 30
0.0
 10
2456.020630889701
 20
1142.724544562427
 30
0.0
 10
2456.129384218836
 20
1142.954592137771
 30
0.0
 10
2456.182503694248
 20
1143.150051459889
 30
0.0
 10
2456.170944730051
 20
1143.265598973734
 30
0.0
 10
2456.167849267907
 20
1143.296542313361
 30
0.0
  0
SPLINE
  5
914
330
8EC
100
AcDbEntity
  8
0
  6
Continuous
 62
     7
370
    15
100
AcDbSpline
210
0.0
220
0.0
230
1.0
 70
     8
 71
     3
 72
     9
 73
     5
 74
     0
 42
0.0000000001
 43
0.0000000001
 40
0.0
 40
0.0
 40
0.0
 40
0.0
 40
0.8649287728215506
 40
1.0
 40
1.0
 40
1.0
 40
1.0
 10
2452.708836991517
 20
1141.581808996817
 30
0.0
 10
2452.889479296278
 20
1141.580122936622
 30
0.0
 10
2453.098331528321
 20
1141.578173573567
 30
0.0
 10
2453.302922466191
 20
1141.593378484422
 30
0.0
 10
2453.330556815239
 20
1141.595432230391
 30
0.0
  0
LINE
  5
915
330
8EC
100
AcDbEntity
  8
0
  6
Continuous
 62
     7
370
    15
100
AcDbLine
 10
2455.727727299839
 20
1142.301360794202
 30
0.0
 11
2455.730404833616
 21
1142.408655759517
 31
0.0
  0
LINE
  5
916
330
8EC
100
AcDbEntity
  8
0
  6
Continuous
 62
     7
370
    15
100
AcDbLine
 10
2449.732316988416
 20
1142.560133231101
 30
0.0
 11
2449.729594666925
 21
1142.451043518562
 31
0.0
  0
LINE
  5
917
330
8EC
100
AcDbEntity
  8
0
  6
Continuous
 62
     7
370
    15
100
AcDbLine
 10
2455.407866357991
 20
1129.433491505771
 30
0.0
 11
2455.557736698384
 21
1135.439142346645
 31
0.0
  0
LINE
  5
918
330
8EC
100
AcDbEntity
  8
0
  6
Continuous
 62
     7
370
    15
100
AcDbLine
 10
2449.618363750411
 20
1137.943461421021
 30
0.0
 11
2449.409733725078
 21
1129.58317423013
 31
0.0
  0
LINE
  5
919
330
8EC
100
AcDbEntity
  8
0
  6
Continuous
 62
     7
370
    15
100
AcDbLine
 10
2445.079659799609
 20
1148.340692166002
 30
0.0
 11
2445.19324691265
 21
1152.892390248204
 31
0.0
  0
LINE
  5
91A
330
8EC
100
AcDbEntity
  8
0
  6
Continuous
 62
     7
370
    15
100
AcDbLine
 10
2438.345378823406
 20
1153.063278025181
 30
0.0
 11
2438.231791710366
 21
1148.511579942979
 31
0.0
  0
LINE
  5
91B
330
8EC
100
AcDbEntity
  8
0
  6
Continuous
 62
     7
370
    15
100
AcDbLine
 10
2449.887440797195
 20
1128.771575739805
 30
0.0
 11
2450.051162678332
 21
1128.645627570856
 31
0.0
  0
LINE
  5
91C
330
8EC
100
AcDbEntity
  8
0
  6
Continuous
 62
     7
370
    15
100
AcDbLine
 10
2454.720472181966
 20
1128.529105478039
 30
0.0
 11
2454.890272408155
 21
1128.64673064036
 31
0.0
  0
SPLINE
  5
91D
330
8EC
100
AcDbEntity
  8
0
  6
Continuous
 62
     7
370
    15
100
AcDbSpline
210
0.0
220
0.0
230
1.0
 70
     8
 71
     3
 72
    20
 73
    16
 74
     0
 42
0.0000000001
 43
0.0000000001
 40
0.0
 40
0.0
 40
0.0
 40
0.0
 40
0.0796632568144538
 40
0.1676460396697642
 40
0.2565120247895797
 40
0.3448590328064347
 40
0.4319841378513746
 40
0.5178022005904893
 40
0.6022972924126889
 40
0.6843409776762312
 40
0.7726157446958278
 40
0.8376581053759078
 40
0.8944340682707423
 40
0.9653964237788839
 40
1.0
 40
1.0
 40
1.0
 40
1.0
 10
2438.236570322507
 20
1148.528214930949
 30
0.0
 10
2438.237405401449
 20
1148.447236005788
 30
0.0
 10
2438.239162769689
 20
1148.276821229356
 30
0.0
 10
2438.334748501973
 20
1148.024286417122
 30
0.0
 10
2438.492280920541
 20
1147.78071739512
 30
0.0
 10
2438.710150864392
 20
1147.557660289374
 30
0.0
 10
2438.977465820981
 20
1147.357553444821
 30
0.0
 10
2439.287378338865
 20
1147.18148583444
 30
0.0
 10
2439.631153507642
 20
1147.030941345545
 30
0.0
 10
2440.012316014443
 20
1146.902527615238
 30
0.0
 10
2440.391091738145
 20
1146.807811194777
 30
0.0
 10
2440.744953628603
 20
1146.743659603283
 30
0.0
 10
2441.078130478084
 20
1146.700392035838
 30
0.0
 10
2441.363905714488
 20
1146.677080056573
 30
0.0
 10
2441.550657982663
 20
1146.670907119318
 30
0.0
 10
2441.611873719979
 20
1146.66888368523
 30
0.0
  0
SPLINE
  5
91E
330
8EC
100
AcDbEntity
  8
0
  6
Continuous
 62
     7
370
    15
100
AcDbSpline
210
0.0
220
0.0
230
1.0
 70
     8
 71
     3
 72
    20
 73
    16
 74
     0
 42
0.0000000001
 43
0.0000000001
 40
0.0
 40
0.0
 40
0.0
 40
0.0
 40
0.0280015617209734
 40
0.1034838818817343
 40
0.1807125853919585
 40
0.2624208337813696
 40
0.3463959175755342
 40
0.4318325125399164
 40
0.5181827968287413
 40
0.6052262170859418
 40
0.6929812082007998
 40
0.7816306231817453
 40
0.871897236687181
 40
0.9656943954877046
 40
1.0
 40
1.0
 40
1.0
 40
1.0
 10
2442.233593543701
 20
1146.682506918803
 30
0.0
 10
2442.277126838349
 20
1146.68536755045
 30
0.0
 10
2442.438010519274
 20
1146.695939434631
 30
0.0
 10
2442.71325149005
 20
1146.728844319815
 30
0.0
 10
2443.058860726737
 20
1146.78812180471
 30
0.0
 10
2443.399563604541
 20
1146.869846433778
 30
0.0
 10
2443.728845810387
 20
1146.974453967557
 30
0.0
 10
2444.035991998336
 20
1147.101098775186
 30
0.0
 10
2444.313901624352
 20
1147.248677637186
 30
0.0
 10
2444.557310779107
 20
1147.416330173288
 30
0.0
 10
2444.76147113239
 20
1147.603749891128
 30
0.0
 10
2444.923667618163
 20
1147.81161925084
 30
0.0
 10
2445.032420947299
 20
1148.041666826183
 30
0.0
 10
2445.08554042271
 20
1148.237126148301
 30
0.0
 10
2445.073981458513
 20
1148.352673662146
 30
0.0
 10
2445.070885996369
 20
1148.383617001773
 30
0.0
  0
SPLINE
  5
91F
330
8EC
100
AcDbEntity
  8
0
  6
Continuous
 62
     7
370
    15
100
AcDbSpline
210
0.0
220
0.0
230
1.0
 70
     8
 71
     3
 72
     9
 73
     5
 74
     0
 42
0.0000000001
 43
0.0000000001
 40
0.0
 40
0.0
 40
0.0
 40
0.0
 40
0.8649287728215956
 40
0.9999999999999998
 40
0.9999999999999998
 40
0.9999999999999998
 40
0.9999999999999998
 10
2441.611873719979
 20
1146.66888368523
 30
0.0
 10
2441.792516024741
 20
1146.667197625035
 30
0.0
 10
2442.001368256783
 20
1146.66524826198
 30
0.0
 10
2442.205959194653
 20
1146.680453172835
 30
0.0
 10
2442.233593543701
 20
1146.682506918803
 30
0.0
  0
LINE
  5
920
330
8EC
100
AcDbEntity
  8
0
  6
Continuous
 62
     7
370
    15
100
AcDbLine
 10
2444.630764028302
 20
1147.388435482615
 30
0.0
 11
2444.633441562077
 21
1147.495730447929
 31
0.0
  0
LINE
  5
921
330
8EC
100
AcDbEntity
  8
0
  6
Continuous
 62
     7
370
    15
100
AcDbLine
 10
2438.635353716879
 20
1147.647207919513
 30
0.0
 11
2438.632631395388
 21
1147.538118206974
 31
0.0
  0
LINE
  5
922
330
8EC
100
AcDbEntity
  8
0
  6
Continuous
 62
     7
370
    15
100
AcDbLine
 10
2444.310903086453
 20
1134.520566194183
 30
0.0
 11
2444.460773426846
 21
1140.526217035057
 31
0.0
  0
LINE
  5
923
330
8EC
100
AcDbEntity
  8
0
  6
Continuous
 62
     7
370
    15
100
AcDbLine
 10
2438.521400478873
 20
1143.030536109433
 30
0.0
 11
2438.312770453539
 21
1134.670248918543
 31
0.0
  0
LINE
  5
924
330
8EC
100
AcDbEntity
  8
0
  6
Continuous
 62
     7
370
    15
100
AcDbLine
 10
2433.982696528071
 20
1153.427766854415
 30
0.0
 11
2434.096283641112
 21
1157.979464936617
 31
0.0
  0
LINE
  5
925
330
8EC
100
AcDbEntity
  8
0
  6
Continuous
 62
     7
370
    15
100
AcDbLine
 10
2427.248415551868
 20
1158.150352713594
 30
0.0
 11
2427.134828438828
 21
1153.598654631392
 31
0.0
  0
LINE
  5
926
330
8EC
100
AcDbEntity
  8
0
  6
Continuous
 62
     7
370
    15
100
AcDbLine
 10
2438.790477525657
 20
1133.858650428217
 30
0.0
 11
2438.954199406794
 21
1133.732702259268
 31
0.0
  0
LINE
  5
927
330
8EC
100
AcDbEntity
  8
0
  6
Continuous
 62
     7
370
    15
100
AcDbLine
 10
2443.623508910428
 20
1133.616180166451
 30
0.0
 11
2443.793309136617
 21
1133.733805328773
 31
0.0
  0
SPLINE
  5
928
330
8EC
100
AcDbEntity
  8
0
  6
Continuous
 62
     7
370
    15
100
AcDbSpline
210
0.0
220
0.0
230
1.0
 70
     8
 71
     3
 72
    20
 73
    16
 74
     0
 42
0.0000000001
 43
0.0000000001
 40
0.0
 40
0.0
 40
0.0
 40
0.0
 40
0.0796632568144554
 40
0.1676460396697661
 40
0.2565120247895771
 40
0.3448590328064322
 40
0.4319841378513711
 40
0.5178022005904845
 40
0.6022972924126907
 40
0.6843409776762265
 40
0.7726157446958246
 40
0.8376581053759018
 40
0.8944340682707347
 40
0.9653964237788605
 40
1.0
 40
1.0
 40
1.0
 40
1.0
 10
2427.13960705097
 20
1153.615289619361
 30
0.0
 10
2427.140442129911
 20
1153.5343106942
 30
0.0
 10
2427.142199498151
 20
1153.363895917768
 30
0.0
 10
2427.237785230435
 20
1153.111361105535
 30
0.0
 10
2427.395317649003
 20
1152.867792083533
 30
0.0
 10
2427.613187592853
 20
1152.644734977787
 30
0.0
 10
2427.880502549443
 20
1152.444628133233
 30
0.0
 10
2428.190415067327
 20
1152.268560522853
 30
0.0
 10
2428.534190236105
 20
1152.118016033957
 30
0.0
 10
2428.915352742905
 20
1151.98960230365
 30
0.0
 10
2429.294128466607
 20
1151.894885883189
 30
0.0
 10
2429.647990357065
 20
1151.830734291696
 30
0.0
 10
2429.981167206546
 20
1151.78746672425
 30
0.0
 10
2430.26694244295
 20
1151.764154744985
 30
0.0
 10
2430.453694711125
 20
1151.75798180773
 30
0.0
 10
2430.514910448442
 20
1151.755958373642
 30
0.0
  0
SPLINE
  5
929
330
8EC
100
AcDbEntity
  8
0
  6
Continuous
 62
     7
370
    15
100
AcDbSpline
210
0.0
220
0.0
230
1.0
 70
     8
 71
     3
 72
    20
 73
    16
 74
     0
 42
0.0000000001
 43
0.0000000001
 40
0.0
 40
0.0
 40
0.0
 40
0.0
 40
0.0280015617209813
 40
0.1034838818817741
 40
0.1807125853919899
 40
0.2624208337813961
 40
0.3463959175755806
 40
0.4318325125399662
 40
0.5181827968287837
 40
0.60522621708599
 40
0.6929812082008412
 40
0.7816306231817915
 40
0.8718972366872115
 40
0.9656943954877448
 40
1.0
 40
1.0
 40
1.0
 40
1.0
 10
2431.136630272163
 20
1151.769581607215
 30
0.0
 10
2431.180163566811
 20
1151.772442238862
 30
0.0
 10
2431.341047247736
 20
1151.783014123043
 30
0.0
 10
2431.616288218512
 20
1151.815919008228
 30
0.0
 10
2431.961897455199
 20
1151.875196493122
 30
0.0
 10
2432.302600333003
 20
1151.956921122191
 30
0.0
 10
2432.63188253885
 20
1152.061528655969
 30
0.0
 10
2432.939028726798
 20
1152.188173463599
 30
0.0
 10
2433.216938352814
 20
1152.335752325599
 30
0.0
 10
2433.460347507569
 20
1152.503404861701
 30
0.0
 10
2433.664507860852
 20
1152.69082457954
 30
0.0
 10
2433.826704346625
 20
1152.898693939252
 30
0.0
 10
2433.93545767576
 20
1153.128741514596
 30
0.0
 10
2433.988577151172
 20
1153.324200836714
 30
0.0
 10
2433.977018186975
 20
1153.439748350558
 30
0.0
 10
2433.973922724832
 20
1153.470691690186
 30
0.0
  0
SPLINE
  5
92A
330
8EC
100
AcDbEntity
  8
0
  6
Continuous
 62
     7
370
    15
100
AcDbSpline
210
0.0
220
0.0
230
1.0
 70
     8
 71
     3
 72
     9
 73
     5
 74
     0
 42
0.0000000001
 43
0.0000000001
 40
0.0
 40
0.0
 40
0.0
 40
0.0
 40
0.8649287728216425
 40
1.0
 40
1.0
 40
1.0
 40
1.0
 10
2430.514910448442
 20
1151.755958373642
 30
0.0
 10
2430.695552753202
 20
1151.754272313447
 30
0.0
 10
2430.904404985245
 20
1151.752322950392
 30
0.0
 10
2431.108995923115
 20
1151.767527861247
 30
0.0
 10
2431.136630272163
 20
1151.769581607215
 30
0.0
  0
LINE
  5
92B
330
8EC
100
AcDbEntity
  8
0
  6
Continuous
 62
     7
370
    15
100
AcDbLine
 10
2433.533800756764
 20
1152.475510171027
 30
0.0
 11
2433.53647829054
 21
1152.582805136341
 31
0.0
  0
LINE
  5
92C
330
8EC
100
AcDbEntity
  8
0
  6
Continuous
 62
     7
370
    15
100
AcDbLine
 10
2427.53839044534
 20
1152.734282607926
 30
0.0
 11
2427.535668123849
 21
1152.625192895387
 31
0.0
  0
LINE
  5
92D
330
8EC
100
AcDbEntity
  8
0
  6
Continuous
 62
     7
370
    15
100
AcDbLine
 10
2433.213939814915
 20
1139.607640882595
 30
0.0
 11
2433.363810155308
 21
1145.61329172347
 31
0.0
  0
LINE
  5
92E
330
8EC
100
AcDbEntity
  8
0
  6
Continuous
 62
     7
370
    15
100
AcDbLine
 10
2427.424437207335
 20
1148.117610797845
 30
0.0
 11
2427.215807182002
 21
1139.757323606955
 31
0.0
  0
LINE
  5
92F
330
8EC
100
AcDbEntity
  8
0
  6
Continuous
 62
     7
370
    15
100
AcDbLine
 10
2422.885733256533
 20
1158.514841542827
 30
0.0
 11
2422.999320369573
 21
1163.066539625029
 31
0.0
  0
LINE
  5
930
330
8EC
100
AcDbEntity
  8
0
  6
Continuous
 62
     7
370
    15
100
AcDbLine
 10
2416.15145228033
 20
1163.237427402006
 30
0.0
 11
2416.03786516729
 21
1158.685729319804
 31
0.0
  0
LINE
  5
931
330
8EC
100
AcDbEntity
  8
0
  6
Continuous
 62
     7
370
    15
100
AcDbLine
 10
2427.693514254119
 20
1138.94572511663
 30
0.0
 11
2427.857236135257
 21
1138.81977694768
 31
0.0
  0
LINE
  5
932
330
8EC
100
AcDbEntity
  8
0
  6
Continuous
 62
     7
370
    15
100
AcDbLine
 10
2432.52654563889
 20
1138.703254854863
 30
0.0
 11
2432.696345865079
 21
1138.820880017185
 31
0.0
  0
SPLINE
  5
933
330
8EC
100
AcDbEntity
  8
0
  6
Continuous
 62
     7
370
    15
100
AcDbSpline
210
0.0
220
0.0
230
1.0
 70
     8
 71
     3
 72
    20
 73
    16
 74
     0
 42
0.0000000001
 43
0.0000000001
 40
0.0
 40
0.0
 40
0.0
 40
0.0
 40
0.0796632568144505
 40
0.167646039669761
 40
0.2565120247895722
 40
0.3448590328064283
 40
0.4319841378513678
 40
0.5178022005904826
 40
0.602297292412686
 40
0.6843409776762312
 40
0.7726157446958315
 40
0.8376581053759121
 40
0.8944340682707508
 40
0.965396423778931
 40
1.0
 40
1.0
 40
1.0
 40
1.0
 10
2416.042643779432
 20
1158.702364307774
 30
0.0
 10
2416.043478858374
 20
1158.621385382613
 30
0.0
 10
2416.045236226613
 20
1158.45097060618
 30
0.0
 10
2416.140821958897
 20
1158.198435793947
 30
0.0
 10
2416.298354377465
 20
1157.954866771945
 30
0.0
 10
2416.516224321315
 20
1157.731809666199
 30
0.0
 10
2416.783539277906
 20
1157.531702821645
 30
0.0
 10
2417.093451795789
 20
1157.355635211265
 30
0.0
 10
2417.437226964567
 20
1157.205090722369
 30
0.0
 10
2417.818389471367
 20
1157.076676992062
 30
0.0
 10
2418.197165195069
 20
1156.981960571602
 30
0.0
 10
2418.551027085527
 20
1156.917808980108
 30
0.0
 10
2418.884203935009
 20
1156.874541412662
 30
0.0
 10
2419.169979171412
 20
1156.851229433398
 30
0.0
 10
2419.356731439587
 20
1156.845056496142
 30
0.0
 10
2419.417947176903
 20
1156.843033062054
 30
0.0
  0
SPLINE
  5
934
330
8EC
100
AcDbEntity
  8
0
  6
Continuous
 62
     7
370
    15
100
AcDbSpline
210
0.0
220
0.0
230
1.0
 70
     8
 71
     3
 72
    20
 73
    16
 74
     0
 42
0.0000000001
 43
0.0000000001
 40
0.0
 40
0.0
 40
0.0
 40
0.0
 40
0.0280015617209797
 40
0.1034838818817349
 40
0.1807125853919585
 40
0.2624208337813658
 40
0.3463959175755364
 40
0.4318325125399233
 40
0.5181827968287527
 40
0.6052262170859568
 40
0.6929812082008065
 40
0.7816306231817558
 40
0.8718972366871847
 40
0.9656943954877144
 40
1.0
 40
1.0
 40
1.0
 40
1.0
 10
2420.039667000625
 20
1156.856656295627
 30
0.0
 10
2420.083200295273
 20
1156.859516927274
 30
0.0
 10
2420.244083976198
 20
1156.870088811455
 30
0.0
 10
2420.519324946974
 20
1156.90299369664
 30
0.0
 10
2420.864934183661
 20
1156.962271181535
 30
0.0
 10
2421.205637061465
 20
1157.043995810603
 30
0.0
 10
2421.534919267311
 20
1157.148603344381
 30
0.0
 10
2421.84206545526
 20
1157.275248152011
 30
0.0
 10
2422.119975081276
 20
1157.422827014011
 30
0.0
 10
2422.36338423603
 20
1157.590479550113
 30
0.0
 10
2422.567544589314
 20
1157.777899267952
 30
0.0
 10
2422.729741075087
 20
1157.985768627664
 30
0.0
 10
2422.838494404222
 20
1158.215816203008
 30
0.0
 10
2422.891613879634
 20
1158.411275525126
 30
0.0
 10
2422.880054915437
 20
1158.526823038971
 30
0.0
 10
2422.876959453293
 20
1158.557766378598
 30
0.0
  0
SPLINE
  5
935
330
8EC
100
AcDbEntity
  8
0
  6
Continuous
 62
     7
370
    15
100
AcDbSpline
210
0.0
220
0.0
230
1.0
 70
     8
 71
     3
 72
     9
 73
     5
 74
     0
 42
0.0000000001
 43
0.0000000001
 40
0.0
 40
0.0
 40
0.0
 40
0.0
 40
0.8649287728215956
 40
1.0
 40
1.0
 40
1.0
 40
1.0
 10
2419.417947176903
 20
1156.843033062054
 30
0.0
 10
2419.598589481664
 20
1156.841347001859
 30
0.0
 10
2419.807441713706
 20
1156.839397638804
 30
0.0
 10
2420.012032651577
 20
1156.854602549659
 30
0.0
 10
2420.039667000625
 20
1156.856656295627
 30
0.0
  0
LINE
  5
936
330
8EC
100
AcDbEntity
  8
0
  6
Continuous
 62
     7
370
    15
100
AcDbLine
 10
2422.436837485225
 20
1157.562584859439
 30
0.0
 11
2422.439515019001
 21
1157.669879824754
 31
0.0
  0
LINE
  5
937
330
8EC
100
AcDbEntity
  8
0
  6
Continuous
 62
     7
370
    15
100
AcDbLine
 10
2416.441427173803
 20
1157.821357296338
 30
0.0
 11
2416.438704852311
 21
1157.712267583799
 31
0.0
  0
LINE
  5
938
330
8EC
100
AcDbEntity
  8
0
  6
Continuous
 62
     7
370
    15
100
AcDbLine
 10
2422.116976543378
 20
1144.694715571008
 30
0.0
 11
2422.26684688377
 21
1150.700366411882
 31
0.0
  0
LINE
  5
939
330
8EC
100
AcDbEntity
  8
0
  6
Continuous
 62
     7
370
    15
100
AcDbLine
 10
2416.327473935798
 20
1153.204685486257
 30
0.0
 11
2416.118843910464
 21
1144.844398295367
 31
0.0
  0
LINE
  5
93A
330
8EC
100
AcDbEntity
  8
0
  6
Continuous
 62
     7
370
    15
100
AcDbLine
 10
2411.788769984995
 20
1163.601916231239
 30
0.0
 11
2411.902357098036
 21
1168.153614313441
 31
0.0
  0
LINE
  5
93B
330
8EC
100
AcDbEntity
  8
0
  6
Continuous
 62
     7
370
    15
100
AcDbLine
 10
2405.054489008792
 20
1168.324502090419
 30
0.0
 11
2404.940901895752
 21
1163.772804008216
 31
0.0
  0
LINE
  5
93C
330
8EC
100
AcDbEntity
  8
0
  6
Continuous
 62
     7
370
    15
100
AcDbLine
 10
2416.596550982581
 20
1144.032799805042
 30
0.0
 11
2416.760272863718
 21
1143.906851636092
 31
0.0
  0
LINE
  5
93D
330
8EC
100
AcDbEntity
  8
0
  6
Continuous
 62
     7
370
    15
100
AcDbLine
 10
2421.429582367352
 20
1143.790329543275
 30
0.0
 11
2421.599382593541
 21
1143.907954705597
 31
0.0
  0
SPLINE
  5
93E
330
8EC
100
AcDbEntity
  8
0
  6
Continuous
 62
     7
370
    15
100
AcDbSpline
210
0.0
220
0.0
230
1.0
 70
     8
 71
     3
 72
    20
 73
    16
 74
     0
 42
0.0000000001
 43
0.0000000001
 40
0.0
 40
0.0
 40
0.0
 40
0.0
 40
0.0796632568144689
 40
0.1676460396697804
 40
0.25651202478959
 40
0.3448590328064482
 40
0.4319841378513864
 40
0.5178022005905013
 40
0.6022972924127052
 40
0.6843409776762492
 40
0.7726157446958462
 40
0.8376581053759256
 40
0.8944340682707718
 40
0.9653964237790022
 40
1.0
 40
1.0
 40
1.0
 40
1.0
 10
2404.945680507894
 20
1163.789438996186
 30
0.0
 10
2404.946515586835
 20
1163.708460071025
 30
0.0
 10
2404.948272955075
 20
1163.538045294592
 30
0.0
 10
2405.043858687359
 20
1163.285510482359
 30
0.0
 10
2405.201391105927
 20
1163.041941460357
 30
0.0
 10
2405.419261049777
 20
1162.818884354611
 30
0.0
 10
2405.686576006368
 20
1162.618777510057
 30
0.0
 10
2405.996488524251
 20
1162.442709899677
 30
0.0
 10
2406.340263693029
 20
1162.292165410782
 30
0.0
 10
2406.721426199829
 20
1162.163751680475
 30
0.0
 10
2407.10020192353
 20
1162.069035260014
 30
0.0
 10
2407.45406381399
 20
1162.00488366852
 30
0.0
 10
2407.78724066347
 20
1161.961616101075
 30
0.0
 10
2408.073015899874
 20
1161.93830412181
 30
0.0
 10
2408.259768168049
 20
1161.932131184555
 30
0.0
 10
2408.320983905365
 20
1161.930107750467
 30
0.0
  0
SPLINE
  5
93F
330
8EC
100
AcDbEntity
  8
0
  6
Continuous
 62
     7
370
    15
100
AcDbSpline
210
0.0
220
0.0
230
1.0
 70
     8
 71
     3
 72
    20
 73
    16
 74
     0
 42
0.0000000001
 43
0.0000000001
 40
0.0
 40
0.0
 40
0.0
 40
0.0
 40
0.028001561720975
 40
0.1034838818817257
 40
0.1807125853919537
 40
0.262420833781357
 40
0.3463959175755248
 40
0.4318325125399203
 40
0.5181827968287387
 40
0.6052262170859456
 40
0.6929812082007915
 40
0.7816306231817431
 40
0.8718972366871625
 40
0.9656943954876947
 40
1.0
 40
1.0
 40
1.0
 40
1.0
 10
2408.942703729087
 20
1161.94373098404
 30
0.0
 10
2408.986237023735
 20
1161.946591615686
 30
0.0
 10
2409.14712070466
 20
1161.957163499867
 30
0.0
 10
2409.422361675435
 20
1161.990068385052
 30
0.0
 10
2409.767970912123
 20
1162.049345869947
 30
0.0
 10
2410.108673789927
 20
1162.131070499015
 30
0.0
 10
2410.437955995773
 20
1162.235678032794
 30
0.0
 10
2410.745102183721
 20
1162.362322840423
 30
0.0
 10
2411.023011809739
 20
1162.509901702423
 30
0.0
 10
2411.266420964493
 20
1162.677554238525
 30
0.0
 10
2411.470581317776
 20
1162.864973956364
 30
0.0
 10
2411.63277780355
 20
1163.072843316077
 30
0.0
 10
2411.741531132684
 20
1163.30289089142
 30
0.0
 10
2411.794650608096
 20
1163.498350213538
 30
0.0
 10
2411.783091643898
 20
1163.613897727383
 30
0.0
 10
2411.779996181755
 20
1163.64484106701
 30
0.0
  0
SPLINE
  5
940
330
8EC
100
AcDbEntity
  8
0
  6
Continuous
 62
     7
370
    15
100
AcDbSpline
210
0.0
220
0.0
230
1.0
 70
     8
 71
     3
 72
     9
 73
     5
 74
     0
 42
0.0000000001
 43
0.0000000001
 40
0.0
 40
0.0
 40
0.0
 40
0.0
 40
0.8649287728215769
 40
1.0
 40
1.0
 40
1.0
 40
1.0
 10
2408.320983905365
 20
1161.930107750467
 30
0.0
 10
2408.501626210127
 20
1161.928421690272
 30
0.0
 10
2408.710478442169
 20
1161.926472327216
 30
0.0
 10
2408.915069380039
 20
1161.941677238072
 30
0.0
 10
2408.942703729087
 20
1161.94373098404
 30
0.0
  0
LINE
  5
941
330
8EC
100
AcDbEntity
  8
0
  6
Continuous
 62
     7
370
    15
100
AcDbLine
 10
2411.339874213688
 20
1162.649659547851
 30
0.0
 11
2411.342551747464
 21
1162.756954513166
 31
0.0
  0
LINE
  5
942
330
8EC
100
AcDbEntity
  8
0
  6
Continuous
 62
     7
370
    15
100
AcDbLine
 10
2405.344463902264
 20
1162.90843198475
 30
0.0
 11
2405.341741580774
 21
1162.799342272211
 31
0.0
  0
LINE
  5
943
330
8EC
100
AcDbEntity
  8
0
  6
Continuous
 62
     7
370
    15
100
AcDbLine
 10
2411.020013271839
 20
1149.78179025942
 30
0.0
 11
2411.169883612232
 21
1155.787441100294
 31
0.0
  0
LINE
  5
944
330
8EC
100
AcDbEntity
  8
0
  6
Continuous
 62
     7
370
    15
100
AcDbLine
 10
2405.230510664259
 20
1158.29176017467
 30
0.0
 11
2405.021880638925
 21
1149.931472983779
 31
0.0
  0
LINE
  5
945
330
8EC
100
AcDbEntity
  8
0
  6
Continuous
 62
     7
370
    15
100
AcDbLine
 10
2400.691806713457
 20
1168.688990919652
 30
0.0
 11
2400.805393826497
 21
1173.240689001854
 31
0.0
  0
LINE
  5
946
330
8EC
100
AcDbEntity
  8
0
  6
Continuous
 62
     7
370
    15
100
AcDbLine
 10
2393.957525737253
 20
1173.411576778831
 30
0.0
 11
2393.843938624213
 21
1168.859878696629
 31
0.0
  0
LINE
  5
947
330
8EC
100
AcDbEntity
  8
0
  6
Continuous
 62
     7
370
    15
100
AcDbLine
 10
2405.499587711043
 20
1149.119874493454
 30
0.0
 11
2405.66330959218
 21
1148.993926324505
 31
0.0
  0
LINE
  5
948
330
8EC
100
AcDbEntity
  8
0
  6
Continuous
 62
     7
370
    15
100
AcDbLine
 10
2410.332619095814
 20
1148.877404231687
 30
0.0
 11
2410.502419322003
 21
1148.995029394009
 31
0.0
  0
SPLINE
  5
949
330
8EC
100
AcDbEntity
  8
0
  6
Continuous
 62
     7
370
    15
100
AcDbSpline
210
0.0
220
0.0
230
1.0
 70
     8
 71
     3
 72
    20
 73
    16
 74
     0
 42
0.0000000001
 43
0.0000000001
 40
0.0
 40
0.0
 40
0.0
 40
0.0
 40
0.0419132372601816
 40
0.1335048641578201
 40
0.226015920171697
 40
0.3179867118788635
 40
0.4086854810666567
 40
0.4980235961886278
 40
0.5859844752800289
 40
0.6713933969587601
 40
0.7632889845151759
 40
0.830999227799367
 40
0.8901040053636434
 40
0.9639770675502735
 40
1.0
 40
1.0
 40
1.0
 40
1.0
 10
2393.856736959408
 20
1168.756956627208
 30
0.0
 10
2393.857906572482
 20
1168.716095991228
 30
0.0
 10
2393.861632102764
 20
1168.585943943512
 30
0.0
 10
2393.948428016665
 20
1168.372720677856
 30
0.0
 10
2394.104017915021
 20
1168.128979905166
 30
0.0
 10
2394.322405717076
 20
1167.90596858659
 30
0.0
 10
2394.589584446625
 20
1167.705849697329
 30
0.0
 10
2394.899532661241
 20
1167.529785243126
 30
0.0
 10
2395.243298516352
 20
1167.379239930749
 30
0.0
 10
2395.624463480617
 20
1167.250826417722
 30
0.0
 10
2396.003238542763
 20
1167.156109938769
 30
0.0
 10
2396.357100564125
 20
1167.09195835885
 30
0.0
 10
2396.690277384792
 20
1167.048690788858
 30
0.0
 10
2396.976052629184
 20
1167.025378810297
 30
0.0
 10
2397.162804896737
 20
1167.019205872986
 30
0.0
 10
2397.224020633863
 20
1167.017182438879
 30
0.0
  0
SPLINE
  5
94A
330
8EC
100
AcDbEntity
  8
0
  6
Continuous
 62
     7
370
    15
100
AcDbSpline
210
0.0
220
0.0
230
1.0
 70
     8
 71
     3
 72
    20
 73
    16
 74
     0
 42
0.0000000001
 43
0.0000000001
 40
0.0
 40
0.0
 40
0.0
 40
0.0
 40
0.0284979581179869
 40
0.105221511177429
 40
0.1837201651518071
 40
0.2667720257377664
 40
0.3521279976186812
 40
0.4389695137909613
 40
0.5267397440145886
 40
0.6152145081493896
 40
0.7044125442283457
 40
0.7945197120987398
 40
0.8862706717410077
 40
0.9816102330413569
 40
1.0
 40
1.0
 40
1.0
 40
1.0
 10
2397.845575855317
 20
1167.030794071714
 30
0.0
 10
2397.889164188649
 20
1167.033658136687
 30
0.0
 10
2398.050103098161
 20
1167.04423297308
 30
0.0
 10
2398.325398589603
 20
1167.077142617026
 30
0.0
 10
2398.671007568258
 20
1167.136420690106
 30
0.0
 10
2399.011710615008
 20
1167.218145148622
 30
0.0
 10
2399.340992403261
 20
1167.322752738022
 30
0.0
 10
2399.648140123205
 20
1167.44939750099
 30
0.0
 10
2399.926043956162
 20
1167.596976486468
 30
0.0
 10
2400.169474997897
 20
1167.764628568431
 30
0.0
 10
2400.37355261404
 20
1167.952049999647
 30
0.0
 10
2400.536063333585
 20
1168.159912852913
 30
0.0
 10
2400.643605103081
 20
1168.389985514262
 30
0.0
 10
2400.696207478656
 20
1168.57086154477
 30
0.0
 10
2400.687398260871
 20
1168.671758125226
 30
0.0
 10
2400.685973830913
 20
1168.688072866814
 30
0.0
  0
SPLINE
  5
94B
330
8EC
100
AcDbEntity
  8
0
  6
Continuous
 62
     7
370
    15
100
AcDbSpline
210
0.0
220
0.0
230
1.0
 70
     8
 71
     3
 72
     9
 73
     5
 74
     0
 42
0.0000000001
 43
0.0000000001
 40
0.0
 40
0.0
 40
0.0
 40
0.0
 40
0.8651605751089961
 40
1.0
 40
1.0
 40
1.0
 40
1.0
 10
2397.224020633863
 20
1167.017182438879
 30
0.0
 10
2397.4046632234
 20
1167.01549523225
 30
0.0
 10
2397.613459826868
 20
1167.013545066377
 30
0.0
 10
2397.817996277892
 20
1167.028744578271
 30
0.0
 10
2397.845575855317
 20
1167.030794071714
 30
0.0
  0
LINE
  5
94C
330
8EC
100
AcDbEntity
  8
0
  6
Continuous
 62
     7
370
    15
100
AcDbLine
 10
2400.242910942149
 20
1167.736734236264
 30
0.0
 11
2400.245588475924
 21
1167.844029201579
 31
0.0
  0
LINE
  5
94D
330
8EC
100
AcDbEntity
  8
0
  6
Continuous
 62
     7
370
    15
100
AcDbLine
 10
2394.247500630725
 20
1167.995506673163
 30
0.0
 11
2394.244778309234
 21
1167.886416960624
 31
0.0
  0
LINE
  5
94E
330
8EC
100
AcDbEntity
  8
0
  6
Continuous
 62
     7
370
    15
100
AcDbLine
 10
2399.920567821807
 20
1154.870002829168
 30
0.0
 11
2400.070438162199
 21
1160.875653670043
 31
0.0
  0
LINE
  5
94F
330
8EC
100
AcDbEntity
  8
0
  6
Continuous
 62
     7
370
    15
100
AcDbLine
 10
2394.131067572029
 20
1163.38006722702
 30
0.0
 11
2393.922435188892
 21
1155.019685553528
 31
0.0
  0
LINE
  5
950
330
8EC
100
AcDbEntity
  8
0
  6
Continuous
 62
     7
370
    15
100
AcDbLine
 10
2394.40014226101
 20
1154.208087063203
 30
0.0
 11
2394.563864142147
 21
1154.082138894253
 31
0.0
  0
LINE
  5
951
330
8EC
100
AcDbEntity
  8
0
  6
Continuous
 62
     7
370
    15
100
AcDbLine
 10
2399.233173645781
 20
1153.965616801436
 30
0.0
 11
2399.402973871969
 21
1154.083241963758
 31
0.0
  0
LWPOLYLINE
  5
952
330
8EC
100
AcDbEntity
  8
0
  6
Continuous
 62
     7
370
    15
100
AcDbPolyline
 90
       33
 70
   128
 43
0.0
 10
2484.326167014373
 20
1133.468902706641
 10
2484.036645636763
 20
1133.286357240647
 10
2483.828614665748
 20
1133.078570479015
 10
2483.710068614882
 20
1132.853527550468
 10
2483.685563142417
 20
1132.619876728542
 10
2483.756039979917
 20
1132.386597083293
 10
2483.918790742041
 20
1132.162653420662
 10
2484.167561008272
 20
1131.956651770016
 10
2484.492790676792
 20
1131.776508659261
 10
2484.881981353828
 20
1131.629146887118
 10
2485.320176659925
 20
1131.52022948385
 10
2485.790536995211
 20
1131.453942084182
 10
2486.274986675783
 20
1131.432832075709
 10
2486.754908572097
 20
1131.457710704219
 10
2487.211859554823
 20
1131.527621897969
 10
2487.628279253955
 20
1131.639879008991
 10
2487.988164893987
 20
1131.790168059462
 10
2488.277686271598
 20
1131.972713525456
 10
2488.485717242612
 20
1132.180500287088
 10
2488.604263293478
 20
1132.405543215636
 10
2488.628768765944
 20
1132.639194037561
 10
2488.558291928443
 20
1132.87247368281
 10
2488.395541166319
 20
1133.09641734544
 10
2488.146770900088
 20
1133.302418996087
 10
2487.821541231568
 20
1133.482562106842
 10
2487.432350554531
 20
1133.629923878985
 10
2486.994155248435
 20
1133.738841282253
 10
2486.523794913149
 20
1133.805128681921
 10
2486.039345232578
 20
1133.826238690394
 10
2485.559423336263
 20
1133.801360061884
 10
2485.102472353537
 20
1133.731448868134
 10
2484.686052654405
 20
1133.619191757112
 10
2484.326167014373
 20
1133.468902706641
  0
LWPOLYLINE
  5
953
330
8EC
100
AcDbEntity
  8
0
  6
Continuous
 62
     7
370
    15
100
AcDbPolyline
 90
       39
 70
   128
 43
0.0
 10
2488.690972567848
 20
1131.467986662523
 10
2489.035513352845
 20
1131.678124542012
 10
2489.301540324099
 20
1131.914214429102
 10
2489.481796959312
 20
1132.169816407112
 10
2489.571366327373
 20
1132.437958320388
 10
2489.567805209409
 20
1132.711325956529
 10
2489.471210743435
 20
1132.982462559037
 10
2489.284217774681
 20
1133.243972228197
 10
2489.011926983878
 20
1133.488721661939
 10
2488.661765753992
 20
1133.710034733724
 10
2488.243285570572
 20
1133.901874599873
 10
2487.767901482124
 20
1134.059008368929
 10
2487.248580727349
 20
1134.177149841287
 10
2486.699489022667
 20
1134.253076425554
 10
2486.135604158408
 20
1134.284717042437
 10
2485.572307443729
 20
1134.271208618389
 10
2485.024964144604
 20
1134.212919628003
 10
2484.508504359414
 20
1134.111440042989
 10
2484.037015764789
 20
1133.969537961889
 10
2483.623359340512
 20
1133.791084103565
 10
2483.278818555515
 20
1133.580946224076
 10
2483.012791584262
 20
1133.344856336986
 10
2482.832534949047
 20
1133.089254358976
 10
2482.742965580987
 20
1132.8211124457
 10
2482.746526698951
 20
1132.547744809559
 10
2482.843121164925
 20
1132.27660820705
 10
2483.03011413368
 20
1132.01509853789
 10
2483.302404924482
 20
1131.770349104149
 10
2483.652566154368
 20
1131.549036032364
 10
2484.071046337788
 20
1131.357196166215
 10
2484.546430426235
 20
1131.20006239716
 10
2485.065751181011
 20
1131.081920924801
 10
2485.614842885693
 20
1131.005994340534
 10
2486.178727749952
 20
1130.97435372365
 10
2486.74202446463
 20
1130.987862147699
 10
2487.289367763756
 20
1131.046151138085
 10
2487.805827548946
 20
1131.147630723098
 10
2488.27731614357
 20
1131.289532804198
 10
2488.690972567848
 20
1131.467986662523
  0
LWPOLYLINE
  5
954
330
8EC
100
AcDbEntity
  8
0
  6
Continuous
 62
     7
370
    15
100
AcDbPolyline
 90
       15
 70
   128
 43
0.0
 10
2488.238943452304
 20
1126.097563153463
 10
2487.854903789274
 20
1125.933472656016
 10
2487.415097854337
 20
1125.805281603345
 10
2486.932888928275
 20
1125.716885015717
 10
2486.422928685295
 20
1125.670968778717
 10
2485.900712009329
 20
1125.668928033971
 10
2485.382106189821
 20
1125.710824788475
 10
2484.88286880217
 20
1125.795386030546
 10
2484.418168921773
 20
1125.920042409632
 10
2484.002126219347
 20
1126.081006304734
 10
2483.647381941877
 20
1126.273386909351
 10
2483.364714814725
 20
1126.491338836162
 10
2483.162713535513
 20
1126.728239726158
 10
2483.047515810892
 20
1126.976891465675
 10
2483.02048448154
 20
1127.189819453325
  0
ARC
  5
955
330
8EC
100
AcDbEntity
  8
0
  6
Continuous
 62
     7
370
    15
100
AcDbCircle
 10
2487.842824274419
 20
1127.218973407138
 30
0.0
 40
1.189315500670891
100
AcDbArc
 50
289.4549048011722
 51
351.3516646002772
  0
LWPOLYLINE
  5
956
330
8EC
100
AcDbEntity
  8
0
  6
Continuous
 62
     7
370
    15
100
AcDbPolyline
 90
       15
 70
   128
 43
0.0
 10
2466.045016909228
 20
1136.271712530287
 10
2465.660977246198
 20
1136.10762203284
 10
2465.221171311261
 20
1135.979430980169
 10
2464.738962385199
 20
1135.891034392541
 10
2464.229002142219
 20
1135.845118155541
 10
2463.706785466253
 20
1135.843077410795
 10
2463.188179646745
 20
1135.8849741653
 10
2462.688942259094
 20
1135.96953540737
 10
2462.224242378697
 20
1136.094191786456
 10
2461.808199676271
 20
1136.255155681558
 10
2461.453455398802
 20
1136.447536286176
 10
2461.170788271649
 20
1136.665488212986
 10
2460.968786992437
 20
1136.902389102982
 10
2460.853589267816
 20
1137.1510408425
 10
2460.826557938464
 20
1137.36396883015
  0
ARC
  5
957
330
8EC
100
AcDbEntity
  8
0
  6
Continuous
 62
     7
370
    15
100
AcDbCircle
 10
2465.648897731343
 20
1137.393122783962
 30
0.0
 40
1.189315500670069
100
AcDbArc
 50
289.4549048011476
 51
351.351664600303
  0
LWPOLYLINE
  5
958
330
8EC
100
AcDbEntity
  8
0
  6
Continuous
 62
     7
370
    15
100
AcDbPolyline
 90
       15
 70
   128
 43
0.0
 10
2443.851090366152
 20
1146.445861907112
 10
2443.467050703122
 20
1146.281771409665
 10
2443.027244768185
 20
1146.153580356994
 10
2442.545035842123
 20
1146.065183769366
 10
2442.035075599144
 20
1146.019267532366
 10
2441.512858923177
 20
1146.01722678762
 10
2440.994253103669
 20
1146.059123542125
 10
2440.495015716018
 20
1146.143684784195
 10
2440.030315835621
 20
1146.268341163281
 10
2439.614273133195
 20
1146.429305058383
 10
2439.259528855725
 20
1146.621685663
 10
2438.976861728573
 20
1146.839637589811
 10
2438.774860449361
 20
1147.076538479807
 10
2438.65966272474
 20
1147.325190219325
 10
2438.632631395388
 20
1147.538118206974
  0
ARC
  5
959
330
8EC
100
AcDbEntity
  8
0
  6
Continuous
 62
     7
370
    15
100
AcDbCircle
 10
2443.454971188268
 20
1147.567272160786
 30
0.0
 40
1.189315500670092
100
AcDbArc
 50
289.4549048011476
 51
351.351664600303
  0
LWPOLYLINE
  5
95A
330
8EC
100
AcDbEntity
  8
0
  6
Continuous
 62
     7
370
    15
100
AcDbPolyline
 90
       15
 70
   128
 43
0.0
 10
2421.657163823076
 20
1156.620011283936
 10
2421.273124160046
 20
1156.455920786489
 10
2420.83331822511
 20
1156.327729733818
 10
2420.351109299047
 20
1156.23933314619
 10
2419.841149056067
 20
1156.19341690919
 10
2419.318932380101
 20
1156.191376164444
 10
2418.800326560593
 20
1156.233272918949
 10
2418.301089172942
 20
1156.317834161019
 10
2417.836389292545
 20
1156.442490540105
 10
2417.42034659012
 20
1156.603454435208
 10
2417.065602312649
 20
1156.795835039825
 10
2416.782935185497
 20
1157.013786966635
 10
2416.580933906285
 20
1157.250687856631
 10
2416.465736181664
 20
1157.499339596149
 10
2416.438704852311
 20
1157.712267583799
  0
ARC
  5
95B
330
8EC
100
AcDbEntity
  8
0
  6
Continuous
 62
     7
370
    15
100
AcDbCircle
 10
2421.261044645192
 20
1157.741421537611
 30
0.0
 40
1.189315500670161
100
AcDbArc
 50
289.4549048011476
 51
351.351664600303
  0
LWPOLYLINE
  5
95C
330
8EC
100
AcDbEntity
  8
0
  6
Continuous
 62
     7
370
    15
100
AcDbPolyline
 90
       20
 70
   128
 43
0.0
 10
2394.244778309234
 20
1167.886416960624
 10
2394.271809638587
 20
1167.673488972974
 10
2394.387007363208
 20
1167.424837233457
 10
2394.58900864242
 20
1167.18793634346
 10
2394.871675769572
 20
1166.96998441665
 10
2395.226420047042
 20
1166.777603812032
 10
2395.642462749468
 20
1166.616639916931
 10
2396.107162629864
 20
1166.491983537845
 10
2396.606400017516
 20
1166.407422295774
 10
2397.125005837024
 20
1166.365525541269
 10
2397.64722251299
 20
1166.367566286016
 10
2398.15718275597
 20
1166.413482523016
 10
2398.639391682032
 20
1166.501879110643
 10
2399.079197616968
 20
1166.630070163314
 10
2399.463237279999
 20
1166.794160660761
 10
2399.779841820295
 20
1166.989164796254
 10
2400.019391369109
 20
1167.20915746781
 10
2400.174607334619
 20
1167.447454309427
 10
2400.240773558256
 20
1167.696814792157
 10
2400.242910942149
 20
1167.736734236264
  0
LWPOLYLINE
  5
95D
330
8EC
100
AcDbEntity
  8
0
  6
Continuous
 62
     7
370
    15
100
AcDbPolyline
 90
       15
 70
   128
 43
0.0
 10
2410.560200551538
 20
1161.707085972349
 10
2410.176160888508
 20
1161.542995474902
 10
2409.736354953571
 20
1161.41480442223
 10
2409.254146027509
 20
1161.326407834603
 10
2408.744185784529
 20
1161.280491597603
 10
2408.221969108563
 20
1161.278450852857
 10
2407.703363289055
 20
1161.320347607361
 10
2407.204125901404
 20
1161.404908849432
 10
2406.739426021007
 20
1161.529565228518
 10
2406.323383318581
 20
1161.69052912362
 10
2405.968639041111
 20
1161.882909728237
 10
2405.68597191396
 20
1162.100861655047
 10
2405.483970634747
 20
1162.337762545044
 10
2405.368772910126
 20
1162.586414284561
 10
2405.341741580774
 20
1162.799342272211
  0
ARC
  5
95E
330
8EC
100
AcDbEntity
  8
0
  6
Continuous
 62
     7
370
    15
100
AcDbCircle
 10
2410.164081373653
 20
1162.828496226024
 30
0.0
 40
1.189315500670746
100
AcDbArc
 50
289.4549048011722
 51
351.3516646002901
  0
LWPOLYLINE
  5
95F
330
8EC
100
AcDbEntity
  8
0
  6
Continuous
 62
     7
370
    15
100
AcDbPolyline
 90
       15
 70
   128
 43
0.0
 10
2432.754127094614
 20
1151.532936595524
 10
2432.370087431584
 20
1151.368846098077
 10
2431.930281496648
 20
1151.240655045406
 10
2431.448072570585
 20
1151.152258457778
 10
2430.938112327605
 20
1151.106342220778
 10
2430.415895651639
 20
1151.104301476032
 10
2429.897289832131
 20
1151.146198230537
 10
2429.39805244448
 20
1151.230759472607
 10
2428.933352564083
 20
1151.355415851693
 10
2428.517309861657
 20
1151.516379746795
 10
2428.162565584187
 20
1151.708760351413
 10
2427.879898457036
 20
1151.926712278223
 10
2427.677897177823
 20
1152.163613168219
 10
2427.562699453202
 20
1152.412264907737
 10
2427.535668123849
 20
1152.625192895387
  0
ARC
  5
960
330
8EC
100
AcDbEntity
  8
0
  6
Continuous
 62
     7
370
    15
100
AcDbCircle
 10
2432.35800791673
 20
1152.654346849198
 30
0.0
 40
1.189315500669481
100
AcDbArc
 50
289.4549048011476
 51
351.3516646003159
  0
LWPOLYLINE
  5
961
330
8EC
100
AcDbEntity
  8
0
  6
Continuous
 62
     7
370
    15
100
AcDbPolyline
 90
       15
 70
   128
 43
0.0
 10
2454.94805363769
 20
1141.3587872187
 10
2454.56401397466
 20
1141.194696721252
 10
2454.124208039723
 20
1141.066505668582
 10
2453.64199911366
 20
1140.978109080954
 10
2453.132038870681
 20
1140.932192843953
 10
2452.609822194715
 20
1140.930152099208
 10
2452.091216375207
 20
1140.972048853712
 10
2451.591978987556
 20
1141.056610095783
 10
2451.127279107159
 20
1141.181266474869
 10
2450.711236404733
 20
1141.34223036997
 10
2450.356492127264
 20
1141.534610974588
 10
2450.073825000111
 20
1141.752562901398
 10
2449.871823720899
 20
1141.989463791395
 10
2449.756625996278
 20
1142.238115530912
 10
2449.729594666925
 20
1142.451043518562
  0
ARC
  5
962
330
8EC
100
AcDbEntity
  8
0
  6
Continuous
 62
     7
370
    15
100
AcDbCircle
 10
2454.551934459805
 20
1142.480197472375
 30
0.0
 40
1.189315500670864
100
AcDbArc
 50
289.4549048011722
 51
351.3516646002772
  0
LWPOLYLINE
  5
963
330
8EC
100
AcDbEntity
  8
0
  6
Continuous
 62
     7
370
    15
100
AcDbPolyline
 90
       15
 70
   128
 43
0.0
 10
2477.141980180766
 20
1131.184637841875
 10
2476.757940517736
 20
1131.020547344428
 10
2476.3181345828
 20
1130.892356291757
 10
2475.835925656737
 20
1130.803959704129
 10
2475.325965413757
 20
1130.758043467129
 10
2474.803748737791
 20
1130.756002722383
 10
2474.285142918283
 20
1130.797899476887
 10
2473.785905530632
 20
1130.882460718958
 10
2473.321205650235
 20
1131.007117098044
 10
2472.905162947809
 20
1131.168080993146
 10
2472.550418670339
 20
1131.360461597763
 10
2472.267751543188
 20
1131.578413524574
 10
2472.065750263976
 20
1131.81531441457
 10
2471.950552539354
 20
1132.063966154088
 10
2471.923521210002
 20
1132.276894141737
  0
ARC
  5
964
330
8EC
100
AcDbEntity
  8
0
  6
Continuous
 62
     7
370
    15
100
AcDbCircle
 10
2476.745861002882
 20
1132.30604809555
 30
0.0
 40
1.189315500670222
100
AcDbArc
 50
289.4549048011722
 51
351.351664600303
  0
LINE
  5
965
330
8EC
100
AcDbEntity
  8
0
  6
Continuous
 62
     7
370
    15
100
AcDbLine
 10
2470.08050531694
 20
1132.234435045361
 30
0.0
 11
2464.162124905456
 21
1134.947541545847
 31
0.0
  0
ARC
  5
966
330
8EC
100
AcDbEntity
  8
0
  6
Continuous
 62
     7
370
    15
100
AcDbCircle
 10
2469.638428589034
 20
1153.728844225824
 30
0.0
 40
19.56341566270212
100
AcDbArc
 50
237.0003955997959
 51
253.7442270732511
  0
LINE
  5
967
330
8EC
100
AcDbEntity
  8
0
  6
Continuous
 62
     7
370
    15
100
AcDbLine
 10
2458.983542045402
 20
1137.321509733774
 30
0.0
 11
2453.065161633918
 21
1140.034616234259
 31
0.0
  0
ARC
  5
968
330
8EC
100
AcDbEntity
  8
0
  6
Continuous
 62
     7
370
    15
100
AcDbCircle
 10
2458.541465317495
 20
1158.815918914233
 30
0.0
 40
19.56341566269945
100
AcDbArc
 50
237.0003955997959
 51
253.7442270732511
  0
LINE
  5
969
330
8EC
100
AcDbEntity
  8
0
  6
Continuous
 62
     7
370
    15
100
AcDbLine
 10
2447.886578773864
 20
1142.408584422186
 30
0.0
 11
2441.96819836238
 21
1145.121690922671
 31
0.0
  0
ARC
  5
96A
330
8EC
100
AcDbEntity
  8
0
  6
Continuous
 62
     7
370
    15
100
AcDbCircle
 10
2447.444502045956
 20
1163.902993602645
 30
0.0
 40
19.56341566269843
100
AcDbArc
 50
237.0003955997959
 51
253.7442270732511
  0
LINE
  5
96B
330
8EC
100
AcDbEntity
  8
0
  6
Continuous
 62
     7
370
    15
100
AcDbLine
 10
2436.789615502326
 20
1147.495659110598
 30
0.0
 11
2430.871235090842
 21
1150.208765611084
 31
0.0
  0
ARC
  5
96C
330
8EC
100
AcDbEntity
  8
0
  6
Continuous
 62
     7
370
    15
100
AcDbCircle
 10
2436.347538774418
 20
1168.990068291057
 30
0.0
 40
19.56341566269874
100
AcDbArc
 50
237.0003955997959
 51
253.7442270732511
  0
LINE
  5
96D
330
8EC
100
AcDbEntity
  8
0
  6
Continuous
 62
     7
370
    15
100
AcDbLine
 10
2425.692652230788
 20
1152.582733799011
 30
0.0
 11
2419.774271819304
 21
1155.295840299496
 31
0.0
  0
ARC
  5
96E
330
8EC
100
AcDbEntity
  8
0
  6
Continuous
 62
     7
370
    15
100
AcDbCircle
 10
2425.250575502882
 20
1174.077142979473
 30
0.0
 40
19.56341566270262
100
AcDbArc
 50
237.0003955997959
 51
253.7442270732511
  0
LINE
  5
96F
330
8EC
100
AcDbEntity
  8
0
  6
Continuous
 62
     7
370
    15
100
AcDbLine
 10
2408.677308547765
 20
1160.382914987909
 30
0.0
 11
2414.59568895925
 21
1157.669808487423
 31
0.0
  0
ARC
  5
970
330
8EC
100
AcDbEntity
  8
0
  6
Continuous
 62
     7
370
    15
100
AcDbCircle
 10
2414.153612231349
 20
1179.164217667898
 30
0.0
 40
19.56341566271599
100
AcDbArc
 50
237.0003955998178
 51
253.7442270732511
  0
LINE
  5
971
330
8EC
100
AcDbEntity
  8
0
  6
Continuous
 62
     7
370
    15
100
AcDbLine
 10
2397.580345276226
 20
1165.469989676321
 30
0.0
 11
2403.498725687712
 21
1162.756883175835
 31
0.0
  0
ARC
  5
972
330
8EC
100
AcDbEntity
  8
0
  6
Continuous
 62
     7
370
    15
100
AcDbCircle
 10
2403.056648959803
 20
1184.251292356295
 30
0.0
 40
19.56341566269897
100
AcDbArc
 50
237.0003955997959
 51
253.7442270732511
  0
LINE
  5
973
330
8EC
100
AcDbEntity
  8
0
  6
Continuous
 62
     7
370
    15
100
AcDbLine
 10
2390.774207803015
 20
1168.590062151881
 30
0.0
 11
2392.401762416172
 21
1167.843957864248
 31
0.0
  0
LINE
  5
974
330
8EC
100
AcDbEntity
  8
0
  6
Continuous
 62
     7
370
    15
100
AcDbLine
 10
2393.876888342512
 20
1170.18025004492
 30
0.0
 11
2390.774207803015
 21
1168.590062151881
 31
0.0
  0
ARC
  5
975
330
8EC
100
AcDbEntity
  8
0
  6
Continuous
 62
     7
370
    15
100
AcDbCircle
 10
2393.503647747071
 20
1155.020192436245
 30
0.0
 40
15.37685332637712
100
AcDbArc
 50
56.07344504351719
 51
62.31307880439224
  0
LINE
  5
976
330
8EC
100
AcDbEntity
  8
0
  6
Continuous
 62
     7
370
    15
100
AcDbLine
 10
2405.007459057503
 20
1166.43990327141
 30
0.0
 11
2402.085926835209
 21
1167.77919333264
 31
0.0
  0
ARC
  5
977
330
8EC
100
AcDbEntity
  8
0
  6
Continuous
 62
     7
370
    15
100
AcDbCircle
 10
2404.620228230361
 20
1149.964367300372
 30
0.0
 40
15.33997498956095
100
AcDbArc
 50
56.06909798796227
 51
62.13835682568812
  0
LINE
  5
978
330
8EC
100
AcDbEntity
  8
0
  6
Continuous
 62
     7
370
    15
100
AcDbLine
 10
2416.104422329041
 20
1161.352828582997
 30
0.0
 11
2413.182890106748
 21
1162.692118644228
 31
0.0
  0
ARC
  5
979
330
8EC
100
AcDbEntity
  8
0
  6
Continuous
 62
     7
370
    15
100
AcDbCircle
 10
2415.717191501909
 20
1144.877292611979
 30
0.0
 40
15.33997498953947
100
AcDbArc
 50
56.06909798796227
 51
62.13835682568812
  0
LINE
  5
97A
330
8EC
100
AcDbEntity
  8
0
  6
Continuous
 62
     7
370
    15
100
AcDbLine
 10
2424.279853378286
 20
1157.605043955815
 30
0.0
 11
2427.201385600579
 21
1156.265753894585
 31
0.0
  0
ARC
  5
97B
330
8EC
100
AcDbEntity
  8
0
  6
Continuous
 62
     7
370
    15
100
AcDbCircle
 10
2426.814154773458
 20
1139.790217923584
 30
0.0
 40
15.33997498951852
100
AcDbArc
 50
56.06909798796227
 51
62.13835682568812
  0
LINE
  5
97C
330
8EC
100
AcDbEntity
  8
0
  6
Continuous
 62
     7
370
    15
100
AcDbLine
 10
2435.376816649823
 20
1152.517969267403
 30
0.0
 11
2438.298348872117
 21
1151.178679206173
 31
0.0
  0
ARC
  5
97D
330
8EC
100
AcDbEntity
  8
0
  6
Continuous
 62
     7
370
    15
100
AcDbCircle
 10
2437.911118044983
 20
1134.703143235149
 30
0.0
 40
15.33997498954475
100
AcDbArc
 50
56.06909798796227
 51
62.13835682568812
  0
LINE
  5
97E
330
8EC
100
AcDbEntity
  8
0
  6
Continuous
 62
     7
370
    15
100
AcDbLine
 10
2446.473779921362
 20
1147.430894578991
 30
0.0
 11
2449.395312143654
 21
1146.091604517761
 31
0.0
  0
ARC
  5
97F
330
8EC
100
AcDbEntity
  8
0
  6
Continuous
 62
     7
370
    15
100
AcDbCircle
 10
2449.008081316526
 20
1129.616068546746
 30
0.0
 40
15.33997498953457
100
AcDbArc
 50
56.06909798796227
 51
62.13835682568812
  0
LINE
  5
980
330
8EC
100
AcDbEntity
  8
0
  6
Continuous
 62
     7
370
    15
100
AcDbLine
 10
2457.5707431929
 20
1142.343819890578
 30
0.0
 11
2460.492275415193
 21
1141.004529829348
 31
0.0
  0
ARC
  5
981
330
8EC
100
AcDbEntity
  8
0
  6
Continuous
 62
     7
370
    15
100
AcDbCircle
 10
2460.105044588056
 20
1124.52899385832
 30
0.0
 40
15.33997498954994
100
AcDbArc
 50
56.06909798796227
 51
62.13835682568202
  0
LINE
  5
982
330
8EC
100
AcDbEntity
  8
0
  6
Continuous
 62
     7
370
    15
100
AcDbLine
 10
2468.667706464438
 20
1137.256745202166
 30
0.0
 11
2471.589238686731
 21
1135.917455140936
 31
0.0
  0
ARC
  5
983
330
8EC
100
AcDbEntity
  8
0
  6
Continuous
 62
     7
370
    15
100
AcDbCircle
 10
2471.2020078596
 20
1119.441919169917
 30
0.0
 40
15.33997498953855
100
AcDbArc
 50
56.06909798796227
 51
62.13835682568812
  0
LINE
  5
984
330
8EC
100
AcDbEntity
  8
0
  6
Continuous
 62
     7
370
    15
100
AcDbLine
 10
2479.764669735976
 20
1132.169670513754
 30
0.0
 11
2482.686201958269
 21
1130.830380452524
 31
0.0
  0
ARC
  5
985
330
8EC
100
AcDbEntity
  8
0
  6
Continuous
 62
     7
370
    15
100
AcDbCircle
 10
2482.298971131135
 20
1114.3548444815
 30
0.0
 40
15.33997498954474
100
AcDbArc
 50
56.06909798796227
 51
62.13835682568812
  0
LINE
  5
986
330
8EC
100
AcDbEntity
  8
0
  6
Continuous
 62
     7
370
    15
100
AcDbLine
 10
2490.861633007514
 20
1127.082595825342
 30
0.0
 11
2492.489187620673
 21
1126.336491537708
 31
0.0
  0
LINE
  5
987
330
8EC
100
AcDbEntity
  8
0
  6
Continuous
 62
     7
370
    15
100
AcDbLine
 10
2492.489187620673
 20
1126.336491537708
 30
0.0
 11
2487.98360606169
 21
1124.027287881389
 31
0.0
  0
LINE
  5
988
330
8EC
100
AcDbEntity
  8
0
  6
Continuous
 62
     7
370
    15
100
AcDbLine
 10
2487.98360606169
 20
1124.027287881389
 30
0.0
 11
2486.356051448532
 21
1124.773392169022
 31
0.0
  0
ARC
  5
989
330
8EC
100
AcDbEntity
  8
0
  6
Continuous
 62
     7
370
    15
100
AcDbCircle
 10
2491.832355132107
 20
1143.554694848994
 30
0.0
 40
19.56341566269695
100
AcDbArc
 50
237.0003955997959
 51
253.7442270732511
  0
LINE
  5
98A
330
8EC
100
AcDbEntity
  8
0
  6
Continuous
 62
     7
370
    15
100
AcDbLine
 10
2481.177468588478
 20
1127.147360356949
 30
0.0
 11
2475.259088176994
 21
1129.860466857435
 31
0.0
  0
ARC
  5
98B
330
8EC
100
AcDbEntity
  8
0
  6
Continuous
 62
     7
370
    15
100
AcDbCircle
 10
2480.735391860571
 20
1148.64176953741
 30
0.0
 40
19.56341566270045
100
AcDbArc
 50
237.0003955997959
 51
253.7442270732511
  0
LINE
  5
98C
330
8EC
100
AcDbEntity
  8
0
  6
Continuous
 62
     7
370
    15
100
AcDbLine
 10
2486.27086111375
 20
1121.359618607371
 30
0.0
 11
2487.898415726909
 21
1120.613514319738
 31
0.0
  0
LINE
  5
98D
330
8EC
100
AcDbEntity
  8
0
  6
Continuous
 62
     7
370
    15
100
AcDbLine
 10
2486.356051448532
 20
1124.773392169022
 30
0.0
 11
2486.27086111375
 21
1121.359618607371
 31
0.0
  0
LINE
  5
98E
330
8EC
100
AcDbEntity
  8
0
  6
Continuous
 62
     7
370
    15
100
AcDbLine
 10
2487.98360606169
 20
1124.027287881389
 30
0.0
 11
2487.898415726909
 21
1120.613514319738
 31
0.0
  0
LINE
  5
98F
330
8EC
100
AcDbEntity
  8
0
  6
Continuous
 62
     7
370
    15
100
AcDbLine
 10
2492.489187620673
 20
1126.336491537708
 30
0.0
 11
2492.403997285892
 21
1122.922717976057
 31
0.0
  0
LINE
  5
990
330
8EC
100
AcDbEntity
  8
0
  6
Continuous
 62
     7
370
    15
100
AcDbLine
 10
2487.898415726909
 20
1120.613514319738
 30
0.0
 11
2492.403997285892
 21
1122.922717976057
 31
0.0
  0
ARC
  5
991
330
8EC
100
AcDbEntity
  8
0
  6
Continuous
 62
     7
370
    15
100
AcDbCircle
 10
2491.74716479733
 20
1140.140921287349
 30
0.0
 40
19.56341566270365
100
AcDbArc
 50
237.0003955998178
 51
253.7442270732511
  0
LINE
  5
992
330
8EC
100
AcDbEntity
  8
0
  6
Continuous
 62
     7
370
    15
100
AcDbLine
 10
2481.092278253698
 20
1123.733586795298
 30
0.0
 11
2481.177468588478
 21
1127.147360356949
 31
0.0
  0
LWPOLYLINE
  5
993
330
8EC
100
AcDbEntity
  8
0
  6
Continuous
 62
     7
370
    15
100
AcDbPolyline
 90
       15
 70
   128
 43
0.0
 10
2487.919082510456
 20
1113.229693865031
 10
2487.535042847426
 20
1113.065603367584
 10
2487.09523691249
 20
1112.937412314913
 10
2486.613027986427
 20
1112.849015727285
 10
2486.103067743447
 20
1112.803099490285
 10
2485.580851067481
 20
1112.801058745539
 10
2485.062245247973
 20
1112.842955500044
 10
2484.563007860322
 20
1112.927516742114
 10
2484.098307979925
 20
1113.0521731212
 10
2483.682265277499
 20
1113.213137016302
 10
2483.32752100003
 20
1113.40551762092
 10
2483.044853872877
 20
1113.62346954773
 10
2482.842852593665
 20
1113.860370437727
 10
2482.727654869044
 20
1114.109022177244
 10
2482.700623539691
 20
1114.321950164894
  0
ARC
  5
994
330
8EC
100
AcDbEntity
  8
0
  6
Continuous
 62
     7
370
    15
100
AcDbCircle
 10
2487.522963332572
 20
1114.351104118706
 30
0.0
 40
1.189315500670224
100
AcDbArc
 50
289.4549048011722
 51
351.351664600303
  0
LINE
  5
995
330
8EC
100
AcDbEntity
  8
0
  6
Continuous
 62
     7
370
    15
100
AcDbLine
 10
2475.259088176994
 20
1129.860466857435
 30
0.0
 11
2475.173897842212
 21
1126.446693295784
 31
0.0
  0
LINE
  5
996
330
8EC
100
AcDbEntity
  8
0
  6
Continuous
 62
     7
370
    15
100
AcDbLine
 10
2475.173897842212
 20
1126.446693295784
 30
0.0
 11
2481.092278253698
 21
1123.733586795298
 31
0.0
  0
LWPOLYLINE
  5
997
330
8EC
100
AcDbEntity
  8
0
  6
Continuous
 62
     7
370
    15
100
AcDbPolyline
 90
       33
 70
   128
 43
0.0
 10
2473.229203742835
 20
1138.555977395053
 10
2472.939682365224
 20
1138.373431929059
 10
2472.73165139421
 20
1138.165645167427
 10
2472.613105343344
 20
1137.94060223888
 10
2472.588599870879
 20
1137.706951416955
 10
2472.659076708379
 20
1137.473671771705
 10
2472.821827470503
 20
1137.249728109074
 10
2473.070597736735
 20
1137.043726458428
 10
2473.395827405254
 20
1136.863583347673
 10
2473.785018082291
 20
1136.716221575531
 10
2474.223213388388
 20
1136.607304172262
 10
2474.693573723673
 20
1136.541016772594
 10
2475.178023404244
 20
1136.519906764122
 10
2475.657945300559
 20
1136.544785392631
 10
2476.114896283285
 20
1136.614696586381
 10
2476.531315982417
 20
1136.726953697403
 10
2476.891201622449
 20
1136.877242747874
 10
2477.18072300006
 20
1137.059788213869
 10
2477.388753971074
 20
1137.2675749755
 10
2477.50730002194
 20
1137.492617904048
 10
2477.531805494405
 20
1137.726268725973
 10
2477.461328656906
 20
1137.959548371222
 10
2477.298577894781
 20
1138.183492033853
 10
2477.04980762855
 20
1138.3894936845
 10
2476.72457796003
 20
1138.569636795255
 10
2476.335387282994
 20
1138.716998567397
 10
2475.897191976896
 20
1138.825915970666
 10
2475.426831641611
 20
1138.892203370333
 10
2474.94238196104
 20
1138.913313378806
 10
2474.462460064725
 20
1138.888434750296
 10
2474.005509082
 20
1138.818523556546
 10
2473.589089382867
 20
1138.706266445525
 10
2473.229203742835
 20
1138.555977395053
  0
LWPOLYLINE
  5
998
330
8EC
100
AcDbEntity
  8
0
  6
Continuous
 62
     7
370
    15
100
AcDbPolyline
 90
       39
 70
   128
 43
0.0
 10
2477.59400929631
 20
1136.555061350935
 10
2477.938550081307
 20
1136.765199230425
 10
2478.20457705256
 20
1137.001289117514
 10
2478.384833687775
 20
1137.256891095524
 10
2478.474403055835
 20
1137.5250330088
 10
2478.470841937871
 20
1137.798400644941
 10
2478.374247471897
 20
1138.06953724745
 10
2478.187254503142
 20
1138.33104691661
 10
2477.91496371234
 20
1138.575796350351
 10
2477.564802482454
 20
1138.797109422136
 10
2477.146322299034
 20
1138.988949288285
 10
2476.670938210587
 20
1139.146083057341
 10
2476.151617455811
 20
1139.264224529699
 10
2475.602525751129
 20
1139.340151113966
 10
2475.03864088687
 20
1139.37179173085
 10
2474.475344172192
 20
1139.358283306801
 10
2473.928000873066
 20
1139.299994316415
 10
2473.411541087876
 20
1139.198514731402
 10
2472.940052493251
 20
1139.056612650302
 10
2472.526396068974
 20
1138.878158791977
 10
2472.181855283977
 20
1138.668020912488
 10
2471.915828312723
 20
1138.431931025398
 10
2471.73557167751
 20
1138.176329047388
 10
2471.646002309449
 20
1137.908187134112
 10
2471.649563427413
 20
1137.634819497971
 10
2471.746157893387
 20
1137.363682895462
 10
2471.933150862141
 20
1137.102173226303
 10
2472.205441652944
 20
1136.857423792561
 10
2472.55560288283
 20
1136.636110720776
 10
2472.97408306625
 20
1136.444270854627
 10
2473.449467154698
 20
1136.287137085572
 10
2473.968787909473
 20
1136.168995613213
 10
2474.517879614155
 20
1136.093069028946
 10
2475.081764478414
 20
1136.061428412063
 10
2475.645061193092
 20
1136.074936836111
 10
2476.192404492218
 20
1136.133225826497
 10
2476.708864277407
 20
1136.234705411511
 10
2477.180352872033
 20
1136.376607492611
 10
2477.59400929631
 20
1136.555061350935
  0
ARC
  5
999
330
8EC
100
AcDbEntity
  8
0
  6
Continuous
 62
     7
370
    15
100
AcDbCircle
 10
2485.775645722932
 20
1117.290835893889
 30
0.0
 40
4.602454781218317
100
AcDbArc
 50
238.078299898315
 51
299.0626740354046
  0
LINE
  5
99A
330
8EC
100
AcDbEntity
  8
0
  6
Continuous
 62
     7
370
    15
100
AcDbLine
 10
2469.99531498216
 20
1128.82066148371
 30
0.0
 11
2470.08050531694
 21
1132.234435045361
 31
0.0
  0
ARC
  5
99B
330
8EC
100
AcDbEntity
  8
0
  6
Continuous
 62
     7
370
    15
100
AcDbCircle
 10
2480.650201525794
 20
1145.227995975766
 30
0.0
 40
19.56341566270954
100
AcDbArc
 50
237.0003955998178
 51
253.7442270732511
  0
LWPOLYLINE
  5
99C
330
8EC
100
AcDbEntity
  8
0
  6
Continuous
 62
     7
370
    15
100
AcDbPolyline
 90
       15
 70
   128
 43
0.0
 10
2476.822119238918
 20
1118.316768553444
 10
2476.438079575888
 20
1118.152678055997
 10
2475.998273640951
 20
1118.024487003326
 10
2475.516064714889
 20
1117.936090415698
 10
2475.006104471909
 20
1117.890174178698
 10
2474.483887795943
 20
1117.888133433952
 10
2473.965281976435
 20
1117.930030188456
 10
2473.466044588784
 20
1118.014591430527
 10
2473.001344708387
 20
1118.139247809613
 10
2472.585302005962
 20
1118.300211704715
 10
2472.230557728491
 20
1118.492592309332
 10
2471.947890601339
 20
1118.710544236142
 10
2471.745889322127
 20
1118.947445126139
 10
2471.630691597506
 20
1119.196096865656
 10
2471.603660268153
 20
1119.409024853306
  0
ARC
  5
99D
330
8EC
100
AcDbEntity
  8
0
  6
Continuous
 62
     7
370
    15
100
AcDbCircle
 10
2476.426000061034
 20
1119.438178807118
 30
0.0
 40
1.189315500669522
100
AcDbArc
 50
289.4549048011476
 51
351.3516646003159
  0
LINE
  5
99E
330
8EC
100
AcDbEntity
  8
0
  6
Continuous
 62
     7
370
    15
100
AcDbLine
 10
2464.162124905456
 20
1134.947541545847
 30
0.0
 11
2464.076934570674
 21
1131.533767984196
 31
0.0
  0
LINE
  5
99F
330
8EC
100
AcDbEntity
  8
0
  6
Continuous
 62
     7
370
    15
100
AcDbLine
 10
2464.076934570674
 20
1131.533767984196
 30
0.0
 11
2469.99531498216
 21
1128.82066148371
 31
0.0
  0
LWPOLYLINE
  5
9A0
330
8EC
100
AcDbEntity
  8
0
  6
Continuous
 62
     7
370
    15
100
AcDbPolyline
 90
       33
 70
   128
 43
0.0
 10
2462.132240471297
 20
1143.643052083465
 10
2461.842719093687
 20
1143.460506617471
 10
2461.634688122672
 20
1143.25271985584
 10
2461.516142071806
 20
1143.027676927292
 10
2461.491636599341
 20
1142.794026105367
 10
2461.562113436841
 20
1142.560746460118
 10
2461.724864198965
 20
1142.336802797487
 10
2461.973634465197
 20
1142.13080114684
 10
2462.298864133716
 20
1141.950658036085
 10
2462.688054810753
 20
1141.803296263943
 10
2463.126250116849
 20
1141.694378860674
 10
2463.596610452135
 20
1141.628091461007
 10
2464.081060132706
 20
1141.606981452534
 10
2464.560982029021
 20
1141.631860081044
 10
2465.017933011747
 20
1141.701771274794
 10
2465.434352710879
 20
1141.814028385815
 10
2465.794238350911
 20
1141.964317436287
 10
2466.083759728522
 20
1142.146862902281
 10
2466.291790699536
 20
1142.354649663912
 10
2466.410336750402
 20
1142.57969259246
 10
2466.434842222867
 20
1142.813343414385
 10
2466.364365385367
 20
1143.046623059635
 10
2466.201614623243
 20
1143.270566722265
 10
2465.952844357012
 20
1143.476568372912
 10
2465.627614688492
 20
1143.656711483667
 10
2465.238424011455
 20
1143.804073255809
 10
2464.800228705359
 20
1143.912990659078
 10
2464.329868370073
 20
1143.979278058746
 10
2463.845418689502
 20
1144.000388067218
 10
2463.365496793187
 20
1143.975509438709
 10
2462.908545810461
 20
1143.905598244958
 10
2462.492126111329
 20
1143.793341133937
 10
2462.132240471297
 20
1143.643052083465
  0
LWPOLYLINE
  5
9A1
330
8EC
100
AcDbEntity
  8
0
  6
Continuous
 62
     7
370
    15
100
AcDbPolyline
 90
       39
 70
   128
 43
0.0
 10
2466.497046024772
 20
1141.642136039348
 10
2466.841586809769
 20
1141.852273918837
 10
2467.107613781023
 20
1142.088363805926
 10
2467.287870416237
 20
1142.343965783936
 10
2467.377439784297
 20
1142.612107697212
 10
2467.373878666333
 20
1142.885475333353
 10
2467.277284200359
 20
1143.156611935862
 10
2467.090291231604
 20
1143.418121605022
 10
2466.818000440802
 20
1143.662871038763
 10
2466.467839210916
 20
1143.884184110548
 10
2466.049359027496
 20
1144.076023976698
 10
2465.573974939048
 20
1144.233157745753
 10
2465.054654184272
 20
1144.351299218111
 10
2464.505562479591
 20
1144.427225802379
 10
2463.941677615331
 20
1144.458866419262
 10
2463.378380900653
 20
1144.445357995214
 10
2462.831037601528
 20
1144.387069004828
 10
2462.314577816338
 20
1144.285589419814
 10
2461.843089221713
 20
1144.143687338714
 10
2461.429432797436
 20
1143.965233480389
 10
2461.084892012439
 20
1143.7550956009
 10
2460.818865041185
 20
1143.519005713811
 10
2460.638608405971
 20
1143.2634037358
 10
2460.549039037911
 20
1142.995261822524
 10
2460.552600155875
 20
1142.721894186383
 10
2460.649194621849
 20
1142.450757583875
 10
2460.836187590603
 20
1142.189247914715
 10
2461.108478381406
 20
1141.944498480974
 10
2461.458639611292
 20
1141.723185409189
 10
2461.877119794712
 20
1141.531345543039
 10
2462.35250388316
 20
1141.374211773984
 10
2462.871824637935
 20
1141.256070301625
 10
2463.420916342617
 20
1141.180143717358
 10
2463.984801206876
 20
1141.148503100475
 10
2464.548097921555
 20
1141.162011524523
 10
2465.09544122068
 20
1141.220300514909
 10
2465.61190100587
 20
1141.321780099923
 10
2466.083389600494
 20
1141.463682181023
 10
2466.497046024772
 20
1141.642136039348
  0
ARC
  5
9A2
330
8EC
100
AcDbEntity
  8
0
  6
Continuous
 62
     7
370
    15
100
AcDbCircle
 10
2474.678682451393
 20
1122.377910582302
 30
0.0
 40
4.602454781218471
100
AcDbArc
 50
238.078299898315
 51
299.0626740354046
  0
LINE
  5
9A3
330
8EC
100
AcDbEntity
  8
0
  6
Continuous
 62
     7
370
    15
100
AcDbLine
 10
2458.898351710622
 20
1133.907736172122
 30
0.0
 11
2458.983542045402
 21
1137.321509733774
 31
0.0
  0
ARC
  5
9A4
330
8EC
100
AcDbEntity
  8
0
  6
Continuous
 62
     7
370
    15
100
AcDbCircle
 10
2469.553238254256
 20
1150.315070664179
 30
0.0
 40
19.56341566270929
100
AcDbArc
 50
237.0003955998178
 51
253.7442270732511
  0
LWPOLYLINE
  5
9A5
330
8EC
100
AcDbEntity
  8
0
  6
Continuous
 62
     7
370
    15
100
AcDbPolyline
 90
       15
 70
   128
 43
0.0
 10
2465.72515596738
 20
1123.403843241856
 10
2465.34111630435
 20
1123.239752744409
 10
2464.901310369413
 20
1123.111561691738
 10
2464.419101443351
 20
1123.02316510411
 10
2463.909141200371
 20
1122.97724886711
 10
2463.386924524405
 20
1122.975208122364
 10
2462.868318704897
 20
1123.017104876869
 10
2462.369081317246
 20
1123.101666118939
 10
2461.904381436849
 20
1123.226322498025
 10
2461.488338734423
 20
1123.387286393127
 10
2461.133594456953
 20
1123.579666997744
 10
2460.850927329802
 20
1123.797618924555
 10
2460.648926050589
 20
1124.034519814551
 10
2460.533728325968
 20
1124.283171554068
 10
2460.506696996616
 20
1124.496099541718
  0
ARC
  5
9A6
330
8EC
100
AcDbEntity
  8
0
  6
Continuous
 62
     7
370
    15
100
AcDbCircle
 10
2465.329036789495
 20
1124.525253495531
 30
0.0
 40
1.189315500670662
100
AcDbArc
 50
289.4549048011722
 51
351.3516646002901
  0
LINE
  5
9A7
330
8EC
100
AcDbEntity
  8
0
  6
Continuous
 62
     7
370
    15
100
AcDbLine
 10
2453.065161633918
 20
1140.034616234259
 30
0.0
 11
2452.979971299136
 21
1136.620842672608
 31
0.0
  0
LINE
  5
9A8
330
8EC
100
AcDbEntity
  8
0
  6
Continuous
 62
     7
370
    15
100
AcDbLine
 10
2452.979971299136
 20
1136.620842672608
 30
0.0
 11
2458.898351710622
 21
1133.907736172122
 31
0.0
  0
LWPOLYLINE
  5
9A9
330
8EC
100
AcDbEntity
  8
0
  6
Continuous
 62
     7
370
    15
100
AcDbPolyline
 90
       33
 70
   128
 43
0.0
 10
2451.035277199759
 20
1148.730126771878
 10
2450.745755822148
 20
1148.547581305884
 10
2450.537724851134
 20
1148.339794544252
 10
2450.419178800268
 20
1148.114751615704
 10
2450.394673327803
 20
1147.881100793779
 10
2450.465150165303
 20
1147.64782114853
 10
2450.627900927428
 20
1147.423877485899
 10
2450.876671193658
 20
1147.217875835253
 10
2451.201900862178
 20
1147.037732724498
 10
2451.591091539215
 20
1146.890370952355
 10
2452.029286845311
 20
1146.781453549087
 10
2452.499647180597
 20
1146.715166149419
 10
2452.984096861168
 20
1146.694056140946
 10
2453.464018757483
 20
1146.718934769456
 10
2453.920969740209
 20
1146.788845963206
 10
2454.337389439341
 20
1146.901103074227
 10
2454.697275079373
 20
1147.051392124699
 10
2454.986796456984
 20
1147.233937590693
 10
2455.194827427998
 20
1147.441724352325
 10
2455.313373478864
 20
1147.666767280872
 10
2455.337878951329
 20
1147.900418102798
 10
2455.267402113829
 20
1148.133697748047
 10
2455.104651351705
 20
1148.357641410678
 10
2454.855881085473
 20
1148.563643061324
 10
2454.530651416954
 20
1148.743786172079
 10
2454.141460739918
 20
1148.891147944222
 10
2453.703265433821
 20
1149.00006534749
 10
2453.232905098535
 20
1149.066352747158
 10
2452.748455417964
 20
1149.087462755631
 10
2452.26853352165
 20
1149.062584127121
 10
2451.811582538923
 20
1148.992672933371
 10
2451.395162839791
 20
1148.880415822349
 10
2451.035277199759
 20
1148.730126771878
  0
LWPOLYLINE
  5
9AA
330
8EC
100
AcDbEntity
  8
0
  6
Continuous
 62
     7
370
    15
100
AcDbPolyline
 90
       39
 70
   128
 43
0.0
 10
2455.400082753234
 20
1146.72921072776
 10
2455.744623538231
 20
1146.939348607249
 10
2456.010650509484
 20
1147.175438494339
 10
2456.190907144699
 20
1147.431040472349
 10
2456.280476512759
 20
1147.699182385625
 10
2456.276915394795
 20
1147.972550021766
 10
2456.180320928821
 20
1148.243686624274
 10
2455.993327960066
 20
1148.505196293434
 10
2455.721037169264
 20
1148.749945727176
 10
2455.370875939378
 20
1148.97125879896
 10
2454.952395755958
 20
1149.16309866511
 10
2454.47701166751
 20
1149.320232434165
 10
2453.957690912734
 20
1149.438373906524
 10
2453.408599208053
 20
1149.514300490791
 10
2452.844714343794
 20
1149.545941107674
 10
2452.281417629115
 20
1149.532432683626
 10
2451.73407432999
 20
1149.47414369324
 10
2451.217614544801
 20
1149.372664108226
 10
2450.746125950175
 20
1149.230762027126
 10
2450.332469525899
 20
1149.052308168801
 10
2449.987928740901
 20
1148.842170289313
 10
2449.721901769648
 20
1148.606080402223
 10
2449.541645134433
 20
1148.350478424212
 10
2449.452075766373
 20
1148.082336510936
 10
2449.455636884337
 20
1147.808968874795
 10
2449.552231350311
 20
1147.537832272287
 10
2449.739224319066
 20
1147.276322603127
 10
2450.011515109868
 20
1147.031573169386
 10
2450.361676339753
 20
1146.810260097601
 10
2450.780156523174
 20
1146.618420231451
 10
2451.255540611621
 20
1146.461286462396
 10
2451.774861366397
 20
1146.343144990038
 10
2452.323953071079
 20
1146.26721840577
 10
2452.887837935338
 20
1146.235577788887
 10
2453.451134650017
 20
1146.249086212935
 10
2453.998477949142
 20
1146.307375203321
 10
2454.514937734332
 20
1146.408854788335
 10
2454.986426328956
 20
1146.550756869435
 10
2455.400082753234
 20
1146.72921072776
  0
ARC
  5
9AB
330
8EC
100
AcDbEntity
  8
0
  6
Continuous
 62
     7
370
    15
100
AcDbCircle
 10
2463.581719179856
 20
1127.464985270714
 30
0.0
 40
4.602454781218543
100
AcDbArc
 50
238.078299898315
 51
299.0626740354046
  0
LINE
  5
9AC
330
8EC
100
AcDbEntity
  8
0
  6
Continuous
 62
     7
370
    15
100
AcDbLine
 10
2447.801388439084
 20
1138.994810860535
 30
0.0
 11
2447.886578773864
 21
1142.408584422186
 31
0.0
  0
ARC
  5
9AD
330
8EC
100
AcDbEntity
  8
0
  6
Continuous
 62
     7
370
    15
100
AcDbCircle
 10
2458.456274982716
 20
1155.402145352586
 30
0.0
 40
19.56341566270362
100
AcDbArc
 50
237.0003955998178
 51
253.7442270732511
  0
LWPOLYLINE
  5
9AE
330
8EC
100
AcDbEntity
  8
0
  6
Continuous
 62
     7
370
    15
100
AcDbPolyline
 90
       15
 70
   128
 43
0.0
 10
2454.628192695842
 20
1128.490917930268
 10
2454.244153032812
 20
1128.326827432821
 10
2453.804347097875
 20
1128.19863638015
 10
2453.322138171813
 20
1128.110239792522
 10
2452.812177928833
 20
1128.064323555522
 10
2452.289961252867
 20
1128.062282810776
 10
2451.771355433359
 20
1128.104179565281
 10
2451.272118045708
 20
1128.188740807351
 10
2450.807418165311
 20
1128.313397186437
 10
2450.391375462885
 20
1128.474361081539
 10
2450.036631185415
 20
1128.666741686156
 10
2449.753964058263
 20
1128.884693612967
 10
2449.551962779051
 20
1129.121594502963
 10
2449.43676505443
 20
1129.370246242481
 10
2449.409733725078
 20
1129.58317423013
  0
ARC
  5
9AF
330
8EC
100
AcDbEntity
  8
0
  6
Continuous
 62
     7
370
    15
100
AcDbCircle
 10
2454.232073517957
 20
1129.612328183943
 30
0.0
 40
1.1893155006702
100
AcDbArc
 50
289.4549048011476
 51
351.351664600303
  0
LINE
  5
9B0
330
8EC
100
AcDbEntity
  8
0
  6
Continuous
 62
     7
370
    15
100
AcDbLine
 10
2441.96819836238
 20
1145.121690922671
 30
0.0
 11
2441.883008027598
 21
1141.70791736102
 31
0.0
  0
LINE
  5
9B1
330
8EC
100
AcDbEntity
  8
0
  6
Continuous
 62
     7
370
    15
100
AcDbLine
 10
2441.883008027598
 20
1141.70791736102
 30
0.0
 11
2447.801388439084
 21
1138.994810860535
 31
0.0
  0
LWPOLYLINE
  5
9B2
330
8EC
100
AcDbEntity
  8
0
  6
Continuous
 62
     7
370
    15
100
AcDbPolyline
 90
       33
 70
   128
 43
0.0
 10
2439.938313928222
 20
1153.81720146029
 10
2439.64879255061
 20
1153.634655994296
 10
2439.440761579596
 20
1153.426869232665
 10
2439.32221552873
 20
1153.201826304117
 10
2439.297710056265
 20
1152.968175482191
 10
2439.368186893765
 20
1152.734895836942
 10
2439.530937655889
 20
1152.510952174312
 10
2439.779707922121
 20
1152.304950523665
 10
2440.10493759064
 20
1152.12480741291
 10
2440.494128267677
 20
1151.977445640767
 10
2440.932323573774
 20
1151.868528237499
 10
2441.402683909059
 20
1151.802240837831
 10
2441.88713358963
 20
1151.781130829358
 10
2442.367055485945
 20
1151.806009457868
 10
2442.824006468671
 20
1151.875920651618
 10
2443.240426167803
 20
1151.98817776264
 10
2443.600311807835
 20
1152.138466813111
 10
2443.889833185446
 20
1152.321012279105
 10
2444.09786415646
 20
1152.528799040737
 10
2444.216410207327
 20
1152.753841969285
 10
2444.240915679791
 20
1152.98749279121
 10
2444.170438842291
 20
1153.220772436459
 10
2444.007688080167
 20
1153.44471609909
 10
2443.758917813936
 20
1153.650717749736
 10
2443.433688145417
 20
1153.830860860491
 10
2443.044497468379
 20
1153.978222632634
 10
2442.606302162283
 20
1154.087140035902
 10
2442.135941826997
 20
1154.15342743557
 10
2441.651492146426
 20
1154.174537444043
 10
2441.171570250111
 20
1154.149658815533
 10
2440.714619267386
 20
1154.079747621783
 10
2440.298199568253
 20
1153.967490510761
 10
2439.938313928222
 20
1153.81720146029
  0
LWPOLYLINE
  5
9B3
330
8EC
100
AcDbEntity
  8
0
  6
Continuous
 62
     7
370
    15
100
AcDbPolyline
 90
       39
 70
   128
 43
0.0
 10
2444.303119481696
 20
1151.816285416172
 10
2444.647660266693
 20
1152.026423295661
 10
2444.913687237946
 20
1152.262513182751
 10
2445.09394387316
 20
1152.518115160761
 10
2445.183513241221
 20
1152.786257074037
 10
2445.179952123257
 20
1153.059624710178
 10
2445.083357657283
 20
1153.330761312687
 10
2444.896364688528
 20
1153.592270981846
 10
2444.624073897726
 20
1153.837020415588
 10
2444.27391266784
 20
1154.058333487372
 10
2443.85543248442
 20
1154.250173353522
 10
2443.380048395972
 20
1154.407307122577
 10
2442.860727641197
 20
1154.525448594936
 10
2442.311635936515
 20
1154.601375179203
 10
2441.747751072256
 20
1154.633015796086
 10
2441.184454357577
 20
1154.619507372038
 10
2440.637111058452
 20
1154.561218381652
 10
2440.120651273262
 20
1154.459738796639
 10
2439.649162678638
 20
1154.317836715539
 10
2439.23550625436
 20
1154.139382857214
 10
2438.890965469363
 20
1153.929244977725
 10
2438.624938498109
 20
1153.693155090635
 10
2438.444681862895
 20
1153.437553112625
 10
2438.355112494835
 20
1153.169411199349
 10
2438.358673612799
 20
1152.896043563208
 10
2438.455268078773
 20
1152.624906960699
 10
2438.642261047528
 20
1152.36339729154
 10
2438.91455183833
 20
1152.118647857798
 10
2439.264713068216
 20
1151.897334786013
 10
2439.683193251636
 20
1151.705494919864
 10
2440.158577340084
 20
1151.548361150808
 10
2440.67789809486
 20
1151.43021967845
 10
2441.226989799541
 20
1151.354293094183
 10
2441.790874663801
 20
1151.3226524773
 10
2442.354171378479
 20
1151.336160901348
 10
2442.901514677604
 20
1151.394449891734
 10
2443.417974462794
 20
1151.495929476747
 10
2443.889463057419
 20
1151.637831557847
 10
2444.303119481696
 20
1151.816285416172
  0
ARC
  5
9B4
330
8EC
100
AcDbEntity
  8
0
  6
Continuous
 62
     7
370
    15
100
AcDbCircle
 10
2452.484755908317
 20
1132.552059959126
 30
0.0
 40
4.602454781218392
100
AcDbArc
 50
238.078299898315
 51
299.0626740354046
  0
LINE
  5
9B5
330
8EC
100
AcDbEntity
  8
0
  6
Continuous
 62
     7
370
    15
100
AcDbLine
 10
2436.704425167546
 20
1144.081885548947
 30
0.0
 11
2436.789615502326
 21
1147.495659110598
 31
0.0
  0
ARC
  5
9B6
330
8EC
100
AcDbEntity
  8
0
  6
Continuous
 62
     7
370
    15
100
AcDbCircle
 10
2447.359311711178
 20
1160.489220040999
 30
0.0
 40
19.56341566270502
100
AcDbArc
 50
237.0003955998178
 51
253.7442270732511
  0
LWPOLYLINE
  5
9B7
330
8EC
100
AcDbEntity
  8
0
  6
Continuous
 62
     7
370
    15
100
AcDbPolyline
 90
       15
 70
   128
 43
0.0
 10
2443.531229424304
 20
1133.577992618681
 10
2443.147189761274
 20
1133.413902121233
 10
2442.707383826337
 20
1133.285711068562
 10
2442.225174900274
 20
1133.197314480934
 10
2441.715214657295
 20
1133.151398243934
 10
2441.192997981329
 20
1133.149357499188
 10
2440.674392161821
 20
1133.191254253693
 10
2440.17515477417
 20
1133.275815495764
 10
2439.710454893774
 20
1133.40047187485
 10
2439.294412191347
 20
1133.561435769952
 10
2438.939667913877
 20
1133.753816374569
 10
2438.657000786725
 20
1133.971768301379
 10
2438.454999507513
 20
1134.208669191376
 10
2438.339801782893
 20
1134.457320930893
 10
2438.312770453539
 20
1134.670248918543
  0
ARC
  5
9B8
330
8EC
100
AcDbEntity
  8
0
  6
Continuous
 62
     7
370
    15
100
AcDbCircle
 10
2443.135110246419
 20
1134.699402872356
 30
0.0
 40
1.189315500671009
100
AcDbArc
 50
289.4549048011765
 51
351.3516646002772
  0
LINE
  5
9B9
330
8EC
100
AcDbEntity
  8
0
  6
Continuous
 62
     7
370
    15
100
AcDbLine
 10
2430.871235090842
 20
1150.208765611084
 30
0.0
 11
2430.78604475606
 21
1146.794992049433
 31
0.0
  0
LINE
  5
9BA
330
8EC
100
AcDbEntity
  8
0
  6
Continuous
 62
     7
370
    15
100
AcDbLine
 10
2430.78604475606
 20
1146.794992049433
 30
0.0
 11
2436.704425167546
 21
1144.081885548947
 31
0.0
  0
LWPOLYLINE
  5
9BB
330
8EC
100
AcDbEntity
  8
0
  6
Continuous
 62
     7
370
    15
100
AcDbPolyline
 90
       33
 70
   128
 43
0.0
 10
2428.841350656683
 20
1158.904276148702
 10
2428.551829279073
 20
1158.721730682708
 10
2428.343798308058
 20
1158.513943921077
 10
2428.225252257192
 20
1158.288900992529
 10
2428.200746784727
 20
1158.055250170604
 10
2428.271223622227
 20
1157.821970525355
 10
2428.433974384351
 20
1157.598026862724
 10
2428.682744650582
 20
1157.392025212077
 10
2429.007974319102
 20
1157.211882101322
 10
2429.397164996139
 20
1157.064520329179
 10
2429.835360302235
 20
1156.955602925911
 10
2430.305720637521
 20
1156.889315526243
 10
2430.790170318092
 20
1156.868205517771
 10
2431.270092214407
 20
1156.89308414628
 10
2431.727043197133
 20
1156.962995340031
 10
2432.143462896265
 20
1157.075252451052
 10
2432.503348536297
 20
1157.225541501524
 10
2432.792869913908
 20
1157.408086967518
 10
2433.000900884922
 20
1157.615873729149
 10
2433.119446935788
 20
1157.840916657697
 10
2433.143952408253
 20
1158.074567479622
 10
2433.073475570753
 20
1158.307847124872
 10
2432.910724808629
 20
1158.531790787502
 10
2432.661954542397
 20
1158.737792438149
 10
2432.336724873878
 20
1158.917935548904
 10
2431.947534196841
 20
1159.065297321046
 10
2431.509338890745
 20
1159.174214724315
 10
2431.038978555459
 20
1159.240502123982
 10
2430.554528874888
 20
1159.261612132455
 10
2430.074606978573
 20
1159.236733503945
 10
2429.617655995847
 20
1159.166822310195
 10
2429.201236296715
 20
1159.054565199173
 10
2428.841350656683
 20
1158.904276148702
  0
LWPOLYLINE
  5
9BC
330
8EC
100
AcDbEntity
  8
0
  6
Continuous
 62
     7
370
    15
100
AcDbPolyline
 90
       39
 70
   128
 43
0.0
 10
2433.206156210158
 20
1156.903360104585
 10
2433.550696995155
 20
1157.113497984074
 10
2433.816723966408
 20
1157.349587871163
 10
2433.996980601623
 20
1157.605189849173
 10
2434.086549969683
 20
1157.873331762449
 10
2434.082988851719
 20
1158.14669939859
 10
2433.986394385745
 20
1158.417836001099
 10
2433.79940141699
 20
1158.679345670259
 10
2433.527110626188
 20
1158.924095104
 10
2433.176949396302
 20
1159.145408175785
 10
2432.758469212882
 20
1159.337248041935
 10
2432.283085124435
 20
1159.49438181099
 10
2431.763764369659
 20
1159.612523283348
 10
2431.214672664977
 20
1159.688449867616
 10
2430.650787800717
 20
1159.720090484499
 10
2430.08749108604
 20
1159.706582060451
 10
2429.540147786914
 20
1159.648293070064
 10
2429.023688001724
 20
1159.546813485051
 10
2428.552199407099
 20
1159.404911403951
 10
2428.138542982822
 20
1159.226457545626
 10
2427.794002197825
 20
1159.016319666137
 10
2427.527975226571
 20
1158.780229779047
 10
2427.347718591357
 20
1158.524627801037
 10
2427.258149223297
 20
1158.256485887761
 10
2427.261710341261
 20
1157.98311825162
 10
2427.358304807235
 20
1157.711981649112
 10
2427.54529777599
 20
1157.450471979952
 10
2427.817588566792
 20
1157.20572254621
 10
2428.167749796678
 20
1156.984409474426
 10
2428.586229980098
 20
1156.792569608276
 10
2429.061614068545
 20
1156.635435839221
 10
2429.580934823321
 20
1156.517294366862
 10
2430.130026528003
 20
1156.441367782595
 10
2430.693911392263
 20
1156.409727165712
 10
2431.25720810694
 20
1156.42323558976
 10
2431.804551406066
 20
1156.481524580146
 10
2432.321011191256
 20
1156.58300416516
 10
2432.792499785881
 20
1156.72490624626
 10
2433.206156210158
 20
1156.903360104585
  0
ARC
  5
9BD
330
8EC
100
AcDbEntity
  8
0
  6
Continuous
 62
     7
370
    15
100
AcDbCircle
 10
2441.38779263678
 20
1137.639134647538
 30
0.0
 40
4.60245478121826
100
AcDbArc
 50
238.078299898315
 51
299.0626740354046
  0
LINE
  5
9BE
330
8EC
100
AcDbEntity
  8
0
  6
Continuous
 62
     7
370
    15
100
AcDbLine
 10
2425.607461896007
 20
1149.168960237359
 30
0.0
 11
2425.692652230788
 21
1152.582733799011
 31
0.0
  0
ARC
  5
9BF
330
8EC
100
AcDbEntity
  8
0
  6
Continuous
 62
     7
370
    15
100
AcDbCircle
 10
2436.262348439641
 20
1165.576294729414
 30
0.0
 40
19.56341566270764
100
AcDbArc
 50
237.0003955998178
 51
253.7442270732511
  0
LWPOLYLINE
  5
9C0
330
8EC
100
AcDbEntity
  8
0
  6
Continuous
 62
     7
370
    15
100
AcDbPolyline
 90
       15
 70
   128
 43
0.0
 10
2432.434266152766
 20
1138.665067307093
 10
2432.050226489736
 20
1138.500976809646
 10
2431.610420554799
 20
1138.372785756974
 10
2431.128211628737
 20
1138.284389169347
 10
2430.618251385757
 20
1138.238472932347
 10
2430.096034709791
 20
1138.236432187601
 10
2429.577428890283
 20
1138.278328942105
 10
2429.078191502632
 20
1138.362890184176
 10
2428.613491622235
 20
1138.487546563262
 10
2428.197448919809
 20
1138.648510458364
 10
2427.84270464234
 20
1138.840891062981
 10
2427.560037515187
 20
1139.058842989791
 10
2427.358036235975
 20
1139.295743879788
 10
2427.242838511355
 20
1139.544395619305
 10
2427.215807182002
 20
1139.757323606955
  0
ARC
  5
9C1
330
8EC
100
AcDbEntity
  8
0
  6
Continuous
 62
     7
370
    15
100
AcDbCircle
 10
2432.038146974881
 20
1139.786477560767
 30
0.0
 40
1.189315500670158
100
AcDbArc
 50
289.4549048011722
 51
351.351664600303
  0
LINE
  5
9C2
330
8EC
100
AcDbEntity
  8
0
  6
Continuous
 62
     7
370
    15
100
AcDbLine
 10
2419.774271819304
 20
1155.295840299496
 30
0.0
 11
2419.689081484522
 21
1151.882066737845
 31
0.0
  0
LINE
  5
9C3
330
8EC
100
AcDbEntity
  8
0
  6
Continuous
 62
     7
370
    15
100
AcDbLine
 10
2419.689081484522
 20
1151.882066737845
 30
0.0
 11
2425.607461896007
 21
1149.168960237359
 31
0.0
  0
LWPOLYLINE
  5
9C4
330
8EC
100
AcDbEntity
  8
0
  6
Continuous
 62
     7
370
    15
100
AcDbPolyline
 90
       33
 70
   128
 43
0.0
 10
2417.744387385145
 20
1163.991350837115
 10
2417.454866007535
 20
1163.80880537112
 10
2417.24683503652
 20
1163.601018609489
 10
2417.128288985654
 20
1163.375975680941
 10
2417.103783513189
 20
1163.142324859016
 10
2417.17426035069
 20
1162.909045213767
 10
2417.337011112813
 20
1162.685101551136
 10
2417.585781379044
 20
1162.479099900489
 10
2417.911011047564
 20
1162.298956789734
 10
2418.300201724601
 20
1162.151595017592
 10
2418.738397030697
 20
1162.042677614323
 10
2419.208757365983
 20
1161.976390214656
 10
2419.693207046555
 20
1161.955280206183
 10
2420.173128942869
 20
1161.980158834692
 10
2420.630079925595
 20
1162.050070028443
 10
2421.046499624727
 20
1162.162327139465
 10
2421.406385264759
 20
1162.312616189936
 10
2421.69590664237
 20
1162.49516165593
 10
2421.903937613384
 20
1162.702948417562
 10
2422.02248366425
 20
1162.927991346109
 10
2422.046989136716
 20
1163.161642168034
 10
2421.976512299215
 20
1163.394921813284
 10
2421.813761537091
 20
1163.618865475914
 10
2421.56499127086
 20
1163.824867126561
 10
2421.239761602341
 20
1164.005010237316
 10
2420.850570925304
 20
1164.152372009459
 10
2420.412375619207
 20
1164.261289412727
 10
2419.942015283921
 20
1164.327576812395
 10
2419.45756560335
 20
1164.348686820868
 10
2418.977643707035
 20
1164.323808192358
 10
2418.520692724309
 20
1164.253896998608
 10
2418.104273025177
 20
1164.141639887586
 10
2417.744387385145
 20
1163.991350837115
  0
LWPOLYLINE
  5
9C5
330
8EC
100
AcDbEntity
  8
0
  6
Continuous
 62
     7
370
    15
100
AcDbPolyline
 90
       39
 70
   128
 43
0.0
 10
2422.10919293862
 20
1161.990434792997
 10
2422.453733723617
 20
1162.200572672486
 10
2422.71976069487
 20
1162.436662559575
 10
2422.900017330085
 20
1162.692264537586
 10
2422.989586698145
 20
1162.960406450862
 10
2422.986025580181
 20
1163.233774087003
 10
2422.889431114207
 20
1163.504910689511
 10
2422.702438145452
 20
1163.766420358671
 10
2422.43014735465
 20
1164.011169792412
 10
2422.079986124764
 20
1164.232482864197
 10
2421.661505941344
 20
1164.424322730347
 10
2421.186121852896
 20
1164.581456499402
 10
2420.666801098121
 20
1164.699597971761
 10
2420.117709393439
 20
1164.775524556028
 10
2419.55382452918
 20
1164.807165172911
 10
2418.990527814502
 20
1164.793656748863
 10
2418.443184515376
 20
1164.735367758477
 10
2417.926724730186
 20
1164.633888173463
 10
2417.455236135561
 20
1164.491986092363
 10
2417.041579711284
 20
1164.313532234038
 10
2416.697038926287
 20
1164.103394354549
 10
2416.431011955034
 20
1163.86730446746
 10
2416.250755319819
 20
1163.61170248945
 10
2416.161185951759
 20
1163.343560576174
 10
2416.164747069724
 20
1163.070192940032
 10
2416.261341535697
 20
1162.799056337524
 10
2416.448334504452
 20
1162.537546668364
 10
2416.720625295254
 20
1162.292797234623
 10
2417.07078652514
 20
1162.071484162838
 10
2417.48926670856
 20
1161.879644296688
 10
2417.964650797007
 20
1161.722510527633
 10
2418.483971551783
 20
1161.604369055275
 10
2419.033063256465
 20
1161.528442471007
 10
2419.596948120724
 20
1161.496801854124
 10
2420.160244835403
 20
1161.510310278172
 10
2420.707588134528
 20
1161.568599268558
 10
2421.224047919718
 20
1161.670078853572
 10
2421.695536514342
 20
1161.811980934672
 10
2422.10919293862
 20
1161.990434792997
  0
ARC
  5
9C6
330
8EC
100
AcDbEntity
  8
0
  6
Continuous
 62
     7
370
    15
100
AcDbCircle
 10
2430.290829365242
 20
1142.726209335951
 30
0.0
 40
4.602454781218664
100
AcDbArc
 50
238.078299898315
 51
299.0626740354046
  0
LINE
  5
9C7
330
8EC
100
AcDbEntity
  8
0
  6
Continuous
 62
     7
370
    15
100
AcDbLine
 10
2414.51049862447
 20
1154.256034925772
 30
0.0
 11
2414.59568895925
 21
1157.669808487423
 31
0.0
  0
ARC
  5
9C8
330
8EC
100
AcDbEntity
  8
0
  6
Continuous
 62
     7
370
    15
100
AcDbCircle
 10
2425.165385168103
 20
1170.663369417826
 30
0.0
 40
19.56341566270754
100
AcDbArc
 50
237.0003955998178
 51
253.7442270732511
  0
LWPOLYLINE
  5
9C9
330
8EC
100
AcDbEntity
  8
0
  6
Continuous
 62
     7
370
    15
100
AcDbPolyline
 90
       15
 70
   128
 43
0.0
 10
2421.337302881228
 20
1143.752141995505
 10
2420.953263218198
 20
1143.588051498058
 10
2420.513457283262
 20
1143.459860445387
 10
2420.031248357199
 20
1143.371463857759
 10
2419.521288114219
 20
1143.325547620759
 10
2418.999071438252
 20
1143.323506876013
 10
2418.480465618745
 20
1143.365403630518
 10
2417.981228231094
 20
1143.449964872588
 10
2417.516528350697
 20
1143.574621251674
 10
2417.100485648271
 20
1143.735585146776
 10
2416.745741370801
 20
1143.927965751394
 10
2416.46307424365
 20
1144.145917678204
 10
2416.261072964437
 20
1144.3828185682
 10
2416.145875239816
 20
1144.631470307718
 10
2416.118843910464
 20
1144.844398295367
  0
ARC
  5
9CA
330
8EC
100
AcDbEntity
  8
0
  6
Continuous
 62
     7
370
    15
100
AcDbCircle
 10
2420.941183703344
 20
1144.87355224918
 30
0.0
 40
1.189315500669848
100
AcDbArc
 50
289.4549048011476
 51
351.351664600303
  0
LINE
  5
9CB
330
8EC
100
AcDbEntity
  8
0
  6
Continuous
 62
     7
370
    15
100
AcDbLine
 10
2408.677308547765
 20
1160.382914987909
 30
0.0
 11
2408.592118212985
 21
1156.969141426257
 31
0.0
  0
LINE
  5
9CC
330
8EC
100
AcDbEntity
  8
0
  6
Continuous
 62
     7
370
    15
100
AcDbLine
 10
2414.51049862447
 20
1154.256034925772
 30
0.0
 11
2408.592118212985
 21
1156.969141426257
 31
0.0
  0
LWPOLYLINE
  5
9CD
330
8EC
100
AcDbEntity
  8
0
  6
Continuous
 62
     7
370
    15
100
AcDbPolyline
 90
       33
 70
   128
 43
0.0
 10
2406.647424113608
 20
1169.078425525527
 10
2406.357902735996
 20
1168.895880059533
 10
2406.149871764982
 20
1168.688093297901
 10
2406.031325714116
 20
1168.463050369354
 10
2406.006820241651
 20
1168.229399547428
 10
2406.077297079151
 20
1167.996119902179
 10
2406.240047841275
 20
1167.772176239548
 10
2406.488818107507
 20
1167.566174588902
 10
2406.814047776026
 20
1167.386031478147
 10
2407.203238453063
 20
1167.238669706004
 10
2407.641433759159
 20
1167.129752302736
 10
2408.111794094445
 20
1167.063464903068
 10
2408.596243775017
 20
1167.042354894595
 10
2409.076165671331
 20
1167.067233523105
 10
2409.533116654057
 20
1167.137144716855
 10
2409.949536353189
 20
1167.249401827877
 10
2410.309421993221
 20
1167.399690878348
 10
2410.598943370832
 20
1167.582236344342
 10
2410.806974341846
 20
1167.790023105974
 10
2410.925520392713
 20
1168.015066034522
 10
2410.950025865178
 20
1168.248716856447
 10
2410.879549027677
 20
1168.481996501696
 10
2410.716798265553
 20
1168.705940164327
 10
2410.468027999322
 20
1168.911941814973
 10
2410.142798330802
 20
1169.092084925728
 10
2409.753607653766
 20
1169.239446697871
 10
2409.315412347669
 20
1169.348364101139
 10
2408.845052012383
 20
1169.414651500807
 10
2408.360602331812
 20
1169.43576150928
 10
2407.880680435497
 20
1169.41088288077
 10
2407.423729452772
 20
1169.34097168702
 10
2407.007309753639
 20
1169.228714575998
 10
2406.647424113608
 20
1169.078425525527
  0
LWPOLYLINE
  5
9CE
330
8EC
100
AcDbEntity
  8
0
  6
Continuous
 62
     7
370
    15
100
AcDbPolyline
 90
       39
 70
   128
 43
0.0
 10
2411.012229667082
 20
1167.077509481409
 10
2411.356770452079
 20
1167.287647360898
 10
2411.622797423333
 20
1167.523737247988
 10
2411.803054058547
 20
1167.779339225998
 10
2411.892623426607
 20
1168.047481139274
 10
2411.889062308643
 20
1168.320848775415
 10
2411.792467842669
 20
1168.591985377924
 10
2411.605474873915
 20
1168.853495047083
 10
2411.333184083112
 20
1169.098244480825
 10
2410.983022853226
 20
1169.319557552609
 10
2410.564542669806
 20
1169.511397418759
 10
2410.089158581359
 20
1169.668531187814
 10
2409.569837826583
 20
1169.786672660173
 10
2409.020746121901
 20
1169.86259924444
 10
2408.456861257642
 20
1169.894239861323
 10
2407.893564542963
 20
1169.880731437275
 10
2407.346221243838
 20
1169.822442446889
 10
2406.829761458648
 20
1169.720962861875
 10
2406.358272864023
 20
1169.579060780775
 10
2405.944616439746
 20
1169.400606922451
 10
2405.600075654749
 20
1169.190469042961
 10
2405.334048683496
 20
1168.954379155872
 10
2405.153792048281
 20
1168.698777177862
 10
2405.064222680221
 20
1168.430635264586
 10
2405.067783798185
 20
1168.157267628445
 10
2405.164378264159
 20
1167.886131025936
 10
2405.351371232914
 20
1167.624621356776
 10
2405.623662023716
 20
1167.379871923035
 10
2405.973823253602
 20
1167.15855885125
 10
2406.392303437022
 20
1166.966718985101
 10
2406.867687525469
 20
1166.809585216045
 10
2407.387008280245
 20
1166.691443743687
 10
2407.936099984927
 20
1166.61551715942
 10
2408.499984849186
 20
1166.583876542536
 10
2409.063281563864
 20
1166.597384966585
 10
2409.61062486299
 20
1166.655673956971
 10
2410.12708464818
 20
1166.757153541984
 10
2410.598573242805
 20
1166.899055623084
 10
2411.012229667082
 20
1167.077509481409
  0
ARC
  5
9CF
330
8EC
100
AcDbEntity
  8
0
  6
Continuous
 62
     7
370
    15
100
AcDbCircle
 10
2419.193866093704
 20
1147.813284024363
 30
0.0
 40
4.602454781218707
100
AcDbArc
 50
238.078299898315
 51
299.0626740354046
  0
LINE
  5
9D0
330
8EC
100
AcDbEntity
  8
0
  6
Continuous
 62
     7
370
    15
100
AcDbLine
 10
2403.413535352932
 20
1159.343109614184
 30
0.0
 11
2403.498725687712
 21
1162.756883175835
 31
0.0
  0
ARC
  5
9D1
330
8EC
100
AcDbEntity
  8
0
  6
Continuous
 62
     7
370
    15
100
AcDbCircle
 10
2414.068421896566
 20
1175.750444106238
 30
0.0
 40
19.56341566270749
100
AcDbArc
 50
237.0003955998178
 51
253.7442270732511
  0
LWPOLYLINE
  5
9D2
330
8EC
100
AcDbEntity
  8
0
  6
Continuous
 62
     7
370
    15
100
AcDbPolyline
 90
       15
 70
   128
 43
0.0
 10
2410.24033960969
 20
1148.839216683917
 10
2409.85629994666
 20
1148.67512618647
 10
2409.416494011724
 20
1148.546935133799
 10
2408.934285085661
 20
1148.458538546171
 10
2408.424324842681
 20
1148.412622309171
 10
2407.902108166715
 20
1148.410581564425
 10
2407.383502347207
 20
1148.45247831893
 10
2406.884264959556
 20
1148.537039561
 10
2406.419565079159
 20
1148.661695940086
 10
2406.003522376733
 20
1148.822659835188
 10
2405.648778099263
 20
1149.015040439806
 10
2405.366110972111
 20
1149.232992366616
 10
2405.164109692899
 20
1149.469893256612
 10
2405.048911968278
 20
1149.71854499613
 10
2405.021880638925
 20
1149.931472983779
  0
ARC
  5
9D3
330
8EC
100
AcDbEntity
  8
0
  6
Continuous
 62
     7
370
    15
100
AcDbCircle
 10
2409.844220431806
 20
1149.960626937592
 30
0.0
 40
1.189315500670168
100
AcDbArc
 50
289.4549048011476
 51
351.351664600303
  0
LINE
  5
9D4
330
8EC
100
AcDbEntity
  8
0
  6
Continuous
 62
     7
370
    15
100
AcDbLine
 10
2397.495154941446
 20
1162.05621611467
 30
0.0
 11
2397.580345276226
 21
1165.469989676321
 31
0.0
  0
LINE
  5
9D5
330
8EC
100
AcDbEntity
  8
0
  6
Continuous
 62
     7
370
    15
100
AcDbLine
 10
2403.413535352932
 20
1159.343109614184
 30
0.0
 11
2397.495154941446
 21
1162.05621611467
 31
0.0
  0
LWPOLYLINE
  5
9D6
330
8EC
100
AcDbEntity
  8
0
  6
Continuous
 62
     7
370
    15
100
AcDbPolyline
 90
       33
 70
   128
 43
0.0
 10
2399.212458721682
 20
1172.486765566761
 10
2398.85257308165
 20
1172.33647651629
 10
2398.436153382518
 20
1172.224219405268
 10
2397.979202399792
 20
1172.154308211518
 10
2397.499280503478
 20
1172.129429583008
 10
2397.014830822906
 20
1172.150539591481
 10
2396.54447048762
 20
1172.216826991149
 10
2396.106275181523
 20
1172.325744394417
 10
2395.717084504487
 20
1172.47310616656
 10
2395.391854835967
 20
1172.653249277315
 10
2395.143084569736
 20
1172.859250927961
 10
2394.980333807612
 20
1173.083194590592
 10
2394.909856970112
 20
1173.316474235841
 10
2394.934362442576
 20
1173.550125057766
 10
2395.052908493443
 20
1173.775167986314
 10
2395.260939464457
 20
1173.982954747946
 10
2395.550460842068
 20
1174.16550021394
 10
2395.9103464821
 20
1174.315789264411
 10
2396.326766181232
 20
1174.428046375433
 10
2396.783717163958
 20
1174.497957569183
 10
2397.263639060273
 20
1174.522836197693
 10
2397.748088740843
 20
1174.50172618922
 10
2398.21844907613
 20
1174.435438789552
 10
2398.656644382226
 20
1174.326521386284
 10
2399.045835059263
 20
1174.179159614141
 10
2399.371064727783
 20
1173.999016503386
 10
2399.619834994014
 20
1173.793014852739
 10
2399.782585756138
 20
1173.569071190109
 10
2399.853062593638
 20
1173.33579154486
 10
2399.828557121173
 20
1173.102140722934
 10
2399.710011070307
 20
1172.877097794387
 10
2399.501980099293
 20
1172.669311032755
 10
2399.212458721682
 20
1172.486765566761
  0
LWPOLYLINE
  5
9D7
330
8EC
100
AcDbEntity
  8
0
  6
Continuous
 62
     7
370
    15
100
AcDbPolyline
 90
       39
 70
   128
 43
0.0
 10
2394.847653168207
 20
1174.487681610864
 10
2395.261309592484
 20
1174.666135469188
 10
2395.732798187109
 20
1174.808037550288
 10
2396.249257972299
 20
1174.909517135302
 10
2396.796601271424
 20
1174.967806125688
 10
2397.359897986103
 20
1174.981314549736
 10
2397.923782850361
 20
1174.949673932853
 10
2398.472874555043
 20
1174.873747348586
 10
2398.992195309819
 20
1174.755605876227
 10
2399.467579398267
 20
1174.598472107172
 10
2399.886059581687
 20
1174.406632241022
 10
2400.236220811573
 20
1174.185319169238
 10
2400.508511602375
 20
1173.940569735496
 10
2400.69550457113
 20
1173.679060066336
 10
2400.792099037104
 20
1173.407923463828
 10
2400.795660155068
 20
1173.134555827687
 10
2400.706090787008
 20
1172.866413914411
 10
2400.525834151793
 20
1172.6108119364
 10
2400.25980718054
 20
1172.374722049311
 10
2399.915266395542
 20
1172.164584169822
 10
2399.501609971265
 20
1171.986130311497
 10
2399.030121376641
 20
1171.844228230397
 10
2398.51366159145
 20
1171.742748645383
 10
2397.966318292325
 20
1171.684459654998
 10
2397.403021577647
 20
1171.670951230949
 10
2396.839136713388
 20
1171.702591847832
 10
2396.290045008706
 20
1171.7785184321
 10
2395.77072425393
 20
1171.896659904458
 10
2395.295340165483
 20
1172.053793673513
 10
2394.876859982062
 20
1172.245633539663
 10
2394.526698752176
 20
1172.466946611448
 10
2394.254407961375
 20
1172.711696045189
 10
2394.067414992619
 20
1172.973205714349
 10
2393.970820526646
 20
1173.244342316857
 10
2393.967259408682
 20
1173.517709952998
 10
2394.056828776742
 20
1173.785851866274
 10
2394.237085411957
 20
1174.041453844285
 10
2394.50311238321
 20
1174.277543731374
 10
2394.847653168207
 20
1174.487681610864
  0
LINE
  5
9D8
330
8EC
100
AcDbEntity
  8
0
  6
Continuous
 62
     7
370
    15
100
AcDbLine
 10
2393.846478657614
 20
1168.773111248509
 30
0.0
 11
2393.843938624213
 21
1168.859878696629
 31
0.0
  0
ARC
  5
9D9
330
8EC
100
AcDbEntity
  8
0
  6
Continuous
 62
     7
370
    15
100
AcDbCircle
 10
2408.096902822166
 20
1152.900358712775
 30
0.0
 40
4.60245478121823
100
AcDbArc
 50
238.078299898315
 51
299.0626740354109
  0
LINE
  5
9DA
330
8EC
100
AcDbEntity
  8
0
  6
Continuous
 62
     7
370
    15
100
AcDbLine
 10
2392.401762416172
 20
1167.843957864248
 30
0.0
 11
2392.316572081394
 21
1164.430184302596
 31
0.0
  0
ARC
  5
9DB
330
8EC
100
AcDbEntity
  8
0
  6
Continuous
 62
     7
370
    15
100
AcDbCircle
 10
2402.971458625028
 20
1180.837518794653
 30
0.0
 40
19.56341566270937
100
AcDbArc
 50
237.0003955998178
 51
253.7442270732511
  0
LWPOLYLINE
  5
9DC
330
8EC
100
AcDbEntity
  8
0
  6
Continuous
 62
     7
370
    15
100
AcDbPolyline
 90
       20
 70
   128
 43
0.0
 10
2393.922435188892
 20
1155.019685553528
 10
2393.949466518245
 20
1154.806757565878
 10
2394.064664242866
 20
1154.558105826361
 10
2394.266665522078
 20
1154.321204936364
 10
2394.54933264923
 20
1154.103253009554
 10
2394.9040769267
 20
1153.910872404937
 10
2395.320119629126
 20
1153.749908509835
 10
2395.784819509523
 20
1153.625252130749
 10
2396.284056897174
 20
1153.540690888678
 10
2396.802662716682
 20
1153.498794134174
 10
2397.324879392648
 20
1153.50083487892
 10
2397.834839635628
 20
1153.54675111592
 10
2398.31704856169
 20
1153.635147703548
 10
2398.756854496627
 20
1153.763338756219
 10
2399.140894159657
 20
1153.927429253666
 10
2399.457498699953
 20
1154.122433389157
 10
2399.697048248767
 20
1154.342426060714
 10
2399.852264214277
 20
1154.580722902331
 10
2399.918430437914
 20
1154.830083385061
 10
2399.920567821807
 20
1154.870002829168
  0
LINE
  5
9DD
330
8EC
100
AcDbEntity
  8
0
  6
Continuous
 62
     7
370
    15
100
AcDbLine
 10
2390.774207803015
 20
1168.590062151881
 30
0.0
 11
2390.689017468235
 21
1165.17628859023
 31
0.0
  0
LINE
  5
9DE
330
8EC
100
AcDbEntity
  8
0
  6
Continuous
 62
     7
370
    15
100
AcDbLine
 10
2392.316572081394
 20
1164.430184302596
 30
0.0
 11
2390.689017468235
 21
1165.17628859023
 31
0.0
  0
LINE
  5
9DF
330
8EC
100
AcDbEntity
  8
0
  6
Continuous
 62
     7
370
    15
100
AcDbLine
 10
2398.988565914276
 20
1153.820191605352
 30
0.0
 11
2399.233173645781
 21
1153.965616801436
 31
0.0
  0
ARC
  5
9E0
330
8EC
100
AcDbEntity
  8
0
  6
Continuous
 62
     7
370
    15
100
AcDbCircle
 10
2397.02132124854
 20
1158.091394881481
 30
0.0
 40
4.702470521000801
100
AcDbArc
 50
238.4939550327794
 51
294.7300054063252
  0
LWPOLYLINE
  5
9E1
330
8EC
100
AcDbEntity
  8
0
  6
Continuous
 62
     8
370
    15
100
AcDbPolyline
 90
       21
 70
   128
 43
0.0
 10
2482.619644796518
 20
1128.16328118933
 10
2482.63293958591
 20
1127.996046727357
 10
2482.729534051884
 20
1127.724910124848
 10
2482.916527020639
 20
1127.463400455688
 10
2483.188817811442
 20
1127.218651021947
 10
2483.538979041327
 20
1126.997337950162
 10
2483.957459224747
 20
1126.805498084013
 10
2484.432843313195
 20
1126.648364314957
 10
2484.952164067971
 20
1126.530222842599
 10
2485.501255772653
 20
1126.454296258332
 10
2486.065140636912
 20
1126.422655641448
 10
2486.62843735159
 20
1126.436164065497
 10
2487.175780650716
 20
1126.494453055883
 10
2487.692240435905
 20
1126.595932640896
 10
2488.16372903053
 20
1126.737834721996
 10
2488.577385454807
 20
1126.916288580321
 10
2488.921926239805
 20
1127.12642645981
 10
2489.187953211058
 20
1127.3625163469
 10
2489.368209846273
 20
1127.61811832491
 10
2489.457779214332
 20
1127.886260238186
 10
2489.467512885762
 20
1127.992393412353
  0
LWPOLYLINE
  5
9E2
330
8EC
100
AcDbEntity
  8
0
  6
Continuous
 62
     8
370
    15
100
AcDbPolyline
 90
       21
 70
   128
 43
0.0
 10
2471.52268152498
 20
1133.250355877743
 10
2471.535976314373
 20
1133.083121415769
 10
2471.632570780347
 20
1132.81198481326
 10
2471.819563749102
 20
1132.550475144101
 10
2472.091854539903
 20
1132.305725710359
 10
2472.442015769789
 20
1132.084412638575
 10
2472.86049595321
 20
1131.892572772425
 10
2473.335880041657
 20
1131.73543900337
 10
2473.855200796433
 20
1131.617297531011
 10
2474.404292501115
 20
1131.541370946744
 10
2474.968177365374
 20
1131.50973032986
 10
2475.531474080052
 20
1131.523238753909
 10
2476.078817379177
 20
1131.581527744295
 10
2476.595277164367
 20
1131.683007329309
 10
2477.066765758992
 20
1131.824909410409
 10
2477.48042218327
 20
1132.003363268733
 10
2477.824962968267
 20
1132.213501148222
 10
2478.09098993952
 20
1132.449591035312
 10
2478.271246574734
 20
1132.705193013322
 10
2478.360815942795
 20
1132.973334926598
 10
2478.370549614223
 20
1133.079468100766
  0
LWPOLYLINE
  5
9E3
330
8EC
100
AcDbEntity
  8
0
  6
Continuous
 62
     8
370
    15
100
AcDbPolyline
 90
       21
 70
   128
 43
0.0
 10
2460.425718253441
 20
1138.337430566155
 10
2460.439013042835
 20
1138.170196104181
 10
2460.535607508809
 20
1137.899059501673
 10
2460.722600477563
 20
1137.637549832513
 10
2460.994891268365
 20
1137.392800398771
 10
2461.345052498252
 20
1137.171487326987
 10
2461.763532681672
 20
1136.979647460837
 10
2462.238916770119
 20
1136.822513691782
 10
2462.758237524895
 20
1136.704372219424
 10
2463.307329229577
 20
1136.628445635156
 10
2463.871214093836
 20
1136.596805018273
 10
2464.434510808514
 20
1136.610313442321
 10
2464.98185410764
 20
1136.668602432707
 10
2465.498313892829
 20
1136.770082017721
 10
2465.969802487455
 20
1136.911984098821
 10
2466.383458911732
 20
1137.090437957145
 10
2466.727999696729
 20
1137.300575836635
 10
2466.994026667982
 20
1137.536665723724
 10
2467.174283303196
 20
1137.792267701735
 10
2467.263852671257
 20
1138.06040961501
 10
2467.273586342685
 20
1138.166542789178
  0
LWPOLYLINE
  5
9E4
330
8EC
100
AcDbEntity
  8
0
  6
Continuous
 62
     8
370
    15
100
AcDbPolyline
 90
       21
 70
   128
 43
0.0
 10
2449.328754981904
 20
1143.424505254567
 10
2449.342049771296
 20
1143.257270792594
 10
2449.43864423727
 20
1142.986134190085
 10
2449.625637206025
 20
1142.724624520925
 10
2449.897927996828
 20
1142.479875087184
 10
2450.248089226713
 20
1142.258562015399
 10
2450.666569410134
 20
1142.066722149249
 10
2451.141953498581
 20
1141.909588380194
 10
2451.661274253357
 20
1141.791446907836
 10
2452.210365958038
 20
1141.715520323568
 10
2452.774250822298
 20
1141.683879706685
 10
2453.337547536976
 20
1141.697388130734
 10
2453.884890836102
 20
1141.755677121119
 10
2454.401350621291
 20
1141.857156706133
 10
2454.872839215916
 20
1141.999058787233
 10
2455.286495640193
 20
1142.177512645558
 10
2455.63103642519
 20
1142.387650525047
 10
2455.897063396444
 20
1142.623740412136
 10
2456.077320031659
 20
1142.879342390147
 10
2456.166889399719
 20
1143.147484303423
 10
2456.176623071148
 20
1143.25361747759
  0
LWPOLYLINE
  5
9E5
330
8EC
100
AcDbEntity
  8
0
  6
Continuous
 62
     8
370
    15
100
AcDbPolyline
 90
       21
 70
   128
 43
0.0
 10
2438.231791710366
 20
1148.511579942979
 10
2438.245086499759
 20
1148.344345481006
 10
2438.341680965733
 20
1148.073208878497
 10
2438.528673934487
 20
1147.811699209337
 10
2438.800964725289
 20
1147.566949775596
 10
2439.151125955175
 20
1147.345636703811
 10
2439.569606138596
 20
1147.153796837662
 10
2440.044990227043
 20
1146.996663068606
 10
2440.564310981819
 20
1146.878521596248
 10
2441.113402686501
 20
1146.802595011981
 10
2441.67728755076
 20
1146.770954395097
 10
2442.240584265438
 20
1146.784462819146
 10
2442.787927564563
 20
1146.842751809532
 10
2443.304387349753
 20
1146.944231394545
 10
2443.775875944378
 20
1147.086133475645
 10
2444.189532368655
 20
1147.26458733397
 10
2444.534073153653
 20
1147.474725213459
 10
2444.800100124906
 20
1147.710815100549
 10
2444.980356760121
 20
1147.966417078559
 10
2445.069926128181
 20
1148.234558991835
 10
2445.079659799609
 20
1148.340692166002
  0
LWPOLYLINE
  5
9E6
330
8EC
100
AcDbEntity
  8
0
  6
Continuous
 62
     8
370
    15
100
AcDbPolyline
 90
       21
 70
   128
 43
0.0
 10
2427.134828438828
 20
1153.598654631392
 10
2427.148123228221
 20
1153.431420169418
 10
2427.244717694194
 20
1153.16028356691
 10
2427.431710662949
 20
1152.89877389775
 10
2427.704001453752
 20
1152.654024464008
 10
2428.054162683637
 20
1152.432711392224
 10
2428.472642867057
 20
1152.240871526074
 10
2428.948026955505
 20
1152.083737757018
 10
2429.467347710281
 20
1151.96559628466
 10
2430.016439414963
 20
1151.889669700393
 10
2430.580324279222
 20
1151.85802908351
 10
2431.1436209939
 20
1151.871537507558
 10
2431.690964293026
 20
1151.929826497944
 10
2432.207424078216
 20
1152.031306082958
 10
2432.67891267284
 20
1152.173208164057
 10
2433.092569097117
 20
1152.351662022383
 10
2433.437109882115
 20
1152.561799901872
 10
2433.703136853368
 20
1152.797889788961
 10
2433.883393488582
 20
1153.053491766971
 10
2433.972962856643
 20
1153.321633680247
 10
2433.982696528071
 20
1153.427766854415
  0
LWPOLYLINE
  5
9E7
330
8EC
100
AcDbEntity
  8
0
  6
Continuous
 62
     8
370
    15
100
AcDbPolyline
 90
       21
 70
   128
 43
0.0
 10
2416.03786516729
 20
1158.685729319804
 10
2416.051159956683
 20
1158.51849485783
 10
2416.147754422656
 20
1158.247358255322
 10
2416.334747391411
 20
1157.985848586162
 10
2416.607038182214
 20
1157.741099152421
 10
2416.957199412099
 20
1157.519786080636
 10
2417.37567959552
 20
1157.327946214486
 10
2417.851063683967
 20
1157.170812445431
 10
2418.370384438743
 20
1157.052670973072
 10
2418.919476143425
 20
1156.976744388805
 10
2419.483361007684
 20
1156.945103771922
 10
2420.046657722362
 20
1156.95861219597
 10
2420.594001021488
 20
1157.016901186356
 10
2421.110460806677
 20
1157.11838077137
 10
2421.581949401302
 20
1157.26028285247
 10
2421.995605825579
 20
1157.438736710795
 10
2422.340146610577
 20
1157.648874590284
 10
2422.60617358183
 20
1157.884964477373
 10
2422.786430217044
 20
1158.140566455384
 10
2422.875999585105
 20
1158.40870836866
 10
2422.885733256533
 20
1158.514841542827
  0
LWPOLYLINE
  5
9E8
330
8EC
100
AcDbEntity
  8
0
  6
Continuous
 62
     8
370
    15
100
AcDbPolyline
 90
       21
 70
   128
 43
0.0
 10
2404.940901895752
 20
1163.772804008216
 10
2404.954196685145
 20
1163.605569546243
 10
2405.050791151119
 20
1163.334432943734
 10
2405.237784119873
 20
1163.072923274574
 10
2405.510074910676
 20
1162.828173840833
 10
2405.860236140561
 20
1162.606860769048
 10
2406.278716323982
 20
1162.415020902899
 10
2406.754100412429
 20
1162.257887133843
 10
2407.273421167205
 20
1162.139745661485
 10
2407.822512871887
 20
1162.063819077217
 10
2408.386397736146
 20
1162.032178460334
 10
2408.949694450824
 20
1162.045686884383
 10
2409.497037749949
 20
1162.103975874769
 10
2410.013497535139
 20
1162.205455459782
 10
2410.484986129764
 20
1162.347357540882
 10
2410.898642554041
 20
1162.525811399207
 10
2411.243183339039
 20
1162.735949278696
 10
2411.509210310292
 20
1162.972039165786
 10
2411.689466945506
 20
1163.227641143796
 10
2411.779036313566
 20
1163.495783057072
 10
2411.788769984995
 20
1163.601916231239
  0
LWPOLYLINE
  5
9E9
330
8EC
100
AcDbEntity
  8
0
  6
Continuous
 62
     8
370
    15
100
AcDbPolyline
 90
       16
 70
   128
 43
0.0
 10
2399.801679282502
 20
1167.61288608762
 10
2399.388022858225
 20
1167.434432229295
 10
2398.9165342636
 20
1167.292530148195
 10
2398.400074478411
 20
1167.191050563181
 10
2397.852731179285
 20
1167.132761572795
 10
2397.289434464607
 20
1167.119253148747
 10
2396.725549600347
 20
1167.15089376563
 10
2396.176457895665
 20
1167.226820349898
 10
2395.65713714089
 20
1167.344961822256
 10
2395.181753052442
 20
1167.502095591312
 10
2394.763272869022
 20
1167.693935457461
 10
2394.413111639137
 20
1167.915248529246
 10
2394.140820848334
 20
1168.159997962987
 10
2393.953827879579
 20
1168.421507632147
 10
2393.857233413605
 20
1168.692644234655
 10
2393.846478657614
 20
1168.773111248509
  0
ARC
  5
9EA
330
8EC
100
AcDbEntity
  8
0
  6
Continuous
 62
     8
370
    15
100
AcDbCircle
 10
2399.335644451757
 20
1168.904576796258
 30
0.0
 40
1.3731909372881
100
AcDbArc
 50
289.8391620714802
 51
350.9674073299832
  0
ENDBLK
  5
8EE
330
8EC
100
AcDbEntity
  8
0
100
AcDbBlockEnd
  0
ENDSEC
  0
SECTION
  2
ENTITIES
  0
INSERT
  5
802
330
1F
100
AcDbEntity
  8
0
100
AcDbBlockReference
  2
1
 10
0.0
 20
0.0
 30
0.0
  0
INSERT
  5
8C7
330
1F
100
AcDbEntity
  8
0
100
AcDbBlockReference
  2
2
 10
0.0
 20
0.0
 30
0.0
  0
INSERT
  5
8EB
330
1F
100
AcDbEntity
  8
0
100
AcDbBlockReference
  2
4
 10
0.0
 20
0.0
 30
0.0
  0
INSERT
  5
9EB
330
1F
100
AcDbEntity
  8
0
100
AcDbBlockReference
  2
3
 10
0.0
 20
0.0
 30
0.0
  0
ENDSEC
  0
SECTION
  2
OBJECTS
  0
DICTIONARY
  5
C
330
0
100
AcDbDictionary
281
     1
  3
ACAD_COLOR
350
6B
  3
ACAD_GROUP
350
D
  3
ACAD_LAYOUT
350
1A
  3
ACAD_MATERIAL
350
6A
  3
ACAD_MLEADERSTYLE
350
12D
  3
ACAD_MLINESTYLE
350
17
  3
ACAD_PLOTSETTINGS
350
19
  3
ACAD_PLOTSTYLENAME
350
E
  3
ACAD_SCALELIST
350
10C
  3
ACAD_TABLESTYLE
350
7E
  3
ACAD_VISUALSTYLE
350
EF
  3
ACDB_RECOMPOSE_DATA
350
15D
  3
AcDbVariableDictionary
350
5E
  3
DWGPROPS
350
9F9
  0
DICTIONARY
  5
13C
330
10
100
AcDbDictionary
280
     1
281
     1
  3
ADSK_XREC_LAYER_RECONCILED
360
9EC
  0
DICTIONARY
  5
6B
102
{ACAD_REACTORS
330
C
102
}
330
C
100
AcDbDictionary
281
     1
  0
DICTIONARY
  5
D
102
{ACAD_REACTORS
330
C
102
}
330
C
100
AcDbDictionary
281
     1
  0
DICTIONARY
  5
1A
102
{ACAD_REACTORS
330
C
102
}
330
C
100
AcDbDictionary
281
     1
  3
Layout1
350
D3
  3
Layout2
350
D7
  3
Model
350
22
  0
DICTIONARY
  5
6A
102
{ACAD_REACTORS
330
C
102
}
330
C
100
AcDbDictionary
281
     1
  3
ByBlock
350
ED
  3
ByLayer
350
EC
  3
Global
350
EE
  0
DICTIONARY
  5
12D
102
{ACAD_REACTORS
330
C
102
}
330
C
100
AcDbDictionary
281
     1
  3
Annotative
350
13B
  3
Standard
350
12E
  0
DICTIONARY
  5
17
102
{ACAD_REACTORS
330
C
102
}
330
C
100
AcDbDictionary
281
     1
  3
Standard
350
18
  0
DICTIONARY
  5
19
102
{ACAD_REACTORS
330
C
102
}
330
C
100
AcDbDictionary
281
     1
  0
ACDBDICTIONARYWDFLT
  5
E
102
{ACAD_REACTORS
330
C
102
}
330
C
100
AcDbDictionary
281
     1
  3
Normal
350
F
100
AcDbDictionaryWithDefault
340
F
  0
DICTIONARY
  5
10C
102
{ACAD_REACTORS
330
C
102
}
330
C
100
AcDbDictionary
281
     1
  3
A0
350
10D
  3
A1
350
188
  3
A2
350
189
  3
A3
350
18A
  3
A4
350
18B
  3
A5
350
18C
  3
A6
350
18D
  3
A7
350
18E
  3
A8
350
18F
  3
A9
350
190
  3
B0
350
191
  3
B1
350
192
  3
B2
350
193
  3
B3
350
194
  3
B4
350
195
  3
B5
350
196
  3
B6
350
197
  3
B7
350
198
  3
B8
350
199
  3
B9
350
19A
  3
C0
350
19B
  3
C1
350
19C
  3
C2
350
19D
  3
C3
350
19E
  3
C4
350
19F
  3
C5
350
1A0
  3
C6
350
1A1
  3
C7
350
1A2
  3
C8
350
1A3
  3
C9
350
1A4
  3
D0
350
1A5
  3
D1
350
1A6
  3
D2
350
1A7
  0
DICTIONARY
  5
7E
102
{ACAD_REACTORS
330
C
102
}
330
C
100
AcDbDictionary
281
     1
  3
Standard
350
7F
  0
DICTIONARY
  5
EF
102
{ACAD_REACTORS
330
C
102
}
330
C
100
AcDbDictionary
281
     1
  3
2dWireframe
350
F5
  3
3D Hidden
350
F7
  3
3dWireframe
350
F6
  3
Basic
350
F4
  3
Brighten
350
FB
  3
ColorChange
350
FF
  3
Conceptual
350
F8
  3
Dim
350
FA
  3
Facepattern
350
FE
  3
Flat
350
F0
  3
FlatWithEdges
350
F1
  3
Gouraud
350
F2
  3
GouraudWithEdges
350
F3
  3
Linepattern
350
FD
  3
Realistic
350
F9
  3
Thicken
350
FC
  0
XRECORD
  5
15D
102
{ACAD_REACTORS
330
C
102
}
330
C
100
AcDbXrecord
280
     1
 90
        1
330
7F
  0
DICTIONARY
  5
5E
102
{ACAD_REACTORS
330
C
102
}
330
C
100
AcDbDictionary
281
     1
  3
CANNOSCALE
350
146
  3
CMLEADERSTYLE
350
145
  3
CTABLESTYLE
350
84
  3
DIMASSOC
350
5F
  3
HIDETEXT
350
63
  3
INDEXCTL
350
9F5
  3
LIGHTINGUNITS
350
9F3
  3
MSLTSCALE
350
9F2
  3
PSOLHEIGHT
350
9F7
  3
PSOLWIDTH
350
9F6
  3
SORTENTS
350
9F4
  0
XRECORD
  5
9F9
102
{ACAD_REACTORS
330
C
102
}
330
C
100
AcDbXrecord
280
     1
  1
DWGPROPS COOKIE
  2

  3

  4

  6

  7

  8
orhan kara
  9

300
=
301
=
302
=
303
=
304
=
305
=
306
=
307
=
308
=
309
=
 40
0.0003554050925926
 41
2458935.544994607
 42
2458956.465372685
  1

 90
        0
  0
XRECORD
  5
9EC
102
{ACAD_REACTORS
330
13C
102
}
330
13C
100
AcDbXrecord
280
     1
290
     1
  0
LAYOUT
  5
D3
102
{ACAD_XDICTIONARY
360
9FD
102
}
102
{ACAD_REACTORS
330
1A
102
}
330
1A
100
AcDbPlotSettings
  1

  2
C:\Documents and Settings\basas\Application Data\Autodesk\AutoCAD 2005\R16.1\enu\plotters\Default Windows System Printer.pc3
  4

  6

 40
0.0
 41
0.0
 42
0.0
 43
0.0
 44
0.0
 45
0.0
 46
0.0
 47
0.0
 48
0.0
 49
0.0
140
0.0
141
0.0
142
1.0
143
1.0
 70
   688
 72
     0
 73
     0
 74
     5
  7

 75
    16
147
1.0
148
0.0
149
0.0
100
AcDbLayout
  1
Layout1
 70
     1
 71
     1
 10
0.0
 20
0.0
 11
12.0
 21
9.0
 12
0.0
 22
0.0
 32
0.0
 14
0.0
 24
0.0
 34
0.0
 15
0.0
 25
0.0
 35
0.0
146
0.0
 13
0.0
 23
0.0
 33
0.0
 16
1.0
 26
0.0
 36
0.0
 17
0.0
 27
1.0
 37
0.0
 76
     0
330
D2
  0
LAYOUT
  5
D7
102
{ACAD_XDICTIONARY
360
9FF
102
}
102
{ACAD_REACTORS
330
1A
102
}
330
1A
100
AcDbPlotSettings
  1

  2
C:\Documents and Settings\basas\Application Data\Autodesk\AutoCAD 2005\R16.1\enu\plotters\Default Windows System Printer.pc3
  4

  6

 40
0.0
 41
0.0
 42
0.0
 43
0.0
 44
0.0
 45
0.0
 46
0.0
 47
0.0
 48
0.0
 49
0.0
140
0.0
141
0.0
142
1.0
143
1.0
 70
   688
 72
     0
 73
     0
 74
     5
  7

 75
    16
147
1.0
148
0.0
149
0.0
100
AcDbLayout
  1
Layout2
 70
     1
 71
     2
 10
0.0
 20
0.0
 11
12.0
 21
9.0
 12
0.0
 22
0.0
 32
0.0
 14
0.0
 24
0.0
 34
0.0
 15
0.0
 25
0.0
 35
0.0
146
0.0
 13
0.0
 23
0.0
 33
0.0
 16
1.0
 26
0.0
 36
0.0
 17
0.0
 27
1.0
 37
0.0
 76
     0
330
D6
  0
LAYOUT
  5
22
102
{ACAD_XDICTIONARY
360
9FA
102
}
102
{ACAD_REACTORS
330
1A
102
}
330
1A
100
AcDbPlotSettings
  1

  2
none_device
  4
ISO_A4_(210.00_x_297.00_MM)
  6

 40
7.5
 41
20.0
 42
7.5
 43
20.0
 44
210.0
 45
297.0
 46
11.54999923706054
 47
-13.65000009536743
 48
0.0
 49
0.0
140
0.0
141
0.0
142
1.0
143
8.704084754739808
 70
 11952
 72
     1
 73
     0
 74
     0
  7

 75
     0
147
0.1148885871608098
148
0.0
149
0.0
100
AcDbLayout
  1
Model
 70
     1
 71
     0
 10
0.0
 20
0.0
 11
12.0
 21
9.0
 12
0.0
 22
0.0
 32
0.0
 14
0.0
 24
0.0
 34
0.0
 15
0.0
 25
0.0
 35
0.0
146
0.0
 13
0.0
 23
0.0
 33
0.0
 16
1.0
 26
0.0
 36
0.0
 17
0.0
 27
1.0
 37
0.0
 76
     0
330
1F
331
EA
1001
ACAD_PSEXT
1000
None
1000
None
1000
Not applicable
1000
The layout will not be plotted unless a new plotter configuration name is selected.
1070
     0
  0
MATERIAL
  5
ED
102
{ACAD_XDICTIONARY
360
A03
102
}
102
{ACAD_REACTORS
330
6A
102
}
330
6A
100
AcDbMaterial
  1
ByBlock
  0
MATERIAL
  5
EC
102
{ACAD_XDICTIONARY
360
A01
102
}
102
{ACAD_REACTORS
330
6A
102
}
330
6A
100
AcDbMaterial
  1
ByLayer
  0
MATERIAL
  5
EE
102
{ACAD_XDICTIONARY
360
173
102
}
102
{ACAD_REACTORS
330
6A
102
}
330
6A
100
AcDbMaterial
  1
Global
 43
0.0007999999797903
 43
0.0
 43
0.0
 43
0.0
 43
0.0
 43
0.0007999999797903
 43
0.0
 43
0.0
 43
0.0
 43
0.0
 43
1.0
 43
0.0
 43
0.0
 43
0.0
 43
0.0
 43
1.0
 49
0.0007999999797903
 49
0.0
 49
0.0
 49
0.0
 49
0.0
 49
0.0007999999797903
 49
0.0
 49
0.0
 49
0.0
 49
0.0
 49
1.0
 49
0.0
 49
0.0
 49
0.0
 49
0.0
 49
1.0
142
0.0007999999797903
142
0.0
142
0.0
142
0.0
142
0.0
142
0.0007999999797903
142
0.0
142
0.0
142
0.0
142
0.0
142
1.0
142
0.0
142
0.0
142
0.0
142
0.0
142
1.0
144
0.0007999999797903
144
0.0
144
0.0
144
0.0
144
0.0
144
0.0007999999797903
144
0.0
144
0.0
144
0.0
144
0.0
144
1.0
144
0.0
144
0.0
144
0.0
144
0.0
144
1.0
1001
ACAD
1070
    -1
1070
     3
1070
     0
1000

1071
        0
1070
     0
  0
MLEADERSTYLE
  5
13B
102
{ACAD_REACTORS
330
12D
102
}
330
12D
100
AcDbMLeaderStyle
170
     2
171
     1
172
     0
 90
        2
 40
0.0
 41
0.0
173
     1
 91
-1056964608
340
14
 92
       -2
290
     1
 42
2.0
291
     1
 43
8.0
  3
Standard
 44
4.0
300

342
11
174
     1
178
     1
175
     1
176
     0
 93
-1056964608
 45
4.0
292
     0
297
     0
 46
4.0
 94
-1056964608
 47
1.0
 49
1.0
140
1.0
293
     1
141
0.0
294
     1
177
     0
142
1.0
295
     0
296
     1
143
3.75
1001
ACAD_MLEADERVER
1070
     2
  0
MLEADERSTYLE
  5
12E
102
{ACAD_REACTORS
330
12D
102
}
330
12D
100
AcDbMLeaderStyle
170
     2
171
     1
172
     0
 90
        2
 40
0.0
 41
0.0
173
     1
 91
-1056964608
340
14
 92
       -2
290
     1
 42
2.0
291
     1
 43
8.0
  3
Standard
 44
4.0
300

342
11
174
     1
178
     1
175
     1
176
     0
 93
-1056964608
 45
4.0
292
     0
297
     0
 46
4.0
 94
-1056964608
 47
1.0
 49
1.0
140
1.0
293
     1
141
0.0
294
     1
177
     0
142
1.0
295
     0
296
     0
143
3.75
1001
ACAD_MLEADERVER
1070
     2
  0
MLINESTYLE
  5
18
102
{ACAD_REACTORS
330
17
102
}
330
17
100
AcDbMlineStyle
  2
STANDARD
 70
     0
  3

 62
   256
 51
90.0
 52
90.0
 71
     2
 49
0.5
 62
   256
  6
BYLAYER
 49
-0.5
 62
   256
  6
BYLAYER
  0
ACDBPLACEHOLDER
  5
F
102
{ACAD_REACTORS
330
E
102
}
330
E
  0
SCALE
  5
10D
102
{ACAD_REACTORS
330
10C
102
}
330
10C
100
AcDbScale
 70
     0
300
1:1
140
1.0
141
1.0
290
     1
  0
SCALE
  5
188
102
{ACAD_REACTORS
330
10C
102
}
330
10C
100
AcDbScale
 70
     0
300
1:2
140
1.0
141
2.0
290
     0
  0
SCALE
  5
189
102
{ACAD_REACTORS
330
10C
102
}
330
10C
100
AcDbScale
 70
     0
300
1:4
140
1.0
141
4.0
290
     0
  0
SCALE
  5
18A
102
{ACAD_REACTORS
330
10C
102
}
330
10C
100
AcDbScale
 70
     0
300
1:5
140
1.0
141
5.0
290
     0
  0
SCALE
  5
18B
102
{ACAD_REACTORS
330
10C
102
}
330
10C
100
AcDbScale
 70
     0
300
1:8
140
1.0
141
8.0
290
     0
  0
SCALE
  5
18C
102
{ACAD_REACTORS
330
10C
102
}
330
10C
100
AcDbScale
 70
     0
300
1:10
140
1.0
141
10.0
290
     0
  0
SCALE
  5
18D
102
{ACAD_REACTORS
330
10C
102
}
330
10C
100
AcDbScale
 70
     0
300
1:16
140
1.0
141
16.0
290
     0
  0
SCALE
  5
18E
102
{ACAD_REACTORS
330
10C
102
}
330
10C
100
AcDbScale
 70
     0
300
1:20
140
1.0
141
20.0
290
     0
  0
SCALE
  5
18F
102
{ACAD_REACTORS
330
10C
102
}
330
10C
100
AcDbScale
 70
     0
300
1:30
140
1.0
141
30.0
290
     0
  0
SCALE
  5
190
102
{ACAD_REACTORS
330
10C
102
}
330
10C
100
AcDbScale
 70
     0
300
1:40
140
1.0
141
40.0
290
     0
  0
SCALE
  5
191
102
{ACAD_REACTORS
330
10C
102
}
330
10C
100
AcDbScale
 70
     0
300
1:50
140
1.0
141
50.0
290
     0
  0
SCALE
  5
192
102
{ACAD_REACTORS
330
10C
102
}
330
10C
100
AcDbScale
 70
     0
300
1:100
140
1.0
141
100.0
290
     0
  0
SCALE
  5
193
102
{ACAD_REACTORS
330
10C
102
}
330
10C
100
AcDbScale
 70
     0
300
2:1
140
2.0
141
1.0
290
     0
  0
SCALE
  5
194
102
{ACAD_REACTORS
330
10C
102
}
330
10C
100
AcDbScale
 70
     0
300
4:1
140
4.0
141
1.0
290
     0
  0
SCALE
  5
195
102
{ACAD_REACTORS
330
10C
102
}
330
10C
100
AcDbScale
 70
     0
300
8:1
140
8.0
141
1.0
290
     0
  0
SCALE
  5
196
102
{ACAD_REACTORS
330
10C
102
}
330
10C
100
AcDbScale
 70
     0
300
10:1
140
10.0
141
1.0
290
     0
  0
SCALE
  5
197
102
{ACAD_REACTORS
330
10C
102
}
330
10C
100
AcDbScale
 70
     0
300
100:1
140
100.0
141
1.0
290
     0
  0
SCALE
  5
198
102
{ACAD_REACTORS
330
10C
102
}
330
10C
100
AcDbScale
 70
     0
300
1/128" = 1'-0"
140
0.0078125
141
12.0
290
     0
  0
SCALE
  5
199
102
{ACAD_REACTORS
330
10C
102
}
330
10C
100
AcDbScale
 70
     0
300
1/64" = 1'-0"
140
0.015625
141
12.0
290
     0
  0
SCALE
  5
19A
102
{ACAD_REACTORS
330
10C
102
}
330
10C
100
AcDbScale
 70
     0
300
1/32" = 1'-0"
140
0.03125
141
12.0
290
     0
  0
SCALE
  5
19B
102
{ACAD_REACTORS
330
10C
102
}
330
10C
100
AcDbScale
 70
     0
300
1/16" = 1'-0"
140
0.0625
141
12.0
290
     0
  0
SCALE
  5
19C
102
{ACAD_REACTORS
330
10C
102
}
330
10C
100
AcDbScale
 70
     0
300
3/32" = 1'-0"
140
0.09375
141
12.0
290
     0
  0
SCALE
  5
19D
102
{ACAD_REACTORS
330
10C
102
}
330
10C
100
AcDbScale
 70
     0
300
1/8" = 1'-0"
140
0.125
141
12.0
290
     0
  0
SCALE
  5
19E
102
{ACAD_REACTORS
330
10C
102
}
330
10C
100
AcDbScale
 70
     0
300
3/16" = 1'-0"
140
0.1875
141
12.0
290
     0
  0
SCALE
  5
19F
102
{ACAD_REACTORS
330
10C
102
}
330
10C
100
AcDbScale
 70
     0
300
1/4" = 1'-0"
140
0.25
141
12.0
290
     0
  0
SCALE
  5
1A0
102
{ACAD_REACTORS
330
10C
102
}
330
10C
100
AcDbScale
 70
     0
300
3/8" = 1'-0"
140
0.375
141
12.0
290
     0
  0
SCALE
  5
1A1
102
{ACAD_REACTORS
330
10C
102
}
330
10C
100
AcDbScale
 70
     0
300
1/2" = 1'-0"
140
0.5
141
12.0
290
     0
  0
SCALE
  5
1A2
102
{ACAD_REACTORS
330
10C
102
}
330
10C
100
AcDbScale
 70
     0
300
3/4" = 1'-0"
140
0.75
141
12.0
290
     0
  0
SCALE
  5
1A3
102
{ACAD_REACTORS
330
10C
102
}
330
10C
100
AcDbScale
 70
     0
300
1" = 1'-0"
140
1.0
141
12.0
290
     0
  0
SCALE
  5
1A4
102
{ACAD_REACTORS
330
10C
102
}
330
10C
100
AcDbScale
 70
     0
300
1-1/2" = 1'-0"
140
1.5
141
12.0
290
     0
  0
SCALE
  5
1A5
102
{ACAD_REACTORS
330
10C
102
}
330
10C
100
AcDbScale
 70
     0
300
3" = 1'-0"
140
3.0
141
12.0
290
     0
  0
SCALE
  5
1A6
102
{ACAD_REACTORS
330
10C
102
}
330
10C
100
AcDbScale
 70
     0
300
6" = 1'-0"
140
6.0
141
12.0
290
     0
  0
SCALE
  5
1A7
102
{ACAD_REACTORS
330
10C
102
}
330
10C
100
AcDbScale
 70
     0
300
1'-0" = 1'-0"
140
12.0
141
12.0
290
     0
  0
TABLESTYLE
  5
7F
102
{ACAD_XDICTIONARY
360
162
102
}
102
{ACAD_REACTORS
330
7E
102
}
330
7E
100
AcDbTableStyle
  3
Standard
 70
     0
 71
     0
 40
1.5
 41
1.5
280
     0
281
     0
  7
Standard
140
4.5
170
     2
 62
     0
 63
     7
283
     0
274
    -2
284
     1
 64
     0
275
    -2
285
     1
 65
     0
276
    -2
286
     1
 66
     0
277
    -2
287
     1
 67
     0
278
    -2
288
     1
 68
     0
279
    -2
289
     1
 69
     0
  7
Standard
140
6.0
170
     5
 62
     0
 63
     7
283
     0
274
    -2
284
     1
 64
     0
275
    -2
285
     1
 65
     0
276
    -2
286
     1
 66
     0
277
    -2
287
     1
 67
     0
278
    -2
288
     1
 68
     0
279
    -2
289
     1
 69
     0
  7
Standard
140
4.5
170
     5
 62
     0
 63
     7
283
     0
274
    -2
284
     1
 64
     0
275
    -2
285
     1
 65
     0
276
    -2
286
     1
 66
     0
277
    -2
287
     1
 67
     0
278
    -2
288
     1
 68
     0
279
    -2
289
     1
 69
     0
  0
VISUALSTYLE
  5
F5
102
{ACAD_REACTORS
330
EF
102
}
330
EF
100
AcDbVisualStyle
  2
2dWireframe
 70
     4
 71
     0
 72
     2
 73
     1
 90
        0
 40
-0.6
 41
-30.0
 62
     5
 63
     7
 74
     1
 91
        4
 64
     7
 65
   257
 75
     1
175
     1
 42
1.0
 92
        0
 66
   257
 43
1.0
 76
     1
 77
     6
 78
     2
 67
     7
 79
     5
170
     0
171
     0
290
     0
174
     0
 93
        1
 44
0.0
173
     0
291
     0
 45
0.0
1001
ACAD
1000
AcDbSavedByObjectVersion
1070
     0
  0
VISUALSTYLE
  5
F7
102
{ACAD_REACTORS
330
EF
102
}
330
EF
100
AcDbVisualStyle
  2
3D Hidden
 70
     6
 71
     1
 72
     2
 73
     2
 90
        0
 40
-0.6
 41
-30.0
 62
     5
 63
     7
 74
     2
 91
        2
 64
     7
 65
   257
 75
     2
175
     1
 42
40.0
 92
        0
 66
   257
 43
1.0
 76
     1
 77
     6
 78
     2
 67
     7
 79
     3
170
     0
171
     0
290
     0
174
     0
 93
        1
 44
0.0
173
     0
291
     0
 45
0.0
1001
ACAD
1000
AcDbSavedByObjectVersion
1070
     0
  0
VISUALSTYLE
  5
F6
102
{ACAD_REACTORS
330
EF
102
}
330
EF
100
AcDbVisualStyle
  2
3dWireframe
 70
     5
 71
     0
 72
     2
 73
     1
 90
        0
 40
-0.6
 41
-30.0
 62
     5
 63
     7
 74
     1
 91
        4
 64
     7
 65
   257
 75
     1
175
     1
 42
1.0
 92
        0
 66
   257
 43
1.0
 76
     1
 77
     6
 78
     2
 67
     7
 79
     5
170
     0
171
     0
290
     0
174
     0
 93
        1
 44
0.0
173
     0
291
     0
 45
0.0
1001
ACAD
1000
AcDbSavedByObjectVersion
1070
     0
  0
VISUALSTYLE
  5
F4
102
{ACAD_REACTORS
330
EF
102
}
330
EF
100
AcDbVisualStyle
  2
Basic
 70
     7
 71
     1
 72
     0
 73
     1
 90
        0
 40
-0.6
 41
-30.0
 62
     5
 63
     7
 74
     0
 91
        4
 64
     7
 65
   257
 75
     1
175
     1
 42
1.0
 92
        8
 66
     7
 43
1.0
 76
     1
 77
     6
 78
     2
 67
     7
 79
     5
170
     0
171
     0
290
     0
174
     0
 93
        1
 44
0.0
173
     0
291
     1
 45
0.0
1001
ACAD
1000
AcDbSavedByObjectVersion
1070
     0
  0
VISUALSTYLE
  5
FB
102
{ACAD_REACTORS
330
EF
102
}
330
EF
100
AcDbVisualStyle
  2
Brighten
 70
    12
 71
     2
 72
     2
 73
     1
 90
        0
 40
-0.6
 41
-30.0
 62
     5
 63
     7
 74
     1
 91
        4
 64
     7
 65
   257
 75
     1
175
     1
 42
1.0
 92
        8
 66
     7
 43
1.0
 76
     1
 77
     6
 78
     2
 67
     7
 79
     5
170
     0
171
     0
290
     0
174
     0
 93
        1
 44
50.0
173
     0
291
     1
 45
0.0
1001
ACAD
1000
AcDbSavedByObjectVersion
1070
     0
  0
VISUALSTYLE
  5
FF
102
{ACAD_REACTORS
330
EF
102
}
330
EF
100
AcDbVisualStyle
  2
ColorChange
 70
    16
 71
     2
 72
     2
 73
     3
 90
        0
 40
-0.6
 41
-30.0
 62
     5
 63
     8
 74
     1
 91
        4
 64
     7
 65
   257
 75
     1
175
     1
 42
1.0
 92
        8
 66
     8
 43
1.0
 76
     1
 77
     6
 78
     2
 67
     7
 79
     5
170
     0
171
     0
290
     0
174
     0
 93
        1
 44
0.0
173
     0
291
     1
 45
0.0
1001
ACAD
1000
AcDbSavedByObjectVersion
1070
     0
  0
VISUALSTYLE
  5
F8
102
{ACAD_REACTORS
330
EF
102
}
330
EF
100
AcDbVisualStyle
  2
Conceptual
 70
     9
 71
     3
 72
     2
 73
     1
 90
        0
 40
-0.6
 41
-30.0
 62
     5
 63
     7
 74
     2
 91
        2
 64
     7
 65
   257
 75
     1
175
     1
 42
40.0
 92
        8
 66
     7
 43
1.0
 76
     1
 77
     6
 78
     2
 67
     7
 79
     3
170
     0
171
     0
290
     0
174
     0
 93
        1
 44
0.0
173
     0
291
     0
 45
0.0
1001
ACAD
1000
AcDbSavedByObjectVersion
1070
     0
  0
VISUALSTYLE
  5
FA
102
{ACAD_REACTORS
330
EF
102
}
330
EF
100
AcDbVisualStyle
  2
Dim
 70
    11
 71
     2
 72
     2
 73
     1
 90
        0
 40
-0.6
 41
-30.0
 62
     5
 63
     7
 74
     1
 91
        4
 64
     7
 65
   257
 75
     1
175
     1
 42
1.0
 92
        8
 66
     7
 43
1.0
 76
     1
 77
     6
 78
     2
 67
     7
 79
     5
170
     0
171
     0
290
     0
174
     0
 93
        1
 44
-50.0
173
     0
291
     1
 45
0.0
1001
ACAD
1000
AcDbSavedByObjectVersion
1070
     0
  0
VISUALSTYLE
  5
FE
102
{ACAD_REACTORS
330
EF
102
}
330
EF
100
AcDbVisualStyle
  2
Facepattern
 70
    15
 71
     2
 72
     2
 73
     1
 90
        0
 40
-0.6
 41
-30.0
 62
     5
 63
     7
 74
     1
 91
        4
 64
     7
 65
   257
 75
     1
175
     1
 42
1.0
 92
        8
 66
     7
 43
1.0
 76
     1
 77
     6
 78
     2
 67
     7
 79
     5
170
     0
171
     0
290
     0
174
     0
 93
        1
 44
0.0
173
     0
291
     1
 45
0.0
1001
ACAD
1000
AcDbSavedByObjectVersion
1070
     0
  0
VISUALSTYLE
  5
F0
102
{ACAD_REACTORS
330
EF
102
}
330
EF
100
AcDbVisualStyle
  2
Flat
 70
     0
 71
     2
 72
     1
 73
     1
 90
        2
 40
-0.6
 41
30.0
 62
     5
 63
     7
 74
     0
 91
        4
 64
     7
 65
   257
 75
     1
175
     1
 42
1.0
 92
        8
 66
     7
 43
1.0
 76
     1
 77
     6
 78
     2
 67
     7
 79
     5
170
     0
171
     0
290
     0
174
     0
 93
        1
 44
0.0
173
     0
291
     1
 45
0.0
1001
ACAD
1000
AcDbSavedByObjectVersion
1070
     0
  0
VISUALSTYLE
  5
F1
102
{ACAD_REACTORS
330
EF
102
}
330
EF
100
AcDbVisualStyle
  2
FlatWithEdges
 70
     1
 71
     2
 72
     1
 73
     1
 90
        2
 40
-0.6
 41
30.0
 62
     5
 63
     7
 74
     1
 91
        4
 64
     7
 65
   257
 75
     1
175
     1
 42
1.0
 92
        0
 66
   257
 43
1.0
 76
     1
 77
     6
 78
     2
 67
     7
 79
     5
170
     0
171
     0
290
     0
174
     0
 93
        1
 44
0.0
173
     0
291
     1
 45
0.0
1001
ACAD
1000
AcDbSavedByObjectVersion
1070
     0
  0
VISUALSTYLE
  5
F2
102
{ACAD_REACTORS
330
EF
102
}
330
EF
100
AcDbVisualStyle
  2
Gouraud
 70
     2
 71
     2
 72
     2
 73
     1
 90
        2
 40
-0.6
 41
30.0
 62
     5
 63
     7
 74
     0
 91
        4
 64
     7
 65
   257
 75
     1
175
     1
 42
1.0
 92
        0
 66
     7
 43
1.0
 76
     1
 77
     6
 78
     2
 67
     7
 79
     5
170
     0
171
     0
290
     0
174
     0
 93
        1
 44
0.0
173
     0
291
     1
 45
0.0
1001
ACAD
1000
AcDbSavedByObjectVersion
1070
     0
  0
VISUALSTYLE
  5
F3
102
{ACAD_REACTORS
330
EF
102
}
330
EF
100
AcDbVisualStyle
  2
GouraudWithEdges
 70
     3
 71
     2
 72
     2
 73
     1
 90
        2
 40
-0.6
 41
30.0
 62
     5
 63
     7
 74
     1
 91
        4
 64
     7
 65
   257
 75
     1
175
     1
 42
1.0
 92
        0
 66
   257
 43
1.0
 76
     1
 77
     6
 78
     2
 67
     7
 79
     5
170
     0
171
     0
290
     0
174
     0
 93
        1
 44
0.0
173
     0
291
     1
 45
0.0
1001
ACAD
1000
AcDbSavedByObjectVersion
1070
     0
  0
VISUALSTYLE
  5
FD
102
{ACAD_REACTORS
330
EF
102
}
330
EF
100
AcDbVisualStyle
  2
Linepattern
 70
    14
 71
     2
 72
     2
 73
     1
 90
        0
 40
-0.6
 41
-30.0
 62
     5
 63
     7
 74
     1
 91
        4
 64
     7
 65
   257
 75
     7
175
     7
 42
1.0
 92
        8
 66
     7
 43
1.0
 76
     1
 77
     6
 78
     2
 67
     7
 79
     5
170
     0
171
     0
290
     0
174
     0
 93
        1
 44
0.0
173
     0
291
     1
 45
0.0
1001
ACAD
1000
AcDbSavedByObjectVersion
1070
     0
  0
VISUALSTYLE
  5
F9
102
{ACAD_REACTORS
330
EF
102
}
330
EF
100
AcDbVisualStyle
  2
Realistic
 70
     8
 71
     2
 72
     2
 73
     1
 90
        0
 40
-0.6
 41
-30.0
 62
     5
 63
     7
 74
     1
 91
        0
 64
     7
 65
   257
 75
     1
175
     1
 42
1.0
 92
        8
 66
     8
 43
1.0
 76
     1
 77
     6
 78
     2
 67
     7
 79
     5
170
     0
171
     0
290
     0
174
     0
 93
       13
 44
0.0
173
     0
291
     0
 45
0.0
1001
ACAD
1000
AcDbSavedByObjectVersion
1070
     0
  0
VISUALSTYLE
  5
FC
102
{ACAD_REACTORS
330
EF
102
}
330
EF
100
AcDbVisualStyle
  2
Thicken
 70
    13
 71
     2
 72
     2
 73
     1
 90
        0
 40
-0.6
 41
-30.0
 62
     5
 63
     7
 74
     1
 91
        4
 64
     7
 65
   257
 75
     1
175
     1
 42
1.0
 92
       12
 66
     7
 43
1.0
 76
     1
 77
     6
 78
     2
 67
     7
 79
     5
170
     0
171
     0
290
     0
174
     0
 93
        1
 44
0.0
173
     0
291
     1
 45
0.0
1001
ACAD
1000
AcDbSavedByObjectVersion
1070
     0
  0
DICTIONARYVAR
  5
146
102
{ACAD_REACTORS
330
5E
102
}
330
5E
100
DictionaryVariables
280
     0
  1
1:1
  0
DICTIONARYVAR
  5
145
102
{ACAD_REACTORS
330
5E
102
}
330
5E
100
DictionaryVariables
280
     0
  1
STANDARD
  0
DICTIONARYVAR
  5
84
102
{ACAD_REACTORS
330
5E
102
}
330
5E
100
DictionaryVariables
280
     0
  1
STANDARD
  0
DICTIONARYVAR
  5
5F
102
{ACAD_REACTORS
330
5E
102
}
330
5E
100
DictionaryVariables
280
     0
  1
2
  0
DICTIONARYVAR
  5
63
102
{ACAD_REACTORS
330
5E
102
}
330
5E
100
DictionaryVariables
280
     0
  1
1
  0
DICTIONARYVAR
  5
9F5
102
{ACAD_REACTORS
330
5E
102
}
330
5E
100
DictionaryVariables
280
     0
  1
0
  0
DICTIONARYVAR
  5
9F3
102
{ACAD_REACTORS
330
5E
102
}
330
5E
100
DictionaryVariables
280
     0
  1
2
  0
DICTIONARYVAR
  5
9F2
102
{ACAD_REACTORS
330
5E
102
}
330
5E
100
DictionaryVariables
280
     0
  1
1
  0
DICTIONARYVAR
  5
9F7
102
{ACAD_REACTORS
330
5E
102
}
330
5E
100
DictionaryVariables
280
     0
  1
80.000000
  0
DICTIONARYVAR
  5
9F6
102
{ACAD_REACTORS
330
5E
102
}
330
5E
100
DictionaryVariables
280
     0
  1
5.000000
  0
DICTIONARYVAR
  5
9F4
102
{ACAD_REACTORS
330
5E
102
}
330
5E
100
DictionaryVariables
280
     0
  1
127
  0
DICTIONARY
  5
9FD
330
D3
100
AcDbDictionary
280
     1
281
     1
  3
ACAD_XREC_ROUNDTRIP
360
9FE
  0
DICTIONARY
  5
9FF
330
D7
100
AcDbDictionary
280
     1
281
     1
  3
ACAD_XREC_ROUNDTRIP
360
A00
  0
DICTIONARY
  5
9FA
330
22
100
AcDbDictionary
280
     1
281
     1
  3
ACAD_XREC_ROUNDTRIP
360
9FB
  0
DICTIONARY
  5
A03
330
ED
100
AcDbDictionary
280
     1
281
     1
  3
ACAD_XREC_ROUNDTRIP
360
A04
  0
DICTIONARY
  5
A01
330
EC
100
AcDbDictionary
280
     1
281
     1
  3
ACAD_XREC_ROUNDTRIP
360
A02
  0
DICTIONARY
  5
173
330
EE
100
AcDbDictionary
280
     1
281
     1
  3
ACAD_XREC_ROUNDTRIP
360
A05
  3
BUMPTILE
360
175
  3
DIFFUSETILE
360
174
  3
OPACITYTILE
360
176
  3
REFLECTIONTILE
360
177
  0
DICTIONARY
  5
162
330
7F
100
AcDbDictionary
280
     1
281
     1
  3
ACAD_ROUNDTRIP_2008_TABLESTYLE_CELLSTYLEMAP
360
9F8
  3
ACAD_XREC_ROUNDTRIP
360
9FC
  0
XRECORD
  5
9FE
102
{ACAD_REACTORS
330
9FD
102
}
330
9FD
100
AcDbXrecord
280
     1
102
SHADEPLOT
 70
     0
102
SHADEPLOTRESLEVEL
 70
     2
102
SHADEPLOTCUSTOMDPI
 70
   300
  0
XRECORD
  5
A00
102
{ACAD_REACTORS
330
9FF
102
}
330
9FF
100
AcDbXrecord
280
     1
102
SHADEPLOT
 70
     0
102
SHADEPLOTRESLEVEL
 70
     2
102
SHADEPLOTCUSTOMDPI
 70
   300
  0
XRECORD
  5
9FB
102
{ACAD_REACTORS
330
9FA
102
}
330
9FA
100
AcDbXrecord
280
     1
102
SHADEPLOT
 70
     0
102
SHADEPLOTRESLEVEL
 70
     2
102
SHADEPLOTCUSTOMDPI
 70
   300
  0
XRECORD
  5
A04
102
{ACAD_REACTORS
330
A03
102
}
330
A03
100
AcDbXrecord
280
     1
102
MATERIAL
148
0.0
149
0.0
149
0.0
 93
        0
 94
       63
282
     0
 72
     1
 77
     1
171
     1
175
     1
179
     1
273
     0
  0
XRECORD
  5
A02
102
{ACAD_REACTORS
330
A01
102
}
330
A01
100
AcDbXrecord
280
     1
102
MATERIAL
148
0.0
149
0.0
149
0.0
 93
        0
 94
       63
282
     0
 72
     1
 77
     1
171
     1
175
     1
179
     1
273
     0
  0
XRECORD
  5
A05
102
{ACAD_REACTORS
330
173
102
}
330
173
100
AcDbXrecord
280
     1
102
MATERIAL
148
0.0
149
0.0
149
0.0
 93
        0
 94
       63
282
     0
 72
     1
 77
     1
171
     1
175
     1
179
     1
273
     0
  0
XRECORD
  5
175
102
{ACAD_REACTORS
330
173
102
}
330
173
100
AcDbXrecord
280
     1
270
     1
271
     1
  0
XRECORD
  5
174
102
{ACAD_REACTORS
330
173
102
}
330
173
100
AcDbXrecord
280
     1
270
     1
271
     1
  0
XRECORD
  5
176
102
{ACAD_REACTORS
330
173
102
}
330
173
100
AcDbXrecord
280
     1
270
     1
271
     1
  0
XRECORD
  5
177
102
{ACAD_REACTORS
330
173
102
}
330
173
100
AcDbXrecord
280
     1
270
     1
271
     1
  0
CELLSTYLEMAP
  5
9F8
102
{ACAD_REACTORS
330
162
102
}
330
162
100
AcDbCellStyleMap
 90
        3
300
CELLSTYLE
  1
TABLEFORMAT_BEGIN
 90
        5
170
     1
 91
        0
 92
    32768
 62
   257
 93
        1
300
CONTENTFORMAT
  1
CONTENTFORMAT_BEGIN
 90
        0
 91
        0
 92
      512
 93
        0
300

 40
0.0
140
1.0
 94
        5
 62
     0
340
11
144
6.0
309
CONTENTFORMAT_END
171
     1
301
MARGIN
  1
CELLMARGIN_BEGIN
 40
1.5
 40
1.5
 40
1.5
 40
1.5
 40
4.5
 40
4.5
309
CELLMARGIN_END
 94
        6
 95
        1
302
GRIDFORMAT
  1
GRIDFORMAT_BEGIN
 90
        0
 91
        1
 62
     0
 92
       -2
340
14
 93
        0
 40
1.125
309
GRIDFORMAT_END
 95
        2
302
GRIDFORMAT
  1
GRIDFORMAT_BEGIN
 90
        0
 91
        1
 62
     0
 92
       -2
340
14
 93
        0
 40
1.125
309
GRIDFORMAT_END
 95
        4
302
GRIDFORMAT
  1
GRIDFORMAT_BEGIN
 90
        0
 91
        1
 62
     0
 92
       -2
340
14
 93
        0
 40
1.125
309
GRIDFORMAT_END
 95
        8
302
GRIDFORMAT
  1
GRIDFORMAT_BEGIN
 90
        0
 91
        1
 62
     0
 92
       -2
340
14
 93
        0
 40
1.125
309
GRIDFORMAT_END
 95
       16
302
GRIDFORMAT
  1
GRIDFORMAT_BEGIN
 90
        0
 91
        1
 62
     0
 92
       -2
340
14
 93
        0
 40
1.125
309
GRIDFORMAT_END
 95
       32
302
GRIDFORMAT
  1
GRIDFORMAT_BEGIN
 90
        0
 91
        1
 62
     0
 92
       -2
340
14
 93
        0
 40
1.125
309
GRIDFORMAT_END
309
TABLEFORMAT_END
  1
CELLSTYLE_BEGIN
 90
        1
 91
        1
300
_TITLE
309
CELLSTYLE_END
300
CELLSTYLE
  1
TABLEFORMAT_BEGIN
 90
        5
170
     1
 91
        0
 92
        0
 62
   257
 93
        1
300
CONTENTFORMAT
  1
CONTENTFORMAT_BEGIN
 90
        0
 91
        0
 92
      512
 93
        0
300

 40
0.0
140
1.0
 94
        5
 62
     0
340
11
144
4.5
309
CONTENTFORMAT_END
171
     1
301
MARGIN
  1
CELLMARGIN_BEGIN
 40
1.5
 40
1.5
 40
1.5
 40
1.5
 40
4.5
 40
4.5
309
CELLMARGIN_END
 94
        6
 95
        1
302
GRIDFORMAT
  1
GRIDFORMAT_BEGIN
 90
        0
 91
        1
 62
     0
 92
       -2
340
14
 93
        0
 40
1.125
309
GRIDFORMAT_END
 95
        2
302
GRIDFORMAT
  1
GRIDFORMAT_BEGIN
 90
        0
 91
        1
 62
     0
 92
       -2
340
14
 93
        0
 40
1.125
309
GRIDFORMAT_END
 95
        4
302
GRIDFORMAT
  1
GRIDFORMAT_BEGIN
 90
        0
 91
        1
 62
     0
 92
       -2
340
14
 93
        0
 40
1.125
309
GRIDFORMAT_END
 95
        8
302
GRIDFORMAT
  1
GRIDFORMAT_BEGIN
 90
        0
 91
        1
 62
     0
 92
       -2
340
14
 93
        0
 40
1.125
309
GRIDFORMAT_END
 95
       16
302
GRIDFORMAT
  1
GRIDFORMAT_BEGIN
 90
        0
 91
        1
 62
     0
 92
       -2
340
14
 93
        0
 40
1.125
309
GRIDFORMAT_END
 95
       32
302
GRIDFORMAT
  1
GRIDFORMAT_BEGIN
 90
        0
 91
        1
 62
     0
 92
       -2
340
14
 93
        0
 40
1.125
309
GRIDFORMAT_END
309
TABLEFORMAT_END
  1
CELLSTYLE_BEGIN
 90
        2
 91
        1
300
_HEADER
309
CELLSTYLE_END
300
CELLSTYLE
  1
TABLEFORMAT_BEGIN
 90
        5
170
     1
 91
        0
 92
        0
 62
   257
 93
        1
300
CONTENTFORMAT
  1
CONTENTFORMAT_BEGIN
 90
        0
 91
        0
 92
      512
 93
        0
300

 40
0.0
140
1.0
 94
        2
 62
     0
340
11
144
4.5
309
CONTENTFORMAT_END
171
     1
301
MARGIN
  1
CELLMARGIN_BEGIN
 40
1.5
 40
1.5
 40
1.5
 40
1.5
 40
4.5
 40
4.5
309
CELLMARGIN_END
 94
        6
 95
        1
302
GRIDFORMAT
  1
GRIDFORMAT_BEGIN
 90
        0
 91
        1
 62
     0
 92
       -2
340
14
 93
        0
 40
1.125
309
GRIDFORMAT_END
 95
        2
302
GRIDFORMAT
  1
GRIDFORMAT_BEGIN
 90
        0
 91
        1
 62
     0
 92
       -2
340
14
 93
        0
 40
1.125
309
GRIDFORMAT_END
 95
        4
302
GRIDFORMAT
  1
GRIDFORMAT_BEGIN
 90
        0
 91
        1
 62
     0
 92
       -2
340
14
 93
        0
 40
1.125
309
GRIDFORMAT_END
 95
        8
302
GRIDFORMAT
  1
GRIDFORMAT_BEGIN
 90
        0
 91
        1
 62
     0
 92
       -2
340
14
 93
        0
 40
1.125
309
GRIDFORMAT_END
 95
       16
302
GRIDFORMAT
  1
GRIDFORMAT_BEGIN
 90
        0
 91
        1
 62
     0
 92
       -2
340
14
 93
        0
 40
1.125
309
GRIDFORMAT_END
 95
       32
302
GRIDFORMAT
  1
GRIDFORMAT_BEGIN
 90
        0
 91
        1
 62
     0
 92
       -2
340
14
 93
        0
 40
1.125
309
GRIDFORMAT_END
309
TABLEFORMAT_END
  1
CELLSTYLE_BEGIN
 90
        3
 91
        2
300
_DATA
309
CELLSTYLE_END
  0
XRECORD
  5
9FC
102
{ACAD_REACTORS
330
162
102
}
330
162
100
AcDbXrecord
280
     1
102
ACAD_ROUNDTRIP_PRE2007_TABLESTYLE
 90
      512
 91
        0
  1

 92
      512
 93
        0
  2

 94
      512
 95
        0
  3

  0
ENDSEC
  0
EOF
