  0
SECTION
  2
HEADER
  9
$ACADVER
  1
AC1015
  9
$ACADMAINTVER
 70
    20
  9
$DWGCODEPAGE
  3
ANSI_1254
  9
$INSBASE
 10
0.0
 20
0.0
 30
0.0
  9
$EXTMIN
 10
2137.435538989205
 20
1026.996924304591
 30
0.0
  9
$EXTMAX
 10
2393.036228346986
 20
1084.199684366152
 30
0.0
  9
$LIMMIN
 10
0.0
 20
0.0
  9
$LIMMAX
 10
420.0
 20
297.0
  9
$ORTHOMODE
 70
     0
  9
$REGENMODE
 70
     1
  9
$FILLMODE
 70
     1
  9
$QTEXTMODE
 70
     0
  9
$MIRRTEXT
 70
     0
  9
$LTSCALE
 40
1.0
  9
$ATTMODE
 70
     1
  9
$TEXTSIZE
 40
2.5
  9
$TRACEWID
 40
1.0
  9
$TEXTSTYLE
  7
Standard
  9
$CLAYER
  8
0
  9
$CELTYPE
  6
ByLayer
  9
$CECOLOR
 62
   256
  9
$CELTSCALE
 40
1.0
  9
$DISPSILH
 70
     0
  9
$DIMSCALE
 40
1.0
  9
$DIMASZ
 40
2.5
  9
$DIMEXO
 40
0.625
  9
$DIMDLI
 40
3.75
  9
$DIMRND
 40
0.0
  9
$DIMDLE
 40
0.0
  9
$DIMEXE
 40
1.25
  9
$DIMTP
 40
0.0
  9
$DIMTM
 40
0.0
  9
$DIMTXT
 40
2.5
  9
$DIMCEN
 40
2.5
  9
$DIMTSZ
 40
0.0
  9
$DIMTOL
 70
     0
  9
$DIMLIM
 70
     0
  9
$DIMTIH
 70
     0
  9
$DIMTOH
 70
     0
  9
$DIMSE1
 70
     0
  9
$DIMSE2
 70
     0
  9
$DIMTAD
 70
     1
  9
$DIMZIN
 70
     8
  9
$DIMBLK
  1

  9
$DIMASO
 70
     1
  9
$DIMSHO
 70
     1
  9
$DIMPOST
  1

  9
$DIMAPOST
  1

  9
$DIMALT
 70
     0
  9
$DIMALTD
 70
     3
  9
$DIMALTF
 40
0.03937007874016
  9
$DIMLFAC
 40
1.0
  9
$DIMTOFL
 70
     1
  9
$DIMTVP
 40
0.0
  9
$DIMTIX
 70
     0
  9
$DIMSOXD
 70
     0
  9
$DIMSAH
 70
     0
  9
$DIMBLK1
  1

  9
$DIMBLK2
  1

  9
$DIMSTYLE
  2
ISO-25
  9
$DIMCLRD
 70
     0
  9
$DIMCLRE
 70
     0
  9
$DIMCLRT
 70
     0
  9
$DIMTFAC
 40
1.0
  9
$DIMGAP
 40
0.625
  9
$DIMJUST
 70
     0
  9
$DIMSD1
 70
     0
  9
$DIMSD2
 70
     0
  9
$DIMTOLJ
 70
     0
  9
$DIMTZIN
 70
     8
  9
$DIMALTZ
 70
     0
  9
$DIMALTTZ
 70
     0
  9
$DIMUPT
 70
     0
  9
$DIMDEC
 70
     2
  9
$DIMTDEC
 70
     2
  9
$DIMALTU
 70
     2
  9
$DIMALTTD
 70
     3
  9
$DIMTXSTY
  7
Standard
  9
$DIMAUNIT
 70
     0
  9
$DIMADEC
 70
     0
  9
$DIMALTRND
 40
0.0
  9
$DIMAZIN
 70
     0
  9
$DIMDSEP
 70
    44
  9
$DIMATFIT
 70
     3
  9
$DIMFRAC
 70
     0
  9
$DIMLDRBLK
  1

  9
$DIMLUNIT
 70
     2
  9
$DIMLWD
 70
    -2
  9
$DIMLWE
 70
    -2
  9
$DIMTMOVE
 70
     0
  9
$LUNITS
 70
     2
  9
$LUPREC
 70
     4
  9
$SKETCHINC
 40
1.0
  9
$FILLETRAD
 40
0.0
  9
$AUNITS
 70
     0
  9
$AUPREC
 70
     0
  9
$MENU
  1
.
  9
$ELEVATION
 40
0.0
  9
$PELEVATION
 40
0.0
  9
$THICKNESS
 40
0.0
  9
$LIMCHECK
 70
     0
  9
$CHAMFERA
 40
0.0
  9
$CHAMFERB
 40
0.0
  9
$CHAMFERC
 40
0.0
  9
$CHAMFERD
 40
0.0
  9
$SKPOLY
 70
     0
  9
$TDCREATE
 40
2458935.543939375
  9
$TDUCREATE
 40
2458935.418939375
  9
$TDUPDATE
 40
2458956.465175694
  9
$TDUUPDATE
 40
2458956.340175694
  9
$TDINDWG
 40
0.0002992940
  9
$TDUSRTIMER
 40
0.0002992940
  9
$USRTIMER
 70
     1
  9
$ANGBASE
 50
0.0
  9
$ANGDIR
 70
     0
  9
$PDMODE
 70
     0
  9
$PDSIZE
 40
0.0
  9
$PLINEWID
 40
0.0
  9
$SPLFRAME
 70
     0
  9
$SPLINETYPE
 70
     6
  9
$SPLINESEGS
 70
     8
  9
$HANDSEED
  5
928
  9
$SURFTAB1
 70
     6
  9
$SURFTAB2
 70
     6
  9
$SURFTYPE
 70
     6
  9
$SURFU
 70
     6
  9
$SURFV
 70
     6
  9
$UCSBASE
  2

  9
$UCSNAME
  2

  9
$UCSORG
 10
0.0
 20
0.0
 30
0.0
  9
$UCSXDIR
 10
1.0
 20
0.0
 30
0.0
  9
$UCSYDIR
 10
0.0
 20
1.0
 30
0.0
  9
$UCSORTHOREF
  2

  9
$UCSORTHOVIEW
 70
     0
  9
$UCSORGTOP
 10
0.0
 20
0.0
 30
0.0
  9
$UCSORGBOTTOM
 10
0.0
 20
0.0
 30
0.0
  9
$UCSORGLEFT
 10
0.0
 20
0.0
 30
0.0
  9
$UCSORGRIGHT
 10
0.0
 20
0.0
 30
0.0
  9
$UCSORGFRONT
 10
0.0
 20
0.0
 30
0.0
  9
$UCSORGBACK
 10
0.0
 20
0.0
 30
0.0
  9
$PUCSBASE
  2

  9
$PUCSNAME
  2

  9
$PUCSORG
 10
0.0
 20
0.0
 30
0.0
  9
$PUCSXDIR
 10
1.0
 20
0.0
 30
0.0
  9
$PUCSYDIR
 10
0.0
 20
1.0
 30
0.0
  9
$PUCSORTHOREF
  2

  9
$PUCSORTHOVIEW
 70
     0
  9
$PUCSORGTOP
 10
0.0
 20
0.0
 30
0.0
  9
$PUCSORGBOTTOM
 10
0.0
 20
0.0
 30
0.0
  9
$PUCSORGLEFT
 10
0.0
 20
0.0
 30
0.0
  9
$PUCSORGRIGHT
 10
0.0
 20
0.0
 30
0.0
  9
$PUCSORGFRONT
 10
0.0
 20
0.0
 30
0.0
  9
$PUCSORGBACK
 10
0.0
 20
0.0
 30
0.0
  9
$USERI1
 70
     0
  9
$USERI2
 70
     0
  9
$USERI3
 70
     0
  9
$USERI4
 70
     0
  9
$USERI5
 70
     0
  9
$USERR1
 40
0.0
  9
$USERR2
 40
0.0
  9
$USERR3
 40
0.0
  9
$USERR4
 40
0.0
  9
$USERR5
 40
0.0
  9
$WORLDVIEW
 70
     1
  9
$SHADEDGE
 70
     3
  9
$SHADEDIF
 70
    70
  9
$TILEMODE
 70
     1
  9
$MAXACTVP
 70
    64
  9
$PINSBASE
 10
0.0
 20
0.0
 30
0.0
  9
$PLIMCHECK
 70
     0
  9
$PEXTMIN
 10
0.0
 20
0.0
 30
0.0
  9
$PEXTMAX
 10
0.0
 20
0.0
 30
0.0
  9
$PLIMMIN
 10
0.0
 20
0.0
  9
$PLIMMAX
 10
12.0
 20
9.0
  9
$UNITMODE
 70
     0
  9
$VISRETAIN
 70
     1
  9
$PLINEGEN
 70
     0
  9
$PSLTSCALE
 70
     1
  9
$TREEDEPTH
 70
  3020
  9
$CMLSTYLE
  2
Standard
  9
$CMLJUST
 70
     0
  9
$CMLSCALE
 40
20.0
  9
$PROXYGRAPHICS
 70
     1
  9
$MEASUREMENT
 70
     1
  9
$CELWEIGHT
370
    -1
  9
$ENDCAPS
280
     0
  9
$JOINSTYLE
280
     0
  9
$LWDISPLAY
290
     0
  9
$INSUNITS
 70
     4
  9
$HYPERLINKBASE
  1

  9
$STYLESHEET
  1

  9
$XEDIT
290
     1
  9
$CEPSNTYPE
380
     0
  9
$PSTYLEMODE
290
     1
  9
$FINGERPRINTGUID
  2
{49BF49CA-CD97-49DF-80DC-750F870E04CC}
  9
$VERSIONGUID
  2
{0AA446D4-580A-478C-AD56-734E49C681F9}
  9
$EXTNAMES
290
     1
  9
$PSVPSCALE
 40
0.0
  9
$OLESTARTUP
290
     0
  0
ENDSEC
  0
SECTION
  2
CLASSES
  0
CLASS
  1
ACDBDICTIONARYWDFLT
  2
AcDbDictionaryWithDefault
  3
ObjectDBX Classes
 90
        0
280
     0
281
     0
  0
CLASS
  1
ACDBPLACEHOLDER
  2
AcDbPlaceHolder
  3
ObjectDBX Classes
 90
        0
280
     0
281
     0
  0
CLASS
  1
LAYOUT
  2
AcDbLayout
  3
ObjectDBX Classes
 90
        0
280
     0
281
     0
  0
CLASS
  1
DICTIONARYVAR
  2
AcDbDictionaryVar
  3
ObjectDBX Classes
 90
        0
280
     0
281
     0
  0
CLASS
  1
TABLESTYLE
  2
AcDbTableStyle
  3
ObjectDBX Classes
 90
     4095
280
     0
281
     0
  0
CLASS
  1
MATERIAL
  2
AcDbMaterial
  3
ObjectDBX Classes
 90
     1153
280
     0
281
     0
  0
CLASS
  1
VISUALSTYLE
  2
AcDbVisualStyle
  3
ObjectDBX Classes
 90
     4095
280
     0
281
     0
  0
CLASS
  1
SCALE
  2
AcDbScale
  3
ObjectDBX Classes
 90
     1153
280
     0
281
     0
  0
CLASS
  1
MLEADERSTYLE
  2
AcDbMLeaderStyle
  3
ACDB_MLEADERSTYLE_CLASS
 90
     4095
280
     0
281
     0
  0
CLASS
  1
CELLSTYLEMAP
  2
AcDbCellStyleMap
  3
ObjectDBX Classes
 90
     1152
280
     0
281
     0
  0
ENDSEC
  0
SECTION
  2
TABLES
  0
TABLE
  2
VPORT
  5
8
330
0
100
AcDbSymbolTable
 70
     1
  0
VPORT
  5
EA
330
8
100
AcDbSymbolTableRecord
100
AcDbViewportTableRecord
  2
*Active
 70
     0
 10
0.0
 20
0.0
 11
1.0
 21
1.0
 12
2272.207538908651
 22
1058.776331508977
 13
0.0
 23
0.0
 14
10.0
 24
10.0
 15
10.0
 25
10.0
 16
0.0
 26
0.0
 36
1.0
 17
0.0
 27
0.0
 37
0.0
 40
148.9463599169691
 41
1.903110047846889
 42
50.0
 43
0.0
 44
0.0
 50
0.0
 51
0.0
 71
     0
 72
  1000
 73
     1
 74
     3
 75
     0
 76
     0
 77
     0
 78
     0
281
     0
 65
     1
110
0.0
120
0.0
130
0.0
111
1.0
121
0.0
131
0.0
112
0.0
122
1.0
132
0.0
 79
     0
146
0.0
  0
ENDTAB
  0
TABLE
  2
LTYPE
  5
5
330
0
100
AcDbSymbolTable
 70
     1
  0
LTYPE
  5
14
330
5
100
AcDbSymbolTableRecord
100
AcDbLinetypeTableRecord
  2
ByBlock
 70
     0
  3

 72
    65
 73
     0
 40
0.0
  0
LTYPE
  5
15
330
5
100
AcDbSymbolTableRecord
100
AcDbLinetypeTableRecord
  2
ByLayer
 70
     0
  3

 72
    65
 73
     0
 40
0.0
  0
LTYPE
  5
16
330
5
100
AcDbSymbolTableRecord
100
AcDbLinetypeTableRecord
  2
Continuous
 70
     0
  3
Solid line
 72
    65
 73
     0
 40
0.0
  0
ENDTAB
  0
TABLE
  2
LAYER
  5
2
330
0
100
AcDbSymbolTable
 70
     1
  0
LAYER
  5
10
102
{ACAD_XDICTIONARY
360
13C
102
}
330
2
100
AcDbSymbolTableRecord
100
AcDbLayerTableRecord
  2
0
 70
     0
 62
     7
  6
Continuous
370
    -3
390
F
  0
ENDTAB
  0
TABLE
  2
STYLE
  5
3
330
0
100
AcDbSymbolTable
 70
     2
  0
STYLE
  5
11
330
3
100
AcDbSymbolTableRecord
100
AcDbTextStyleTableRecord
  2
Standard
 70
     0
 40
0.0
 41
1.0
 50
0.0
 71
     0
 42
2.5
  3
txt
  4

  0
STYLE
  5
132
330
3
100
AcDbSymbolTableRecord
100
AcDbTextStyleTableRecord
  2
Annotative
 70
     0
 40
0.0
 41
1.0
 50
0.0
 71
     0
 42
2.5
  3
txt.shx
  4

1001
AcadAnnotative
1000
AnnotativeData
1002
{
1070
     1
1070
     1
1002
}
  0
ENDTAB
  0
TABLE
  2
VIEW
  5
6
330
0
100
AcDbSymbolTable
 70
     0
  0
ENDTAB
  0
TABLE
  2
UCS
  5
7
330
0
100
AcDbSymbolTable
 70
     0
  0
ENDTAB
  0
TABLE
  2
APPID
  5
9
330
0
100
AcDbSymbolTable
 70
     7
  0
APPID
  5
12
330
9
100
AcDbSymbolTableRecord
100
AcDbRegAppTableRecord
  2
ACAD
 70
     0
  0
APPID
  5
9E
330
9
100
AcDbSymbolTableRecord
100
AcDbRegAppTableRecord
  2
ACAD_PSEXT
 70
     0
  0
APPID
  5
133
330
9
100
AcDbSymbolTableRecord
100
AcDbRegAppTableRecord
  2
AcadAnnoPO
 70
     0
  0
APPID
  5
134
330
9
100
AcDbSymbolTableRecord
100
AcDbRegAppTableRecord
  2
AcadAnnotative
 70
     0
  0
APPID
  5
135
330
9
100
AcDbSymbolTableRecord
100
AcDbRegAppTableRecord
  2
ACAD_DSTYLE_DIMJAG
 70
     0
  0
APPID
  5
136
330
9
100
AcDbSymbolTableRecord
100
AcDbRegAppTableRecord
  2
ACAD_DSTYLE_DIMTALN
 70
     0
  0
APPID
  5
165
330
9
100
AcDbSymbolTableRecord
100
AcDbRegAppTableRecord
  2
ACAD_MLEADERVER
 70
     0
  0
ENDTAB
  0
TABLE
  2
DIMSTYLE
  5
A
330
0
100
AcDbSymbolTable
 70
     2
100
AcDbDimStyleTable
 71
     2
340
27
340
137
  0
DIMSTYLE
105
27
330
A
100
AcDbSymbolTableRecord
100
AcDbDimStyleTableRecord
  2
ISO-25
 70
     0
 41
2.5
 42
0.625
 43
3.75
 44
1.25
 73
     0
 74
     0
 77
     1
 78
     8
140
2.5
141
2.5
143
0.03937007874016
147
0.625
171
     3
172
     1
271
     2
272
     2
274
     3
278
    44
283
     0
284
     8
340
11
  0
DIMSTYLE
105
137
330
A
100
AcDbSymbolTableRecord
100
AcDbDimStyleTableRecord
  2
Annotative
 70
     0
 40
0.0
 41
2.5
 42
0.625
 43
3.75
 44
1.25
 73
     0
 74
     0
 77
     1
 78
     8
140
2.5
141
2.5
143
0.03937007874016
147
0.625
171
     3
172
     1
271
     2
272
     2
274
     3
278
    44
283
     0
284
     8
340
11
1001
AcadAnnotative
1000
AnnotativeData
1002
{
1070
     1
1070
     1
1002
}
1001
ACAD_DSTYLE_DIMJAG
1070
   388
1040
1.5
1001
ACAD_DSTYLE_DIMTALN
1070
   392
1070
     0
  0
ENDTAB
  0
TABLE
  2
BLOCK_RECORD
  5
1
330
0
100
AcDbSymbolTable
 70
     5
  0
BLOCK_RECORD
  5
1F
330
1
100
AcDbSymbolTableRecord
100
AcDbBlockTableRecord
  2
*Model_Space
340
22
  0
BLOCK_RECORD
  5
D2
330
1
100
AcDbSymbolTableRecord
100
AcDbBlockTableRecord
  2
*Paper_Space
340
D3
  0
BLOCK_RECORD
  5
D6
330
1
100
AcDbSymbolTableRecord
100
AcDbBlockTableRecord
  2
*Paper_Space0
340
D7
  0
BLOCK_RECORD
  5
68F
330
1
100
AcDbSymbolTableRecord
100
AcDbBlockTableRecord
  2
1
340
0
310
2800000020000000200000000100080000000000000400000000000000000000000000000000000000000000000080000080000000808000800000008000800080800000C0C0C000C0DCC000F0CAA6000020400000206000002080000020A0000020C0000020E00000400000004020000040400000406000004080000040A0
310
000040C0000040E00000600000006020000060400000606000006080000060A0000060C0000060E00000800000008020000080400000806000008080000080A0000080C0000080E00000A0000000A0200000A0400000A0600000A0800000A0A00000A0C00000A0E00000C0000000C0200000C0400000C0600000C0800000C0
310
A00000C0C00000C0E00000E0000000E0200000E0400000E0600000E0800000E0A00000E0C00000E0E00040000000400020004000400040006000400080004000A0004000C0004000E00040200000402020004020400040206000402080004020A0004020C0004020E000404000004040200040404000404060004040800040
310
40A0004040C0004040E00040600000406020004060400040606000406080004060A0004060C0004060E00040800000408020004080400040806000408080004080A0004080C0004080E00040A0000040A0200040A0400040A0600040A0800040A0A00040A0C00040A0E00040C0000040C0200040C0400040C0600040C08000
310
40C0A00040C0C00040C0E00040E0000040E0200040E0400040E0600040E0800040E0A00040E0C00040E0E00080000000800020008000400080006000800080008000A0008000C0008000E00080200000802020008020400080206000802080008020A0008020C0008020E00080400000804020008040400080406000804080
310
008040A0008040C0008040E00080600000806020008060400080606000806080008060A0008060C0008060E00080800000808020008080400080806000808080008080A0008080C0008080E00080A0000080A0200080A0400080A0600080A0800080A0A00080A0C00080A0E00080C0000080C0200080C0400080C0600080C0
310
800080C0A00080C0C00080C0E00080E0000080E0200080E0400080E0600080E0800080E0A00080E0C00080E0E000C0000000C0002000C0004000C0006000C0008000C000A000C000C000C000E000C0200000C0202000C0204000C0206000C0208000C020A000C020C000C020E000C0400000C0402000C0404000C0406000C0
310
408000C040A000C040C000C040E000C0600000C0602000C0604000C0606000C0608000C060A000C060C000C060E000C0800000C0802000C0804000C0806000C0808000C080A000C080C000C080E000C0A00000C0A02000C0A04000C0A06000C0A08000C0A0A000C0A0C000C0A0E000C0C00000C0C02000C0C04000C0C06000
310
C0C08000C0C0A000F0FBFF00A4A0A000808080000000FF0000FF000000FFFF00FF000000FF00FF00FFFF0000FFFFFF0000000000000000000000000000000000000000000000000000000000000000000000000000000000000000000000000000000000000000000000000000000000000000000000000000000000000000
310
00000000000000000000000000000000000000000000000000000000000000000000000000000000000000000000000000000000000000000000000000000000000000000000000000000000000000000000000000000000000000000000000000000000000000000000000000000000000000000000000000000000000000
310
00000000000000000000000000000000000000000000000000000000000000000000000000000000000000000000000000000000000000000000000000000000000000000000000000000000000000000000000000000000000000000000000000000000000000000000000000000000000000000000000000000000000000
310
00000000000000000000000000000000000000000000000000000000000000000000000000000000000000000000000000000000000000000000000000000000000000000000000000000000000000000000000000FFFFFF00FFFF00FFFFFF00FFFF0000FFFF00FFFFFF00FFFF00FFFFFF00000000FF00FF00FFFF00FF00FF
310
00FFFF0000FFFF00FF00FF00FFFF00FF00FF00000000FF00FF00FFFF00FF00FF00FFFF0000FFFF00FF00FF00FFFF00FF00FF000000FFFFFFFFFFFFFFFFFFFFFFFFFFFFFFFFFFFFFFFFFFFFFFFFFFFFFFFFFFFF0000FFFFFFFFFFFFFFFFFFFFFFFFFFFFFFFFFFFFFFFFFFFFFFFFFFFFFFFFFFFF000000FFFFFF00FFFF00FFFF
310
FF00FFFFFFFFFFFF00FFFFFF00FFFF00FFFFFF000000000000000000000000000000000000000000000000000000000000000000000000000000000000000000000000000000000000000000000000000000000000000000000000000000000000000000000000000000000000000000000000000000000000000000000000
310
00000000000000000000000000000000000000000000000000000000000000000000000000000000000000000000000000000000000000000000000000000000000000000000000000000000000000000000000000000000000000000000000000000000000000000000000000000000000000000000000000000000000000
310
00000000000000000000000000000000000000000000000000000000000000000000000000000000000000000000000000000000000000000000000000000000000000000000000000000000000000000000000000000000000000000000000000000000000000000000000000000000000000000000000000000000000000
310
0000000000000000000000000000000000000000000000000000000000000000000000000000000000000000000000000000000000000000
102
{BLKREFS
331
756
102
}
1001
ACAD
1000
DesignCenter Data
1002
{
1070
     1
1070
     4
1002
}
  0
BLOCK_RECORD
  5
757
330
1
100
AcDbSymbolTableRecord
100
AcDbBlockTableRecord
  2
2
340
0
310
2800000020000000200000000100080000000000000400000000000000000000000000000000000000000000000080000080000000808000800000008000800080800000C0C0C000C0DCC000F0CAA6000020400000206000002080000020A0000020C0000020E00000400000004020000040400000406000004080000040A0
310
000040C0000040E00000600000006020000060400000606000006080000060A0000060C0000060E00000800000008020000080400000806000008080000080A0000080C0000080E00000A0000000A0200000A0400000A0600000A0800000A0A00000A0C00000A0E00000C0000000C0200000C0400000C0600000C0800000C0
310
A00000C0C00000C0E00000E0000000E0200000E0400000E0600000E0800000E0A00000E0C00000E0E00040000000400020004000400040006000400080004000A0004000C0004000E00040200000402020004020400040206000402080004020A0004020C0004020E000404000004040200040404000404060004040800040
310
40A0004040C0004040E00040600000406020004060400040606000406080004060A0004060C0004060E00040800000408020004080400040806000408080004080A0004080C0004080E00040A0000040A0200040A0400040A0600040A0800040A0A00040A0C00040A0E00040C0000040C0200040C0400040C0600040C08000
310
40C0A00040C0C00040C0E00040E0000040E0200040E0400040E0600040E0800040E0A00040E0C00040E0E00080000000800020008000400080006000800080008000A0008000C0008000E00080200000802020008020400080206000802080008020A0008020C0008020E00080400000804020008040400080406000804080
310
008040A0008040C0008040E00080600000806020008060400080606000806080008060A0008060C0008060E00080800000808020008080400080806000808080008080A0008080C0008080E00080A0000080A0200080A0400080A0600080A0800080A0A00080A0C00080A0E00080C0000080C0200080C0400080C0600080C0
310
800080C0A00080C0C00080C0E00080E0000080E0200080E0400080E0600080E0800080E0A00080E0C00080E0E000C0000000C0002000C0004000C0006000C0008000C000A000C000C000C000E000C0200000C0202000C0204000C0206000C0208000C020A000C020C000C020E000C0400000C0402000C0404000C0406000C0
310
408000C040A000C040C000C040E000C0600000C0602000C0604000C0606000C0608000C060A000C060C000C060E000C0800000C0802000C0804000C0806000C0808000C080A000C080C000C080E000C0A00000C0A02000C0A04000C0A06000C0A08000C0A0A000C0A0C000C0A0E000C0C00000C0C02000C0C04000C0C06000
310
C0C08000C0C0A000F0FBFF00A4A0A000808080000000FF0000FF000000FFFF00FF000000FF00FF00FFFF0000FFFFFF0000000000000000000000000000000000000000000000000000000000000000000000000000000000000000000000000000000000000000000000000000000000000000000000000000000000000000
310
00000000000000000000000000000000000000000000000000000000000000000000000000000000000000000000000000000000000000000000000000000000000000000000000000000000000000000000000000000000000000000000000000000000000000000000000000000000000000000000000000000000000000
310
00000000000000000000000000000000000000000000000000000000000000000000000000000000000000000000000000000000000000000000000000000000000000000000000000000000000000000000000000000000000000000000000000000000000000000000000000000000000000000000000000000000000000
310
00000000000000000000000000000000000000000000000000000000000000000000000000000000000000000000000000000000000000000000000000000000000000000000000000000000000000000000000000000000000000000000000000000000000000000000000000000000000000000000000000000000000000
310
000000000000000000000000000000000000000000FFFFFFFFFFFFFFFFFFFFFFFFFFFFFFFFFFFFFFFFFFFFFFFFFFFFFFFFFFFF0000FFFFFFFFFFFFFFFFFFFFFFFFFFFFFFFFFFFFFFFFFFFFFFFFFFFFFFFFFFFF0000000000000000000000000000000000000000000000000000000000000000000000000000000000000000
310
00000000000000000000000000000000000000000000000000000000000000000000000000000000000000000000000000000000000000000000000000000000000000000000000000000000000000000000000000000000000000000000000000000000000000000000000000000000000000000000000000000000000000
310
00000000000000000000000000000000000000000000000000000000000000000000000000000000000000000000000000000000000000000000000000000000000000000000000000000000000000000000000000000000000000000000000000000000000000000000000000000000000000000000000000000000000000
310
00000000000000000000000000000000000000000000000000000000000000000000000000000000000000000000000000000000000000000000000000000000000000000000000000000000000000000000000000000000000000000000000000000000000000000000000000000000000000000000000000000000000000
310
0000000000000000000000000000000000000000000000000000000000000000000000000000000000000000000000000000000000000000
102
{BLKREFS
331
806
102
}
1001
ACAD
1000
DesignCenter Data
1002
{
1070
     1
1070
     4
1002
}
  0
BLOCK_RECORD
  5
807
330
1
100
AcDbSymbolTableRecord
100
AcDbBlockTableRecord
  2
3
340
0
310
2800000020000000200000000100080000000000000400000000000000000000000000000000000000000000000080000080000000808000800000008000800080800000C0C0C000C0DCC000F0CAA6000020400000206000002080000020A0000020C0000020E00000400000004020000040400000406000004080000040A0
310
000040C0000040E00000600000006020000060400000606000006080000060A0000060C0000060E00000800000008020000080400000806000008080000080A0000080C0000080E00000A0000000A0200000A0400000A0600000A0800000A0A00000A0C00000A0E00000C0000000C0200000C0400000C0600000C0800000C0
310
A00000C0C00000C0E00000E0000000E0200000E0400000E0600000E0800000E0A00000E0C00000E0E00040000000400020004000400040006000400080004000A0004000C0004000E00040200000402020004020400040206000402080004020A0004020C0004020E000404000004040200040404000404060004040800040
310
40A0004040C0004040E00040600000406020004060400040606000406080004060A0004060C0004060E00040800000408020004080400040806000408080004080A0004080C0004080E00040A0000040A0200040A0400040A0600040A0800040A0A00040A0C00040A0E00040C0000040C0200040C0400040C0600040C08000
310
40C0A00040C0C00040C0E00040E0000040E0200040E0400040E0600040E0800040E0A00040E0C00040E0E00080000000800020008000400080006000800080008000A0008000C0008000E00080200000802020008020400080206000802080008020A0008020C0008020E00080400000804020008040400080406000804080
310
008040A0008040C0008040E00080600000806020008060400080606000806080008060A0008060C0008060E00080800000808020008080400080806000808080008080A0008080C0008080E00080A0000080A0200080A0400080A0600080A0800080A0A00080A0C00080A0E00080C0000080C0200080C0400080C0600080C0
310
800080C0A00080C0C00080C0E00080E0000080E0200080E0400080E0600080E0800080E0A00080E0C00080E0E000C0000000C0002000C0004000C0006000C0008000C000A000C000C000C000E000C0200000C0202000C0204000C0206000C0208000C020A000C020C000C020E000C0400000C0402000C0404000C0406000C0
310
408000C040A000C040C000C040E000C0600000C0602000C0604000C0606000C0608000C060A000C060C000C060E000C0800000C0802000C0804000C0806000C0808000C080A000C080C000C080E000C0A00000C0A02000C0A04000C0A06000C0A08000C0A0A000C0A0C000C0A0E000C0C00000C0C02000C0C04000C0C06000
310
C0C08000C0C0A000F0FBFF00A4A0A000808080000000FF0000FF000000FFFF00FF000000FF00FF00FFFF0000FFFFFF000000000000000000000000000000000000000000000000000000000000000000000000000000000000000000FFFFFFFFFFFFFFFF000000000000000000000000000000000000000000000000FFFFFF
310
FFFFFFFFFF000000000000000000000000000000000000000000000000FF000000000000FF000000000000000000000000000000000000000000000000FF000000000000FF000000000000000000000000000000000000000000000000FF000000000000FF000000000000000000000000000000000000000000000000FF00
310
0000000000FF000000000000000000000000000000000000000000000000FF000000000000FF000000000000000000000000000000000000000000000000FF000000000000FF000000000000000000000000000000000000000000000000FF000000000000FF000000000000000000000000000000000000000000000000FF
310
000000000000FF000000000000000000000000000000000000000000000000FF000000000000FF000000000000000000000000000000000000000000000000FF000000000000FF000000000000000000000000000000000000000000000000FF000000000000FF000000000000000000000000000000000000000000000000
310
FF000000000000FF000000000000000000000000000000000000000000000000FF000000000000FF0000000000000000000000000000000000000000000000FFFFFFFFFFFFFFFFFFFF00000000000000000000000000000000000000000000FF0000000000000000FF00000000000000000000000000000000000000000000
310
FF0000000000000000FF00000000000000000000000000000000000000000000FF0000000000000000FF00000000000000000000000000000000000000000000FF0000000000000000FF00000000000000000000000000000000000000000000FFFFFFFFFFFFFFFFFFFF000000000000000000000000000000000000000000
310
00FFFFFFFFFFFFFFFFFFFF00000000000000000000000000000000000000000000FFA4A4A4A4A4A4A4A4FF00000000000000000000000000000000000000000000FF0000000000000000FF00000000000000000000000000000000000000000000FF0000000000000000FF0000000000000000000000000000000000000000
310
0000FF0000000000000000FF00000000000000000000000000000000000000000000FF0000000000000000FF00000000000000000000000000000000000000000000FF0000000000000000FF00000000000000000000000000000000000000000000FF0000000000000000FF00000000000000000000000000000000000000
310
000000FFFFFFFFFFFFFFFFFFFF00000000000000000000000000000000000000000000000000000000000000000000000000000000000000
102
{BLKREFS
331
82A
102
}
1001
ACAD
1000
DesignCenter Data
1002
{
1070
     1
1070
     4
1002
}
  0
BLOCK_RECORD
  5
82B
330
1
100
AcDbSymbolTableRecord
100
AcDbBlockTableRecord
  2
4
340
0
310
2800000020000000200000000100080000000000000400000000000000000000000000000000000000000000000080000080000000808000800000008000800080800000C0C0C000C0DCC000F0CAA6000020400000206000002080000020A0000020C0000020E00000400000004020000040400000406000004080000040A0
310
000040C0000040E00000600000006020000060400000606000006080000060A0000060C0000060E00000800000008020000080400000806000008080000080A0000080C0000080E00000A0000000A0200000A0400000A0600000A0800000A0A00000A0C00000A0E00000C0000000C0200000C0400000C0600000C0800000C0
310
A00000C0C00000C0E00000E0000000E0200000E0400000E0600000E0800000E0A00000E0C00000E0E00040000000400020004000400040006000400080004000A0004000C0004000E00040200000402020004020400040206000402080004020A0004020C0004020E000404000004040200040404000404060004040800040
310
40A0004040C0004040E00040600000406020004060400040606000406080004060A0004060C0004060E00040800000408020004080400040806000408080004080A0004080C0004080E00040A0000040A0200040A0400040A0600040A0800040A0A00040A0C00040A0E00040C0000040C0200040C0400040C0600040C08000
310
40C0A00040C0C00040C0E00040E0000040E0200040E0400040E0600040E0800040E0A00040E0C00040E0E00080000000800020008000400080006000800080008000A0008000C0008000E00080200000802020008020400080206000802080008020A0008020C0008020E00080400000804020008040400080406000804080
310
008040A0008040C0008040E00080600000806020008060400080606000806080008060A0008060C0008060E00080800000808020008080400080806000808080008080A0008080C0008080E00080A0000080A0200080A0400080A0600080A0800080A0A00080A0C00080A0E00080C0000080C0200080C0400080C0600080C0
310
800080C0A00080C0C00080C0E00080E0000080E0200080E0400080E0600080E0800080E0A00080E0C00080E0E000C0000000C0002000C0004000C0006000C0008000C000A000C000C000C000E000C0200000C0202000C0204000C0206000C0208000C020A000C020C000C020E000C0400000C0402000C0404000C0406000C0
310
408000C040A000C040C000C040E000C0600000C0602000C0604000C0606000C0608000C060A000C060C000C060E000C0800000C0802000C0804000C0806000C0808000C080A000C080C000C080E000C0A00000C0A02000C0A04000C0A06000C0A08000C0A0A000C0A0C000C0A0E000C0C00000C0C02000C0C04000C0C06000
310
C0C08000C0C0A000F0FBFF00A4A0A000808080000000FF0000FF000000FFFF00FF000000FF00FF00FFFF0000FFFFFF0000000000000000000000000000000000000000000000000000000000000000000000000000000000000000000000000000000000000000000000000000000000000000000000000000000000000000
310
00000000000000000000000000000000000000000000000000000000000000000000000000000000000000000000000000000000000000000000000000000000000000000000000000000000000000000000000000000000000000000000000000000000000000000000000000000000000000000000000000000000000000
310
000000000000000000000000000000000000000000000000000000000000000000000000000000000000000000FFFF0000000000000000000000000000000000000000000000000000FFFFFF00FFFF0000000000000000000000000000000000000000000000000000FF00FF00FFFF00000000000000000000000000000000
310
00000000000000FFFFFFFF00FFFFFFFFFFFF000000000000000000000000000000000000FFFF00FF00FFFFFFFFFFFFFFFFFF0000000000000000000000000000000000FFFFFF00FFFFFFFFFFFF00FFFFFF000000000000000000000000000000FFFFFFFF00FFFFFFFF00FFFFFFFFFFFFFF0000000000000000000000000000
310
00FF00FFFFFFFFFFFFFFFFFFFFFF000000000000000000000000000000FFFFFF00FF00FFFFFFFF00FFFFFFFFFFFF000000000000000000000000FFFFFFFF00FFFFFFFFFFFFFFFFFFFFFFFF000000000000000000000000000000FF00FFFFFFFFFFFFFFFFFFFFFF000000000000000000000000000000FFFFFF00FF00FFFFFF
310
FF00FF00FFFFFFFF000000000000000000000000000000FF00FF00FFFFFFFFFFFFFFFFFFFF000000000000000000000000000000000000FF00FFFFFFFFFFFFFFFF00FFFF000000000000000000000000000000000000FFFFFFFFFFFF00FFFFFFFF000000000000000000000000000000000000000000FFFFFFFFFFFFFFFF00
310
000000000000000000000000000000000000000000000000FFFFFFFFFFFFFF00000000000000000000000000000000000000000000000000FFFFFFFF00000000000000000000000000000000000000000000000000000000000000000000000000000000000000000000000000000000000000000000000000000000000000
310
00000000000000000000000000000000000000000000000000000000000000000000000000000000000000000000000000000000000000000000000000000000000000000000000000000000000000000000000000000000000000000000000000000000000000000000000000000000000000000000000000000000000000
310
0000000000000000000000000000000000000000000000000000000000000000000000000000000000000000000000000000000000000000
102
{BLKREFS
331
90D
102
}
1001
ACAD
1000
DesignCenter Data
1002
{
1070
     1
1070
     4
1002
}
  0
ENDTAB
  0
ENDSEC
  0
SECTION
  2
BLOCKS
  0
BLOCK
  5
20
330
1F
100
AcDbEntity
  8
0
100
AcDbBlockBegin
  2
*Model_Space
 70
     0
 10
0.0
 20
0.0
 30
0.0
  3
*Model_Space
  1

  0
ENDBLK
  5
21
330
1F
100
AcDbEntity
  8
0
100
AcDbBlockEnd
  0
BLOCK
  5
D4
330
D2
100
AcDbEntity
 67
     1
  8
0
100
AcDbBlockBegin
  2
*Paper_Space
 70
     0
 10
0.0
 20
0.0
 30
0.0
  3
*Paper_Space
  1

  0
ENDBLK
  5
D5
330
D2
100
AcDbEntity
 67
     1
  8
0
100
AcDbBlockEnd
  0
BLOCK
  5
D8
330
D6
100
AcDbEntity
 67
     1
  8
0
100
AcDbBlockBegin
  2
*Paper_Space0
 70
     0
 10
0.0
 20
0.0
 30
0.0
  3
*Paper_Space0
  1

  0
ENDBLK
  5
D9
330
D6
100
AcDbEntity
 67
     1
  8
0
100
AcDbBlockEnd
  0
BLOCK
  5
690
330
68F
100
AcDbEntity
  8
0
100
AcDbBlockBegin
  2
1
 70
     0
 10
0.0
 20
0.0
 30
0.0
  3
1
  1

  0
ARC
  5
692
330
68F
100
AcDbEntity
  8
0
  6
Continuous
 62
     7
370
    15
100
AcDbCircle
 10
2164.495482510799
 20
1074.551800541214
 30
0.0
 40
0.200000000000017
100
AcDbArc
 50
180.0
 51
270.0
  0
ARC
  5
693
330
68F
100
AcDbEntity
  8
0
  6
Continuous
 62
     7
370
    15
100
AcDbCircle
 10
2170.945482510798
 20
1074.551800541214
 30
0.0
 40
0.1999999999999886
100
AcDbArc
 50
270.0
 51
0.0
  0
ARC
  5
694
330
68F
100
AcDbEntity
  8
0
  6
Continuous
 62
     7
370
    15
100
AcDbCircle
 10
2179.495482510801
 20
1074.551800541214
 30
0.0
 40
0.200000000000017
100
AcDbArc
 50
180.0
 51
270.0
  0
ARC
  5
695
330
68F
100
AcDbEntity
  8
0
  6
Continuous
 62
     7
370
    15
100
AcDbCircle
 10
2185.945482510801
 20
1074.551800541214
 30
0.0
 40
0.1999999999999886
100
AcDbArc
 50
270.0
 51
0.0
  0
ARC
  5
696
330
68F
100
AcDbEntity
  8
0
  6
Continuous
 62
     7
370
    15
100
AcDbCircle
 10
2194.4954825108
 20
1074.551800541214
 30
0.0
 40
0.200000000000017
100
AcDbArc
 50
180.0
 51
270.0
  0
ARC
  5
697
330
68F
100
AcDbEntity
  8
0
  6
Continuous
 62
     7
370
    15
100
AcDbCircle
 10
2200.945482510801
 20
1074.551800541214
 30
0.0
 40
0.200000000000017
100
AcDbArc
 50
270.0
 51
0.0
  0
ARC
  5
698
330
68F
100
AcDbEntity
  8
0
  6
Continuous
 62
     7
370
    15
100
AcDbCircle
 10
2209.495482510801
 20
1074.551800541214
 30
0.0
 40
0.200000000000017
100
AcDbArc
 50
180.0
 51
270.0
  0
ARC
  5
699
330
68F
100
AcDbEntity
  8
0
  6
Continuous
 62
     7
370
    15
100
AcDbCircle
 10
2215.945482510801
 20
1074.551800541214
 30
0.0
 40
0.1999999999999886
100
AcDbArc
 50
270.0
 51
0.0
  0
ARC
  5
69A
330
68F
100
AcDbEntity
  8
0
  6
Continuous
 62
     7
370
    15
100
AcDbCircle
 10
2224.495482510801
 20
1074.551800541214
 30
0.0
 40
0.1999999999999886
100
AcDbArc
 50
180.0
 51
270.0
  0
ARC
  5
69B
330
68F
100
AcDbEntity
  8
0
  6
Continuous
 62
     7
370
    15
100
AcDbCircle
 10
2230.945482510801
 20
1074.551800541214
 30
0.0
 40
0.1999999999999886
100
AcDbArc
 50
270.0
 51
0.0
  0
ARC
  5
69C
330
68F
100
AcDbEntity
  8
0
  6
Continuous
 62
     7
370
    15
100
AcDbCircle
 10
2239.495482510801
 20
1074.551800541214
 30
0.0
 40
0.2000000000000455
100
AcDbArc
 50
180.0
 51
270.0
  0
ARC
  5
69D
330
68F
100
AcDbEntity
  8
0
  6
Continuous
 62
     7
370
    15
100
AcDbCircle
 10
2245.9454825108
 20
1074.551800541214
 30
0.0
 40
0.1999999999999886
100
AcDbArc
 50
270.0
 51
0.0
  0
ARC
  5
69E
330
68F
100
AcDbEntity
  8
0
  6
Continuous
 62
     7
370
    15
100
AcDbCircle
 10
2254.495482510801
 20
1074.551800541214
 30
0.0
 40
0.2000000000000455
100
AcDbArc
 50
180.0
 51
270.0
  0
ARC
  5
69F
330
68F
100
AcDbEntity
  8
0
  6
Continuous
 62
     7
370
    15
100
AcDbCircle
 10
2260.945482510801
 20
1074.551800541214
 30
0.0
 40
0.1999999999999886
100
AcDbArc
 50
270.0
 51
0.0
  0
ARC
  5
6A0
330
68F
100
AcDbEntity
  8
0
  6
Continuous
 62
     7
370
    15
100
AcDbCircle
 10
2269.495482510801
 20
1074.551800541214
 30
0.0
 40
0.1999999999999886
100
AcDbArc
 50
180.0
 51
270.0
  0
ARC
  5
6A1
330
68F
100
AcDbEntity
  8
0
  6
Continuous
 62
     7
370
    15
100
AcDbCircle
 10
2275.945482510801
 20
1074.551800541214
 30
0.0
 40
0.2000000000000455
100
AcDbArc
 50
270.0
 51
0.0
  0
LINE
  5
6A2
330
68F
100
AcDbEntity
  8
0
  6
Continuous
 62
     7
370
    15
100
AcDbLine
 10
2171.145482510799
 20
1074.551800541214
 30
0.0
 11
2171.145482510799
 21
1079.751800541214
 31
0.0
  0
LINE
  5
6A3
330
68F
100
AcDbEntity
  8
0
  6
Continuous
 62
     7
370
    15
100
AcDbLine
 10
2164.295482510799
 20
1079.751800541214
 30
0.0
 11
2164.295482510799
 21
1074.551800541214
 31
0.0
  0
LINE
  5
6A4
330
68F
100
AcDbEntity
  8
0
  6
Continuous
 62
     7
370
    15
100
AcDbLine
 10
2186.1454825108
 20
1074.551800541214
 30
0.0
 11
2186.1454825108
 21
1079.751800541214
 31
0.0
  0
LINE
  5
6A5
330
68F
100
AcDbEntity
  8
0
  6
Continuous
 62
     7
370
    15
100
AcDbLine
 10
2179.2954825108
 20
1079.751800541214
 30
0.0
 11
2179.2954825108
 21
1074.551800541214
 31
0.0
  0
LINE
  5
6A6
330
68F
100
AcDbEntity
  8
0
  6
Continuous
 62
     7
370
    15
100
AcDbLine
 10
2201.145482510801
 20
1074.551800541214
 30
0.0
 11
2201.145482510801
 21
1079.751800541214
 31
0.0
  0
LINE
  5
6A7
330
68F
100
AcDbEntity
  8
0
  6
Continuous
 62
     7
370
    15
100
AcDbLine
 10
2194.2954825108
 20
1079.751800541214
 30
0.0
 11
2194.2954825108
 21
1074.551800541214
 31
0.0
  0
LINE
  5
6A8
330
68F
100
AcDbEntity
  8
0
  6
Continuous
 62
     7
370
    15
100
AcDbLine
 10
2216.1454825108
 20
1074.551800541214
 30
0.0
 11
2216.1454825108
 21
1079.751800541214
 31
0.0
  0
LINE
  5
6A9
330
68F
100
AcDbEntity
  8
0
  6
Continuous
 62
     7
370
    15
100
AcDbLine
 10
2209.295482510801
 20
1079.751800541214
 30
0.0
 11
2209.295482510801
 21
1074.551800541214
 31
0.0
  0
LINE
  5
6AA
330
68F
100
AcDbEntity
  8
0
  6
Continuous
 62
     7
370
    15
100
AcDbLine
 10
2231.1454825108
 20
1074.551800541214
 30
0.0
 11
2231.1454825108
 21
1079.751800541214
 31
0.0
  0
LINE
  5
6AB
330
68F
100
AcDbEntity
  8
0
  6
Continuous
 62
     7
370
    15
100
AcDbLine
 10
2224.2954825108
 20
1079.751800541214
 30
0.0
 11
2224.2954825108
 21
1074.551800541214
 31
0.0
  0
LINE
  5
6AC
330
68F
100
AcDbEntity
  8
0
  6
Continuous
 62
     7
370
    15
100
AcDbLine
 10
2246.1454825108
 20
1074.551800541214
 30
0.0
 11
2246.1454825108
 21
1079.751800541214
 31
0.0
  0
LINE
  5
6AD
330
68F
100
AcDbEntity
  8
0
  6
Continuous
 62
     7
370
    15
100
AcDbLine
 10
2239.2954825108
 20
1079.751800541214
 30
0.0
 11
2239.2954825108
 21
1074.551800541214
 31
0.0
  0
LINE
  5
6AE
330
68F
100
AcDbEntity
  8
0
  6
Continuous
 62
     7
370
    15
100
AcDbLine
 10
2261.145482510801
 20
1074.551800541214
 30
0.0
 11
2261.145482510801
 21
1079.751800541214
 31
0.0
  0
LINE
  5
6AF
330
68F
100
AcDbEntity
  8
0
  6
Continuous
 62
     7
370
    15
100
AcDbLine
 10
2254.295482510801
 20
1079.751800541214
 30
0.0
 11
2254.295482510801
 21
1074.551800541214
 31
0.0
  0
LINE
  5
6B0
330
68F
100
AcDbEntity
  8
0
  6
Continuous
 62
     7
370
    15
100
AcDbLine
 10
2276.1454825108
 20
1074.551800541214
 30
0.0
 11
2276.1454825108
 21
1079.751800541214
 31
0.0
  0
LINE
  5
6B1
330
68F
100
AcDbEntity
  8
0
  6
Continuous
 62
     7
370
    15
100
AcDbLine
 10
2269.2954825108
 20
1079.751800541214
 30
0.0
 11
2269.2954825108
 21
1074.551800541214
 31
0.0
  0
LINE
  5
6B2
330
68F
100
AcDbEntity
  8
0
  6
Continuous
 62
     7
370
    15
100
AcDbLine
 10
2170.718804904259
 20
1069.45180054125
 30
0.0
 11
2170.618804904221
 21
1069.551800541232
 31
0.0
  0
LINE
  5
6B3
330
68F
100
AcDbEntity
  8
0
  6
Continuous
 62
     7
370
    15
100
AcDbLine
 10
2164.818804904199
 20
1069.551800541232
 30
0.0
 11
2164.718804904161
 21
1069.45180054125
 31
0.0
  0
LINE
  5
6B4
330
68F
100
AcDbEntity
  8
0
  6
Continuous
 62
     7
370
    15
100
AcDbLine
 10
2170.71880490421
 20
1058.751800541214
 30
0.0
 11
2170.71880490421
 21
1069.45180054125
 31
0.0
  0
LINE
  5
6B5
330
68F
100
AcDbEntity
  8
0
  6
Continuous
 62
     7
370
    15
100
AcDbLine
 10
2164.71880490421
 20
1069.45180054125
 30
0.0
 11
2164.71880490421
 21
1058.751800541214
 31
0.0
  0
LINE
  5
6B6
330
68F
100
AcDbEntity
  8
0
  6
Continuous
 62
     7
370
    15
100
AcDbLine
 10
2185.722160117439
 20
1069.45180054125
 30
0.0
 11
2185.622160117401
 21
1069.551800541232
 31
0.0
  0
LINE
  5
6B7
330
68F
100
AcDbEntity
  8
0
  6
Continuous
 62
     7
370
    15
100
AcDbLine
 10
2179.822160117379
 20
1069.551800541232
 30
0.0
 11
2179.722160117341
 21
1069.45180054125
 31
0.0
  0
LINE
  5
6B8
330
68F
100
AcDbEntity
  8
0
  6
Continuous
 62
     7
370
    15
100
AcDbLine
 10
2185.72216011739
 20
1058.751800541214
 30
0.0
 11
2185.72216011739
 21
1069.45180054125
 31
0.0
  0
LINE
  5
6B9
330
68F
100
AcDbEntity
  8
0
  6
Continuous
 62
     7
370
    15
100
AcDbLine
 10
2179.72216011739
 20
1069.45180054125
 30
0.0
 11
2179.72216011739
 21
1058.751800541214
 31
0.0
  0
LINE
  5
6BA
330
68F
100
AcDbEntity
  8
0
  6
Continuous
 62
     7
370
    15
100
AcDbLine
 10
2200.722160117439
 20
1069.45180054125
 30
0.0
 11
2200.622160117401
 21
1069.551800541232
 31
0.0
  0
LINE
  5
6BB
330
68F
100
AcDbEntity
  8
0
  6
Continuous
 62
     7
370
    15
100
AcDbLine
 10
2194.822160117379
 20
1069.551800541232
 30
0.0
 11
2194.722160117341
 21
1069.45180054125
 31
0.0
  0
LINE
  5
6BC
330
68F
100
AcDbEntity
  8
0
  6
Continuous
 62
     7
370
    15
100
AcDbLine
 10
2200.72216011739
 20
1058.751800541214
 30
0.0
 11
2200.72216011739
 21
1069.45180054125
 31
0.0
  0
LINE
  5
6BD
330
68F
100
AcDbEntity
  8
0
  6
Continuous
 62
     7
370
    15
100
AcDbLine
 10
2194.72216011739
 20
1069.45180054125
 30
0.0
 11
2194.72216011739
 21
1058.751800541214
 31
0.0
  0
LINE
  5
6BE
330
68F
100
AcDbEntity
  8
0
  6
Continuous
 62
     7
370
    15
100
AcDbLine
 10
2215.72216011739
 20
1058.751800541214
 30
0.0
 11
2215.72216011739
 21
1069.45180054125
 31
0.0
  0
LINE
  5
6BF
330
68F
100
AcDbEntity
  8
0
  6
Continuous
 62
     7
370
    15
100
AcDbLine
 10
2209.72216011739
 20
1069.45180054125
 30
0.0
 11
2209.72216011739
 21
1058.751800541214
 31
0.0
  0
LINE
  5
6C0
330
68F
100
AcDbEntity
  8
0
  6
Continuous
 62
     7
370
    15
100
AcDbLine
 10
2215.722160117439
 20
1069.45180054125
 30
0.0
 11
2215.622160117401
 21
1069.551800541232
 31
0.0
  0
LINE
  5
6C1
330
68F
100
AcDbEntity
  8
0
  6
Continuous
 62
     7
370
    15
100
AcDbLine
 10
2209.822160117379
 20
1069.551800541232
 30
0.0
 11
2209.72216011734
 21
1069.45180054125
 31
0.0
  0
LINE
  5
6C2
330
68F
100
AcDbEntity
  8
0
  6
Continuous
 62
     7
370
    15
100
AcDbLine
 10
2230.72216011739
 20
1058.751800541214
 30
0.0
 11
2230.72216011739
 21
1069.45180054125
 31
0.0
  0
LINE
  5
6C3
330
68F
100
AcDbEntity
  8
0
  6
Continuous
 62
     7
370
    15
100
AcDbLine
 10
2224.72216011739
 20
1069.45180054125
 30
0.0
 11
2224.72216011739
 21
1058.751800541214
 31
0.0
  0
LINE
  5
6C4
330
68F
100
AcDbEntity
  8
0
  6
Continuous
 62
     7
370
    15
100
AcDbLine
 10
2230.722160117439
 20
1069.45180054125
 30
0.0
 11
2230.6221601174
 21
1069.551800541232
 31
0.0
  0
LINE
  5
6C5
330
68F
100
AcDbEntity
  8
0
  6
Continuous
 62
     7
370
    15
100
AcDbLine
 10
2224.822160117378
 20
1069.551800541232
 30
0.0
 11
2224.722160117341
 21
1069.45180054125
 31
0.0
  0
LINE
  5
6C6
330
68F
100
AcDbEntity
  8
0
  6
Continuous
 62
     7
370
    15
100
AcDbLine
 10
2245.72216011739
 20
1058.751800541214
 30
0.0
 11
2245.72216011739
 21
1069.45180054125
 31
0.0
  0
LINE
  5
6C7
330
68F
100
AcDbEntity
  8
0
  6
Continuous
 62
     7
370
    15
100
AcDbLine
 10
2239.72216011739
 20
1069.45180054125
 30
0.0
 11
2239.72216011739
 21
1058.751800541214
 31
0.0
  0
LINE
  5
6C8
330
68F
100
AcDbEntity
  8
0
  6
Continuous
 62
     7
370
    15
100
AcDbLine
 10
2245.722160117439
 20
1069.45180054125
 30
0.0
 11
2245.622160117401
 21
1069.551800541232
 31
0.0
  0
LINE
  5
6C9
330
68F
100
AcDbEntity
  8
0
  6
Continuous
 62
     7
370
    15
100
AcDbLine
 10
2239.822160117379
 20
1069.551800541232
 30
0.0
 11
2239.722160117341
 21
1069.45180054125
 31
0.0
  0
LINE
  5
6CA
330
68F
100
AcDbEntity
  8
0
  6
Continuous
 62
     7
370
    15
100
AcDbLine
 10
2260.72216011739
 20
1058.751800541214
 30
0.0
 11
2260.72216011739
 21
1069.45180054125
 31
0.0
  0
LINE
  5
6CB
330
68F
100
AcDbEntity
  8
0
  6
Continuous
 62
     7
370
    15
100
AcDbLine
 10
2254.72216011739
 20
1069.45180054125
 30
0.0
 11
2254.72216011739
 21
1058.751800541214
 31
0.0
  0
LINE
  5
6CC
330
68F
100
AcDbEntity
  8
0
  6
Continuous
 62
     7
370
    15
100
AcDbLine
 10
2260.722160117439
 20
1069.45180054125
 30
0.0
 11
2260.622160117401
 21
1069.551800541232
 31
0.0
  0
LINE
  5
6CD
330
68F
100
AcDbEntity
  8
0
  6
Continuous
 62
     7
370
    15
100
AcDbLine
 10
2254.822160117379
 20
1069.551800541232
 30
0.0
 11
2254.72216011734
 21
1069.45180054125
 31
0.0
  0
LINE
  5
6CE
330
68F
100
AcDbEntity
  8
0
  6
Continuous
 62
     7
370
    15
100
AcDbLine
 10
2275.72216011739
 20
1058.751800541214
 30
0.0
 11
2275.72216011739
 21
1069.45180054125
 31
0.0
  0
LINE
  5
6CF
330
68F
100
AcDbEntity
  8
0
  6
Continuous
 62
     7
370
    15
100
AcDbLine
 10
2269.72216011739
 20
1069.45180054125
 30
0.0
 11
2269.72216011739
 21
1058.751800541214
 31
0.0
  0
LINE
  5
6D0
330
68F
100
AcDbEntity
  8
0
  6
Continuous
 62
     7
370
    15
100
AcDbLine
 10
2275.722160117439
 20
1069.45180054125
 30
0.0
 11
2275.622160117401
 21
1069.551800541232
 31
0.0
  0
LINE
  5
6D1
330
68F
100
AcDbEntity
  8
0
  6
Continuous
 62
     7
370
    15
100
AcDbLine
 10
2269.822160117379
 20
1069.551800541232
 30
0.0
 11
2269.722160117341
 21
1069.45180054125
 31
0.0
  0
LINE
  5
6D2
330
68F
100
AcDbEntity
  8
0
  6
Continuous
 62
     7
370
    15
100
AcDbLine
 10
2170.720482510799
 20
1073.451800541214
 30
0.0
 11
2170.720482510799
 21
1074.351800541214
 31
0.0
  0
LINE
  5
6D3
330
68F
100
AcDbEntity
  8
0
  6
Continuous
 62
     7
370
    15
100
AcDbLine
 10
2164.720482510799
 20
1074.351800541214
 30
0.0
 11
2164.720482510799
 21
1073.451800541214
 31
0.0
  0
LINE
  5
6D4
330
68F
100
AcDbEntity
  8
0
  6
Continuous
 62
     7
370
    15
100
AcDbLine
 10
2164.718804904224
 20
1058.751800541214
 30
0.0
 11
2164.91880490418
 21
1058.551800541258
 31
0.0
  0
LINE
  5
6D5
330
68F
100
AcDbEntity
  8
0
  6
Continuous
 62
     7
370
    15
100
AcDbLine
 10
2170.51880490424
 20
1058.551800541258
 30
0.0
 11
2170.718804904196
 21
1058.751800541214
 31
0.0
  0
LINE
  5
6D6
330
68F
100
AcDbEntity
  8
0
  6
Continuous
 62
     7
370
    15
100
AcDbLine
 10
2185.7204825108
 20
1073.451800541214
 30
0.0
 11
2185.7204825108
 21
1074.351800541214
 31
0.0
  0
LINE
  5
6D7
330
68F
100
AcDbEntity
  8
0
  6
Continuous
 62
     7
370
    15
100
AcDbLine
 10
2179.720482510801
 20
1074.351800541214
 30
0.0
 11
2179.720482510801
 21
1073.451800541214
 31
0.0
  0
LINE
  5
6D8
330
68F
100
AcDbEntity
  8
0
  6
Continuous
 62
     7
370
    15
100
AcDbLine
 10
2179.722160117404
 20
1058.751800541214
 30
0.0
 11
2179.92216011736
 21
1058.551800541258
 31
0.0
  0
LINE
  5
6D9
330
68F
100
AcDbEntity
  8
0
  6
Continuous
 62
     7
370
    15
100
AcDbLine
 10
2185.522160117419
 20
1058.551800541258
 30
0.0
 11
2185.722160117375
 21
1058.751800541214
 31
0.0
  0
LINE
  5
6DA
330
68F
100
AcDbEntity
  8
0
  6
Continuous
 62
     7
370
    15
100
AcDbLine
 10
2194.722160117404
 20
1058.751800541214
 30
0.0
 11
2194.92216011736
 21
1058.551800541258
 31
0.0
  0
LINE
  5
6DB
330
68F
100
AcDbEntity
  8
0
  6
Continuous
 62
     7
370
    15
100
AcDbLine
 10
2200.52216011742
 20
1058.551800541258
 30
0.0
 11
2200.722160117376
 21
1058.751800541214
 31
0.0
  0
LINE
  5
6DC
330
68F
100
AcDbEntity
  8
0
  6
Continuous
 62
     7
370
    15
100
AcDbLine
 10
2200.720482510801
 20
1073.451800541214
 30
0.0
 11
2200.720482510801
 21
1074.351800541214
 31
0.0
  0
LINE
  5
6DD
330
68F
100
AcDbEntity
  8
0
  6
Continuous
 62
     7
370
    15
100
AcDbLine
 10
2194.720482510801
 20
1074.351800541214
 30
0.0
 11
2194.720482510801
 21
1073.451800541214
 31
0.0
  0
LINE
  5
6DE
330
68F
100
AcDbEntity
  8
0
  6
Continuous
 62
     7
370
    15
100
AcDbLine
 10
2215.720482510801
 20
1073.451800541214
 30
0.0
 11
2215.720482510801
 21
1074.351800541214
 31
0.0
  0
LINE
  5
6DF
330
68F
100
AcDbEntity
  8
0
  6
Continuous
 62
     7
370
    15
100
AcDbLine
 10
2209.7204825108
 20
1074.351800541214
 30
0.0
 11
2209.7204825108
 21
1073.451800541214
 31
0.0
  0
LINE
  5
6E0
330
68F
100
AcDbEntity
  8
0
  6
Continuous
 62
     7
370
    15
100
AcDbLine
 10
2209.722160117404
 20
1058.751800541214
 30
0.0
 11
2209.92216011736
 21
1058.551800541258
 31
0.0
  0
LINE
  5
6E1
330
68F
100
AcDbEntity
  8
0
  6
Continuous
 62
     7
370
    15
100
AcDbLine
 10
2215.522160117419
 20
1058.551800541258
 30
0.0
 11
2215.722160117376
 21
1058.751800541214
 31
0.0
  0
LINE
  5
6E2
330
68F
100
AcDbEntity
  8
0
  6
Continuous
 62
     7
370
    15
100
AcDbLine
 10
2230.7204825108
 20
1073.451800541214
 30
0.0
 11
2230.7204825108
 21
1074.351800541214
 31
0.0
  0
LINE
  5
6E3
330
68F
100
AcDbEntity
  8
0
  6
Continuous
 62
     7
370
    15
100
AcDbLine
 10
2224.720482510801
 20
1074.351800541214
 30
0.0
 11
2224.720482510801
 21
1073.451800541214
 31
0.0
  0
LINE
  5
6E4
330
68F
100
AcDbEntity
  8
0
  6
Continuous
 62
     7
370
    15
100
AcDbLine
 10
2224.722160117404
 20
1058.751800541214
 30
0.0
 11
2224.92216011736
 21
1058.551800541258
 31
0.0
  0
LINE
  5
6E5
330
68F
100
AcDbEntity
  8
0
  6
Continuous
 62
     7
370
    15
100
AcDbLine
 10
2230.522160117419
 20
1058.551800541258
 30
0.0
 11
2230.722160117375
 21
1058.751800541214
 31
0.0
  0
LINE
  5
6E6
330
68F
100
AcDbEntity
  8
0
  6
Continuous
 62
     7
370
    15
100
AcDbLine
 10
2245.720482510801
 20
1073.451800541214
 30
0.0
 11
2245.720482510801
 21
1074.351800541214
 31
0.0
  0
LINE
  5
6E7
330
68F
100
AcDbEntity
  8
0
  6
Continuous
 62
     7
370
    15
100
AcDbLine
 10
2239.720482510801
 20
1074.351800541214
 30
0.0
 11
2239.720482510801
 21
1073.451800541214
 31
0.0
  0
LINE
  5
6E8
330
68F
100
AcDbEntity
  8
0
  6
Continuous
 62
     7
370
    15
100
AcDbLine
 10
2239.722160117404
 20
1058.751800541214
 30
0.0
 11
2239.92216011736
 21
1058.551800541258
 31
0.0
  0
LINE
  5
6E9
330
68F
100
AcDbEntity
  8
0
  6
Continuous
 62
     7
370
    15
100
AcDbLine
 10
2245.52216011742
 20
1058.551800541258
 30
0.0
 11
2245.722160117376
 21
1058.751800541214
 31
0.0
  0
LINE
  5
6EA
330
68F
100
AcDbEntity
  8
0
  6
Continuous
 62
     7
370
    15
100
AcDbLine
 10
2254.722160117404
 20
1058.751800541214
 30
0.0
 11
2254.92216011736
 21
1058.551800541258
 31
0.0
  0
LINE
  5
6EB
330
68F
100
AcDbEntity
  8
0
  6
Continuous
 62
     7
370
    15
100
AcDbLine
 10
2260.52216011742
 20
1058.551800541258
 30
0.0
 11
2260.722160117376
 21
1058.751800541214
 31
0.0
  0
LINE
  5
6EC
330
68F
100
AcDbEntity
  8
0
  6
Continuous
 62
     7
370
    15
100
AcDbLine
 10
2260.720482510801
 20
1073.451800541214
 30
0.0
 11
2260.720482510801
 21
1074.351800541214
 31
0.0
  0
LINE
  5
6ED
330
68F
100
AcDbEntity
  8
0
  6
Continuous
 62
     7
370
    15
100
AcDbLine
 10
2254.720482510801
 20
1074.351800541214
 30
0.0
 11
2254.720482510801
 21
1073.451800541214
 31
0.0
  0
LINE
  5
6EE
330
68F
100
AcDbEntity
  8
0
  6
Continuous
 62
     7
370
    15
100
AcDbLine
 10
2269.722160117404
 20
1058.751800541214
 30
0.0
 11
2269.92216011736
 21
1058.551800541258
 31
0.0
  0
LINE
  5
6EF
330
68F
100
AcDbEntity
  8
0
  6
Continuous
 62
     7
370
    15
100
AcDbLine
 10
2275.52216011742
 20
1058.551800541258
 30
0.0
 11
2275.722160117376
 21
1058.751800541214
 31
0.0
  0
LINE
  5
6F0
330
68F
100
AcDbEntity
  8
0
  6
Continuous
 62
     7
370
    15
100
AcDbLine
 10
2275.7204825108
 20
1073.451800541214
 30
0.0
 11
2275.7204825108
 21
1074.351800541214
 31
0.0
  0
LINE
  5
6F1
330
68F
100
AcDbEntity
  8
0
  6
Continuous
 62
     7
370
    15
100
AcDbLine
 10
2269.720482510801
 20
1074.351800541214
 30
0.0
 11
2269.720482510801
 21
1073.451800541214
 31
0.0
  0
LINE
  5
6F2
330
68F
100
AcDbEntity
  8
0
  6
Continuous
 62
     7
370
    15
100
AcDbLine
 10
2171.220482510801
 20
1069.551800541214
 30
0.0
 11
2171.220482510801
 21
1073.451800541214
 31
0.0
  0
LINE
  5
6F3
330
68F
100
AcDbEntity
  8
0
  6
Continuous
 62
     7
370
    15
100
AcDbLine
 10
2164.220482510797
 20
1073.451800541214
 30
0.0
 11
2164.220482510799
 21
1069.551800541214
 31
0.0
  0
LINE
  5
6F4
330
68F
100
AcDbEntity
  8
0
  6
Continuous
 62
     7
370
    15
100
AcDbLine
 10
2164.220482510797
 20
1073.451800541214
 30
0.0
 11
2171.220482510801
 21
1073.451800541214
 31
0.0
  0
LINE
  5
6F5
330
68F
100
AcDbEntity
  8
0
  6
Continuous
 62
     7
370
    15
100
AcDbLine
 10
2164.220482510799
 20
1069.551800541214
 30
0.0
 11
2171.220482510801
 21
1069.551800541214
 31
0.0
  0
LINE
  5
6F6
330
68F
100
AcDbEntity
  8
0
  6
Continuous
 62
     7
370
    15
100
AcDbLine
 10
2179.220482510799
 20
1069.551800541214
 30
0.0
 11
2179.220482510799
 21
1073.451800541214
 31
0.0
  0
LINE
  5
6F7
330
68F
100
AcDbEntity
  8
0
  6
Continuous
 62
     7
370
    15
100
AcDbLine
 10
2186.220482510801
 20
1073.451800541214
 30
0.0
 11
2186.220482510802
 21
1069.551800541214
 31
0.0
  0
LINE
  5
6F8
330
68F
100
AcDbEntity
  8
0
  6
Continuous
 62
     7
370
    15
100
AcDbLine
 10
2186.220482510801
 20
1073.451800541214
 30
0.0
 11
2179.220482510799
 21
1073.451800541214
 31
0.0
  0
LINE
  5
6F9
330
68F
100
AcDbEntity
  8
0
  6
Continuous
 62
     7
370
    15
100
AcDbLine
 10
2186.220482510802
 20
1069.551800541214
 30
0.0
 11
2179.220482510799
 21
1069.551800541214
 31
0.0
  0
LINE
  5
6FA
330
68F
100
AcDbEntity
  8
0
  6
Continuous
 62
     7
370
    15
100
AcDbLine
 10
2194.220482510799
 20
1069.551800541214
 30
0.0
 11
2194.220482510799
 21
1073.451800541214
 31
0.0
  0
LINE
  5
6FB
330
68F
100
AcDbEntity
  8
0
  6
Continuous
 62
     7
370
    15
100
AcDbLine
 10
2201.220482510803
 20
1073.451800541214
 30
0.0
 11
2201.220482510801
 21
1069.551800541214
 31
0.0
  0
LINE
  5
6FC
330
68F
100
AcDbEntity
  8
0
  6
Continuous
 62
     7
370
    15
100
AcDbLine
 10
2201.220482510803
 20
1073.451800541214
 30
0.0
 11
2194.220482510799
 21
1073.451800541214
 31
0.0
  0
LINE
  5
6FD
330
68F
100
AcDbEntity
  8
0
  6
Continuous
 62
     7
370
    15
100
AcDbLine
 10
2201.220482510801
 20
1069.551800541214
 30
0.0
 11
2194.220482510799
 21
1069.551800541214
 31
0.0
  0
LINE
  5
6FE
330
68F
100
AcDbEntity
  8
0
  6
Continuous
 62
     7
370
    15
100
AcDbLine
 10
2209.220482510799
 20
1069.551800541214
 30
0.0
 11
2209.220482510799
 21
1073.451800541214
 31
0.0
  0
LINE
  5
6FF
330
68F
100
AcDbEntity
  8
0
  6
Continuous
 62
     7
370
    15
100
AcDbLine
 10
2216.220482510802
 20
1073.451800541214
 30
0.0
 11
2216.2204825108
 21
1069.551800541214
 31
0.0
  0
LINE
  5
700
330
68F
100
AcDbEntity
  8
0
  6
Continuous
 62
     7
370
    15
100
AcDbLine
 10
2216.220482510802
 20
1073.451800541214
 30
0.0
 11
2209.220482510799
 21
1073.451800541214
 31
0.0
  0
LINE
  5
701
330
68F
100
AcDbEntity
  8
0
  6
Continuous
 62
     7
370
    15
100
AcDbLine
 10
2216.2204825108
 20
1069.551800541214
 30
0.0
 11
2209.220482510799
 21
1069.551800541214
 31
0.0
  0
LINE
  5
702
330
68F
100
AcDbEntity
  8
0
  6
Continuous
 62
     7
370
    15
100
AcDbLine
 10
2224.220482510799
 20
1069.551800541214
 30
0.0
 11
2224.220482510799
 21
1073.451800541214
 31
0.0
  0
LINE
  5
703
330
68F
100
AcDbEntity
  8
0
  6
Continuous
 62
     7
370
    15
100
AcDbLine
 10
2231.220482510803
 20
1073.451800541214
 30
0.0
 11
2231.220482510801
 21
1069.551800541214
 31
0.0
  0
LINE
  5
704
330
68F
100
AcDbEntity
  8
0
  6
Continuous
 62
     7
370
    15
100
AcDbLine
 10
2231.220482510803
 20
1073.451800541214
 30
0.0
 11
2224.220482510799
 21
1073.451800541214
 31
0.0
  0
LINE
  5
705
330
68F
100
AcDbEntity
  8
0
  6
Continuous
 62
     7
370
    15
100
AcDbLine
 10
2231.220482510801
 20
1069.551800541214
 30
0.0
 11
2224.220482510799
 21
1069.551800541214
 31
0.0
  0
LINE
  5
706
330
68F
100
AcDbEntity
  8
0
  6
Continuous
 62
     7
370
    15
100
AcDbLine
 10
2239.220482510799
 20
1069.551800541214
 30
0.0
 11
2239.220482510799
 21
1073.451800541214
 31
0.0
  0
LINE
  5
707
330
68F
100
AcDbEntity
  8
0
  6
Continuous
 62
     7
370
    15
100
AcDbLine
 10
2246.220482510802
 20
1073.451800541214
 30
0.0
 11
2246.220482510801
 21
1069.551800541214
 31
0.0
  0
LINE
  5
708
330
68F
100
AcDbEntity
  8
0
  6
Continuous
 62
     7
370
    15
100
AcDbLine
 10
2246.220482510802
 20
1073.451800541214
 30
0.0
 11
2239.220482510799
 21
1073.451800541214
 31
0.0
  0
LINE
  5
709
330
68F
100
AcDbEntity
  8
0
  6
Continuous
 62
     7
370
    15
100
AcDbLine
 10
2246.220482510801
 20
1069.551800541214
 30
0.0
 11
2239.220482510799
 21
1069.551800541214
 31
0.0
  0
LINE
  5
70A
330
68F
100
AcDbEntity
  8
0
  6
Continuous
 62
     7
370
    15
100
AcDbLine
 10
2254.220482510799
 20
1069.551800541214
 30
0.0
 11
2254.220482510799
 21
1073.451800541214
 31
0.0
  0
LINE
  5
70B
330
68F
100
AcDbEntity
  8
0
  6
Continuous
 62
     7
370
    15
100
AcDbLine
 10
2261.220482510802
 20
1073.451800541214
 30
0.0
 11
2261.2204825108
 21
1069.551800541214
 31
0.0
  0
LINE
  5
70C
330
68F
100
AcDbEntity
  8
0
  6
Continuous
 62
     7
370
    15
100
AcDbLine
 10
2261.220482510802
 20
1073.451800541214
 30
0.0
 11
2254.220482510799
 21
1073.451800541214
 31
0.0
  0
LINE
  5
70D
330
68F
100
AcDbEntity
  8
0
  6
Continuous
 62
     7
370
    15
100
AcDbLine
 10
2261.2204825108
 20
1069.551800541214
 30
0.0
 11
2254.220482510799
 21
1069.551800541214
 31
0.0
  0
LINE
  5
70E
330
68F
100
AcDbEntity
  8
0
  6
Continuous
 62
     7
370
    15
100
AcDbLine
 10
2269.220482510799
 20
1069.551800541214
 30
0.0
 11
2269.220482510799
 21
1073.451800541214
 31
0.0
  0
LINE
  5
70F
330
68F
100
AcDbEntity
  8
0
  6
Continuous
 62
     7
370
    15
100
AcDbLine
 10
2276.220482510803
 20
1073.451800541214
 30
0.0
 11
2276.220482510801
 21
1069.551800541214
 31
0.0
  0
LINE
  5
710
330
68F
100
AcDbEntity
  8
0
  6
Continuous
 62
     7
370
    15
100
AcDbLine
 10
2276.220482510803
 20
1073.451800541214
 30
0.0
 11
2269.220482510799
 21
1073.451800541214
 31
0.0
  0
LINE
  5
711
330
68F
100
AcDbEntity
  8
0
  6
Continuous
 62
     7
370
    15
100
AcDbLine
 10
2276.220482510801
 20
1069.551800541214
 30
0.0
 11
2269.220482510799
 21
1069.551800541214
 31
0.0
  0
SPLINE
  5
712
330
68F
100
AcDbEntity
  8
0
  6
Continuous
 62
     7
370
    15
100
AcDbSpline
210
0.0
220
0.0
230
1.0
 70
    24
 71
     3
 72
    10
 73
     6
 74
     0
 42
0.0000000001
 43
0.0000000001
 40
0.0
 40
0.0
 40
0.0
 40
0.0
 40
0.5
 40
0.5
 40
1.0
 40
1.0
 40
1.0
 40
1.0
 10
2164.495482510799
 20
1074.351800541214
 30
0.0
 10
2164.495482510799
 20
1074.351800541214
 30
0.0
 10
2165.940556603797
 20
1074.351800541214
 30
0.0
 10
2169.500408417801
 20
1074.351800541214
 30
0.0
 10
2170.945482510798
 20
1074.351800541214
 30
0.0
 10
2170.945482510798
 20
1074.351800541214
 30
0.0
  0
SPLINE
  5
713
330
68F
100
AcDbEntity
  8
0
  6
Continuous
 62
     7
370
    15
100
AcDbSpline
210
0.0
220
0.0
230
1.0
 70
    24
 71
     3
 72
    30
 73
    26
 74
     0
 42
0.0000000001
 43
0.0000000001
 40
0.0
 40
0.0
 40
0.0
 40
0.0
 40
0.0172934937130203
 40
0.0344596655377185
 40
0.0515480950579254
 40
0.068609039634892
 40
0.0856929991960945
 40
0.1028502704464566
 40
0.1201305099490629
 40
0.1850828601801404
 40
0.2500881522292469
 40
0.3150405262905461
 40
0.3800458421887532
 40
0.4400038891296366
 40
0.5000143502049812
 40
0.55997241137046
 40
0.6199828837922907
 40
0.6849352340234343
 40
0.7499405260724737
 40
0.8148929001337954
 40
0.8798982160319786
 40
0.910029097664276
 40
0.9399097371916235
 40
0.9698101950927375
 40
1.0
 40
1.0
 40
1.0
 40
1.0
 10
2185.945482510801
 20
1074.351800541214
 30
0.0
 10
2185.944583445778
 20
1074.351800541214
 30
0.0
 10
2185.942791935023
 20
1074.351800541214
 30
0.0
 10
2185.928390487484
 20
1074.351800541214
 30
0.0
 10
2185.905385598071
 20
1074.351800541214
 30
0.0
 10
2185.872953553499
 20
1074.351800541214
 30
0.0
 10
2185.83131865557
 20
1074.351800541214
 30
0.0
 10
2185.780407843795
 20
1074.351800541214
 30
0.0
 10
2185.665276560897
 20
1074.351800541214
 30
0.0
 10
2185.435956598105
 20
1074.351800541214
 30
0.0
 10
2185.016460293903
 20
1074.351800541214
 30
0.0
 10
2184.504245711792
 20
1074.351800541214
 30
0.0
 10
2183.930813001355
 20
1074.351800541214
 30
0.0
 10
2183.328621556318
 20
1074.351800541214
 30
0.0
 10
2182.720658907884
 20
1074.351800541214
 30
0.0
 10
2182.112523070704
 20
1074.351800541214
 30
0.0
 10
2181.510481847958
 20
1074.351800541214
 30
0.0
 10
2180.936873349413
 20
1074.351800541214
 30
0.0
 10
2180.424770636005
 20
1074.351800541214
 30
0.0
 10
2180.005055219305
 20
1074.351800541214
 30
0.0
 10
2179.755883321449
 20
1074.351800541214
 30
0.0
 10
2179.618471312662
 20
1074.351800541214
 30
0.0
 10
2179.547760350342
 20
1074.351800541214
 30
0.0
 10
2179.503605399991
 20
1074.351800541214
 30
0.0
 10
2179.498198818466
 20
1074.351800541214
 30
0.0
 10
2179.495482510801
 20
1074.351800541214
 30
0.0
  0
SPLINE
  5
714
330
68F
100
AcDbEntity
  8
0
  6
Continuous
 62
     7
370
    15
100
AcDbSpline
210
0.0
220
0.0
230
1.0
 70
    24
 71
     3
 72
    30
 73
    26
 74
     0
 42
0.0000000001
 43
0.0000000001
 40
0.0
 40
0.0
 40
0.0
 40
0.0
 40
0.0172934937130203
 40
0.0344596655377185
 40
0.0515480950579254
 40
0.0686090396348921
 40
0.0856929991960945
 40
0.1028502704464567
 40
0.120130509949063
 40
0.1850828601801405
 40
0.250088152229247
 40
0.3150405262905462
 40
0.3800458421887532
 40
0.4400038891296367
 40
0.5000143502049813
 40
0.55997241137046
 40
0.6199828837922908
 40
0.6849352340234343
 40
0.7499405260724737
 40
0.8148929001337954
 40
0.8798982160319788
 40
0.910029097664276
 40
0.9399097371916235
 40
0.9698101950927375
 40
1.0
 40
1.0
 40
1.0
 40
1.0
 10
2200.945482510801
 20
1074.351800541214
 30
0.0
 10
2200.944583445778
 20
1074.351800541214
 30
0.0
 10
2200.942791935023
 20
1074.351800541214
 30
0.0
 10
2200.928390487484
 20
1074.351800541214
 30
0.0
 10
2200.905385598071
 20
1074.351800541214
 30
0.0
 10
2200.872953553499
 20
1074.351800541214
 30
0.0
 10
2200.83131865557
 20
1074.351800541214
 30
0.0
 10
2200.780407843794
 20
1074.351800541214
 30
0.0
 10
2200.665276560897
 20
1074.351800541214
 30
0.0
 10
2200.435956598105
 20
1074.351800541214
 30
0.0
 10
2200.016460293903
 20
1074.351800541214
 30
0.0
 10
2199.504245711791
 20
1074.351800541214
 30
0.0
 10
2198.930813001355
 20
1074.351800541214
 30
0.0
 10
2198.328621556319
 20
1074.351800541214
 30
0.0
 10
2197.720658907885
 20
1074.351800541214
 30
0.0
 10
2197.112523070704
 20
1074.351800541214
 30
0.0
 10
2196.510481847958
 20
1074.351800541214
 30
0.0
 10
2195.936873349413
 20
1074.351800541214
 30
0.0
 10
2195.424770636004
 20
1074.351800541214
 30
0.0
 10
2195.005055219306
 20
1074.351800541214
 30
0.0
 10
2194.755883321449
 20
1074.351800541214
 30
0.0
 10
2194.618471312662
 20
1074.351800541214
 30
0.0
 10
2194.547760350341
 20
1074.351800541214
 30
0.0
 10
2194.503605399991
 20
1074.351800541214
 30
0.0
 10
2194.498198818466
 20
1074.351800541214
 30
0.0
 10
2194.4954825108
 20
1074.351800541214
 30
0.0
  0
SPLINE
  5
715
330
68F
100
AcDbEntity
  8
0
  6
Continuous
 62
     7
370
    15
100
AcDbSpline
210
0.0
220
0.0
230
1.0
 70
    24
 71
     3
 72
    30
 73
    26
 74
     0
 42
0.0000000001
 43
0.0000000001
 40
0.0
 40
0.0
 40
0.0
 40
0.0
 40
0.0172934937130203
 40
0.0344596655377185
 40
0.0515480950579254
 40
0.0686090396348921
 40
0.0856929991960945
 40
0.1028502704464567
 40
0.120130509949063
 40
0.1850828601801405
 40
0.2500881522292471
 40
0.3150405262905462
 40
0.3800458421887533
 40
0.4400038891296368
 40
0.5000143502049815
 40
0.5599724113704601
 40
0.619982883792291
 40
0.6849352340234346
 40
0.7499405260724741
 40
0.8148929001337954
 40
0.8798982160319791
 40
0.9100290976642764
 40
0.9399097371916237
 40
0.9698101950927377
 40
1.0
 40
1.0
 40
1.0
 40
1.0
 10
2215.945482510801
 20
1074.351800541214
 30
0.0
 10
2215.944583445778
 20
1074.351800541214
 30
0.0
 10
2215.942791935023
 20
1074.351800541214
 30
0.0
 10
2215.928390487484
 20
1074.351800541214
 30
0.0
 10
2215.905385598071
 20
1074.351800541214
 30
0.0
 10
2215.8729535535
 20
1074.351800541214
 30
0.0
 10
2215.83131865557
 20
1074.351800541214
 30
0.0
 10
2215.780407843794
 20
1074.351800541214
 30
0.0
 10
2215.665276560897
 20
1074.351800541214
 30
0.0
 10
2215.435956598105
 20
1074.351800541214
 30
0.0
 10
2215.016460293903
 20
1074.351800541214
 30
0.0
 10
2214.504245711792
 20
1074.351800541214
 30
0.0
 10
2213.930813001355
 20
1074.351800541214
 30
0.0
 10
2213.328621556319
 20
1074.351800541214
 30
0.0
 10
2212.720658907884
 20
1074.351800541214
 30
0.0
 10
2212.112523070704
 20
1074.351800541214
 30
0.0
 10
2211.510481847958
 20
1074.351800541214
 30
0.0
 10
2210.936873349413
 20
1074.351800541214
 30
0.0
 10
2210.424770636004
 20
1074.351800541214
 30
0.0
 10
2210.005055219306
 20
1074.351800541214
 30
0.0
 10
2209.755883321449
 20
1074.351800541214
 30
0.0
 10
2209.618471312662
 20
1074.351800541214
 30
0.0
 10
2209.547760350341
 20
1074.351800541214
 30
0.0
 10
2209.503605399991
 20
1074.351800541214
 30
0.0
 10
2209.498198818466
 20
1074.351800541214
 30
0.0
 10
2209.495482510801
 20
1074.351800541214
 30
0.0
  0
SPLINE
  5
716
330
68F
100
AcDbEntity
  8
0
  6
Continuous
 62
     7
370
    15
100
AcDbSpline
210
0.0
220
0.0
230
1.0
 70
    24
 71
     3
 72
    30
 73
    26
 74
     0
 42
0.0000000001
 43
0.0000000001
 40
0.0
 40
0.0
 40
0.0
 40
0.0
 40
0.0172934937130203
 40
0.0344596655377184
 40
0.0515480950579255
 40
0.0686090396348921
 40
0.0856929991960945
 40
0.1028502704464566
 40
0.1201305099490631
 40
0.1850828601801403
 40
0.2500881522292468
 40
0.315040526290546
 40
0.3800458421887531
 40
0.4400038891296365
 40
0.5000143502049812
 40
0.55997241137046
 40
0.6199828837922908
 40
0.6849352340234343
 40
0.7499405260724739
 40
0.8148929001337952
 40
0.8798982160319789
 40
0.9100290976642762
 40
0.9399097371916237
 40
0.9698101950927377
 40
1.0
 40
1.0
 40
1.0
 40
1.0
 10
2230.945482510801
 20
1074.351800541214
 30
0.0
 10
2230.944583445778
 20
1074.351800541214
 30
0.0
 10
2230.942791935023
 20
1074.351800541214
 30
0.0
 10
2230.928390487484
 20
1074.351800541214
 30
0.0
 10
2230.905385598071
 20
1074.351800541214
 30
0.0
 10
2230.872953553499
 20
1074.351800541214
 30
0.0
 10
2230.83131865557
 20
1074.351800541214
 30
0.0
 10
2230.780407843794
 20
1074.351800541214
 30
0.0
 10
2230.665276560897
 20
1074.351800541214
 30
0.0
 10
2230.435956598105
 20
1074.351800541214
 30
0.0
 10
2230.016460293903
 20
1074.351800541214
 30
0.0
 10
2229.504245711792
 20
1074.351800541214
 30
0.0
 10
2228.930813001355
 20
1074.351800541214
 30
0.0
 10
2228.328621556318
 20
1074.351800541214
 30
0.0
 10
2227.720658907884
 20
1074.351800541214
 30
0.0
 10
2227.112523070704
 20
1074.351800541214
 30
0.0
 10
2226.510481847958
 20
1074.351800541214
 30
0.0
 10
2225.936873349413
 20
1074.351800541214
 30
0.0
 10
2225.424770636005
 20
1074.351800541214
 30
0.0
 10
2225.005055219305
 20
1074.351800541214
 30
0.0
 10
2224.755883321449
 20
1074.351800541214
 30
0.0
 10
2224.618471312663
 20
1074.351800541214
 30
0.0
 10
2224.547760350342
 20
1074.351800541214
 30
0.0
 10
2224.503605399991
 20
1074.351800541214
 30
0.0
 10
2224.498198818466
 20
1074.351800541214
 30
0.0
 10
2224.495482510801
 20
1074.351800541214
 30
0.0
  0
SPLINE
  5
717
330
68F
100
AcDbEntity
  8
0
  6
Continuous
 62
     7
370
    15
100
AcDbSpline
210
0.0
220
0.0
230
1.0
 70
    24
 71
     3
 72
    30
 73
    26
 74
     0
 42
0.0000000001
 43
0.0000000001
 40
0.0
 40
0.0
 40
0.0
 40
0.0
 40
0.0172934937130203
 40
0.0344596655377185
 40
0.0515480950579255
 40
0.0686090396348921
 40
0.0856929991960945
 40
0.1028502704464566
 40
0.1201305099490631
 40
0.1850828601801404
 40
0.2500881522292469
 40
0.3150405262905456
 40
0.3800458421887533
 40
0.4400038891296367
 40
0.5000143502049813
 40
0.5599724113704593
 40
0.6199828837922908
 40
0.6849352340234343
 40
0.749940526072474
 40
0.8148929001337958
 40
0.8798982160319789
 40
0.9100290976642765
 40
0.9399097371916235
 40
0.9698101950927378
 40
1.0
 40
1.0
 40
1.0
 40
1.0
 10
2245.9454825108
 20
1074.351800541214
 30
0.0
 10
2245.944583445778
 20
1074.351800541214
 30
0.0
 10
2245.942791935023
 20
1074.351800541214
 30
0.0
 10
2245.928390487484
 20
1074.351800541214
 30
0.0
 10
2245.905385598071
 20
1074.351800541214
 30
0.0
 10
2245.8729535535
 20
1074.351800541214
 30
0.0
 10
2245.83131865557
 20
1074.351800541214
 30
0.0
 10
2245.780407843795
 20
1074.351800541214
 30
0.0
 10
2245.665276560897
 20
1074.351800541214
 30
0.0
 10
2245.435956598105
 20
1074.351800541214
 30
0.0
 10
2245.016460293903
 20
1074.351800541214
 30
0.0
 10
2244.504245711792
 20
1074.351800541214
 30
0.0
 10
2243.930813001355
 20
1074.351800541214
 30
0.0
 10
2243.328621556319
 20
1074.351800541214
 30
0.0
 10
2242.720658907884
 20
1074.351800541214
 30
0.0
 10
2242.112523070704
 20
1074.351800541214
 30
0.0
 10
2241.510481847958
 20
1074.351800541214
 30
0.0
 10
2240.936873349413
 20
1074.351800541214
 30
0.0
 10
2240.424770636004
 20
1074.351800541214
 30
0.0
 10
2240.005055219306
 20
1074.351800541214
 30
0.0
 10
2239.755883321449
 20
1074.351800541214
 30
0.0
 10
2239.618471312662
 20
1074.351800541214
 30
0.0
 10
2239.547760350342
 20
1074.351800541214
 30
0.0
 10
2239.503605399991
 20
1074.351800541214
 30
0.0
 10
2239.498198818466
 20
1074.351800541214
 30
0.0
 10
2239.495482510801
 20
1074.351800541214
 30
0.0
  0
SPLINE
  5
718
330
68F
100
AcDbEntity
  8
0
  6
Continuous
 62
     7
370
    15
100
AcDbSpline
210
0.0
220
0.0
230
1.0
 70
    24
 71
     3
 72
    30
 73
    26
 74
     0
 42
0.0000000001
 43
0.0000000001
 40
0.0
 40
0.0
 40
0.0
 40
0.0
 40
0.0172934937130203
 40
0.0344596655377185
 40
0.0515480950579255
 40
0.0686090396348921
 40
0.0856929991960945
 40
0.1028502704464566
 40
0.1201305099490631
 40
0.1850828601801403
 40
0.2500881522292468
 40
0.3150405262905455
 40
0.3800458421887533
 40
0.4400038891296367
 40
0.5000143502049813
 40
0.5599724113704593
 40
0.6199828837922908
 40
0.6849352340234344
 40
0.749940526072474
 40
0.8148929001337958
 40
0.8798982160319789
 40
0.9100290976642765
 40
0.9399097371916235
 40
0.9698101950927378
 40
1.0
 40
1.0
 40
1.0
 40
1.0
 10
2260.945482510801
 20
1074.351800541214
 30
0.0
 10
2260.944583445778
 20
1074.351800541214
 30
0.0
 10
2260.942791935023
 20
1074.351800541214
 30
0.0
 10
2260.928390487484
 20
1074.351800541214
 30
0.0
 10
2260.905385598071
 20
1074.351800541214
 30
0.0
 10
2260.8729535535
 20
1074.351800541214
 30
0.0
 10
2260.83131865557
 20
1074.351800541214
 30
0.0
 10
2260.780407843794
 20
1074.351800541214
 30
0.0
 10
2260.665276560897
 20
1074.351800541214
 30
0.0
 10
2260.435956598105
 20
1074.351800541214
 30
0.0
 10
2260.016460293903
 20
1074.351800541214
 30
0.0
 10
2259.504245711791
 20
1074.351800541214
 30
0.0
 10
2258.930813001355
 20
1074.351800541214
 30
0.0
 10
2258.328621556318
 20
1074.351800541214
 30
0.0
 10
2257.720658907884
 20
1074.351800541214
 30
0.0
 10
2257.112523070704
 20
1074.351800541214
 30
0.0
 10
2256.510481847959
 20
1074.351800541214
 30
0.0
 10
2255.936873349413
 20
1074.351800541214
 30
0.0
 10
2255.424770636004
 20
1074.351800541214
 30
0.0
 10
2255.005055219306
 20
1074.351800541214
 30
0.0
 10
2254.755883321449
 20
1074.351800541214
 30
0.0
 10
2254.618471312662
 20
1074.351800541214
 30
0.0
 10
2254.547760350341
 20
1074.351800541214
 30
0.0
 10
2254.503605399991
 20
1074.351800541214
 30
0.0
 10
2254.498198818466
 20
1074.351800541214
 30
0.0
 10
2254.495482510801
 20
1074.351800541214
 30
0.0
  0
SPLINE
  5
719
330
68F
100
AcDbEntity
  8
0
  6
Continuous
 62
     7
370
    15
100
AcDbSpline
210
0.0
220
0.0
230
1.0
 70
    24
 71
     3
 72
    30
 73
    26
 74
     0
 42
0.0000000001
 43
0.0000000001
 40
0.0
 40
0.0
 40
0.0
 40
0.0
 40
0.0172934937130203
 40
0.0344596655377184
 40
0.0515480950579255
 40
0.0686090396348921
 40
0.0856929991960945
 40
0.1028502704464566
 40
0.1201305099490631
 40
0.1850828601801403
 40
0.2500881522292468
 40
0.3150405262905455
 40
0.3800458421887532
 40
0.4400038891296367
 40
0.5000143502049813
 40
0.5599724113704593
 40
0.6199828837922908
 40
0.6849352340234344
 40
0.749940526072474
 40
0.8148929001337958
 40
0.8798982160319789
 40
0.9100290976642765
 40
0.9399097371916235
 40
0.9698101950927378
 40
1.0
 40
1.0
 40
1.0
 40
1.0
 10
2275.945482510801
 20
1074.351800541214
 30
0.0
 10
2275.944583445778
 20
1074.351800541214
 30
0.0
 10
2275.942791935023
 20
1074.351800541214
 30
0.0
 10
2275.928390487484
 20
1074.351800541214
 30
0.0
 10
2275.905385598071
 20
1074.351800541214
 30
0.0
 10
2275.872953553499
 20
1074.351800541214
 30
0.0
 10
2275.83131865557
 20
1074.351800541214
 30
0.0
 10
2275.780407843794
 20
1074.351800541214
 30
0.0
 10
2275.665276560897
 20
1074.351800541214
 30
0.0
 10
2275.435956598105
 20
1074.351800541214
 30
0.0
 10
2275.016460293903
 20
1074.351800541214
 30
0.0
 10
2274.504245711791
 20
1074.351800541214
 30
0.0
 10
2273.930813001355
 20
1074.351800541214
 30
0.0
 10
2273.328621556319
 20
1074.351800541214
 30
0.0
 10
2272.720658907884
 20
1074.351800541214
 30
0.0
 10
2272.112523070704
 20
1074.351800541214
 30
0.0
 10
2271.510481847959
 20
1074.351800541214
 30
0.0
 10
2270.936873349413
 20
1074.351800541214
 30
0.0
 10
2270.424770636005
 20
1074.351800541214
 30
0.0
 10
2270.005055219306
 20
1074.351800541214
 30
0.0
 10
2269.755883321449
 20
1074.351800541214
 30
0.0
 10
2269.618471312663
 20
1074.351800541214
 30
0.0
 10
2269.547760350342
 20
1074.351800541214
 30
0.0
 10
2269.503605399991
 20
1074.351800541214
 30
0.0
 10
2269.498198818466
 20
1074.351800541214
 30
0.0
 10
2269.495482510801
 20
1074.351800541214
 30
0.0
  0
LINE
  5
71A
330
68F
100
AcDbEntity
  8
0
  6
Continuous
 62
     7
370
    15
100
AcDbLine
 10
2171.145482510799
 20
1079.751800541214
 30
0.0
 11
2164.295482510799
 21
1079.751800541214
 31
0.0
  0
LINE
  5
71B
330
68F
100
AcDbEntity
  8
0
  6
Continuous
 62
     7
370
    15
100
AcDbLine
 10
2179.2954825108
 20
1079.751800541214
 30
0.0
 11
2186.1454825108
 21
1079.751800541214
 31
0.0
  0
LINE
  5
71C
330
68F
100
AcDbEntity
  8
0
  6
Continuous
 62
     7
370
    15
100
AcDbLine
 10
2194.2954825108
 20
1079.751800541214
 30
0.0
 11
2201.145482510801
 21
1079.751800541214
 31
0.0
  0
LINE
  5
71D
330
68F
100
AcDbEntity
  8
0
  6
Continuous
 62
     7
370
    15
100
AcDbLine
 10
2209.295482510801
 20
1079.751800541214
 30
0.0
 11
2216.1454825108
 21
1079.751800541214
 31
0.0
  0
LINE
  5
71E
330
68F
100
AcDbEntity
  8
0
  6
Continuous
 62
     7
370
    15
100
AcDbLine
 10
2224.2954825108
 20
1079.751800541214
 30
0.0
 11
2231.1454825108
 21
1079.751800541214
 31
0.0
  0
LINE
  5
71F
330
68F
100
AcDbEntity
  8
0
  6
Continuous
 62
     7
370
    15
100
AcDbLine
 10
2239.2954825108
 20
1079.751800541214
 30
0.0
 11
2246.1454825108
 21
1079.751800541214
 31
0.0
  0
LINE
  5
720
330
68F
100
AcDbEntity
  8
0
  6
Continuous
 62
     7
370
    15
100
AcDbLine
 10
2254.295482510801
 20
1079.751800541214
 30
0.0
 11
2261.145482510801
 21
1079.751800541214
 31
0.0
  0
LINE
  5
721
330
68F
100
AcDbEntity
  8
0
  6
Continuous
 62
     7
370
    15
100
AcDbLine
 10
2269.2954825108
 20
1079.751800541214
 30
0.0
 11
2276.1454825108
 21
1079.751800541214
 31
0.0
  0
LINE
  5
722
330
68F
100
AcDbEntity
  8
0
  6
Continuous
 62
     7
370
    15
100
AcDbLine
 10
2162.020482510799
 20
1073.451800541214
 30
0.0
 11
2162.020482510799
 21
1069.551800541214
 31
0.0
  0
LINE
  5
723
330
68F
100
AcDbEntity
  8
0
  6
Continuous
 62
     7
370
    15
100
AcDbLine
 10
2162.020482510799
 20
1073.451800541214
 30
0.0
 11
2164.220482510797
 21
1073.451800541214
 31
0.0
  0
LINE
  5
724
330
68F
100
AcDbEntity
  8
0
  6
Continuous
 62
     7
370
    15
100
AcDbLine
 10
2164.220482510799
 20
1069.551800541214
 30
0.0
 11
2162.020482510799
 21
1069.551800541214
 31
0.0
  0
LINE
  5
725
330
68F
100
AcDbEntity
  8
0
  6
Continuous
 62
     7
370
    15
100
AcDbLine
 10
2186.220482510801
 20
1073.451800541214
 30
0.0
 11
2194.220482510799
 21
1073.451800541214
 31
0.0
  0
LINE
  5
726
330
68F
100
AcDbEntity
  8
0
  6
Continuous
 62
     7
370
    15
100
AcDbLine
 10
2194.220482510799
 20
1069.551800541214
 30
0.0
 11
2186.220482510802
 21
1069.551800541214
 31
0.0
  0
LINE
  5
727
330
68F
100
AcDbEntity
  8
0
  6
Continuous
 62
     7
370
    15
100
AcDbLine
 10
2209.220482510799
 20
1073.451800541214
 30
0.0
 11
2201.220482510803
 21
1073.451800541214
 31
0.0
  0
LINE
  5
728
330
68F
100
AcDbEntity
  8
0
  6
Continuous
 62
     7
370
    15
100
AcDbLine
 10
2201.220482510801
 20
1069.551800541214
 30
0.0
 11
2209.220482510799
 21
1069.551800541214
 31
0.0
  0
LINE
  5
729
330
68F
100
AcDbEntity
  8
0
  6
Continuous
 62
     7
370
    15
100
AcDbLine
 10
2224.220482510799
 20
1073.451800541214
 30
0.0
 11
2216.220482510802
 21
1073.451800541214
 31
0.0
  0
LINE
  5
72A
330
68F
100
AcDbEntity
  8
0
  6
Continuous
 62
     7
370
    15
100
AcDbLine
 10
2216.2204825108
 20
1069.551800541214
 30
0.0
 11
2224.220482510799
 21
1069.551800541214
 31
0.0
  0
LINE
  5
72B
330
68F
100
AcDbEntity
  8
0
  6
Continuous
 62
     7
370
    15
100
AcDbLine
 10
2171.220482510801
 20
1073.451800541214
 30
0.0
 11
2179.220482510799
 21
1073.451800541214
 31
0.0
  0
LINE
  5
72C
330
68F
100
AcDbEntity
  8
0
  6
Continuous
 62
     7
370
    15
100
AcDbLine
 10
2179.220482510799
 20
1069.551800541214
 30
0.0
 11
2171.220482510801
 21
1069.551800541214
 31
0.0
  0
LINE
  5
72D
330
68F
100
AcDbEntity
  8
0
  6
Continuous
 62
     7
370
    15
100
AcDbLine
 10
2239.220482510799
 20
1073.451800541214
 30
0.0
 11
2231.220482510803
 21
1073.451800541214
 31
0.0
  0
LINE
  5
72E
330
68F
100
AcDbEntity
  8
0
  6
Continuous
 62
     7
370
    15
100
AcDbLine
 10
2231.220482510801
 20
1069.551800541214
 30
0.0
 11
2239.220482510799
 21
1069.551800541214
 31
0.0
  0
LINE
  5
72F
330
68F
100
AcDbEntity
  8
0
  6
Continuous
 62
     7
370
    15
100
AcDbLine
 10
2254.220482510799
 20
1073.451800541214
 30
0.0
 11
2246.220482510802
 21
1073.451800541214
 31
0.0
  0
LINE
  5
730
330
68F
100
AcDbEntity
  8
0
  6
Continuous
 62
     7
370
    15
100
AcDbLine
 10
2246.220482510801
 20
1069.551800541214
 30
0.0
 11
2254.220482510799
 21
1069.551800541214
 31
0.0
  0
LINE
  5
731
330
68F
100
AcDbEntity
  8
0
  6
Continuous
 62
     7
370
    15
100
AcDbLine
 10
2269.220482510799
 20
1073.451800541214
 30
0.0
 11
2261.220482510802
 21
1073.451800541214
 31
0.0
  0
LINE
  5
732
330
68F
100
AcDbEntity
  8
0
  6
Continuous
 62
     7
370
    15
100
AcDbLine
 10
2261.2204825108
 20
1069.551800541214
 30
0.0
 11
2269.220482510799
 21
1069.551800541214
 31
0.0
  0
LINE
  5
733
330
68F
100
AcDbEntity
  8
0
  6
Continuous
 62
     7
370
    15
100
AcDbLine
 10
2278.420482510801
 20
1073.451800541214
 30
0.0
 11
2278.420482510801
 21
1069.551800541214
 31
0.0
  0
LINE
  5
734
330
68F
100
AcDbEntity
  8
0
  6
Continuous
 62
     7
370
    15
100
AcDbLine
 10
2278.420482510801
 20
1073.451800541214
 30
0.0
 11
2276.220482510803
 21
1073.451800541214
 31
0.0
  0
LINE
  5
735
330
68F
100
AcDbEntity
  8
0
  6
Continuous
 62
     7
370
    15
100
AcDbLine
 10
2276.220482510801
 20
1069.551800541214
 30
0.0
 11
2278.420482510801
 21
1069.551800541214
 31
0.0
  0
LINE
  5
736
330
68F
100
AcDbEntity
  8
0
  6
Continuous
 62
     7
370
    15
100
AcDbLine
 10
2164.718804904161
 20
1069.45180054125
 30
0.0
 11
2170.718804904259
 21
1069.45180054125
 31
0.0
  0
LINE
  5
737
330
68F
100
AcDbEntity
  8
0
  6
Continuous
 62
     7
370
    15
100
AcDbLine
 10
2164.71880490421
 20
1058.751800541214
 30
0.0
 11
2170.71880490421
 21
1058.751800541214
 31
0.0
  0
LINE
  5
738
330
68F
100
AcDbEntity
  8
0
  6
Continuous
 62
     7
370
    15
100
AcDbLine
 10
2185.722160117439
 20
1069.45180054125
 30
0.0
 11
2179.722160117341
 21
1069.45180054125
 31
0.0
  0
LINE
  5
739
330
68F
100
AcDbEntity
  8
0
  6
Continuous
 62
     7
370
    15
100
AcDbLine
 10
2185.72216011739
 20
1058.751800541214
 30
0.0
 11
2179.72216011739
 21
1058.751800541214
 31
0.0
  0
LINE
  5
73A
330
68F
100
AcDbEntity
  8
0
  6
Continuous
 62
     7
370
    15
100
AcDbLine
 10
2200.722160117439
 20
1069.45180054125
 30
0.0
 11
2194.722160117341
 21
1069.45180054125
 31
0.0
  0
LINE
  5
73B
330
68F
100
AcDbEntity
  8
0
  6
Continuous
 62
     7
370
    15
100
AcDbLine
 10
2200.72216011739
 20
1058.751800541214
 30
0.0
 11
2194.72216011739
 21
1058.751800541214
 31
0.0
  0
LINE
  5
73C
330
68F
100
AcDbEntity
  8
0
  6
Continuous
 62
     7
370
    15
100
AcDbLine
 10
2215.722160117439
 20
1069.45180054125
 30
0.0
 11
2209.72216011734
 21
1069.45180054125
 31
0.0
  0
LINE
  5
73D
330
68F
100
AcDbEntity
  8
0
  6
Continuous
 62
     7
370
    15
100
AcDbLine
 10
2215.72216011739
 20
1058.751800541214
 30
0.0
 11
2209.72216011739
 21
1058.751800541214
 31
0.0
  0
LINE
  5
73E
330
68F
100
AcDbEntity
  8
0
  6
Continuous
 62
     7
370
    15
100
AcDbLine
 10
2230.722160117439
 20
1069.45180054125
 30
0.0
 11
2224.722160117341
 21
1069.45180054125
 31
0.0
  0
LINE
  5
73F
330
68F
100
AcDbEntity
  8
0
  6
Continuous
 62
     7
370
    15
100
AcDbLine
 10
2230.72216011739
 20
1058.751800541214
 30
0.0
 11
2224.72216011739
 21
1058.751800541214
 31
0.0
  0
LINE
  5
740
330
68F
100
AcDbEntity
  8
0
  6
Continuous
 62
     7
370
    15
100
AcDbLine
 10
2245.722160117439
 20
1069.45180054125
 30
0.0
 11
2239.722160117341
 21
1069.45180054125
 31
0.0
  0
LINE
  5
741
330
68F
100
AcDbEntity
  8
0
  6
Continuous
 62
     7
370
    15
100
AcDbLine
 10
2245.72216011739
 20
1058.751800541214
 30
0.0
 11
2239.72216011739
 21
1058.751800541214
 31
0.0
  0
LINE
  5
742
330
68F
100
AcDbEntity
  8
0
  6
Continuous
 62
     7
370
    15
100
AcDbLine
 10
2260.722160117439
 20
1069.45180054125
 30
0.0
 11
2254.72216011734
 21
1069.45180054125
 31
0.0
  0
LINE
  5
743
330
68F
100
AcDbEntity
  8
0
  6
Continuous
 62
     7
370
    15
100
AcDbLine
 10
2260.72216011739
 20
1058.751800541214
 30
0.0
 11
2254.72216011739
 21
1058.751800541214
 31
0.0
  0
LINE
  5
744
330
68F
100
AcDbEntity
  8
0
  6
Continuous
 62
     7
370
    15
100
AcDbLine
 10
2275.722160117439
 20
1069.45180054125
 30
0.0
 11
2269.722160117341
 21
1069.45180054125
 31
0.0
  0
LINE
  5
745
330
68F
100
AcDbEntity
  8
0
  6
Continuous
 62
     7
370
    15
100
AcDbLine
 10
2275.72216011739
 20
1058.751800541214
 30
0.0
 11
2269.72216011739
 21
1058.751800541214
 31
0.0
  0
LINE
  5
746
330
68F
100
AcDbEntity
  8
0
  6
Continuous
 62
     7
370
    15
100
AcDbLine
 10
2164.91880490418
 20
1058.551800541258
 30
0.0
 11
2170.51880490424
 21
1058.551800541258
 31
0.0
  0
LINE
  5
747
330
68F
100
AcDbEntity
  8
0
  6
Continuous
 62
     7
370
    15
100
AcDbLine
 10
2185.522160117419
 20
1058.551800541258
 30
0.0
 11
2179.92216011736
 21
1058.551800541258
 31
0.0
  0
LINE
  5
748
330
68F
100
AcDbEntity
  8
0
  6
Continuous
 62
     7
370
    15
100
AcDbLine
 10
2200.52216011742
 20
1058.551800541258
 30
0.0
 11
2194.92216011736
 21
1058.551800541258
 31
0.0
  0
LINE
  5
749
330
68F
100
AcDbEntity
  8
0
  6
Continuous
 62
     7
370
    15
100
AcDbLine
 10
2215.522160117419
 20
1058.551800541258
 30
0.0
 11
2209.92216011736
 21
1058.551800541258
 31
0.0
  0
LINE
  5
74A
330
68F
100
AcDbEntity
  8
0
  6
Continuous
 62
     7
370
    15
100
AcDbLine
 10
2230.522160117419
 20
1058.551800541258
 30
0.0
 11
2224.92216011736
 21
1058.551800541258
 31
0.0
  0
LINE
  5
74B
330
68F
100
AcDbEntity
  8
0
  6
Continuous
 62
     7
370
    15
100
AcDbLine
 10
2245.52216011742
 20
1058.551800541258
 30
0.0
 11
2239.92216011736
 21
1058.551800541258
 31
0.0
  0
LINE
  5
74C
330
68F
100
AcDbEntity
  8
0
  6
Continuous
 62
     7
370
    15
100
AcDbLine
 10
2260.52216011742
 20
1058.551800541258
 30
0.0
 11
2254.92216011736
 21
1058.551800541258
 31
0.0
  0
LINE
  5
74D
330
68F
100
AcDbEntity
  8
0
  6
Continuous
 62
     7
370
    15
100
AcDbLine
 10
2275.52216011742
 20
1058.551800541258
 30
0.0
 11
2269.92216011736
 21
1058.551800541258
 31
0.0
  0
LINE
  5
74E
330
68F
100
AcDbEntity
  8
0
  6
Continuous
 62
     8
370
    15
100
AcDbLine
 10
2171.145482510799
 20
1074.551800541214
 30
0.0
 11
2164.295482510799
 21
1074.551800541214
 31
0.0
  0
LINE
  5
74F
330
68F
100
AcDbEntity
  8
0
  6
Continuous
 62
     8
370
    15
100
AcDbLine
 10
2179.2954825108
 20
1074.551800541214
 30
0.0
 11
2186.1454825108
 21
1074.551800541214
 31
0.0
  0
LINE
  5
750
330
68F
100
AcDbEntity
  8
0
  6
Continuous
 62
     8
370
    15
100
AcDbLine
 10
2194.2954825108
 20
1074.551800541214
 30
0.0
 11
2201.145482510801
 21
1074.551800541214
 31
0.0
  0
LINE
  5
751
330
68F
100
AcDbEntity
  8
0
  6
Continuous
 62
     8
370
    15
100
AcDbLine
 10
2209.295482510801
 20
1074.551800541214
 30
0.0
 11
2216.1454825108
 21
1074.551800541214
 31
0.0
  0
LINE
  5
752
330
68F
100
AcDbEntity
  8
0
  6
Continuous
 62
     8
370
    15
100
AcDbLine
 10
2224.2954825108
 20
1074.551800541214
 30
0.0
 11
2231.1454825108
 21
1074.551800541214
 31
0.0
  0
LINE
  5
753
330
68F
100
AcDbEntity
  8
0
  6
Continuous
 62
     8
370
    15
100
AcDbLine
 10
2239.2954825108
 20
1074.551800541214
 30
0.0
 11
2246.1454825108
 21
1074.551800541214
 31
0.0
  0
LINE
  5
754
330
68F
100
AcDbEntity
  8
0
  6
Continuous
 62
     8
370
    15
100
AcDbLine
 10
2254.295482510801
 20
1074.551800541214
 30
0.0
 11
2261.145482510801
 21
1074.551800541214
 31
0.0
  0
LINE
  5
755
330
68F
100
AcDbEntity
  8
0
  6
Continuous
 62
     8
370
    15
100
AcDbLine
 10
2269.2954825108
 20
1074.551800541214
 30
0.0
 11
2276.145482510801
 21
1074.551800541214
 31
0.0
  0
ENDBLK
  5
691
330
68F
100
AcDbEntity
  8
0
100
AcDbBlockEnd
  0
BLOCK
  5
758
330
757
100
AcDbEntity
  8
0
100
AcDbBlockBegin
  2
2
 70
     0
 10
0.0
 20
0.0
 30
0.0
  3
2
  1

  0
CIRCLE
  5
75A
330
757
100
AcDbEntity
  8
0
  6
Continuous
 62
     7
370
    15
100
AcDbCircle
 10
2227.720482510801
 20
1036.960464993046
 30
0.0
 40
2.475000000004001
  0
CIRCLE
  5
75B
330
757
100
AcDbEntity
  8
0
  6
Continuous
 62
     7
370
    15
100
AcDbCircle
 10
2227.720482510801
 20
1036.960464993046
 30
0.0
 40
3.424999999999982
  0
ARC
  5
75C
330
757
100
AcDbEntity
  8
0
  6
Continuous
 62
     7
370
    15
100
AcDbCircle
 10
2227.720482510801
 20
1036.960464993046
 30
0.0
 40
2.145679479869426
100
AcDbArc
 50
166.5246847195578
 51
193.4753152804421
  0
ARC
  5
75D
330
757
100
AcDbEntity
  8
0
  6
Continuous
 62
     7
370
    15
100
AcDbCircle
 10
2227.720482510801
 20
1036.960464993046
 30
0.0
 40
2.197439522055198
100
AcDbArc
 50
193.1521401048725
 51
346.8478598951275
  0
ARC
  5
75E
330
757
100
AcDbEntity
  8
0
  6
Continuous
 62
     7
370
    15
100
AcDbCircle
 10
2227.720482510801
 20
1036.960464993046
 30
0.0
 40
2.145679479869426
100
AcDbArc
 50
346.5246847195578
 51
13.47531528044217
  0
ARC
  5
75F
330
757
100
AcDbEntity
  8
0
  6
Continuous
 62
     7
370
    15
100
AcDbCircle
 10
2227.720482510801
 20
1036.960464993046
 30
0.0
 40
2.197439522055226
100
AcDbArc
 50
13.1521401048725
 51
166.8478598951275
  0
CIRCLE
  5
760
330
757
100
AcDbEntity
  8
0
  6
Continuous
 62
     7
370
    15
100
AcDbCircle
 10
2197.720482510801
 20
1036.960464993046
 30
0.0
 40
2.475000000004001
  0
CIRCLE
  5
761
330
757
100
AcDbEntity
  8
0
  6
Continuous
 62
     7
370
    15
100
AcDbCircle
 10
2197.720482510801
 20
1036.960464993046
 30
0.0
 40
3.425000000000011
  0
ARC
  5
762
330
757
100
AcDbEntity
  8
0
  6
Continuous
 62
     7
370
    15
100
AcDbCircle
 10
2197.720482510801
 20
1036.960464993046
 30
0.0
 40
2.145679479869426
100
AcDbArc
 50
166.5246847195578
 51
193.4753152804421
  0
ARC
  5
763
330
757
100
AcDbEntity
  8
0
  6
Continuous
 62
     7
370
    15
100
AcDbCircle
 10
2197.720482510801
 20
1036.960464993046
 30
0.0
 40
2.197439522055198
100
AcDbArc
 50
193.1521401048725
 51
346.8478598951275
  0
ARC
  5
764
330
757
100
AcDbEntity
  8
0
  6
Continuous
 62
     7
370
    15
100
AcDbCircle
 10
2197.720482510801
 20
1036.960464993046
 30
0.0
 40
2.145679479869398
100
AcDbArc
 50
346.5246847195578
 51
13.47531528044217
  0
ARC
  5
765
330
757
100
AcDbEntity
  8
0
  6
Continuous
 62
     7
370
    15
100
AcDbCircle
 10
2197.720482510801
 20
1036.960464993046
 30
0.0
 40
2.197439522055198
100
AcDbArc
 50
13.1521401048725
 51
166.8478598951275
  0
CIRCLE
  5
766
330
757
100
AcDbEntity
  8
0
  6
Continuous
 62
     7
370
    15
100
AcDbCircle
 10
2242.720482510801
 20
1036.960464993046
 30
0.0
 40
2.475000000004001
  0
ARC
  5
767
330
757
100
AcDbEntity
  8
0
  6
Continuous
 62
     7
370
    15
100
AcDbCircle
 10
2242.720482510801
 20
1036.960464993046
 30
0.0
 40
2.145679479869398
100
AcDbArc
 50
166.5246847195578
 51
193.4753152804421
  0
ARC
  5
768
330
757
100
AcDbEntity
  8
0
  6
Continuous
 62
     7
370
    15
100
AcDbCircle
 10
2242.720482510801
 20
1036.960464993046
 30
0.0
 40
2.19743952205517
100
AcDbArc
 50
193.1521401048725
 51
346.8478598951275
  0
ARC
  5
769
330
757
100
AcDbEntity
  8
0
  6
Continuous
 62
     7
370
    15
100
AcDbCircle
 10
2242.720482510801
 20
1036.960464993046
 30
0.0
 40
2.145679479869454
100
AcDbArc
 50
346.5246847195578
 51
13.47531528044217
  0
ARC
  5
76A
330
757
100
AcDbEntity
  8
0
  6
Continuous
 62
     7
370
    15
100
AcDbCircle
 10
2242.720482510801
 20
1036.960464993046
 30
0.0
 40
2.197439522055281
100
AcDbArc
 50
13.1521401048725
 51
166.8478598951275
  0
CIRCLE
  5
76B
330
757
100
AcDbEntity
  8
0
  6
Continuous
 62
     7
370
    15
100
AcDbCircle
 10
2167.720482510799
 20
1036.960464993045
 30
0.0
 40
2.475000000004001
  0
CIRCLE
  5
76C
330
757
100
AcDbEntity
  8
0
  6
Continuous
 62
     7
370
    15
100
AcDbCircle
 10
2167.720482510799
 20
1036.960464993045
 30
0.0
 40
3.425000000000011
  0
ARC
  5
76D
330
757
100
AcDbEntity
  8
0
  6
Continuous
 62
     7
370
    15
100
AcDbCircle
 10
2167.720482510799
 20
1036.960464993045
 30
0.0
 40
2.197439522055226
100
AcDbArc
 50
13.1521401048725
 51
166.8478598951275
  0
ARC
  5
76E
330
757
100
AcDbEntity
  8
0
  6
Continuous
 62
     7
370
    15
100
AcDbCircle
 10
2167.720482510799
 20
1036.960464993045
 30
0.0
 40
2.145679479869426
100
AcDbArc
 50
166.5246847195578
 51
193.4753152804421
  0
ARC
  5
76F
330
757
100
AcDbEntity
  8
0
  6
Continuous
 62
     7
370
    15
100
AcDbCircle
 10
2167.720482510799
 20
1036.960464993045
 30
0.0
 40
2.197439522055226
100
AcDbArc
 50
193.1521401048725
 51
346.8478598951275
  0
ARC
  5
770
330
757
100
AcDbEntity
  8
0
  6
Continuous
 62
     7
370
    15
100
AcDbCircle
 10
2167.720482510799
 20
1036.960464993045
 30
0.0
 40
2.145679479869398
100
AcDbArc
 50
346.5246847195578
 51
13.47531528044217
  0
CIRCLE
  5
771
330
757
100
AcDbEntity
  8
0
  6
Continuous
 62
     7
370
    15
100
AcDbCircle
 10
2242.720482510801
 20
1036.960464993046
 30
0.0
 40
3.425000000000011
  0
CIRCLE
  5
772
330
757
100
AcDbEntity
  8
0
  6
Continuous
 62
     7
370
    15
100
AcDbCircle
 10
2257.720482510801
 20
1036.960464993046
 30
0.0
 40
2.475000000004001
  0
CIRCLE
  5
773
330
757
100
AcDbEntity
  8
0
  6
Continuous
 62
     7
370
    15
100
AcDbCircle
 10
2257.720482510801
 20
1036.960464993046
 30
0.0
 40
3.425000000000011
  0
ARC
  5
774
330
757
100
AcDbEntity
  8
0
  6
Continuous
 62
     7
370
    15
100
AcDbCircle
 10
2257.720482510801
 20
1036.960464993046
 30
0.0
 40
2.145679479869398
100
AcDbArc
 50
166.5246847195578
 51
193.4753152804421
  0
ARC
  5
775
330
757
100
AcDbEntity
  8
0
  6
Continuous
 62
     7
370
    15
100
AcDbCircle
 10
2257.720482510801
 20
1036.960464993046
 30
0.0
 40
2.19743952205517
100
AcDbArc
 50
193.1521401048725
 51
346.8478598951275
  0
ARC
  5
776
330
757
100
AcDbEntity
  8
0
  6
Continuous
 62
     7
370
    15
100
AcDbCircle
 10
2257.720482510801
 20
1036.960464993046
 30
0.0
 40
2.145679479869454
100
AcDbArc
 50
346.5246847195578
 51
13.47531528044217
  0
ARC
  5
777
330
757
100
AcDbEntity
  8
0
  6
Continuous
 62
     7
370
    15
100
AcDbCircle
 10
2257.720482510801
 20
1036.960464993046
 30
0.0
 40
2.197439522055226
100
AcDbArc
 50
13.1521401048725
 51
166.8478598951275
  0
CIRCLE
  5
778
330
757
100
AcDbEntity
  8
0
  6
Continuous
 62
     7
370
    15
100
AcDbCircle
 10
2182.7204825108
 20
1036.960464993045
 30
0.0
 40
2.475000000004001
  0
CIRCLE
  5
779
330
757
100
AcDbEntity
  8
0
  6
Continuous
 62
     7
370
    15
100
AcDbCircle
 10
2182.7204825108
 20
1036.960464993045
 30
0.0
 40
3.425000000000011
  0
ARC
  5
77A
330
757
100
AcDbEntity
  8
0
  6
Continuous
 62
     7
370
    15
100
AcDbCircle
 10
2182.7204825108
 20
1036.960464993045
 30
0.0
 40
2.145679479869371
100
AcDbArc
 50
166.5246847195578
 51
193.4753152804421
  0
ARC
  5
77B
330
757
100
AcDbEntity
  8
0
  6
Continuous
 62
     7
370
    15
100
AcDbCircle
 10
2182.7204825108
 20
1036.960464993045
 30
0.0
 40
2.197439522055198
100
AcDbArc
 50
193.1521401048725
 51
346.8478598951275
  0
ARC
  5
77C
330
757
100
AcDbEntity
  8
0
  6
Continuous
 62
     7
370
    15
100
AcDbCircle
 10
2182.7204825108
 20
1036.960464993045
 30
0.0
 40
2.145679479869454
100
AcDbArc
 50
346.5246847195578
 51
13.47531528044217
  0
ARC
  5
77D
330
757
100
AcDbEntity
  8
0
  6
Continuous
 62
     7
370
    15
100
AcDbCircle
 10
2182.7204825108
 20
1036.960464993045
 30
0.0
 40
2.197439522055253
100
AcDbArc
 50
13.1521401048725
 51
166.8478598951275
  0
CIRCLE
  5
77E
330
757
100
AcDbEntity
  8
0
  6
Continuous
 62
     7
370
    15
100
AcDbCircle
 10
2212.720482510801
 20
1036.960464993046
 30
0.0
 40
2.475000000004001
  0
ARC
  5
77F
330
757
100
AcDbEntity
  8
0
  6
Continuous
 62
     7
370
    15
100
AcDbCircle
 10
2212.720482510801
 20
1036.960464993046
 30
0.0
 40
2.145679479869398
100
AcDbArc
 50
166.5246847195578
 51
193.4753152804421
  0
ARC
  5
780
330
757
100
AcDbEntity
  8
0
  6
Continuous
 62
     7
370
    15
100
AcDbCircle
 10
2212.720482510801
 20
1036.960464993046
 30
0.0
 40
2.197439522055226
100
AcDbArc
 50
193.1521401048725
 51
346.8478598951275
  0
ARC
  5
781
330
757
100
AcDbEntity
  8
0
  6
Continuous
 62
     7
370
    15
100
AcDbCircle
 10
2212.720482510801
 20
1036.960464993046
 30
0.0
 40
2.145679479869426
100
AcDbArc
 50
346.5246847195578
 51
13.47531528044217
  0
ARC
  5
782
330
757
100
AcDbEntity
  8
0
  6
Continuous
 62
     7
370
    15
100
AcDbCircle
 10
2212.720482510801
 20
1036.960464993046
 30
0.0
 40
2.197439522055226
100
AcDbArc
 50
13.1521401048725
 51
166.8478598951275
  0
CIRCLE
  5
783
330
757
100
AcDbEntity
  8
0
  6
Continuous
 62
     7
370
    15
100
AcDbCircle
 10
2272.720482510801
 20
1036.960464993046
 30
0.0
 40
2.475000000004001
  0
CIRCLE
  5
784
330
757
100
AcDbEntity
  8
0
  6
Continuous
 62
     7
370
    15
100
AcDbCircle
 10
2272.720482510801
 20
1036.960464993046
 30
0.0
 40
3.424999999999954
  0
ARC
  5
785
330
757
100
AcDbEntity
  8
0
  6
Continuous
 62
     7
370
    15
100
AcDbCircle
 10
2272.720482510801
 20
1036.960464993046
 30
0.0
 40
2.145679479869454
100
AcDbArc
 50
166.5246847195578
 51
193.4753152804421
  0
ARC
  5
786
330
757
100
AcDbEntity
  8
0
  6
Continuous
 62
     7
370
    15
100
AcDbCircle
 10
2272.720482510801
 20
1036.960464993046
 30
0.0
 40
2.197439522055226
100
AcDbArc
 50
193.1521401048725
 51
346.8478598951275
  0
ARC
  5
787
330
757
100
AcDbEntity
  8
0
  6
Continuous
 62
     7
370
    15
100
AcDbCircle
 10
2272.720482510801
 20
1036.960464993046
 30
0.0
 40
2.145679479869398
100
AcDbArc
 50
346.5246847195578
 51
13.47531528044217
  0
ARC
  5
788
330
757
100
AcDbEntity
  8
0
  6
Continuous
 62
     7
370
    15
100
AcDbCircle
 10
2272.720482510801
 20
1036.960464993046
 30
0.0
 40
2.19743952205517
100
AcDbArc
 50
13.1521401048725
 51
166.8478598951275
  0
CIRCLE
  5
789
330
757
100
AcDbEntity
  8
0
  6
Continuous
 62
     7
370
    15
100
AcDbCircle
 10
2212.720482510801
 20
1036.960464993046
 30
0.0
 40
3.424999999999982
  0
SPLINE
  5
78A
330
757
100
AcDbEntity
  8
0
  6
Continuous
 62
     7
370
    15
100
AcDbSpline
210
0.0
220
0.0
230
1.0
 70
     8
 71
     3
 72
    26
 73
    22
 74
     0
 42
0.0000000001
 43
0.0000000001
 40
0.0
 40
0.0
 40
0.0
 40
0.0
 40
0.0230715729476342
 40
0.046009032497359
 40
0.0688963121643151
 40
0.0918178967114747
 40
0.1148578935298942
 40
0.16726660811085
 40
0.2198734143150275
 40
0.287207295129593
 40
0.3550347613670422
 40
0.4272288750175968
 40
0.5000425990362794
 40
0.5721736231559384
 40
0.6450487461993215
 40
0.7123665728304422
 40
0.7802169049632342
 40
0.8396683342519311
 40
0.8991910480712959
 40
0.9495075749985694
 40
1.0
 40
1.0
 40
1.0
 40
1.0
 10
2255.795525615657
 20
1037.460464993046
 30
0.0
 10
2255.806324590084
 20
1037.499236460381
 30
0.0
 10
2255.827859765273
 20
1037.576554019293
 30
0.0
 10
2255.868845821856
 20
1037.689615427167
 30
0.0
 10
2255.916035478816
 20
1037.799888281624
 30
0.0
 10
2255.970062381722
 20
1037.907208439756
 30
0.0
 10
2256.056273983927
 20
1038.055608266618
 30
0.0
 10
2256.18736360714
 20
1038.237391534889
 30
0.0
 10
2256.395910038984
 20
1038.45504396737
 30
0.0
 10
2256.657878344636
 20
1038.654543878616
 30
0.0
 10
2256.982011606867
 20
1038.819022661332
 30
0.0
 10
2257.339954636286
 20
1038.925551620025
 30
0.0
 10
2257.719293654013
 20
1038.961120579428
 30
0.0
 10
2258.09979968798
 20
1038.925736501994
 30
0.0
 10
2258.456985081057
 20
1038.819741705657
 30
0.0
 10
2258.782521287774
 20
1038.655333555347
 30
0.0
 10
2259.053811808444
 20
1038.44831862128
 30
0.0
 10
2259.278505003348
 20
1038.210527002555
 30
0.0
 10
2259.444381086668
 20
1037.965004505815
 30
0.0
 10
2259.569224085986
 20
1037.713496008489
 30
0.0
 10
2259.620004764138
 20
1037.544906720078
 30
0.0
 10
2259.645439405944
 20
1037.460464993046
 30
0.0
  0
LINE
  5
78B
330
757
100
AcDbEntity
  8
0
  6
Continuous
 62
     7
370
    15
100
AcDbLine
 10
2259.645439405944
 20
1037.460464993046
 30
0.0
 11
2255.795525615657
 21
1037.460464993046
 31
0.0
  0
SPLINE
  5
78C
330
757
100
AcDbEntity
  8
0
  6
Continuous
 62
     7
370
    15
100
AcDbSpline
210
0.0
220
0.0
230
1.0
 70
     8
 71
     3
 72
    26
 73
    22
 74
     0
 42
0.0000000001
 43
0.0000000001
 40
0.0
 40
0.0
 40
0.0
 40
0.0
 40
0.0230715729476342
 40
0.046009032497359
 40
0.0688963121643152
 40
0.0918178967114747
 40
0.1148578935298943
 40
0.1672666081108501
 40
0.2198734143150276
 40
0.2872072951295931
 40
0.3550347613670424
 40
0.4272288750175969
 40
0.5000425990362797
 40
0.5721736231559386
 40
0.6450487461993218
 40
0.7123665728304424
 40
0.7802169049632344
 40
0.8396683342519311
 40
0.8991910480712959
 40
0.9495075749985694
 40
1.0
 40
1.0
 40
1.0
 40
1.0
 10
2240.795525615657
 20
1037.460464993046
 30
0.0
 10
2240.806324590083
 20
1037.499236460381
 30
0.0
 10
2240.827859765273
 20
1037.576554019293
 30
0.0
 10
2240.868845821856
 20
1037.689615427167
 30
0.0
 10
2240.916035478816
 20
1037.799888281624
 30
0.0
 10
2240.970062381721
 20
1037.907208439756
 30
0.0
 10
2241.056273983927
 20
1038.055608266618
 30
0.0
 10
2241.187363607139
 20
1038.237391534889
 30
0.0
 10
2241.395910038984
 20
1038.45504396737
 30
0.0
 10
2241.657878344636
 20
1038.654543878616
 30
0.0
 10
2241.982011606868
 20
1038.819022661332
 30
0.0
 10
2242.339954636286
 20
1038.925551620025
 30
0.0
 10
2242.719293654014
 20
1038.961120579428
 30
0.0
 10
2243.09979968798
 20
1038.925736501994
 30
0.0
 10
2243.456985081057
 20
1038.819741705657
 30
0.0
 10
2243.782521287774
 20
1038.655333555347
 30
0.0
 10
2244.053811808444
 20
1038.44831862128
 30
0.0
 10
2244.278505003348
 20
1038.210527002555
 30
0.0
 10
2244.444381086667
 20
1037.965004505815
 30
0.0
 10
2244.569224085986
 20
1037.713496008489
 30
0.0
 10
2244.620004764138
 20
1037.544906720078
 30
0.0
 10
2244.645439405944
 20
1037.460464993046
 30
0.0
  0
LINE
  5
78D
330
757
100
AcDbEntity
  8
0
  6
Continuous
 62
     7
370
    15
100
AcDbLine
 10
2244.645439405944
 20
1037.460464993046
 30
0.0
 11
2240.795525615657
 21
1037.460464993046
 31
0.0
  0
SPLINE
  5
78E
330
757
100
AcDbEntity
  8
0
  6
Continuous
 62
     7
370
    15
100
AcDbSpline
210
0.0
220
0.0
230
1.0
 70
     8
 71
     3
 72
    26
 73
    22
 74
     0
 42
0.0000000001
 43
0.0000000001
 40
0.0
 40
0.0
 40
0.0
 40
0.0
 40
0.0230715729476346
 40
0.0460090324973592
 40
0.0688963121643151
 40
0.0918178967114755
 40
0.1148578935298948
 40
0.1672666081108498
 40
0.2198734143150282
 40
0.2872072951295933
 40
0.3550347613670425
 40
0.4272288750175978
 40
0.500042599036279
 40
0.57217362315594
 40
0.6450487461993232
 40
0.7123665728304428
 40
0.7802169049632336
 40
0.8396683342519322
 40
0.8991910480712963
 40
0.9495075749985691
 40
1.0
 40
1.0
 40
1.0
 40
1.0
 10
2195.795525615657
 20
1037.460464993046
 30
0.0
 10
2195.806324590083
 20
1037.499236460381
 30
0.0
 10
2195.827859765273
 20
1037.576554019293
 30
0.0
 10
2195.868845821856
 20
1037.689615427167
 30
0.0
 10
2195.916035478816
 20
1037.799888281623
 30
0.0
 10
2195.970062381721
 20
1037.907208439756
 30
0.0
 10
2196.056273983927
 20
1038.055608266618
 30
0.0
 10
2196.18736360714
 20
1038.237391534889
 30
0.0
 10
2196.395910038984
 20
1038.45504396737
 30
0.0
 10
2196.657878344636
 20
1038.654543878616
 30
0.0
 10
2196.982011606867
 20
1038.819022661332
 30
0.0
 10
2197.339954636286
 20
1038.925551620025
 30
0.0
 10
2197.719293654013
 20
1038.961120579427
 30
0.0
 10
2198.09979968798
 20
1038.925736501994
 30
0.0
 10
2198.456985081057
 20
1038.819741705657
 30
0.0
 10
2198.782521287774
 20
1038.655333555347
 30
0.0
 10
2199.053811808444
 20
1038.44831862128
 30
0.0
 10
2199.278505003348
 20
1038.210527002554
 30
0.0
 10
2199.444381086667
 20
1037.965004505814
 30
0.0
 10
2199.569224085986
 20
1037.713496008489
 30
0.0
 10
2199.620004764138
 20
1037.544906720078
 30
0.0
 10
2199.645439405944
 20
1037.460464993046
 30
0.0
  0
LINE
  5
78F
330
757
100
AcDbEntity
  8
0
  6
Continuous
 62
     7
370
    15
100
AcDbLine
 10
2199.645439405944
 20
1037.460464993046
 30
0.0
 11
2195.795525615657
 21
1037.460464993046
 31
0.0
  0
SPLINE
  5
790
330
757
100
AcDbEntity
  8
0
  6
Continuous
 62
     7
370
    15
100
AcDbSpline
210
0.0
220
0.0
230
1.0
 70
     8
 71
     3
 72
    26
 73
    22
 74
     0
 42
0.0000000001
 43
0.0000000001
 40
0.0
 40
0.0
 40
0.0
 40
0.0
 40
0.0230715729476345
 40
0.0460090324973591
 40
0.068896312164315
 40
0.0918178967114755
 40
0.1148578935298947
 40
0.1672666081108498
 40
0.2198734143150281
 40
0.2872072951295931
 40
0.3550347613670426
 40
0.4272288750175976
 40
0.5000425990362788
 40
0.5721736231559394
 40
0.645048746199323
 40
0.7123665728304424
 40
0.7802169049632333
 40
0.8396683342519317
 40
0.8991910480712959
 40
0.9495075749985691
 40
0.9999999999999998
 40
0.9999999999999998
 40
0.9999999999999998
 40
0.9999999999999998
 10
2180.795525615657
 20
1037.460464993046
 30
0.0
 10
2180.806324590084
 20
1037.499236460381
 30
0.0
 10
2180.827859765273
 20
1037.576554019293
 30
0.0
 10
2180.868845821856
 20
1037.689615427167
 30
0.0
 10
2180.916035478816
 20
1037.799888281623
 30
0.0
 10
2180.970062381722
 20
1037.907208439756
 30
0.0
 10
2181.056273983927
 20
1038.055608266618
 30
0.0
 10
2181.18736360714
 20
1038.237391534889
 30
0.0
 10
2181.395910038984
 20
1038.45504396737
 30
0.0
 10
2181.657878344636
 20
1038.654543878616
 30
0.0
 10
2181.982011606867
 20
1038.819022661332
 30
0.0
 10
2182.339954636286
 20
1038.925551620025
 30
0.0
 10
2182.719293654013
 20
1038.961120579427
 30
0.0
 10
2183.09979968798
 20
1038.925736501994
 30
0.0
 10
2183.456985081057
 20
1038.819741705657
 30
0.0
 10
2183.782521287774
 20
1038.655333555347
 30
0.0
 10
2184.053811808444
 20
1038.44831862128
 30
0.0
 10
2184.278505003348
 20
1038.210527002554
 30
0.0
 10
2184.444381086668
 20
1037.965004505814
 30
0.0
 10
2184.569224085986
 20
1037.713496008489
 30
0.0
 10
2184.620004764138
 20
1037.544906720078
 30
0.0
 10
2184.645439405944
 20
1037.460464993046
 30
0.0
  0
LINE
  5
791
330
757
100
AcDbEntity
  8
0
  6
Continuous
 62
     7
370
    15
100
AcDbLine
 10
2184.645439405944
 20
1037.460464993046
 30
0.0
 11
2180.795525615657
 21
1037.460464993046
 31
0.0
  0
SPLINE
  5
792
330
757
100
AcDbEntity
  8
0
  6
Continuous
 62
     7
370
    15
100
AcDbSpline
210
0.0
220
0.0
230
1.0
 70
     8
 71
     3
 72
    14
 73
    10
 74
     0
 42
0.0000000001
 43
0.0000000001
 40
0.0
 40
0.0
 40
0.0
 40
0.0
 40
0.25
 40
0.25
 40
0.5
 40
0.5
 40
0.75
 40
0.75
 40
1.0
 40
1.0
 40
1.0
 40
1.0
 10
2165.795525615656
 20
1037.460464993046
 30
0.0
 10
2165.906244861041
 20
1037.886724542704
 30
0.0
 10
2166.155350238174
 20
1038.264219560562
 30
0.0
 10
2166.852081445568
 20
1038.803097510136
 30
0.0
 10
2167.280078202267
 20
1038.949298582907
 30
0.0
 10
2168.160886819331
 20
1038.949298582907
 30
0.0
 10
2168.58888357603
 20
1038.803097510136
 30
0.0
 10
2169.285614783424
 20
1038.264219560562
 30
0.0
 10
2169.534720160557
 20
1037.886724542704
 30
0.0
 10
2169.645439405943
 20
1037.460464993046
 30
0.0
  0
LINE
  5
793
330
757
100
AcDbEntity
  8
0
  6
Continuous
 62
     7
370
    15
100
AcDbLine
 10
2165.795525615656
 20
1037.460464993046
 30
0.0
 11
2169.645439405943
 21
1037.460464993046
 31
0.0
  0
SPLINE
  5
794
330
757
100
AcDbEntity
  8
0
  6
Continuous
 62
     7
370
    15
100
AcDbSpline
210
0.0
220
0.0
230
1.0
 70
     8
 71
     3
 72
    26
 73
    22
 74
     0
 42
0.0000000001
 43
0.0000000001
 40
0.0
 40
0.0
 40
0.0
 40
0.0
 40
0.0230715729476342
 40
0.046009032497359
 40
0.0688963121643152
 40
0.0918178967114747
 40
0.1148578935298943
 40
0.1672666081108501
 40
0.2198734143150275
 40
0.2872072951295931
 40
0.3550347613670423
 40
0.4272288750175968
 40
0.5000425990362794
 40
0.5721736231559384
 40
0.6450487461993215
 40
0.7123665728304422
 40
0.7802169049632341
 40
0.8396683342519311
 40
0.8991910480712959
 40
0.9495075749985694
 40
0.9999999999999998
 40
0.9999999999999998
 40
0.9999999999999998
 40
0.9999999999999998
 10
2270.795525615657
 20
1037.460464993046
 30
0.0
 10
2270.806324590084
 20
1037.499236460381
 30
0.0
 10
2270.827859765273
 20
1037.576554019293
 30
0.0
 10
2270.868845821857
 20
1037.689615427167
 30
0.0
 10
2270.916035478816
 20
1037.799888281624
 30
0.0
 10
2270.970062381722
 20
1037.907208439756
 30
0.0
 10
2271.056273983927
 20
1038.055608266618
 30
0.0
 10
2271.18736360714
 20
1038.237391534889
 30
0.0
 10
2271.395910038984
 20
1038.45504396737
 30
0.0
 10
2271.657878344636
 20
1038.654543878616
 30
0.0
 10
2271.982011606867
 20
1038.819022661332
 30
0.0
 10
2272.339954636287
 20
1038.925551620025
 30
0.0
 10
2272.719293654013
 20
1038.961120579428
 30
0.0
 10
2273.09979968798
 20
1038.925736501994
 30
0.0
 10
2273.456985081057
 20
1038.819741705657
 30
0.0
 10
2273.782521287774
 20
1038.655333555347
 30
0.0
 10
2274.053811808444
 20
1038.44831862128
 30
0.0
 10
2274.278505003348
 20
1038.210527002555
 30
0.0
 10
2274.444381086667
 20
1037.965004505815
 30
0.0
 10
2274.569224085986
 20
1037.713496008489
 30
0.0
 10
2274.620004764138
 20
1037.544906720078
 30
0.0
 10
2274.645439405944
 20
1037.460464993046
 30
0.0
  0
LINE
  5
795
330
757
100
AcDbEntity
  8
0
  6
Continuous
 62
     7
370
    15
100
AcDbLine
 10
2274.645439405944
 20
1037.460464993046
 30
0.0
 11
2270.795525615657
 21
1037.460464993046
 31
0.0
  0
SPLINE
  5
796
330
757
100
AcDbEntity
  8
0
  6
Continuous
 62
     7
370
    15
100
AcDbSpline
210
0.0
220
0.0
230
1.0
 70
     8
 71
     3
 72
    26
 73
    22
 74
     0
 42
0.0000000001
 43
0.0000000001
 40
0.0
 40
0.0
 40
0.0
 40
0.0
 40
0.0230715729476349
 40
0.0460090324973593
 40
0.0688963121643149
 40
0.0918178967114757
 40
0.1148578935298945
 40
0.1672666081108504
 40
0.2198734143150288
 40
0.2872072951295932
 40
0.3550347613670425
 40
0.427228875017597
 40
0.5000425990362782
 40
0.57217362315594
 40
0.6450487461993231
 40
0.7123665728304425
 40
0.7802169049632334
 40
0.8396683342519322
 40
0.8991910480712963
 40
0.9495075749985691
 40
0.9999999999999998
 40
0.9999999999999998
 40
0.9999999999999998
 40
0.9999999999999998
 10
2225.795525615657
 20
1037.460464993046
 30
0.0
 10
2225.806324590084
 20
1037.499236460381
 30
0.0
 10
2225.827859765273
 20
1037.576554019293
 30
0.0
 10
2225.868845821856
 20
1037.689615427167
 30
0.0
 10
2225.916035478816
 20
1037.799888281624
 30
0.0
 10
2225.970062381722
 20
1037.907208439756
 30
0.0
 10
2226.056273983927
 20
1038.055608266618
 30
0.0
 10
2226.18736360714
 20
1038.237391534889
 30
0.0
 10
2226.395910038984
 20
1038.45504396737
 30
0.0
 10
2226.657878344636
 20
1038.654543878616
 30
0.0
 10
2226.982011606867
 20
1038.819022661332
 30
0.0
 10
2227.339954636287
 20
1038.925551620025
 30
0.0
 10
2227.719293654013
 20
1038.961120579428
 30
0.0
 10
2228.09979968798
 20
1038.925736501994
 30
0.0
 10
2228.456985081058
 20
1038.819741705657
 30
0.0
 10
2228.782521287774
 20
1038.655333555347
 30
0.0
 10
2229.053811808444
 20
1038.44831862128
 30
0.0
 10
2229.278505003348
 20
1038.210527002555
 30
0.0
 10
2229.444381086667
 20
1037.965004505815
 30
0.0
 10
2229.569224085986
 20
1037.713496008489
 30
0.0
 10
2229.620004764138
 20
1037.544906720078
 30
0.0
 10
2229.645439405944
 20
1037.460464993046
 30
0.0
  0
LINE
  5
797
330
757
100
AcDbEntity
  8
0
  6
Continuous
 62
     7
370
    15
100
AcDbLine
 10
2229.645439405944
 20
1037.460464993046
 30
0.0
 11
2225.795525615657
 21
1037.460464993046
 31
0.0
  0
SPLINE
  5
798
330
757
100
AcDbEntity
  8
0
  6
Continuous
 62
     7
370
    15
100
AcDbSpline
210
0.0
220
0.0
230
1.0
 70
     8
 71
     3
 72
    26
 73
    22
 74
     0
 42
0.0000000001
 43
0.0000000001
 40
0.0
 40
0.0
 40
0.0
 40
0.0
 40
0.0230715729476349
 40
0.0460090324973593
 40
0.0688963121643149
 40
0.0918178967114757
 40
0.1148578935298945
 40
0.1672666081108504
 40
0.2198734143150288
 40
0.2872072951295932
 40
0.3550347613670424
 40
0.427228875017597
 40
0.5000425990362782
 40
0.57217362315594
 40
0.6450487461993231
 40
0.7123665728304426
 40
0.7802169049632334
 40
0.8396683342519322
 40
0.8991910480712963
 40
0.9495075749985691
 40
0.9999999999999998
 40
0.9999999999999998
 40
0.9999999999999998
 40
0.9999999999999998
 10
2210.795525615657
 20
1037.460464993046
 30
0.0
 10
2210.806324590083
 20
1037.499236460381
 30
0.0
 10
2210.827859765273
 20
1037.576554019293
 30
0.0
 10
2210.868845821856
 20
1037.689615427167
 30
0.0
 10
2210.916035478816
 20
1037.799888281624
 30
0.0
 10
2210.970062381722
 20
1037.907208439756
 30
0.0
 10
2211.056273983927
 20
1038.055608266618
 30
0.0
 10
2211.18736360714
 20
1038.237391534889
 30
0.0
 10
2211.395910038984
 20
1038.45504396737
 30
0.0
 10
2211.657878344636
 20
1038.654543878616
 30
0.0
 10
2211.982011606867
 20
1038.819022661332
 30
0.0
 10
2212.339954636286
 20
1038.925551620025
 30
0.0
 10
2212.719293654013
 20
1038.961120579427
 30
0.0
 10
2213.099799687979
 20
1038.925736501994
 30
0.0
 10
2213.456985081057
 20
1038.819741705657
 30
0.0
 10
2213.782521287774
 20
1038.655333555347
 30
0.0
 10
2214.053811808444
 20
1038.44831862128
 30
0.0
 10
2214.278505003348
 20
1038.210527002554
 30
0.0
 10
2214.444381086667
 20
1037.965004505814
 30
0.0
 10
2214.569224085986
 20
1037.713496008489
 30
0.0
 10
2214.620004764138
 20
1037.544906720078
 30
0.0
 10
2214.645439405944
 20
1037.460464993046
 30
0.0
  0
LINE
  5
799
330
757
100
AcDbEntity
  8
0
  6
Continuous
 62
     7
370
    15
100
AcDbLine
 10
2214.645439405944
 20
1037.460464993046
 30
0.0
 11
2210.795525615657
 21
1037.460464993046
 31
0.0
  0
SPLINE
  5
79A
330
757
100
AcDbEntity
  8
0
  6
Continuous
 62
     7
370
    15
100
AcDbSpline
210
0.0
220
0.0
230
1.0
 70
     8
 71
     3
 72
    19
 73
    15
 74
     0
 42
0.0000000001
 43
0.0000000001
 40
0.0
 40
0.0
 40
0.0
 40
0.0
 40
0.0488679617767459
 40
0.0974204996714149
 40
0.1458568154919767
 40
0.194377542516429
 40
0.2431822730058979
 40
0.3715078253163588
 40
0.500035202728209
 40
0.6283607973257657
 40
0.7568882170903854
 40
0.8379484026938454
 40
0.9186755957281148
 40
1.0
 40
1.0
 40
1.0
 40
1.0
 10
2199.645439405944
 20
1036.460464993046
 30
0.0
 10
2199.633956747454
 20
1036.419401283749
 30
0.0
 10
2199.611065546615
 20
1036.337538915591
 30
0.0
 10
2199.567011865633
 20
1036.21804719344
 30
0.0
 10
2199.516023742756
 20
1036.101746765329
 30
0.0
 10
2199.457394477699
 20
1035.98881728631
 30
0.0
 10
2199.355760434739
 20
1035.820169277958
 30
0.0
 10
2199.192074905039
 20
1035.607907427173
 30
0.0
 10
2198.943083208357
 20
1035.380015144518
 30
0.0
 10
2198.659784233679
 20
1035.196199702172
 30
0.0
 10
2198.387227756435
 20
1035.079934059849
 30
0.0
 10
2198.142636040596
 20
1035.013173950924
 30
0.0
 10
2197.932864612809
 20
1034.978106757656
 30
0.0
 10
2197.791450263627
 20
1034.973795151218
 30
0.0
 10
2197.720482510801
 20
1034.971631403184
 30
0.0
  0
SPLINE
  5
79B
330
757
100
AcDbEntity
  8
0
  6
Continuous
 62
     7
370
    15
100
AcDbSpline
210
0.0
220
0.0
230
1.0
 70
     8
 71
     3
 72
    19
 73
    15
 74
     0
 42
0.0000000001
 43
0.0000000001
 40
0.0
 40
0.0
 40
0.0
 40
0.0
 40
0.0488679617766757
 40
0.097420499671311
 40
0.1458568154918727
 40
0.1943775425163593
 40
0.2431822730058942
 40
0.3715078253162698
 40
0.5000352027282098
 40
0.6283607973257639
 40
0.7568882170903844
 40
0.8379484026938245
 40
0.9186755957280945
 40
1.0
 40
1.0
 40
1.0
 40
1.0
 10
2197.720482510801
 20
1034.971631403184
 30
0.0
 10
2197.67785088992
 20
1034.972421699564
 30
0.0
 10
2197.592862818863
 20
1034.973997191265
 30
0.0
 10
2197.46613363637
 20
1034.986595317128
 30
0.0
 10
2197.340749907078
 20
1035.006707469725
 30
0.0
 10
2197.216707848914
 20
1035.035062817707
 30
0.0
 10
2197.027925252962
 20
1035.091033889478
 30
0.0
 10
2196.781329619926
 20
1035.196098820352
 30
0.0
 10
2196.498159287296
 20
1035.379800535718
 30
0.0
 10
2196.2490251752
 20
1035.607788737361
 30
0.0
 10
2196.067972024089
 20
1035.842361731002
 30
0.0
 10
2195.9418648469
 20
1036.062313997329
 30
0.0
 10
2195.855186629955
 20
1036.256532036313
 30
0.0
 10
2195.815461420398
 20
1036.392320532991
 30
0.0
 10
2195.795525615657
 20
1036.460464993046
 30
0.0
  0
LINE
  5
79C
330
757
100
AcDbEntity
  8
0
  6
Continuous
 62
     7
370
    15
100
AcDbLine
 10
2195.795525615657
 20
1036.460464993046
 30
0.0
 11
2199.645439405944
 21
1036.460464993046
 31
0.0
  0
SPLINE
  5
79D
330
757
100
AcDbEntity
  8
0
  6
Continuous
 62
     7
370
    15
100
AcDbSpline
210
0.0
220
0.0
230
1.0
 70
     8
 71
     3
 72
    10
 73
     6
 74
     0
 42
0.0000000001
 43
0.0000000001
 40
0.0
 40
0.0
 40
0.0
 40
0.0
 40
0.5
 40
0.5
 40
1.0
 40
1.0
 40
1.0
 40
1.0
 10
2169.645439405943
 20
1036.460464993045
 30
0.0
 10
2169.534720160557
 20
1036.034205443387
 30
0.0
 10
2169.285614783424
 20
1035.656710425529
 30
0.0
 10
2168.58888357603
 20
1035.117832475955
 30
0.0
 10
2168.160886819331
 20
1034.971631403184
 30
0.0
 10
2167.720482510799
 20
1034.971631403184
 30
0.0
  0
SPLINE
  5
79E
330
757
100
AcDbEntity
  8
0
  6
Continuous
 62
     7
370
    15
100
AcDbSpline
210
0.0
220
0.0
230
1.0
 70
     8
 71
     3
 72
    10
 73
     6
 74
     0
 42
0.0000000001
 43
0.0000000001
 40
0.0
 40
0.0
 40
0.0
 40
0.0
 40
0.5
 40
0.5
 40
1.0
 40
1.0
 40
1.0
 40
1.0
 10
2167.720482510799
 20
1034.971631403184
 30
0.0
 10
2167.280078202267
 20
1034.971631403184
 30
0.0
 10
2166.852081445568
 20
1035.117832475955
 30
0.0
 10
2166.155350238174
 20
1035.656710425529
 30
0.0
 10
2165.906244861041
 20
1036.034205443387
 30
0.0
 10
2165.795525615656
 20
1036.460464993045
 30
0.0
  0
LINE
  5
79F
330
757
100
AcDbEntity
  8
0
  6
Continuous
 62
     7
370
    15
100
AcDbLine
 10
2169.645439405943
 20
1036.460464993045
 30
0.0
 11
2165.795525615656
 21
1036.460464993045
 31
0.0
  0
SPLINE
  5
7A0
330
757
100
AcDbEntity
  8
0
  6
Continuous
 62
     7
370
    15
100
AcDbSpline
210
0.0
220
0.0
230
1.0
 70
     8
 71
     3
 72
    19
 73
    15
 74
     0
 42
0.0000000001
 43
0.0000000001
 40
0.0
 40
0.0
 40
0.0
 40
0.0
 40
0.0488679617767452
 40
0.0974204996714143
 40
0.1458568154919773
 40
0.1943775425164284
 40
0.2431822730058973
 40
0.3715078253163599
 40
0.5000352027282094
 40
0.6283607973257652
 40
0.7568882170903875
 40
0.8379484026938426
 40
0.9186755957281175
 40
1.0
 40
1.0
 40
1.0
 40
1.0
 10
2244.645439405944
 20
1036.460464993046
 30
0.0
 10
2244.633956747454
 20
1036.419401283749
 30
0.0
 10
2244.611065546615
 20
1036.337538915591
 30
0.0
 10
2244.567011865633
 20
1036.21804719344
 30
0.0
 10
2244.516023742756
 20
1036.101746765329
 30
0.0
 10
2244.457394477699
 20
1035.98881728631
 30
0.0
 10
2244.35576043474
 20
1035.820169277958
 30
0.0
 10
2244.192074905039
 20
1035.607907427173
 30
0.0
 10
2243.943083208357
 20
1035.380015144518
 30
0.0
 10
2243.659784233679
 20
1035.196199702173
 30
0.0
 10
2243.387227756435
 20
1035.079934059849
 30
0.0
 10
2243.142636040595
 20
1035.013173950924
 30
0.0
 10
2242.932864612809
 20
1034.978106757656
 30
0.0
 10
2242.791450263627
 20
1034.973795151218
 30
0.0
 10
2242.720482510801
 20
1034.971631403185
 30
0.0
  0
SPLINE
  5
7A1
330
757
100
AcDbEntity
  8
0
  6
Continuous
 62
     7
370
    15
100
AcDbSpline
210
0.0
220
0.0
230
1.0
 70
     8
 71
     3
 72
    19
 73
    15
 74
     0
 42
0.0000000001
 43
0.0000000001
 40
0.0
 40
0.0
 40
0.0
 40
0.0
 40
0.0488679617766784
 40
0.0974204996713085
 40
0.1458568154918755
 40
0.1943775425163595
 40
0.2431822730058919
 40
0.3715078253162689
 40
0.5000352027282089
 40
0.6283607973257652
 40
0.756888217090385
 40
0.8379484026938238
 40
0.9186755957280942
 40
1.0
 40
1.0
 40
1.0
 40
1.0
 10
2242.720482510801
 20
1034.971631403185
 30
0.0
 10
2242.677850889921
 20
1034.972421699564
 30
0.0
 10
2242.592862818863
 20
1034.973997191265
 30
0.0
 10
2242.46613363637
 20
1034.986595317128
 30
0.0
 10
2242.340749907078
 20
1035.006707469725
 30
0.0
 10
2242.216707848914
 20
1035.035062817707
 30
0.0
 10
2242.027925252962
 20
1035.091033889478
 30
0.0
 10
2241.781329619926
 20
1035.196098820353
 30
0.0
 10
2241.498159287296
 20
1035.379800535718
 30
0.0
 10
2241.2490251752
 20
1035.607788737362
 30
0.0
 10
2241.067972024089
 20
1035.842361731002
 30
0.0
 10
2240.9418648469
 20
1036.062313997329
 30
0.0
 10
2240.855186629955
 20
1036.256532036313
 30
0.0
 10
2240.815461420398
 20
1036.392320532992
 30
0.0
 10
2240.795525615657
 20
1036.460464993046
 30
0.0
  0
LINE
  5
7A2
330
757
100
AcDbEntity
  8
0
  6
Continuous
 62
     7
370
    15
100
AcDbLine
 10
2240.795525615657
 20
1036.460464993046
 30
0.0
 11
2244.645439405944
 21
1036.460464993046
 31
0.0
  0
SPLINE
  5
7A3
330
757
100
AcDbEntity
  8
0
  6
Continuous
 62
     7
370
    15
100
AcDbSpline
210
0.0
220
0.0
230
1.0
 70
     8
 71
     3
 72
    19
 73
    15
 74
     0
 42
0.0000000001
 43
0.0000000001
 40
0.0
 40
0.0
 40
0.0
 40
0.0
 40
0.0488679617767459
 40
0.097420499671415
 40
0.1458568154919768
 40
0.1943775425164291
 40
0.243182273005898
 40
0.3715078253163589
 40
0.50003520272821
 40
0.6283607973257657
 40
0.7568882170903853
 40
0.8379484026938454
 40
0.9186755957281148
 40
1.0
 40
1.0
 40
1.0
 40
1.0
 10
2229.645439405944
 20
1036.460464993046
 30
0.0
 10
2229.633956747454
 20
1036.419401283749
 30
0.0
 10
2229.611065546615
 20
1036.337538915591
 30
0.0
 10
2229.567011865634
 20
1036.21804719344
 30
0.0
 10
2229.516023742755
 20
1036.101746765329
 30
0.0
 10
2229.457394477699
 20
1035.98881728631
 30
0.0
 10
2229.35576043474
 20
1035.820169277958
 30
0.0
 10
2229.192074905039
 20
1035.607907427173
 30
0.0
 10
2228.943083208357
 20
1035.380015144518
 30
0.0
 10
2228.65978423368
 20
1035.196199702172
 30
0.0
 10
2228.387227756435
 20
1035.079934059849
 30
0.0
 10
2228.142636040596
 20
1035.013173950924
 30
0.0
 10
2227.932864612808
 20
1034.978106757656
 30
0.0
 10
2227.791450263627
 20
1034.973795151218
 30
0.0
 10
2227.720482510801
 20
1034.971631403185
 30
0.0
  0
SPLINE
  5
7A4
330
757
100
AcDbEntity
  8
0
  6
Continuous
 62
     7
370
    15
100
AcDbSpline
210
0.0
220
0.0
230
1.0
 70
     8
 71
     3
 72
    19
 73
    15
 74
     0
 42
0.0000000001
 43
0.0000000001
 40
0.0
 40
0.0
 40
0.0
 40
0.0
 40
0.0488679617766757
 40
0.097420499671311
 40
0.1458568154918727
 40
0.1943775425163592
 40
0.2431822730058941
 40
0.3715078253162684
 40
0.5000352027282084
 40
0.6283607973257645
 40
0.756888217090384
 40
0.8379484026938241
 40
0.9186755957280944
 40
1.0
 40
1.0
 40
1.0
 40
1.0
 10
2227.720482510801
 20
1034.971631403185
 30
0.0
 10
2227.677850889921
 20
1034.972421699564
 30
0.0
 10
2227.592862818863
 20
1034.973997191265
 30
0.0
 10
2227.46613363637
 20
1034.986595317128
 30
0.0
 10
2227.340749907078
 20
1035.006707469725
 30
0.0
 10
2227.216707848914
 20
1035.035062817707
 30
0.0
 10
2227.027925252962
 20
1035.091033889478
 30
0.0
 10
2226.781329619926
 20
1035.196098820353
 30
0.0
 10
2226.498159287296
 20
1035.379800535718
 30
0.0
 10
2226.2490251752
 20
1035.607788737362
 30
0.0
 10
2226.067972024089
 20
1035.842361731002
 30
0.0
 10
2225.9418648469
 20
1036.062313997329
 30
0.0
 10
2225.855186629956
 20
1036.256532036313
 30
0.0
 10
2225.815461420398
 20
1036.392320532992
 30
0.0
 10
2225.795525615657
 20
1036.460464993046
 30
0.0
  0
LINE
  5
7A5
330
757
100
AcDbEntity
  8
0
  6
Continuous
 62
     7
370
    15
100
AcDbLine
 10
2225.795525615657
 20
1036.460464993046
 30
0.0
 11
2229.645439405944
 21
1036.460464993046
 31
0.0
  0
SPLINE
  5
7A6
330
757
100
AcDbEntity
  8
0
  6
Continuous
 62
     7
370
    15
100
AcDbSpline
210
0.0
220
0.0
230
1.0
 70
     8
 71
     3
 72
    19
 73
    15
 74
     0
 42
0.0000000001
 43
0.0000000001
 40
0.0
 40
0.0
 40
0.0
 40
0.0
 40
0.0488679617767459
 40
0.0974204996714149
 40
0.1458568154919773
 40
0.194377542516429
 40
0.2431822730058978
 40
0.3715078253163588
 40
0.5000352027282089
 40
0.6283607973257657
 40
0.7568882170903854
 40
0.8379484026938449
 40
0.9186755957281148
 40
1.0
 40
1.0
 40
1.0
 40
1.0
 10
2184.645439405944
 20
1036.460464993045
 30
0.0
 10
2184.633956747454
 20
1036.419401283749
 30
0.0
 10
2184.611065546615
 20
1036.337538915591
 30
0.0
 10
2184.567011865634
 20
1036.21804719344
 30
0.0
 10
2184.516023742755
 20
1036.101746765329
 30
0.0
 10
2184.457394477699
 20
1035.98881728631
 30
0.0
 10
2184.355760434739
 20
1035.820169277958
 30
0.0
 10
2184.192074905039
 20
1035.607907427173
 30
0.0
 10
2183.943083208357
 20
1035.380015144517
 30
0.0
 10
2183.65978423368
 20
1035.196199702172
 30
0.0
 10
2183.387227756435
 20
1035.079934059849
 30
0.0
 10
2183.142636040595
 20
1035.013173950924
 30
0.0
 10
2182.932864612808
 20
1034.978106757655
 30
0.0
 10
2182.791450263627
 20
1034.973795151218
 30
0.0
 10
2182.7204825108
 20
1034.971631403184
 30
0.0
  0
SPLINE
  5
7A7
330
757
100
AcDbEntity
  8
0
  6
Continuous
 62
     7
370
    15
100
AcDbSpline
210
0.0
220
0.0
230
1.0
 70
     8
 71
     3
 72
    19
 73
    15
 74
     0
 42
0.0000000001
 43
0.0000000001
 40
0.0
 40
0.0
 40
0.0
 40
0.0
 40
0.0488679617766764
 40
0.0974204996713111
 40
0.1458568154918728
 40
0.1943775425163587
 40
0.2431822730058942
 40
0.3715078253162693
 40
0.5000352027282091
 40
0.6283607973257638
 40
0.7568882170903847
 40
0.8379484026938241
 40
0.9186755957280945
 40
1.0
 40
1.0
 40
1.0
 40
1.0
 10
2182.7204825108
 20
1034.971631403184
 30
0.0
 10
2182.677850889921
 20
1034.972421699564
 30
0.0
 10
2182.592862818863
 20
1034.973997191265
 30
0.0
 10
2182.46613363637
 20
1034.986595317128
 30
0.0
 10
2182.340749907078
 20
1035.006707469725
 30
0.0
 10
2182.216707848914
 20
1035.035062817707
 30
0.0
 10
2182.027925252962
 20
1035.091033889478
 30
0.0
 10
2181.781329619926
 20
1035.196098820352
 30
0.0
 10
2181.498159287295
 20
1035.379800535718
 30
0.0
 10
2181.2490251752
 20
1035.607788737361
 30
0.0
 10
2181.067972024089
 20
1035.842361731002
 30
0.0
 10
2180.9418648469
 20
1036.062313997329
 30
0.0
 10
2180.855186629955
 20
1036.256532036313
 30
0.0
 10
2180.815461420398
 20
1036.392320532991
 30
0.0
 10
2180.795525615657
 20
1036.460464993045
 30
0.0
  0
LINE
  5
7A8
330
757
100
AcDbEntity
  8
0
  6
Continuous
 62
     7
370
    15
100
AcDbLine
 10
2180.795525615657
 20
1036.460464993045
 30
0.0
 11
2184.645439405944
 21
1036.460464993045
 31
0.0
  0
SPLINE
  5
7A9
330
757
100
AcDbEntity
  8
0
  6
Continuous
 62
     7
370
    15
100
AcDbSpline
210
0.0
220
0.0
230
1.0
 70
     8
 71
     3
 72
    19
 73
    15
 74
     0
 42
0.0000000001
 43
0.0000000001
 40
0.0
 40
0.0
 40
0.0
 40
0.0
 40
0.0488679617767452
 40
0.0974204996714143
 40
0.1458568154919773
 40
0.1943775425164284
 40
0.2431822730058974
 40
0.37150782531636
 40
0.5000352027282094
 40
0.6283607973257652
 40
0.7568882170903875
 40
0.8379484026938424
 40
0.9186755957281175
 40
1.0
 40
1.0
 40
1.0
 40
1.0
 10
2274.645439405944
 20
1036.460464993046
 30
0.0
 10
2274.633956747454
 20
1036.419401283749
 30
0.0
 10
2274.611065546615
 20
1036.337538915591
 30
0.0
 10
2274.567011865634
 20
1036.21804719344
 30
0.0
 10
2274.516023742755
 20
1036.10174676533
 30
0.0
 10
2274.457394477698
 20
1035.98881728631
 30
0.0
 10
2274.355760434739
 20
1035.820169277958
 30
0.0
 10
2274.192074905039
 20
1035.607907427173
 30
0.0
 10
2273.943083208357
 20
1035.380015144518
 30
0.0
 10
2273.65978423368
 20
1035.196199702173
 30
0.0
 10
2273.387227756435
 20
1035.079934059849
 30
0.0
 10
2273.142636040596
 20
1035.013173950924
 30
0.0
 10
2272.932864612808
 20
1034.978106757656
 30
0.0
 10
2272.791450263627
 20
1034.973795151218
 30
0.0
 10
2272.720482510801
 20
1034.971631403185
 30
0.0
  0
SPLINE
  5
7AA
330
757
100
AcDbEntity
  8
0
  6
Continuous
 62
     7
370
    15
100
AcDbSpline
210
0.0
220
0.0
230
1.0
 70
     8
 71
     3
 72
    19
 73
    15
 74
     0
 42
0.0000000001
 43
0.0000000001
 40
0.0
 40
0.0
 40
0.0
 40
0.0
 40
0.0488679617766784
 40
0.0974204996713085
 40
0.1458568154918755
 40
0.1943775425163595
 40
0.2431822730058919
 40
0.3715078253162688
 40
0.5000352027282089
 40
0.6283607973257652
 40
0.756888217090385
 40
0.8379484026938238
 40
0.9186755957280942
 40
1.0
 40
1.0
 40
1.0
 40
1.0
 10
2272.720482510801
 20
1034.971631403185
 30
0.0
 10
2272.677850889921
 20
1034.972421699564
 30
0.0
 10
2272.592862818863
 20
1034.973997191265
 30
0.0
 10
2272.46613363637
 20
1034.986595317128
 30
0.0
 10
2272.340749907078
 20
1035.006707469725
 30
0.0
 10
2272.216707848914
 20
1035.035062817707
 30
0.0
 10
2272.027925252962
 20
1035.091033889478
 30
0.0
 10
2271.781329619926
 20
1035.196098820353
 30
0.0
 10
2271.498159287296
 20
1035.379800535718
 30
0.0
 10
2271.2490251752
 20
1035.607788737362
 30
0.0
 10
2271.06797202409
 20
1035.842361731002
 30
0.0
 10
2270.9418648469
 20
1036.062313997329
 30
0.0
 10
2270.855186629956
 20
1036.256532036313
 30
0.0
 10
2270.815461420398
 20
1036.392320532992
 30
0.0
 10
2270.795525615657
 20
1036.460464993046
 30
0.0
  0
LINE
  5
7AB
330
757
100
AcDbEntity
  8
0
  6
Continuous
 62
     7
370
    15
100
AcDbLine
 10
2270.795525615657
 20
1036.460464993046
 30
0.0
 11
2274.645439405944
 21
1036.460464993046
 31
0.0
  0
SPLINE
  5
7AC
330
757
100
AcDbEntity
  8
0
  6
Continuous
 62
     7
370
    15
100
AcDbSpline
210
0.0
220
0.0
230
1.0
 70
     8
 71
     3
 72
    19
 73
    15
 74
     0
 42
0.0000000001
 43
0.0000000001
 40
0.0
 40
0.0
 40
0.0
 40
0.0
 40
0.0488679617767452
 40
0.0974204996714143
 40
0.1458568154919773
 40
0.1943775425164284
 40
0.2431822730058974
 40
0.37150782531636
 40
0.5000352027282094
 40
0.6283607973257653
 40
0.7568882170903875
 40
0.8379484026938426
 40
0.9186755957281175
 40
1.0
 40
1.0
 40
1.0
 40
1.0
 10
2259.645439405944
 20
1036.460464993046
 30
0.0
 10
2259.633956747455
 20
1036.419401283749
 30
0.0
 10
2259.611065546615
 20
1036.337538915591
 30
0.0
 10
2259.567011865634
 20
1036.21804719344
 30
0.0
 10
2259.516023742755
 20
1036.10174676533
 30
0.0
 10
2259.457394477699
 20
1035.98881728631
 30
0.0
 10
2259.355760434739
 20
1035.820169277958
 30
0.0
 10
2259.19207490504
 20
1035.607907427173
 30
0.0
 10
2258.943083208357
 20
1035.380015144518
 30
0.0
 10
2258.65978423368
 20
1035.196199702173
 30
0.0
 10
2258.387227756435
 20
1035.079934059849
 30
0.0
 10
2258.142636040595
 20
1035.013173950924
 30
0.0
 10
2257.932864612808
 20
1034.978106757656
 30
0.0
 10
2257.791450263627
 20
1034.973795151218
 30
0.0
 10
2257.720482510801
 20
1034.971631403185
 30
0.0
  0
SPLINE
  5
7AD
330
757
100
AcDbEntity
  8
0
  6
Continuous
 62
     7
370
    15
100
AcDbSpline
210
0.0
220
0.0
230
1.0
 70
     8
 71
     3
 72
    19
 73
    15
 74
     0
 42
0.0000000001
 43
0.0000000001
 40
0.0
 40
0.0
 40
0.0
 40
0.0
 40
0.0488679617766784
 40
0.0974204996713085
 40
0.1458568154918755
 40
0.1943775425163596
 40
0.2431822730058919
 40
0.3715078253162689
 40
0.500035202728209
 40
0.6283607973257652
 40
0.756888217090385
 40
0.8379484026938238
 40
0.9186755957280942
 40
1.0
 40
1.0
 40
1.0
 40
1.0
 10
2257.720482510801
 20
1034.971631403185
 30
0.0
 10
2257.677850889921
 20
1034.972421699564
 30
0.0
 10
2257.592862818863
 20
1034.973997191265
 30
0.0
 10
2257.46613363637
 20
1034.986595317128
 30
0.0
 10
2257.340749907078
 20
1035.006707469725
 30
0.0
 10
2257.216707848914
 20
1035.035062817707
 30
0.0
 10
2257.027925252963
 20
1035.091033889478
 30
0.0
 10
2256.781329619926
 20
1035.196098820353
 30
0.0
 10
2256.498159287295
 20
1035.379800535718
 30
0.0
 10
2256.2490251752
 20
1035.607788737362
 30
0.0
 10
2256.067972024089
 20
1035.842361731002
 30
0.0
 10
2255.9418648469
 20
1036.062313997329
 30
0.0
 10
2255.855186629955
 20
1036.256532036313
 30
0.0
 10
2255.815461420398
 20
1036.392320532992
 30
0.0
 10
2255.795525615657
 20
1036.460464993046
 30
0.0
  0
LINE
  5
7AE
330
757
100
AcDbEntity
  8
0
  6
Continuous
 62
     7
370
    15
100
AcDbLine
 10
2255.795525615657
 20
1036.460464993046
 30
0.0
 11
2259.645439405944
 21
1036.460464993046
 31
0.0
  0
SPLINE
  5
7AF
330
757
100
AcDbEntity
  8
0
  6
Continuous
 62
     7
370
    15
100
AcDbSpline
210
0.0
220
0.0
230
1.0
 70
     8
 71
     3
 72
    19
 73
    15
 74
     0
 42
0.0000000001
 43
0.0000000001
 40
0.0
 40
0.0
 40
0.0
 40
0.0
 40
0.0488679617767459
 40
0.0974204996714149
 40
0.1458568154919767
 40
0.1943775425164291
 40
0.2431822730058979
 40
0.3715078253163588
 40
0.50003520272821
 40
0.6283607973257657
 40
0.7568882170903853
 40
0.8379484026938454
 40
0.9186755957281148
 40
1.0
 40
1.0
 40
1.0
 40
1.0
 10
2214.645439405944
 20
1036.460464993046
 30
0.0
 10
2214.633956747454
 20
1036.419401283749
 30
0.0
 10
2214.611065546615
 20
1036.337538915591
 30
0.0
 10
2214.567011865634
 20
1036.21804719344
 30
0.0
 10
2214.516023742755
 20
1036.101746765329
 30
0.0
 10
2214.457394477699
 20
1035.98881728631
 30
0.0
 10
2214.355760434739
 20
1035.820169277958
 30
0.0
 10
2214.192074905039
 20
1035.607907427173
 30
0.0
 10
2213.943083208357
 20
1035.380015144518
 30
0.0
 10
2213.65978423368
 20
1035.196199702172
 30
0.0
 10
2213.387227756435
 20
1035.079934059849
 30
0.0
 10
2213.142636040595
 20
1035.013173950924
 30
0.0
 10
2212.932864612808
 20
1034.978106757656
 30
0.0
 10
2212.791450263627
 20
1034.973795151218
 30
0.0
 10
2212.720482510801
 20
1034.971631403184
 30
0.0
  0
SPLINE
  5
7B0
330
757
100
AcDbEntity
  8
0
  6
Continuous
 62
     7
370
    15
100
AcDbSpline
210
0.0
220
0.0
230
1.0
 70
     8
 71
     3
 72
    19
 73
    15
 74
     0
 42
0.0000000001
 43
0.0000000001
 40
0.0
 40
0.0
 40
0.0
 40
0.0
 40
0.0488679617766757
 40
0.097420499671311
 40
0.1458568154918727
 40
0.1943775425163592
 40
0.2431822730058941
 40
0.3715078253162684
 40
0.5000352027282084
 40
0.6283607973257645
 40
0.756888217090384
 40
0.8379484026938241
 40
0.9186755957280944
 40
1.0
 40
1.0
 40
1.0
 40
1.0
 10
2212.720482510801
 20
1034.971631403184
 30
0.0
 10
2212.677850889921
 20
1034.972421699564
 30
0.0
 10
2212.592862818863
 20
1034.973997191265
 30
0.0
 10
2212.46613363637
 20
1034.986595317128
 30
0.0
 10
2212.340749907077
 20
1035.006707469725
 30
0.0
 10
2212.216707848914
 20
1035.035062817707
 30
0.0
 10
2212.027925252963
 20
1035.091033889478
 30
0.0
 10
2211.781329619926
 20
1035.196098820352
 30
0.0
 10
2211.498159287295
 20
1035.379800535718
 30
0.0
 10
2211.249025175201
 20
1035.607788737361
 30
0.0
 10
2211.067972024089
 20
1035.842361731002
 30
0.0
 10
2210.9418648469
 20
1036.062313997329
 30
0.0
 10
2210.855186629955
 20
1036.256532036313
 30
0.0
 10
2210.815461420398
 20
1036.392320532992
 30
0.0
 10
2210.795525615657
 20
1036.460464993046
 30
0.0
  0
LINE
  5
7B1
330
757
100
AcDbEntity
  8
0
  6
Continuous
 62
     7
370
    15
100
AcDbLine
 10
2210.795525615657
 20
1036.460464993046
 30
0.0
 11
2214.645439405944
 21
1036.460464993046
 31
0.0
  0
ARC
  5
7B2
330
757
100
AcDbEntity
  8
0
  6
Continuous
 62
     7
370
    15
100
AcDbCircle
 10
2167.720482510799
 20
1036.960464993045
 30
0.0
 40
2.188421798069978
100
AcDbArc
 50
193.2073141036553
 51
346.7926858963447
  0
SPLINE
  5
7B3
330
757
100
AcDbEntity
  8
0
  6
Continuous
 62
     7
370
    15
100
AcDbSpline
210
0.0
220
0.0
230
1.0
 70
    24
 71
     3
 72
    10
 73
     6
 74
     0
 42
0.0000000001
 43
0.0000000001
 40
0.0
 40
0.0
 40
0.0
 40
0.0
 40
0.5
 40
0.5
 40
1.0
 40
1.0
 40
1.0
 40
1.0
 10
2165.795525615656
 20
1036.460464993045
 30
0.0
 10
2165.744059032064
 20
1036.460464993045
 30
0.0
 10
2165.693659790096
 20
1036.460464993045
 30
0.0
 10
2165.617609791803
 20
1036.460464993045
 30
0.0
 10
2165.593338345166
 20
1036.460464993045
 30
0.0
 10
2165.589945027846
 20
1036.460464993045
 30
0.0
  0
SPLINE
  5
7B4
330
757
100
AcDbEntity
  8
0
  6
Continuous
 62
     7
370
    15
100
AcDbSpline
210
0.0
220
0.0
230
1.0
 70
    24
 71
     3
 72
    10
 73
     6
 74
     0
 42
0.0000000001
 43
0.0000000001
 40
0.0
 40
0.0
 40
0.0
 40
0.0
 40
0.5
 40
0.5
 40
1.0
 40
1.0
 40
1.0
 40
1.0
 10
2169.851019993752
 20
1036.460464993045
 30
0.0
 10
2169.847629255466
 20
1036.460464993045
 30
0.0
 10
2169.823253219691
 20
1036.460464993045
 30
0.0
 10
2169.747590642037
 20
1036.460464993045
 30
0.0
 10
2169.696871632865
 20
1036.460464993045
 30
0.0
 10
2169.645439405943
 20
1036.460464993045
 30
0.0
  0
ARC
  5
7B5
330
757
100
AcDbEntity
  8
0
  6
Continuous
 62
     7
370
    15
100
AcDbCircle
 10
2197.720482510801
 20
1036.960464993046
 30
0.0
 40
2.188421798069978
100
AcDbArc
 50
193.2073141036553
 51
346.7926858963447
  0
SPLINE
  5
7B6
330
757
100
AcDbEntity
  8
0
  6
Continuous
 62
     7
370
    15
100
AcDbSpline
210
0.0
220
0.0
230
1.0
 70
    24
 71
     3
 72
    10
 73
     6
 74
     0
 42
0.0000000001
 43
0.0000000001
 40
0.0
 40
0.0
 40
0.0
 40
0.0
 40
0.5
 40
0.5
 40
1.0
 40
1.0
 40
1.0
 40
1.0
 10
2195.589945027847
 20
1036.460464993046
 30
0.0
 10
2195.593335766133
 20
1036.460464993046
 30
0.0
 10
2195.617711801908
 20
1036.460464993046
 30
0.0
 10
2195.693374379563
 20
1036.460464993046
 30
0.0
 10
2195.744093388735
 20
1036.460464993046
 30
0.0
 10
2195.795525615657
 20
1036.460464993046
 30
0.0
  0
SPLINE
  5
7B7
330
757
100
AcDbEntity
  8
0
  6
Continuous
 62
     7
370
    15
100
AcDbSpline
210
0.0
220
0.0
230
1.0
 70
    24
 71
     3
 72
    10
 73
     6
 74
     0
 42
0.0000000001
 43
0.0000000001
 40
0.0
 40
0.0
 40
0.0
 40
0.0
 40
0.5
 40
0.5
 40
1.0
 40
1.0
 40
1.0
 40
1.0
 10
2199.645439405944
 20
1036.460464993046
 30
0.0
 10
2199.696905989537
 20
1036.460464993046
 30
0.0
 10
2199.747305231504
 20
1036.460464993046
 30
0.0
 10
2199.823355229796
 20
1036.460464993046
 30
0.0
 10
2199.847626676434
 20
1036.460464993046
 30
0.0
 10
2199.851019993754
 20
1036.460464993046
 30
0.0
  0
ARC
  5
7B8
330
757
100
AcDbEntity
  8
0
  6
Continuous
 62
     7
370
    15
100
AcDbCircle
 10
2182.7204825108
 20
1036.960464993045
 30
0.0
 40
2.188421798070006
100
AcDbArc
 50
193.2073141036553
 51
346.7926858963447
  0
SPLINE
  5
7B9
330
757
100
AcDbEntity
  8
0
  6
Continuous
 62
     7
370
    15
100
AcDbSpline
210
0.0
220
0.0
230
1.0
 70
    24
 71
     3
 72
    10
 73
     6
 74
     0
 42
0.0000000001
 43
0.0000000001
 40
0.0
 40
0.0
 40
0.0
 40
0.0
 40
0.5
 40
0.5
 40
1.0
 40
1.0
 40
1.0
 40
1.0
 10
2180.589945027847
 20
1036.460464993045
 30
0.0
 10
2180.593335766134
 20
1036.460464993045
 30
0.0
 10
2180.617711801908
 20
1036.460464993045
 30
0.0
 10
2180.693374379563
 20
1036.460464993045
 30
0.0
 10
2180.744093388736
 20
1036.460464993045
 30
0.0
 10
2180.795525615657
 20
1036.460464993045
 30
0.0
  0
SPLINE
  5
7BA
330
757
100
AcDbEntity
  8
0
  6
Continuous
 62
     7
370
    15
100
AcDbSpline
210
0.0
220
0.0
230
1.0
 70
    24
 71
     3
 72
    10
 73
     6
 74
     0
 42
0.0000000001
 43
0.0000000001
 40
0.0
 40
0.0
 40
0.0
 40
0.0
 40
0.5
 40
0.5
 40
1.0
 40
1.0
 40
1.0
 40
1.0
 10
2184.645439405944
 20
1036.460464993045
 30
0.0
 10
2184.696905989536
 20
1036.460464993045
 30
0.0
 10
2184.747305231503
 20
1036.460464993045
 30
0.0
 10
2184.823355229796
 20
1036.460464993045
 30
0.0
 10
2184.847626676434
 20
1036.460464993045
 30
0.0
 10
2184.851019993754
 20
1036.460464993045
 30
0.0
  0
ARC
  5
7BB
330
757
100
AcDbEntity
  8
0
  6
Continuous
 62
     7
370
    15
100
AcDbCircle
 10
2257.720482510801
 20
1036.960464993046
 30
0.0
 40
2.188421798070006
100
AcDbArc
 50
193.2073141036553
 51
346.7926858963447
  0
SPLINE
  5
7BC
330
757
100
AcDbEntity
  8
0
  6
Continuous
 62
     7
370
    15
100
AcDbSpline
210
0.0
220
0.0
230
1.0
 70
    24
 71
     3
 72
    10
 73
     6
 74
     0
 42
0.0000000001
 43
0.0000000001
 40
0.0
 40
0.0
 40
0.0
 40
0.0
 40
0.5
 40
0.5
 40
1.0
 40
1.0
 40
1.0
 40
1.0
 10
2255.589945027848
 20
1036.460464993046
 30
0.0
 10
2255.593335766134
 20
1036.460464993046
 30
0.0
 10
2255.617711801908
 20
1036.460464993046
 30
0.0
 10
2255.693374379562
 20
1036.460464993046
 30
0.0
 10
2255.744093388736
 20
1036.460464993046
 30
0.0
 10
2255.795525615657
 20
1036.460464993046
 30
0.0
  0
SPLINE
  5
7BD
330
757
100
AcDbEntity
  8
0
  6
Continuous
 62
     7
370
    15
100
AcDbSpline
210
0.0
220
0.0
230
1.0
 70
    24
 71
     3
 72
    10
 73
     6
 74
     0
 42
0.0000000001
 43
0.0000000001
 40
0.0
 40
0.0
 40
0.0
 40
0.0
 40
0.5
 40
0.5
 40
1.0
 40
1.0
 40
1.0
 40
1.0
 10
2259.645439405944
 20
1036.460464993046
 30
0.0
 10
2259.696905989537
 20
1036.460464993046
 30
0.0
 10
2259.747305231504
 20
1036.460464993046
 30
0.0
 10
2259.823355229796
 20
1036.460464993046
 30
0.0
 10
2259.847626676434
 20
1036.460464993046
 30
0.0
 10
2259.851019993754
 20
1036.460464993046
 30
0.0
  0
ARC
  5
7BE
330
757
100
AcDbEntity
  8
0
  6
Continuous
 62
     7
370
    15
100
AcDbCircle
 10
2212.720482510801
 20
1036.960464993046
 30
0.0
 40
2.188421798069978
100
AcDbArc
 50
193.2073141036553
 51
346.7926858963447
  0
SPLINE
  5
7BF
330
757
100
AcDbEntity
  8
0
  6
Continuous
 62
     7
370
    15
100
AcDbSpline
210
0.0
220
0.0
230
1.0
 70
    24
 71
     3
 72
    10
 73
     6
 74
     0
 42
0.0000000001
 43
0.0000000001
 40
0.0
 40
0.0
 40
0.0
 40
0.0
 40
0.5
 40
0.5
 40
1.0
 40
1.0
 40
1.0
 40
1.0
 10
2210.589945027848
 20
1036.460464993046
 30
0.0
 10
2210.593335766134
 20
1036.460464993046
 30
0.0
 10
2210.617711801909
 20
1036.460464993046
 30
0.0
 10
2210.693374379562
 20
1036.460464993046
 30
0.0
 10
2210.744093388736
 20
1036.460464993046
 30
0.0
 10
2210.795525615657
 20
1036.460464993046
 30
0.0
  0
SPLINE
  5
7C0
330
757
100
AcDbEntity
  8
0
  6
Continuous
 62
     7
370
    15
100
AcDbSpline
210
0.0
220
0.0
230
1.0
 70
    24
 71
     3
 72
    10
 73
     6
 74
     0
 42
0.0000000001
 43
0.0000000001
 40
0.0
 40
0.0
 40
0.0
 40
0.0
 40
0.5
 40
0.5
 40
1.0
 40
1.0
 40
1.0
 40
1.0
 10
2214.645439405944
 20
1036.460464993046
 30
0.0
 10
2214.696905989537
 20
1036.460464993046
 30
0.0
 10
2214.747305231504
 20
1036.460464993046
 30
0.0
 10
2214.823355229796
 20
1036.460464993046
 30
0.0
 10
2214.847626676434
 20
1036.460464993046
 30
0.0
 10
2214.851019993754
 20
1036.460464993046
 30
0.0
  0
ARC
  5
7C1
330
757
100
AcDbEntity
  8
0
  6
Continuous
 62
     7
370
    15
100
AcDbCircle
 10
2272.720482510801
 20
1036.960464993046
 30
0.0
 40
2.188421798070006
100
AcDbArc
 50
193.2073141036553
 51
346.7926858963447
  0
SPLINE
  5
7C2
330
757
100
AcDbEntity
  8
0
  6
Continuous
 62
     7
370
    15
100
AcDbSpline
210
0.0
220
0.0
230
1.0
 70
    24
 71
     3
 72
    10
 73
     6
 74
     0
 42
0.0000000001
 43
0.0000000001
 40
0.0
 40
0.0
 40
0.0
 40
0.0
 40
0.5
 40
0.5
 40
1.0
 40
1.0
 40
1.0
 40
1.0
 10
2270.589945027848
 20
1036.460464993046
 30
0.0
 10
2270.593335766133
 20
1036.460464993046
 30
0.0
 10
2270.617711801908
 20
1036.460464993046
 30
0.0
 10
2270.693374379563
 20
1036.460464993046
 30
0.0
 10
2270.744093388735
 20
1036.460464993046
 30
0.0
 10
2270.795525615657
 20
1036.460464993046
 30
0.0
  0
SPLINE
  5
7C3
330
757
100
AcDbEntity
  8
0
  6
Continuous
 62
     7
370
    15
100
AcDbSpline
210
0.0
220
0.0
230
1.0
 70
    24
 71
     3
 72
    10
 73
     6
 74
     0
 42
0.0000000001
 43
0.0000000001
 40
0.0
 40
0.0
 40
0.0
 40
0.0
 40
0.5
 40
0.5
 40
1.0
 40
1.0
 40
1.0
 40
1.0
 10
2274.645439405944
 20
1036.460464993046
 30
0.0
 10
2274.696905989536
 20
1036.460464993046
 30
0.0
 10
2274.747305231504
 20
1036.460464993046
 30
0.0
 10
2274.823355229796
 20
1036.460464993046
 30
0.0
 10
2274.847626676434
 20
1036.460464993046
 30
0.0
 10
2274.851019993754
 20
1036.460464993046
 30
0.0
  0
ARC
  5
7C4
330
757
100
AcDbEntity
  8
0
  6
Continuous
 62
     7
370
    15
100
AcDbCircle
 10
2227.720482510801
 20
1036.960464993046
 30
0.0
 40
2.188421798069978
100
AcDbArc
 50
193.2073141036553
 51
346.7926858963447
  0
SPLINE
  5
7C5
330
757
100
AcDbEntity
  8
0
  6
Continuous
 62
     7
370
    15
100
AcDbSpline
210
0.0
220
0.0
230
1.0
 70
    24
 71
     3
 72
    10
 73
     6
 74
     0
 42
0.0000000001
 43
0.0000000001
 40
0.0
 40
0.0
 40
0.0
 40
0.0
 40
0.5
 40
0.5
 40
1.0
 40
1.0
 40
1.0
 40
1.0
 10
2225.589945027848
 20
1036.460464993046
 30
0.0
 10
2225.593335766133
 20
1036.460464993046
 30
0.0
 10
2225.617711801908
 20
1036.460464993046
 30
0.0
 10
2225.693374379563
 20
1036.460464993046
 30
0.0
 10
2225.744093388736
 20
1036.460464993046
 30
0.0
 10
2225.795525615657
 20
1036.460464993046
 30
0.0
  0
SPLINE
  5
7C6
330
757
100
AcDbEntity
  8
0
  6
Continuous
 62
     7
370
    15
100
AcDbSpline
210
0.0
220
0.0
230
1.0
 70
    24
 71
     3
 72
    10
 73
     6
 74
     0
 42
0.0000000001
 43
0.0000000001
 40
0.0
 40
0.0
 40
0.0
 40
0.0
 40
0.5
 40
0.5
 40
1.0
 40
1.0
 40
1.0
 40
1.0
 10
2229.645439405944
 20
1036.460464993046
 30
0.0
 10
2229.696905989536
 20
1036.460464993046
 30
0.0
 10
2229.747305231504
 20
1036.460464993046
 30
0.0
 10
2229.823355229796
 20
1036.460464993046
 30
0.0
 10
2229.847626676434
 20
1036.460464993046
 30
0.0
 10
2229.851019993754
 20
1036.460464993046
 30
0.0
  0
ARC
  5
7C7
330
757
100
AcDbEntity
  8
0
  6
Continuous
 62
     7
370
    15
100
AcDbCircle
 10
2242.720482510801
 20
1036.960464993046
 30
0.0
 40
2.188421798070006
100
AcDbArc
 50
193.2073141036553
 51
346.7926858963447
  0
SPLINE
  5
7C8
330
757
100
AcDbEntity
  8
0
  6
Continuous
 62
     7
370
    15
100
AcDbSpline
210
0.0
220
0.0
230
1.0
 70
    24
 71
     3
 72
    10
 73
     6
 74
     0
 42
0.0000000001
 43
0.0000000001
 40
0.0
 40
0.0
 40
0.0
 40
0.0
 40
0.5
 40
0.5
 40
1.0
 40
1.0
 40
1.0
 40
1.0
 10
2240.589945027847
 20
1036.460464993046
 30
0.0
 10
2240.593335766133
 20
1036.460464993046
 30
0.0
 10
2240.617711801908
 20
1036.460464993046
 30
0.0
 10
2240.693374379563
 20
1036.460464993046
 30
0.0
 10
2240.744093388735
 20
1036.460464993046
 30
0.0
 10
2240.795525615657
 20
1036.460464993046
 30
0.0
  0
SPLINE
  5
7C9
330
757
100
AcDbEntity
  8
0
  6
Continuous
 62
     7
370
    15
100
AcDbSpline
210
0.0
220
0.0
230
1.0
 70
    24
 71
     3
 72
    10
 73
     6
 74
     0
 42
0.0000000001
 43
0.0000000001
 40
0.0
 40
0.0
 40
0.0
 40
0.0
 40
0.5
 40
0.5
 40
1.0
 40
1.0
 40
1.0
 40
1.0
 10
2244.645439405944
 20
1036.460464993046
 30
0.0
 10
2244.696905989536
 20
1036.460464993046
 30
0.0
 10
2244.747305231504
 20
1036.460464993046
 30
0.0
 10
2244.823355229796
 20
1036.460464993046
 30
0.0
 10
2244.847626676434
 20
1036.460464993046
 30
0.0
 10
2244.851019993754
 20
1036.460464993046
 30
0.0
  0
ARC
  5
7CA
330
757
100
AcDbEntity
  8
0
  6
Continuous
 62
     7
370
    15
100
AcDbCircle
 10
2242.720482510801
 20
1036.960464993046
 30
0.0
 40
2.188421798070006
100
AcDbArc
 50
13.20731410365529
 51
166.7926858963447
  0
SPLINE
  5
7CB
330
757
100
AcDbEntity
  8
0
  6
Continuous
 62
     7
370
    15
100
AcDbSpline
210
0.0
220
0.0
230
1.0
 70
    24
 71
     3
 72
    10
 73
     6
 74
     0
 42
0.0000000001
 43
0.0000000001
 40
0.0
 40
0.0
 40
0.0
 40
0.0
 40
0.5
 40
0.5
 40
1.0
 40
1.0
 40
1.0
 40
1.0
 10
2240.795525615657
 20
1037.460464993046
 30
0.0
 10
2240.744059032065
 20
1037.460464993046
 30
0.0
 10
2240.693659790098
 20
1037.460464993046
 30
0.0
 10
2240.617609791805
 20
1037.460464993046
 30
0.0
 10
2240.593338345167
 20
1037.460464993046
 30
0.0
 10
2240.589945027847
 20
1037.460464993046
 30
0.0
  0
SPLINE
  5
7CC
330
757
100
AcDbEntity
  8
0
  6
Continuous
 62
     7
370
    15
100
AcDbSpline
210
0.0
220
0.0
230
1.0
 70
    24
 71
     3
 72
    10
 73
     6
 74
     0
 42
0.0000000001
 43
0.0000000001
 40
0.0
 40
0.0
 40
0.0
 40
0.0
 40
0.5
 40
0.5
 40
1.0
 40
1.0
 40
1.0
 40
1.0
 10
2244.851019993754
 20
1037.460464993046
 30
0.0
 10
2244.847629255468
 20
1037.460464993046
 30
0.0
 10
2244.823253219693
 20
1037.460464993046
 30
0.0
 10
2244.747590642039
 20
1037.460464993046
 30
0.0
 10
2244.696871632866
 20
1037.460464993046
 30
0.0
 10
2244.645439405944
 20
1037.460464993046
 30
0.0
  0
ARC
  5
7CD
330
757
100
AcDbEntity
  8
0
  6
Continuous
 62
     7
370
    15
100
AcDbCircle
 10
2197.720482510801
 20
1036.960464993046
 30
0.0
 40
2.188421798069978
100
AcDbArc
 50
13.20731410365529
 51
166.7926858963447
  0
SPLINE
  5
7CE
330
757
100
AcDbEntity
  8
0
  6
Continuous
 62
     7
370
    15
100
AcDbSpline
210
0.0
220
0.0
230
1.0
 70
    24
 71
     3
 72
    10
 73
     6
 74
     0
 42
0.0000000001
 43
0.0000000001
 40
0.0
 40
0.0
 40
0.0
 40
0.0
 40
0.5
 40
0.5
 40
1.0
 40
1.0
 40
1.0
 40
1.0
 10
2195.795525615657
 20
1037.460464993046
 30
0.0
 10
2195.744059032065
 20
1037.460464993046
 30
0.0
 10
2195.693659790098
 20
1037.460464993046
 30
0.0
 10
2195.617609791805
 20
1037.460464993046
 30
0.0
 10
2195.593338345168
 20
1037.460464993046
 30
0.0
 10
2195.589945027847
 20
1037.460464993046
 30
0.0
  0
SPLINE
  5
7CF
330
757
100
AcDbEntity
  8
0
  6
Continuous
 62
     7
370
    15
100
AcDbSpline
210
0.0
220
0.0
230
1.0
 70
    24
 71
     3
 72
    10
 73
     6
 74
     0
 42
0.0000000001
 43
0.0000000001
 40
0.0
 40
0.0
 40
0.0
 40
0.0
 40
0.5
 40
0.5
 40
1.0
 40
1.0
 40
1.0
 40
1.0
 10
2199.851019993754
 20
1037.460464993046
 30
0.0
 10
2199.847629255468
 20
1037.460464993046
 30
0.0
 10
2199.823253219693
 20
1037.460464993046
 30
0.0
 10
2199.747590642039
 20
1037.460464993046
 30
0.0
 10
2199.696871632866
 20
1037.460464993046
 30
0.0
 10
2199.645439405944
 20
1037.460464993046
 30
0.0
  0
ARC
  5
7D0
330
757
100
AcDbEntity
  8
0
  6
Continuous
 62
     7
370
    15
100
AcDbCircle
 10
2167.720482510799
 20
1036.960464993045
 30
0.0
 40
2.188421798069978
100
AcDbArc
 50
13.20731410365529
 51
166.7926858963447
  0
SPLINE
  5
7D1
330
757
100
AcDbEntity
  8
0
  6
Continuous
 62
     7
370
    15
100
AcDbSpline
210
0.0
220
0.0
230
1.0
 70
    24
 71
     3
 72
    10
 73
     6
 74
     0
 42
0.0000000001
 43
0.0000000001
 40
0.0
 40
0.0
 40
0.0
 40
0.0
 40
0.5
 40
0.5
 40
1.0
 40
1.0
 40
1.0
 40
1.0
 10
2165.589945027846
 20
1037.460464993046
 30
0.0
 10
2165.593335766132
 20
1037.460464993046
 30
0.0
 10
2165.617711801906
 20
1037.460464993046
 30
0.0
 10
2165.693374379561
 20
1037.460464993046
 30
0.0
 10
2165.744093388734
 20
1037.460464993046
 30
0.0
 10
2165.795525615656
 20
1037.460464993046
 30
0.0
  0
SPLINE
  5
7D2
330
757
100
AcDbEntity
  8
0
  6
Continuous
 62
     7
370
    15
100
AcDbSpline
210
0.0
220
0.0
230
1.0
 70
    24
 71
     3
 72
    10
 73
     6
 74
     0
 42
0.0000000001
 43
0.0000000001
 40
0.0
 40
0.0
 40
0.0
 40
0.0
 40
0.5
 40
0.5
 40
1.0
 40
1.0
 40
1.0
 40
1.0
 10
2169.645439405943
 20
1037.460464993046
 30
0.0
 10
2169.696905989535
 20
1037.460464993046
 30
0.0
 10
2169.747305231502
 20
1037.460464993046
 30
0.0
 10
2169.823355229794
 20
1037.460464993046
 30
0.0
 10
2169.847626676432
 20
1037.460464993046
 30
0.0
 10
2169.851019993752
 20
1037.460464993046
 30
0.0
  0
ARC
  5
7D3
330
757
100
AcDbEntity
  8
0
  6
Continuous
 62
     7
370
    15
100
AcDbCircle
 10
2182.7204825108
 20
1036.960464993045
 30
0.0
 40
2.188421798070006
100
AcDbArc
 50
13.20731410365529
 51
166.7926858963447
  0
SPLINE
  5
7D4
330
757
100
AcDbEntity
  8
0
  6
Continuous
 62
     7
370
    15
100
AcDbSpline
210
0.0
220
0.0
230
1.0
 70
    24
 71
     3
 72
    10
 73
     6
 74
     0
 42
0.0000000001
 43
0.0000000001
 40
0.0
 40
0.0
 40
0.0
 40
0.0
 40
0.5
 40
0.5
 40
1.0
 40
1.0
 40
1.0
 40
1.0
 10
2180.795525615657
 20
1037.460464993046
 30
0.0
 10
2180.744059032065
 20
1037.460464993046
 30
0.0
 10
2180.693659790097
 20
1037.460464993046
 30
0.0
 10
2180.617609791805
 20
1037.460464993046
 30
0.0
 10
2180.593338345167
 20
1037.460464993046
 30
0.0
 10
2180.589945027847
 20
1037.460464993046
 30
0.0
  0
SPLINE
  5
7D5
330
757
100
AcDbEntity
  8
0
  6
Continuous
 62
     7
370
    15
100
AcDbSpline
210
0.0
220
0.0
230
1.0
 70
    24
 71
     3
 72
    10
 73
     6
 74
     0
 42
0.0000000001
 43
0.0000000001
 40
0.0
 40
0.0
 40
0.0
 40
0.0
 40
0.5
 40
0.5
 40
1.0
 40
1.0
 40
1.0
 40
1.0
 10
2184.851019993754
 20
1037.460464993046
 30
0.0
 10
2184.847629255468
 20
1037.460464993046
 30
0.0
 10
2184.823253219693
 20
1037.460464993046
 30
0.0
 10
2184.747590642039
 20
1037.460464993046
 30
0.0
 10
2184.696871632866
 20
1037.460464993046
 30
0.0
 10
2184.645439405944
 20
1037.460464993046
 30
0.0
  0
ARC
  5
7D6
330
757
100
AcDbEntity
  8
0
  6
Continuous
 62
     7
370
    15
100
AcDbCircle
 10
2272.720482510801
 20
1036.960464993046
 30
0.0
 40
2.188421798070006
100
AcDbArc
 50
13.20731410365529
 51
166.7926858963447
  0
SPLINE
  5
7D7
330
757
100
AcDbEntity
  8
0
  6
Continuous
 62
     7
370
    15
100
AcDbSpline
210
0.0
220
0.0
230
1.0
 70
    24
 71
     3
 72
    10
 73
     6
 74
     0
 42
0.0000000001
 43
0.0000000001
 40
0.0
 40
0.0
 40
0.0
 40
0.0
 40
0.5
 40
0.5
 40
1.0
 40
1.0
 40
1.0
 40
1.0
 10
2270.795525615657
 20
1037.460464993046
 30
0.0
 10
2270.744059032065
 20
1037.460464993046
 30
0.0
 10
2270.693659790098
 20
1037.460464993046
 30
0.0
 10
2270.617609791805
 20
1037.460464993046
 30
0.0
 10
2270.593338345168
 20
1037.460464993046
 30
0.0
 10
2270.589945027848
 20
1037.460464993046
 30
0.0
  0
SPLINE
  5
7D8
330
757
100
AcDbEntity
  8
0
  6
Continuous
 62
     7
370
    15
100
AcDbSpline
210
0.0
220
0.0
230
1.0
 70
    24
 71
     3
 72
    10
 73
     6
 74
     0
 42
0.0000000001
 43
0.0000000001
 40
0.0
 40
0.0
 40
0.0
 40
0.0
 40
0.5
 40
0.5
 40
1.0
 40
1.0
 40
1.0
 40
1.0
 10
2274.851019993754
 20
1037.460464993046
 30
0.0
 10
2274.847629255468
 20
1037.460464993046
 30
0.0
 10
2274.823253219693
 20
1037.460464993046
 30
0.0
 10
2274.747590642039
 20
1037.460464993046
 30
0.0
 10
2274.696871632865
 20
1037.460464993046
 30
0.0
 10
2274.645439405944
 20
1037.460464993046
 30
0.0
  0
ARC
  5
7D9
330
757
100
AcDbEntity
  8
0
  6
Continuous
 62
     7
370
    15
100
AcDbCircle
 10
2257.720482510801
 20
1036.960464993046
 30
0.0
 40
2.188421798070006
100
AcDbArc
 50
13.20731410365529
 51
166.7926858963447
  0
SPLINE
  5
7DA
330
757
100
AcDbEntity
  8
0
  6
Continuous
 62
     7
370
    15
100
AcDbSpline
210
0.0
220
0.0
230
1.0
 70
    24
 71
     3
 72
    10
 73
     6
 74
     0
 42
0.0000000001
 43
0.0000000001
 40
0.0
 40
0.0
 40
0.0
 40
0.0
 40
0.5
 40
0.5
 40
1.0
 40
1.0
 40
1.0
 40
1.0
 10
2255.795525615657
 20
1037.460464993046
 30
0.0
 10
2255.744059032065
 20
1037.460464993046
 30
0.0
 10
2255.693659790098
 20
1037.460464993046
 30
0.0
 10
2255.617609791805
 20
1037.460464993046
 30
0.0
 10
2255.593338345168
 20
1037.460464993046
 30
0.0
 10
2255.589945027848
 20
1037.460464993046
 30
0.0
  0
SPLINE
  5
7DB
330
757
100
AcDbEntity
  8
0
  6
Continuous
 62
     7
370
    15
100
AcDbSpline
210
0.0
220
0.0
230
1.0
 70
    24
 71
     3
 72
    10
 73
     6
 74
     0
 42
0.0000000001
 43
0.0000000001
 40
0.0
 40
0.0
 40
0.0
 40
0.0
 40
0.5
 40
0.5
 40
1.0
 40
1.0
 40
1.0
 40
1.0
 10
2259.851019993754
 20
1037.460464993046
 30
0.0
 10
2259.847629255468
 20
1037.460464993046
 30
0.0
 10
2259.823253219693
 20
1037.460464993046
 30
0.0
 10
2259.747590642039
 20
1037.460464993046
 30
0.0
 10
2259.696871632866
 20
1037.460464993046
 30
0.0
 10
2259.645439405944
 20
1037.460464993046
 30
0.0
  0
ARC
  5
7DC
330
757
100
AcDbEntity
  8
0
  6
Continuous
 62
     7
370
    15
100
AcDbCircle
 10
2212.720482510801
 20
1036.960464993046
 30
0.0
 40
2.188421798069978
100
AcDbArc
 50
13.20731410365529
 51
166.7926858963447
  0
SPLINE
  5
7DD
330
757
100
AcDbEntity
  8
0
  6
Continuous
 62
     7
370
    15
100
AcDbSpline
210
0.0
220
0.0
230
1.0
 70
    24
 71
     3
 72
    10
 73
     6
 74
     0
 42
0.0000000001
 43
0.0000000001
 40
0.0
 40
0.0
 40
0.0
 40
0.0
 40
0.5
 40
0.5
 40
1.0
 40
1.0
 40
1.0
 40
1.0
 10
2210.795525615657
 20
1037.460464993046
 30
0.0
 10
2210.744059032065
 20
1037.460464993046
 30
0.0
 10
2210.693659790098
 20
1037.460464993046
 30
0.0
 10
2210.617609791805
 20
1037.460464993046
 30
0.0
 10
2210.593338345168
 20
1037.460464993046
 30
0.0
 10
2210.589945027848
 20
1037.460464993046
 30
0.0
  0
SPLINE
  5
7DE
330
757
100
AcDbEntity
  8
0
  6
Continuous
 62
     7
370
    15
100
AcDbSpline
210
0.0
220
0.0
230
1.0
 70
    24
 71
     3
 72
    10
 73
     6
 74
     0
 42
0.0000000001
 43
0.0000000001
 40
0.0
 40
0.0
 40
0.0
 40
0.0
 40
0.5
 40
0.5
 40
1.0
 40
1.0
 40
1.0
 40
1.0
 10
2214.851019993754
 20
1037.460464993046
 30
0.0
 10
2214.847629255468
 20
1037.460464993046
 30
0.0
 10
2214.823253219693
 20
1037.460464993046
 30
0.0
 10
2214.747590642039
 20
1037.460464993046
 30
0.0
 10
2214.696871632866
 20
1037.460464993046
 30
0.0
 10
2214.645439405944
 20
1037.460464993046
 30
0.0
  0
ARC
  5
7DF
330
757
100
AcDbEntity
  8
0
  6
Continuous
 62
     7
370
    15
100
AcDbCircle
 10
2227.720482510801
 20
1036.960464993046
 30
0.0
 40
2.188421798069978
100
AcDbArc
 50
13.20731410365529
 51
166.7926858963447
  0
SPLINE
  5
7E0
330
757
100
AcDbEntity
  8
0
  6
Continuous
 62
     7
370
    15
100
AcDbSpline
210
0.0
220
0.0
230
1.0
 70
    24
 71
     3
 72
    10
 73
     6
 74
     0
 42
0.0000000001
 43
0.0000000001
 40
0.0
 40
0.0
 40
0.0
 40
0.0
 40
0.5
 40
0.5
 40
1.0
 40
1.0
 40
1.0
 40
1.0
 10
2225.795525615657
 20
1037.460464993046
 30
0.0
 10
2225.744059032065
 20
1037.460464993046
 30
0.0
 10
2225.693659790098
 20
1037.460464993046
 30
0.0
 10
2225.617609791805
 20
1037.460464993046
 30
0.0
 10
2225.593338345168
 20
1037.460464993046
 30
0.0
 10
2225.589945027848
 20
1037.460464993046
 30
0.0
  0
SPLINE
  5
7E1
330
757
100
AcDbEntity
  8
0
  6
Continuous
 62
     7
370
    15
100
AcDbSpline
210
0.0
220
0.0
230
1.0
 70
    24
 71
     3
 72
    10
 73
     6
 74
     0
 42
0.0000000001
 43
0.0000000001
 40
0.0
 40
0.0
 40
0.0
 40
0.0
 40
0.5
 40
0.5
 40
1.0
 40
1.0
 40
1.0
 40
1.0
 10
2229.851019993754
 20
1037.460464993046
 30
0.0
 10
2229.847629255468
 20
1037.460464993046
 30
0.0
 10
2229.823253219693
 20
1037.460464993046
 30
0.0
 10
2229.747590642039
 20
1037.460464993046
 30
0.0
 10
2229.696871632866
 20
1037.460464993046
 30
0.0
 10
2229.645439405944
 20
1037.460464993046
 30
0.0
  0
LINE
  5
7E2
330
757
100
AcDbEntity
  8
0
  6
Continuous
 62
     7
370
    15
100
AcDbLine
 10
2254.220482510799
 20
1033.610464993046
 30
0.0
 11
2246.220482510802
 21
1033.610464993046
 31
0.0
  0
ARC
  5
7E3
330
757
100
AcDbEntity
  8
0
  6
Continuous
 62
     7
370
    15
100
AcDbCircle
 10
2242.720482510801
 20
1050.935464993051
 30
0.0
 40
17.67500000000503
100
AcDbArc
 50
258.5788137250069
 51
281.4211862749931
  0
LINE
  5
7E4
330
757
100
AcDbEntity
  8
0
  6
Continuous
 62
     7
370
    15
100
AcDbLine
 10
2239.220482510799
 20
1033.610464993046
 30
0.0
 11
2231.220482510803
 21
1033.610464993046
 31
0.0
  0
ARC
  5
7E5
330
757
100
AcDbEntity
  8
0
  6
Continuous
 62
     7
370
    15
100
AcDbCircle
 10
2227.720482510801
 20
1050.935464993051
 30
0.0
 40
17.67500000000501
100
AcDbArc
 50
258.5788137250069
 51
281.4211862749931
  0
LINE
  5
7E6
330
757
100
AcDbEntity
  8
0
  6
Continuous
 62
     7
370
    15
100
AcDbLine
 10
2224.220482510799
 20
1033.610464993046
 30
0.0
 11
2216.220482510802
 21
1033.610464993046
 31
0.0
  0
ARC
  5
7E7
330
757
100
AcDbEntity
  8
0
  6
Continuous
 62
     7
370
    15
100
AcDbCircle
 10
2212.720482510801
 20
1050.93546499305
 30
0.0
 40
17.67500000000503
100
AcDbArc
 50
258.5788137250069
 51
281.4211862749931
  0
LINE
  5
7E8
330
757
100
AcDbEntity
  8
0
  6
Continuous
 62
     7
370
    15
100
AcDbLine
 10
2209.220482510799
 20
1033.610464993046
 30
0.0
 11
2201.220482510803
 21
1033.610464993046
 31
0.0
  0
ARC
  5
7E9
330
757
100
AcDbEntity
  8
0
  6
Continuous
 62
     7
370
    15
100
AcDbCircle
 10
2197.720482510801
 20
1050.93546499305
 30
0.0
 40
17.675000000005
100
AcDbArc
 50
258.5788137250069
 51
281.4211862749931
  0
LINE
  5
7EA
330
757
100
AcDbEntity
  8
0
  6
Continuous
 62
     7
370
    15
100
AcDbLine
 10
2186.220482510801
 20
1033.610464993046
 30
0.0
 11
2194.220482510799
 21
1033.610464993046
 31
0.0
  0
ARC
  5
7EB
330
757
100
AcDbEntity
  8
0
  6
Continuous
 62
     7
370
    15
100
AcDbCircle
 10
2182.7204825108
 20
1050.93546499305
 30
0.0
 40
17.67500000000498
100
AcDbArc
 50
258.5788137250069
 51
281.4211862749931
  0
LINE
  5
7EC
330
757
100
AcDbEntity
  8
0
  6
Continuous
 62
     7
370
    15
100
AcDbLine
 10
2171.220482510801
 20
1033.610464993046
 30
0.0
 11
2179.220482510799
 21
1033.610464993046
 31
0.0
  0
ARC
  5
7ED
330
757
100
AcDbEntity
  8
0
  6
Continuous
 62
     7
370
    15
100
AcDbCircle
 10
2167.720482510799
 20
1050.93546499305
 30
0.0
 40
17.67500000000501
100
AcDbArc
 50
258.5788137250069
 51
281.4211862749931
  0
LINE
  5
7EE
330
757
100
AcDbEntity
  8
0
  6
Continuous
 62
     7
370
    15
100
AcDbLine
 10
2162.020482510799
 20
1033.610464993046
 30
0.0
 11
2164.220482510797
 21
1033.610464993046
 31
0.0
  0
LINE
  5
7EF
330
757
100
AcDbEntity
  8
0
  6
Continuous
 62
     7
370
    15
100
AcDbLine
 10
2162.020482510799
 20
1040.310464993046
 30
0.0
 11
2162.020482510799
 21
1033.610464993046
 31
0.0
  0
ARC
  5
7F0
330
757
100
AcDbEntity
  8
0
  6
Continuous
 62
     7
370
    15
100
AcDbCircle
 10
2167.720482510799
 20
1022.985464993041
 30
0.0
 40
17.67500000000479
100
AcDbArc
 50
78.57881372500691
 51
101.4211862749931
  0
LINE
  5
7F1
330
757
100
AcDbEntity
  8
0
  6
Continuous
 62
     7
370
    15
100
AcDbLine
 10
2179.220482510801
 20
1040.310464993046
 30
0.0
 11
2171.220482510799
 21
1040.310464993046
 31
0.0
  0
ARC
  5
7F2
330
757
100
AcDbEntity
  8
0
  6
Continuous
 62
     7
370
    15
100
AcDbCircle
 10
2182.7204825108
 20
1022.985464993041
 30
0.0
 40
17.67500000000485
100
AcDbArc
 50
78.57881372500691
 51
101.4211862749931
  0
LINE
  5
7F3
330
757
100
AcDbEntity
  8
0
  6
Continuous
 62
     7
370
    15
100
AcDbLine
 10
2194.220482510801
 20
1040.310464993046
 30
0.0
 11
2186.220482510801
 21
1040.310464993046
 31
0.0
  0
ARC
  5
7F4
330
757
100
AcDbEntity
  8
0
  6
Continuous
 62
     7
370
    15
100
AcDbCircle
 10
2197.720482510801
 20
1022.985464993041
 30
0.0
 40
17.67500000000479
100
AcDbArc
 50
78.57881372500691
 51
101.4211862749931
  0
LINE
  5
7F5
330
757
100
AcDbEntity
  8
0
  6
Continuous
 62
     7
370
    15
100
AcDbLine
 10
2201.220482510801
 20
1040.310464993046
 30
0.0
 11
2209.220482510801
 21
1040.310464993046
 31
0.0
  0
ARC
  5
7F6
330
757
100
AcDbEntity
  8
0
  6
Continuous
 62
     7
370
    15
100
AcDbCircle
 10
2212.720482510801
 20
1022.985464993041
 30
0.0
 40
17.67500000000479
100
AcDbArc
 50
78.57881372500691
 51
101.4211862749931
  0
LINE
  5
7F7
330
757
100
AcDbEntity
  8
0
  6
Continuous
 62
     7
370
    15
100
AcDbLine
 10
2216.2204825108
 20
1040.310464993046
 30
0.0
 11
2224.220482510801
 21
1040.310464993046
 31
0.0
  0
ARC
  5
7F8
330
757
100
AcDbEntity
  8
0
  6
Continuous
 62
     7
370
    15
100
AcDbCircle
 10
2227.720482510801
 20
1022.985464993041
 30
0.0
 40
17.67500000000478
100
AcDbArc
 50
78.57881372500691
 51
101.4211862749931
  0
LINE
  5
7F9
330
757
100
AcDbEntity
  8
0
  6
Continuous
 62
     7
370
    15
100
AcDbLine
 10
2231.220482510801
 20
1040.310464993046
 30
0.0
 11
2239.220482510801
 21
1040.310464993046
 31
0.0
  0
ARC
  5
7FA
330
757
100
AcDbEntity
  8
0
  6
Continuous
 62
     7
370
    15
100
AcDbCircle
 10
2242.720482510801
 20
1022.985464993041
 30
0.0
 40
17.67500000000478
100
AcDbArc
 50
78.57881372500691
 51
101.4211862749931
  0
LINE
  5
7FB
330
757
100
AcDbEntity
  8
0
  6
Continuous
 62
     7
370
    15
100
AcDbLine
 10
2246.220482510801
 20
1040.310464993046
 30
0.0
 11
2254.220482510801
 21
1040.310464993046
 31
0.0
  0
ARC
  5
7FC
330
757
100
AcDbEntity
  8
0
  6
Continuous
 62
     7
370
    15
100
AcDbCircle
 10
2257.720482510801
 20
1022.985464993041
 30
0.0
 40
17.67500000000479
100
AcDbArc
 50
78.57881372500691
 51
101.4211862749931
  0
LINE
  5
7FD
330
757
100
AcDbEntity
  8
0
  6
Continuous
 62
     7
370
    15
100
AcDbLine
 10
2261.2204825108
 20
1040.310464993046
 30
0.0
 11
2269.220482510801
 21
1040.310464993046
 31
0.0
  0
ARC
  5
7FE
330
757
100
AcDbEntity
  8
0
  6
Continuous
 62
     7
370
    15
100
AcDbCircle
 10
2272.720482510801
 20
1022.985464993041
 30
0.0
 40
17.67500000000479
100
AcDbArc
 50
78.57881372500691
 51
101.4211862749931
  0
LINE
  5
7FF
330
757
100
AcDbEntity
  8
0
  6
Continuous
 62
     7
370
    15
100
AcDbLine
 10
2276.220482510801
 20
1040.310464993046
 30
0.0
 11
2278.420482510801
 21
1040.310464993046
 31
0.0
  0
LINE
  5
800
330
757
100
AcDbEntity
  8
0
  6
Continuous
 62
     7
370
    15
100
AcDbLine
 10
2278.420482510801
 20
1040.310464993046
 30
0.0
 11
2278.420482510801
 21
1033.610464993046
 31
0.0
  0
ARC
  5
801
330
757
100
AcDbEntity
  8
0
  6
Continuous
 62
     7
370
    15
100
AcDbCircle
 10
2272.720482510801
 20
1050.935464993051
 30
0.0
 40
17.67500000000499
100
AcDbArc
 50
258.5788137250069
 51
281.4211862749931
  0
LINE
  5
802
330
757
100
AcDbEntity
  8
0
  6
Continuous
 62
     7
370
    15
100
AcDbLine
 10
2269.220482510799
 20
1033.610464993046
 30
0.0
 11
2261.220482510802
 21
1033.610464993046
 31
0.0
  0
ARC
  5
803
330
757
100
AcDbEntity
  8
0
  6
Continuous
 62
     7
370
    15
100
AcDbCircle
 10
2257.720482510801
 20
1050.935464993051
 30
0.0
 40
17.67500000000503
100
AcDbArc
 50
258.5788137250069
 51
281.4211862749931
  0
LINE
  5
804
330
757
100
AcDbEntity
  8
0
  6
Continuous
 62
     7
370
    15
100
AcDbLine
 10
2164.220482510799
 20
1040.310464993046
 30
0.0
 11
2162.020482510799
 21
1040.310464993046
 31
0.0
  0
LINE
  5
805
330
757
100
AcDbEntity
  8
0
  6
Continuous
 62
     7
370
    15
100
AcDbLine
 10
2278.420482510801
 20
1033.610464993046
 30
0.0
 11
2276.220482510803
 21
1033.610464993046
 31
0.0
  0
ENDBLK
  5
759
330
757
100
AcDbEntity
  8
0
100
AcDbBlockEnd
  0
BLOCK
  5
808
330
807
100
AcDbEntity
  8
0
100
AcDbBlockBegin
  2
3
 70
     0
 10
0.0
 20
0.0
 30
0.0
  3
3
  1

  0
LINE
  5
80A
330
807
100
AcDbEntity
  8
0
  6
Continuous
 62
     7
370
    15
100
AcDbLine
 10
2137.435538989205
 20
1073.451800541214
 30
0.0
 11
2137.435538989205
 21
1069.551800541214
 31
0.0
  0
LINE
  5
80B
330
807
100
AcDbEntity
  8
0
  6
Continuous
 62
     7
370
    15
100
AcDbLine
 10
2144.835538989205
 20
1069.551800541214
 30
0.0
 11
2144.835538989205
 21
1073.451800541214
 31
0.0
  0
ARC
  5
80C
330
807
100
AcDbEntity
  8
0
  6
Continuous
 62
     7
370
    15
100
AcDbCircle
 10
2137.910538989205
 20
1074.551800541214
 30
0.0
 40
0.200000000000017
100
AcDbArc
 50
180.0
 51
270.0
  0
ARC
  5
80D
330
807
100
AcDbEntity
  8
0
  6
Continuous
 62
     7
370
    15
100
AcDbCircle
 10
2144.360538989205
 20
1074.551800541214
 30
0.0
 40
0.1999999999999886
100
AcDbArc
 50
270.0
 51
0.0
  0
LINE
  5
80E
330
807
100
AcDbEntity
  8
0
  6
Continuous
 62
     7
370
    15
100
AcDbLine
 10
2144.560538989205
 20
1074.551800541214
 30
0.0
 11
2144.560538989205
 21
1079.751800541214
 31
0.0
  0
LINE
  5
80F
330
807
100
AcDbEntity
  8
0
  6
Continuous
 62
     7
370
    15
100
AcDbLine
 10
2137.710538989205
 20
1079.751800541214
 30
0.0
 11
2137.710538989205
 21
1074.551800541214
 31
0.0
  0
LINE
  5
810
330
807
100
AcDbEntity
  8
0
  6
Continuous
 62
     7
370
    15
100
AcDbLine
 10
2144.135538989254
 20
1069.45180054125
 30
0.0
 11
2144.035538989216
 21
1069.551800541232
 31
0.0
  0
LINE
  5
811
330
807
100
AcDbEntity
  8
0
  6
Continuous
 62
     7
370
    15
100
AcDbLine
 10
2138.235538989194
 20
1069.551800541232
 30
0.0
 11
2138.135538989156
 21
1069.45180054125
 31
0.0
  0
LINE
  5
812
330
807
100
AcDbEntity
  8
0
  6
Continuous
 62
     7
370
    15
100
AcDbLine
 10
2144.135538989206
 20
1058.751800541214
 30
0.0
 11
2144.135538989206
 21
1069.45180054125
 31
0.0
  0
LINE
  5
813
330
807
100
AcDbEntity
  8
0
  6
Continuous
 62
     7
370
    15
100
AcDbLine
 10
2138.135538989206
 20
1069.45180054125
 30
0.0
 11
2138.135538989206
 21
1058.751800541214
 31
0.0
  0
LINE
  5
814
330
807
100
AcDbEntity
  8
0
  6
Continuous
 62
     7
370
    15
100
AcDbLine
 10
2138.13553898922
 20
1058.751800541214
 30
0.0
 11
2138.335538989176
 21
1058.551800541258
 31
0.0
  0
LINE
  5
815
330
807
100
AcDbEntity
  8
0
  6
Continuous
 62
     7
370
    15
100
AcDbLine
 10
2143.935538989235
 20
1058.551800541258
 30
0.0
 11
2144.135538989191
 21
1058.751800541214
 31
0.0
  0
LINE
  5
816
330
807
100
AcDbEntity
  8
0
  6
Continuous
 62
     7
370
    15
100
AcDbLine
 10
2144.135538989206
 20
1073.451800541214
 30
0.0
 11
2144.135538989206
 21
1074.351800541214
 31
0.0
  0
LINE
  5
817
330
807
100
AcDbEntity
  8
0
  6
Continuous
 62
     7
370
    15
100
AcDbLine
 10
2138.135538989206
 20
1074.351800541214
 30
0.0
 11
2138.135538989206
 21
1073.451800541214
 31
0.0
  0
LINE
  5
818
330
807
100
AcDbEntity
  8
0
  6
Continuous
 62
     7
370
    15
100
AcDbLine
 10
2144.485538989206
 20
1073.451800541214
 30
0.0
 11
2137.785538989206
 21
1073.451800541214
 31
0.0
  0
LINE
  5
819
330
807
100
AcDbEntity
  8
0
  6
Continuous
 62
     7
370
    15
100
AcDbLine
 10
2137.785538989206
 20
1073.451800541214
 30
0.0
 11
2137.785538989206
 21
1069.551800541214
 31
0.0
  0
LINE
  5
81A
330
807
100
AcDbEntity
  8
0
  6
Continuous
 62
     7
370
    15
100
AcDbLine
 10
2144.485538989206
 20
1073.451800541214
 30
0.0
 11
2144.485538989206
 21
1069.551800541214
 31
0.0
  0
LINE
  5
81B
330
807
100
AcDbEntity
  8
0
  6
Continuous
 62
     7
370
    15
100
AcDbLine
 10
2137.785538989206
 20
1069.551800541214
 30
0.0
 11
2144.485538989206
 21
1069.551800541214
 31
0.0
  0
LINE
  5
81C
330
807
100
AcDbEntity
  8
0
  6
Continuous
 62
     7
370
    15
100
AcDbLine
 10
2137.785538989206
 20
1073.451800541214
 30
0.0
 11
2137.435538989205
 21
1073.451800541214
 31
0.0
  0
LINE
  5
81D
330
807
100
AcDbEntity
  8
0
  6
Continuous
 62
     7
370
    15
100
AcDbLine
 10
2137.785538989205
 20
1069.551800541214
 30
0.0
 11
2137.435538989205
 21
1069.551800541214
 31
0.0
  0
LINE
  5
81E
330
807
100
AcDbEntity
  8
0
  6
Continuous
 62
     7
370
    15
100
AcDbLine
 10
2144.835538989205
 20
1073.451800541214
 30
0.0
 11
2144.485538989206
 21
1073.451800541214
 31
0.0
  0
LINE
  5
81F
330
807
100
AcDbEntity
  8
0
  6
Continuous
 62
     7
370
    15
100
AcDbLine
 10
2144.835538989205
 20
1069.551800541214
 30
0.0
 11
2144.485538989206
 21
1069.551800541214
 31
0.0
  0
SPLINE
  5
820
330
807
100
AcDbEntity
  8
0
  6
Continuous
 62
     7
370
    15
100
AcDbSpline
210
0.0
220
0.0
230
1.0
 70
    24
 71
     3
 72
    22
 73
    18
 74
     0
 42
0.0000000001
 43
0.0000000001
 40
0.0
 40
0.0
 40
0.0
 40
0.0
 40
0.0345767369425583
 40
0.068898905576792
 40
0.1030656356827384
 40
0.1371774121935309
 40
0.1713352050309756
 40
0.2056395777922316
 40
0.2401898141702156
 40
0.370056015009088
 40
0.5000280681034757
 40
0.6298943165886659
 40
0.7598664173671196
 40
0.8201306883705267
 40
0.8798809851167735
 40
0.9396575701707888
 40
1.0
 40
1.0
 40
1.0
 40
1.0
 10
2141.135538989205
 20
1074.351800541214
 30
0.0
 10
2141.07719978929
 20
1074.351800541214
 30
0.0
 10
2140.960950906895
 20
1074.351800541214
 30
0.0
 10
2140.787546082227
 20
1074.351800541214
 30
0.0
 10
2140.615922745172
 20
1074.351800541214
 30
0.0
 10
2140.446084012967
 20
1074.351800541214
 30
0.0
 10
2140.278039081196
 20
1074.351800541214
 30
0.0
 10
2140.111774475777
 20
1074.351800541214
 30
0.0
 10
2139.79685206792
 20
1074.351800541214
 30
0.0
 10
2139.351798424171
 20
1074.351800541214
 30
0.0
 10
2138.839862760798
 20
1074.351800541214
 30
0.0
 10
2138.420100434298
 20
1074.351800541214
 30
0.0
 10
2138.170929645386
 20
1074.351800541214
 30
0.0
 10
2138.033495662427
 20
1074.351800541214
 30
0.0
 10
2137.962768638946
 20
1074.351800541214
 30
0.0
 10
2137.918621088538
 20
1074.351800541214
 30
0.0
 10
2137.913241469575
 20
1074.351800541214
 30
0.0
 10
2137.910538989205
 20
1074.351800541214
 30
0.0
  0
SPLINE
  5
821
330
807
100
AcDbEntity
  8
0
  6
Continuous
 62
     7
370
    15
100
AcDbSpline
210
0.0
220
0.0
230
1.0
 70
    24
 71
     3
 72
    22
 73
    18
 74
     0
 42
0.0000000001
 43
0.0000000001
 40
0.0
 40
0.0
 40
0.0
 40
0.0
 40
0.0345391614887368
 40
0.0688357986754425
 40
0.1029895277956236
 40
0.1371012171073349
 40
0.171272107159667
 40
0.2056029147619393
 40
0.2401929598423603
 40
0.3700588287086892
 40
0.5000305495597695
 40
0.6298964660721063
 40
0.7598682346073091
 40
0.8201119842015359
 40
0.8798553991925299
 40
0.9396384390827632
 40
1.0
 40
1.0
 40
1.0
 40
1.0
 10
2144.360538989205
 20
1074.351800541214
 30
0.0
 10
2144.359666092673
 20
1074.351800541214
 30
0.0
 10
2144.357926428842
 20
1074.351800541214
 30
0.0
 10
2144.343571130379
 20
1074.351800541214
 30
0.0
 10
2144.320589752754
 20
1074.351800541214
 30
0.0
 10
2144.288155568714
 20
1074.351800541214
 30
0.0
 10
2144.246494307153
 20
1074.351800541214
 30
0.0
 10
2144.195531184739
 20
1074.351800541214
 30
0.0
 10
2144.080355762545
 20
1074.351800541214
 30
0.0
 10
2143.851023708386
 20
1074.351800541214
 30
0.0
 10
2143.43148874212
 20
1074.351800541214
 30
0.0
 10
2142.919403617452
 20
1074.351800541214
 30
0.0
 10
2142.435637521251
 20
1074.351800541214
 30
0.0
 10
2142.03644211804
 20
1074.351800541214
 30
0.0
 10
2141.741111748725
 20
1074.351800541214
 30
0.0
 10
2141.440178137019
 20
1074.351800541214
 30
0.0
 10
2141.237410827279
 20
1074.351800541214
 30
0.0
 10
2141.135538989205
 20
1074.351800541214
 30
0.0
  0
LINE
  5
822
330
807
100
AcDbEntity
  8
0
  6
Continuous
 62
     7
370
    15
100
AcDbLine
 10
2141.135538989205
 20
1079.751800541214
 30
0.0
 11
2144.560538989205
 21
1079.751800541214
 31
0.0
  0
LINE
  5
823
330
807
100
AcDbEntity
  8
0
  6
Continuous
 62
     7
370
    15
100
AcDbLine
 10
2137.710538989205
 20
1079.751800541214
 30
0.0
 11
2141.135538989205
 21
1079.751800541214
 31
0.0
  0
LINE
  5
824
330
807
100
AcDbEntity
  8
0
  6
Continuous
 62
     7
370
    15
100
AcDbLine
 10
2141.135538989205
 20
1069.45180054125
 30
0.0
 11
2138.135538989156
 21
1069.45180054125
 31
0.0
  0
LINE
  5
825
330
807
100
AcDbEntity
  8
0
  6
Continuous
 62
     7
370
    15
100
AcDbLine
 10
2144.135538989254
 20
1069.45180054125
 30
0.0
 11
2141.135538989205
 21
1069.45180054125
 31
0.0
  0
LINE
  5
826
330
807
100
AcDbEntity
  8
0
  6
Continuous
 62
     7
370
    15
100
AcDbLine
 10
2141.135538989205
 20
1058.751800541214
 30
0.0
 11
2138.135538989206
 21
1058.751800541214
 31
0.0
  0
LINE
  5
827
330
807
100
AcDbEntity
  8
0
  6
Continuous
 62
     7
370
    15
100
AcDbLine
 10
2144.135538989206
 20
1058.751800541214
 30
0.0
 11
2141.135538989205
 21
1058.751800541214
 31
0.0
  0
LINE
  5
828
330
807
100
AcDbEntity
  8
0
  6
Continuous
 62
     7
370
    15
100
AcDbLine
 10
2143.935538989235
 20
1058.551800541258
 30
0.0
 11
2138.335538989176
 21
1058.551800541258
 31
0.0
  0
LINE
  5
829
330
807
100
AcDbEntity
  8
0
  6
Continuous
 62
     8
370
    15
100
AcDbLine
 10
2137.710538989205
 20
1074.551800541214
 30
0.0
 11
2144.560538989205
 21
1074.551800541214
 31
0.0
  0
ENDBLK
  5
809
330
807
100
AcDbEntity
  8
0
100
AcDbBlockEnd
  0
BLOCK
  5
82C
330
82B
100
AcDbEntity
  8
0
100
AcDbBlockBegin
  2
4
 70
     0
 10
0.0
 20
0.0
 30
0.0
  3
4
  1

  0
LINE
  5
82E
330
82B
100
AcDbEntity
  8
0
  6
Continuous
 62
     7
370
    15
100
AcDbLine
 10
2390.014553612075
 20
1042.296975605811
 30
0.0
 11
2390.128140725115
 21
1046.848673688013
 31
0.0
  0
LINE
  5
82F
330
82B
100
AcDbEntity
  8
0
  6
Continuous
 62
     7
370
    15
100
AcDbLine
 10
2383.280272635872
 20
1047.01956146499
 30
0.0
 11
2383.166685522831
 21
1042.467863382788
 31
0.0
  0
SPLINE
  5
830
330
82B
100
AcDbEntity
  8
0
  6
Continuous
 62
     7
370
    15
100
AcDbSpline
210
0.0
220
0.0
230
1.0
 70
     8
 71
     3
 72
    21
 73
    17
 74
     0
 42
0.0000000001
 43
0.0000000001
 40
0.0
 40
0.0
 40
0.0
 40
0.0
 40
0.0408878167079801
 40
0.1273654126887017
 40
0.2087795089248589
 40
0.2910026943518584
 40
0.3728726885052647
 40
0.4538568469817694
 40
0.5338487085379241
 40
0.6127894449275852
 40
0.6898601981454275
 40
0.7626632489438729
 40
0.8303147994080436
 40
0.8808410208726616
 40
0.9376662694136324
 40
1.0
 40
1.0
 40
1.0
 40
1.0
 10
2383.181329824408
 20
1042.559181178003
 30
0.0
 10
2383.174786087963
 20
1042.51703457964
 30
0.0
 10
2383.15440237076
 20
1042.385748066292
 30
0.0
 10
2383.196700502379
 20
1042.167961775542
 30
0.0
 10
2383.301784433573
 20
1041.920117127526
 30
0.0
 10
2383.46596736576
 20
1041.692915105143
 30
0.0
 10
2383.681079796909
 20
1041.484207764949
 30
0.0
 10
2383.941414423373
 20
1041.295977328424
 30
0.0
 10
2384.240414553563
 20
1041.129381214804
 30
0.0
 10
2384.570968384857
 20
1040.985801627628
 30
0.0
 10
2384.921512466481
 20
1040.867448077161
 30
0.0
 10
2385.27755089601
 20
1040.775349403468
 30
0.0
 10
2385.604969670715
 20
1040.712079487483
 30
0.0
 10
2385.913296220395
 20
1040.66854846119
 30
0.0
 10
2386.217617786487
 20
1040.638045179949
 30
0.0
 10
2386.433720944406
 20
1040.629590097215
 30
0.0
 10
2386.546767532445
 20
1040.625167125038
 30
0.0
  0
SPLINE
  5
831
330
82B
100
AcDbEntity
  8
0
  6
Continuous
 62
     7
370
    15
100
AcDbSpline
210
0.0
220
0.0
230
1.0
 70
     8
 71
     3
 72
    21
 73
    17
 74
     0
 42
0.0000000001
 43
0.0000000001
 40
0.0
 40
0.0
 40
0.0
 40
0.0
 40
0.0982887482057528
 40
0.1377903359180083
 40
0.2029130737558183
 40
0.2696509293855759
 40
0.3403632019532931
 40
0.4131492125875022
 40
0.487298340503075
 40
0.5623041003175803
 40
0.6379131677679481
 40
0.7140801862430026
 40
0.7908243860031249
 40
0.8684313460233678
 40
0.9477094675585977
 40
1.0
 40
1.0
 40
1.0
 40
1.0
 10
2386.546767532445
 20
1040.625167125038
 30
0.0
 10
2386.716847187701
 20
1040.624366005071
 30
0.0
 10
2386.955280714002
 20
1040.623242920371
 30
0.0
 10
2387.301050599992
 20
1040.646481351535
 30
0.0
 10
2387.588573709258
 20
1040.676799896218
 30
0.0
 10
2387.918128105497
 20
1040.729914849203
 30
0.0
 10
2388.245510476198
 20
1040.802750461002
 30
0.0
 10
2388.564734325322
 20
1040.896693746734
 30
0.0
 10
2388.865920803151
 20
1041.010902476456
 30
0.0
 10
2389.142359258348
 20
1041.144505012639
 30
0.0
 10
2389.388997919515
 20
1041.296621060171
 30
0.0
 10
2389.601573199177
 20
1041.466723838897
 30
0.0
 10
2389.777261450815
 20
1041.654816163904
 30
0.0
 10
2389.908962750122
 20
1041.861937042224
 30
0.0
 10
2389.990633193006
 20
1042.059939127881
 30
0.0
 10
2390.000302815721
 20
1042.190024096005
 30
0.0
 10
2390.00414590224
 20
1042.24172495362
 30
0.0
  0
LINE
  5
832
330
82B
100
AcDbEntity
  8
0
  6
Continuous
 62
     7
370
    15
100
AcDbLine
 10
2389.565657840767
 20
1041.344718922423
 30
0.0
 11
2389.568231174512
 21
1041.447838351713
 31
0.0
  0
LINE
  5
833
330
82B
100
AcDbEntity
  8
0
  6
Continuous
 62
     7
370
    15
100
AcDbLine
 10
2383.570232253569
 20
1041.602879223738
 30
0.0
 11
2383.567525207853
 21
1041.494401646783
 31
0.0
  0
LINE
  5
834
330
82B
100
AcDbEntity
  8
0
  6
Continuous
 62
     7
370
    15
100
AcDbLine
 10
2389.245796898919
 20
1028.476849633991
 30
0.0
 11
2389.418988867207
 21
1035.417051993301
 31
0.0
  0
LINE
  5
835
330
82B
100
AcDbEntity
  8
0
  6
Continuous
 62
     7
370
    15
100
AcDbLine
 10
2383.456294291339
 20
1036.986819549241
 30
0.0
 11
2383.247664266005
 21
1028.626532358351
 31
0.0
  0
LINE
  5
836
330
82B
100
AcDbEntity
  8
0
  6
Continuous
 62
     7
370
    15
100
AcDbLine
 10
2378.917590340537
 20
1047.384050294223
 30
0.0
 11
2379.031177453577
 21
1051.935748376425
 31
0.0
  0
LINE
  5
837
330
82B
100
AcDbEntity
  8
0
  6
Continuous
 62
     7
370
    15
100
AcDbLine
 10
2372.183309364334
 20
1052.106636153403
 30
0.0
 11
2372.069722251293
 21
1047.5549380712
 31
0.0
  0
LINE
  5
838
330
82B
100
AcDbEntity
  8
0
  6
Continuous
 62
     7
370
    15
100
AcDbLine
 10
2383.725371338123
 20
1027.814933868026
 30
0.0
 11
2383.889093219259
 21
1027.688985699076
 31
0.0
  0
LINE
  5
839
330
82B
100
AcDbEntity
  8
0
  6
Continuous
 62
     7
370
    15
100
AcDbLine
 10
2388.558402722894
 20
1027.572463606259
 30
0.0
 11
2388.728202949082
 21
1027.690088768581
 31
0.0
  0
SPLINE
  5
83A
330
82B
100
AcDbEntity
  8
0
  6
Continuous
 62
     7
370
    15
100
AcDbSpline
210
0.0
220
0.0
230
1.0
 70
     8
 71
     3
 72
    21
 73
    17
 74
     0
 42
0.0000000001
 43
0.0000000001
 40
0.0
 40
0.0
 40
0.0
 40
0.0
 40
0.0408878167079507
 40
0.1273654126886664
 40
0.2087795089248384
 40
0.2910026943518474
 40
0.3728726885052298
 40
0.4538568469817416
 40
0.5338487085378901
 40
0.6127894449275598
 40
0.6898601981453946
 40
0.7626632489438507
 40
0.8303147994080212
 40
0.8808410208726289
 40
0.9376662694135816
 40
1.0
 40
1.0
 40
1.0
 40
1.0
 10
2372.08436655287
 20
1047.646255866416
 30
0.0
 10
2372.077822816425
 20
1047.604109268052
 30
0.0
 10
2372.057439099222
 20
1047.472822754704
 30
0.0
 10
2372.09973723084
 20
1047.255036463955
 30
0.0
 10
2372.204821162035
 20
1047.007191815938
 30
0.0
 10
2372.369004094222
 20
1046.779989793555
 30
0.0
 10
2372.584116525371
 20
1046.571282453361
 30
0.0
 10
2372.844451151834
 20
1046.383052016836
 30
0.0
 10
2373.143451282025
 20
1046.216455903216
 30
0.0
 10
2373.474005113319
 20
1046.07287631604
 30
0.0
 10
2373.824549194942
 20
1045.954522765573
 30
0.0
 10
2374.180587624472
 20
1045.862424091881
 30
0.0
 10
2374.508006399176
 20
1045.799154175895
 30
0.0
 10
2374.816332948856
 20
1045.755623149602
 30
0.0
 10
2375.120654514949
 20
1045.725119868362
 30
0.0
 10
2375.336757672867
 20
1045.716664785627
 30
0.0
 10
2375.449804260907
 20
1045.712241813451
 30
0.0
  0
SPLINE
  5
83B
330
82B
100
AcDbEntity
  8
0
  6
Continuous
 62
     7
370
    15
100
AcDbSpline
210
0.0
220
0.0
230
1.0
 70
     8
 71
     3
 72
    21
 73
    17
 74
     0
 42
0.0000000001
 43
0.0000000001
 40
0.0
 40
0.0
 40
0.0
 40
0.0
 40
0.0982887482057598
 40
0.1377903359180236
 40
0.2029130737557892
 40
0.2696509293855716
 40
0.3403632019532785
 40
0.4131492125874817
 40
0.4872983405030484
 40
0.562304100317594
 40
0.6379131677679505
 40
0.7140801862429973
 40
0.7908243860030934
 40
0.8684313460233587
 40
0.947709467558586
 40
1.0
 40
1.0
 40
1.0
 40
1.0
 10
2375.449804260907
 20
1045.712241813451
 30
0.0
 10
2375.619883916163
 20
1045.711440693483
 30
0.0
 10
2375.858317442464
 20
1045.710317608783
 30
0.0
 10
2376.204087328454
 20
1045.733556039947
 30
0.0
 10
2376.49161043772
 20
1045.76387458463
 30
0.0
 10
2376.821164833959
 20
1045.816989537615
 30
0.0
 10
2377.14854720466
 20
1045.889825149415
 30
0.0
 10
2377.467771053784
 20
1045.983768435146
 30
0.0
 10
2377.768957531613
 20
1046.097977164868
 30
0.0
 10
2378.04539598681
 20
1046.231579701052
 30
0.0
 10
2378.292034647977
 20
1046.383695748583
 30
0.0
 10
2378.504609927638
 20
1046.55379852731
 30
0.0
 10
2378.680298179277
 20
1046.741890852316
 30
0.0
 10
2378.811999478585
 20
1046.949011730636
 30
0.0
 10
2378.893669921468
 20
1047.147013816293
 30
0.0
 10
2378.903339544184
 20
1047.277098784417
 30
0.0
 10
2378.907182630701
 20
1047.328799642032
 30
0.0
  0
LINE
  5
83C
330
82B
100
AcDbEntity
  8
0
  6
Continuous
 62
     7
370
    15
100
AcDbLine
 10
2378.468694569229
 20
1046.431793610835
 30
0.0
 11
2378.471267902973
 21
1046.534913040125
 31
0.0
  0
LINE
  5
83D
330
82B
100
AcDbEntity
  8
0
  6
Continuous
 62
     7
370
    15
100
AcDbLine
 10
2372.473268982031
 20
1046.68995391215
 30
0.0
 11
2372.470561936315
 21
1046.581476335195
 31
0.0
  0
LINE
  5
83E
330
82B
100
AcDbEntity
  8
0
  6
Continuous
 62
     7
370
    15
100
AcDbLine
 10
2378.148833627381
 20
1033.563924322404
 30
0.0
 11
2378.298703967773
 21
1039.569575163278
 31
0.0
  0
LINE
  5
83F
330
82B
100
AcDbEntity
  8
0
  6
Continuous
 62
     7
370
    15
100
AcDbLine
 10
2372.359331019801
 20
1042.073894237653
 30
0.0
 11
2372.150700994467
 21
1033.713607046763
 31
0.0
  0
LINE
  5
840
330
82B
100
AcDbEntity
  8
0
  6
Continuous
 62
     7
370
    15
100
AcDbLine
 10
2367.820627068999
 20
1052.471124982635
 30
0.0
 11
2367.934214182039
 21
1057.022823064837
 31
0.0
  0
LINE
  5
841
330
82B
100
AcDbEntity
  8
0
  6
Continuous
 62
     7
370
    15
100
AcDbLine
 10
2361.086346092796
 20
1057.193710841815
 30
0.0
 11
2360.972758979755
 21
1052.642012759612
 31
0.0
  0
LINE
  5
842
330
82B
100
AcDbEntity
  8
0
  6
Continuous
 62
     7
370
    15
100
AcDbLine
 10
2372.628408066585
 20
1032.902008556438
 30
0.0
 11
2372.792129947722
 21
1032.776060387488
 31
0.0
  0
LINE
  5
843
330
82B
100
AcDbEntity
  8
0
  6
Continuous
 62
     7
370
    15
100
AcDbLine
 10
2377.461439451356
 20
1032.659538294671
 30
0.0
 11
2377.631239677544
 21
1032.777163456993
 31
0.0
  0
SPLINE
  5
844
330
82B
100
AcDbEntity
  8
0
  6
Continuous
 62
     7
370
    15
100
AcDbSpline
210
0.0
220
0.0
230
1.0
 70
     8
 71
     3
 72
    21
 73
    17
 74
     0
 42
0.0000000001
 43
0.0000000001
 40
0.0
 40
0.0
 40
0.0
 40
0.0
 40
0.0408878167080406
 40
0.1273654126887596
 40
0.2087795089249144
 40
0.2910026943519141
 40
0.3728726885053194
 40
0.453856846981822
 40
0.5338487085379811
 40
0.6127894449276502
 40
0.689860198145483
 40
0.7626632489439437
 40
0.8303147994080919
 40
0.8808410208727083
 40
0.9376662694136804
 40
0.9999999999999998
 40
0.9999999999999998
 40
0.9999999999999998
 40
0.9999999999999998
 10
2360.987403281332
 20
1052.733330554828
 30
0.0
 10
2360.980859544888
 20
1052.691183956464
 30
0.0
 10
2360.960475827684
 20
1052.559897443116
 30
0.0
 10
2361.002773959302
 20
1052.342111152366
 30
0.0
 10
2361.107857890497
 20
1052.09426650435
 30
0.0
 10
2361.272040822684
 20
1051.867064481967
 30
0.0
 10
2361.487153253833
 20
1051.658357141773
 30
0.0
 10
2361.747487880297
 20
1051.470126705248
 30
0.0
 10
2362.046488010487
 20
1051.303530591629
 30
0.0
 10
2362.377041841781
 20
1051.159951004453
 30
0.0
 10
2362.727585923405
 20
1051.041597453985
 30
0.0
 10
2363.083624352935
 20
1050.949498780293
 30
0.0
 10
2363.411043127639
 20
1050.886228864307
 30
0.0
 10
2363.719369677319
 20
1050.842697838014
 30
0.0
 10
2364.023691243411
 20
1050.812194556774
 30
0.0
 10
2364.23979440133
 20
1050.803739474039
 30
0.0
 10
2364.352840989369
 20
1050.799316501863
 30
0.0
  0
SPLINE
  5
845
330
82B
100
AcDbEntity
  8
0
  6
Continuous
 62
     7
370
    15
100
AcDbSpline
210
0.0
220
0.0
230
1.0
 70
     8
 71
     3
 72
    21
 73
    17
 74
     0
 42
0.0000000001
 43
0.0000000001
 40
0.0
 40
0.0
 40
0.0
 40
0.0
 40
0.0982887482057535
 40
0.1377903359180093
 40
0.2029130737558199
 40
0.269650929385578
 40
0.3403632019532958
 40
0.4131492125875054
 40
0.4872983405030789
 40
0.5623041003175856
 40
0.6379131677679546
 40
0.71408018624301
 40
0.7908243860031329
 40
0.8684313460233571
 40
0.9477094675585925
 40
1.0
 40
1.0
 40
1.0
 40
1.0
 10
2364.352840989369
 20
1050.799316501863
 30
0.0
 10
2364.522920644624
 20
1050.798515381896
 30
0.0
 10
2364.761354170926
 20
1050.797392297195
 30
0.0
 10
2365.107124056916
 20
1050.820630728359
 30
0.0
 10
2365.394647166182
 20
1050.850949273042
 30
0.0
 10
2365.724201562422
 20
1050.904064226028
 30
0.0
 10
2366.051583933122
 20
1050.976899837827
 30
0.0
 10
2366.370807782246
 20
1051.070843123558
 30
0.0
 10
2366.671994260075
 20
1051.18505185328
 30
0.0
 10
2366.948432715271
 20
1051.318654389464
 30
0.0
 10
2367.195071376439
 20
1051.470770436996
 30
0.0
 10
2367.407646656101
 20
1051.640873215722
 30
0.0
 10
2367.583334907739
 20
1051.828965540729
 30
0.0
 10
2367.715036207046
 20
1052.036086419048
 30
0.0
 10
2367.79670664993
 20
1052.234088504705
 30
0.0
 10
2367.806376272645
 20
1052.36417347283
 30
0.0
 10
2367.810219359164
 20
1052.415874330445
 30
0.0
  0
LINE
  5
846
330
82B
100
AcDbEntity
  8
0
  6
Continuous
 62
     7
370
    15
100
AcDbLine
 10
2367.371731297691
 20
1051.518868299248
 30
0.0
 11
2367.374304631436
 21
1051.621987728537
 31
0.0
  0
LINE
  5
847
330
82B
100
AcDbEntity
  8
0
  6
Continuous
 62
     7
370
    15
100
AcDbLine
 10
2361.376305710493
 20
1051.777028600562
 30
0.0
 11
2361.373598664777
 21
1051.668551023607
 31
0.0
  0
LINE
  5
848
330
82B
100
AcDbEntity
  8
0
  6
Continuous
 62
     7
370
    15
100
AcDbLine
 10
2367.051870355843
 20
1038.650999010816
 30
0.0
 11
2367.201740696236
 21
1044.65664985169
 31
0.0
  0
LINE
  5
849
330
82B
100
AcDbEntity
  8
0
  6
Continuous
 62
     7
370
    15
100
AcDbLine
 10
2361.262367748262
 20
1047.160968926066
 30
0.0
 11
2361.053737722929
 21
1038.800681735176
 31
0.0
  0
LINE
  5
84A
330
82B
100
AcDbEntity
  8
0
  6
Continuous
 62
     7
370
    15
100
AcDbLine
 10
2356.723663797461
 20
1057.558199671048
 30
0.0
 11
2356.837250910501
 21
1062.10989775325
 31
0.0
  0
LINE
  5
84B
330
82B
100
AcDbEntity
  8
0
  6
Continuous
 62
     7
370
    15
100
AcDbLine
 10
2349.989382821258
 20
1062.280785530227
 30
0.0
 11
2349.875795708217
 21
1057.729087448025
 31
0.0
  0
LINE
  5
84C
330
82B
100
AcDbEntity
  8
0
  6
Continuous
 62
     7
370
    15
100
AcDbLine
 10
2361.531444795046
 20
1037.989083244851
 30
0.0
 11
2361.695166676184
 21
1037.863135075901
 31
0.0
  0
LINE
  5
84D
330
82B
100
AcDbEntity
  8
0
  6
Continuous
 62
     7
370
    15
100
AcDbLine
 10
2366.364476179818
 20
1037.746612983084
 30
0.0
 11
2366.534276406006
 21
1037.864238145406
 31
0.0
  0
SPLINE
  5
84E
330
82B
100
AcDbEntity
  8
0
  6
Continuous
 62
     7
370
    15
100
AcDbSpline
210
0.0
220
0.0
230
1.0
 70
     8
 71
     3
 72
    21
 73
    17
 74
     0
 42
0.0000000001
 43
0.0000000001
 40
0.0
 40
0.0
 40
0.0
 40
0.0
 40
0.0408878167079702
 40
0.1273654126886906
 40
0.2087795089248486
 40
0.2910026943518518
 40
0.3728726885052453
 40
0.4538568469817501
 40
0.5338487085379035
 40
0.6127894449275696
 40
0.6898601981454138
 40
0.7626632489438661
 40
0.8303147994080376
 40
0.8808410208726618
 40
0.9376662694136573
 40
1.0
 40
1.0
 40
1.0
 40
1.0
 10
2349.890440009795
 20
1057.82040524324
 30
0.0
 10
2349.883896273349
 20
1057.778258644876
 30
0.0
 10
2349.863512556146
 20
1057.646972131529
 30
0.0
 10
2349.905810687764
 20
1057.429185840779
 30
0.0
 10
2350.010894618959
 20
1057.181341192763
 30
0.0
 10
2350.175077551146
 20
1056.95413917038
 30
0.0
 10
2350.390189982295
 20
1056.745431830186
 30
0.0
 10
2350.650524608759
 20
1056.557201393661
 30
0.0
 10
2350.949524738949
 20
1056.390605280041
 30
0.0
 10
2351.280078570244
 20
1056.247025692865
 30
0.0
 10
2351.630622651867
 20
1056.128672142397
 30
0.0
 10
2351.986661081397
 20
1056.036573468705
 30
0.0
 10
2352.3140798561
 20
1055.97330355272
 30
0.0
 10
2352.622406405781
 20
1055.929772526426
 30
0.0
 10
2352.926727971873
 20
1055.899269245186
 30
0.0
 10
2353.142831129792
 20
1055.890814162451
 30
0.0
 10
2353.255877717831
 20
1055.886391190275
 30
0.0
  0
SPLINE
  5
84F
330
82B
100
AcDbEntity
  8
0
  6
Continuous
 62
     7
370
    15
100
AcDbSpline
210
0.0
220
0.0
230
1.0
 70
     8
 71
     3
 72
    21
 73
    17
 74
     0
 42
0.0000000001
 43
0.0000000001
 40
0.0
 40
0.0
 40
0.0
 40
0.0
 40
0.098288748205757
 40
0.1377903359180088
 40
0.2029130737558359
 40
0.2696509293856015
 40
0.3403632019532787
 40
0.4131492125874829
 40
0.4872983405030498
 40
0.5623041003175505
 40
0.6379131677679144
 40
0.714080186242986
 40
0.7908243860030991
 40
0.8684313460233344
 40
0.9477094675585785
 40
1.0
 40
1.0
 40
1.0
 40
1.0
 10
2353.255877717831
 20
1055.886391190275
 30
0.0
 10
2353.425957373087
 20
1055.885590070308
 30
0.0
 10
2353.664390899389
 20
1055.884466985607
 30
0.0
 10
2354.010160785378
 20
1055.907705416772
 30
0.0
 10
2354.297683894644
 20
1055.938023961454
 30
0.0
 10
2354.627238290884
 20
1055.99113891444
 30
0.0
 10
2354.954620661584
 20
1056.063974526239
 30
0.0
 10
2355.273844510707
 20
1056.157917811971
 30
0.0
 10
2355.575030988537
 20
1056.272126541692
 30
0.0
 10
2355.851469443734
 20
1056.405729077876
 30
0.0
 10
2356.098108104901
 20
1056.557845125408
 30
0.0
 10
2356.310683384562
 20
1056.727947904134
 30
0.0
 10
2356.486371636201
 20
1056.916040229141
 30
0.0
 10
2356.618072935508
 20
1057.123161107461
 30
0.0
 10
2356.699743378392
 20
1057.321163193117
 30
0.0
 10
2356.709413001107
 20
1057.451248161242
 30
0.0
 10
2356.713256087625
 20
1057.502949018857
 30
0.0
  0
LINE
  5
850
330
82B
100
AcDbEntity
  8
0
  6
Continuous
 62
     7
370
    15
100
AcDbLine
 10
2356.274768026153
 20
1056.60594298766
 30
0.0
 11
2356.277341359898
 21
1056.70906241695
 31
0.0
  0
LINE
  5
851
330
82B
100
AcDbEntity
  8
0
  6
Continuous
 62
     7
370
    15
100
AcDbLine
 10
2350.279342438955
 20
1056.864103288975
 30
0.0
 11
2350.276635393239
 21
1056.755625712019
 31
0.0
  0
LINE
  5
852
330
82B
100
AcDbEntity
  8
0
  6
Continuous
 62
     7
370
    15
100
AcDbLine
 10
2355.954907084305
 20
1043.738073699229
 30
0.0
 11
2356.104777424697
 21
1049.743724540103
 31
0.0
  0
LINE
  5
853
330
82B
100
AcDbEntity
  8
0
  6
Continuous
 62
     7
370
    15
100
AcDbLine
 10
2350.165404476725
 20
1052.248043614478
 30
0.0
 11
2349.956774451391
 21
1043.887756423588
 31
0.0
  0
LINE
  5
854
330
82B
100
AcDbEntity
  8
0
  6
Continuous
 62
     7
370
    15
100
AcDbLine
 10
2345.626700525923
 20
1062.64527435946
 30
0.0
 11
2345.740287638963
 21
1067.196972441662
 31
0.0
  0
LINE
  5
855
330
82B
100
AcDbEntity
  8
0
  6
Continuous
 62
     7
370
    15
100
AcDbLine
 10
2338.89241954972
 20
1067.367860218639
 30
0.0
 11
2338.778832436679
 21
1062.816162136437
 31
0.0
  0
LINE
  5
856
330
82B
100
AcDbEntity
  8
0
  6
Continuous
 62
     7
370
    15
100
AcDbLine
 10
2350.434481523508
 20
1043.076157933263
 30
0.0
 11
2350.598203404646
 21
1042.950209764313
 31
0.0
  0
LINE
  5
857
330
82B
100
AcDbEntity
  8
0
  6
Continuous
 62
     7
370
    15
100
AcDbLine
 10
2355.26751290828
 20
1042.833687671496
 30
0.0
 11
2355.437313134468
 21
1042.951312833818
 31
0.0
  0
SPLINE
  5
858
330
82B
100
AcDbEntity
  8
0
  6
Continuous
 62
     7
370
    15
100
AcDbSpline
210
0.0
220
0.0
230
1.0
 70
     8
 71
     3
 72
    21
 73
    17
 74
     0
 42
0.0000000001
 43
0.0000000001
 40
0.0
 40
0.0
 40
0.0
 40
0.0
 40
0.0408878167079762
 40
0.1273654126886935
 40
0.2087795089248498
 40
0.2910026943518529
 40
0.3728726885052463
 40
0.453856846981751
 40
0.5338487085379043
 40
0.6127894449275702
 40
0.6898601981454143
 40
0.7626632489438665
 40
0.8303147994080379
 40
0.880841020872662
 40
0.9376662694136575
 40
1.0
 40
1.0
 40
1.0
 40
1.0
 10
2338.793476738257
 20
1062.907479931652
 30
0.0
 10
2338.786933001812
 20
1062.865333333289
 30
0.0
 10
2338.766549284608
 20
1062.734046819941
 30
0.0
 10
2338.808847416226
 20
1062.516260529191
 30
0.0
 10
2338.913931347421
 20
1062.268415881175
 30
0.0
 10
2339.078114279608
 20
1062.041213858792
 30
0.0
 10
2339.293226710757
 20
1061.832506518598
 30
0.0
 10
2339.55356133722
 20
1061.644276082073
 30
0.0
 10
2339.852561467411
 20
1061.477679968453
 30
0.0
 10
2340.183115298705
 20
1061.334100381277
 30
0.0
 10
2340.533659380329
 20
1061.21574683081
 30
0.0
 10
2340.889697809858
 20
1061.123648157118
 30
0.0
 10
2341.217116584562
 20
1061.060378241132
 30
0.0
 10
2341.525443134243
 20
1061.016847214839
 30
0.0
 10
2341.829764700335
 20
1060.986343933598
 30
0.0
 10
2342.045867858254
 20
1060.977888850864
 30
0.0
 10
2342.158914446293
 20
1060.973465878688
 30
0.0
  0
SPLINE
  5
859
330
82B
100
AcDbEntity
  8
0
  6
Continuous
 62
     7
370
    15
100
AcDbSpline
210
0.0
220
0.0
230
1.0
 70
     8
 71
     3
 72
    21
 73
    17
 74
     0
 42
0.0000000001
 43
0.0000000001
 40
0.0
 40
0.0
 40
0.0
 40
0.0
 40
0.0982887482057558
 40
0.1377903359180177
 40
0.2029130737558161
 40
0.2696509293855642
 40
0.3403632019532794
 40
0.4131492125874865
 40
0.4872983405030461
 40
0.5623041003175742
 40
0.6379131677679381
 40
0.7140801862429893
 40
0.7908243860030887
 40
0.868431346023345
 40
0.9477094675585735
 40
1.0
 40
1.0
 40
1.0
 40
1.0
 10
2342.158914446293
 20
1060.973465878688
 30
0.0
 10
2342.328994101548
 20
1060.97266475872
 30
0.0
 10
2342.567427627851
 20
1060.971541674019
 30
0.0
 10
2342.91319751384
 20
1060.994780105184
 30
0.0
 10
2343.200720623106
 20
1061.025098649867
 30
0.0
 10
2343.530275019345
 20
1061.078213602852
 30
0.0
 10
2343.857657390046
 20
1061.151049214652
 30
0.0
 10
2344.17688123917
 20
1061.244992500383
 30
0.0
 10
2344.478067716999
 20
1061.359201230105
 30
0.0
 10
2344.754506172196
 20
1061.492803766288
 30
0.0
 10
2345.001144833363
 20
1061.64491981382
 30
0.0
 10
2345.213720113024
 20
1061.815022592546
 30
0.0
 10
2345.389408364663
 20
1062.003114917553
 30
0.0
 10
2345.52110966397
 20
1062.210235795873
 30
0.0
 10
2345.602780106854
 20
1062.40823788153
 30
0.0
 10
2345.61244972957
 20
1062.538322849654
 30
0.0
 10
2345.616292816087
 20
1062.59002370727
 30
0.0
  0
LINE
  5
85A
330
82B
100
AcDbEntity
  8
0
  6
Continuous
 62
     7
370
    15
100
AcDbLine
 10
2345.177804754615
 20
1061.693017676072
 30
0.0
 11
2345.18037808836
 21
1061.796137105362
 31
0.0
  0
LINE
  5
85B
330
82B
100
AcDbEntity
  8
0
  6
Continuous
 62
     7
370
    15
100
AcDbLine
 10
2339.182379167418
 20
1061.951177977387
 30
0.0
 11
2339.179672121701
 21
1061.842700400432
 31
0.0
  0
LINE
  5
85C
330
82B
100
AcDbEntity
  8
0
  6
Continuous
 62
     7
370
    15
100
AcDbLine
 10
2344.857943812767
 20
1048.825148387641
 30
0.0
 11
2345.007814153159
 21
1054.830799228515
 31
0.0
  0
LINE
  5
85D
330
82B
100
AcDbEntity
  8
0
  6
Continuous
 62
     7
370
    15
100
AcDbLine
 10
2339.068441205187
 20
1057.33511830289
 30
0.0
 11
2338.859811179853
 21
1048.974831112
 31
0.0
  0
LINE
  5
85E
330
82B
100
AcDbEntity
  8
0
  6
Continuous
 62
     7
370
    15
100
AcDbLine
 10
2334.529737254385
 20
1067.732349047872
 30
0.0
 11
2334.643324367425
 21
1072.284047130074
 31
0.0
  0
LINE
  5
85F
330
82B
100
AcDbEntity
  8
0
  6
Continuous
 62
     7
370
    15
100
AcDbLine
 10
2327.795456278181
 20
1072.454934907051
 30
0.0
 11
2327.681869165141
 21
1067.903236824849
 31
0.0
  0
LINE
  5
860
330
82B
100
AcDbEntity
  8
0
  6
Continuous
 62
     7
370
    15
100
AcDbLine
 10
2339.337518251971
 20
1048.163232621675
 30
0.0
 11
2339.501240133108
 21
1048.037284452725
 31
0.0
  0
LINE
  5
861
330
82B
100
AcDbEntity
  8
0
  6
Continuous
 62
     7
370
    15
100
AcDbLine
 10
2344.170549636742
 20
1047.920762359908
 30
0.0
 11
2344.34034986293
 21
1048.03838752223
 31
0.0
  0
SPLINE
  5
862
330
82B
100
AcDbEntity
  8
0
  6
Continuous
 62
     7
370
    15
100
AcDbSpline
210
0.0
220
0.0
230
1.0
 70
     8
 71
     3
 72
    21
 73
    17
 74
     0
 42
0.0000000001
 43
0.0000000001
 40
0.0
 40
0.0
 40
0.0
 40
0.0
 40
0.0408878167079567
 40
0.1273654126886728
 40
0.208779508924831
 40
0.2910026943518333
 40
0.3728726885052295
 40
0.4538568469817334
 40
0.5338487085378901
 40
0.6127894449275559
 40
0.6898601981453943
 40
0.7626632489438534
 40
0.830314799408031
 40
0.8808410208726556
 40
0.9376662694136584
 40
1.0
 40
1.0
 40
1.0
 40
1.0
 10
2327.696513466719
 20
1067.994554620065
 30
0.0
 10
2327.689969730274
 20
1067.952408021701
 30
0.0
 10
2327.66958601307
 20
1067.821121508353
 30
0.0
 10
2327.711884144688
 20
1067.603335217604
 30
0.0
 10
2327.816968075883
 20
1067.355490569587
 30
0.0
 10
2327.98115100807
 20
1067.128288547205
 30
0.0
 10
2328.196263439219
 20
1066.91958120701
 30
0.0
 10
2328.456598065683
 20
1066.731350770485
 30
0.0
 10
2328.755598195873
 20
1066.564754656866
 30
0.0
 10
2329.086152027167
 20
1066.42117506969
 30
0.0
 10
2329.43669610879
 20
1066.302821519222
 30
0.0
 10
2329.792734538321
 20
1066.21072284553
 30
0.0
 10
2330.120153313024
 20
1066.147452929544
 30
0.0
 10
2330.428479862705
 20
1066.103921903251
 30
0.0
 10
2330.732801428797
 20
1066.073418622011
 30
0.0
 10
2330.948904586716
 20
1066.064963539276
 30
0.0
 10
2331.061951174755
 20
1066.0605405671
 30
0.0
  0
SPLINE
  5
863
330
82B
100
AcDbEntity
  8
0
  6
Continuous
 62
     7
370
    15
100
AcDbSpline
210
0.0
220
0.0
230
1.0
 70
     8
 71
     3
 72
    21
 73
    17
 74
     0
 42
0.0000000001
 43
0.0000000001
 40
0.0
 40
0.0
 40
0.0
 40
0.0
 40
0.0982887482057556
 40
0.137790335918018
 40
0.2029130737558169
 40
0.2696509293855797
 40
0.3403632019532865
 40
0.4131492125874889
 40
0.4872983405030562
 40
0.5623041003175909
 40
0.6379131677679495
 40
0.7140801862429963
 40
0.7908243860031025
 40
0.868431346023344
 40
0.9477094675585824
 40
1.0
 40
1.0
 40
1.0
 40
1.0
 10
2331.061951174755
 20
1066.0605405671
 30
0.0
 10
2331.23203083001
 20
1066.059739447132
 30
0.0
 10
2331.470464356312
 20
1066.058616362432
 30
0.0
 10
2331.816234242302
 20
1066.081854793596
 30
0.0
 10
2332.103757351568
 20
1066.112173338279
 30
0.0
 10
2332.433311747807
 20
1066.165288291264
 30
0.0
 10
2332.760694118508
 20
1066.238123903064
 30
0.0
 10
2333.079917967632
 20
1066.332067188795
 30
0.0
 10
2333.381104445461
 20
1066.446275918517
 30
0.0
 10
2333.657542900658
 20
1066.579878454701
 30
0.0
 10
2333.904181561825
 20
1066.731994502233
 30
0.0
 10
2334.116756841487
 20
1066.902097280959
 30
0.0
 10
2334.292445093125
 20
1067.090189605965
 30
0.0
 10
2334.424146392432
 20
1067.297310484285
 30
0.0
 10
2334.505816835316
 20
1067.495312569942
 30
0.0
 10
2334.515486458031
 20
1067.625397538066
 30
0.0
 10
2334.51932954455
 20
1067.677098395682
 30
0.0
  0
LINE
  5
864
330
82B
100
AcDbEntity
  8
0
  6
Continuous
 62
     7
370
    15
100
AcDbLine
 10
2334.080841483077
 20
1066.780092364485
 30
0.0
 11
2334.083414816822
 21
1066.883211793774
 31
0.0
  0
LINE
  5
865
330
82B
100
AcDbEntity
  8
0
  6
Continuous
 62
     7
370
    15
100
AcDbLine
 10
2328.085415895879
 20
1067.038252665799
 30
0.0
 11
2328.082708850163
 21
1066.929775088844
 31
0.0
  0
LINE
  5
866
330
82B
100
AcDbEntity
  8
0
  6
Continuous
 62
     7
370
    15
100
AcDbLine
 10
2333.760980541229
 20
1053.912223076053
 30
0.0
 11
2333.910850881621
 21
1059.917873916927
 31
0.0
  0
LINE
  5
867
330
82B
100
AcDbEntity
  8
0
  6
Continuous
 62
     7
370
    15
100
AcDbLine
 10
2327.971477933649
 20
1062.422192991303
 30
0.0
 11
2327.762847908315
 21
1054.061905800413
 31
0.0
  0
LINE
  5
868
330
82B
100
AcDbEntity
  8
0
  6
Continuous
 62
     7
370
    15
100
AcDbLine
 10
2323.432773982847
 20
1072.819423736285
 30
0.0
 11
2323.546361095887
 21
1077.371121818487
 31
0.0
  0
LINE
  5
869
330
82B
100
AcDbEntity
  8
0
  6
Continuous
 62
     7
370
    15
100
AcDbLine
 10
2316.698493006644
 20
1077.542009595464
 30
0.0
 11
2316.584905893603
 21
1072.990311513262
 31
0.0
  0
LINE
  5
86A
330
82B
100
AcDbEntity
  8
0
  6
Continuous
 62
     7
370
    15
100
AcDbLine
 10
2328.240554980433
 20
1053.250307310087
 30
0.0
 11
2328.40427686157
 21
1053.124359141138
 31
0.0
  0
LINE
  5
86B
330
82B
100
AcDbEntity
  8
0
  6
Continuous
 62
     7
370
    15
100
AcDbLine
 10
2333.073586365204
 20
1053.007837048321
 30
0.0
 11
2333.243386591393
 21
1053.125462210642
 31
0.0
  0
SPLINE
  5
86C
330
82B
100
AcDbEntity
  8
0
  6
Continuous
 62
     7
370
    15
100
AcDbSpline
210
0.0
220
0.0
230
1.0
 70
     8
 71
     3
 72
    21
 73
    17
 74
     0
 42
0.0000000001
 43
0.0000000001
 40
0.0
 40
0.0
 40
0.0
 40
0.0
 40
0.0408878167079705
 40
0.1273654126886807
 40
0.2087795089248387
 40
0.2910026943518434
 40
0.3728726885052405
 40
0.453856846981746
 40
0.5338487085379012
 40
0.6127894449275621
 40
0.6898601981454032
 40
0.7626632489438575
 40
0.8303147994080303
 40
0.8808410208726419
 40
0.9376662694136081
 40
1.0
 40
1.0
 40
1.0
 40
1.0
 10
2316.599550195181
 20
1073.081629308477
 30
0.0
 10
2316.593006458736
 20
1073.039482710114
 30
0.0
 10
2316.572622741531
 20
1072.908196196766
 30
0.0
 10
2316.614920873151
 20
1072.690409906016
 30
0.0
 10
2316.720004804345
 20
1072.442565258
 30
0.0
 10
2316.884187736532
 20
1072.215363235616
 30
0.0
 10
2317.099300167681
 20
1072.006655895423
 30
0.0
 10
2317.359634794144
 20
1071.818425458897
 30
0.0
 10
2317.658634924335
 20
1071.651829345278
 30
0.0
 10
2317.989188755629
 20
1071.508249758102
 30
0.0
 10
2318.339732837253
 20
1071.389896207634
 30
0.0
 10
2318.695771266782
 20
1071.297797533942
 30
0.0
 10
2319.023190041487
 20
1071.234527617956
 30
0.0
 10
2319.331516591167
 20
1071.190996591663
 30
0.0
 10
2319.635838157259
 20
1071.160493310423
 30
0.0
 10
2319.851941315178
 20
1071.152038227688
 30
0.0
 10
2319.964987903217
 20
1071.147615255512
 30
0.0
  0
SPLINE
  5
86D
330
82B
100
AcDbEntity
  8
0
  6
Continuous
 62
     7
370
    15
100
AcDbSpline
210
0.0
220
0.0
230
1.0
 70
     8
 71
     3
 72
    21
 73
    17
 74
     0
 42
0.0000000001
 43
0.0000000001
 40
0.0
 40
0.0
 40
0.0
 40
0.0
 40
0.0982887482057542
 40
0.1377903359180102
 40
0.2029130737558149
 40
0.2696509293855802
 40
0.340363201953286
 40
0.413149212587494
 40
0.4872983405030586
 40
0.562304100317581
 40
0.6379131677679456
 40
0.7140801862429972
 40
0.7908243860031071
 40
0.8684313460233461
 40
0.9477094675585872
 40
1.0
 40
1.0
 40
1.0
 40
1.0
 10
2319.964987903217
 20
1071.147615255512
 30
0.0
 10
2320.135067558473
 20
1071.146814135545
 30
0.0
 10
2320.373501084774
 20
1071.145691050844
 30
0.0
 10
2320.719270970764
 20
1071.168929482008
 30
0.0
 10
2321.00679408003
 20
1071.199248026691
 30
0.0
 10
2321.33634847627
 20
1071.252362979676
 30
0.0
 10
2321.66373084697
 20
1071.325198591476
 30
0.0
 10
2321.982954696094
 20
1071.419141877208
 30
0.0
 10
2322.284141173923
 20
1071.533350606929
 30
0.0
 10
2322.56057962912
 20
1071.666953143113
 30
0.0
 10
2322.807218290287
 20
1071.819069190645
 30
0.0
 10
2323.019793569949
 20
1071.989171969371
 30
0.0
 10
2323.195481821587
 20
1072.177264294378
 30
0.0
 10
2323.327183120895
 20
1072.384385172698
 30
0.0
 10
2323.408853563778
 20
1072.582387258354
 30
0.0
 10
2323.418523186493
 20
1072.712472226479
 30
0.0
 10
2323.422366273012
 20
1072.764173084094
 30
0.0
  0
LINE
  5
86E
330
82B
100
AcDbEntity
  8
0
  6
Continuous
 62
     7
370
    15
100
AcDbLine
 10
2322.983878211539
 20
1071.867167052897
 30
0.0
 11
2322.986451545284
 21
1071.970286482186
 31
0.0
  0
LINE
  5
86F
330
82B
100
AcDbEntity
  8
0
  6
Continuous
 62
     7
370
    15
100
AcDbLine
 10
2316.988452624341
 20
1072.125327354211
 30
0.0
 11
2316.985745578625
 21
1072.016849777256
 31
0.0
  0
LINE
  5
870
330
82B
100
AcDbEntity
  8
0
  6
Continuous
 62
     7
370
    15
100
AcDbLine
 10
2322.664017269691
 20
1058.999297764465
 30
0.0
 11
2322.813887610084
 21
1065.00494860534
 31
0.0
  0
LINE
  5
871
330
82B
100
AcDbEntity
  8
0
  6
Continuous
 62
     7
370
    15
100
AcDbLine
 10
2316.874514662111
 20
1067.509267679715
 30
0.0
 11
2316.665884636777
 21
1059.148980488825
 31
0.0
  0
LINE
  5
872
330
82B
100
AcDbEntity
  8
0
  6
Continuous
 62
     7
370
    15
100
AcDbLine
 10
2312.335810711308
 20
1077.906498424697
 30
0.0
 11
2312.449397824348
 21
1082.4581965069
 31
0.0
  0
LINE
  5
873
330
82B
100
AcDbEntity
  8
0
  6
Continuous
 62
     7
370
    15
100
AcDbLine
 10
2305.601529735104
 20
1082.629084283876
 30
0.0
 11
2305.487942622064
 21
1078.077386201675
 31
0.0
  0
LINE
  5
874
330
82B
100
AcDbEntity
  8
0
  6
Continuous
 62
     7
370
    15
100
AcDbLine
 10
2317.143591708894
 20
1058.3373819985
 30
0.0
 11
2317.307313590032
 21
1058.21143382955
 31
0.0
  0
LINE
  5
875
330
82B
100
AcDbEntity
  8
0
  6
Continuous
 62
     7
370
    15
100
AcDbLine
 10
2321.976623093666
 20
1058.094911736733
 30
0.0
 11
2322.146423319854
 21
1058.212536899055
 31
0.0
  0
SPLINE
  5
876
330
82B
100
AcDbEntity
  8
0
  6
Continuous
 62
     7
370
    15
100
AcDbSpline
210
0.0
220
0.0
230
1.0
 70
     8
 71
     3
 72
    21
 73
    17
 74
     0
 42
0.0000000001
 43
0.0000000001
 40
0.0
 40
0.0
 40
0.0
 40
0.0
 40
0.0117168905378121
 40
0.1008246601426773
 40
0.1847149261442742
 40
0.269438889387223
 40
0.3537989192173847
 40
0.4372461711134599
 40
0.5196709458655361
 40
0.6010126259952492
 40
0.6804274483330702
 40
0.7554447681777282
 40
0.8251539073346625
 40
0.8772168590178283
 40
0.9357704195925556
 40
1.0
 40
1.0
 40
1.0
 40
1.0
 10
2305.491851474791
 20
1078.077310491762
 30
0.0
 10
2305.490308036814
 20
1078.065579958383
 30
0.0
 10
2305.477026645398
 20
1077.964637900648
 30
0.0
 10
2305.519789168672
 20
1077.777422198775
 30
0.0
 10
2305.622557948608
 20
1077.529656420586
 30
0.0
 10
2305.787354011594
 20
1077.30243351079
 30
0.0
 10
2306.002302649162
 20
1077.093731750521
 30
0.0
 10
2306.262680536886
 20
1076.905499840223
 30
0.0
 10
2306.561669282894
 20
1076.738904114426
 30
0.0
 10
2306.892226100235
 20
1076.595324425525
 30
0.0
 10
2307.242769411849
 20
1076.476970901289
 30
0.0
 10
2307.598808032674
 20
1076.38487222108
 30
0.0
 10
2307.926226762969
 20
1076.321602306607
 30
0.0
 10
2308.234553321476
 20
1076.278071280014
 30
0.0
 10
2308.538874885186
 20
1076.247567998853
 30
0.0
 10
2308.754978043474
 20
1076.239112916107
 30
0.0
 10
2308.868024631715
 20
1076.234689943924
 30
0.0
  0
SPLINE
  5
877
330
82B
100
AcDbEntity
  8
0
  6
Continuous
 62
     7
370
    15
100
AcDbSpline
210
0.0
220
0.0
230
1.0
 70
     8
 71
     3
 72
    21
 73
    17
 74
     0
 42
0.0000000001
 43
0.0000000001
 40
0.0
 40
0.0
 40
0.0
 40
0.0
 40
0.0960195806099253
 40
0.1346092051100245
 40
0.198228470691136
 40
0.2634255662463048
 40
0.3325053223758878
 40
0.4036109407031637
 40
0.4760482063662106
 40
0.5493223270831639
 40
0.6231858270244254
 40
0.6975943967155088
 40
0.7725668224525997
 40
0.8483820901208719
 40
0.9258299376189214
 40
1.0
 40
1.0
 40
1.0
 40
1.0
 10
2308.868024631715
 20
1076.234689943924
 30
0.0
 10
2309.038104286836
 20
1076.233888823974
 30
0.0
 10
2309.276537812955
 20
1076.232765739297
 30
0.0
 10
2309.622307699757
 20
1076.256004170352
 30
0.0
 10
2309.909830804898
 20
1076.286322715584
 30
0.0
 10
2310.239385218711
 20
1076.339437666234
 30
0.0
 10
2310.566767519252
 20
1076.412273287362
 30
0.0
 10
2310.885991642388
 20
1076.506216536662
 30
0.0
 10
2311.187177069374
 20
1076.620425406102
 30
0.0
 10
2311.463619514969
 20
1076.754027411734
 30
0.0
 10
2311.710243097767
 20
1076.906145464044
 30
0.0
 10
2311.922875284096
 20
1077.07624067662
 30
0.0
 10
2312.098348484721
 20
1077.264361594206
 30
0.0
 10
2312.230868168994
 20
1077.47137366236
 30
0.0
 10
2312.318685040287
 20
1077.692155306485
 30
0.0
 10
2312.328694106007
 20
1077.845791913548
 30
0.0
 10
2312.333590447273
 20
1077.920949503695
 30
0.0
  0
LINE
  5
878
330
82B
100
AcDbEntity
  8
0
  6
Continuous
 62
     7
370
    15
100
AcDbLine
 10
2311.88691494
 20
1076.95424174131
 30
0.0
 11
2311.889488273745
 21
1077.0573611706
 31
0.0
  0
LINE
  5
879
330
82B
100
AcDbEntity
  8
0
  6
Continuous
 62
     7
370
    15
100
AcDbLine
 10
2305.891489352802
 20
1077.212402042624
 30
0.0
 11
2305.888782307086
 21
1077.103924465669
 31
0.0
  0
LINE
  5
87A
330
82B
100
AcDbEntity
  8
0
  6
Continuous
 62
     7
370
    15
100
AcDbLine
 10
2311.564571819658
 20
1064.087510334214
 30
0.0
 11
2311.714442160051
 21
1070.093161175088
 31
0.0
  0
LINE
  5
87B
330
82B
100
AcDbEntity
  8
0
  6
Continuous
 62
     7
370
    15
100
AcDbLine
 10
2305.77507156988
 20
1072.597574732066
 30
0.0
 11
2305.566439186744
 21
1064.237193058573
 31
0.0
  0
LINE
  5
87C
330
82B
100
AcDbEntity
  8
0
  6
Continuous
 62
     7
370
    15
100
AcDbLine
 10
2306.044146258861
 20
1063.425594568248
 30
0.0
 11
2306.207868139999
 21
1063.299646399298
 31
0.0
  0
LINE
  5
87D
330
82B
100
AcDbEntity
  8
0
  6
Continuous
 62
     7
370
    15
100
AcDbLine
 10
2310.877177643632
 20
1063.183124306481
 30
0.0
 11
2311.046977869821
 21
1063.300749468803
 31
0.0
  0
LWPOLYLINE
  5
87E
330
82B
100
AcDbEntity
  8
0
  6
Continuous
 62
     7
370
    15
100
AcDbPolyline
 90
       35
 70
   128
 43
0.0
 10
2384.873207740687
 20
1047.773484900099
 10
2384.598555822428
 20
1047.60244982717
 10
2384.395609318691
 20
1047.408655501021
 10
2384.271279329252
 20
1047.198701354999
 10
2384.229799762785
 20
1046.979737125734
 10
2384.272583156177
 20
1046.759219377433
 10
2384.398172572279
 20
1046.544657577536
 10
2384.602291214152
 20
1046.343358370798
 10
2384.877988066262
 20
1046.162176760272
 10
2385.215874602972
 20
1046.007282668403
 10
2385.604444503525
 20
1045.883950827713
 10
2386.030465485995
 20
1045.796381156117
 10
2386.47942991678
 20
1045.747555733754
 10
2386.936048850663
 20
1045.739137251821
 10
2387.384772677505
 20
1045.771412391625
 10
2387.810320645568
 20
1045.843282061988
 10
2388.198201229188
 20
1045.952298827486
 10
2388.5352056203
 20
1046.09475025292
 10
2388.809857538559
 20
1046.265785325848
 10
2389.012804042296
 20
1046.459579651997
 10
2389.137134031735
 20
1046.669533798019
 10
2389.178613598202
 20
1046.888498027285
 10
2389.13583020481
 20
1047.109015775585
 10
2389.010240788708
 20
1047.323577575482
 10
2388.806122146835
 20
1047.52487678222
 10
2388.530425294725
 20
1047.706058392746
 10
2388.192538758015
 20
1047.860952484615
 10
2387.803968857463
 20
1047.984284325305
 10
2387.377947874993
 20
1048.071853996901
 10
2386.928983444208
 20
1048.120679419264
 10
2386.472364510324
 20
1048.129097901197
 10
2386.023640683482
 20
1048.096822761394
 10
2385.598092715419
 20
1048.02495309103
 10
2385.2102121318
 20
1047.915936325532
 10
2384.873207740687
 20
1047.773484900099
  0
LWPOLYLINE
  5
87F
330
82B
100
AcDbEntity
  8
0
  6
Continuous
 62
     7
370
    15
100
AcDbPolyline
 90
       41
 70
   128
 43
0.0
 10
2389.238013294161
 20
1045.772568855981
 10
2389.567121918942
 20
1045.971532688114
 10
2389.825736069079
 20
1046.194198554836
 10
2390.00748780591
 20
1046.435083683522
 10
2390.10790179847
 20
1046.688256682851
 10
2390.124505521008
 20
1046.947483593348
 10
2390.056890134773
 20
1047.20638138815
 10
2389.906720554975
 20
1047.458575144318
 10
2389.677694455053
 20
1047.697855014592
 10
2389.375451217681
 20
1047.91832913444
 10
2389.007433074451
 20
1048.114568699321
 10
2388.582701853432
 20
1048.281741639866
 10
2388.111715846887
 20
1048.415731603463
 10
2387.60607229341
 20
1048.51323931252
 10
2387.078221815423
 20
1048.571863803633
 10
2386.541161843529
 20
1048.590161547265
 10
2386.008116576636
 20
1048.567681992243
 10
2385.49221135829
 20
1048.504978659815
 10
2385.006149487159
 20
1048.403595514127
 10
2384.561899419656
 20
1048.266028944697
 10
2384.170400066826
 20
1048.095666297022
 10
2383.841291442045
 20
1047.896702464889
 10
2383.582677291907
 20
1047.674036598167
 10
2383.400925555077
 20
1047.433151469481
 10
2383.300511562517
 20
1047.179978470152
 10
2383.283907839978
 20
1046.920751559655
 10
2383.351523226213
 20
1046.661853764853
 10
2383.501692806011
 20
1046.409660008685
 10
2383.730718905934
 20
1046.170380138411
 10
2384.032962143306
 20
1045.949906018563
 10
2384.400980286535
 20
1045.753666453682
 10
2384.825711507555
 20
1045.586493513137
 10
2385.2966975141
 20
1045.452503549541
 10
2385.802341067577
 20
1045.354995840483
 10
2386.330191545564
 20
1045.29637134937
 10
2386.867251517458
 20
1045.278073605738
 10
2387.400296784351
 20
1045.30055316076
 10
2387.916202002697
 20
1045.363256493188
 10
2388.402263873828
 20
1045.464639638876
 10
2388.846513941331
 20
1045.602206208306
 10
2389.238013294161
 20
1045.772568855981
  0
LINE
  5
880
330
82B
100
AcDbEntity
  8
0
  6
Continuous
 62
     7
370
    15
100
AcDbLine
 10
2390.012010476247
 20
1042.250159923055
 30
0.0
 11
2390.014553612075
 21
1042.296975605811
 31
0.0
  0
LWPOLYLINE
  5
881
330
82B
100
AcDbEntity
  8
0
  6
Continuous
 62
     7
370
    15
100
AcDbPolyline
 90
       16
 70
   128
 43
0.0
 10
2388.785984178618
 20
1040.40214534692
 10
2388.42365738363
 20
1040.245835398023
 10
2388.01067467301
 20
1040.121541604358
 10
2387.558301138537
 20
1040.032654376609
 10
2387.078876350982
 20
1039.981598326636
 10
2386.585477768782
 20
1039.969766130389
 10
2386.091564019066
 20
1039.997480539338
 10
2385.610607781389
 20
1040.063985576653
 10
2385.155728288154
 20
1040.167467158281
 10
2384.739333466156
 20
1040.305102576431
 10
2384.372781480678
 20
1040.473137495686
 10
2384.066070914355
 20
1040.666988361483
 10
2383.827568031901
 20
1040.881367427534
 10
2383.663778570218
 20
1041.110426991762
 10
2383.579170278854
 20
1041.347918906367
 10
2383.567525207853
 20
1041.494401646783
  0
ARC
  5
882
330
82B
100
AcDbEntity
  8
0
  6
Continuous
 62
     7
370
    15
100
AcDbCircle
 10
2388.377778487453
 20
1041.533553266896
 30
0.0
 40
1.202794981566389
100
AcDbArc
 50
289.8391620714802
 51
350.9674073299832
  0
LWPOLYLINE
  5
883
330
82B
100
AcDbEntity
  8
0
  6
Continuous
 62
     7
370
    15
100
AcDbPolyline
 90
       16
 70
   128
 43
0.0
 10
2366.592057635541
 20
1050.576294723745
 10
2366.229730840554
 20
1050.419984774847
 10
2365.816748129934
 20
1050.295690981183
 10
2365.364374595461
 20
1050.206803753434
 10
2364.884949807906
 20
1050.155747703461
 10
2364.391551225706
 20
1050.143915507214
 10
2363.897637475989
 20
1050.171629916163
 10
2363.416681238312
 20
1050.238134953477
 10
2362.961801745078
 20
1050.341616535105
 10
2362.54540692308
 20
1050.479251953256
 10
2362.178854937603
 20
1050.647286872511
 10
2361.872144371279
 20
1050.841137738308
 10
2361.633641488825
 20
1051.055516804359
 10
2361.469852027142
 20
1051.284576368586
 10
2361.385243735778
 20
1051.522068283192
 10
2361.373598664777
 20
1051.668551023607
  0
ARC
  5
884
330
82B
100
AcDbEntity
  8
0
  6
Continuous
 62
     7
370
    15
100
AcDbCircle
 10
2366.183851944377
 20
1051.70770264372
 30
0.0
 40
1.202794981566318
100
AcDbArc
 50
289.8391620714802
 51
350.9674073299832
  0
LWPOLYLINE
  5
885
330
82B
100
AcDbEntity
  8
0
  6
Continuous
 62
     7
370
    15
100
AcDbPolyline
 90
       16
 70
   128
 43
0.0
 10
2344.398131092466
 20
1060.750444100569
 10
2344.035804297478
 20
1060.594134151672
 10
2343.622821586858
 20
1060.469840358008
 10
2343.170448052385
 20
1060.380953130258
 10
2342.69102326483
 20
1060.329897080285
 10
2342.19762468263
 20
1060.318064884039
 10
2341.703710932914
 20
1060.345779292987
 10
2341.222754695236
 20
1060.412284330302
 10
2340.767875202002
 20
1060.51576591193
 10
2340.351480380005
 20
1060.653401330081
 10
2339.984928394527
 20
1060.821436249336
 10
2339.678217828204
 20
1061.015287115132
 10
2339.439714945749
 20
1061.229666181183
 10
2339.275925484066
 20
1061.458725745411
 10
2339.191317192702
 20
1061.696217660017
 10
2339.179672121701
 20
1061.842700400432
  0
ARC
  5
886
330
82B
100
AcDbEntity
  8
0
  6
Continuous
 62
     7
370
    15
100
AcDbCircle
 10
2343.989925401301
 20
1061.881852020544
 30
0.0
 40
1.202794981566058
100
AcDbArc
 50
289.8391620714802
 51
350.9674073299962
  0
LWPOLYLINE
  5
887
330
82B
100
AcDbEntity
  8
0
  6
Continuous
 62
     7
370
    15
100
AcDbPolyline
 90
       16
 70
   128
 43
0.0
 10
2322.20420454939
 20
1070.924593477394
 10
2321.841877754402
 20
1070.768283528496
 10
2321.428895043782
 20
1070.643989734832
 10
2320.976521509309
 20
1070.555102507083
 10
2320.497096721754
 20
1070.50404645711
 10
2320.003698139554
 20
1070.492214260863
 10
2319.509784389838
 20
1070.519928669812
 10
2319.02882815216
 20
1070.586433707126
 10
2318.573948658926
 20
1070.689915288754
 10
2318.157553836929
 20
1070.827550706905
 10
2317.791001851451
 20
1070.99558562616
 10
2317.484291285127
 20
1071.189436491957
 10
2317.245788402673
 20
1071.403815558008
 10
2317.08199894099
 20
1071.632875122235
 10
2316.997390649626
 20
1071.870367036841
 10
2316.985745578625
 20
1072.016849777256
  0
ARC
  5
888
330
82B
100
AcDbEntity
  8
0
  6
Continuous
 62
     7
370
    15
100
AcDbCircle
 10
2321.795998858225
 20
1072.056001397369
 30
0.0
 40
1.202794981566259
100
AcDbArc
 50
289.8391620714802
 51
350.9674073299832
  0
LWPOLYLINE
  5
889
330
82B
100
AcDbEntity
  8
0
  6
Continuous
 62
     7
370
    15
100
AcDbPolyline
 90
       21
 70
   128
 43
0.0
 10
2305.888782307086
 20
1077.103924465669
 10
2305.900427378086
 20
1076.957441725254
 10
2305.985035669451
 20
1076.719949810648
 10
2306.148825131133
 20
1076.490890246421
 10
2306.387328013588
 20
1076.27651118037
 10
2306.694038579912
 20
1076.082660314573
 10
2307.060590565389
 20
1075.914625395318
 10
2307.476985387387
 20
1075.776989977167
 10
2307.931864880621
 20
1075.673508395539
 10
2308.412821118299
 20
1075.607003358225
 10
2308.906734868015
 20
1075.579288949276
 10
2309.400133450214
 20
1075.591121145523
 10
2309.87955823777
 20
1075.642177195496
 10
2310.331931772243
 20
1075.731064423245
 10
2310.744914482863
 20
1075.855358216909
 10
2311.10724127785
 20
1076.011668165807
 10
2311.409028826753
 20
1076.195730542002
 10
2311.642045151939
 20
1076.402524603686
 10
2311.799934175484
 20
1076.626409547928
 10
2311.878389096412
 20
1076.861278377076
 10
2311.88691494
 20
1076.95424174131
  0
LWPOLYLINE
  5
88A
330
82B
100
AcDbEntity
  8
0
  6
Continuous
 62
     7
370
    15
100
AcDbPolyline
 90
       16
 70
   128
 43
0.0
 10
2333.301167820927
 20
1065.837518788982
 10
2332.93884102594
 20
1065.681208840084
 10
2332.52585831532
 20
1065.55691504642
 10
2332.073484780847
 20
1065.468027818671
 10
2331.594059993292
 20
1065.416971768698
 10
2331.100661411092
 20
1065.405139572451
 10
2330.606747661376
 20
1065.4328539814
 10
2330.125791423698
 20
1065.499359018714
 10
2329.670911930464
 20
1065.602840600342
 10
2329.254517108466
 20
1065.740476018493
 10
2328.887965122989
 20
1065.908510937748
 10
2328.581254556665
 20
1066.102361803545
 10
2328.342751674211
 20
1066.316740869595
 10
2328.178962212528
 20
1066.545800433823
 10
2328.094353921164
 20
1066.783292348429
 10
2328.082708850163
 20
1066.929775088844
  0
ARC
  5
88B
330
82B
100
AcDbEntity
  8
0
  6
Continuous
 62
     7
370
    15
100
AcDbCircle
 10
2332.892962129764
 20
1066.968926708957
 30
0.0
 40
1.202794981565992
100
AcDbArc
 50
289.8391620714556
 51
350.9674073299962
  0
LWPOLYLINE
  5
88C
330
82B
100
AcDbEntity
  8
0
  6
Continuous
 62
     7
370
    15
100
AcDbPolyline
 90
       16
 70
   128
 43
0.0
 10
2355.495094364004
 20
1055.663369412157
 10
2355.132767569016
 20
1055.50705946326
 10
2354.719784858396
 20
1055.382765669595
 10
2354.267411323923
 20
1055.293878441846
 10
2353.787986536367
 20
1055.242822391873
 10
2353.294587954168
 20
1055.230990195626
 10
2352.800674204452
 20
1055.258704604575
 10
2352.319717966774
 20
1055.32520964189
 10
2351.86483847354
 20
1055.428691223518
 10
2351.448443651543
 20
1055.566326641668
 10
2351.081891666065
 20
1055.734361560923
 10
2350.775181099741
 20
1055.92821242672
 10
2350.536678217287
 20
1056.142591492771
 10
2350.372888755604
 20
1056.371651056998
 10
2350.28828046424
 20
1056.609142971605
 10
2350.276635393239
 20
1056.755625712019
  0
ARC
  5
88D
330
82B
100
AcDbEntity
  8
0
  6
Continuous
 62
     7
370
    15
100
AcDbCircle
 10
2355.086888672839
 20
1056.794777332132
 30
0.0
 40
1.202794981566497
100
AcDbArc
 50
289.8391620714846
 51
350.9674073299832
  0
LWPOLYLINE
  5
88E
330
82B
100
AcDbEntity
  8
0
  6
Continuous
 62
     7
370
    15
100
AcDbPolyline
 90
       16
 70
   128
 43
0.0
 10
2377.689020907079
 20
1045.489220035333
 10
2377.326694112092
 20
1045.332910086435
 10
2376.913711401472
 20
1045.208616292771
 10
2376.461337866999
 20
1045.119729065022
 10
2375.981913079444
 20
1045.068673015048
 10
2375.488514497244
 20
1045.056840818802
 10
2374.994600747528
 20
1045.084555227751
 10
2374.51364450985
 20
1045.151060265065
 10
2374.058765016616
 20
1045.254541846693
 10
2373.642370194618
 20
1045.392177264844
 10
2373.27581820914
 20
1045.560212184099
 10
2372.969107642817
 20
1045.754063049895
 10
2372.730604760363
 20
1045.968442115946
 10
2372.56681529868
 20
1046.197501680174
 10
2372.482207007316
 20
1046.43499359478
 10
2372.470561936315
 20
1046.581476335195
  0
ARC
  5
88F
330
82B
100
AcDbEntity
  8
0
  6
Continuous
 62
     7
370
    15
100
AcDbCircle
 10
2377.280815215915
 20
1046.620627955307
 30
0.0
 40
1.202794981566109
100
AcDbArc
 50
289.8391620714802
 51
350.9674073299962
  0
LINE
  5
890
330
82B
100
AcDbEntity
  8
0
  6
Continuous
 62
     7
370
    15
100
AcDbLine
 10
2370.627546043253
 20
1046.539017238819
 30
0.0
 11
2364.70916563177
 21
1049.252123739305
 31
0.0
  0
ARC
  5
891
330
82B
100
AcDbEntity
  8
0
  6
Continuous
 62
     7
370
    15
100
AcDbCircle
 10
2370.185469315346
 20
1068.033426419279
 30
0.0
 40
19.56341566269945
100
AcDbArc
 50
237.0003955997959
 51
253.7442270732511
  0
LINE
  5
892
330
82B
100
AcDbEntity
  8
0
  6
Continuous
 62
     7
370
    15
100
AcDbLine
 10
2359.530582771715
 20
1051.626091927231
 30
0.0
 11
2353.612202360231
 21
1054.339198427717
 31
0.0
  0
ARC
  5
893
330
82B
100
AcDbEntity
  8
0
  6
Continuous
 62
     7
370
    15
100
AcDbCircle
 10
2359.088506043807
 20
1073.12050110769
 30
0.0
 40
19.56341566269843
100
AcDbArc
 50
237.0003955997959
 51
253.7442270732511
  0
LINE
  5
894
330
82B
100
AcDbEntity
  8
0
  6
Continuous
 62
     7
370
    15
100
AcDbLine
 10
2348.433619500177
 20
1056.713166615644
 30
0.0
 11
2342.515239088693
 21
1059.426273116129
 31
0.0
  0
ARC
  5
895
330
82B
100
AcDbEntity
  8
0
  6
Continuous
 62
     7
370
    15
100
AcDbCircle
 10
2347.99154277227
 20
1078.207575796102
 30
0.0
 40
19.56341566269874
100
AcDbArc
 50
237.0003955997959
 51
253.7442270732511
  0
LINE
  5
896
330
82B
100
AcDbEntity
  8
0
  6
Continuous
 62
     7
370
    15
100
AcDbLine
 10
2337.336656228639
 20
1061.800241304056
 30
0.0
 11
2331.418275817155
 21
1064.513347804541
 31
0.0
  0
ARC
  5
897
330
82B
100
AcDbEntity
  8
0
  6
Continuous
 62
     7
370
    15
100
AcDbCircle
 10
2336.894579500734
 20
1083.294650484518
 30
0.0
 40
19.56341566270262
100
AcDbArc
 50
237.0003955997959
 51
253.7442270732511
  0
LINE
  5
898
330
82B
100
AcDbEntity
  8
0
  6
Continuous
 62
     7
370
    15
100
AcDbLine
 10
2320.321312545616
 20
1069.600422492954
 30
0.0
 11
2326.239692957102
 21
1066.887315992468
 31
0.0
  0
ARC
  5
899
330
82B
100
AcDbEntity
  8
0
  6
Continuous
 62
     7
370
    15
100
AcDbCircle
 10
2325.7976162292
 20
1088.381725172943
 30
0.0
 40
19.56341566271599
100
AcDbArc
 50
237.0003955998178
 51
253.7442270732511
  0
LINE
  5
89A
330
82B
100
AcDbEntity
  8
0
  6
Continuous
 62
     7
370
    15
100
AcDbLine
 10
2309.224349274078
 20
1074.687497181367
 30
0.0
 11
2315.142729685564
 21
1071.974390680881
 31
0.0
  0
ARC
  5
89B
330
82B
100
AcDbEntity
  8
0
  6
Continuous
 62
     7
370
    15
100
AcDbCircle
 10
2314.700652957655
 20
1093.46879986134
 30
0.0
 40
19.56341566269897
100
AcDbArc
 50
237.0003955997959
 51
253.7442270732511
  0
LINE
  5
89C
330
82B
100
AcDbEntity
  8
0
  6
Continuous
 62
     7
370
    15
100
AcDbLine
 10
2302.418211800867
 20
1077.807569656927
 30
0.0
 11
2304.045766414024
 21
1077.061465369294
 31
0.0
  0
LINE
  5
89D
330
82B
100
AcDbEntity
  8
0
  6
Continuous
 62
     7
370
    15
100
AcDbLine
 10
2305.520892340364
 20
1079.397757549966
 30
0.0
 11
2302.418211800867
 21
1077.807569656927
 31
0.0
  0
ARC
  5
89E
330
82B
100
AcDbEntity
  8
0
  6
Continuous
 62
     7
370
    15
100
AcDbCircle
 10
2305.165586461637
 20
1064.266269334955
 30
0.0
 40
15.34313790455037
100
AcDbArc
 50
56.069471640835
 51
62.15336146641949
  0
LINE
  5
89F
330
82B
100
AcDbEntity
  8
0
  6
Continuous
 62
     7
370
    15
100
AcDbLine
 10
2316.651463055354
 20
1075.657410776455
 30
0.0
 11
2313.72993083306
 21
1076.996700837686
 31
0.0
  0
ARC
  5
8A0
330
82B
100
AcDbEntity
  8
0
  6
Continuous
 62
     7
370
    15
100
AcDbCircle
 10
2316.259984120581
 20
1059.175107711136
 30
0.0
 40
15.34796098918398
100
AcDbArc
 50
56.07004112127416
 51
62.17623480756262
  0
LINE
  5
8A1
330
82B
100
AcDbEntity
  8
0
  6
Continuous
 62
     7
370
    15
100
AcDbLine
 10
2327.748426326892
 20
1070.570336088043
 30
0.0
 11
2324.826894104599
 21
1071.909626149273
 31
0.0
  0
ARC
  5
8A2
330
82B
100
AcDbEntity
  8
0
  6
Continuous
 62
     7
370
    15
100
AcDbCircle
 10
2327.356947392141
 20
1054.088033022762
 30
0.0
 40
15.3479609891397
100
AcDbArc
 50
56.07004112126688
 51
62.17623480756262
  0
LINE
  5
8A3
330
82B
100
AcDbEntity
  8
0
  6
Continuous
 62
     7
370
    15
100
AcDbLine
 10
2335.923857376137
 20
1066.822551460861
 30
0.0
 11
2338.84538959843
 21
1065.483261399631
 31
0.0
  0
ARC
  5
8A4
330
82B
100
AcDbEntity
  8
0
  6
Continuous
 62
     7
370
    15
100
AcDbCircle
 10
2338.453910663678
 20
1049.000958334348
 30
0.0
 40
15.34796098914278
100
AcDbArc
 50
56.07004112126688
 51
62.17623480756262
  0
LINE
  5
8A5
330
82B
100
AcDbEntity
  8
0
  6
Continuous
 62
     7
370
    15
100
AcDbLine
 10
2347.020820647675
 20
1061.735476772448
 30
0.0
 11
2349.942352869968
 21
1060.396186711218
 31
0.0
  0
ARC
  5
8A6
330
82B
100
AcDbEntity
  8
0
  6
Continuous
 62
     7
370
    15
100
AcDbCircle
 10
2349.550873935211
 20
1043.913883645927
 30
0.0
 40
15.34796098915221
100
AcDbArc
 50
56.07004112126688
 51
62.17623480756262
  0
LINE
  5
8A7
330
82B
100
AcDbEntity
  8
0
  6
Continuous
 62
     7
370
    15
100
AcDbLine
 10
2358.117783919214
 20
1056.648402084036
 30
0.0
 11
2361.039316141506
 21
1055.309112022806
 31
0.0
  0
ARC
  5
8A8
330
82B
100
AcDbEntity
  8
0
  6
Continuous
 62
     7
370
    15
100
AcDbCircle
 10
2360.647837206761
 20
1038.826808957535
 30
0.0
 40
15.34796098912838
100
AcDbArc
 50
56.07004112126688
 51
62.17623480756262
  0
LINE
  5
8A9
330
82B
100
AcDbEntity
  8
0
  6
Continuous
 62
     7
370
    15
100
AcDbLine
 10
2369.214747190751
 20
1051.561327395624
 30
0.0
 11
2372.136279413044
 21
1050.222037334394
 31
0.0
  0
ARC
  5
8AA
330
82B
100
AcDbEntity
  8
0
  6
Continuous
 62
     7
370
    15
100
AcDbCircle
 10
2371.744800478288
 20
1033.739734269104
 30
0.0
 40
15.3479609891501
100
AcDbArc
 50
56.07004112126688
 51
62.17623480756262
  0
LINE
  5
8AB
330
82B
100
AcDbEntity
  8
0
  6
Continuous
 62
     7
370
    15
100
AcDbLine
 10
2380.311710462289
 20
1046.474252707211
 30
0.0
 11
2383.233242684582
 21
1045.134962645981
 31
0.0
  0
ARC
  5
8AC
330
82B
100
AcDbEntity
  8
0
  6
Continuous
 62
     7
370
    15
100
AcDbCircle
 10
2382.841763749816
 20
1028.652659580677
 30
0.0
 40
15.34796098916827
100
AcDbArc
 50
56.07004112126688
 51
62.17623480756262
  0
LINE
  5
8AD
330
82B
100
AcDbEntity
  8
0
  6
Continuous
 62
     7
370
    15
100
AcDbLine
 10
2391.408673733827
 20
1041.387178018799
 30
0.0
 11
2393.036228346986
 21
1040.641073731165
 31
0.0
  0
LINE
  5
8AE
330
82B
100
AcDbEntity
  8
0
  6
Continuous
 62
     7
370
    15
100
AcDbLine
 10
2393.036228346986
 20
1040.641073731165
 30
0.0
 11
2388.530646788003
 21
1038.331870074847
 31
0.0
  0
LINE
  5
8AF
330
82B
100
AcDbEntity
  8
0
  6
Continuous
 62
     7
370
    15
100
AcDbLine
 10
2388.530646788003
 20
1038.331870074847
 30
0.0
 11
2386.903092174845
 21
1039.07797436248
 31
0.0
  0
ARC
  5
8B0
330
82B
100
AcDbEntity
  8
0
  6
Continuous
 62
     7
370
    15
100
AcDbCircle
 10
2392.379395858422
 20
1057.859277042455
 30
0.0
 40
19.56341566270045
100
AcDbArc
 50
237.0003955997959
 51
253.7442270732511
  0
LINE
  5
8B1
330
82B
100
AcDbEntity
  8
0
  6
Continuous
 62
     7
370
    15
100
AcDbLine
 10
2381.724509314791
 20
1041.451942550407
 30
0.0
 11
2375.806128903307
 21
1044.165049050892
 31
0.0
  0
ARC
  5
8B2
330
82B
100
AcDbEntity
  8
0
  6
Continuous
 62
     7
370
    15
100
AcDbCircle
 10
2381.282432586885
 20
1062.946351730869
 30
0.0
 40
19.56341566270212
100
AcDbArc
 50
237.0003955997959
 51
253.7442270732511
  0
LINE
  5
8B3
330
82B
100
AcDbEntity
  8
0
  6
Continuous
 62
     7
370
    15
100
AcDbLine
 10
2386.817901840064
 20
1035.664200800829
 30
0.0
 11
2388.445456453223
 21
1034.918096513195
 31
0.0
  0
LINE
  5
8B4
330
82B
100
AcDbEntity
  8
0
  6
Continuous
 62
     7
370
    15
100
AcDbLine
 10
2386.903092174845
 20
1039.07797436248
 30
0.0
 11
2386.817901840064
 21
1035.664200800829
 31
0.0
  0
LINE
  5
8B5
330
82B
100
AcDbEntity
  8
0
  6
Continuous
 62
     7
370
    15
100
AcDbLine
 10
2388.530646788003
 20
1038.331870074847
 30
0.0
 11
2388.445456453223
 21
1034.918096513195
 31
0.0
  0
LINE
  5
8B6
330
82B
100
AcDbEntity
  8
0
  6
Continuous
 62
     7
370
    15
100
AcDbLine
 10
2393.036228346986
 20
1040.641073731165
 30
0.0
 11
2392.951038012206
 21
1037.227300169514
 31
0.0
  0
LINE
  5
8B7
330
82B
100
AcDbEntity
  8
0
  6
Continuous
 62
     7
370
    15
100
AcDbLine
 10
2388.445456453223
 20
1034.918096513195
 30
0.0
 11
2392.951038012206
 21
1037.227300169514
 31
0.0
  0
ARC
  5
8B8
330
82B
100
AcDbEntity
  8
0
  6
Continuous
 62
     7
370
    15
100
AcDbCircle
 10
2392.294205523645
 20
1054.445503480812
 30
0.0
 40
19.56341566270954
100
AcDbArc
 50
237.0003955998178
 51
253.7442270732511
  0
LINE
  5
8B9
330
82B
100
AcDbEntity
  8
0
  6
Continuous
 62
     7
370
    15
100
AcDbLine
 10
2381.639318980011
 20
1038.038168988755
 30
0.0
 11
2381.724509314791
 21
1041.451942550407
 31
0.0
  0
LWPOLYLINE
  5
8BA
330
82B
100
AcDbEntity
  8
0
  6
Continuous
 62
     7
370
    15
100
AcDbPolyline
 90
       16
 70
   128
 43
0.0
 10
2388.466123236769
 20
1027.534276058489
 10
2388.103796441782
 20
1027.377966109591
 10
2387.690813731162
 20
1027.253672315927
 10
2387.238440196689
 20
1027.164785088178
 10
2386.759015409134
 20
1027.113729038205
 10
2386.265616826934
 20
1027.101896841958
 10
2385.771703077218
 20
1027.129611250907
 10
2385.29074683954
 20
1027.196116288221
 10
2384.835867346307
 20
1027.299597869849
 10
2384.419472524308
 20
1027.437233288
 10
2384.052920538831
 20
1027.605268207255
 10
2383.746209972507
 20
1027.799119073052
 10
2383.507707090053
 20
1028.013498139103
 10
2383.34391762837
 20
1028.24255770333
 10
2383.259309337006
 20
1028.480049617936
 10
2383.247664266005
 20
1028.626532358351
  0
ARC
  5
8BB
330
82B
100
AcDbEntity
  8
0
  6
Continuous
 62
     7
370
    15
100
AcDbCircle
 10
2388.057917545606
 20
1028.665683978464
 30
0.0
 40
1.202794981566118
100
AcDbArc
 50
289.8391620714802
 51
350.9674073299832
  0
LINE
  5
8BC
330
82B
100
AcDbEntity
  8
0
  6
Continuous
 62
     7
370
    15
100
AcDbLine
 10
2375.806128903307
 20
1044.165049050892
 30
0.0
 11
2375.720938568525
 21
1040.751275489241
 31
0.0
  0
LINE
  5
8BD
330
82B
100
AcDbEntity
  8
0
  6
Continuous
 62
     7
370
    15
100
AcDbLine
 10
2375.720938568525
 20
1040.751275489241
 30
0.0
 11
2381.639318980011
 21
1038.038168988755
 31
0.0
  0
LWPOLYLINE
  5
8BE
330
82B
100
AcDbEntity
  8
0
  6
Continuous
 62
     7
370
    15
100
AcDbPolyline
 90
       35
 70
   128
 43
0.0
 10
2373.776244469149
 20
1052.860559588511
 10
2373.50159255089
 20
1052.689524515582
 10
2373.298646047153
 20
1052.495730189433
 10
2373.174316057714
 20
1052.285776043411
 10
2373.132836491247
 20
1052.066811814146
 10
2373.175619884639
 20
1051.846294065846
 10
2373.301209300741
 20
1051.631732265948
 10
2373.505327942615
 20
1051.43043305921
 10
2373.781024794725
 20
1051.249251448685
 10
2374.118911331434
 20
1051.094357356815
 10
2374.507481231987
 20
1050.971025516125
 10
2374.933502214457
 20
1050.88345584453
 10
2375.382466645242
 20
1050.834630422166
 10
2375.839085579125
 20
1050.826211940233
 10
2376.287809405967
 20
1050.858487080037
 10
2376.71335737403
 20
1050.9303567504
 10
2377.10123795765
 20
1051.039373515898
 10
2377.438242348762
 20
1051.181824941332
 10
2377.712894267021
 20
1051.352860014261
 10
2377.915840770759
 20
1051.546654340409
 10
2378.040170760197
 20
1051.756608486432
 10
2378.081650326664
 20
1051.975572715697
 10
2378.038866933272
 20
1052.196090463997
 10
2377.91327751717
 20
1052.410652263894
 10
2377.709158875297
 20
1052.611951470633
 10
2377.433462023187
 20
1052.793133081158
 10
2377.095575486476
 20
1052.948027173028
 10
2376.707005585924
 20
1053.071359013717
 10
2376.280984603454
 20
1053.158928685313
 10
2375.832020172669
 20
1053.207754107677
 10
2375.375401238786
 20
1053.21617258961
 10
2374.926677411944
 20
1053.183897449806
 10
2374.501129443881
 20
1053.112027779442
 10
2374.113248860262
 20
1053.003011013945
 10
2373.776244469149
 20
1052.860559588511
  0
LWPOLYLINE
  5
8BF
330
82B
100
AcDbEntity
  8
0
  6
Continuous
 62
     7
370
    15
100
AcDbPolyline
 90
       41
 70
   128
 43
0.0
 10
2378.141050022623
 20
1050.859643544393
 10
2378.470158647403
 20
1051.058607376527
 10
2378.728772797542
 20
1051.281273243248
 10
2378.910524534371
 20
1051.522158371934
 10
2379.010938526931
 20
1051.775331371263
 10
2379.02754224947
 20
1052.03455828176
 10
2378.959926863235
 20
1052.293456076562
 10
2378.809757283437
 20
1052.545649832731
 10
2378.580731183515
 20
1052.784929703004
 10
2378.278487946143
 20
1053.005403822852
 10
2377.910469802913
 20
1053.201643387733
 10
2377.485738581894
 20
1053.368816328278
 10
2377.014752575349
 20
1053.502806291875
 10
2376.509109021872
 20
1053.600314000933
 10
2375.981258543885
 20
1053.658938492045
 10
2375.444198571991
 20
1053.677236235678
 10
2374.911153305098
 20
1053.654756680655
 10
2374.395248086752
 20
1053.592053348227
 10
2373.909186215621
 20
1053.49067020254
 10
2373.464936148118
 20
1053.35310363311
 10
2373.073436795287
 20
1053.182740985435
 10
2372.744328170508
 20
1052.983777153301
 10
2372.485714020369
 20
1052.761111286579
 10
2372.30396228354
 20
1052.520226157893
 10
2372.203548290979
 20
1052.267053158564
 10
2372.18694456844
 20
1052.007826248067
 10
2372.254559954676
 20
1051.748928453265
 10
2372.404729534474
 20
1051.496734697097
 10
2372.633755634396
 20
1051.257454826824
 10
2372.935998871767
 20
1051.036980706975
 10
2373.304017014998
 20
1050.840741142094
 10
2373.728748236016
 20
1050.67356820155
 10
2374.199734242562
 20
1050.539578237953
 10
2374.705377796038
 20
1050.442070528895
 10
2375.233228274026
 20
1050.383446037782
 10
2375.77028824592
 20
1050.36514829415
 10
2376.303333512813
 20
1050.387627849173
 10
2376.819238731159
 20
1050.4503311816
 10
2377.30530060229
 20
1050.551714327288
 10
2377.749550669792
 20
1050.689280896718
 10
2378.141050022623
 20
1050.859643544393
  0
LINE
  5
8C0
330
82B
100
AcDbEntity
  8
0
  6
Continuous
 62
     7
370
    15
100
AcDbLine
 10
2378.915047204709
 20
1047.337234611467
 30
0.0
 11
2378.917590340537
 21
1047.384050294223
 31
0.0
  0
ARC
  5
8C1
330
82B
100
AcDbEntity
  8
0
  6
Continuous
 62
     7
370
    15
100
AcDbCircle
 10
2386.323406746439
 20
1031.624282060261
 30
0.0
 40
4.627357755669614
100
AcDbArc
 50
238.2597051668099
 51
298.8812687669096
  0
LINE
  5
8C2
330
82B
100
AcDbEntity
  8
0
  6
Continuous
 62
     7
370
    15
100
AcDbLine
 10
2370.542355708473
 20
1043.125243677168
 30
0.0
 11
2370.627546043253
 21
1046.539017238819
 31
0.0
  0
ARC
  5
8C3
330
82B
100
AcDbEntity
  8
0
  6
Continuous
 62
     7
370
    15
100
AcDbCircle
 10
2381.197242252108
 20
1059.532578169224
 30
0.0
 40
19.56341566270929
100
AcDbArc
 50
237.0003955998178
 51
253.7442270732511
  0
LWPOLYLINE
  5
8C4
330
82B
100
AcDbEntity
  8
0
  6
Continuous
 62
     7
370
    15
100
AcDbPolyline
 90
       16
 70
   128
 43
0.0
 10
2377.369159965232
 20
1032.621350746901
 10
2377.006833170244
 20
1032.465040798004
 10
2376.593850459624
 20
1032.340747004339
 10
2376.14147692515
 20
1032.25185977659
 10
2375.662052137596
 20
1032.200803726617
 10
2375.168653555396
 20
1032.18897153037
 10
2374.67473980568
 20
1032.216685939319
 10
2374.193783568002
 20
1032.283190976634
 10
2373.738904074768
 20
1032.386672558262
 10
2373.32250925277
 20
1032.524307976412
 10
2372.955957267293
 20
1032.692342895667
 10
2372.649246700969
 20
1032.886193761464
 10
2372.410743818515
 20
1033.100572827515
 10
2372.246954356832
 20
1033.329632391742
 10
2372.162346065468
 20
1033.567124306349
 10
2372.150700994467
 20
1033.713607046763
  0
ARC
  5
8C5
330
82B
100
AcDbEntity
  8
0
  6
Continuous
 62
     7
370
    15
100
AcDbCircle
 10
2376.960954274068
 20
1033.752758666876
 30
0.0
 40
1.202794981566272
100
AcDbArc
 50
289.8391620714802
 51
350.9674073299832
  0
LINE
  5
8C6
330
82B
100
AcDbEntity
  8
0
  6
Continuous
 62
     7
370
    15
100
AcDbLine
 10
2364.70916563177
 20
1049.252123739305
 30
0.0
 11
2364.623975296987
 21
1045.838350177654
 31
0.0
  0
LINE
  5
8C7
330
82B
100
AcDbEntity
  8
0
  6
Continuous
 62
     7
370
    15
100
AcDbLine
 10
2364.623975296987
 20
1045.838350177654
 30
0.0
 11
2370.542355708473
 21
1043.125243677168
 31
0.0
  0
LWPOLYLINE
  5
8C8
330
82B
100
AcDbEntity
  8
0
  6
Continuous
 62
     7
370
    15
100
AcDbPolyline
 90
       35
 70
   128
 43
0.0
 10
2362.67928119761
 20
1057.947634276923
 10
2362.404629279352
 20
1057.776599203994
 10
2362.201682775614
 20
1057.582804877846
 10
2362.077352786176
 20
1057.372850731824
 10
2362.035873219709
 20
1057.153886502558
 10
2362.078656613101
 20
1056.933368754258
 10
2362.204246029203
 20
1056.718806954361
 10
2362.408364671076
 20
1056.517507747622
 10
2362.684061523186
 20
1056.336326137097
 10
2363.021948059897
 20
1056.181432045227
 10
2363.410517960449
 20
1056.058100204538
 10
2363.836538942919
 20
1055.970530532942
 10
2364.285503373704
 20
1055.921705110578
 10
2364.742122307587
 20
1055.913286628646
 10
2365.190846134429
 20
1055.945561768449
 10
2365.616394102492
 20
1056.017431438813
 10
2366.004274686111
 20
1056.12644820431
 10
2366.341279077225
 20
1056.268899629744
 10
2366.615930995483
 20
1056.439934702673
 10
2366.818877499221
 20
1056.633729028821
 10
2366.943207488659
 20
1056.843683174844
 10
2366.984687055126
 20
1057.06264740411
 10
2366.941903661734
 20
1057.283165152409
 10
2366.816314245633
 20
1057.497726952307
 10
2366.612195603758
 20
1057.699026159045
 10
2366.336498751648
 20
1057.880207769571
 10
2365.998612214939
 20
1058.03510186144
 10
2365.610042314386
 20
1058.158433702129
 10
2365.184021331916
 20
1058.246003373725
 10
2364.735056901132
 20
1058.294828796089
 10
2364.278437967248
 20
1058.303247278022
 10
2363.829714140406
 20
1058.270972138218
 10
2363.404166172343
 20
1058.199102467854
 10
2363.016285588724
 20
1058.090085702357
 10
2362.67928119761
 20
1057.947634276923
  0
LWPOLYLINE
  5
8C9
330
82B
100
AcDbEntity
  8
0
  6
Continuous
 62
     7
370
    15
100
AcDbPolyline
 90
       41
 70
   128
 43
0.0
 10
2367.044086751085
 20
1055.946718232805
 10
2367.373195375865
 20
1056.145682064939
 10
2367.631809526004
 20
1056.368347931661
 10
2367.813561262833
 20
1056.609233060346
 10
2367.913975255393
 20
1056.862406059676
 10
2367.930578977933
 20
1057.121632970172
 10
2367.862963591697
 20
1057.380530764975
 10
2367.712794011899
 20
1057.632724521143
 10
2367.483767911977
 20
1057.872004391416
 10
2367.181524674605
 20
1058.092478511265
 10
2366.813506531376
 20
1058.288718076146
 10
2366.388775310356
 20
1058.45589101669
 10
2365.917789303811
 20
1058.589880980287
 10
2365.412145750334
 20
1058.687388689345
 10
2364.884295272347
 20
1058.746013180457
 10
2364.347235300453
 20
1058.76431092409
 10
2363.81419003356
 20
1058.741831369067
 10
2363.298284815214
 20
1058.67912803664
 10
2362.812222944083
 20
1058.577744890952
 10
2362.36797287658
 20
1058.440178321522
 10
2361.97647352375
 20
1058.269815673847
 10
2361.64736489897
 20
1058.070851841713
 10
2361.388750748831
 20
1057.848185974991
 10
2361.206999012001
 20
1057.607300846306
 10
2361.106585019442
 20
1057.354127846976
 10
2361.089981296902
 20
1057.09490093648
 10
2361.157596683137
 20
1056.836003141677
 10
2361.307766262936
 20
1056.583809385509
 10
2361.536792362858
 20
1056.344529515236
 10
2361.83903560023
 20
1056.124055395387
 10
2362.207053743459
 20
1055.927815830506
 10
2362.631784964479
 20
1055.760642889962
 10
2363.102770971024
 20
1055.626652926365
 10
2363.608414524501
 20
1055.529145217307
 10
2364.136265002488
 20
1055.470520726195
 10
2364.673324974381
 20
1055.452222982562
 10
2365.206370241276
 20
1055.474702537585
 10
2365.722275459621
 20
1055.537405870012
 10
2366.208337330752
 20
1055.6387890157
 10
2366.652587398255
 20
1055.77635558513
 10
2367.044086751085
 20
1055.946718232805
  0
LINE
  5
8CA
330
82B
100
AcDbEntity
  8
0
  6
Continuous
 62
     7
370
    15
100
AcDbLine
 10
2367.81808393317
 20
1052.42430929988
 30
0.0
 11
2367.820627068999
 21
1052.471124982635
 31
0.0
  0
ARC
  5
8CB
330
82B
100
AcDbEntity
  8
0
  6
Continuous
 62
     7
370
    15
100
AcDbCircle
 10
2375.2264434749
 20
1036.711356748673
 30
0.0
 40
4.627357755669573
100
AcDbArc
 50
238.2597051668099
 51
298.8812687669096
  0
LINE
  5
8CC
330
82B
100
AcDbEntity
  8
0
  6
Continuous
 62
     7
370
    15
100
AcDbLine
 10
2359.445392436935
 20
1048.21231836558
 30
0.0
 11
2359.530582771715
 21
1051.626091927231
 31
0.0
  0
ARC
  5
8CD
330
82B
100
AcDbEntity
  8
0
  6
Continuous
 62
     7
370
    15
100
AcDbCircle
 10
2370.100278980567
 20
1064.619652857631
 30
0.0
 40
19.56341566270362
100
AcDbArc
 50
237.0003955998178
 51
253.7442270732511
  0
LWPOLYLINE
  5
8CE
330
82B
100
AcDbEntity
  8
0
  6
Continuous
 62
     7
370
    15
100
AcDbPolyline
 90
       16
 70
   128
 43
0.0
 10
2366.272196693694
 20
1037.708425435313
 10
2365.909869898706
 20
1037.552115486416
 10
2365.496887188086
 20
1037.427821692752
 10
2365.044513653613
 20
1037.338934465003
 10
2364.565088866058
 20
1037.28787841503
 10
2364.071690283858
 20
1037.276046218783
 10
2363.577776534142
 20
1037.303760627731
 10
2363.096820296464
 20
1037.370265665046
 10
2362.64194080323
 20
1037.473747246674
 10
2362.225545981232
 20
1037.611382664825
 10
2361.858993995755
 20
1037.77941758408
 10
2361.552283429431
 20
1037.973268449876
 10
2361.313780546977
 20
1038.187647515927
 10
2361.149991085293
 20
1038.416707080155
 10
2361.06538279393
 20
1038.654198994761
 10
2361.053737722929
 20
1038.800681735176
  0
ARC
  5
8CF
330
82B
100
AcDbEntity
  8
0
  6
Continuous
 62
     7
370
    15
100
AcDbCircle
 10
2365.86399100253
 20
1038.839833355289
 30
0.0
 40
1.202794981566027
100
AcDbArc
 50
289.8391620714556
 51
350.9674073299832
  0
LINE
  5
8D0
330
82B
100
AcDbEntity
  8
0
  6
Continuous
 62
     7
370
    15
100
AcDbLine
 10
2353.612202360231
 20
1054.339198427717
 30
0.0
 11
2353.52701202545
 21
1050.925424866066
 31
0.0
  0
LINE
  5
8D1
330
82B
100
AcDbEntity
  8
0
  6
Continuous
 62
     7
370
    15
100
AcDbLine
 10
2353.52701202545
 20
1050.925424866066
 30
0.0
 11
2359.445392436935
 21
1048.21231836558
 31
0.0
  0
LWPOLYLINE
  5
8D2
330
82B
100
AcDbEntity
  8
0
  6
Continuous
 62
     7
370
    15
100
AcDbPolyline
 90
       35
 70
   128
 43
0.0
 10
2351.582317926073
 20
1063.034708965335
 10
2351.307666007814
 20
1062.863673892407
 10
2351.104719504077
 20
1062.669879566258
 10
2350.980389514638
 20
1062.459925420236
 10
2350.938909948172
 20
1062.24096119097
 10
2350.981693341563
 20
1062.02044344267
 10
2351.107282757665
 20
1061.805881642773
 10
2351.311401399538
 20
1061.604582436035
 10
2351.587098251648
 20
1061.423400825509
 10
2351.924984788359
 20
1061.26850673364
 10
2352.313554688911
 20
1061.14517489295
 10
2352.739575671381
 20
1061.057605221354
 10
2353.188540102165
 20
1061.008779798991
 10
2353.645159036049
 20
1061.000361317058
 10
2354.093882862891
 20
1061.032636456861
 10
2354.519430830954
 20
1061.104506127225
 10
2354.907311414573
 20
1061.213522892723
 10
2355.244315805686
 20
1061.355974318157
 10
2355.518967723945
 20
1061.527009391085
 10
2355.721914227683
 20
1061.720803717234
 10
2355.846244217121
 20
1061.930757863256
 10
2355.887723783588
 20
1062.149722092522
 10
2355.844940390196
 20
1062.370239840822
 10
2355.719350974095
 20
1062.584801640719
 10
2355.515232332221
 20
1062.786100847457
 10
2355.239535480111
 20
1062.967282457983
 10
2354.901648943401
 20
1063.122176549852
 10
2354.513079042848
 20
1063.245508390542
 10
2354.087058060378
 20
1063.333078062137
 10
2353.638093629594
 20
1063.381903484501
 10
2353.18147469571
 20
1063.390321966434
 10
2352.732750868868
 20
1063.358046826631
 10
2352.307202900806
 20
1063.286177156267
 10
2351.919322317186
 20
1063.177160390769
 10
2351.582317926073
 20
1063.034708965335
  0
LWPOLYLINE
  5
8D3
330
82B
100
AcDbEntity
  8
0
  6
Continuous
 62
     7
370
    15
100
AcDbPolyline
 90
       41
 70
   128
 43
0.0
 10
2355.947123479547
 20
1061.033792921218
 10
2356.276232104328
 20
1061.232756753351
 10
2356.534846254466
 20
1061.455422620073
 10
2356.716597991296
 20
1061.696307748759
 10
2356.817011983856
 20
1061.949480748088
 10
2356.833615706395
 20
1062.208707658585
 10
2356.766000320159
 20
1062.467605453387
 10
2356.615830740361
 20
1062.719799209555
 10
2356.386804640439
 20
1062.959079079828
 10
2356.084561403067
 20
1063.179553199677
 10
2355.716543259837
 20
1063.375792764558
 10
2355.291812038818
 20
1063.542965705102
 10
2354.820826032273
 20
1063.676955668699
 10
2354.315182478796
 20
1063.774463377757
 10
2353.787332000809
 20
1063.83308786887
 10
2353.250272028915
 20
1063.851385612502
 10
2352.717226762022
 20
1063.82890605748
 10
2352.201321543676
 20
1063.766202725052
 10
2351.715259672545
 20
1063.664819579364
 10
2351.271009605042
 20
1063.527253009934
 10
2350.879510252211
 20
1063.356890362259
 10
2350.550401627431
 20
1063.157926530125
 10
2350.291787477293
 20
1062.935260663404
 10
2350.110035740463
 20
1062.694375534718
 10
2350.009621747903
 20
1062.441202535389
 10
2349.993018025364
 20
1062.181975624892
 10
2350.060633411599
 20
1061.92307783009
 10
2350.210802991398
 20
1061.670884073921
 10
2350.43982909132
 20
1061.431604203648
 10
2350.742072328691
 20
1061.2111300838
 10
2351.110090471921
 20
1061.014890518919
 10
2351.534821692941
 20
1060.847717578374
 10
2352.005807699486
 20
1060.713727614778
 10
2352.511451252963
 20
1060.616219905719
 10
2353.03930173095
 20
1060.557595414607
 10
2353.576361702844
 20
1060.539297670975
 10
2354.109406969737
 20
1060.561777225997
 10
2354.625312188083
 20
1060.624480558425
 10
2355.111374059214
 20
1060.725863704113
 10
2355.555624126717
 20
1060.863430273542
 10
2355.947123479547
 20
1061.033792921218
  0
LINE
  5
8D4
330
82B
100
AcDbEntity
  8
0
  6
Continuous
 62
     7
370
    15
100
AcDbLine
 10
2356.721120661632
 20
1057.511383988292
 30
0.0
 11
2356.723663797461
 21
1057.558199671048
 31
0.0
  0
ARC
  5
8D5
330
82B
100
AcDbEntity
  8
0
  6
Continuous
 62
     7
370
    15
100
AcDbCircle
 10
2364.129480203363
 20
1041.798431437085
 30
0.0
 40
4.627357755669701
100
AcDbArc
 50
238.2597051668099
 51
298.8812687669096
  0
LINE
  5
8D6
330
82B
100
AcDbEntity
  8
0
  6
Continuous
 62
     7
370
    15
100
AcDbLine
 10
2348.348429165397
 20
1053.299393053992
 30
0.0
 11
2348.433619500177
 21
1056.713166615644
 31
0.0
  0
ARC
  5
8D7
330
82B
100
AcDbEntity
  8
0
  6
Continuous
 62
     7
370
    15
100
AcDbCircle
 10
2359.003315709029
 20
1069.706727546045
 30
0.0
 40
19.56341566270502
100
AcDbArc
 50
237.0003955998178
 51
253.7442270732511
  0
LWPOLYLINE
  5
8D8
330
82B
100
AcDbEntity
  8
0
  6
Continuous
 62
     7
370
    15
100
AcDbPolyline
 90
       16
 70
   128
 43
0.0
 10
2355.175233422156
 20
1042.795500123726
 10
2354.812906627168
 20
1042.639190174828
 10
2354.399923916548
 20
1042.514896381164
 10
2353.947550382075
 20
1042.426009153415
 10
2353.46812559452
 20
1042.374953103442
 10
2352.97472701232
 20
1042.363120907195
 10
2352.480813262604
 20
1042.390835316144
 10
2351.999857024926
 20
1042.457340353458
 10
2351.544977531692
 20
1042.560821935086
 10
2351.128582709694
 20
1042.698457353237
 10
2350.762030724217
 20
1042.866492272492
 10
2350.455320157893
 20
1043.060343138288
 10
2350.216817275439
 20
1043.27472220434
 10
2350.053027813756
 20
1043.503781768567
 10
2349.968419522392
 20
1043.741273683173
 10
2349.956774451391
 20
1043.887756423588
  0
ARC
  5
8D9
330
82B
100
AcDbEntity
  8
0
  6
Continuous
 62
     7
370
    15
100
AcDbCircle
 10
2354.767027730991
 20
1043.926908043701
 30
0.0
 40
1.202794981566885
100
AcDbArc
 50
289.8391620714846
 51
350.9674073299704
  0
LINE
  5
8DA
330
82B
100
AcDbEntity
  8
0
  6
Continuous
 62
     7
370
    15
100
AcDbLine
 10
2342.515239088693
 20
1059.426273116129
 30
0.0
 11
2342.430048753911
 21
1056.012499554478
 31
0.0
  0
LINE
  5
8DB
330
82B
100
AcDbEntity
  8
0
  6
Continuous
 62
     7
370
    15
100
AcDbLine
 10
2342.430048753911
 20
1056.012499554478
 30
0.0
 11
2348.348429165397
 21
1053.299393053992
 31
0.0
  0
LWPOLYLINE
  5
8DC
330
82B
100
AcDbEntity
  8
0
  6
Continuous
 62
     7
370
    15
100
AcDbPolyline
 90
       35
 70
   128
 43
0.0
 10
2340.485354654535
 20
1068.121783653747
 10
2340.210702736276
 20
1067.950748580819
 10
2340.007756232539
 20
1067.75695425467
 10
2339.8834262431
 20
1067.547000108648
 10
2339.841946676633
 20
1067.328035879382
 10
2339.884730070025
 20
1067.107518131083
 10
2340.010319486127
 20
1066.892956331185
 10
2340.214438128001
 20
1066.691657124447
 10
2340.490134980111
 20
1066.510475513921
 10
2340.828021516821
 20
1066.355581422052
 10
2341.216591417373
 20
1066.232249581362
 10
2341.642612399843
 20
1066.144679909767
 10
2342.091576830628
 20
1066.095854487403
 10
2342.548195764511
 20
1066.08743600547
 10
2342.996919591353
 20
1066.119711145274
 10
2343.422467559415
 20
1066.191580815637
 10
2343.810348143035
 20
1066.300597581135
 10
2344.147352534148
 20
1066.443049006569
 10
2344.422004452408
 20
1066.614084079497
 10
2344.624950956144
 20
1066.807878405646
 10
2344.749280945583
 20
1067.017832551668
 10
2344.79076051205
 20
1067.236796780934
 10
2344.747977118658
 20
1067.457314529234
 10
2344.622387702556
 20
1067.671876329131
 10
2344.418269060683
 20
1067.87317553587
 10
2344.142572208573
 20
1068.054357146395
 10
2343.804685671862
 20
1068.209251238265
 10
2343.41611577131
 20
1068.332583078954
 10
2342.990094788841
 20
1068.42015275055
 10
2342.541130358055
 20
1068.468978172914
 10
2342.084511424173
 20
1068.477396654846
 10
2341.635787597331
 20
1068.445121515043
 10
2341.210239629268
 20
1068.373251844679
 10
2340.822359045648
 20
1068.264235079182
 10
2340.485354654535
 20
1068.121783653747
  0
LWPOLYLINE
  5
8DD
330
82B
100
AcDbEntity
  8
0
  6
Continuous
 62
     7
370
    15
100
AcDbPolyline
 90
       41
 70
   128
 43
0.0
 10
2344.850160208009
 20
1066.12086760963
 10
2345.179268832789
 20
1066.319831441763
 10
2345.437882982928
 20
1066.542497308485
 10
2345.619634719758
 20
1066.783382437171
 10
2345.720048712317
 20
1067.0365554365
 10
2345.736652434857
 20
1067.295782346997
 10
2345.669037048621
 20
1067.554680141799
 10
2345.518867468823
 20
1067.806873897967
 10
2345.289841368901
 20
1068.046153768241
 10
2344.987598131529
 20
1068.266627888089
 10
2344.619579988299
 20
1068.46286745297
 10
2344.19484876728
 20
1068.630040393515
 10
2343.723862760735
 20
1068.764030357112
 10
2343.218219207258
 20
1068.86153806617
 10
2342.690368729271
 20
1068.920162557282
 10
2342.153308757377
 20
1068.938460300914
 10
2341.620263490483
 20
1068.915980745892
 10
2341.104358272138
 20
1068.853277413464
 10
2340.618296401007
 20
1068.751894267776
 10
2340.174046333504
 20
1068.614327698347
 10
2339.782546980674
 20
1068.443965050671
 10
2339.453438355894
 20
1068.245001218538
 10
2339.194824205755
 20
1068.022335351816
 10
2339.013072468925
 20
1067.78145022313
 10
2338.912658476365
 20
1067.528277223801
 10
2338.896054753826
 20
1067.269050313305
 10
2338.963670140062
 20
1067.010152518502
 10
2339.11383971986
 20
1066.757958762334
 10
2339.342865819782
 20
1066.518678892061
 10
2339.645109057153
 20
1066.298204772212
 10
2340.013127200384
 20
1066.101965207331
 10
2340.437858421403
 20
1065.934792266786
 10
2340.908844427948
 20
1065.80080230319
 10
2341.414487981424
 20
1065.703294594132
 10
2341.942338459412
 20
1065.644670103019
 10
2342.479398431306
 20
1065.626372359387
 10
2343.012443698199
 20
1065.648851914409
 10
2343.528348916545
 20
1065.711555246837
 10
2344.014410787676
 20
1065.812938392525
 10
2344.458660855178
 20
1065.950504961954
 10
2344.850160208009
 20
1066.12086760963
  0
LINE
  5
8DE
330
82B
100
AcDbEntity
  8
0
  6
Continuous
 62
     7
370
    15
100
AcDbLine
 10
2345.624157390094
 20
1062.598458676704
 30
0.0
 11
2345.626700525923
 21
1062.64527435946
 31
0.0
  0
ARC
  5
8DF
330
82B
100
AcDbEntity
  8
0
  6
Continuous
 62
     7
370
    15
100
AcDbCircle
 10
2353.032516931824
 20
1046.885506125497
 30
0.0
 40
4.62735775566945
100
AcDbArc
 50
238.2597051668099
 51
298.8812687669096
  0
LINE
  5
8E0
330
82B
100
AcDbEntity
  8
0
  6
Continuous
 62
     7
370
    15
100
AcDbLine
 10
2337.251465893859
 20
1058.386467742404
 30
0.0
 11
2337.336656228639
 21
1061.800241304056
 31
0.0
  0
ARC
  5
8E1
330
82B
100
AcDbEntity
  8
0
  6
Continuous
 62
     7
370
    15
100
AcDbCircle
 10
2347.906352437493
 20
1074.793802234459
 30
0.0
 40
19.56341566270764
100
AcDbArc
 50
237.0003955998178
 51
253.7442270732511
  0
LWPOLYLINE
  5
8E2
330
82B
100
AcDbEntity
  8
0
  6
Continuous
 62
     7
370
    15
100
AcDbPolyline
 90
       16
 70
   128
 43
0.0
 10
2344.078270150617
 20
1047.882574812138
 10
2343.71594335563
 20
1047.72626486324
 10
2343.30296064501
 20
1047.601971069576
 10
2342.850587110537
 20
1047.513083841827
 10
2342.371162322982
 20
1047.462027791854
 10
2341.877763740782
 20
1047.450195595607
 10
2341.383849991066
 20
1047.477910004556
 10
2340.902893753389
 20
1047.544415041871
 10
2340.448014260154
 20
1047.647896623498
 10
2340.031619438156
 20
1047.785532041649
 10
2339.665067452679
 20
1047.953566960904
 10
2339.358356886355
 20
1048.147417826701
 10
2339.119854003901
 20
1048.361796892752
 10
2338.956064542218
 20
1048.590856456979
 10
2338.871456250854
 20
1048.828348371586
 10
2338.859811179853
 20
1048.974831112
  0
ARC
  5
8E3
330
82B
100
AcDbEntity
  8
0
  6
Continuous
 62
     7
370
    15
100
AcDbCircle
 10
2343.670064459453
 20
1049.013982732113
 30
0.0
 40
1.202794981566408
100
AcDbArc
 50
289.8391620714846
 51
350.9674073299832
  0
LINE
  5
8E4
330
82B
100
AcDbEntity
  8
0
  6
Continuous
 62
     7
370
    15
100
AcDbLine
 10
2331.418275817155
 20
1064.513347804541
 30
0.0
 11
2331.333085482373
 21
1061.099574242891
 31
0.0
  0
LINE
  5
8E5
330
82B
100
AcDbEntity
  8
0
  6
Continuous
 62
     7
370
    15
100
AcDbLine
 10
2331.333085482373
 20
1061.099574242891
 30
0.0
 11
2337.251465893859
 21
1058.386467742404
 31
0.0
  0
LWPOLYLINE
  5
8E6
330
82B
100
AcDbEntity
  8
0
  6
Continuous
 62
     7
370
    15
100
AcDbPolyline
 90
       35
 70
   128
 43
0.0
 10
2329.388391382997
 20
1073.20885834216
 10
2329.113739464737
 20
1073.037823269231
 10
2328.910792961
 20
1072.844028943083
 10
2328.786462971562
 20
1072.63407479706
 10
2328.744983405095
 20
1072.415110567795
 10
2328.787766798487
 20
1072.194592819495
 10
2328.913356214588
 20
1071.980031019597
 10
2329.117474856462
 20
1071.778731812859
 10
2329.393171708573
 20
1071.597550202334
 10
2329.731058245283
 20
1071.442656110464
 10
2330.119628145835
 20
1071.319324269775
 10
2330.545649128305
 20
1071.231754598179
 10
2330.99461355909
 20
1071.182929175815
 10
2331.451232492973
 20
1071.174510693882
 10
2331.899956319815
 20
1071.206785833686
 10
2332.325504287878
 20
1071.27865550405
 10
2332.713384871498
 20
1071.387672269547
 10
2333.05038926261
 20
1071.530123694981
 10
2333.32504118087
 20
1071.70115876791
 10
2333.527987684607
 20
1071.894953094058
 10
2333.652317674046
 20
1072.104907240081
 10
2333.693797240512
 20
1072.323871469346
 10
2333.65101384712
 20
1072.544389217646
 10
2333.525424431019
 20
1072.758951017544
 10
2333.321305789145
 20
1072.960250224282
 10
2333.045608937035
 20
1073.141431834807
 10
2332.707722400325
 20
1073.296325926677
 10
2332.319152499772
 20
1073.419657767366
 10
2331.893131517302
 20
1073.507227438962
 10
2331.444167086518
 20
1073.556052861326
 10
2330.987548152634
 20
1073.564471343259
 10
2330.538824325792
 20
1073.532196203455
 10
2330.113276357729
 20
1073.460326533091
 10
2329.72539577411
 20
1073.351309767594
 10
2329.388391382997
 20
1073.20885834216
  0
LWPOLYLINE
  5
8E7
330
82B
100
AcDbEntity
  8
0
  6
Continuous
 62
     7
370
    15
100
AcDbPolyline
 90
       41
 70
   128
 43
0.0
 10
2333.753196936472
 20
1071.207942298042
 10
2334.082305561251
 20
1071.406906130176
 10
2334.34091971139
 20
1071.629571996898
 10
2334.522671448219
 20
1071.870457125583
 10
2334.62308544078
 20
1072.123630124913
 10
2334.639689163319
 20
1072.382857035409
 10
2334.572073777084
 20
1072.641754830212
 10
2334.421904197285
 20
1072.893948586379
 10
2334.192878097363
 20
1073.133228456653
 10
2333.890634859991
 20
1073.353702576501
 10
2333.522616716761
 20
1073.549942141382
 10
2333.097885495742
 20
1073.717115081927
 10
2332.626899489197
 20
1073.851105045524
 10
2332.12125593572
 20
1073.948612754582
 10
2331.593405457733
 20
1074.007237245695
 10
2331.056345485839
 20
1074.025534989327
 10
2330.523300218946
 20
1074.003055434304
 10
2330.0073950006
 20
1073.940352101876
 10
2329.521333129469
 20
1073.838968956189
 10
2329.077083061966
 20
1073.701402386759
 10
2328.685583709135
 20
1073.531039739084
 10
2328.356475084355
 20
1073.33207590695
 10
2328.097860934217
 20
1073.109410040228
 10
2327.916109197388
 20
1072.868524911543
 10
2327.815695204827
 20
1072.615351912213
 10
2327.799091482288
 20
1072.356125001717
 10
2327.866706868524
 20
1072.097227206914
 10
2328.016876448321
 20
1071.845033450746
 10
2328.245902548244
 20
1071.605753580473
 10
2328.548145785616
 20
1071.385279460624
 10
2328.916163928846
 20
1071.189039895743
 10
2329.340895149865
 20
1071.021866955199
 10
2329.81188115641
 20
1070.887876991602
 10
2330.317524709887
 20
1070.790369282544
 10
2330.845375187874
 20
1070.731744791432
 10
2331.382435159768
 20
1070.713447047799
 10
2331.915480426661
 20
1070.735926602822
 10
2332.431385645007
 20
1070.798629935249
 10
2332.917447516138
 20
1070.900013080937
 10
2333.361697583641
 20
1071.037579650367
 10
2333.753196936472
 20
1071.207942298042
  0
LINE
  5
8E8
330
82B
100
AcDbEntity
  8
0
  6
Continuous
 62
     7
370
    15
100
AcDbLine
 10
2334.527194118557
 20
1067.685533365116
 30
0.0
 11
2334.529737254385
 21
1067.732349047872
 31
0.0
  0
ARC
  5
8E9
330
82B
100
AcDbEntity
  8
0
  6
Continuous
 62
     7
370
    15
100
AcDbCircle
 10
2341.935553660286
 20
1051.972580813909
 30
0.0
 40
4.627357755669751
100
AcDbArc
 50
238.2597051668099
 51
298.8812687669096
  0
LINE
  5
8EA
330
82B
100
AcDbEntity
  8
0
  6
Continuous
 62
     7
370
    15
100
AcDbLine
 10
2326.154502622321
 20
1063.473542430817
 30
0.0
 11
2326.239692957102
 21
1066.887315992468
 31
0.0
  0
ARC
  5
8EB
330
82B
100
AcDbEntity
  8
0
  6
Continuous
 62
     7
370
    15
100
AcDbCircle
 10
2336.809389165955
 20
1079.880876922872
 30
0.0
 40
19.56341566270754
100
AcDbArc
 50
237.0003955998178
 51
253.7442270732511
  0
LWPOLYLINE
  5
8EC
330
82B
100
AcDbEntity
  8
0
  6
Continuous
 62
     7
370
    15
100
AcDbPolyline
 90
       16
 70
   128
 43
0.0
 10
2332.98130687908
 20
1052.96964950055
 10
2332.618980084092
 20
1052.813339551653
 10
2332.205997373472
 20
1052.689045757989
 10
2331.753623838999
 20
1052.600158530239
 10
2331.274199051444
 20
1052.549102480266
 10
2330.780800469244
 20
1052.53727028402
 10
2330.286886719528
 20
1052.564984692968
 10
2329.805930481851
 20
1052.631489730283
 10
2329.351050988616
 20
1052.73497131191
 10
2328.934656166619
 20
1052.872606730061
 10
2328.568104181141
 20
1053.040641649316
 10
2328.261393614817
 20
1053.234492515113
 10
2328.022890732363
 20
1053.448871581164
 10
2327.85910127068
 20
1053.677931145392
 10
2327.774492979316
 20
1053.915423059998
 10
2327.762847908315
 20
1054.061905800413
  0
ARC
  5
8ED
330
82B
100
AcDbEntity
  8
0
  6
Continuous
 62
     7
370
    15
100
AcDbCircle
 10
2332.573101187916
 20
1054.101057420525
 30
0.0
 40
1.202794981565936
100
AcDbArc
 50
289.8391620714556
 51
350.9674073299962
  0
LINE
  5
8EE
330
82B
100
AcDbEntity
  8
0
  6
Continuous
 62
     7
370
    15
100
AcDbLine
 10
2320.321312545616
 20
1069.600422492954
 30
0.0
 11
2320.236122210836
 21
1066.186648931302
 31
0.0
  0
LINE
  5
8EF
330
82B
100
AcDbEntity
  8
0
  6
Continuous
 62
     7
370
    15
100
AcDbLine
 10
2326.154502622321
 20
1063.473542430817
 30
0.0
 11
2320.236122210836
 21
1066.186648931302
 31
0.0
  0
LWPOLYLINE
  5
8F0
330
82B
100
AcDbEntity
  8
0
  6
Continuous
 62
     7
370
    15
100
AcDbPolyline
 90
       35
 70
   128
 43
0.0
 10
2318.291428111459
 20
1078.295933030572
 10
2318.0167761932
 20
1078.124897957644
 10
2317.813829689463
 20
1077.931103631495
 10
2317.689499700024
 20
1077.721149485473
 10
2317.648020133557
 20
1077.502185256207
 10
2317.690803526949
 20
1077.281667507907
 10
2317.816392943051
 20
1077.06710570801
 10
2318.020511584924
 20
1076.865806501271
 10
2318.296208437035
 20
1076.684624890746
 10
2318.634094973745
 20
1076.529730798877
 10
2319.022664874297
 20
1076.406398958187
 10
2319.448685856767
 20
1076.318829286591
 10
2319.897650287552
 20
1076.270003864228
 10
2320.354269221434
 20
1076.261585382295
 10
2320.802993048277
 20
1076.293860522098
 10
2321.22854101634
 20
1076.365730192462
 10
2321.616421599959
 20
1076.47474695796
 10
2321.953425991072
 20
1076.617198383393
 10
2322.228077909331
 20
1076.788233456322
 10
2322.431024413068
 20
1076.982027782471
 10
2322.555354402507
 20
1077.191981928493
 10
2322.596833968974
 20
1077.410946157758
 10
2322.554050575582
 20
1077.631463906058
 10
2322.42846115948
 20
1077.846025705956
 10
2322.224342517607
 20
1078.047324912694
 10
2321.948645665497
 20
1078.228506523219
 10
2321.610759128787
 20
1078.383400615089
 10
2321.222189228234
 20
1078.506732455779
 10
2320.796168245764
 20
1078.594302127374
 10
2320.347203814979
 20
1078.643127549738
 10
2319.890584881096
 20
1078.651546031671
 10
2319.441861054254
 20
1078.619270891867
 10
2319.016313086192
 20
1078.547401221504
 10
2318.628432502572
 20
1078.438384456006
 10
2318.291428111459
 20
1078.295933030572
  0
LWPOLYLINE
  5
8F1
330
82B
100
AcDbEntity
  8
0
  6
Continuous
 62
     7
370
    15
100
AcDbPolyline
 90
       41
 70
   128
 43
0.0
 10
2322.656233664933
 20
1076.295016986454
 10
2322.985342289713
 20
1076.493980818588
 10
2323.243956439852
 20
1076.71664668531
 10
2323.425708176682
 20
1076.957531813995
 10
2323.526122169242
 20
1077.210704813325
 10
2323.542725891781
 20
1077.469931723821
 10
2323.475110505545
 20
1077.728829518624
 10
2323.324940925747
 20
1077.981023274792
 10
2323.095914825825
 20
1078.220303145065
 10
2322.793671588453
 20
1078.440777264914
 10
2322.425653445224
 20
1078.637016829795
 10
2322.000922224205
 20
1078.804189770339
 10
2321.529936217659
 20
1078.938179733936
 10
2321.024292664182
 20
1079.035687442994
 10
2320.496442186195
 20
1079.094311934107
 10
2319.959382214301
 20
1079.112609677739
 10
2319.426336947408
 20
1079.090130122716
 10
2318.910431729062
 20
1079.027426790289
 10
2318.424369857931
 20
1078.926043644601
 10
2317.980119790428
 20
1078.788477075171
 10
2317.588620437597
 20
1078.618114427496
 10
2317.259511812817
 20
1078.419150595362
 10
2317.000897662679
 20
1078.196484728641
 10
2316.81914592585
 20
1077.955599599955
 10
2316.718731933289
 20
1077.702426600625
 10
2316.70212821075
 20
1077.443199690129
 10
2316.769743596985
 20
1077.184301895326
 10
2316.919913176784
 20
1076.932108139158
 10
2317.148939276706
 20
1076.692828268885
 10
2317.451182514078
 20
1076.472354149037
 10
2317.819200657308
 20
1076.276114584155
 10
2318.243931878327
 20
1076.108941643611
 10
2318.714917884872
 20
1075.974951680014
 10
2319.220561438348
 20
1075.877443970956
 10
2319.748411916336
 20
1075.818819479844
 10
2320.28547188823
 20
1075.800521736211
 10
2320.818517155123
 20
1075.823001291234
 10
2321.334422373469
 20
1075.885704623662
 10
2321.8204842446
 20
1075.987087769349
 10
2322.264734312103
 20
1076.124654338779
 10
2322.656233664933
 20
1076.295016986454
  0
LINE
  5
8F2
330
82B
100
AcDbEntity
  8
0
  6
Continuous
 62
     7
370
    15
100
AcDbLine
 10
2323.430230847018
 20
1072.772608053529
 30
0.0
 11
2323.432773982847
 21
1072.819423736285
 31
0.0
  0
ARC
  5
8F3
330
82B
100
AcDbEntity
  8
0
  6
Continuous
 62
     7
370
    15
100
AcDbCircle
 10
2330.838590388748
 20
1057.059655502322
 30
0.0
 40
4.627357755669789
100
AcDbArc
 50
238.2597051668099
 51
298.8812687669096
  0
LINE
  5
8F4
330
82B
100
AcDbEntity
  8
0
  6
Continuous
 62
     7
370
    15
100
AcDbLine
 10
2315.057539350783
 20
1068.560617119229
 30
0.0
 11
2315.142729685564
 21
1071.974390680881
 31
0.0
  0
ARC
  5
8F5
330
82B
100
AcDbEntity
  8
0
  6
Continuous
 62
     7
370
    15
100
AcDbCircle
 10
2325.712425894417
 20
1084.967951611284
 30
0.0
 40
19.56341566270749
100
AcDbArc
 50
237.0003955998178
 51
253.7442270732511
  0
LWPOLYLINE
  5
8F6
330
82B
100
AcDbEntity
  8
0
  6
Continuous
 62
     7
370
    15
100
AcDbPolyline
 90
       16
 70
   128
 43
0.0
 10
2321.884343607541
 20
1058.056724188963
 10
2321.522016812554
 20
1057.900414240065
 10
2321.109034101934
 20
1057.776120446401
 10
2320.656660567461
 20
1057.687233218651
 10
2320.177235779906
 20
1057.636177168679
 10
2319.683837197706
 20
1057.624344972432
 10
2319.18992344799
 20
1057.652059381381
 10
2318.708967210312
 20
1057.718564418695
 10
2318.254087717078
 20
1057.822046000323
 10
2317.83769289508
 20
1057.959681418473
 10
2317.471140909603
 20
1058.127716337729
 10
2317.16443034328
 20
1058.321567203526
 10
2316.925927460825
 20
1058.535946269576
 10
2316.762137999142
 20
1058.765005833804
 10
2316.677529707778
 20
1059.00249774841
 10
2316.665884636777
 20
1059.148980488825
  0
ARC
  5
8F7
330
82B
100
AcDbEntity
  8
0
  6
Continuous
 62
     7
370
    15
100
AcDbCircle
 10
2321.476137916377
 20
1059.188132108937
 30
0.0
 40
1.202794981566057
100
AcDbArc
 50
289.8391620714556
 51
350.9674073299962
  0
LINE
  5
8F8
330
82B
100
AcDbEntity
  8
0
  6
Continuous
 62
     7
370
    15
100
AcDbLine
 10
2309.139158939297
 20
1071.273723619715
 30
0.0
 11
2309.224349274078
 21
1074.687497181367
 31
0.0
  0
LINE
  5
8F9
330
82B
100
AcDbEntity
  8
0
  6
Continuous
 62
     7
370
    15
100
AcDbLine
 10
2315.057539350783
 20
1068.560617119229
 30
0.0
 11
2309.139158939297
 21
1071.273723619715
 31
0.0
  0
LWPOLYLINE
  5
8FA
330
82B
100
AcDbEntity
  8
0
  6
Continuous
 62
     7
370
    15
100
AcDbPolyline
 90
       35
 70
   128
 43
0.0
 10
2310.856462719533
 20
1081.704273071806
 10
2310.51945832842
 20
1081.561821646372
 10
2310.131577744801
 20
1081.452804880875
 10
2309.706029776737
 20
1081.380935210511
 10
2309.257305949896
 20
1081.348660070708
 10
2308.800687016013
 20
1081.35707855264
 10
2308.351722585228
 20
1081.405903975004
 10
2307.925701602758
 20
1081.4934736466
 10
2307.537131702205
 20
1081.616805487289
 10
2307.199245165495
 20
1081.771699579159
 10
2306.923548313385
 20
1081.952881189685
 10
2306.719429671511
 20
1082.154180396423
 10
2306.59384025541
 20
1082.36874219632
 10
2306.551056862018
 20
1082.58925994462
 10
2306.592536428485
 20
1082.808224173885
 10
2306.716866417923
 20
1083.018178319908
 10
2306.919812921661
 20
1083.211972646056
 10
2307.19446483992
 20
1083.383007718985
 10
2307.531469231033
 20
1083.525459144419
 10
2307.919349814652
 20
1083.634475909917
 10
2308.344897782715
 20
1083.70634558028
 10
2308.793621609558
 20
1083.738620720084
 10
2309.25024054344
 20
1083.730202238151
 10
2309.699204974225
 20
1083.681376815787
 10
2310.125225956695
 20
1083.593807144191
 10
2310.513795857247
 20
1083.470475303502
 10
2310.851682393958
 20
1083.315581211633
 10
2311.127379246068
 20
1083.134399601107
 10
2311.331497887941
 20
1082.933100394369
 10
2311.457087304043
 20
1082.718538594471
 10
2311.499870697435
 20
1082.498020846171
 10
2311.458391130968
 20
1082.279056616906
 10
2311.334061141529
 20
1082.069102470883
 10
2311.131114637792
 20
1081.875308144735
 10
2310.856462719533
 20
1081.704273071806
  0
LWPOLYLINE
  5
8FB
330
82B
100
AcDbEntity
  8
0
  6
Continuous
 62
     7
370
    15
100
AcDbPolyline
 90
       41
 70
   128
 43
0.0
 10
2306.491657166058
 20
1083.705189115909
 10
2306.883156518889
 20
1083.875551763584
 10
2307.327406586392
 20
1084.013118333014
 10
2307.813468457523
 20
1084.114501478702
 10
2308.329373675869
 20
1084.177204811129
 10
2308.862418942762
 20
1084.199684366152
 10
2309.399478914656
 20
1084.181386622519
 10
2309.927329392643
 20
1084.122762131407
 10
2310.43297294612
 20
1084.025254422349
 10
2310.903958952664
 20
1083.891264458752
 10
2311.328690173684
 20
1083.724091518208
 10
2311.696708316914
 20
1083.527851953326
 10
2311.998951554286
 20
1083.307377833478
 10
2312.227977654208
 20
1083.068097963205
 10
2312.378147234006
 20
1082.815904207037
 10
2312.445762620242
 20
1082.557006412234
 10
2312.429158897702
 20
1082.297779501738
 10
2312.328744905142
 20
1082.044606502408
 10
2312.146993168313
 20
1081.803721373723
 10
2311.888379018174
 20
1081.581055507001
 10
2311.559270393394
 20
1081.382091674867
 10
2311.167771040564
 20
1081.211729027192
 10
2310.723520973061
 20
1081.074162457762
 10
2310.23745910193
 20
1080.972779312074
 10
2309.721553883584
 20
1080.910075979647
 10
2309.18850861669
 20
1080.887596424624
 10
2308.651448644797
 20
1080.905894168257
 10
2308.12359816681
 20
1080.964518659369
 10
2307.617954613332
 20
1081.062026368427
 10
2307.146968606788
 20
1081.196016332024
 10
2306.722237385768
 20
1081.363189272568
 10
2306.354219242539
 20
1081.55942883745
 10
2306.051976005166
 20
1081.779902957298
 10
2305.822949905245
 20
1082.019182827571
 10
2305.672780325446
 20
1082.271376583739
 10
2305.605164939211
 20
1082.530274378542
 10
2305.62176866175
 20
1082.789501289038
 10
2305.722182654311
 20
1083.042674288368
 10
2305.90393439114
 20
1083.283559417053
 10
2306.162548541278
 20
1083.506225283775
 10
2306.491657166058
 20
1083.705189115909
  0
ARC
  5
8FC
330
82B
100
AcDbEntity
  8
0
  6
Continuous
 62
     7
370
    15
100
AcDbCircle
 10
2319.741627117211
 20
1062.146730190734
 30
0.0
 40
4.627357755669603
100
AcDbArc
 50
238.2597051668099
 51
298.8812687669096
  0
LINE
  5
8FD
330
82B
100
AcDbEntity
  8
0
  6
Continuous
 62
     7
370
    15
100
AcDbLine
 10
2304.045766414024
 20
1077.061465369294
 30
0.0
 11
2303.960576079245
 21
1073.647691807641
 31
0.0
  0
ARC
  5
8FE
330
82B
100
AcDbEntity
  8
0
  6
Continuous
 62
     7
370
    15
100
AcDbCircle
 10
2314.615462622879
 20
1090.055026299698
 30
0.0
 40
19.56341566270937
100
AcDbArc
 50
237.0003955998178
 51
253.7442270732511
  0
LWPOLYLINE
  5
8FF
330
82B
100
AcDbEntity
  8
0
  6
Continuous
 62
     7
370
    15
100
AcDbPolyline
 90
       21
 70
   128
 43
0.0
 10
2305.566439186744
 20
1064.237193058573
 10
2305.578084257745
 20
1064.090710318158
 10
2305.662692549109
 20
1063.853218403552
 10
2305.826482010791
 20
1063.624158839325
 10
2306.064984893247
 20
1063.409779773274
 10
2306.37169545957
 20
1063.215928907477
 10
2306.738247445048
 20
1063.047893988222
 10
2307.154642267045
 20
1062.910258570071
 10
2307.609521760279
 20
1062.806776988443
 10
2308.090477997957
 20
1062.740271951129
 10
2308.584391747674
 20
1062.71255754218
 10
2309.077790329872
 20
1062.724389738427
 10
2309.557215117428
 20
1062.7754457884
 10
2310.009588651901
 20
1062.864333016149
 10
2310.422571362521
 20
1062.988626809813
 10
2310.784898157509
 20
1063.144936758711
 10
2311.086685706411
 20
1063.328999134906
 10
2311.319702031596
 20
1063.53579319659
 10
2311.477591055142
 20
1063.759678140833
 10
2311.556045976071
 20
1063.99454696998
 10
2311.564571819658
 20
1064.087510334214
  0
LINE
  5
900
330
82B
100
AcDbEntity
  8
0
  6
Continuous
 62
     7
370
    15
100
AcDbLine
 10
2302.418211800867
 20
1077.807569656927
 30
0.0
 11
2302.333021466086
 21
1074.393796095275
 31
0.0
  0
LINE
  5
901
330
82B
100
AcDbEntity
  8
0
  6
Continuous
 62
     7
370
    15
100
AcDbLine
 10
2303.960576079245
 20
1073.647691807641
 30
0.0
 11
2302.333021466086
 21
1074.393796095275
 31
0.0
  0
LINE
  5
902
330
82B
100
AcDbEntity
  8
0
  6
Continuous
 62
     7
370
    15
100
AcDbLine
 10
2310.632569912128
 20
1063.037699110398
 30
0.0
 11
2310.877177643632
 21
1063.183124306481
 31
0.0
  0
ARC
  5
903
330
82B
100
AcDbEntity
  8
0
  6
Continuous
 62
     7
370
    15
100
AcDbCircle
 10
2308.667448382519
 20
1067.344765495572
 30
0.0
 40
4.734186674860753
100
AcDbArc
 50
238.6988699077191
 51
294.525090531386
  0
LWPOLYLINE
  5
904
330
82B
100
AcDbEntity
  8
0
  6
Continuous
 62
     8
370
    15
100
AcDbPolyline
 90
       22
 70
   128
 43
0.0
 10
2383.166685522831
 20
1042.467863382788
 10
2383.170320726938
 20
1042.369053477453
 10
2383.237936113173
 20
1042.110155682651
 10
2383.388105692971
 20
1041.857961926483
 10
2383.617131792894
 20
1041.618682056209
 10
2383.919375030265
 20
1041.398207936361
 10
2384.287393173495
 20
1041.20196837148
 10
2384.712124394514
 20
1041.034795430935
 10
2385.183110401059
 20
1040.900805467338
 10
2385.688753954536
 20
1040.80329775828
 10
2386.216604432523
 20
1040.744673267168
 10
2386.753664404418
 20
1040.726375523536
 10
2387.286709671311
 20
1040.748855078558
 10
2387.802614889657
 20
1040.811558410986
 10
2388.288676760788
 20
1040.912941556674
 10
2388.73292682829
 20
1041.050508126103
 10
2389.124426181121
 20
1041.220870773779
 10
2389.453534805901
 20
1041.419834605912
 10
2389.712148956039
 20
1041.642500472634
 10
2389.893900692869
 20
1041.88338560132
 10
2389.994314685429
 20
1042.136558600649
 10
2390.012010476247
 20
1042.250159923055
  0
LWPOLYLINE
  5
905
330
82B
100
AcDbEntity
  8
0
  6
Continuous
 62
     8
370
    15
100
AcDbPolyline
 90
       22
 70
   128
 43
0.0
 10
2372.069722251293
 20
1047.5549380712
 10
2372.0733574554
 20
1047.456128165865
 10
2372.140972841635
 20
1047.197230371063
 10
2372.291142421433
 20
1046.945036614895
 10
2372.520168521355
 20
1046.705756744622
 10
2372.822411758727
 20
1046.485282624773
 10
2373.190429901957
 20
1046.289043059892
 10
2373.615161122976
 20
1046.121870119347
 10
2374.086147129521
 20
1045.987880155751
 10
2374.591790682998
 20
1045.890372446693
 10
2375.119641160985
 20
1045.83174795558
 10
2375.656701132879
 20
1045.813450211948
 10
2376.189746399773
 20
1045.83592976697
 10
2376.705651618118
 20
1045.898633099398
 10
2377.19171348925
 20
1046.000016245086
 10
2377.635963556752
 20
1046.137582814516
 10
2378.027462909583
 20
1046.307945462191
 10
2378.356571534363
 20
1046.506909294325
 10
2378.615185684501
 20
1046.729575161046
 10
2378.796937421331
 20
1046.970460289732
 10
2378.897351413892
 20
1047.223633289061
 10
2378.915047204709
 20
1047.337234611467
  0
LWPOLYLINE
  5
906
330
82B
100
AcDbEntity
  8
0
  6
Continuous
 62
     8
370
    15
100
AcDbPolyline
 90
       22
 70
   128
 43
0.0
 10
2360.972758979755
 20
1052.642012759612
 10
2360.976394183862
 20
1052.543202854278
 10
2361.044009570097
 20
1052.284305059475
 10
2361.194179149896
 20
1052.032111303307
 10
2361.423205249817
 20
1051.792831433034
 10
2361.725448487189
 20
1051.572357313185
 10
2362.093466630419
 20
1051.376117748304
 10
2362.518197851438
 20
1051.20894480776
 10
2362.989183857983
 20
1051.074954844163
 10
2363.49482741146
 20
1050.977447135105
 10
2364.022677889447
 20
1050.918822643993
 10
2364.559737861341
 20
1050.90052490036
 10
2365.092783128235
 20
1050.923004455383
 10
2365.608688346581
 20
1050.98570778781
 10
2366.094750217712
 20
1051.087090933498
 10
2366.539000285214
 20
1051.224657502928
 10
2366.930499638045
 20
1051.395020150603
 10
2367.259608262825
 20
1051.593983982737
 10
2367.518222412964
 20
1051.816649849459
 10
2367.699974149793
 20
1052.057534978144
 10
2367.800388142353
 20
1052.310707977474
 10
2367.81808393317
 20
1052.42430929988
  0
LWPOLYLINE
  5
907
330
82B
100
AcDbEntity
  8
0
  6
Continuous
 62
     8
370
    15
100
AcDbPolyline
 90
       22
 70
   128
 43
0.0
 10
2349.875795708217
 20
1057.729087448025
 10
2349.879430912324
 20
1057.63027754269
 10
2349.947046298559
 20
1057.371379747888
 10
2350.097215878357
 20
1057.11918599172
 10
2350.326241978279
 20
1056.879906121446
 10
2350.628485215652
 20
1056.659432001598
 10
2350.996503358881
 20
1056.463192436717
 10
2351.4212345799
 20
1056.296019496172
 10
2351.892220586446
 20
1056.162029532575
 10
2352.397864139922
 20
1056.064521823517
 10
2352.92571461791
 20
1056.005897332405
 10
2353.462774589803
 20
1055.987599588772
 10
2353.995819856697
 20
1056.010079143795
 10
2354.511725075042
 20
1056.072782476223
 10
2354.997786946174
 20
1056.17416562191
 10
2355.442037013677
 20
1056.31173219134
 10
2355.833536366507
 20
1056.482094839015
 10
2356.162644991287
 20
1056.681058671149
 10
2356.421259141425
 20
1056.903724537871
 10
2356.603010878255
 20
1057.144609666557
 10
2356.703424870815
 20
1057.397782665886
 10
2356.721120661632
 20
1057.511383988292
  0
LWPOLYLINE
  5
908
330
82B
100
AcDbEntity
  8
0
  6
Continuous
 62
     8
370
    15
100
AcDbPolyline
 90
       22
 70
   128
 43
0.0
 10
2338.778832436679
 20
1062.816162136437
 10
2338.782467640786
 20
1062.717352231102
 10
2338.850083027021
 20
1062.4584544363
 10
2339.000252606819
 20
1062.206260680132
 10
2339.229278706742
 20
1061.966980809858
 10
2339.531521944113
 20
1061.74650669001
 10
2339.899540087343
 20
1061.550267125129
 10
2340.324271308363
 20
1061.383094184584
 10
2340.795257314908
 20
1061.249104220988
 10
2341.300900868384
 20
1061.15159651193
 10
2341.828751346371
 20
1061.092972020817
 10
2342.365811318265
 20
1061.074674277185
 10
2342.898856585159
 20
1061.097153832207
 10
2343.414761803504
 20
1061.159857164635
 10
2343.900823674636
 20
1061.261240310322
 10
2344.345073742138
 20
1061.398806879753
 10
2344.736573094969
 20
1061.569169527428
 10
2345.065681719749
 20
1061.768133359561
 10
2345.324295869888
 20
1061.990799226283
 10
2345.506047606717
 20
1062.231684354969
 10
2345.606461599277
 20
1062.484857354298
 10
2345.624157390094
 20
1062.598458676704
  0
LWPOLYLINE
  5
909
330
82B
100
AcDbEntity
  8
0
  6
Continuous
 62
     8
370
    15
100
AcDbPolyline
 90
       22
 70
   128
 43
0.0
 10
2327.681869165141
 20
1067.903236824849
 10
2327.685504369247
 20
1067.804426919515
 10
2327.753119755483
 20
1067.545529124712
 10
2327.903289335282
 20
1067.293335368544
 10
2328.132315435203
 20
1067.054055498271
 10
2328.434558672575
 20
1066.833581378422
 10
2328.802576815805
 20
1066.637341813541
 10
2329.227308036825
 20
1066.470168872997
 10
2329.69829404337
 20
1066.3361789094
 10
2330.203937596846
 20
1066.238671200342
 10
2330.731788074833
 20
1066.180046709229
 10
2331.268848046727
 20
1066.161748965597
 10
2331.801893313621
 20
1066.18422852062
 10
2332.317798531966
 20
1066.246931853047
 10
2332.803860403098
 20
1066.348314998735
 10
2333.2481104706
 20
1066.485881568165
 10
2333.639609823431
 20
1066.65624421584
 10
2333.968718448211
 20
1066.855208047974
 10
2334.22733259835
 20
1067.077873914695
 10
2334.409084335179
 20
1067.318759043381
 10
2334.509498327739
 20
1067.57193204271
 10
2334.527194118557
 20
1067.685533365116
  0
LWPOLYLINE
  5
90A
330
82B
100
AcDbEntity
  8
0
  6
Continuous
 62
     8
370
    15
100
AcDbPolyline
 90
       22
 70
   128
 43
0.0
 10
2316.584905893603
 20
1072.990311513262
 10
2316.58854109771
 20
1072.891501607927
 10
2316.656156483945
 20
1072.632603813124
 10
2316.806326063743
 20
1072.380410056956
 10
2317.035352163665
 20
1072.141130186683
 10
2317.337595401037
 20
1071.920656066835
 10
2317.705613544267
 20
1071.724416501953
 10
2318.130344765286
 20
1071.557243561409
 10
2318.601330771831
 20
1071.423253597812
 10
2319.106974325308
 20
1071.325745888754
 10
2319.634824803295
 20
1071.267121397642
 10
2320.17188477519
 20
1071.248823654009
 10
2320.704930042083
 20
1071.271303209032
 10
2321.220835260429
 20
1071.334006541459
 10
2321.70689713156
 20
1071.435389687147
 10
2322.151147199063
 20
1071.572956256577
 10
2322.542646551893
 20
1071.743318904252
 10
2322.871755176673
 20
1071.942282736386
 10
2323.130369326811
 20
1072.164948603108
 10
2323.312121063641
 20
1072.405833731793
 10
2323.412535056201
 20
1072.659006731123
 10
2323.430230847018
 20
1072.772608053529
  0
LWPOLYLINE
  5
90B
330
82B
100
AcDbEntity
  8
0
  6
Continuous
 62
     8
370
    15
100
AcDbPolyline
 90
       17
 70
   128
 43
0.0
 10
2311.445683280354
 20
1076.830393592665
 10
2311.054183927523
 20
1076.66003094499
 10
2310.609933860021
 20
1076.52246437556
 10
2310.123871988889
 20
1076.421081229872
 10
2309.607966770544
 20
1076.358377897445
 10
2309.074921503651
 20
1076.335898342422
 10
2308.537861531756
 20
1076.354196086055
 10
2308.010011053769
 20
1076.412820577167
 10
2307.504367500292
 20
1076.510328286225
 10
2307.033381493747
 20
1076.644318249822
 10
2306.608650272728
 20
1076.811491190366
 10
2306.240632129498
 20
1077.007730755247
 10
2305.938388892126
 20
1077.228204875096
 10
2305.709362792204
 20
1077.467484745369
 10
2305.559193212406
 20
1077.719678501537
 10
2305.491577826171
 20
1077.97857629634
 10
2305.487942622064
 20
1078.077386201675
  0
ARC
  5
90C
330
82B
100
AcDbEntity
  8
0
  6
Continuous
 62
     8
370
    15
100
AcDbCircle
 10
2310.96670652024
 20
1078.132789546738
 30
0.0
 40
1.387679342612478
100
AcDbArc
 50
290.1917987864429
 51
350.6147706150021
  0
ENDBLK
  5
82D
330
82B
100
AcDbEntity
  8
0
100
AcDbBlockEnd
  0
ENDSEC
  0
SECTION
  2
ENTITIES
  0
INSERT
  5
756
330
1F
100
AcDbEntity
  8
0
100
AcDbBlockReference
  2
1
 10
0.0
 20
0.0
 30
0.0
  0
INSERT
  5
806
330
1F
100
AcDbEntity
  8
0
100
AcDbBlockReference
  2
2
 10
0.0
 20
0.0
 30
0.0
  0
INSERT
  5
82A
330
1F
100
AcDbEntity
  8
0
100
AcDbBlockReference
  2
3
 10
0.0
 20
0.0
 30
0.0
  0
INSERT
  5
90D
330
1F
100
AcDbEntity
  8
0
100
AcDbBlockReference
  2
4
 10
0.0
 20
0.0
 30
0.0
  0
ENDSEC
  0
SECTION
  2
OBJECTS
  0
DICTIONARY
  5
C
330
0
100
AcDbDictionary
281
     1
  3
ACAD_COLOR
350
6B
  3
ACAD_GROUP
350
D
  3
ACAD_LAYOUT
350
1A
  3
ACAD_MATERIAL
350
6A
  3
ACAD_MLEADERSTYLE
350
12D
  3
ACAD_MLINESTYLE
350
17
  3
ACAD_PLOTSETTINGS
350
19
  3
ACAD_PLOTSTYLENAME
350
E
  3
ACAD_SCALELIST
350
10C
  3
ACAD_TABLESTYLE
350
7E
  3
ACAD_VISUALSTYLE
350
EF
  3
ACDB_RECOMPOSE_DATA
350
15D
  3
AcDbVariableDictionary
350
5E
  3
DWGPROPS
350
91B
  0
DICTIONARY
  5
13C
330
10
100
AcDbDictionary
280
     1
281
     1
  3
ADSK_XREC_LAYER_RECONCILED
360
90E
  0
DICTIONARY
  5
6B
102
{ACAD_REACTORS
330
C
102
}
330
C
100
AcDbDictionary
281
     1
  0
DICTIONARY
  5
D
102
{ACAD_REACTORS
330
C
102
}
330
C
100
AcDbDictionary
281
     1
  0
DICTIONARY
  5
1A
102
{ACAD_REACTORS
330
C
102
}
330
C
100
AcDbDictionary
281
     1
  3
Layout1
350
D3
  3
Layout2
350
D7
  3
Model
350
22
  0
DICTIONARY
  5
6A
102
{ACAD_REACTORS
330
C
102
}
330
C
100
AcDbDictionary
281
     1
  3
ByBlock
350
ED
  3
ByLayer
350
EC
  3
Global
350
EE
  0
DICTIONARY
  5
12D
102
{ACAD_REACTORS
330
C
102
}
330
C
100
AcDbDictionary
281
     1
  3
Annotative
350
13B
  3
Standard
350
12E
  0
DICTIONARY
  5
17
102
{ACAD_REACTORS
330
C
102
}
330
C
100
AcDbDictionary
281
     1
  3
Standard
350
18
  0
DICTIONARY
  5
19
102
{ACAD_REACTORS
330
C
102
}
330
C
100
AcDbDictionary
281
     1
  0
ACDBDICTIONARYWDFLT
  5
E
102
{ACAD_REACTORS
330
C
102
}
330
C
100
AcDbDictionary
281
     1
  3
Normal
350
F
100
AcDbDictionaryWithDefault
340
F
  0
DICTIONARY
  5
10C
102
{ACAD_REACTORS
330
C
102
}
330
C
100
AcDbDictionary
281
     1
  3
A0
350
10D
  3
A1
350
188
  3
A2
350
189
  3
A3
350
18A
  3
A4
350
18B
  3
A5
350
18C
  3
A6
350
18D
  3
A7
350
18E
  3
A8
350
18F
  3
A9
350
190
  3
B0
350
191
  3
B1
350
192
  3
B2
350
193
  3
B3
350
194
  3
B4
350
195
  3
B5
350
196
  3
B6
350
197
  3
B7
350
198
  3
B8
350
199
  3
B9
350
19A
  3
C0
350
19B
  3
C1
350
19C
  3
C2
350
19D
  3
C3
350
19E
  3
C4
350
19F
  3
C5
350
1A0
  3
C6
350
1A1
  3
C7
350
1A2
  3
C8
350
1A3
  3
C9
350
1A4
  3
D0
350
1A5
  3
D1
350
1A6
  3
D2
350
1A7
  0
DICTIONARY
  5
7E
102
{ACAD_REACTORS
330
C
102
}
330
C
100
AcDbDictionary
281
     1
  3
Standard
350
7F
  0
DICTIONARY
  5
EF
102
{ACAD_REACTORS
330
C
102
}
330
C
100
AcDbDictionary
281
     1
  3
2dWireframe
350
F5
  3
3D Hidden
350
F7
  3
3dWireframe
350
F6
  3
Basic
350
F4
  3
Brighten
350
FB
  3
ColorChange
350
FF
  3
Conceptual
350
F8
  3
Dim
350
FA
  3
Facepattern
350
FE
  3
Flat
350
F0
  3
FlatWithEdges
350
F1
  3
Gouraud
350
F2
  3
GouraudWithEdges
350
F3
  3
Linepattern
350
FD
  3
Realistic
350
F9
  3
Thicken
350
FC
  0
XRECORD
  5
15D
102
{ACAD_REACTORS
330
C
102
}
330
C
100
AcDbXrecord
280
     1
 90
        1
330
7F
  0
DICTIONARY
  5
5E
102
{ACAD_REACTORS
330
C
102
}
330
C
100
AcDbDictionary
281
     1
  3
CANNOSCALE
350
146
  3
CMLEADERSTYLE
350
145
  3
CTABLESTYLE
350
84
  3
DIMASSOC
350
5F
  3
HIDETEXT
350
63
  3
INDEXCTL
350
917
  3
LIGHTINGUNITS
350
915
  3
MSLTSCALE
350
914
  3
PSOLHEIGHT
350
919
  3
PSOLWIDTH
350
918
  3
SORTENTS
350
916
  0
XRECORD
  5
91B
102
{ACAD_REACTORS
330
C
102
}
330
C
100
AcDbXrecord
280
     1
  1
DWGPROPS COOKIE
  2

  3

  4

  6

  7

  8
orhan kara
  9

300
=
301
=
302
=
303
=
304
=
305
=
306
=
307
=
308
=
309
=
 40
0.0002992824074074
 41
2458935.543939375
 42
2458956.465175694
  1

 90
        0
  0
XRECORD
  5
90E
102
{ACAD_REACTORS
330
13C
102
}
330
13C
100
AcDbXrecord
280
     1
290
     1
  0
LAYOUT
  5
D3
102
{ACAD_XDICTIONARY
360
91F
102
}
102
{ACAD_REACTORS
330
1A
102
}
330
1A
100
AcDbPlotSettings
  1

  2
C:\Documents and Settings\basas\Application Data\Autodesk\AutoCAD 2005\R16.1\enu\plotters\Default Windows System Printer.pc3
  4

  6

 40
0.0
 41
0.0
 42
0.0
 43
0.0
 44
0.0
 45
0.0
 46
0.0
 47
0.0
 48
0.0
 49
0.0
140
0.0
141
0.0
142
1.0
143
1.0
 70
   688
 72
     0
 73
     0
 74
     5
  7

 75
    16
147
1.0
148
0.0
149
0.0
100
AcDbLayout
  1
Layout1
 70
     1
 71
     1
 10
0.0
 20
0.0
 11
12.0
 21
9.0
 12
0.0
 22
0.0
 32
0.0
 14
0.0
 24
0.0
 34
0.0
 15
0.0
 25
0.0
 35
0.0
146
0.0
 13
0.0
 23
0.0
 33
0.0
 16
1.0
 26
0.0
 36
0.0
 17
0.0
 27
1.0
 37
0.0
 76
     0
330
D2
  0
LAYOUT
  5
D7
102
{ACAD_XDICTIONARY
360
921
102
}
102
{ACAD_REACTORS
330
1A
102
}
330
1A
100
AcDbPlotSettings
  1

  2
C:\Documents and Settings\basas\Application Data\Autodesk\AutoCAD 2005\R16.1\enu\plotters\Default Windows System Printer.pc3
  4

  6

 40
0.0
 41
0.0
 42
0.0
 43
0.0
 44
0.0
 45
0.0
 46
0.0
 47
0.0
 48
0.0
 49
0.0
140
0.0
141
0.0
142
1.0
143
1.0
 70
   688
 72
     0
 73
     0
 74
     5
  7

 75
    16
147
1.0
148
0.0
149
0.0
100
AcDbLayout
  1
Layout2
 70
     1
 71
     2
 10
0.0
 20
0.0
 11
12.0
 21
9.0
 12
0.0
 22
0.0
 32
0.0
 14
0.0
 24
0.0
 34
0.0
 15
0.0
 25
0.0
 35
0.0
146
0.0
 13
0.0
 23
0.0
 33
0.0
 16
1.0
 26
0.0
 36
0.0
 17
0.0
 27
1.0
 37
0.0
 76
     0
330
D6
  0
LAYOUT
  5
22
102
{ACAD_XDICTIONARY
360
91C
102
}
102
{ACAD_REACTORS
330
1A
102
}
330
1A
100
AcDbPlotSettings
  1

  2
none_device
  4
ISO_A4_(210.00_x_297.00_MM)
  6

 40
7.5
 41
20.0
 42
7.5
 43
20.0
 44
210.0
 45
297.0
 46
11.54999923706054
 47
-13.65000009536743
 48
0.0
 49
0.0
140
0.0
141
0.0
142
1.0
143
8.704084754739808
 70
 11952
 72
     1
 73
     0
 74
     0
  7

 75
     0
147
0.1148885871608098
148
0.0
149
0.0
100
AcDbLayout
  1
Model
 70
     1
 71
     0
 10
0.0
 20
0.0
 11
12.0
 21
9.0
 12
0.0
 22
0.0
 32
0.0
 14
0.0
 24
0.0
 34
0.0
 15
0.0
 25
0.0
 35
0.0
146
0.0
 13
0.0
 23
0.0
 33
0.0
 16
1.0
 26
0.0
 36
0.0
 17
0.0
 27
1.0
 37
0.0
 76
     0
330
1F
331
EA
1001
ACAD_PSEXT
1000
None
1000
None
1000
Not applicable
1000
The layout will not be plotted unless a new plotter configuration name is selected.
1070
     0
  0
MATERIAL
  5
ED
102
{ACAD_XDICTIONARY
360
925
102
}
102
{ACAD_REACTORS
330
6A
102
}
330
6A
100
AcDbMaterial
  1
ByBlock
  0
MATERIAL
  5
EC
102
{ACAD_XDICTIONARY
360
923
102
}
102
{ACAD_REACTORS
330
6A
102
}
330
6A
100
AcDbMaterial
  1
ByLayer
  0
MATERIAL
  5
EE
102
{ACAD_XDICTIONARY
360
173
102
}
102
{ACAD_REACTORS
330
6A
102
}
330
6A
100
AcDbMaterial
  1
Global
 43
0.0007999999797903
 43
0.0
 43
0.0
 43
0.0
 43
0.0
 43
0.0007999999797903
 43
0.0
 43
0.0
 43
0.0
 43
0.0
 43
1.0
 43
0.0
 43
0.0
 43
0.0
 43
0.0
 43
1.0
 49
0.0007999999797903
 49
0.0
 49
0.0
 49
0.0
 49
0.0
 49
0.0007999999797903
 49
0.0
 49
0.0
 49
0.0
 49
0.0
 49
1.0
 49
0.0
 49
0.0
 49
0.0
 49
0.0
 49
1.0
142
0.0007999999797903
142
0.0
142
0.0
142
0.0
142
0.0
142
0.0007999999797903
142
0.0
142
0.0
142
0.0
142
0.0
142
1.0
142
0.0
142
0.0
142
0.0
142
0.0
142
1.0
144
0.0007999999797903
144
0.0
144
0.0
144
0.0
144
0.0
144
0.0007999999797903
144
0.0
144
0.0
144
0.0
144
0.0
144
1.0
144
0.0
144
0.0
144
0.0
144
0.0
144
1.0
1001
ACAD
1070
    -1
1070
     3
1070
     0
1000

1071
        0
1070
     0
  0
MLEADERSTYLE
  5
13B
102
{ACAD_REACTORS
330
12D
102
}
330
12D
100
AcDbMLeaderStyle
170
     2
171
     1
172
     0
 90
        2
 40
0.0
 41
0.0
173
     1
 91
-1056964608
340
14
 92
       -2
290
     1
 42
2.0
291
     1
 43
8.0
  3
Standard
 44
4.0
300

342
11
174
     1
178
     1
175
     1
176
     0
 93
-1056964608
 45
4.0
292
     0
297
     0
 46
4.0
 94
-1056964608
 47
1.0
 49
1.0
140
1.0
293
     1
141
0.0
294
     1
177
     0
142
1.0
295
     0
296
     1
143
3.75
1001
ACAD_MLEADERVER
1070
     2
  0
MLEADERSTYLE
  5
12E
102
{ACAD_REACTORS
330
12D
102
}
330
12D
100
AcDbMLeaderStyle
170
     2
171
     1
172
     0
 90
        2
 40
0.0
 41
0.0
173
     1
 91
-1056964608
340
14
 92
       -2
290
     1
 42
2.0
291
     1
 43
8.0
  3
Standard
 44
4.0
300

342
11
174
     1
178
     1
175
     1
176
     0
 93
-1056964608
 45
4.0
292
     0
297
     0
 46
4.0
 94
-1056964608
 47
1.0
 49
1.0
140
1.0
293
     1
141
0.0
294
     1
177
     0
142
1.0
295
     0
296
     0
143
3.75
1001
ACAD_MLEADERVER
1070
     2
  0
MLINESTYLE
  5
18
102
{ACAD_REACTORS
330
17
102
}
330
17
100
AcDbMlineStyle
  2
STANDARD
 70
     0
  3

 62
   256
 51
90.0
 52
90.0
 71
     2
 49
0.5
 62
   256
  6
BYLAYER
 49
-0.5
 62
   256
  6
BYLAYER
  0
ACDBPLACEHOLDER
  5
F
102
{ACAD_REACTORS
330
E
102
}
330
E
  0
SCALE
  5
10D
102
{ACAD_REACTORS
330
10C
102
}
330
10C
100
AcDbScale
 70
     0
300
1:1
140
1.0
141
1.0
290
     1
  0
SCALE
  5
188
102
{ACAD_REACTORS
330
10C
102
}
330
10C
100
AcDbScale
 70
     0
300
1:2
140
1.0
141
2.0
290
     0
  0
SCALE
  5
189
102
{ACAD_REACTORS
330
10C
102
}
330
10C
100
AcDbScale
 70
     0
300
1:4
140
1.0
141
4.0
290
     0
  0
SCALE
  5
18A
102
{ACAD_REACTORS
330
10C
102
}
330
10C
100
AcDbScale
 70
     0
300
1:5
140
1.0
141
5.0
290
     0
  0
SCALE
  5
18B
102
{ACAD_REACTORS
330
10C
102
}
330
10C
100
AcDbScale
 70
     0
300
1:8
140
1.0
141
8.0
290
     0
  0
SCALE
  5
18C
102
{ACAD_REACTORS
330
10C
102
}
330
10C
100
AcDbScale
 70
     0
300
1:10
140
1.0
141
10.0
290
     0
  0
SCALE
  5
18D
102
{ACAD_REACTORS
330
10C
102
}
330
10C
100
AcDbScale
 70
     0
300
1:16
140
1.0
141
16.0
290
     0
  0
SCALE
  5
18E
102
{ACAD_REACTORS
330
10C
102
}
330
10C
100
AcDbScale
 70
     0
300
1:20
140
1.0
141
20.0
290
     0
  0
SCALE
  5
18F
102
{ACAD_REACTORS
330
10C
102
}
330
10C
100
AcDbScale
 70
     0
300
1:30
140
1.0
141
30.0
290
     0
  0
SCALE
  5
190
102
{ACAD_REACTORS
330
10C
102
}
330
10C
100
AcDbScale
 70
     0
300
1:40
140
1.0
141
40.0
290
     0
  0
SCALE
  5
191
102
{ACAD_REACTORS
330
10C
102
}
330
10C
100
AcDbScale
 70
     0
300
1:50
140
1.0
141
50.0
290
     0
  0
SCALE
  5
192
102
{ACAD_REACTORS
330
10C
102
}
330
10C
100
AcDbScale
 70
     0
300
1:100
140
1.0
141
100.0
290
     0
  0
SCALE
  5
193
102
{ACAD_REACTORS
330
10C
102
}
330
10C
100
AcDbScale
 70
     0
300
2:1
140
2.0
141
1.0
290
     0
  0
SCALE
  5
194
102
{ACAD_REACTORS
330
10C
102
}
330
10C
100
AcDbScale
 70
     0
300
4:1
140
4.0
141
1.0
290
     0
  0
SCALE
  5
195
102
{ACAD_REACTORS
330
10C
102
}
330
10C
100
AcDbScale
 70
     0
300
8:1
140
8.0
141
1.0
290
     0
  0
SCALE
  5
196
102
{ACAD_REACTORS
330
10C
102
}
330
10C
100
AcDbScale
 70
     0
300
10:1
140
10.0
141
1.0
290
     0
  0
SCALE
  5
197
102
{ACAD_REACTORS
330
10C
102
}
330
10C
100
AcDbScale
 70
     0
300
100:1
140
100.0
141
1.0
290
     0
  0
SCALE
  5
198
102
{ACAD_REACTORS
330
10C
102
}
330
10C
100
AcDbScale
 70
     0
300
1/128" = 1'-0"
140
0.0078125
141
12.0
290
     0
  0
SCALE
  5
199
102
{ACAD_REACTORS
330
10C
102
}
330
10C
100
AcDbScale
 70
     0
300
1/64" = 1'-0"
140
0.015625
141
12.0
290
     0
  0
SCALE
  5
19A
102
{ACAD_REACTORS
330
10C
102
}
330
10C
100
AcDbScale
 70
     0
300
1/32" = 1'-0"
140
0.03125
141
12.0
290
     0
  0
SCALE
  5
19B
102
{ACAD_REACTORS
330
10C
102
}
330
10C
100
AcDbScale
 70
     0
300
1/16" = 1'-0"
140
0.0625
141
12.0
290
     0
  0
SCALE
  5
19C
102
{ACAD_REACTORS
330
10C
102
}
330
10C
100
AcDbScale
 70
     0
300
3/32" = 1'-0"
140
0.09375
141
12.0
290
     0
  0
SCALE
  5
19D
102
{ACAD_REACTORS
330
10C
102
}
330
10C
100
AcDbScale
 70
     0
300
1/8" = 1'-0"
140
0.125
141
12.0
290
     0
  0
SCALE
  5
19E
102
{ACAD_REACTORS
330
10C
102
}
330
10C
100
AcDbScale
 70
     0
300
3/16" = 1'-0"
140
0.1875
141
12.0
290
     0
  0
SCALE
  5
19F
102
{ACAD_REACTORS
330
10C
102
}
330
10C
100
AcDbScale
 70
     0
300
1/4" = 1'-0"
140
0.25
141
12.0
290
     0
  0
SCALE
  5
1A0
102
{ACAD_REACTORS
330
10C
102
}
330
10C
100
AcDbScale
 70
     0
300
3/8" = 1'-0"
140
0.375
141
12.0
290
     0
  0
SCALE
  5
1A1
102
{ACAD_REACTORS
330
10C
102
}
330
10C
100
AcDbScale
 70
     0
300
1/2" = 1'-0"
140
0.5
141
12.0
290
     0
  0
SCALE
  5
1A2
102
{ACAD_REACTORS
330
10C
102
}
330
10C
100
AcDbScale
 70
     0
300
3/4" = 1'-0"
140
0.75
141
12.0
290
     0
  0
SCALE
  5
1A3
102
{ACAD_REACTORS
330
10C
102
}
330
10C
100
AcDbScale
 70
     0
300
1" = 1'-0"
140
1.0
141
12.0
290
     0
  0
SCALE
  5
1A4
102
{ACAD_REACTORS
330
10C
102
}
330
10C
100
AcDbScale
 70
     0
300
1-1/2" = 1'-0"
140
1.5
141
12.0
290
     0
  0
SCALE
  5
1A5
102
{ACAD_REACTORS
330
10C
102
}
330
10C
100
AcDbScale
 70
     0
300
3" = 1'-0"
140
3.0
141
12.0
290
     0
  0
SCALE
  5
1A6
102
{ACAD_REACTORS
330
10C
102
}
330
10C
100
AcDbScale
 70
     0
300
6" = 1'-0"
140
6.0
141
12.0
290
     0
  0
SCALE
  5
1A7
102
{ACAD_REACTORS
330
10C
102
}
330
10C
100
AcDbScale
 70
     0
300
1'-0" = 1'-0"
140
12.0
141
12.0
290
     0
  0
TABLESTYLE
  5
7F
102
{ACAD_XDICTIONARY
360
162
102
}
102
{ACAD_REACTORS
330
7E
102
}
330
7E
100
AcDbTableStyle
  3
Standard
 70
     0
 71
     0
 40
1.5
 41
1.5
280
     0
281
     0
  7
Standard
140
4.5
170
     2
 62
     0
 63
     7
283
     0
274
    -2
284
     1
 64
     0
275
    -2
285
     1
 65
     0
276
    -2
286
     1
 66
     0
277
    -2
287
     1
 67
     0
278
    -2
288
     1
 68
     0
279
    -2
289
     1
 69
     0
  7
Standard
140
6.0
170
     5
 62
     0
 63
     7
283
     0
274
    -2
284
     1
 64
     0
275
    -2
285
     1
 65
     0
276
    -2
286
     1
 66
     0
277
    -2
287
     1
 67
     0
278
    -2
288
     1
 68
     0
279
    -2
289
     1
 69
     0
  7
Standard
140
4.5
170
     5
 62
     0
 63
     7
283
     0
274
    -2
284
     1
 64
     0
275
    -2
285
     1
 65
     0
276
    -2
286
     1
 66
     0
277
    -2
287
     1
 67
     0
278
    -2
288
     1
 68
     0
279
    -2
289
     1
 69
     0
  0
VISUALSTYLE
  5
F5
102
{ACAD_REACTORS
330
EF
102
}
330
EF
100
AcDbVisualStyle
  2
2dWireframe
 70
     4
 71
     0
 72
     2
 73
     1
 90
        0
 40
-0.6
 41
-30.0
 62
     5
 63
     7
 74
     1
 91
        4
 64
     7
 65
   257
 75
     1
175
     1
 42
1.0
 92
        0
 66
   257
 43
1.0
 76
     1
 77
     6
 78
     2
 67
     7
 79
     5
170
     0
171
     0
290
     0
174
     0
 93
        1
 44
0.0
173
     0
291
     0
 45
0.0
1001
ACAD
1000
AcDbSavedByObjectVersion
1070
     0
  0
VISUALSTYLE
  5
F7
102
{ACAD_REACTORS
330
EF
102
}
330
EF
100
AcDbVisualStyle
  2
3D Hidden
 70
     6
 71
     1
 72
     2
 73
     2
 90
        0
 40
-0.6
 41
-30.0
 62
     5
 63
     7
 74
     2
 91
        2
 64
     7
 65
   257
 75
     2
175
     1
 42
40.0
 92
        0
 66
   257
 43
1.0
 76
     1
 77
     6
 78
     2
 67
     7
 79
     3
170
     0
171
     0
290
     0
174
     0
 93
        1
 44
0.0
173
     0
291
     0
 45
0.0
1001
ACAD
1000
AcDbSavedByObjectVersion
1070
     0
  0
VISUALSTYLE
  5
F6
102
{ACAD_REACTORS
330
EF
102
}
330
EF
100
AcDbVisualStyle
  2
3dWireframe
 70
     5
 71
     0
 72
     2
 73
     1
 90
        0
 40
-0.6
 41
-30.0
 62
     5
 63
     7
 74
     1
 91
        4
 64
     7
 65
   257
 75
     1
175
     1
 42
1.0
 92
        0
 66
   257
 43
1.0
 76
     1
 77
     6
 78
     2
 67
     7
 79
     5
170
     0
171
     0
290
     0
174
     0
 93
        1
 44
0.0
173
     0
291
     0
 45
0.0
1001
ACAD
1000
AcDbSavedByObjectVersion
1070
     0
  0
VISUALSTYLE
  5
F4
102
{ACAD_REACTORS
330
EF
102
}
330
EF
100
AcDbVisualStyle
  2
Basic
 70
     7
 71
     1
 72
     0
 73
     1
 90
        0
 40
-0.6
 41
-30.0
 62
     5
 63
     7
 74
     0
 91
        4
 64
     7
 65
   257
 75
     1
175
     1
 42
1.0
 92
        8
 66
     7
 43
1.0
 76
     1
 77
     6
 78
     2
 67
     7
 79
     5
170
     0
171
     0
290
     0
174
     0
 93
        1
 44
0.0
173
     0
291
     1
 45
0.0
1001
ACAD
1000
AcDbSavedByObjectVersion
1070
     0
  0
VISUALSTYLE
  5
FB
102
{ACAD_REACTORS
330
EF
102
}
330
EF
100
AcDbVisualStyle
  2
Brighten
 70
    12
 71
     2
 72
     2
 73
     1
 90
        0
 40
-0.6
 41
-30.0
 62
     5
 63
     7
 74
     1
 91
        4
 64
     7
 65
   257
 75
     1
175
     1
 42
1.0
 92
        8
 66
     7
 43
1.0
 76
     1
 77
     6
 78
     2
 67
     7
 79
     5
170
     0
171
     0
290
     0
174
     0
 93
        1
 44
50.0
173
     0
291
     1
 45
0.0
1001
ACAD
1000
AcDbSavedByObjectVersion
1070
     0
  0
VISUALSTYLE
  5
FF
102
{ACAD_REACTORS
330
EF
102
}
330
EF
100
AcDbVisualStyle
  2
ColorChange
 70
    16
 71
     2
 72
     2
 73
     3
 90
        0
 40
-0.6
 41
-30.0
 62
     5
 63
     8
 74
     1
 91
        4
 64
     7
 65
   257
 75
     1
175
     1
 42
1.0
 92
        8
 66
     8
 43
1.0
 76
     1
 77
     6
 78
     2
 67
     7
 79
     5
170
     0
171
     0
290
     0
174
     0
 93
        1
 44
0.0
173
     0
291
     1
 45
0.0
1001
ACAD
1000
AcDbSavedByObjectVersion
1070
     0
  0
VISUALSTYLE
  5
F8
102
{ACAD_REACTORS
330
EF
102
}
330
EF
100
AcDbVisualStyle
  2
Conceptual
 70
     9
 71
     3
 72
     2
 73
     1
 90
        0
 40
-0.6
 41
-30.0
 62
     5
 63
     7
 74
     2
 91
        2
 64
     7
 65
   257
 75
     1
175
     1
 42
40.0
 92
        8
 66
     7
 43
1.0
 76
     1
 77
     6
 78
     2
 67
     7
 79
     3
170
     0
171
     0
290
     0
174
     0
 93
        1
 44
0.0
173
     0
291
     0
 45
0.0
1001
ACAD
1000
AcDbSavedByObjectVersion
1070
     0
  0
VISUALSTYLE
  5
FA
102
{ACAD_REACTORS
330
EF
102
}
330
EF
100
AcDbVisualStyle
  2
Dim
 70
    11
 71
     2
 72
     2
 73
     1
 90
        0
 40
-0.6
 41
-30.0
 62
     5
 63
     7
 74
     1
 91
        4
 64
     7
 65
   257
 75
     1
175
     1
 42
1.0
 92
        8
 66
     7
 43
1.0
 76
     1
 77
     6
 78
     2
 67
     7
 79
     5
170
     0
171
     0
290
     0
174
     0
 93
        1
 44
-50.0
173
     0
291
     1
 45
0.0
1001
ACAD
1000
AcDbSavedByObjectVersion
1070
     0
  0
VISUALSTYLE
  5
FE
102
{ACAD_REACTORS
330
EF
102
}
330
EF
100
AcDbVisualStyle
  2
Facepattern
 70
    15
 71
     2
 72
     2
 73
     1
 90
        0
 40
-0.6
 41
-30.0
 62
     5
 63
     7
 74
     1
 91
        4
 64
     7
 65
   257
 75
     1
175
     1
 42
1.0
 92
        8
 66
     7
 43
1.0
 76
     1
 77
     6
 78
     2
 67
     7
 79
     5
170
     0
171
     0
290
     0
174
     0
 93
        1
 44
0.0
173
     0
291
     1
 45
0.0
1001
ACAD
1000
AcDbSavedByObjectVersion
1070
     0
  0
VISUALSTYLE
  5
F0
102
{ACAD_REACTORS
330
EF
102
}
330
EF
100
AcDbVisualStyle
  2
Flat
 70
     0
 71
     2
 72
     1
 73
     1
 90
        2
 40
-0.6
 41
30.0
 62
     5
 63
     7
 74
     0
 91
        4
 64
     7
 65
   257
 75
     1
175
     1
 42
1.0
 92
        8
 66
     7
 43
1.0
 76
     1
 77
     6
 78
     2
 67
     7
 79
     5
170
     0
171
     0
290
     0
174
     0
 93
        1
 44
0.0
173
     0
291
     1
 45
0.0
1001
ACAD
1000
AcDbSavedByObjectVersion
1070
     0
  0
VISUALSTYLE
  5
F1
102
{ACAD_REACTORS
330
EF
102
}
330
EF
100
AcDbVisualStyle
  2
FlatWithEdges
 70
     1
 71
     2
 72
     1
 73
     1
 90
        2
 40
-0.6
 41
30.0
 62
     5
 63
     7
 74
     1
 91
        4
 64
     7
 65
   257
 75
     1
175
     1
 42
1.0
 92
        0
 66
   257
 43
1.0
 76
     1
 77
     6
 78
     2
 67
     7
 79
     5
170
     0
171
     0
290
     0
174
     0
 93
        1
 44
0.0
173
     0
291
     1
 45
0.0
1001
ACAD
1000
AcDbSavedByObjectVersion
1070
     0
  0
VISUALSTYLE
  5
F2
102
{ACAD_REACTORS
330
EF
102
}
330
EF
100
AcDbVisualStyle
  2
Gouraud
 70
     2
 71
     2
 72
     2
 73
     1
 90
        2
 40
-0.6
 41
30.0
 62
     5
 63
     7
 74
     0
 91
        4
 64
     7
 65
   257
 75
     1
175
     1
 42
1.0
 92
        0
 66
     7
 43
1.0
 76
     1
 77
     6
 78
     2
 67
     7
 79
     5
170
     0
171
     0
290
     0
174
     0
 93
        1
 44
0.0
173
     0
291
     1
 45
0.0
1001
ACAD
1000
AcDbSavedByObjectVersion
1070
     0
  0
VISUALSTYLE
  5
F3
102
{ACAD_REACTORS
330
EF
102
}
330
EF
100
AcDbVisualStyle
  2
GouraudWithEdges
 70
     3
 71
     2
 72
     2
 73
     1
 90
        2
 40
-0.6
 41
30.0
 62
     5
 63
     7
 74
     1
 91
        4
 64
     7
 65
   257
 75
     1
175
     1
 42
1.0
 92
        0
 66
   257
 43
1.0
 76
     1
 77
     6
 78
     2
 67
     7
 79
     5
170
     0
171
     0
290
     0
174
     0
 93
        1
 44
0.0
173
     0
291
     1
 45
0.0
1001
ACAD
1000
AcDbSavedByObjectVersion
1070
     0
  0
VISUALSTYLE
  5
FD
102
{ACAD_REACTORS
330
EF
102
}
330
EF
100
AcDbVisualStyle
  2
Linepattern
 70
    14
 71
     2
 72
     2
 73
     1
 90
        0
 40
-0.6
 41
-30.0
 62
     5
 63
     7
 74
     1
 91
        4
 64
     7
 65
   257
 75
     7
175
     7
 42
1.0
 92
        8
 66
     7
 43
1.0
 76
     1
 77
     6
 78
     2
 67
     7
 79
     5
170
     0
171
     0
290
     0
174
     0
 93
        1
 44
0.0
173
     0
291
     1
 45
0.0
1001
ACAD
1000
AcDbSavedByObjectVersion
1070
     0
  0
VISUALSTYLE
  5
F9
102
{ACAD_REACTORS
330
EF
102
}
330
EF
100
AcDbVisualStyle
  2
Realistic
 70
     8
 71
     2
 72
     2
 73
     1
 90
        0
 40
-0.6
 41
-30.0
 62
     5
 63
     7
 74
     1
 91
        0
 64
     7
 65
   257
 75
     1
175
     1
 42
1.0
 92
        8
 66
     8
 43
1.0
 76
     1
 77
     6
 78
     2
 67
     7
 79
     5
170
     0
171
     0
290
     0
174
     0
 93
       13
 44
0.0
173
     0
291
     0
 45
0.0
1001
ACAD
1000
AcDbSavedByObjectVersion
1070
     0
  0
VISUALSTYLE
  5
FC
102
{ACAD_REACTORS
330
EF
102
}
330
EF
100
AcDbVisualStyle
  2
Thicken
 70
    13
 71
     2
 72
     2
 73
     1
 90
        0
 40
-0.6
 41
-30.0
 62
     5
 63
     7
 74
     1
 91
        4
 64
     7
 65
   257
 75
     1
175
     1
 42
1.0
 92
       12
 66
     7
 43
1.0
 76
     1
 77
     6
 78
     2
 67
     7
 79
     5
170
     0
171
     0
290
     0
174
     0
 93
        1
 44
0.0
173
     0
291
     1
 45
0.0
1001
ACAD
1000
AcDbSavedByObjectVersion
1070
     0
  0
DICTIONARYVAR
  5
146
102
{ACAD_REACTORS
330
5E
102
}
330
5E
100
DictionaryVariables
280
     0
  1
1:1
  0
DICTIONARYVAR
  5
145
102
{ACAD_REACTORS
330
5E
102
}
330
5E
100
DictionaryVariables
280
     0
  1
STANDARD
  0
DICTIONARYVAR
  5
84
102
{ACAD_REACTORS
330
5E
102
}
330
5E
100
DictionaryVariables
280
     0
  1
STANDARD
  0
DICTIONARYVAR
  5
5F
102
{ACAD_REACTORS
330
5E
102
}
330
5E
100
DictionaryVariables
280
     0
  1
2
  0
DICTIONARYVAR
  5
63
102
{ACAD_REACTORS
330
5E
102
}
330
5E
100
DictionaryVariables
280
     0
  1
1
  0
DICTIONARYVAR
  5
917
102
{ACAD_REACTORS
330
5E
102
}
330
5E
100
DictionaryVariables
280
     0
  1
0
  0
DICTIONARYVAR
  5
915
102
{ACAD_REACTORS
330
5E
102
}
330
5E
100
DictionaryVariables
280
     0
  1
2
  0
DICTIONARYVAR
  5
914
102
{ACAD_REACTORS
330
5E
102
}
330
5E
100
DictionaryVariables
280
     0
  1
1
  0
DICTIONARYVAR
  5
919
102
{ACAD_REACTORS
330
5E
102
}
330
5E
100
DictionaryVariables
280
     0
  1
80.000000
  0
DICTIONARYVAR
  5
918
102
{ACAD_REACTORS
330
5E
102
}
330
5E
100
DictionaryVariables
280
     0
  1
5.000000
  0
DICTIONARYVAR
  5
916
102
{ACAD_REACTORS
330
5E
102
}
330
5E
100
DictionaryVariables
280
     0
  1
127
  0
DICTIONARY
  5
91F
330
D3
100
AcDbDictionary
280
     1
281
     1
  3
ACAD_XREC_ROUNDTRIP
360
920
  0
DICTIONARY
  5
921
330
D7
100
AcDbDictionary
280
     1
281
     1
  3
ACAD_XREC_ROUNDTRIP
360
922
  0
DICTIONARY
  5
91C
330
22
100
AcDbDictionary
280
     1
281
     1
  3
ACAD_XREC_ROUNDTRIP
360
91D
  0
DICTIONARY
  5
925
330
ED
100
AcDbDictionary
280
     1
281
     1
  3
ACAD_XREC_ROUNDTRIP
360
926
  0
DICTIONARY
  5
923
330
EC
100
AcDbDictionary
280
     1
281
     1
  3
ACAD_XREC_ROUNDTRIP
360
924
  0
DICTIONARY
  5
173
330
EE
100
AcDbDictionary
280
     1
281
     1
  3
ACAD_XREC_ROUNDTRIP
360
927
  3
BUMPTILE
360
175
  3
DIFFUSETILE
360
174
  3
OPACITYTILE
360
176
  3
REFLECTIONTILE
360
177
  0
DICTIONARY
  5
162
330
7F
100
AcDbDictionary
280
     1
281
     1
  3
ACAD_ROUNDTRIP_2008_TABLESTYLE_CELLSTYLEMAP
360
91A
  3
ACAD_XREC_ROUNDTRIP
360
91E
  0
XRECORD
  5
920
102
{ACAD_REACTORS
330
91F
102
}
330
91F
100
AcDbXrecord
280
     1
102
SHADEPLOT
 70
     0
102
SHADEPLOTRESLEVEL
 70
     2
102
SHADEPLOTCUSTOMDPI
 70
   300
  0
XRECORD
  5
922
102
{ACAD_REACTORS
330
921
102
}
330
921
100
AcDbXrecord
280
     1
102
SHADEPLOT
 70
     0
102
SHADEPLOTRESLEVEL
 70
     2
102
SHADEPLOTCUSTOMDPI
 70
   300
  0
XRECORD
  5
91D
102
{ACAD_REACTORS
330
91C
102
}
330
91C
100
AcDbXrecord
280
     1
102
SHADEPLOT
 70
     0
102
SHADEPLOTRESLEVEL
 70
     2
102
SHADEPLOTCUSTOMDPI
 70
   300
  0
XRECORD
  5
926
102
{ACAD_REACTORS
330
925
102
}
330
925
100
AcDbXrecord
280
     1
102
MATERIAL
148
0.0
149
0.0
149
0.0
 93
        0
 94
       63
282
     0
 72
     1
 77
     1
171
     1
175
     1
179
     1
273
     0
  0
XRECORD
  5
924
102
{ACAD_REACTORS
330
923
102
}
330
923
100
AcDbXrecord
280
     1
102
MATERIAL
148
0.0
149
0.0
149
0.0
 93
        0
 94
       63
282
     0
 72
     1
 77
     1
171
     1
175
     1
179
     1
273
     0
  0
XRECORD
  5
927
102
{ACAD_REACTORS
330
173
102
}
330
173
100
AcDbXrecord
280
     1
102
MATERIAL
148
0.0
149
0.0
149
0.0
 93
        0
 94
       63
282
     0
 72
     1
 77
     1
171
     1
175
     1
179
     1
273
     0
  0
XRECORD
  5
175
102
{ACAD_REACTORS
330
173
102
}
330
173
100
AcDbXrecord
280
     1
270
     1
271
     1
  0
XRECORD
  5
174
102
{ACAD_REACTORS
330
173
102
}
330
173
100
AcDbXrecord
280
     1
270
     1
271
     1
  0
XRECORD
  5
176
102
{ACAD_REACTORS
330
173
102
}
330
173
100
AcDbXrecord
280
     1
270
     1
271
     1
  0
XRECORD
  5
177
102
{ACAD_REACTORS
330
173
102
}
330
173
100
AcDbXrecord
280
     1
270
     1
271
     1
  0
CELLSTYLEMAP
  5
91A
102
{ACAD_REACTORS
330
162
102
}
330
162
100
AcDbCellStyleMap
 90
        3
300
CELLSTYLE
  1
TABLEFORMAT_BEGIN
 90
        5
170
     1
 91
        0
 92
    32768
 62
   257
 93
        1
300
CONTENTFORMAT
  1
CONTENTFORMAT_BEGIN
 90
        0
 91
        0
 92
      512
 93
        0
300

 40
0.0
140
1.0
 94
        5
 62
     0
340
11
144
6.0
309
CONTENTFORMAT_END
171
     1
301
MARGIN
  1
CELLMARGIN_BEGIN
 40
1.5
 40
1.5
 40
1.5
 40
1.5
 40
4.5
 40
4.5
309
CELLMARGIN_END
 94
        6
 95
        1
302
GRIDFORMAT
  1
GRIDFORMAT_BEGIN
 90
        0
 91
        1
 62
     0
 92
       -2
340
14
 93
        0
 40
1.125
309
GRIDFORMAT_END
 95
        2
302
GRIDFORMAT
  1
GRIDFORMAT_BEGIN
 90
        0
 91
        1
 62
     0
 92
       -2
340
14
 93
        0
 40
1.125
309
GRIDFORMAT_END
 95
        4
302
GRIDFORMAT
  1
GRIDFORMAT_BEGIN
 90
        0
 91
        1
 62
     0
 92
       -2
340
14
 93
        0
 40
1.125
309
GRIDFORMAT_END
 95
        8
302
GRIDFORMAT
  1
GRIDFORMAT_BEGIN
 90
        0
 91
        1
 62
     0
 92
       -2
340
14
 93
        0
 40
1.125
309
GRIDFORMAT_END
 95
       16
302
GRIDFORMAT
  1
GRIDFORMAT_BEGIN
 90
        0
 91
        1
 62
     0
 92
       -2
340
14
 93
        0
 40
1.125
309
GRIDFORMAT_END
 95
       32
302
GRIDFORMAT
  1
GRIDFORMAT_BEGIN
 90
        0
 91
        1
 62
     0
 92
       -2
340
14
 93
        0
 40
1.125
309
GRIDFORMAT_END
309
TABLEFORMAT_END
  1
CELLSTYLE_BEGIN
 90
        1
 91
        1
300
_TITLE
309
CELLSTYLE_END
300
CELLSTYLE
  1
TABLEFORMAT_BEGIN
 90
        5
170
     1
 91
        0
 92
        0
 62
   257
 93
        1
300
CONTENTFORMAT
  1
CONTENTFORMAT_BEGIN
 90
        0
 91
        0
 92
      512
 93
        0
300

 40
0.0
140
1.0
 94
        5
 62
     0
340
11
144
4.5
309
CONTENTFORMAT_END
171
     1
301
MARGIN
  1
CELLMARGIN_BEGIN
 40
1.5
 40
1.5
 40
1.5
 40
1.5
 40
4.5
 40
4.5
309
CELLMARGIN_END
 94
        6
 95
        1
302
GRIDFORMAT
  1
GRIDFORMAT_BEGIN
 90
        0
 91
        1
 62
     0
 92
       -2
340
14
 93
        0
 40
1.125
309
GRIDFORMAT_END
 95
        2
302
GRIDFORMAT
  1
GRIDFORMAT_BEGIN
 90
        0
 91
        1
 62
     0
 92
       -2
340
14
 93
        0
 40
1.125
309
GRIDFORMAT_END
 95
        4
302
GRIDFORMAT
  1
GRIDFORMAT_BEGIN
 90
        0
 91
        1
 62
     0
 92
       -2
340
14
 93
        0
 40
1.125
309
GRIDFORMAT_END
 95
        8
302
GRIDFORMAT
  1
GRIDFORMAT_BEGIN
 90
        0
 91
        1
 62
     0
 92
       -2
340
14
 93
        0
 40
1.125
309
GRIDFORMAT_END
 95
       16
302
GRIDFORMAT
  1
GRIDFORMAT_BEGIN
 90
        0
 91
        1
 62
     0
 92
       -2
340
14
 93
        0
 40
1.125
309
GRIDFORMAT_END
 95
       32
302
GRIDFORMAT
  1
GRIDFORMAT_BEGIN
 90
        0
 91
        1
 62
     0
 92
       -2
340
14
 93
        0
 40
1.125
309
GRIDFORMAT_END
309
TABLEFORMAT_END
  1
CELLSTYLE_BEGIN
 90
        2
 91
        1
300
_HEADER
309
CELLSTYLE_END
300
CELLSTYLE
  1
TABLEFORMAT_BEGIN
 90
        5
170
     1
 91
        0
 92
        0
 62
   257
 93
        1
300
CONTENTFORMAT
  1
CONTENTFORMAT_BEGIN
 90
        0
 91
        0
 92
      512
 93
        0
300

 40
0.0
140
1.0
 94
        2
 62
     0
340
11
144
4.5
309
CONTENTFORMAT_END
171
     1
301
MARGIN
  1
CELLMARGIN_BEGIN
 40
1.5
 40
1.5
 40
1.5
 40
1.5
 40
4.5
 40
4.5
309
CELLMARGIN_END
 94
        6
 95
        1
302
GRIDFORMAT
  1
GRIDFORMAT_BEGIN
 90
        0
 91
        1
 62
     0
 92
       -2
340
14
 93
        0
 40
1.125
309
GRIDFORMAT_END
 95
        2
302
GRIDFORMAT
  1
GRIDFORMAT_BEGIN
 90
        0
 91
        1
 62
     0
 92
       -2
340
14
 93
        0
 40
1.125
309
GRIDFORMAT_END
 95
        4
302
GRIDFORMAT
  1
GRIDFORMAT_BEGIN
 90
        0
 91
        1
 62
     0
 92
       -2
340
14
 93
        0
 40
1.125
309
GRIDFORMAT_END
 95
        8
302
GRIDFORMAT
  1
GRIDFORMAT_BEGIN
 90
        0
 91
        1
 62
     0
 92
       -2
340
14
 93
        0
 40
1.125
309
GRIDFORMAT_END
 95
       16
302
GRIDFORMAT
  1
GRIDFORMAT_BEGIN
 90
        0
 91
        1
 62
     0
 92
       -2
340
14
 93
        0
 40
1.125
309
GRIDFORMAT_END
 95
       32
302
GRIDFORMAT
  1
GRIDFORMAT_BEGIN
 90
        0
 91
        1
 62
     0
 92
       -2
340
14
 93
        0
 40
1.125
309
GRIDFORMAT_END
309
TABLEFORMAT_END
  1
CELLSTYLE_BEGIN
 90
        3
 91
        2
300
_DATA
309
CELLSTYLE_END
  0
XRECORD
  5
91E
102
{ACAD_REACTORS
330
162
102
}
330
162
100
AcDbXrecord
280
     1
102
ACAD_ROUNDTRIP_PRE2007_TABLESTYLE
 90
      512
 91
        0
  1

 92
      512
 93
        0
  2

 94
      512
 95
        0
  3

  0
ENDSEC
  0
EOF
